  0
SECTION
  2
HEADER
  9
$ACADVER
  1
AC1015
  9
$ACADMAINTVER
 70
    20
  9
$DWGCODEPAGE
  3
ANSI_932
  9
$INSBASE
 10
0.0
 20
0.0
 30
0.0
  9
$EXTMIN
 10
10.0
 20
9.999999999999998
 30
0.0
  9
$EXTMAX
 10
332.807587
 20
293.122023
 30
0.0
  9
$LIMMIN
 10
0.0
 20
0.0
  9
$LIMMAX
 10
495.0
 20
341.25
  9
$ORTHOMODE
 70
     1
  9
$REGENMODE
 70
     1
  9
$FILLMODE
 70
     1
  9
$QTEXTMODE
 70
     0
  9
$MIRRTEXT
 70
     1
  9
$LTSCALE
 40
20.0
  9
$ATTMODE
 70
     1
  9
$TEXTSIZE
 40
5.0
  9
$TRACEWID
 40
1.0
  9
$TEXTSTYLE
  7
STANDARD
  9
$CLAYER
  8
0
  9
$CELTYPE
  6
BYLAYER
  9
$CECOLOR
 62
   256
  9
$CELTSCALE
 40
1.0
  9
$DISPSILH
 70
     0
  9
$DIMSCALE
 40
1.0
  9
$DIMASZ
 40
3.0
  9
$DIMEXO
 40
1.0
  9
$DIMDLI
 40
10.0
  9
$DIMRND
 40
0.0
  9
$DIMDLE
 40
0.0
  9
$DIMEXE
 40
1.0
  9
$DIMTP
 40
0.0
  9
$DIMTM
 40
0.0
  9
$DIMTXT
 40
3.2
  9
$DIMCEN
 40
0.0
  9
$DIMTSZ
 40
0.0
  9
$DIMTOL
 70
     0
  9
$DIMLIM
 70
     0
  9
$DIMTIH
 70
     0
  9
$DIMTOH
 70
     0
  9
$DIMSE1
 70
     0
  9
$DIMSE2
 70
     0
  9
$DIMTAD
 70
     3
  9
$DIMZIN
 70
     8
  9
$DIMBLK
  1

  9
$DIMASO
 70
     1
  9
$DIMSHO
 70
     1
  9
$DIMPOST
  1

  9
$DIMAPOST
  1

  9
$DIMALT
 70
     0
  9
$DIMALTD
 70
     2
  9
$DIMALTF
 40
25.4
  9
$DIMLFAC
 40
1.0
  9
$DIMTOFL
 70
     1
  9
$DIMTVP
 40
0.0
  9
$DIMTIX
 70
     0
  9
$DIMSOXD
 70
     0
  9
$DIMSAH
 70
     1
  9
$DIMBLK1
  1
OPEN
  9
$DIMBLK2
  1
OPEN
  9
$DIMSTYLE
  2
STANDARD
  9
$DIMCLRD
 70
     0
  9
$DIMCLRE
 70
     0
  9
$DIMCLRT
 70
     0
  9
$DIMTFAC
 40
1.0
  9
$DIMGAP
 40
1.0
  9
$DIMJUST
 70
     0
  9
$DIMSD1
 70
     0
  9
$DIMSD2
 70
     0
  9
$DIMTOLJ
 70
     1
  9
$DIMTZIN
 70
     0
  9
$DIMALTZ
 70
     0
  9
$DIMALTTZ
 70
     0
  9
$DIMUPT
 70
     0
  9
$DIMDEC
 70
     4
  9
$DIMTDEC
 70
     4
  9
$DIMALTU
 70
     2
  9
$DIMALTTD
 70
     2
  9
$DIMTXSTY
  7
STANDARD
  9
$DIMAUNIT
 70
     0
  9
$DIMADEC
 70
     0
  9
$DIMALTRND
 40
0.0
  9
$DIMAZIN
 70
     0
  9
$DIMDSEP
 70
    46
  9
$DIMATFIT
 70
     3
  9
$DIMFRAC
 70
     0
  9
$DIMLDRBLK
  1
OPEN
  9
$DIMLUNIT
 70
     2
  9
$DIMLWD
 70
    -2
  9
$DIMLWE
 70
    -2
  9
$DIMTMOVE
 70
     0
  9
$LUNITS
 70
     2
  9
$LUPREC
 70
     4
  9
$SKETCHINC
 40
1.0
  9
$FILLETRAD
 40
4.0
  9
$AUNITS
 70
     0
  9
$AUPREC
 70
     2
  9
$MENU
  1
.
  9
$ELEVATION
 40
0.0
  9
$PELEVATION
 40
0.0
  9
$THICKNESS
 40
0.0
  9
$LIMCHECK
 70
     0
  9
$CHAMFERA
 40
10.0
  9
$CHAMFERB
 40
10.0
  9
$CHAMFERC
 40
0.0
  9
$CHAMFERD
 40
0.0
  9
$SKPOLY
 70
     0
  9
$TDCREATE
 40
2451302.654148611
  9
$TDUCREATE
 40
2451302.279148611
  9
$TDUPDATE
 40
2457192.687638819
  9
$TDUUPDATE
 40
2457192.312638819
  9
$TDINDWG
 40
0.0000099769
  9
$TDUSRTIMER
 40
0.0000096644
  9
$USRTIMER
 70
     1
  9
$ANGBASE
 50
0.0
  9
$ANGDIR
 70
     0
  9
$PDMODE
 70
     0
  9
$PDSIZE
 40
0.0
  9
$PLINEWID
 40
0.0
  9
$SPLFRAME
 70
     0
  9
$SPLINETYPE
 70
     6
  9
$SPLINESEGS
 70
     8
  9
$HANDSEED
  5
A665
  9
$SURFTAB1
 70
     6
  9
$SURFTAB2
 70
     6
  9
$SURFTYPE
 70
     6
  9
$SURFU
 70
     6
  9
$SURFV
 70
     6
  9
$UCSBASE
  2

  9
$UCSNAME
  2

  9
$UCSORG
 10
0.0
 20
0.0
 30
0.0
  9
$UCSXDIR
 10
1.0
 20
0.0
 30
0.0
  9
$UCSYDIR
 10
0.0
 20
1.0
 30
0.0
  9
$UCSORTHOREF
  2

  9
$UCSORTHOVIEW
 70
     0
  9
$UCSORGTOP
 10
0.0
 20
0.0
 30
0.0
  9
$UCSORGBOTTOM
 10
0.0
 20
0.0
 30
0.0
  9
$UCSORGLEFT
 10
0.0
 20
0.0
 30
0.0
  9
$UCSORGRIGHT
 10
0.0
 20
0.0
 30
0.0
  9
$UCSORGFRONT
 10
0.0
 20
0.0
 30
0.0
  9
$UCSORGBACK
 10
0.0
 20
0.0
 30
0.0
  9
$PUCSBASE
  2

  9
$PUCSNAME
  2

  9
$PUCSORG
 10
0.0
 20
0.0
 30
0.0
  9
$PUCSXDIR
 10
1.0
 20
0.0
 30
0.0
  9
$PUCSYDIR
 10
0.0
 20
1.0
 30
0.0
  9
$PUCSORTHOREF
  2

  9
$PUCSORTHOVIEW
 70
     0
  9
$PUCSORGTOP
 10
0.0
 20
0.0
 30
0.0
  9
$PUCSORGBOTTOM
 10
0.0
 20
0.0
 30
0.0
  9
$PUCSORGLEFT
 10
0.0
 20
0.0
 30
0.0
  9
$PUCSORGRIGHT
 10
0.0
 20
0.0
 30
0.0
  9
$PUCSORGFRONT
 10
0.0
 20
0.0
 30
0.0
  9
$PUCSORGBACK
 10
0.0
 20
0.0
 30
0.0
  9
$USERI1
 70
     0
  9
$USERI2
 70
     0
  9
$USERI3
 70
     0
  9
$USERI4
 70
     0
  9
$USERI5
 70
     0
  9
$USERR1
 40
0.0
  9
$USERR2
 40
0.0
  9
$USERR3
 40
0.0
  9
$USERR4
 40
0.0
  9
$USERR5
 40
0.0
  9
$WORLDVIEW
 70
     1
  9
$SHADEDGE
 70
     3
  9
$SHADEDIF
 70
    70
  9
$TILEMODE
 70
     1
  9
$MAXACTVP
 70
    16
  9
$PINSBASE
 10
0.0
 20
0.0
 30
0.0
  9
$PLIMCHECK
 70
     0
  9
$PEXTMIN
 10
1.000000000000000E+20
 20
1.000000000000000E+20
 30
1.000000000000000E+20
  9
$PEXTMAX
 10
-1.000000000000000E+20
 20
-1.000000000000000E+20
 30
-1.000000000000000E+20
  9
$PLIMMIN
 10
0.0
 20
0.0
  9
$PLIMMAX
 10
420.0
 20
297.0
  9
$UNITMODE
 70
     0
  9
$VISRETAIN
 70
     0
  9
$PLINEGEN
 70
     0
  9
$PSLTSCALE
 70
     0
  9
$TREEDEPTH
 70
  3020
  9
$CMLSTYLE
  2
STANDARD
  9
$CMLJUST
 70
     0
  9
$CMLSCALE
 40
1.0
  9
$PROXYGRAPHICS
 70
     1
  9
$MEASUREMENT
 70
     0
  9
$CELWEIGHT
370
    -1
  9
$ENDCAPS
280
     0
  9
$JOINSTYLE
280
     0
  9
$LWDISPLAY
290
     0
  9
$INSUNITS
 70
     0
  9
$HYPERLINKBASE
  1

  9
$STYLESHEET
  1

  9
$XEDIT
290
     1
  9
$CEPSNTYPE
380
     0
  9
$PSTYLEMODE
290
     1
  9
$FINGERPRINTGUID
  2
{D1DB0621-4275-4FA0-8F88-587D56643B96}
  9
$VERSIONGUID
  2
{A50476CE-1BBA-4D0B-9060-CC28B8FD709A}
  9
$EXTNAMES
290
     1
  9
$PSVPSCALE
 40
0.0
  9
$OLESTARTUP
290
     0
  0
ENDSEC
  0
SECTION
  2
CLASSES
  0
CLASS
  1
ACDBDICTIONARYWDFLT
  2
AcDbDictionaryWithDefault
  3
ObjectDBX Classes
 90
        0
280
     0
281
     0
  0
CLASS
  1
ACDBPLACEHOLDER
  2
AcDbPlaceHolder
  3
ObjectDBX Classes
 90
        0
280
     0
281
     0
  0
CLASS
  1
LAYOUT
  2
AcDbLayout
  3
ObjectDBX Classes
 90
        0
280
     0
281
     0
  0
CLASS
  1
DICTIONARYVAR
  2
AcDbDictionaryVar
  3
ObjectDBX Classes
 90
        0
280
     0
281
     0
  0
CLASS
  1
MATERIAL
  2
AcDbMaterial
  3
ObjectDBX Classes
 90
     1153
280
     0
281
     0
  0
CLASS
  1
VISUALSTYLE
  2
AcDbVisualStyle
  3
ObjectDBX Classes
 90
     4095
280
     0
281
     0
  0
CLASS
  1
TABLESTYLE
  2
AcDbTableStyle
  3
ObjectDBX Classes
 90
     4095
280
     0
281
     0
  0
CLASS
  1
SCALE
  2
AcDbScale
  3
ObjectDBX Classes
 90
     1153
280
     0
281
     0
  0
CLASS
  1
MLEADERSTYLE
  2
AcDbMLeaderStyle
  3
ACDB_MLEADERSTYLE_CLASS
 90
     4095
280
     0
281
     0
  0
CLASS
  1
ACDBSECTIONVIEWSTYLE
  2
AcDbSectionViewStyle
  3
ObjectDBX Classes
 90
     1025
280
     0
281
     0
  0
CLASS
  1
ACDBDETAILVIEWSTYLE
  2
AcDbDetailViewStyle
  3
ObjectDBX Classes
 90
     1025
280
     0
281
     0
  0
CLASS
  1
CELLSTYLEMAP
  2
AcDbCellStyleMap
  3
ObjectDBX Classes
 90
     1152
280
     0
281
     0
  0
ENDSEC
  0
SECTION
  2
TABLES
  0
TABLE
  2
VPORT
  5
A332
330
0
100
AcDbSymbolTable
 70
     1
  0
VPORT
  5
A5AE
330
A332
100
AcDbSymbolTableRecord
100
AcDbViewportTableRecord
  2
*ACTIVE
 70
     0
 10
0.0
 20
0.0
 11
1.0
 21
1.0
 12
257.1665729740494
 22
151.5671547030123
 13
0.0
 23
0.0
 14
10.0
 24
10.0
 15
10.0
 25
10.0
 16
0.0
 26
0.0
 36
1.0
 17
0.0
 27
0.0
 37
0.0
 40
286.2888588406017
 41
2.35006605019815
 42
50.0
 43
0.0
 44
0.0
 50
0.0
 51
0.0
 71
     0
 72
   100
 73
     1
 74
     0
 75
     0
 76
     0
 77
     0
 78
     0
281
     0
 65
     1
110
0.0
120
0.0
130
0.0
111
1.0
121
0.0
131
0.0
112
0.0
122
1.0
132
0.0
 79
     0
146
0.0
1001
ACAD_NAV_VCDISPLAY
1070
     3
  0
ENDTAB
  0
TABLE
  2
LTYPE
  5
A32F
330
0
100
AcDbSymbolTable
 70
     4
  0
LTYPE
  5
A33D
330
A32F
100
AcDbSymbolTableRecord
100
AcDbLinetypeTableRecord
  2
BYBLOCK
 70
     0
  3

 72
    65
 73
     0
 40
0.0
  0
LTYPE
  5
A33E
330
A32F
100
AcDbSymbolTableRecord
100
AcDbLinetypeTableRecord
  2
BYLAYER
 70
     0
  3

 72
    65
 73
     0
 40
0.0
  0
LTYPE
  5
A33F
330
A32F
100
AcDbSymbolTableRecord
100
AcDbLinetypeTableRecord
  2
CONTINUOUS
 70
     0
  3
Solid line
 72
    65
 73
     0
 40
0.0
  0
LTYPE
  5
A34D
330
A32F
100
AcDbSymbolTableRecord
100
AcDbLinetypeTableRecord
  2
DASHED
 70
     0
  3
__ __ __ __ __ __ __ __ __ __ __ __ __ __ __ __
 72
    65
 73
     2
 40
0.75
 49
0.5
 74
     0
 49
-0.25
 74
     0
  0
LTYPE
  5
A34E
330
A32F
100
AcDbSymbolTableRecord
100
AcDbLinetypeTableRecord
  2
CENTER
 70
     0
  3
____ _ ____ _ ____ _ ____ _ ____ _ ____ _ ____ 
 72
    65
 73
     4
 40
2.0
 49
1.25
 74
     0
 49
-0.25
 74
     0
 49
0.25
 74
     0
 49
-0.25
 74
     0
  0
LTYPE
  5
A34F
330
A32F
100
AcDbSymbolTableRecord
100
AcDbLinetypeTableRecord
  2
PHANTOM
 70
     0
  3
______  __  __  ______  __  __  ______  __  __ 
 72
    65
 73
     6
 40
2.5
 49
1.25
 74
     0
 49
-0.25
 74
     0
 49
0.25
 74
     0
 49
-0.25
 74
     0
 49
0.25
 74
     0
 49
-0.25
 74
     0
  0
ENDTAB
  0
TABLE
  2
LAYER
  5
A32C
330
0
100
AcDbSymbolTable
 70
     8
  0
LAYER
  5
A33A
102
{ACAD_XDICTIONARY
360
A609
102
}
330
A32C
100
AcDbSymbolTableRecord
100
AcDbLayerTableRecord
  2
0
 70
     0
 62
     7
  6
CONTINUOUS
370
    -3
390
A5B7
  0
LAYER
  5
A350
102
{ACAD_XDICTIONARY
360
A60B
102
}
330
A32C
100
AcDbSymbolTableRecord
100
AcDbLayerTableRecord
  2
4
 70
     0
 62
     1
  6
CENTER
370
    -3
390
A5B7
  0
LAYER
  5
A351
102
{ACAD_XDICTIONARY
360
A60D
102
}
330
A32C
100
AcDbSymbolTableRecord
100
AcDbLayerTableRecord
  2
5
 70
     0
 62
     6
  6
PHANTOM
370
    -3
390
A5B7
  0
LAYER
  5
A352
102
{ACAD_XDICTIONARY
360
A60F
102
}
330
A32C
100
AcDbSymbolTableRecord
100
AcDbLayerTableRecord
  2
1
 70
     0
 62
     7
  6
CONTINUOUS
370
    -3
390
A5B7
  0
LAYER
  5
A353
102
{ACAD_XDICTIONARY
360
A611
102
}
330
A32C
100
AcDbSymbolTableRecord
100
AcDbLayerTableRecord
  2
2
 70
     0
 62
     4
  6
CONTINUOUS
370
    -3
390
A5B7
  0
LAYER
  5
A354
102
{ACAD_XDICTIONARY
360
A613
102
}
330
A32C
100
AcDbSymbolTableRecord
100
AcDbLayerTableRecord
  2
3
 70
     0
 62
     2
  6
DASHED
370
    -3
390
A5B7
  0
LAYER
  5
A355
102
{ACAD_XDICTIONARY
360
A615
102
}
330
A32C
100
AcDbSymbolTableRecord
100
AcDbLayerTableRecord
  2
6
 70
     0
 62
     5
  6
CONTINUOUS
370
    -3
390
A5B7
  0
LAYER
  5
A356
102
{ACAD_XDICTIONARY
360
A617
102
}
330
A32C
100
AcDbSymbolTableRecord
100
AcDbLayerTableRecord
  2
7
 70
     0
 62
     3
  6
CONTINUOUS
370
    -3
390
A5B7
  0
ENDTAB
  0
TABLE
  2
STYLE
  5
A32D
330
0
100
AcDbSymbolTable
 70
     1
  0
STYLE
  5
A33B
330
A32D
100
AcDbSymbolTableRecord
100
AcDbTextStyleTableRecord
  2
STANDARD
 70
     0
 40
0.0
 41
1.0
 50
0.0
 71
     0
 42
5.0
  3
txt
  4

  0
ENDTAB
  0
TABLE
  2
VIEW
  5
A330
330
0
100
AcDbSymbolTable
 70
     0
  0
ENDTAB
  0
TABLE
  2
UCS
  5
A331
330
0
100
AcDbSymbolTable
 70
     0
  0
ENDTAB
  0
TABLE
  2
APPID
  5
A333
330
0
100
AcDbSymbolTable
 70
     3
  0
APPID
  5
A33C
330
A333
100
AcDbSymbolTableRecord
100
AcDbRegAppTableRecord
  2
ACAD
 70
     0
  0
APPID
  5
A623
330
A333
100
AcDbSymbolTableRecord
100
AcDbRegAppTableRecord
  2
ACAD_NAV_VCDISPLAY
 70
     0
  0
APPID
  5
A65C
330
A333
100
AcDbSymbolTableRecord
100
AcDbRegAppTableRecord
  2
ACAD_MLEADERVER
 70
     0
  0
ENDTAB
  0
TABLE
  2
DIMSTYLE
  5
A334
330
0
100
AcDbSymbolTable
 70
     1
100
AcDbDimStyleTable
 71
     0
  0
DIMSTYLE
105
A358
330
A334
100
AcDbSymbolTableRecord
100
AcDbDimStyleTableRecord
  2
STANDARD
 70
     0
 41
3.0
 42
1.0
 43
10.0
 44
1.0
 73
     0
 74
     0
 77
     3
 78
     8
140
3.2
141
0.0
147
1.0
172
     1
173
     1
284
     8
285
     8
286
     8
340
A33B
  0
ENDTAB
  0
TABLE
  2
BLOCK_RECORD
  5
A32B
330
0
100
AcDbSymbolTable
 70
     1
  0
BLOCK_RECORD
  5
A348
102
{ACAD_XDICTIONARY
360
A5B1
102
}
330
A32B
100
AcDbSymbolTableRecord
100
AcDbBlockTableRecord
  2
*MODEL_SPACE
340
A605
  0
BLOCK_RECORD
  5
A344
102
{ACAD_XDICTIONARY
360
A5AF
102
}
330
A32B
100
AcDbSymbolTableRecord
100
AcDbBlockTableRecord
  2
*PAPER_SPACE
340
A606
  0
BLOCK_RECORD
  5
A360
330
A32B
100
AcDbSymbolTableRecord
100
AcDbBlockTableRecord
  2
_OPEN
340
0
  0
ENDTAB
  0
ENDSEC
  0
SECTION
  2
BLOCKS
  0
BLOCK
  5
A349
330
A348
100
AcDbEntity
  8
0
100
AcDbBlockBegin
  2
*MODEL_SPACE
 70
     0
 10
0.0
 20
0.0
 30
0.0
  3
*MODEL_SPACE
  1

  0
ENDBLK
  5
A34A
330
A348
100
AcDbEntity
  8
0
100
AcDbBlockEnd
  0
BLOCK
  5
A345
330
A344
100
AcDbEntity
 67
     1
  8
0
100
AcDbBlockBegin
  2
*PAPER_SPACE
 70
     0
 10
0.0
 20
0.0
 30
0.0
  3
*PAPER_SPACE
  1

  0
ENDBLK
  5
A346
330
A344
100
AcDbEntity
 67
     1
  8
0
100
AcDbBlockEnd
  0
BLOCK
  5
A361
330
A360
100
AcDbEntity
  8
0
100
AcDbBlockBegin
  2
_OPEN
 70
     0
 10
0.0
 20
0.0
 30
0.0
  3
_OPEN
  1

  0
LINE
  5
A362
330
A360
100
AcDbEntity
  8
0
  6
ByBlock
 62
     0
100
AcDbLine
 10
-1.0
 20
0.166667
 30
0.0
 11
0.0
 21
0.0
 31
0.0
  0
LINE
  5
A363
330
A360
100
AcDbEntity
  8
0
  6
ByBlock
 62
     0
100
AcDbLine
 10
0.0
 20
0.0
 30
0.0
 11
-1.0
 21
-0.166667
 31
0.0
  0
LINE
  5
A364
330
A360
100
AcDbEntity
  8
0
  6
ByBlock
 62
     0
100
AcDbLine
 10
0.0
 20
0.0
 30
0.0
 11
-1.0
 21
0.0
 31
0.0
  0
ENDBLK
  5
A365
330
A360
100
AcDbEntity
  8
0
100
AcDbBlockEnd
  0
ENDSEC
  0
SECTION
  2
ENTITIES
  0
TEXT
  5
A366
330
A348
100
AcDbEntity
  8
7
  6
Continuous
100
AcDbText
 10
10.0
 20
18.0
 30
0.0
 40
3.0
  1
TYPE No.202 d=19
100
AcDbText
  0
TEXT
  5
A367
330
A348
100
AcDbEntity
  8
7
  6
Continuous
100
AcDbText
 10
10.0
 20
26.0
 30
0.0
 40
3.0
  1
CODE No.9155
100
AcDbText
  0
TEXT
  5
A368
330
A348
100
AcDbEntity
  8
1
  6
Continuous
100
AcDbText
 10
10.0
 20
10.0
 30
0.0
 40
1.399999999999999
  1
LAYER
100
AcDbText
  0
TEXT
  5
A369
330
A348
100
AcDbEntity
  8
1
  6
Continuous
100
AcDbText
 10
17.97951099999998
 20
10.04873699999998
 30
0.0
 40
1.399999999999999
  1
1
100
AcDbText
  0
TEXT
  5
A36A
330
A348
100
AcDbEntity
  8
7
  6
Continuous
100
AcDbText
 10
29.97951099999999
 20
10.04873699999998
 30
0.0
 40
1.399999999999999
  1
7
100
AcDbText
  0
TEXT
  5
A36B
330
A348
100
AcDbEntity
  8
4
  6
CENTER
100
AcDbText
 10
23.97951099999999
 20
10.04873699999998
 30
0.0
 40
1.399999999999999
  1
4
100
AcDbText
  0
TEXT
  5
A36C
330
A348
100
AcDbEntity
  8
3
  6
DASHED
100
AcDbText
 10
21.979511
 20
10.04873699999998
 30
0.0
 40
1.399999999999999
  1
3
100
AcDbText
  0
TEXT
  5
A36D
330
A348
100
AcDbEntity
  8
2
  6
Continuous
100
AcDbText
 10
19.97951099999999
 20
10.04873699999998
 30
0.0
 40
1.399999999999999
  1
2
100
AcDbText
  0
TEXT
  5
A36E
330
A348
100
AcDbEntity
  8
6
  6
Continuous
100
AcDbText
 10
27.979511
 20
10.04873699999998
 30
0.0
 40
1.399999999999999
  1
6
100
AcDbText
  0
TEXT
  5
A36F
330
A348
100
AcDbEntity
  8
5
  6
PHANTOM
100
AcDbText
 10
25.97951099999999
 20
10.04873699999998
 30
0.0
 40
1.399999999999999
  1
5
100
AcDbText
  0
LINE
  5
A370
330
A348
100
AcDbEntity
  8
4
  6
CENTER
100
AcDbLine
 10
146.3897609999999
 20
141.379624
 30
0.0
 11
100.3897609999998
 21
141.379624
 31
0.0
  0
LINE
  5
A371
330
A348
100
AcDbEntity
  8
1
  6
Continuous
100
AcDbLine
 10
124.621729
 20
165.884078
 30
0.0
 11
121.426409
 21
165.8058889999998
 31
0.0
  0
LINE
  5
A372
330
A348
100
AcDbEntity
  8
1
  6
Continuous
100
AcDbLine
 10
122.6142639999999
 20
163.916532
 30
0.0
 11
120.8674169999998
 21
163.8893149999999
 31
0.0
  0
ARC
  5
A373
330
A348
100
AcDbEntity
  8
1
  6
Continuous
100
AcDbCircle
 10
122.639761
 20
140.6096239999999
 30
0.0
 40
7.0
100
AcDbArc
 50
163.200454
 51
297.4158479999999
  0
ARC
  5
A374
330
A348
100
AcDbEntity
  8
1
  6
Continuous
100
AcDbCircle
 10
123.3897609999999
 20
141.379624
 30
0.0
 40
8.5
100
AcDbArc
 50
134.360001
 51
346.2696789999998
  0
ARC
  5
A375
330
A348
100
AcDbEntity
  8
1
  6
Continuous
100
AcDbCircle
 10
123.3897609999999
 20
141.379624
 30
0.0
 40
13.5
100
AcDbArc
 50
106.312717
 51
15.276205
  0
ARC
  5
A376
330
A348
100
AcDbEntity
  8
1
  6
Continuous
100
AcDbCircle
 10
123.3897609999999
 20
141.379624
 30
0.0
 40
20.0
100
AcDbArc
 50
94.616828
 51
28.49641599999999
  0
LINE
  5
A377
330
A348
100
AcDbEntity
  8
4
  6
CENTER
100
AcDbLine
 10
123.3897609999999
 20
118.3796239999998
 30
0.0
 11
123.3897609999999
 21
164.379624
 31
0.0
  0
LINE
  5
A378
330
A348
100
AcDbEntity
  8
4
  6
CENTER
100
AcDbLine
 10
142.389761
 20
218.379633
 30
0.0
 11
142.389761
 21
149.571809
 31
0.0
  0
LINE
  5
A379
330
A348
100
AcDbEntity
  8
1
  6
Continuous
100
AcDbLine
 10
130.3067149999999
 20
160.235704
 30
0.0
 11
130.3067149999999
 21
143.9688539999998
 31
0.0
  0
ARC
  5
A37A
330
A348
100
AcDbEntity
  8
1
  6
Continuous
100
AcDbCircle
 10
226.561743
 20
82.551573
 30
0.0
 40
109.54901
100
AcDbArc
 50
135.068663
 51
142.550598
  0
ARC
  5
A37B
330
A348
100
AcDbEntity
  8
1
  6
Continuous
100
AcDbCircle
 10
312.067422
 20
17.060648
 30
0.0
 40
217.2536169999999
100
AcDbArc
 50
138.822846
 51
143.585047
  0
ARC
  5
A37C
330
A348
100
AcDbEntity
  8
1
  6
Continuous
100
AcDbCircle
 10
80.801327
 20
187.6578969999999
 30
0.0
 40
70.12666800000001
100
AcDbArc
 50
312.857186
 51
323.5850469999999
  0
LINE
  5
A37D
330
A348
100
AcDbEntity
  8
1
  6
Continuous
100
AcDbLine
 10
158.339761
 20
162.4236379999999
 30
0.0
 11
154.215926
 21
162.4343969999999
 31
0.0
  0
LINE
  5
A37E
330
A348
100
AcDbEntity
  8
1
  6
Continuous
100
AcDbLine
 10
126.1397609999999
 20
168.846553
 30
0.0
 11
158.6397609999999
 21
168.846553
 31
0.0
  0
LINE
  5
A37F
330
A348
100
AcDbEntity
  8
1
  6
Continuous
100
AcDbLine
 10
157.882261
 20
162.489397
 30
0.0
 11
153.814256
 21
162.489397
 31
0.0
  0
ARC
  5
A380
330
A348
100
AcDbEntity
  8
1
  6
Continuous
100
AcDbCircle
 10
171.835372
 20
164.452619
 30
0.0
 40
12.165422
100
AcDbArc
 50
175.4450339999999
 51
183.2702319999999
  0
LINE
  5
A381
330
A348
100
AcDbEntity
  8
1
  6
Continuous
100
AcDbLine
 10
158.339761
 20
162.4236379999999
 30
0.0
 11
159.689761
 21
162.589622
 31
0.0
  0
LINE
  5
A382
330
A348
100
AcDbEntity
  8
1
  6
Continuous
100
AcDbLine
 10
159.689761
 20
162.589622
 30
0.0
 11
159.689761
 21
163.7586379999999
 31
0.0
  0
LINE
  5
A383
330
A348
100
AcDbEntity
  8
1
  6
Continuous
100
AcDbLine
 10
157.882261
 20
162.489397
 30
0.0
 11
158.339761
 21
162.4236379999999
 31
0.0
  0
ARC
  5
A384
330
A348
100
AcDbEntity
  8
1
  6
Continuous
100
AcDbCircle
 10
156.073895
 20
165.516661
 30
0.0
 40
3.635797999999998
100
AcDbArc
 50
358.456726
 51
35.58992999999999
  0
ARC
  5
A385
330
A348
100
AcDbEntity
  8
1
  6
Continuous
100
AcDbCircle
 10
156.6689949999999
 20
165.942553
 30
0.0
 40
2.903999999999999
100
AcDbArc
 50
35.58992999999999
 51
90.0
  0
ARC
  5
A386
330
A348
100
AcDbEntity
  8
1
  6
Continuous
100
AcDbCircle
 10
155.1949999999999
 20
153.747468
 30
0.0
 40
8.741928999999997
100
AcDbArc
 50
90.0
 51
135.068663
  0
ARC
  5
A387
330
A348
100
AcDbEntity
  8
1
  6
Continuous
100
AcDbCircle
 10
153.814256
 20
155.489397
 30
0.0
 40
7.0
100
AcDbArc
 50
90.0
 51
138.822846
  0
LINE
  5
A388
330
A348
100
AcDbEntity
  8
1
  6
Continuous
100
AcDbLine
 10
127.484196
 20
165.9541219999999
 30
0.0
 11
124.621729
 21
165.884078
 31
0.0
  0
ARC
  5
A389
330
A348
100
AcDbEntity
  8
1
  6
Continuous
100
AcDbCircle
 10
127.5129519999999
 20
167.346542
 30
0.0
 40
1.5
100
AcDbArc
 50
90.0
 51
181.970851
  0
ARC
  5
A38A
330
A348
100
AcDbEntity
  8
1
  6
Continuous
100
AcDbCircle
 10
127.4134179999998
 20
168.846553
 30
0.0
 40
2.893297
100
AcDbArc
 50
271.4017379999999
 51
344.468255
  0
ARC
  5
A38B
330
A348
100
AcDbEntity
  8
1
  6
Continuous
100
AcDbCircle
 10
124.8145499999999
 20
167.2536859999999
 30
0.0
 40
1.199999999999999
100
AcDbArc
 50
333.5657219999998
 51
1.970850999999999
  0
ARC
  5
A38C
330
A348
100
AcDbEntity
  8
1
  6
Continuous
100
AcDbCircle
 10
124.536975
 20
167.391683
 30
0.0
 40
1.509986
100
AcDbArc
 50
271.4017379999999
 51
333.5657219999998
  0
ARC
  5
A38D
330
A348
100
AcDbEntity
  8
1
  6
Continuous
100
AcDbCircle
 10
118.481709
 20
163.7428209999999
 30
0.0
 40
2.390200999999998
100
AcDbArc
 50
3.513819999999998
 51
22.028666
  0
LINE
  5
A38E
330
A348
100
AcDbEntity
  8
1
  6
Continuous
100
AcDbLine
 10
120.6974169999998
 20
164.6393149999999
 30
0.0
 11
120.6974169999998
 21
165.5285659999998
 31
0.0
  0
ARC
  5
A38F
330
A348
100
AcDbEntity
  8
1
  6
Continuous
100
AcDbCircle
 10
121.48836
 20
164.541043
 30
0.0
 40
1.265223999999999
100
AcDbArc
 50
91.40173799999999
 51
128.692501
  0
LINE
  5
A390
330
A348
100
AcDbEntity
  8
4
  6
CENTER
100
AcDbLine
 10
164.777261
 20
270.734523
 30
0.0
 11
98.389761
 21
270.734523
 31
0.0
  0
LINE
  5
A391
330
A348
100
AcDbEntity
  8
4
  6
CENTER
100
AcDbLine
 10
142.389761
 20
248.347023
 30
0.0
 11
142.389761
 21
293.122023
 31
0.0
  0
LINE
  5
A392
330
A348
100
AcDbEntity
  8
4
  6
CENTER
100
AcDbLine
 10
46.18084699999999
 20
218.379739
 30
0.0
 11
46.18084699999999
 21
118.3931429999999
 31
0.0
  0
LINE
  5
A393
330
A348
100
AcDbEntity
  8
1
  6
Continuous
100
AcDbLine
 10
54.680847
 20
159.0066179999998
 30
0.0
 11
54.680847
 21
123.7526589999999
 31
0.0
  0
LINE
  5
A394
330
A348
100
AcDbEntity
  8
1
  6
Continuous
100
AcDbLine
 10
37.680847
 20
159.0066179999998
 30
0.0
 11
37.680847
 21
123.7526589999999
 31
0.0
  0
LINE
  5
A395
330
A348
100
AcDbEntity
  8
1
  6
Continuous
100
AcDbLine
 10
63.480885
 20
165.846632
 30
0.0
 11
63.480851
 21
149.605764
 31
0.0
  0
LINE
  5
A396
330
A348
100
AcDbEntity
  8
1
  6
Continuous
100
AcDbLine
 10
28.880886
 20
165.846642
 30
0.0
 11
28.880867
 21
149.599073
 31
0.0
  0
LINE
  5
A397
330
A348
100
AcDbEntity
  8
1
  6
Continuous
100
AcDbLine
 10
58.18100600000001
 20
164.02866
 30
0.0
 11
58.18096999999998
 21
133.6096379999998
 31
0.0
  0
LINE
  5
A398
330
A348
100
AcDbEntity
  8
1
  6
Continuous
100
AcDbLine
 10
34.180689
 20
164.02866
 30
0.0
 11
34.18072399999999
 21
133.612176
 31
0.0
  0
LINE
  5
A399
330
A348
100
AcDbEntity
  8
1
  6
Continuous
100
AcDbLine
 10
56.29086
 20
163.38941
 30
0.0
 11
56.290826
 21
133.598227
 31
0.0
  0
LINE
  5
A39A
330
A348
100
AcDbEntity
  8
1
  6
Continuous
100
AcDbLine
 10
36.070834
 20
163.38941
 30
0.0
 11
36.070869
 21
133.6096379999998
 31
0.0
  0
LINE
  5
A39B
330
A348
100
AcDbEntity
  8
4
  6
CENTER
100
AcDbLine
 10
26.54394299999999
 20
141.3796379999998
 30
0.0
 11
65.76781700000001
 21
141.3796379999998
 31
0.0
  0
ARC
  5
A39C
330
A348
100
AcDbEntity
  8
1
  6
Continuous
100
AcDbCircle
 10
46.18084699999999
 20
151.379638
 30
0.0
 40
30.0
100
AcDbArc
 50
255.7818759999999
 51
284.218124
  0
ARC
  5
A39D
330
A348
100
AcDbEntity
  8
1
  6
Continuous
100
AcDbCircle
 10
20.584791
 20
133.6096379999998
 30
0.0
 40
13.60117699999998
100
AcDbArc
 50
1.591154999999999
 51
14.998938
  0
LINE
  5
A39E
330
A348
100
AcDbEntity
  8
1
  6
Continuous
100
AcDbLine
 10
36.680847
 20
148.379638
 30
0.0
 11
36.680847
 21
134.379638
 31
0.0
  0
ARC
  5
A39F
330
A348
100
AcDbEntity
  8
1
  6
Continuous
100
AcDbCircle
 10
39.18084699999999
 20
123.7526589999999
 30
0.0
 40
1.5
100
AcDbArc
 50
180.0
 51
255.7818759999999
  0
LINE
  5
A3A0
330
A348
100
AcDbEntity
  8
1
  6
Continuous
100
AcDbLine
 10
36.680847
 20
134.379638
 30
0.0
 11
37.680847
 21
133.379638
 31
0.0
  0
LINE
  5
A3A1
330
A348
100
AcDbEntity
  8
1
  6
Continuous
100
AcDbLine
 10
34.18072399999999
 20
133.6096379999998
 30
0.0
 11
36.070869
 21
133.6096379999998
 31
0.0
  0
ARC
  5
A3A2
330
A348
100
AcDbEntity
  8
1
  6
Continuous
100
AcDbCircle
 10
41.18068899999999
 20
141.3796379999998
 30
0.0
 40
9.0
100
AcDbArc
 50
151.821357
 51
208.178643
  0
ARC
  5
A3A3
330
A348
100
AcDbEntity
  8
1
  6
Continuous
100
AcDbCircle
 10
43.08145099999999
 20
149.949779
 30
0.0
 40
14.204913
100
AcDbArc
 50
181.414727
 51
216.5579559999999
  0
ARC
  5
A3A4
330
A348
100
AcDbEntity
  8
1
  6
Continuous
100
AcDbCircle
 10
20.57954099999999
 20
133.6096379999998
 30
0.0
 40
13.60117699999998
100
AcDbArc
 50
31.23398400000001
 51
35.40147000000001
  0
LINE
  5
A3A5
330
A348
100
AcDbEntity
  8
1
  6
Continuous
100
AcDbLine
 10
33.24737299999998
 20
145.6296379999998
 30
0.0
 11
33.24737299999998
 21
137.1296379999998
 31
0.0
  0
LINE
  5
A3A6
330
A348
100
AcDbEntity
  8
1
  6
Continuous
100
AcDbLine
 10
36.070834
 20
138.3796379999998
 30
0.0
 11
36.680847
 21
138.3796379999998
 31
0.0
  0
LINE
  5
A3A7
330
A348
100
AcDbEntity
  8
1
  6
Continuous
100
AcDbLine
 10
33.24737299999998
 20
137.1296379999998
 30
0.0
 11
34.180689
 21
137.1296379999998
 31
0.0
  0
LINE
  5
A3A8
330
A348
100
AcDbEntity
  8
1
  6
Continuous
100
AcDbLine
 10
36.070834
 20
144.379638
 30
0.0
 11
36.680847
 21
144.379638
 31
0.0
  0
LINE
  5
A3A9
330
A348
100
AcDbEntity
  8
1
  6
Continuous
100
AcDbLine
 10
33.24737299999998
 20
145.6296379999998
 30
0.0
 11
34.180689
 21
145.6296379999998
 31
0.0
  0
LINE
  5
A3AA
330
A348
100
AcDbEntity
  8
1
  6
Continuous
100
AcDbLine
 10
36.680847
 20
148.379638
 30
0.0
 11
37.680847
 21
149.379638
 31
0.0
  0
ARC
  5
A3AB
330
A348
100
AcDbEntity
  8
1
  6
Continuous
100
AcDbCircle
 10
71.848263
 20
133.6096379999998
 30
0.0
 40
13.667293
100
AcDbArc
 50
163.98786
 51
180.0
  0
LINE
  5
A3AC
330
A348
100
AcDbEntity
  8
1
  6
Continuous
100
AcDbLine
 10
55.68084699999999
 20
148.379638
 30
0.0
 11
55.68084699999999
 21
134.379638
 31
0.0
  0
ARC
  5
A3AD
330
A348
100
AcDbEntity
  8
1
  6
Continuous
100
AcDbCircle
 10
53.18084699999999
 20
123.7526589999999
 30
0.0
 40
1.5
100
AcDbArc
 50
284.218124
 51
0.0
  0
LINE
  5
A3AE
330
A348
100
AcDbEntity
  8
1
  6
Continuous
100
AcDbLine
 10
56.290826
 20
133.6096379999998
 30
0.0
 11
58.18096999999998
 21
133.6096379999998
 31
0.0
  0
LINE
  5
A3AF
330
A348
100
AcDbEntity
  8
1
  6
Continuous
100
AcDbLine
 10
55.68084699999999
 20
134.379638
 30
0.0
 11
54.680847
 21
133.379638
 31
0.0
  0
ARC
  5
A3B0
330
A348
100
AcDbEntity
  8
1
  6
Continuous
100
AcDbCircle
 10
49.280229
 20
149.9572249999999
 30
0.0
 40
14.20497099999999
100
AcDbArc
 50
323.5188219999999
 51
358.5822329999999
  0
LINE
  5
A3B1
330
A348
100
AcDbEntity
  8
1
  6
Continuous
100
AcDbLine
 10
55.68084699999999
 20
138.3796379999998
 30
0.0
 11
56.29086
 21
138.3796379999998
 31
0.0
  0
LINE
  5
A3B2
330
A348
100
AcDbEntity
  8
1
  6
Continuous
100
AcDbLine
 10
55.68084699999999
 20
144.379638
 30
0.0
 11
56.29086
 21
144.379638
 31
0.0
  0
ARC
  5
A3B3
330
A348
100
AcDbEntity
  8
1
  6
Continuous
100
AcDbCircle
 10
71.85321999999998
 20
133.6096379999998
 30
0.0
 40
13.667293
100
AcDbArc
 50
144.678686
 51
156.5128089999998
  0
ARC
  5
A3B4
330
A348
100
AcDbEntity
  8
1
  6
Continuous
100
AcDbCircle
 10
49.181413
 20
141.3796379999998
 30
0.0
 40
10.399624
100
AcDbArc
 50
337.379272
 51
22.62072799999998
  0
LINE
  5
A3B5
330
A348
100
AcDbEntity
  8
1
  6
Continuous
100
AcDbLine
 10
58.78100599999999
 20
145.3796379999998
 30
0.0
 11
58.78100599999999
 21
137.3796379999998
 31
0.0
  0
LINE
  5
A3B6
330
A348
100
AcDbEntity
  8
1
  6
Continuous
100
AcDbLine
 10
58.18100600000001
 20
137.3796379999998
 30
0.0
 11
58.78100599999999
 21
137.3796379999998
 31
0.0
  0
LINE
  5
A3B7
330
A348
100
AcDbEntity
  8
1
  6
Continuous
100
AcDbLine
 10
58.18100600000001
 20
145.3796379999998
 30
0.0
 11
58.78100599999999
 21
145.3796379999998
 31
0.0
  0
LINE
  5
A3B8
330
A348
100
AcDbEntity
  8
1
  6
Continuous
100
AcDbLine
 10
55.68084699999999
 20
148.379638
 30
0.0
 11
54.680847
 21
149.379638
 31
0.0
  0
LINE
  5
A3B9
330
A348
100
AcDbEntity
  8
1
  6
Continuous
100
AcDbLine
 10
40.03084699999997
 20
161.559908
 30
0.0
 11
52.330847
 21
161.559908
 31
0.0
  0
LINE
  5
A3BA
330
A348
100
AcDbEntity
  8
1
  6
Continuous
100
AcDbLine
 10
36.070834
 20
163.3599079999999
 30
0.0
 11
56.29086
 21
163.3599079999999
 31
0.0
  0
ARC
  5
A3BB
330
A348
100
AcDbEntity
  8
1
  6
Continuous
100
AcDbCircle
 10
46.18084699999999
 20
131.379638
 30
0.0
 40
30.0
100
AcDbArc
 50
75.78187599999998
 51
104.218124
  0
LINE
  5
A3BC
330
A348
100
AcDbEntity
  8
1
  6
Continuous
100
AcDbLine
 10
29.93084699999998
 20
168.8466379999999
 30
0.0
 11
62.430847
 21
168.8466379999999
 31
0.0
  0
LINE
  5
A3BD
330
A348
100
AcDbEntity
  8
1
  6
Continuous
100
AcDbLine
 10
36.57083399999999
 20
163.889411
 30
0.0
 11
55.79086
 21
163.889411
 31
0.0
  0
LINE
  5
A3BE
330
A348
100
AcDbEntity
  8
1
  6
Continuous
100
AcDbLine
 10
35.680689
 20
165.528662
 30
0.0
 11
56.68100599999998
 21
165.528662
 31
0.0
  0
ARC
  5
A3BF
330
A348
100
AcDbEntity
  8
1
  6
Continuous
100
AcDbCircle
 10
32.05451899999999
 20
165.6660389999998
 30
0.0
 40
3.180724999999998
100
AcDbArc
 50
89.48899500000001
 51
176.1191839999999
  0
LINE
  5
A3C0
330
A348
100
AcDbEntity
  8
1
  6
Continuous
100
AcDbLine
 10
42.43084699999999
 20
161.559908
 30
0.0
 11
40.68085599999998
 21
162.559908
 31
0.0
  0
ARC
  5
A3C1
330
A348
100
AcDbEntity
  8
1
  6
Continuous
100
AcDbCircle
 10
35.680689
 20
164.0286619999999
 30
0.0
 40
1.5
100
AcDbArc
 50
90.0
 51
179.1070109999998
  0
LINE
  5
A3C2
330
A348
100
AcDbEntity
  8
1
  6
Continuous
100
AcDbLine
 10
36.07083499999998
 20
162.434503
 30
0.0
 11
40.10373
 21
162.434503
 31
0.0
  0
ARC
  5
A3C3
330
A348
100
AcDbEntity
  8
1
  6
Continuous
100
AcDbCircle
 10
36.57083399999999
 20
163.389411
 30
0.0
 40
0.5
100
AcDbArc
 50
90.0
 51
179.1070109999998
  0
LINE
  5
A3C4
330
A348
100
AcDbEntity
  8
1
  6
Continuous
100
AcDbLine
 10
40.68085599999998
 20
162.559908
 30
0.0
 11
40.03084699999997
 21
161.559908
 31
0.0
  0
LINE
  5
A3C5
330
A348
100
AcDbEntity
  8
1
  6
Continuous
100
AcDbLine
 10
40.03084699999997
 20
161.559908
 30
0.0
 11
40.180847
 21
163.3599079999999
 31
0.0
  0
ARC
  5
A3C6
330
A348
100
AcDbEntity
  8
1
  6
Continuous
100
AcDbCircle
 10
39.18084699999999
 20
159.0066179999998
 30
0.0
 40
1.5
100
AcDbArc
 50
104.218124
 51
180.0
  0
LINE
  5
A3C7
330
A348
100
AcDbEntity
  8
1
  6
Continuous
100
AcDbLine
 10
44.43084699999999
 20
161.559908
 30
0.0
 11
46.18084699999999
 21
162.559908
 31
0.0
  0
LINE
  5
A3C8
330
A348
100
AcDbEntity
  8
1
  6
Continuous
100
AcDbLine
 10
47.930847
 20
161.559908
 30
0.0
 11
46.18084699999999
 21
162.559908
 31
0.0
  0
ARC
  5
A3C9
330
A348
100
AcDbEntity
  8
1
  6
Continuous
100
AcDbCircle
 10
56.68100599999998
 20
164.0286619999999
 30
0.0
 40
1.5
100
AcDbArc
 50
0.8929889999999998
 51
90.0
  0
LINE
  5
A3CA
330
A348
100
AcDbEntity
  8
1
  6
Continuous
100
AcDbLine
 10
52.257964
 20
162.434503
 30
0.0
 11
56.29085899999999
 21
162.434503
 31
0.0
  0
ARC
  5
A3CB
330
A348
100
AcDbEntity
  8
1
  6
Continuous
100
AcDbCircle
 10
53.18084699999999
 20
159.0066179999998
 30
0.0
 40
1.5
100
AcDbArc
 50
0.0
 51
75.78187599999998
  0
LINE
  5
A3CC
330
A348
100
AcDbEntity
  8
1
  6
Continuous
100
AcDbLine
 10
51.680839
 20
162.559908
 30
0.0
 11
52.330847
 21
161.559908
 31
0.0
  0
LINE
  5
A3CD
330
A348
100
AcDbEntity
  8
1
  6
Continuous
100
AcDbLine
 10
49.930847
 20
161.559908
 30
0.0
 11
51.680839
 21
162.559908
 31
0.0
  0
LINE
  5
A3CE
330
A348
100
AcDbEntity
  8
1
  6
Continuous
100
AcDbLine
 10
52.330847
 20
161.559908
 30
0.0
 11
52.180847
 21
163.3599079999999
 31
0.0
  0
ARC
  5
A3CF
330
A348
100
AcDbEntity
  8
1
  6
Continuous
100
AcDbCircle
 10
55.79086
 20
163.389411
 30
0.0
 40
0.5
100
AcDbArc
 50
0.8929889999999998
 51
90.0
  0
ARC
  5
A3D0
330
A348
100
AcDbEntity
  8
1
  6
Continuous
100
AcDbCircle
 10
60.30723100000001
 20
165.6659029999999
 30
0.0
 40
3.180861
100
AcDbArc
 50
3.916798
 51
90.51059299999998
  0
LINE
  5
A3D1
330
A348
100
AcDbEntity
  8
1
  6
Continuous
100
AcDbLine
 10
123.1977639999999
 20
165.849233
 30
0.0
 11
115.938508
 21
142.632793
 31
0.0
  0
ARC
  5
A3D2
330
A348
100
AcDbEntity
  8
1
  6
Continuous
100
AcDbCircle
 10
120.337534
 20
145.0480639999998
 30
0.0
 40
12.0
100
AcDbArc
 50
297.4158479999999
 51
312.857186
  0
LINE
  5
A3D3
330
A348
100
AcDbEntity
  8
4
  6
CENTER
100
AcDbLine
 10
164.689761
 20
64.02512299999999
 30
0.0
 11
98.389761
 21
64.02512299999999
 31
0.0
  0
LINE
  5
A3D4
330
A348
100
AcDbEntity
  8
4
  6
CENTER
100
AcDbLine
 10
142.389761
 20
86.325123
 30
0.0
 11
142.389761
 21
41.725123
 31
0.0
  0
LINE
  5
A3D5
330
A348
100
AcDbEntity
  8
1
  6
Continuous
100
AcDbLine
 10
202.0252049999998
 20
162.589622
 30
0.0
 11
231.172142
 21
162.589622
 31
0.0
  0
LINE
  5
A3D6
330
A348
100
AcDbEntity
  8
4
  6
CENTER
100
AcDbLine
 10
216.598674
 20
218.379739
 30
0.0
 11
216.598674
 21
118.3931429999999
 31
0.0
  0
LINE
  5
A3D7
330
A348
100
AcDbEntity
  8
4
  6
CENTER
100
AcDbLine
 10
236.2355779999998
 20
141.3796379999998
 30
0.0
 11
197.011704
 21
141.3796379999998
 31
0.0
  0
LINE
  5
A3D8
330
A348
100
AcDbEntity
  8
1
  6
Continuous
100
AcDbLine
 10
225.098674
 20
159.0066179999998
 30
0.0
 11
225.098674
 21
123.7526589999999
 31
0.0
  0
LINE
  5
A3D9
330
A348
100
AcDbEntity
  8
1
  6
Continuous
100
AcDbLine
 10
208.0986739999999
 20
159.0066179999998
 30
0.0
 11
208.0986739999999
 21
123.7526589999999
 31
0.0
  0
ARC
  5
A3DA
330
A348
100
AcDbEntity
  8
1
  6
Continuous
100
AcDbCircle
 10
216.598674
 20
151.379638
 30
0.0
 40
30.0
100
AcDbArc
 50
255.7818759999999
 51
284.218124
  0
ARC
  5
A3DB
330
A348
100
AcDbEntity
  8
1
  6
Continuous
100
AcDbCircle
 10
223.5986739999999
 20
123.7526589999999
 30
0.0
 40
1.5
100
AcDbArc
 50
284.218124
 51
0.0
  0
ARC
  5
A3DC
330
A348
100
AcDbEntity
  8
1
  6
Continuous
100
AcDbCircle
 10
209.5986739999999
 20
123.7526589999999
 30
0.0
 40
1.5
100
AcDbArc
 50
180.0
 51
255.7818759999999
  0
LINE
  5
A3DD
330
A348
100
AcDbEntity
  8
1
  6
Continuous
100
AcDbLine
 10
232.8486739999999
 20
168.8466379999999
 30
0.0
 11
200.348674
 21
168.8466379999999
 31
0.0
  0
LINE
  5
A3DE
330
A348
100
AcDbEntity
  8
1
  6
Continuous
100
AcDbLine
 10
233.898635
 20
165.665641
 30
0.0
 11
233.8986529999999
 21
150.3096889999999
 31
0.0
  0
LINE
  5
A3DF
330
A348
100
AcDbEntity
  8
1
  6
Continuous
100
AcDbLine
 10
204.5985509999999
 20
133.6096539999998
 30
0.0
 11
204.5985509999999
 21
133.6096379999998
 31
0.0
  0
LINE
  5
A3E0
330
A348
100
AcDbEntity
  8
1
  6
Continuous
100
AcDbLine
 10
226.708686
 20
162.589622
 30
0.0
 11
226.7086519999998
 21
133.6096379999998
 31
0.0
  0
LINE
  5
A3E1
330
A348
100
AcDbEntity
  8
1
  6
Continuous
100
AcDbLine
 10
206.488694
 20
133.855186
 30
0.0
 11
206.4886949999999
 21
133.6096379999998
 31
0.0
  0
LINE
  5
A3E2
330
A348
100
AcDbEntity
  8
1
  6
Continuous
100
AcDbLine
 10
226.0986739999999
 20
148.379638
 30
0.0
 11
225.098674
 21
149.379638
 31
0.0
  0
LINE
  5
A3E3
330
A348
100
AcDbEntity
  8
1
  6
Continuous
100
AcDbLine
 10
226.7086869999999
 20
144.379638
 30
0.0
 11
226.0986739999999
 21
144.379638
 31
0.0
  0
LINE
  5
A3E4
330
A348
100
AcDbEntity
  8
1
  6
Continuous
100
AcDbLine
 10
229.532148
 20
137.1296379999998
 30
0.0
 11
229.0569359999998
 21
137.1296379999998
 31
0.0
  0
LINE
  5
A3E5
330
A348
100
AcDbEntity
  8
1
  6
Continuous
100
AcDbLine
 10
226.7086869999999
 20
138.3796379999998
 30
0.0
 11
226.0986739999999
 21
138.3796379999998
 31
0.0
  0
LINE
  5
A3E6
330
A348
100
AcDbEntity
  8
1
  6
Continuous
100
AcDbLine
 10
228.5987969999999
 20
133.6096379999998
 30
0.0
 11
226.7086519999998
 21
133.6096379999998
 31
0.0
  0
LINE
  5
A3E7
330
A348
100
AcDbEntity
  8
1
  6
Continuous
100
AcDbLine
 10
226.0986739999999
 20
134.379638
 30
0.0
 11
225.098674
 21
133.379638
 31
0.0
  0
LINE
  5
A3E8
330
A348
100
AcDbEntity
  8
1
  6
Continuous
100
AcDbLine
 10
229.532148
 20
138.559928
 30
0.0
 11
229.532148
 21
137.1296379999998
 31
0.0
  0
ARC
  5
A3E9
330
A348
100
AcDbEntity
  8
1
  6
Continuous
100
AcDbCircle
 10
221.598832
 20
141.3796379999998
 30
0.0
 40
9.0
100
AcDbArc
 50
331.82136
 51
355.5015839999999
  0
LINE
  5
A3EA
330
A348
100
AcDbEntity
  8
1
  6
Continuous
100
AcDbLine
 10
226.0986739999999
 20
148.379638
 30
0.0
 11
226.0986739999999
 21
134.379638
 31
0.0
  0
LINE
  5
A3EB
330
A348
100
AcDbEntity
  8
1
  6
Continuous
100
AcDbLine
 10
207.0986739999999
 20
148.379638
 30
0.0
 11
208.0986739999999
 21
149.379638
 31
0.0
  0
LINE
  5
A3EC
330
A348
100
AcDbEntity
  8
1
  6
Continuous
100
AcDbLine
 10
207.0986739999999
 20
144.379638
 30
0.0
 11
206.488661
 21
144.379638
 31
0.0
  0
LINE
  5
A3ED
330
A348
100
AcDbEntity
  8
1
  6
Continuous
100
AcDbLine
 10
204.068304
 20
137.3796379999998
 30
0.0
 11
203.998515
 21
137.3796379999998
 31
0.0
  0
LINE
  5
A3EE
330
A348
100
AcDbEntity
  8
1
  6
Continuous
100
AcDbLine
 10
207.0986739999999
 20
138.3796379999998
 30
0.0
 11
206.488661
 21
138.3796379999998
 31
0.0
  0
LINE
  5
A3EF
330
A348
100
AcDbEntity
  8
1
  6
Continuous
100
AcDbLine
 10
207.0986739999999
 20
134.379638
 30
0.0
 11
208.0986739999999
 21
133.379638
 31
0.0
  0
LINE
  5
A3F0
330
A348
100
AcDbEntity
  8
1
  6
Continuous
100
AcDbLine
 10
206.4886959999999
 20
133.6096379999998
 30
0.0
 11
204.5985509999999
 21
133.6096379999998
 31
0.0
  0
LINE
  5
A3F1
330
A348
100
AcDbEntity
  8
1
  6
Continuous
100
AcDbLine
 10
203.998515
 20
137.614846
 30
0.0
 11
203.998515
 21
137.3796379999998
 31
0.0
  0
LINE
  5
A3F2
330
A348
100
AcDbEntity
  8
1
  6
Continuous
100
AcDbLine
 10
207.0986739999999
 20
148.379638
 30
0.0
 11
207.0986739999999
 21
134.379638
 31
0.0
  0
LINE
  5
A3F3
330
A348
100
AcDbEntity
  8
1
  6
Continuous
100
AcDbLine
 10
214.848674
 20
161.559908
 30
0.0
 11
216.598674
 21
162.559908
 31
0.0
  0
ARC
  5
A3F4
330
A348
100
AcDbEntity
  8
1
  6
Continuous
100
AcDbCircle
 10
216.598674
 20
131.379638
 30
0.0
 40
30.0
100
AcDbArc
 50
75.78187599999998
 51
104.218124
  0
LINE
  5
A3F5
330
A348
100
AcDbEntity
  8
1
  6
Continuous
100
AcDbLine
 10
222.7486739999999
 20
161.559908
 30
0.0
 11
210.448674
 21
161.559908
 31
0.0
  0
LINE
  5
A3F6
330
A348
100
AcDbEntity
  8
1
  6
Continuous
100
AcDbLine
 10
218.3486739999999
 20
161.559908
 30
0.0
 11
216.598674
 21
162.559908
 31
0.0
  0
ARC
  5
A3F7
330
A348
100
AcDbEntity
  8
1
  6
Continuous
100
AcDbCircle
 10
223.5986739999999
 20
159.0066179999998
 30
0.0
 40
1.5
100
AcDbArc
 50
0.0
 51
75.78187599999998
  0
LINE
  5
A3F8
330
A348
100
AcDbEntity
  8
1
  6
Continuous
100
AcDbLine
 10
222.7486739999999
 20
161.559908
 30
0.0
 11
222.662864
 21
162.589622
 31
0.0
  0
LINE
  5
A3F9
330
A348
100
AcDbEntity
  8
1
  6
Continuous
100
AcDbLine
 10
222.0986649999999
 20
162.559908
 30
0.0
 11
222.7486739999999
 21
161.559908
 31
0.0
  0
LINE
  5
A3FA
330
A348
100
AcDbEntity
  8
1
  6
Continuous
100
AcDbLine
 10
226.708686
 20
162.434503
 30
0.0
 11
222.6757909999999
 21
162.434503
 31
0.0
  0
LINE
  5
A3FB
330
A348
100
AcDbEntity
  8
1
  6
Continuous
100
AcDbLine
 10
220.3486739999999
 20
161.559908
 30
0.0
 11
222.0986649999999
 21
162.559908
 31
0.0
  0
LINE
  5
A3FC
330
A348
100
AcDbEntity
  8
1
  6
Continuous
100
AcDbLine
 10
210.448674
 20
161.559908
 30
0.0
 11
210.5344829999999
 21
162.589622
 31
0.0
  0
LINE
  5
A3FD
330
A348
100
AcDbEntity
  8
1
  6
Continuous
100
AcDbLine
 10
212.848674
 20
161.559908
 30
0.0
 11
211.0986819999999
 21
162.559908
 31
0.0
  0
LINE
  5
A3FE
330
A348
100
AcDbEntity
  8
1
  6
Continuous
100
AcDbLine
 10
211.0986819999999
 20
162.559908
 30
0.0
 11
210.448674
 21
161.559908
 31
0.0
  0
ARC
  5
A3FF
330
A348
100
AcDbEntity
  8
1
  6
Continuous
100
AcDbCircle
 10
209.5986739999999
 20
159.0066179999998
 30
0.0
 40
1.5
100
AcDbArc
 50
104.218124
 51
180.0
  0
LINE
  5
A400
330
A348
100
AcDbEntity
  8
1
  6
Continuous
100
AcDbLine
 10
210.5215569999999
 20
162.434503
 30
0.0
 11
206.488662
 21
162.434503
 31
0.0
  0
ARC
  5
A401
330
A348
100
AcDbEntity
  8
1
  6
Continuous
100
AcDbCircle
 10
231.172142
 20
161.5896219999999
 30
0.0
 40
1.0
100
AcDbArc
 50
21.900952
 51
90.0
  0
ARC
  5
A402
330
A348
100
AcDbEntity
  8
1
  6
Continuous
100
AcDbCircle
 10
202.0252049999998
 20
161.5896219999999
 30
0.0
 40
1.0
100
AcDbArc
 50
90.0
 51
158.099048
  0
ARC
  5
A403
330
A348
100
AcDbEntity
  8
1
  6
Continuous
100
AcDbCircle
 10
202.479712
 20
165.665638
 30
0.0
 40
3.181
100
AcDbArc
 50
90.0
 51
179.999933
  0
ARC
  5
A404
330
A348
100
AcDbEntity
  8
1
  6
Continuous
100
AcDbCircle
 10
230.717635
 20
165.665638
 30
0.0
 40
3.181
100
AcDbArc
 50
0.000067
 51
90.0
  0
LINE
  5
A405
330
A348
100
AcDbEntity
  8
1
  6
Continuous
100
AcDbLine
 10
206.488662
 20
162.589622
 30
0.0
 11
206.4886959999999
 21
133.6096379999998
 31
0.0
  0
CIRCLE
  5
A406
330
A348
100
AcDbEntity
  8
1
  6
Continuous
100
AcDbCircle
 10
123.3897609999999
 20
141.379624
 30
0.0
 40
4.0
  0
LINE
  5
A407
330
A348
100
AcDbEntity
  8
4
  6
CENTER
100
AcDbLine
 10
123.3897609999999
 20
82.42531300000001
 30
0.0
 11
123.3897609999999
 21
45.024965
 31
0.0
  0
ARC
  5
A408
330
A348
100
AcDbEntity
  8
1
  6
Continuous
100
AcDbCircle
 10
123.3897609999999
 20
67.025689
 30
0.0
 40
10.399624
100
AcDbArc
 50
67.379272
 51
112.620728
  0
LINE
  5
A409
330
A348
100
AcDbEntity
  8
1
  6
Continuous
100
AcDbLine
 10
119.389761
 20
76.625282
 30
0.0
 11
127.3897609999999
 21
76.625282
 31
0.0
  0
LINE
  5
A40A
330
A348
100
AcDbEntity
  8
1
  6
Continuous
100
AcDbLine
 10
116.389761
 20
73.52512299999998
 30
0.0
 11
130.3897609999999
 21
73.52512299999998
 31
0.0
  0
LINE
  5
A40B
330
A348
100
AcDbEntity
  8
1
  6
Continuous
100
AcDbLine
 10
119.1397609999999
 20
51.09164899999999
 30
0.0
 11
127.6397609999999
 21
51.09164899999999
 31
0.0
  0
ARC
  5
A40C
330
A348
100
AcDbEntity
  8
1
  6
Continuous
100
AcDbCircle
 10
123.3897609999999
 20
59.024965
 30
0.0
 40
9.0
100
AcDbArc
 50
241.8213569999999
 51
298.178643
  0
LINE
  5
A40D
330
A348
100
AcDbEntity
  8
1
  6
Continuous
100
AcDbLine
 10
116.389761
 20
54.525123
 30
0.0
 11
130.3897609999999
 21
54.525123
 31
0.0
  0
LINE
  5
A40E
330
A348
100
AcDbEntity
  8
1
  6
Continuous
100
AcDbLine
 10
105.762781
 20
55.525123
 30
0.0
 11
141.0167399999999
 21
55.525123
 31
0.0
  0
LINE
  5
A40F
330
A348
100
AcDbEntity
  8
1
  6
Continuous
100
AcDbLine
 10
105.762781
 20
72.52512299999998
 30
0.0
 11
141.0167399999999
 21
72.52512299999998
 31
0.0
  0
LINE
  5
A410
330
A348
100
AcDbEntity
  8
1
  6
Continuous
100
AcDbLine
 10
116.389761
 20
54.525123
 30
0.0
 11
115.389761
 21
55.525123
 31
0.0
  0
LINE
  5
A411
330
A348
100
AcDbEntity
  8
1
  6
Continuous
100
AcDbLine
 10
119.1397609999999
 20
51.09164899999999
 30
0.0
 11
119.1397609999999
 21
52.024965
 31
0.0
  0
LINE
  5
A412
330
A348
100
AcDbEntity
  8
1
  6
Continuous
100
AcDbLine
 10
120.389761
 20
53.91511
 30
0.0
 11
120.389761
 21
54.525123
 31
0.0
  0
ARC
  5
A413
330
A348
100
AcDbEntity
  8
1
  6
Continuous
100
AcDbCircle
 10
105.762781
 20
71.02512299999998
 30
0.0
 40
1.5
100
AcDbArc
 50
90.0
 51
165.781876
  0
ARC
  5
A414
330
A348
100
AcDbEntity
  8
1
  6
Continuous
100
AcDbCircle
 10
105.762781
 20
57.025123
 30
0.0
 40
1.5
100
AcDbArc
 50
194.218124
 51
270.0
  0
ARC
  5
A415
330
A348
100
AcDbEntity
  8
1
  6
Continuous
100
AcDbCircle
 10
133.3897609999999
 20
64.02512299999999
 30
0.0
 40
30.0
100
AcDbArc
 50
165.781876
 51
194.218124
  0
LINE
  5
A416
330
A348
100
AcDbEntity
  8
1
  6
Continuous
100
AcDbLine
 10
116.389761
 20
73.52512299999998
 30
0.0
 11
115.389761
 21
72.52512299999998
 31
0.0
  0
LINE
  5
A417
330
A348
100
AcDbEntity
  8
1
  6
Continuous
100
AcDbLine
 10
119.389761
 20
76.02528199999998
 30
0.0
 11
119.389761
 21
76.625282
 31
0.0
  0
LINE
  5
A418
330
A348
100
AcDbEntity
  8
1
  6
Continuous
100
AcDbLine
 10
120.389761
 20
73.52512299999998
 30
0.0
 11
120.389761
 21
74.135136
 31
0.0
  0
LINE
  5
A419
330
A348
100
AcDbEntity
  8
1
  6
Continuous
100
AcDbLine
 10
130.3897609999999
 20
54.525123
 30
0.0
 11
131.3897609999999
 21
55.525123
 31
0.0
  0
LINE
  5
A41A
330
A348
100
AcDbEntity
  8
1
  6
Continuous
100
AcDbLine
 10
127.6397609999999
 20
51.09164899999999
 30
0.0
 11
127.6397609999999
 21
52.024965
 31
0.0
  0
LINE
  5
A41B
330
A348
100
AcDbEntity
  8
1
  6
Continuous
100
AcDbLine
 10
126.3897609999999
 20
53.91511
 30
0.0
 11
126.3897609999999
 21
54.525123
 31
0.0
  0
LINE
  5
A41C
330
A348
100
AcDbEntity
  8
1
  6
Continuous
100
AcDbLine
 10
127.3897609999999
 20
76.02528199999998
 30
0.0
 11
127.3897609999999
 21
76.625282
 31
0.0
  0
LINE
  5
A41D
330
A348
100
AcDbEntity
  8
1
  6
Continuous
100
AcDbLine
 10
126.3897609999999
 20
73.52512299999998
 30
0.0
 11
126.3897609999999
 21
74.135136
 31
0.0
  0
LINE
  5
A41E
330
A348
100
AcDbEntity
  8
1
  6
Continuous
100
AcDbLine
 10
130.3897609999999
 20
73.52512299999998
 30
0.0
 11
131.3897609999999
 21
72.52512299999998
 31
0.0
  0
ARC
  5
A41F
330
A348
100
AcDbEntity
  8
1
  6
Continuous
100
AcDbCircle
 10
141.0167399999999
 20
71.02512299999998
 30
0.0
 40
1.5
100
AcDbArc
 50
14.218124
 51
90.0
  0
ARC
  5
A420
330
A348
100
AcDbEntity
  8
1
  6
Continuous
100
AcDbCircle
 10
141.0167399999999
 20
57.025123
 30
0.0
 40
1.5
100
AcDbArc
 50
270.0
 51
345.7818759999998
  0
ARC
  5
A421
330
A348
100
AcDbEntity
  8
1
  6
Continuous
100
AcDbCircle
 10
113.389761
 20
64.02512299999999
 30
0.0
 40
30.0
100
AcDbArc
 50
345.7818759999998
 51
14.218124
  0
LINE
  5
A422
330
A348
100
AcDbEntity
  8
1
  6
Continuous
100
AcDbLine
 10
128.288256
 20
53.91514499999999
 30
0.0
 11
115.6397609999999
 21
53.91514499999999
 31
0.0
  0
LINE
  5
A423
330
A348
100
AcDbEntity
  8
1
  6
Continuous
100
AcDbLine
 10
128.3296729999999
 20
52.025
 30
0.0
 11
115.6397609999999
 21
52.025
 31
0.0
  0
LINE
  5
A424
330
A348
100
AcDbEntity
  8
1
  6
Continuous
100
AcDbLine
 10
128.3296729999999
 20
76.02524599999998
 30
0.0
 11
115.6397609999999
 21
76.02524599999998
 31
0.0
  0
LINE
  5
A425
330
A348
100
AcDbEntity
  8
1
  6
Continuous
100
AcDbLine
 10
128.288256
 20
74.135101
 30
0.0
 11
115.6397609999999
 21
74.135101
 31
0.0
  0
ARC
  5
A426
330
A348
100
AcDbEntity
  8
1
  6
Continuous
100
AcDbCircle
 10
142.389761
 20
64.02512299999999
 30
0.0
 40
17.3
100
AcDbArc
 50
228.692652
 51
131.3073479999999
  0
LINE
  5
A427
330
A348
100
AcDbEntity
  8
1
  6
Continuous
100
AcDbLine
 10
115.6397609999999
 20
76.02524599999998
 30
0.0
 11
115.6397609999999
 21
74.135101
 31
0.0
  0
LINE
  5
A428
330
A348
100
AcDbEntity
  8
1
  6
Continuous
100
AcDbLine
 10
115.6397609999999
 20
53.91514499999999
 30
0.0
 11
115.6397609999999
 21
52.025
 31
0.0
  0
ARC
  5
A429
330
A348
100
AcDbEntity
  8
1
  6
Continuous
100
AcDbCircle
 10
142.389761
 20
64.02512299999999
 30
0.0
 40
15.4099
100
AcDbArc
 50
228.8034539999999
 51
131.1965459999999
  0
ARC
  5
A42A
330
A348
100
AcDbEntity
  8
1
  6
Continuous
100
AcDbCircle
 10
128.3296729999999
 20
80.02524599999999
 30
0.0
 40
4.0
100
AcDbArc
 50
270.0
 51
311.307348
  0
ARC
  5
A42B
330
A348
100
AcDbEntity
  8
1
  6
Continuous
100
AcDbCircle
 10
128.288256
 20
80.13510100000003
 30
0.0
 40
6.0
100
AcDbArc
 50
270.0
 51
311.196546
  0
ARC
  5
A42C
330
A348
100
AcDbEntity
  8
1
  6
Continuous
100
AcDbCircle
 10
128.288256
 20
47.915145
 30
0.0
 40
6.0
100
AcDbArc
 50
48.80345399999999
 51
90.0
  0
ARC
  5
A42D
330
A348
100
AcDbEntity
  8
1
  6
Continuous
100
AcDbCircle
 10
128.3296729999999
 20
48.025
 30
0.0
 40
4.0
100
AcDbArc
 50
48.692652
 51
90.0
  0
ARC
  5
A42E
330
A348
100
AcDbEntity
  8
1
  6
Continuous
100
AcDbCircle
 10
142.389761
 20
64.02512299999999
 30
0.0
 40
12.4099
100
AcDbArc
 50
223.230655
 51
136.7693449999999
  0
ARC
  5
A42F
330
A348
100
AcDbEntity
  8
1
  6
Continuous
100
AcDbCircle
 10
142.389761
 20
64.02512299999999
 30
0.0
 40
5.75
100
AcDbArc
 50
274.4606039999998
 51
85.53939599999997
  0
LINE
  5
A430
330
A348
100
AcDbEntity
  8
1
  6
Continuous
100
AcDbLine
 10
145.2647609999999
 20
69.004769
 30
0.0
 11
143.3441799999999
 21
65.67822599999999
 31
0.0
  0
LINE
  5
A431
330
A348
100
AcDbEntity
  8
1
  6
Continuous
100
AcDbLine
 10
145.2647609999999
 20
59.04547700000001
 30
0.0
 11
143.3441799999999
 21
62.37201999999999
 31
0.0
  0
LINE
  5
A432
330
A348
100
AcDbEntity
  8
1
  6
Continuous
100
AcDbLine
 10
148.1397609999999
 20
64.02512299999999
 30
0.0
 11
144.2985999999999
 21
64.02512299999999
 31
0.0
  0
ARC
  5
A433
330
A348
100
AcDbEntity
  8
1
  6
Continuous
100
AcDbCircle
 10
142.389761
 20
64.02512299999999
 30
0.0
 40
13.9099
100
AcDbArc
 50
217.698709
 51
142.3012909999999
  0
ARC
  5
A434
330
A348
100
AcDbEntity
  8
1
  6
Continuous
100
AcDbCircle
 10
219.6980549999999
 20
149.9572249999999
 30
0.0
 40
14.20497099999999
100
AcDbArc
 50
324.686006
 51
1.421809
  0
ARC
  5
A435
330
A348
100
AcDbEntity
  8
1
  6
Continuous
100
AcDbCircle
 10
208.9755339999999
 20
152.6662149999999
 30
0.0
 40
24.92314
100
AcDbArc
 50
359.921241
 51
21.900952
  0
ARC
  5
A436
330
A348
100
AcDbEntity
  8
1
  6
Continuous
100
AcDbCircle
 10
242.306893
 20
133.5897129999999
 30
0.0
 40
13.708111
100
AcDbArc
 50
143.4878669999999
 51
179.916722
  0
ARC
  5
A437
330
A348
100
AcDbEntity
  8
1
  6
Continuous
100
AcDbCircle
 10
208.9755339999999
 20
152.6662149999999
 30
0.0
 40
23.03304
100
AcDbArc
 50
359.921241
 51
25.520474
  0
ARC
  5
A438
330
A348
100
AcDbEntity
  8
1
  6
Continuous
100
AcDbCircle
 10
219.6980549999999
 20
149.9572249999999
 30
0.0
 40
12.314871
100
AcDbArc
 50
359.1110269999999
 51
1.421809
  0
LINE
  5
A439
330
A348
100
AcDbEntity
  8
1
  6
Continuous
100
AcDbLine
 10
232.00855
 20
152.699205
 30
0.0
 11
232.0085529999999
 21
150.309687
 31
0.0
  0
ARC
  5
A43A
330
A348
100
AcDbEntity
  8
1
  6
Continuous
100
AcDbCircle
 10
240.4167479999999
 20
133.5897129999999
 30
0.0
 40
13.708111
100
AcDbArc
 50
143.4878669999999
 51
179.916722
  0
ARC
  5
A43B
330
A348
100
AcDbEntity
  8
1
  6
Continuous
100
AcDbCircle
 10
217.722762
 20
149.987875
 30
0.0
 40
14.290402
100
AcDbArc
 50
324.148974
 51
359.1110269999999
  0
ARC
  5
A43C
330
A348
100
AcDbEntity
  8
1
  6
Continuous
100
AcDbCircle
 10
224.2218129999999
 20
152.6662149999999
 30
0.0
 40
23.03304
100
AcDbArc
 50
154.4795259999999
 51
180.0787589999999
  0
ARC
  5
A43D
330
A348
100
AcDbEntity
  8
1
  6
Continuous
100
AcDbCircle
 10
202.0252049999998
 20
161.5896219999999
 30
0.0
 40
1.0
100
AcDbArc
 50
90.0
 51
158.099048
  0
ARC
  5
A43E
330
A348
100
AcDbEntity
  8
1
  6
Continuous
100
AcDbCircle
 10
224.2218129999999
 20
152.6662149999999
 30
0.0
 40
24.92314
100
AcDbArc
 50
158.099048
 51
180.0787589999999
  0
ARC
  5
A43F
330
A348
100
AcDbEntity
  8
1
  6
Continuous
100
AcDbCircle
 10
213.499292
 20
149.9572249999999
 30
0.0
 40
14.20497099999999
100
AcDbArc
 50
178.578191
 51
215.3139939999999
  0
ARC
  5
A440
330
A348
100
AcDbEntity
  8
1
  6
Continuous
100
AcDbCircle
 10
213.499292
 20
149.9572249999999
 30
0.0
 40
12.314871
100
AcDbArc
 50
178.578191
 51
180.8889729999999
  0
ARC
  5
A441
330
A348
100
AcDbEntity
  8
1
  6
Continuous
100
AcDbCircle
 10
215.4745849999999
 20
149.987875
 30
0.0
 40
14.290402
100
AcDbArc
 50
180.8889729999999
 51
215.851026
  0
LINE
  5
A442
330
A348
100
AcDbEntity
  8
1
  6
Continuous
100
AcDbLine
 10
201.188797
 20
152.699205
 30
0.0
 11
201.188794
 21
150.309687
 31
0.0
  0
LINE
  5
A443
330
A348
100
AcDbEntity
  8
1
  6
Continuous
100
AcDbLine
 10
199.298712
 20
165.665641
 30
0.0
 11
199.2986939999999
 21
150.3096889999999
 31
0.0
  0
ARC
  5
A444
330
A348
100
AcDbEntity
  8
1
  6
Continuous
100
AcDbCircle
 10
192.7805999999999
 20
133.5897129999999
 30
0.0
 40
13.708111
100
AcDbArc
 50
0.083278
 51
36.512133
  0
ARC
  5
A445
330
A348
100
AcDbEntity
  8
1
  6
Continuous
100
AcDbCircle
 10
190.890455
 20
133.5897129999999
 30
0.0
 40
13.708111
100
AcDbArc
 50
0.083278
 51
36.512133
  0
LINE
  5
A446
330
A348
100
AcDbEntity
  8
1
  6
Continuous
100
AcDbLine
 10
207.0986739999999
 20
208.3797389999999
 30
0.0
 11
226.0986739999999
 21
208.3797389999999
 31
0.0
  0
LINE
  5
A447
330
A348
100
AcDbEntity
  8
1
  6
Continuous
100
AcDbLine
 10
208.348674
 20
211.2797389999998
 30
0.0
 11
224.848674
 21
211.2797389999998
 31
0.0
  0
LINE
  5
A448
330
A348
100
AcDbEntity
  8
1
  6
Continuous
100
AcDbLine
 10
229.294624
 20
174.479739
 30
0.0
 11
203.902724
 21
174.479739
 31
0.0
  0
LINE
  5
A449
330
A348
100
AcDbEntity
  8
1
  6
Continuous
100
AcDbLine
 10
203.902724
 20
177.379739
 30
0.0
 11
229.294624
 21
177.379739
 31
0.0
  0
LINE
  5
A44A
330
A348
100
AcDbEntity
  8
1
  6
Continuous
100
AcDbLine
 10
200.348674
 20
170.649908
 30
0.0
 11
232.8486739999999
 21
170.649908
 31
0.0
  0
LINE
  5
A44B
330
A348
100
AcDbEntity
  8
1
  6
Continuous
100
AcDbLine
 10
201.089107
 20
172.4199079999999
 30
0.0
 11
232.1082419999999
 21
172.4199079999999
 31
0.0
  0
LINE
  5
A44C
330
A348
100
AcDbEntity
  8
1
  6
Continuous
100
AcDbLine
 10
200.5984939999999
 20
171.84422
 30
0.0
 11
232.5988539999999
 21
171.84422
 31
0.0
  0
LINE
  5
A44D
330
A348
100
AcDbEntity
  8
1
  6
Continuous
100
AcDbLine
 10
213.978231
 20
168.8466379999999
 30
0.0
 11
212.174961
 21
170.649908
 31
0.0
  0
LINE
  5
A44E
330
A348
100
AcDbEntity
  8
1
  6
Continuous
100
AcDbLine
 10
212.174961
 20
168.8466379999999
 30
0.0
 11
213.978231
 21
170.649908
 31
0.0
  0
ARC
  5
A44F
330
A348
100
AcDbEntity
  8
1
  6
Continuous
100
AcDbCircle
 10
201.629005
 20
171.4628969999999
 30
0.0
 40
1.098799999999998
100
AcDbArc
 50
119.429525
 51
159.693839
  0
LINE
  5
A450
330
A348
100
AcDbEntity
  8
1
  6
Continuous
100
AcDbLine
 10
205.49295
 20
168.8466379999999
 30
0.0
 11
203.68968
 21
170.649908
 31
0.0
  0
LINE
  5
A451
330
A348
100
AcDbEntity
  8
1
  6
Continuous
100
AcDbLine
 10
203.68968
 20
168.8466379999999
 30
0.0
 11
205.49295
 21
170.649908
 31
0.0
  0
LINE
  5
A452
330
A348
100
AcDbEntity
  8
1
  6
Continuous
100
AcDbLine
 10
200.348674
 20
170.649908
 30
0.0
 11
200.348674
 21
168.8466379999999
 31
0.0
  0
ARC
  5
A453
330
A348
100
AcDbEntity
  8
1
  6
Continuous
100
AcDbCircle
 10
202.9468689999999
 20
172.1751079999999
 30
0.0
 40
2.371570999999998
100
AcDbArc
 50
188.020211
 51
220.040406
  0
LINE
  5
A454
330
A348
100
AcDbEntity
  8
1
  6
Continuous
100
AcDbLine
 10
203.37163
 20
168.8466379999999
 30
0.0
 11
201.56836
 21
170.649908
 31
0.0
  0
LINE
  5
A455
330
A348
100
AcDbEntity
  8
1
  6
Continuous
100
AcDbLine
 10
201.250309
 20
168.8466379999999
 30
0.0
 11
200.348674
 21
169.748273
 31
0.0
  0
LINE
  5
A456
330
A348
100
AcDbEntity
  8
1
  6
Continuous
100
AcDbLine
 10
201.56836
 20
168.8466379999999
 30
0.0
 11
203.37163
 21
170.649908
 31
0.0
  0
LINE
  5
A457
330
A348
100
AcDbEntity
  8
1
  6
Continuous
100
AcDbLine
 10
201.250309
 20
170.649908
 30
0.0
 11
200.348674
 21
169.748273
 31
0.0
  0
LINE
  5
A458
330
A348
100
AcDbEntity
  8
1
  6
Continuous
100
AcDbLine
 10
209.735591
 20
168.8466379999999
 30
0.0
 11
207.932321
 21
170.649908
 31
0.0
  0
LINE
  5
A459
330
A348
100
AcDbEntity
  8
1
  6
Continuous
100
AcDbLine
 10
207.932321
 20
168.8466379999999
 30
0.0
 11
209.735591
 21
170.649908
 31
0.0
  0
LINE
  5
A45A
330
A348
100
AcDbEntity
  8
1
  6
Continuous
100
AcDbLine
 10
207.61427
 20
168.8466379999999
 30
0.0
 11
205.8109999999998
 21
170.649908
 31
0.0
  0
LINE
  5
A45B
330
A348
100
AcDbEntity
  8
1
  6
Continuous
100
AcDbLine
 10
205.8109999999998
 20
168.8466379999999
 30
0.0
 11
207.61427
 21
170.649908
 31
0.0
  0
LINE
  5
A45C
330
A348
100
AcDbEntity
  8
1
  6
Continuous
100
AcDbLine
 10
211.856911
 20
168.8466379999999
 30
0.0
 11
210.053641
 21
170.649908
 31
0.0
  0
LINE
  5
A45D
330
A348
100
AcDbEntity
  8
1
  6
Continuous
100
AcDbLine
 10
210.053641
 20
168.8466379999999
 30
0.0
 11
211.856911
 21
170.649908
 31
0.0
  0
ARC
  5
A45E
330
A348
100
AcDbEntity
  8
1
  6
Continuous
100
AcDbCircle
 10
204.3996389999998
 20
171.979739
 30
0.0
 40
2.5
100
AcDbArc
 50
90.0
 51
169.859207
  0
LINE
  5
A45F
330
A348
100
AcDbEntity
  8
1
  6
Continuous
100
AcDbLine
 10
203.902724
 20
177.379739
 30
0.0
 11
203.902724
 21
174.479739
 31
0.0
  0
CIRCLE
  5
A460
330
A348
100
AcDbEntity
  8
1
  6
Continuous
100
AcDbCircle
 10
142.389761
 20
270.734523
 30
0.0
 40
16.25
  0
CIRCLE
  5
A461
330
A348
100
AcDbEntity
  8
1
  6
Continuous
100
AcDbCircle
 10
142.389761
 20
270.734523
 30
0.0
 40
16.00018
  0
CIRCLE
  5
A462
330
A348
100
AcDbEntity
  8
1
  6
Continuous
100
AcDbCircle
 10
142.389761
 20
270.734523
 30
0.0
 40
14.66
  0
LINE
  5
A463
330
A348
100
AcDbEntity
  8
1
  6
Continuous
100
AcDbLine
 10
127.729761
 20
270.734523
 30
0.0
 11
135.059761
 21
258.0385909999999
 31
0.0
  0
LINE
  5
A464
330
A348
100
AcDbEntity
  8
1
  6
Continuous
100
AcDbLine
 10
135.059761
 20
283.430455
 30
0.0
 11
127.729761
 21
270.734523
 31
0.0
  0
LINE
  5
A465
330
A348
100
AcDbEntity
  8
1
  6
Continuous
100
AcDbLine
 10
157.0497609999999
 20
270.734523
 30
0.0
 11
149.719761
 21
283.430455
 31
0.0
  0
LINE
  5
A466
330
A348
100
AcDbEntity
  8
1
  6
Continuous
100
AcDbLine
 10
149.719761
 20
283.430455
 30
0.0
 11
135.059761
 21
283.430455
 31
0.0
  0
LINE
  5
A467
330
A348
100
AcDbEntity
  8
1
  6
Continuous
100
AcDbLine
 10
135.059761
 20
258.0385909999999
 30
0.0
 11
149.719761
 21
258.0385909999999
 31
0.0
  0
LINE
  5
A468
330
A348
100
AcDbEntity
  8
1
  6
Continuous
100
AcDbLine
 10
149.719761
 20
258.0385909999999
 30
0.0
 11
157.0497609999999
 21
270.734523
 31
0.0
  0
CIRCLE
  5
A469
330
A348
100
AcDbEntity
  8
1
  6
Continuous
100
AcDbCircle
 10
142.389761
 20
270.734523
 30
0.0
 40
4.0
  0
CIRCLE
  5
A46A
330
A348
100
AcDbEntity
  8
1
  6
Continuous
100
AcDbCircle
 10
142.389761
 20
270.734523
 30
0.0
 40
2.499979999999998
  0
LINE
  5
A46B
330
A348
100
AcDbEntity
  8
4
  6
CENTER
100
AcDbLine
 10
123.3897609999999
 20
289.7346819999999
 30
0.0
 11
123.3897609999999
 21
252.3343329999999
 31
0.0
  0
ARC
  5
A46C
330
A348
100
AcDbEntity
  8
1
  6
Continuous
100
AcDbCircle
 10
142.389761
 20
270.734523
 30
0.0
 40
17.3875
100
AcDbArc
 50
145.7531239999999
 51
217.4599499999999
  0
ARC
  5
A46D
330
A348
100
AcDbEntity
  8
1
  6
Continuous
100
AcDbCircle
 10
141.697417
 20
270.734523
 30
0.0
 40
21.0
100
AcDbArc
 50
151.388384
 51
208.6116159999999
  0
ARC
  5
A46E
330
A348
100
AcDbEntity
  8
1
  6
Continuous
100
AcDbCircle
 10
133.3897609999999
 20
270.734523
 30
0.0
 40
30.0
100
AcDbArc
 50
165.781876
 51
194.218124
  0
LINE
  5
A46F
330
A348
100
AcDbEntity
  8
1
  6
Continuous
100
AcDbLine
 10
122.494552
 20
279.234523
 30
0.0
 11
105.762781
 21
279.234523
 31
0.0
  0
LINE
  5
A470
330
A348
100
AcDbEntity
  8
1
  6
Continuous
100
AcDbLine
 10
127.6397609999999
 20
283.667997
 30
0.0
 11
119.1397609999999
 21
283.667997
 31
0.0
  0
ARC
  5
A471
330
A348
100
AcDbEntity
  8
1
  6
Continuous
100
AcDbCircle
 10
123.3897609999999
 20
275.7346819999999
 30
0.0
 40
9.0
100
AcDbArc
 50
61.82135699999999
 51
118.178643
  0
LINE
  5
A472
330
A348
100
AcDbEntity
  8
1
  6
Continuous
100
AcDbLine
 10
116.389761
 20
280.234523
 30
0.0
 11
122.9690959999998
 21
280.234523
 31
0.0
  0
LINE
  5
A473
330
A348
100
AcDbEntity
  8
1
  6
Continuous
100
AcDbLine
 10
128.329647
 20
282.7346229999998
 30
0.0
 11
115.8897609999999
 21
282.7346229999998
 31
0.0
  0
LINE
  5
A474
330
A348
100
AcDbEntity
  8
1
  6
Continuous
100
AcDbLine
 10
123.291225
 20
280.8445229999999
 30
0.0
 11
115.8897609999999
 21
280.8445229999999
 31
0.0
  0
ARC
  5
A475
330
A348
100
AcDbEntity
  8
1
  6
Continuous
100
AcDbCircle
 10
121.681618
 20
281.6527549999999
 30
0.0
 40
1.8
100
AcDbArc
 50
331.3883839999999
 51
36.944238
  0
LINE
  5
A476
330
A348
100
AcDbEntity
  8
1
  6
Continuous
100
AcDbLine
 10
127.6397609999999
 20
283.667997
 30
0.0
 11
127.6397609999999
 21
282.7502119999999
 31
0.0
  0
LINE
  5
A477
330
A348
100
AcDbEntity
  8
1
  6
Continuous
100
AcDbLine
 10
115.8897609999999
 20
282.7346229999998
 30
0.0
 11
115.8897609999999
 21
280.8445229999999
 31
0.0
  0
LINE
  5
A478
330
A348
100
AcDbEntity
  8
1
  6
Continuous
100
AcDbLine
 10
119.1397609999999
 20
283.667997
 30
0.0
 11
119.1397609999999
 21
282.7346229999998
 31
0.0
  0
LINE
  5
A479
330
A348
100
AcDbEntity
  8
1
  6
Continuous
100
AcDbLine
 10
120.389761
 20
280.234523
 30
0.0
 11
120.389761
 21
280.8445359999998
 31
0.0
  0
LINE
  5
A47A
330
A348
100
AcDbEntity
  8
1
  6
Continuous
100
AcDbLine
 10
116.389761
 20
280.234523
 30
0.0
 11
115.389761
 21
279.234523
 31
0.0
  0
ARC
  5
A47B
330
A348
100
AcDbEntity
  8
1
  6
Continuous
100
AcDbCircle
 10
105.762781
 20
277.734523
 30
0.0
 40
1.5
100
AcDbArc
 50
90.0
 51
165.781876
  0
LINE
  5
A47C
330
A348
100
AcDbEntity
  8
1
  6
Continuous
100
AcDbLine
 10
122.494552
 20
262.234523
 30
0.0
 11
105.762781
 21
262.234523
 31
0.0
  0
ARC
  5
A47D
330
A348
100
AcDbEntity
  8
1
  6
Continuous
100
AcDbCircle
 10
123.3897609999999
 20
267.733957
 30
0.0
 40
10.399624
100
AcDbArc
 50
247.379272
 51
292.6207279999998
  0
LINE
  5
A47E
330
A348
100
AcDbEntity
  8
1
  6
Continuous
100
AcDbLine
 10
127.3897609999999
 20
258.134364
 30
0.0
 11
119.389761
 21
258.134364
 31
0.0
  0
LINE
  5
A47F
330
A348
100
AcDbEntity
  8
1
  6
Continuous
100
AcDbLine
 10
116.389761
 20
261.234523
 30
0.0
 11
122.9690959999998
 21
261.234523
 31
0.0
  0
LINE
  5
A480
330
A348
100
AcDbEntity
  8
1
  6
Continuous
100
AcDbLine
 10
128.329647
 20
258.7344229999998
 30
0.0
 11
115.8897609999999
 21
258.7344229999998
 31
0.0
  0
LINE
  5
A481
330
A348
100
AcDbEntity
  8
1
  6
Continuous
100
AcDbLine
 10
115.8897609999999
 20
260.624523
 30
0.0
 11
123.291225
 21
260.624523
 31
0.0
  0
LINE
  5
A482
330
A348
100
AcDbEntity
  8
1
  6
Continuous
100
AcDbLine
 10
127.3897609999999
 20
258.7344229999998
 30
0.0
 11
127.3897609999999
 21
258.134364
 31
0.0
  0
ARC
  5
A483
330
A348
100
AcDbEntity
  8
1
  6
Continuous
100
AcDbCircle
 10
121.681618
 20
259.8162899999999
 30
0.0
 40
1.8
100
AcDbArc
 50
323.055762
 51
28.611616
  0
LINE
  5
A484
330
A348
100
AcDbEntity
  8
1
  6
Continuous
100
AcDbLine
 10
119.389761
 20
258.7344229999998
 30
0.0
 11
119.389761
 21
258.134364
 31
0.0
  0
LINE
  5
A485
330
A348
100
AcDbEntity
  8
1
  6
Continuous
100
AcDbLine
 10
120.389761
 20
260.6245099999998
 30
0.0
 11
120.389761
 21
261.234523
 31
0.0
  0
LINE
  5
A486
330
A348
100
AcDbEntity
  8
1
  6
Continuous
100
AcDbLine
 10
116.389761
 20
261.234523
 30
0.0
 11
115.389761
 21
262.234523
 31
0.0
  0
LINE
  5
A487
330
A348
100
AcDbEntity
  8
1
  6
Continuous
100
AcDbLine
 10
115.8897609999999
 20
260.624523
 30
0.0
 11
115.8897609999999
 21
258.7344229999998
 31
0.0
  0
ARC
  5
A488
330
A348
100
AcDbEntity
  8
1
  6
Continuous
100
AcDbCircle
 10
105.762781
 20
263.734523
 30
0.0
 40
1.5
100
AcDbArc
 50
194.218124
 51
270.0
  0
LINE
  5
A489
330
A348
100
AcDbEntity
  8
1
  6
Continuous
100
AcDbLine
 10
228.827474
 20
168.8466379999999
 30
0.0
 11
227.0242039999998
 21
170.649908
 31
0.0
  0
LINE
  5
A48A
330
A348
100
AcDbEntity
  8
1
  6
Continuous
100
AcDbLine
 10
227.0242039999998
 20
168.8466379999999
 30
0.0
 11
228.827474
 21
170.649908
 31
0.0
  0
LINE
  5
A48B
330
A348
100
AcDbEntity
  8
1
  6
Continuous
100
AcDbLine
 10
216.0995519999999
 20
168.8466379999999
 30
0.0
 11
214.296282
 21
170.649908
 31
0.0
  0
LINE
  5
A48C
330
A348
100
AcDbEntity
  8
1
  6
Continuous
100
AcDbLine
 10
214.296282
 20
168.8466379999999
 30
0.0
 11
216.0995519999999
 21
170.649908
 31
0.0
  0
LINE
  5
A48D
330
A348
100
AcDbEntity
  8
1
  6
Continuous
100
AcDbLine
 10
220.3421919999999
 20
168.8466379999999
 30
0.0
 11
218.538922
 21
170.649908
 31
0.0
  0
LINE
  5
A48E
330
A348
100
AcDbEntity
  8
1
  6
Continuous
100
AcDbLine
 10
218.220872
 20
168.8466379999999
 30
0.0
 11
216.4176019999999
 21
170.649908
 31
0.0
  0
LINE
  5
A48F
330
A348
100
AcDbEntity
  8
1
  6
Continuous
100
AcDbLine
 10
218.538922
 20
168.8466379999999
 30
0.0
 11
220.3421919999999
 21
170.649908
 31
0.0
  0
LINE
  5
A490
330
A348
100
AcDbEntity
  8
1
  6
Continuous
100
AcDbLine
 10
216.4176019999999
 20
168.8466379999999
 30
0.0
 11
218.220872
 21
170.649908
 31
0.0
  0
LINE
  5
A491
330
A348
100
AcDbEntity
  8
1
  6
Continuous
100
AcDbLine
 10
224.584833
 20
168.8466379999999
 30
0.0
 11
222.7815629999998
 21
170.649908
 31
0.0
  0
LINE
  5
A492
330
A348
100
AcDbEntity
  8
1
  6
Continuous
100
AcDbLine
 10
222.7815629999998
 20
168.8466379999999
 30
0.0
 11
224.584833
 21
170.649908
 31
0.0
  0
LINE
  5
A493
330
A348
100
AcDbEntity
  8
1
  6
Continuous
100
AcDbLine
 10
222.4635129999998
 20
168.8466379999999
 30
0.0
 11
220.660243
 21
170.649908
 31
0.0
  0
LINE
  5
A494
330
A348
100
AcDbEntity
  8
1
  6
Continuous
100
AcDbLine
 10
220.660243
 20
168.8466379999999
 30
0.0
 11
222.4635129999998
 21
170.649908
 31
0.0
  0
LINE
  5
A495
330
A348
100
AcDbEntity
  8
1
  6
Continuous
100
AcDbLine
 10
226.7061529999998
 20
168.8466379999999
 30
0.0
 11
224.9028829999998
 21
170.649908
 31
0.0
  0
LINE
  5
A496
330
A348
100
AcDbEntity
  8
1
  6
Continuous
100
AcDbLine
 10
224.9028829999998
 20
168.8466379999999
 30
0.0
 11
226.7061529999998
 21
170.649908
 31
0.0
  0
LINE
  5
A497
330
A348
100
AcDbEntity
  8
1
  6
Continuous
100
AcDbLine
 10
216.598674
 20
177.379739
 30
0.0
 11
216.598674
 21
174.479739
 31
0.0
  0
ARC
  5
A498
330
A348
100
AcDbEntity
  8
1
  6
Continuous
100
AcDbCircle
 10
231.568343
 20
171.4628969999999
 30
0.0
 40
1.098799999999998
100
AcDbArc
 50
20.306161
 51
60.57047500000001
  0
LINE
  5
A499
330
A348
100
AcDbEntity
  8
1
  6
Continuous
100
AcDbLine
 10
232.8486739999999
 20
169.068078
 30
0.0
 11
231.2668439999999
 21
170.649908
 31
0.0
  0
LINE
  5
A49A
330
A348
100
AcDbEntity
  8
1
  6
Continuous
100
AcDbLine
 10
231.2668439999999
 20
168.8466379999999
 30
0.0
 11
232.8486739999999
 21
170.4284679999998
 31
0.0
  0
ARC
  5
A49B
330
A348
100
AcDbEntity
  8
1
  6
Continuous
100
AcDbCircle
 10
230.2504799999999
 20
172.1751079999999
 30
0.0
 40
2.371570999999998
100
AcDbArc
 50
319.959594
 51
351.9797889999999
  0
LINE
  5
A49C
330
A348
100
AcDbEntity
  8
1
  6
Continuous
100
AcDbLine
 10
230.9487939999999
 20
168.8466379999999
 30
0.0
 11
229.1455239999999
 21
170.649908
 31
0.0
  0
LINE
  5
A49D
330
A348
100
AcDbEntity
  8
1
  6
Continuous
100
AcDbLine
 10
229.1455239999999
 20
168.8466379999999
 30
0.0
 11
230.9487939999999
 21
170.649908
 31
0.0
  0
LINE
  5
A49E
330
A348
100
AcDbEntity
  8
1
  6
Continuous
100
AcDbLine
 10
232.8486739999999
 20
170.649908
 30
0.0
 11
232.8486739999999
 21
168.8466379999999
 31
0.0
  0
ARC
  5
A49F
330
A348
100
AcDbEntity
  8
1
  6
Continuous
100
AcDbCircle
 10
228.797709
 20
171.979739
 30
0.0
 40
2.5
100
AcDbArc
 50
10.14079299999999
 51
90.0
  0
LINE
  5
A4A0
330
A348
100
AcDbEntity
  8
1
  6
Continuous
100
AcDbLine
 10
229.294624
 20
177.379739
 30
0.0
 11
229.294624
 21
174.479739
 31
0.0
  0
LINE
  5
A4A1
330
A348
100
AcDbEntity
  8
1
  6
Continuous
100
AcDbLine
 10
220.5986649999999
 20
211.879739
 30
0.0
 11
219.0986649999999
 21
213.379739
 31
0.0
  0
LINE
  5
A4A2
330
A348
100
AcDbEntity
  8
1
  6
Continuous
100
AcDbLine
 10
212.5986649999999
 20
211.879739
 30
0.0
 11
220.5986649999999
 21
211.879739
 31
0.0
  0
LINE
  5
A4A3
330
A348
100
AcDbEntity
  8
1
  6
Continuous
100
AcDbLine
 10
212.5986649999999
 20
211.879739
 30
0.0
 11
214.0986649999999
 21
213.379739
 31
0.0
  0
LINE
  5
A4A4
330
A348
100
AcDbEntity
  8
1
  6
Continuous
100
AcDbLine
 10
212.5986649999999
 20
211.2797389999998
 30
0.0
 11
212.5986649999999
 21
211.879739
 31
0.0
  0
LINE
  5
A4A5
330
A348
100
AcDbEntity
  8
1
  6
Continuous
100
AcDbLine
 10
214.0986649999999
 20
213.379739
 30
0.0
 11
219.0986649999999
 21
213.379739
 31
0.0
  0
LINE
  5
A4A6
330
A348
100
AcDbEntity
  8
1
  6
Continuous
100
AcDbLine
 10
220.5986649999999
 20
211.2797389999998
 30
0.0
 11
220.5986649999999
 21
211.879739
 31
0.0
  0
LINE
  5
A4A7
330
A348
100
AcDbEntity
  8
2
  6
Continuous
100
AcDbLine
 10
213.2751739999999
 20
212.556248
 30
0.0
 11
213.2751739999999
 21
211.2797389999998
 31
0.0
  0
LINE
  5
A4A8
330
A348
100
AcDbEntity
  8
2
  6
Continuous
100
AcDbLine
 10
219.922174
 20
212.5562299999999
 30
0.0
 11
219.922174
 21
211.2797389999998
 31
0.0
  0
LINE
  5
A4A9
330
A348
100
AcDbEntity
  8
1
  6
Continuous
100
AcDbLine
 10
58.87679699999999
 20
177.379739
 30
0.0
 11
58.87679699999999
 21
174.479739
 31
0.0
  0
LINE
  5
A4AA
330
A348
100
AcDbEntity
  8
1
  6
Continuous
100
AcDbLine
 10
33.484897
 20
177.379739
 30
0.0
 11
33.484897
 21
174.479739
 31
0.0
  0
LINE
  5
A4AB
330
A348
100
AcDbEntity
  8
1
  6
Continuous
100
AcDbLine
 10
46.18084699999999
 20
177.379739
 30
0.0
 11
46.18084699999999
 21
174.479739
 31
0.0
  0
LINE
  5
A4AC
330
A348
100
AcDbEntity
  8
1
  6
Continuous
100
AcDbLine
 10
30.67128
 20
172.4199079999999
 30
0.0
 11
61.69041599999999
 21
172.4199079999999
 31
0.0
  0
LINE
  5
A4AD
330
A348
100
AcDbEntity
  8
1
  6
Continuous
100
AcDbLine
 10
29.93084699999998
 20
170.649908
 30
0.0
 11
62.430847
 21
170.649908
 31
0.0
  0
LINE
  5
A4AE
330
A348
100
AcDbEntity
  8
1
  6
Continuous
100
AcDbLine
 10
30.180667
 20
171.84422
 30
0.0
 11
62.181027
 21
171.84422
 31
0.0
  0
LINE
  5
A4AF
330
A348
100
AcDbEntity
  8
1
  6
Continuous
100
AcDbLine
 10
52.04568599999999
 20
168.8466379999999
 30
0.0
 11
50.24241599999999
 21
170.649908
 31
0.0
  0
LINE
  5
A4B0
330
A348
100
AcDbEntity
  8
1
  6
Continuous
100
AcDbLine
 10
50.24241599999999
 20
168.8466379999999
 30
0.0
 11
52.04568599999999
 21
170.649908
 31
0.0
  0
LINE
  5
A4B1
330
A348
100
AcDbEntity
  8
1
  6
Continuous
100
AcDbLine
 10
58.87679699999999
 20
174.479739
 30
0.0
 11
33.484897
 21
174.479739
 31
0.0
  0
LINE
  5
A4B2
330
A348
100
AcDbEntity
  8
1
  6
Continuous
100
AcDbLine
 10
35.075123
 20
168.8466379999999
 30
0.0
 11
33.271853
 21
170.649908
 31
0.0
  0
LINE
  5
A4B3
330
A348
100
AcDbEntity
  8
1
  6
Continuous
100
AcDbLine
 10
33.271853
 20
168.8466379999999
 30
0.0
 11
35.075123
 21
170.649908
 31
0.0
  0
ARC
  5
A4B4
330
A348
100
AcDbEntity
  8
1
  6
Continuous
100
AcDbCircle
 10
31.211178
 20
171.4628969999999
 30
0.0
 40
1.098799999999998
100
AcDbArc
 50
119.429525
 51
159.693839
  0
LINE
  5
A4B5
330
A348
100
AcDbEntity
  8
1
  6
Continuous
100
AcDbLine
 10
29.93084699999998
 20
170.649908
 30
0.0
 11
29.93084699999998
 21
168.8466379999999
 31
0.0
  0
ARC
  5
A4B6
330
A348
100
AcDbEntity
  8
1
  6
Continuous
100
AcDbCircle
 10
32.52904199999999
 20
172.1751079999999
 30
0.0
 40
2.371570999999998
100
AcDbArc
 50
188.020211
 51
220.040406
  0
LINE
  5
A4B7
330
A348
100
AcDbEntity
  8
1
  6
Continuous
100
AcDbLine
 10
32.953803
 20
168.8466379999999
 30
0.0
 11
31.150533
 21
170.649908
 31
0.0
  0
LINE
  5
A4B8
330
A348
100
AcDbEntity
  8
1
  6
Continuous
100
AcDbLine
 10
30.83248199999999
 20
168.8466379999999
 30
0.0
 11
29.93084699999998
 21
169.748273
 31
0.0
  0
LINE
  5
A4B9
330
A348
100
AcDbEntity
  8
1
  6
Continuous
100
AcDbLine
 10
31.150533
 20
168.8466379999999
 30
0.0
 11
32.953803
 21
170.649908
 31
0.0
  0
LINE
  5
A4BA
330
A348
100
AcDbEntity
  8
1
  6
Continuous
100
AcDbLine
 10
30.83248199999999
 20
170.649908
 30
0.0
 11
29.93084699999998
 21
169.748273
 31
0.0
  0
ARC
  5
A4BB
330
A348
100
AcDbEntity
  8
1
  6
Continuous
100
AcDbCircle
 10
33.98181199999999
 20
171.979739
 30
0.0
 40
2.5
100
AcDbArc
 50
90.0
 51
169.859207
  0
LINE
  5
A4BC
330
A348
100
AcDbEntity
  8
1
  6
Continuous
100
AcDbLine
 10
43.560404
 20
168.8466379999999
 30
0.0
 11
41.757134
 21
170.649908
 31
0.0
  0
LINE
  5
A4BD
330
A348
100
AcDbEntity
  8
1
  6
Continuous
100
AcDbLine
 10
41.757134
 20
168.8466379999999
 30
0.0
 11
43.560404
 21
170.649908
 31
0.0
  0
LINE
  5
A4BE
330
A348
100
AcDbEntity
  8
1
  6
Continuous
100
AcDbLine
 10
39.317764
 20
168.8466379999999
 30
0.0
 11
37.514494
 21
170.649908
 31
0.0
  0
LINE
  5
A4BF
330
A348
100
AcDbEntity
  8
1
  6
Continuous
100
AcDbLine
 10
37.514494
 20
168.8466379999999
 30
0.0
 11
39.317764
 21
170.649908
 31
0.0
  0
LINE
  5
A4C0
330
A348
100
AcDbEntity
  8
1
  6
Continuous
100
AcDbLine
 10
37.19644300000001
 20
168.8466379999999
 30
0.0
 11
35.39317299999999
 21
170.649908
 31
0.0
  0
LINE
  5
A4C1
330
A348
100
AcDbEntity
  8
1
  6
Continuous
100
AcDbLine
 10
35.39317299999999
 20
168.8466379999999
 30
0.0
 11
37.19644300000001
 21
170.649908
 31
0.0
  0
LINE
  5
A4C2
330
A348
100
AcDbEntity
  8
1
  6
Continuous
100
AcDbLine
 10
41.43908399999999
 20
168.8466379999999
 30
0.0
 11
39.63581400000001
 21
170.649908
 31
0.0
  0
LINE
  5
A4C3
330
A348
100
AcDbEntity
  8
1
  6
Continuous
100
AcDbLine
 10
39.63581400000001
 20
168.8466379999999
 30
0.0
 11
41.43908399999999
 21
170.649908
 31
0.0
  0
LINE
  5
A4C4
330
A348
100
AcDbEntity
  8
1
  6
Continuous
100
AcDbLine
 10
45.681725
 20
168.8466379999999
 30
0.0
 11
43.878455
 21
170.649908
 31
0.0
  0
LINE
  5
A4C5
330
A348
100
AcDbEntity
  8
1
  6
Continuous
100
AcDbLine
 10
43.878455
 20
168.8466379999999
 30
0.0
 11
45.681725
 21
170.649908
 31
0.0
  0
LINE
  5
A4C6
330
A348
100
AcDbEntity
  8
1
  6
Continuous
100
AcDbLine
 10
49.924365
 20
168.8466379999999
 30
0.0
 11
48.121095
 21
170.649908
 31
0.0
  0
LINE
  5
A4C7
330
A348
100
AcDbEntity
  8
1
  6
Continuous
100
AcDbLine
 10
47.80304499999998
 20
168.8466379999999
 30
0.0
 11
45.999775
 21
170.649908
 31
0.0
  0
LINE
  5
A4C8
330
A348
100
AcDbEntity
  8
1
  6
Continuous
100
AcDbLine
 10
48.121095
 20
168.8466379999999
 30
0.0
 11
49.924365
 21
170.649908
 31
0.0
  0
LINE
  5
A4C9
330
A348
100
AcDbEntity
  8
1
  6
Continuous
100
AcDbLine
 10
45.999775
 20
168.8466379999999
 30
0.0
 11
47.80304499999998
 21
170.649908
 31
0.0
  0
LINE
  5
A4CA
330
A348
100
AcDbEntity
  8
1
  6
Continuous
100
AcDbLine
 10
58.409647
 20
168.8466379999999
 30
0.0
 11
56.606377
 21
170.649908
 31
0.0
  0
LINE
  5
A4CB
330
A348
100
AcDbEntity
  8
1
  6
Continuous
100
AcDbLine
 10
56.606377
 20
168.8466379999999
 30
0.0
 11
58.409647
 21
170.649908
 31
0.0
  0
LINE
  5
A4CC
330
A348
100
AcDbEntity
  8
1
  6
Continuous
100
AcDbLine
 10
54.16700600000001
 20
168.8466379999999
 30
0.0
 11
52.363736
 21
170.649908
 31
0.0
  0
LINE
  5
A4CD
330
A348
100
AcDbEntity
  8
1
  6
Continuous
100
AcDbLine
 10
52.363736
 20
168.8466379999999
 30
0.0
 11
54.16700600000001
 21
170.649908
 31
0.0
  0
LINE
  5
A4CE
330
A348
100
AcDbEntity
  8
1
  6
Continuous
100
AcDbLine
 10
56.28832599999999
 20
168.8466379999999
 30
0.0
 11
54.485056
 21
170.649908
 31
0.0
  0
LINE
  5
A4CF
330
A348
100
AcDbEntity
  8
1
  6
Continuous
100
AcDbLine
 10
54.485056
 20
168.8466379999999
 30
0.0
 11
56.28832599999999
 21
170.649908
 31
0.0
  0
ARC
  5
A4D0
330
A348
100
AcDbEntity
  8
1
  6
Continuous
100
AcDbCircle
 10
61.15051600000001
 20
171.4628969999999
 30
0.0
 40
1.098799999999998
100
AcDbArc
 50
20.306161
 51
60.57047500000001
  0
LINE
  5
A4D1
330
A348
100
AcDbEntity
  8
1
  6
Continuous
100
AcDbLine
 10
62.430847
 20
169.068078
 30
0.0
 11
60.849017
 21
170.649908
 31
0.0
  0
LINE
  5
A4D2
330
A348
100
AcDbEntity
  8
1
  6
Continuous
100
AcDbLine
 10
60.849017
 20
168.8466379999999
 30
0.0
 11
62.430847
 21
170.4284679999998
 31
0.0
  0
ARC
  5
A4D3
330
A348
100
AcDbEntity
  8
1
  6
Continuous
100
AcDbCircle
 10
59.832653
 20
172.1751079999999
 30
0.0
 40
2.371570999999998
100
AcDbArc
 50
319.959594
 51
351.9797889999999
  0
LINE
  5
A4D4
330
A348
100
AcDbEntity
  8
1
  6
Continuous
100
AcDbLine
 10
60.53096700000001
 20
168.8466379999999
 30
0.0
 11
58.727697
 21
170.649908
 31
0.0
  0
LINE
  5
A4D5
330
A348
100
AcDbEntity
  8
1
  6
Continuous
100
AcDbLine
 10
58.727697
 20
168.8466379999999
 30
0.0
 11
60.53096700000001
 21
170.649908
 31
0.0
  0
LINE
  5
A4D6
330
A348
100
AcDbEntity
  8
1
  6
Continuous
100
AcDbLine
 10
62.430847
 20
170.649908
 30
0.0
 11
62.430847
 21
168.8466379999999
 31
0.0
  0
ARC
  5
A4D7
330
A348
100
AcDbEntity
  8
1
  6
Continuous
100
AcDbCircle
 10
58.37988199999998
 20
171.979739
 30
0.0
 40
2.5
100
AcDbArc
 50
10.14079299999999
 51
90.0
  0
LINE
  5
A4D8
330
A348
100
AcDbEntity
  8
1
  6
Continuous
100
AcDbLine
 10
33.484897
 20
177.379739
 30
0.0
 11
58.87679699999999
 21
177.379739
 31
0.0
  0
LINE
  5
A4D9
330
A348
100
AcDbEntity
  8
1
  6
Continuous
100
AcDbLine
 10
36.680847
 20
208.3797389999999
 30
0.0
 11
55.68084699999999
 21
208.3797389999999
 31
0.0
  0
LINE
  5
A4DA
330
A348
100
AcDbEntity
  8
1
  6
Continuous
100
AcDbLine
 10
37.930847
 20
211.2797389999998
 30
0.0
 11
54.43084699999999
 21
211.2797389999998
 31
0.0
  0
LINE
  5
A4DB
330
A348
100
AcDbEntity
  8
2
  6
Continuous
100
AcDbLine
 10
42.85734699999999
 20
212.556248
 30
0.0
 11
42.85734699999999
 21
211.2797389999998
 31
0.0
  0
LINE
  5
A4DC
330
A348
100
AcDbEntity
  8
2
  6
Continuous
100
AcDbLine
 10
49.50434699999998
 20
212.5562299999999
 30
0.0
 11
49.50434699999998
 21
211.2797389999998
 31
0.0
  0
LINE
  5
A4DD
330
A348
100
AcDbEntity
  8
1
  6
Continuous
100
AcDbLine
 10
50.180838
 20
211.879739
 30
0.0
 11
48.680838
 21
213.379739
 31
0.0
  0
LINE
  5
A4DE
330
A348
100
AcDbEntity
  8
1
  6
Continuous
100
AcDbLine
 10
42.180838
 20
211.879739
 30
0.0
 11
50.180838
 21
211.879739
 31
0.0
  0
LINE
  5
A4DF
330
A348
100
AcDbEntity
  8
1
  6
Continuous
100
AcDbLine
 10
42.180838
 20
211.879739
 30
0.0
 11
43.68083799999999
 21
213.379739
 31
0.0
  0
LINE
  5
A4E0
330
A348
100
AcDbEntity
  8
1
  6
Continuous
100
AcDbLine
 10
42.180838
 20
211.2797389999998
 30
0.0
 11
42.180838
 21
211.879739
 31
0.0
  0
LINE
  5
A4E1
330
A348
100
AcDbEntity
  8
1
  6
Continuous
100
AcDbLine
 10
43.68083799999999
 20
213.379739
 30
0.0
 11
48.680838
 21
213.379739
 31
0.0
  0
LINE
  5
A4E2
330
A348
100
AcDbEntity
  8
1
  6
Continuous
100
AcDbLine
 10
50.180838
 20
211.2797389999998
 30
0.0
 11
50.180838
 21
211.879739
 31
0.0
  0
ARC
  5
A4E3
330
A348
100
AcDbEntity
  8
1
  6
Continuous
100
AcDbCircle
 10
130.1906849999998
 20
171.979644
 30
0.0
 40
2.5
100
AcDbArc
 50
90.0
 51
169.858981
  0
ARC
  5
A4E4
330
A348
100
AcDbEntity
  8
1
  6
Continuous
100
AcDbCircle
 10
154.588798
 20
171.979644
 30
0.0
 40
2.5
100
AcDbArc
 50
10.141019
 51
90.0
  0
LINE
  5
A4E5
330
A348
100
AcDbEntity
  8
1
  6
Continuous
100
AcDbLine
 10
126.1397609999999
 20
170.649823
 30
0.0
 11
158.6397609999999
 21
170.649823
 31
0.0
  0
LINE
  5
A4E6
330
A348
100
AcDbEntity
  8
1
  6
Continuous
100
AcDbLine
 10
126.8801939999999
 20
172.419823
 30
0.0
 11
157.8993269999998
 21
172.419823
 31
0.0
  0
LINE
  5
A4E7
330
A348
100
AcDbEntity
  8
1
  6
Continuous
100
AcDbLine
 10
126.389581
 20
171.8441349999999
 30
0.0
 11
158.3899409999999
 21
171.8441349999999
 31
0.0
  0
LINE
  5
A4E8
330
A348
100
AcDbEntity
  8
1
  6
Continuous
100
AcDbLine
 10
158.6397609999999
 20
168.846553
 30
0.0
 11
126.1397609999999
 21
168.846553
 31
0.0
  0
LINE
  5
A4E9
330
A348
100
AcDbEntity
  8
1
  6
Continuous
100
AcDbLine
 10
129.4807669999999
 20
168.846553
 30
0.0
 11
131.284037
 21
170.649823
 31
0.0
  0
LINE
  5
A4EA
330
A348
100
AcDbEntity
  8
1
  6
Continuous
100
AcDbLine
 10
131.284037
 20
168.846553
 30
0.0
 11
129.4807669999999
 21
170.649823
 31
0.0
  0
LINE
  5
A4EB
330
A348
100
AcDbEntity
  8
1
  6
Continuous
100
AcDbLine
 10
127.0413959999999
 20
170.649823
 30
0.0
 11
126.1397609999999
 21
169.7481879999999
 31
0.0
  0
LINE
  5
A4EC
330
A348
100
AcDbEntity
  8
1
  6
Continuous
100
AcDbLine
 10
127.3594459999999
 20
168.846553
 30
0.0
 11
129.1627159999999
 21
170.649823
 31
0.0
  0
LINE
  5
A4ED
330
A348
100
AcDbEntity
  8
1
  6
Continuous
100
AcDbLine
 10
127.0413959999999
 20
168.846553
 30
0.0
 11
126.1397609999999
 21
169.7481879999999
 31
0.0
  0
LINE
  5
A4EE
330
A348
100
AcDbEntity
  8
1
  6
Continuous
100
AcDbLine
 10
129.1627159999999
 20
168.846553
 30
0.0
 11
127.3594459999999
 21
170.649823
 31
0.0
  0
ARC
  5
A4EF
330
A348
100
AcDbEntity
  8
1
  6
Continuous
100
AcDbCircle
 10
128.7379559999999
 20
172.1750219999999
 30
0.0
 40
2.371570999999998
100
AcDbArc
 50
188.020211
 51
220.040406
  0
LINE
  5
A4F0
330
A348
100
AcDbEntity
  8
1
  6
Continuous
100
AcDbLine
 10
126.1397609999999
 20
170.649823
 30
0.0
 11
126.1397609999999
 21
168.846553
 31
0.0
  0
ARC
  5
A4F1
330
A348
100
AcDbEntity
  8
1
  6
Continuous
100
AcDbCircle
 10
127.4200919999999
 20
171.4628109999999
 30
0.0
 40
1.098799999999998
100
AcDbArc
 50
119.429525
 51
159.693839
  0
LINE
  5
A4F2
330
A348
100
AcDbEntity
  8
1
  6
Continuous
100
AcDbLine
 10
146.451329
 20
168.846553
 30
0.0
 11
148.254599
 21
170.649823
 31
0.0
  0
LINE
  5
A4F3
330
A348
100
AcDbEntity
  8
1
  6
Continuous
100
AcDbLine
 10
148.254599
 20
168.846553
 30
0.0
 11
146.451329
 21
170.649823
 31
0.0
  0
LINE
  5
A4F4
330
A348
100
AcDbEntity
  8
1
  6
Continuous
100
AcDbLine
 10
144.3300089999999
 20
168.846553
 30
0.0
 11
146.1332789999999
 21
170.649823
 31
0.0
  0
LINE
  5
A4F5
330
A348
100
AcDbEntity
  8
1
  6
Continuous
100
AcDbLine
 10
146.1332789999999
 20
168.846553
 30
0.0
 11
144.3300089999999
 21
170.649823
 31
0.0
  0
LINE
  5
A4F6
330
A348
100
AcDbEntity
  8
1
  6
Continuous
100
AcDbLine
 10
142.2086889999999
 20
168.846553
 30
0.0
 11
144.0119589999999
 21
170.649823
 31
0.0
  0
LINE
  5
A4F7
330
A348
100
AcDbEntity
  8
1
  6
Continuous
100
AcDbLine
 10
144.0119589999999
 20
168.846553
 30
0.0
 11
142.2086889999999
 21
170.649823
 31
0.0
  0
LINE
  5
A4F8
330
A348
100
AcDbEntity
  8
1
  6
Continuous
100
AcDbLine
 10
140.0873679999999
 20
168.846553
 30
0.0
 11
141.8906379999999
 21
170.649823
 31
0.0
  0
LINE
  5
A4F9
330
A348
100
AcDbEntity
  8
1
  6
Continuous
100
AcDbLine
 10
141.8906379999999
 20
168.846553
 30
0.0
 11
140.0873679999999
 21
170.649823
 31
0.0
  0
LINE
  5
A4FA
330
A348
100
AcDbEntity
  8
1
  6
Continuous
100
AcDbLine
 10
135.844728
 20
168.846553
 30
0.0
 11
137.647998
 21
170.649823
 31
0.0
  0
LINE
  5
A4FB
330
A348
100
AcDbEntity
  8
1
  6
Continuous
100
AcDbLine
 10
137.647998
 20
168.846553
 30
0.0
 11
135.844728
 21
170.649823
 31
0.0
  0
LINE
  5
A4FC
330
A348
100
AcDbEntity
  8
1
  6
Continuous
100
AcDbLine
 10
131.602087
 20
168.846553
 30
0.0
 11
133.405357
 21
170.649823
 31
0.0
  0
LINE
  5
A4FD
330
A348
100
AcDbEntity
  8
1
  6
Continuous
100
AcDbLine
 10
133.405357
 20
168.846553
 30
0.0
 11
131.602087
 21
170.649823
 31
0.0
  0
LINE
  5
A4FE
330
A348
100
AcDbEntity
  8
1
  6
Continuous
100
AcDbLine
 10
133.723407
 20
168.846553
 30
0.0
 11
135.526677
 21
170.649823
 31
0.0
  0
LINE
  5
A4FF
330
A348
100
AcDbEntity
  8
1
  6
Continuous
100
AcDbLine
 10
135.526677
 20
168.846553
 30
0.0
 11
133.723407
 21
170.649823
 31
0.0
  0
LINE
  5
A500
330
A348
100
AcDbEntity
  8
1
  6
Continuous
100
AcDbLine
 10
137.966048
 20
168.846553
 30
0.0
 11
139.769318
 21
170.649823
 31
0.0
  0
LINE
  5
A501
330
A348
100
AcDbEntity
  8
1
  6
Continuous
100
AcDbLine
 10
139.769318
 20
168.846553
 30
0.0
 11
137.966048
 21
170.649823
 31
0.0
  0
LINE
  5
A502
330
A348
100
AcDbEntity
  8
1
  6
Continuous
100
AcDbLine
 10
158.6397609999999
 20
170.649823
 30
0.0
 11
158.6397609999999
 21
168.846553
 31
0.0
  0
LINE
  5
A503
330
A348
100
AcDbEntity
  8
1
  6
Continuous
100
AcDbLine
 10
154.936611
 20
168.846553
 30
0.0
 11
156.739881
 21
170.649823
 31
0.0
  0
LINE
  5
A504
330
A348
100
AcDbEntity
  8
1
  6
Continuous
100
AcDbLine
 10
156.739881
 20
168.846553
 30
0.0
 11
154.936611
 21
170.649823
 31
0.0
  0
ARC
  5
A505
330
A348
100
AcDbEntity
  8
1
  6
Continuous
100
AcDbCircle
 10
156.0415659999998
 20
172.1750219999999
 30
0.0
 40
2.371570999999998
100
AcDbArc
 50
319.959594
 51
351.9797889999999
  0
LINE
  5
A506
330
A348
100
AcDbEntity
  8
1
  6
Continuous
100
AcDbLine
 10
157.057931
 20
168.846553
 30
0.0
 11
158.6397609999999
 21
170.428382
 31
0.0
  0
LINE
  5
A507
330
A348
100
AcDbEntity
  8
1
  6
Continuous
100
AcDbLine
 10
158.6397609999999
 20
169.0679929999998
 30
0.0
 11
157.057931
 21
170.649823
 31
0.0
  0
ARC
  5
A508
330
A348
100
AcDbEntity
  8
1
  6
Continuous
100
AcDbCircle
 10
157.35943
 20
171.4628109999999
 30
0.0
 40
1.098799999999998
100
AcDbArc
 50
20.306161
 51
60.57047500000001
  0
LINE
  5
A509
330
A348
100
AcDbEntity
  8
1
  6
Continuous
100
AcDbLine
 10
150.69397
 20
168.846553
 30
0.0
 11
152.4972399999998
 21
170.649823
 31
0.0
  0
LINE
  5
A50A
330
A348
100
AcDbEntity
  8
1
  6
Continuous
100
AcDbLine
 10
152.4972399999998
 20
168.846553
 30
0.0
 11
150.69397
 21
170.649823
 31
0.0
  0
LINE
  5
A50B
330
A348
100
AcDbEntity
  8
1
  6
Continuous
100
AcDbLine
 10
148.57265
 20
168.846553
 30
0.0
 11
150.37592
 21
170.649823
 31
0.0
  0
LINE
  5
A50C
330
A348
100
AcDbEntity
  8
1
  6
Continuous
100
AcDbLine
 10
150.37592
 20
168.846553
 30
0.0
 11
148.57265
 21
170.649823
 31
0.0
  0
LINE
  5
A50D
330
A348
100
AcDbEntity
  8
1
  6
Continuous
100
AcDbLine
 10
152.81529
 20
168.846553
 30
0.0
 11
154.61856
 21
170.649823
 31
0.0
  0
LINE
  5
A50E
330
A348
100
AcDbEntity
  8
1
  6
Continuous
100
AcDbLine
 10
154.61856
 20
168.846553
 30
0.0
 11
152.81529
 21
170.649823
 31
0.0
  0
LINE
  5
A50F
330
A348
100
AcDbEntity
  8
1
  6
Continuous
100
AcDbLine
 10
127.7297409999998
 20
174.479644
 30
0.0
 11
157.0497409999999
 21
174.479434
 31
0.0
  0
LINE
  5
A510
330
A348
100
AcDbEntity
  8
1
  6
Continuous
100
AcDbLine
 10
127.7297409999998
 20
177.379633
 30
0.0
 11
157.0497409999999
 21
177.379633
 31
0.0
  0
LINE
  5
A511
330
A348
100
AcDbEntity
  8
1
  6
Continuous
100
AcDbLine
 10
127.7297409999998
 20
174.479644
 30
0.0
 11
127.7297409999998
 21
177.379633
 31
0.0
  0
LINE
  5
A512
330
A348
100
AcDbEntity
  8
1
  6
Continuous
100
AcDbLine
 10
135.0597409999998
 20
177.379633
 30
0.0
 11
135.0597409999998
 21
174.4795899999998
 31
0.0
  0
LINE
  5
A513
330
A348
100
AcDbEntity
  8
1
  6
Continuous
100
AcDbLine
 10
157.0497409999999
 20
174.479434
 30
0.0
 11
157.0497409999999
 21
177.379633
 31
0.0
  0
LINE
  5
A514
330
A348
100
AcDbEntity
  8
1
  6
Continuous
100
AcDbLine
 10
149.719741
 20
177.379633
 30
0.0
 11
149.719741
 21
174.4795899999998
 31
0.0
  0
LINE
  5
A515
330
A348
100
AcDbEntity
  8
1
  6
Continuous
100
AcDbLine
 10
132.889761
 20
208.379633
 30
0.0
 11
151.8897609999999
 21
208.379633
 31
0.0
  0
LINE
  5
A516
330
A348
100
AcDbEntity
  8
1
  6
Continuous
100
AcDbLine
 10
133.139761
 20
211.279633
 30
0.0
 11
151.639761
 21
211.279633
 31
0.0
  0
LINE
  5
A517
330
A348
100
AcDbEntity
  8
2
  6
Continuous
100
AcDbLine
 10
139.0662609999999
 20
212.5561129999999
 30
0.0
 11
139.0662609999999
 21
211.279633
 31
0.0
  0
LINE
  5
A518
330
A348
100
AcDbEntity
  8
2
  6
Continuous
100
AcDbLine
 10
145.7132609999999
 20
212.5561129999999
 30
0.0
 11
145.7132609999999
 21
211.279633
 31
0.0
  0
LINE
  5
A519
330
A348
100
AcDbEntity
  8
1
  6
Continuous
100
AcDbLine
 10
138.3897409999998
 20
211.879633
 30
0.0
 11
146.3897409999999
 21
211.879633
 31
0.0
  0
LINE
  5
A51A
330
A348
100
AcDbEntity
  8
1
  6
Continuous
100
AcDbLine
 10
146.3897409999999
 20
211.879633
 30
0.0
 11
144.8897409999998
 21
213.379633
 31
0.0
  0
LINE
  5
A51B
330
A348
100
AcDbEntity
  8
1
  6
Continuous
100
AcDbLine
 10
139.889781
 20
213.379633
 30
0.0
 11
144.8897409999998
 21
213.379633
 31
0.0
  0
LINE
  5
A51C
330
A348
100
AcDbEntity
  8
1
  6
Continuous
100
AcDbLine
 10
138.3897409999998
 20
211.279633
 30
0.0
 11
138.3897409999998
 21
211.879594
 31
0.0
  0
LINE
  5
A51D
330
A348
100
AcDbEntity
  8
1
  6
Continuous
100
AcDbLine
 10
138.389781
 20
211.879633
 30
0.0
 11
139.889781
 21
213.379633
 31
0.0
  0
LINE
  5
A51E
330
A348
100
AcDbEntity
  8
1
  6
Continuous
100
AcDbLine
 10
146.3897409999999
 20
211.279633
 30
0.0
 11
146.3897409999999
 21
211.879633
 31
0.0
  0
LINE
  5
A51F
330
A348
100
AcDbEntity
  8
4
  6
CENTER
100
AcDbLine
 10
290.807587
 20
218.379633
 30
0.0
 11
290.807587
 21
149.571809
 31
0.0
  0
LINE
  5
A520
330
A348
100
AcDbEntity
  8
1
  6
Continuous
100
AcDbLine
 10
283.4776069999999
 20
177.379633
 30
0.0
 11
283.4776069999999
 21
174.4795899999998
 31
0.0
  0
LINE
  5
A521
330
A348
100
AcDbEntity
  8
1
  6
Continuous
100
AcDbLine
 10
276.147607
 20
174.479434
 30
0.0
 11
276.147607
 21
177.379633
 31
0.0
  0
LINE
  5
A522
330
A348
100
AcDbEntity
  8
1
  6
Continuous
100
AcDbLine
 10
298.1376069999999
 20
177.379633
 30
0.0
 11
298.1376069999999
 21
174.4795899999998
 31
0.0
  0
LINE
  5
A523
330
A348
100
AcDbEntity
  8
1
  6
Continuous
100
AcDbLine
 10
305.4676069999998
 20
174.479644
 30
0.0
 11
305.4676069999998
 21
177.379633
 31
0.0
  0
LINE
  5
A524
330
A348
100
AcDbEntity
  8
1
  6
Continuous
100
AcDbLine
 10
304.0346319999998
 20
168.846553
 30
0.0
 11
305.8379019999998
 21
170.649823
 31
0.0
  0
LINE
  5
A525
330
A348
100
AcDbEntity
  8
1
  6
Continuous
100
AcDbLine
 10
305.8379019999998
 20
168.846553
 30
0.0
 11
304.0346319999998
 21
170.649823
 31
0.0
  0
LINE
  5
A526
330
A348
100
AcDbEntity
  8
1
  6
Continuous
100
AcDbLine
 10
274.557587
 20
168.846553
 30
0.0
 11
307.057587
 21
168.846553
 31
0.0
  0
LINE
  5
A527
330
A348
100
AcDbEntity
  8
1
  6
Continuous
100
AcDbLine
 10
306.807767
 20
171.8441349999999
 30
0.0
 11
274.8074069999999
 21
171.8441349999999
 31
0.0
  0
LINE
  5
A528
330
A348
100
AcDbEntity
  8
1
  6
Continuous
100
AcDbLine
 10
306.317154
 20
172.419823
 30
0.0
 11
275.29802
 21
172.419823
 31
0.0
  0
LINE
  5
A529
330
A348
100
AcDbEntity
  8
1
  6
Continuous
100
AcDbLine
 10
307.057587
 20
170.649823
 30
0.0
 11
274.557587
 21
170.649823
 31
0.0
  0
ARC
  5
A52A
330
A348
100
AcDbEntity
  8
1
  6
Continuous
100
AcDbCircle
 10
303.006663
 20
171.979644
 30
0.0
 40
2.5
100
AcDbArc
 50
10.141019
 51
90.0
  0
ARC
  5
A52B
330
A348
100
AcDbEntity
  8
1
  6
Continuous
100
AcDbCircle
 10
312.8598129999998
 20
145.0480639999998
 30
0.0
 40
12.0
100
AcDbArc
 50
227.1428139999999
 51
242.584152
  0
ARC
  5
A52C
330
A348
100
AcDbEntity
  8
1
  6
Continuous
100
AcDbCircle
 10
305.7839299999999
 20
168.846553
 30
0.0
 40
2.893297
100
AcDbArc
 50
195.531745
 51
268.5982619999999
  0
LINE
  5
A52D
330
A348
100
AcDbEntity
  8
1
  6
Continuous
100
AcDbLine
 10
307.057587
 20
168.846553
 30
0.0
 11
274.557587
 21
168.846553
 31
0.0
  0
ARC
  5
A52E
330
A348
100
AcDbEntity
  8
1
  6
Continuous
100
AcDbCircle
 10
309.807587
 20
141.379624
 30
0.0
 40
20.0
100
AcDbArc
 50
151.5035839999999
 51
85.38317199999999
  0
ARC
  5
A52F
330
A348
100
AcDbEntity
  8
1
  6
Continuous
100
AcDbCircle
 10
309.807587
 20
141.379624
 30
0.0
 40
13.5
100
AcDbArc
 50
164.723795
 51
73.68728299999998
  0
ARC
  5
A530
330
A348
100
AcDbEntity
  8
1
  6
Continuous
100
AcDbCircle
 10
309.807587
 20
141.379624
 30
0.0
 40
8.5
100
AcDbArc
 50
193.7303209999999
 51
45.63999899999998
  0
LINE
  5
A531
330
A348
100
AcDbEntity
  8
4
  6
CENTER
100
AcDbLine
 10
286.807587
 20
141.379624
 30
0.0
 11
332.807587
 21
141.379624
 31
0.0
  0
LINE
  5
A532
330
A348
100
AcDbEntity
  8
4
  6
CENTER
100
AcDbLine
 10
309.807587
 20
118.3796239999998
 30
0.0
 11
309.807587
 21
164.379624
 31
0.0
  0
ARC
  5
A533
330
A348
100
AcDbEntity
  8
1
  6
Continuous
100
AcDbCircle
 10
310.557587
 20
140.6096239999999
 30
0.0
 40
7.0
100
AcDbArc
 50
242.584152
 51
16.799546
  0
LINE
  5
A534
330
A348
100
AcDbEntity
  8
1
  6
Continuous
100
AcDbLine
 10
309.9995839999999
 20
165.849233
 30
0.0
 11
317.258839
 21
142.632793
 31
0.0
  0
ARC
  5
A535
330
A348
100
AcDbEntity
  8
1
  6
Continuous
100
AcDbCircle
 10
305.777256
 20
171.4628109999999
 30
0.0
 40
1.098799999999998
100
AcDbArc
 50
20.306161
 51
60.57047500000001
  0
LINE
  5
A536
330
A348
100
AcDbEntity
  8
1
  6
Continuous
100
AcDbLine
 10
307.057587
 20
170.649823
 30
0.0
 11
307.057587
 21
168.846553
 31
0.0
  0
ARC
  5
A537
330
A348
100
AcDbEntity
  8
1
  6
Continuous
100
AcDbCircle
 10
304.459392
 20
172.1750219999999
 30
0.0
 40
2.371570999999998
100
AcDbArc
 50
319.959594
 51
351.9797889999999
  0
LINE
  5
A538
330
A348
100
AcDbEntity
  8
1
  6
Continuous
100
AcDbLine
 10
306.155952
 20
168.846553
 30
0.0
 11
307.057587
 21
169.7481879999999
 31
0.0
  0
LINE
  5
A539
330
A348
100
AcDbEntity
  8
1
  6
Continuous
100
AcDbLine
 10
306.155952
 20
170.649823
 30
0.0
 11
307.057587
 21
169.7481879999999
 31
0.0
  0
ARC
  5
A53A
330
A348
100
AcDbEntity
  8
1
  6
Continuous
100
AcDbCircle
 10
311.7089879999999
 20
164.541043
 30
0.0
 40
1.265223999999999
100
AcDbArc
 50
51.30749900000001
 51
88.598262
  0
LINE
  5
A53B
330
A348
100
AcDbEntity
  8
1
  6
Continuous
100
AcDbLine
 10
312.499931
 20
164.6393149999999
 30
0.0
 11
312.499931
 21
165.5285659999998
 31
0.0
  0
ARC
  5
A53C
330
A348
100
AcDbEntity
  8
1
  6
Continuous
100
AcDbCircle
 10
314.715639
 20
163.7428209999999
 30
0.0
 40
2.390200999999998
100
AcDbArc
 50
157.971334
 51
176.48618
  0
ARC
  5
A53D
330
A348
100
AcDbEntity
  8
1
  6
Continuous
100
AcDbCircle
 10
308.660373
 20
167.391683
 30
0.0
 40
1.509986
100
AcDbArc
 50
206.434278
 51
268.5982619999999
  0
ARC
  5
A53E
330
A348
100
AcDbEntity
  8
1
  6
Continuous
100
AcDbCircle
 10
308.3827979999999
 20
167.2536859999999
 30
0.0
 40
1.199999999999999
100
AcDbArc
 50
178.0291489999999
 51
206.434278
  0
ARC
  5
A53F
330
A348
100
AcDbEntity
  8
1
  6
Continuous
100
AcDbCircle
 10
305.684396
 20
167.346542
 30
0.0
 40
1.5
100
AcDbArc
 50
358.029149
 51
90.0
  0
LINE
  5
A540
330
A348
100
AcDbEntity
  8
1
  6
Continuous
100
AcDbLine
 10
305.7131519999999
 20
165.9541219999999
 30
0.0
 11
308.575619
 21
165.884078
 31
0.0
  0
LINE
  5
A541
330
A348
100
AcDbEntity
  8
1
  6
Continuous
100
AcDbLine
 10
310.5830839999998
 20
163.916532
 30
0.0
 11
312.329931
 21
163.8893149999999
 31
0.0
  0
LINE
  5
A542
330
A348
100
AcDbEntity
  8
1
  6
Continuous
100
AcDbLine
 10
308.575619
 20
165.884078
 30
0.0
 11
311.7709389999999
 21
165.8058889999998
 31
0.0
  0
ARC
  5
A543
330
A348
100
AcDbEntity
  8
1
  6
Continuous
100
AcDbCircle
 10
277.123453
 20
165.516661
 30
0.0
 40
3.635797999999998
100
AcDbArc
 50
144.4100699999999
 51
181.543274
  0
LINE
  5
A544
330
A348
100
AcDbEntity
  8
1
  6
Continuous
100
AcDbLine
 10
274.857587
 20
162.4236379999999
 30
0.0
 11
273.507587
 21
162.589622
 31
0.0
  0
ARC
  5
A545
330
A348
100
AcDbEntity
  8
1
  6
Continuous
100
AcDbCircle
 10
121.129926
 20
17.060648
 30
0.0
 40
217.2536169999999
100
AcDbArc
 50
36.41495299999999
 51
41.17715399999997
  0
ARC
  5
A546
330
A348
100
AcDbEntity
  8
1
  6
Continuous
100
AcDbCircle
 10
206.6356049999999
 20
82.551573
 30
0.0
 40
109.54901
100
AcDbArc
 50
37.449402
 51
44.931337
  0
LINE
  5
A547
330
A348
100
AcDbEntity
  8
1
  6
Continuous
100
AcDbLine
 10
302.8906329999998
 20
160.235704
 30
0.0
 11
302.8906329999998
 21
143.9688539999998
 31
0.0
  0
ARC
  5
A548
330
A348
100
AcDbEntity
  8
1
  6
Continuous
100
AcDbCircle
 10
352.396021
 20
187.6578969999999
 30
0.0
 40
70.12666800000001
100
AcDbArc
 50
216.4149529999999
 51
227.1428139999999
  0
LINE
  5
A549
330
A348
100
AcDbEntity
  8
1
  6
Continuous
100
AcDbLine
 10
305.4676069999998
 20
174.479644
 30
0.0
 11
276.147607
 21
174.479434
 31
0.0
  0
LINE
  5
A54A
330
A348
100
AcDbEntity
  8
1
  6
Continuous
100
AcDbLine
 10
289.1853889999998
 20
168.846553
 30
0.0
 11
290.9886589999999
 21
170.649823
 31
0.0
  0
LINE
  5
A54B
330
A348
100
AcDbEntity
  8
1
  6
Continuous
100
AcDbLine
 10
290.9886589999999
 20
168.846553
 30
0.0
 11
289.1853889999998
 21
170.649823
 31
0.0
  0
LINE
  5
A54C
330
A348
100
AcDbEntity
  8
1
  6
Continuous
100
AcDbLine
 10
293.4280299999999
 20
168.846553
 30
0.0
 11
295.2312999999999
 21
170.649823
 31
0.0
  0
LINE
  5
A54D
330
A348
100
AcDbEntity
  8
1
  6
Continuous
100
AcDbLine
 10
295.2312999999999
 20
168.846553
 30
0.0
 11
293.4280299999999
 21
170.649823
 31
0.0
  0
LINE
  5
A54E
330
A348
100
AcDbEntity
  8
1
  6
Continuous
100
AcDbLine
 10
297.6706709999999
 20
168.846553
 30
0.0
 11
299.473941
 21
170.649823
 31
0.0
  0
LINE
  5
A54F
330
A348
100
AcDbEntity
  8
1
  6
Continuous
100
AcDbLine
 10
299.473941
 20
168.846553
 30
0.0
 11
297.6706709999999
 21
170.649823
 31
0.0
  0
LINE
  5
A550
330
A348
100
AcDbEntity
  8
1
  6
Continuous
100
AcDbLine
 10
299.791991
 20
168.846553
 30
0.0
 11
301.5952609999998
 21
170.649823
 31
0.0
  0
LINE
  5
A551
330
A348
100
AcDbEntity
  8
1
  6
Continuous
100
AcDbLine
 10
301.5952609999998
 20
168.846553
 30
0.0
 11
299.791991
 21
170.649823
 31
0.0
  0
LINE
  5
A552
330
A348
100
AcDbEntity
  8
1
  6
Continuous
100
AcDbLine
 10
295.54935
 20
168.846553
 30
0.0
 11
297.35262
 21
170.649823
 31
0.0
  0
LINE
  5
A553
330
A348
100
AcDbEntity
  8
1
  6
Continuous
100
AcDbLine
 10
297.35262
 20
168.846553
 30
0.0
 11
295.54935
 21
170.649823
 31
0.0
  0
LINE
  5
A554
330
A348
100
AcDbEntity
  8
1
  6
Continuous
100
AcDbLine
 10
291.30671
 20
168.846553
 30
0.0
 11
293.10998
 21
170.649823
 31
0.0
  0
LINE
  5
A555
330
A348
100
AcDbEntity
  8
1
  6
Continuous
100
AcDbLine
 10
293.10998
 20
168.846553
 30
0.0
 11
291.30671
 21
170.649823
 31
0.0
  0
LINE
  5
A556
330
A348
100
AcDbEntity
  8
1
  6
Continuous
100
AcDbLine
 10
301.9133109999998
 20
168.846553
 30
0.0
 11
303.716581
 21
170.649823
 31
0.0
  0
LINE
  5
A557
330
A348
100
AcDbEntity
  8
1
  6
Continuous
100
AcDbLine
 10
303.716581
 20
168.846553
 30
0.0
 11
301.9133109999998
 21
170.649823
 31
0.0
  0
LINE
  5
A558
330
A348
100
AcDbEntity
  8
1
  6
Continuous
100
AcDbLine
 10
278.5787879999999
 20
168.846553
 30
0.0
 11
280.3820579999999
 21
170.649823
 31
0.0
  0
LINE
  5
A559
330
A348
100
AcDbEntity
  8
1
  6
Continuous
100
AcDbLine
 10
280.3820579999999
 20
168.846553
 30
0.0
 11
278.5787879999999
 21
170.649823
 31
0.0
  0
LINE
  5
A55A
330
A348
100
AcDbEntity
  8
1
  6
Continuous
100
AcDbLine
 10
282.8214279999999
 20
168.846553
 30
0.0
 11
284.624698
 21
170.649823
 31
0.0
  0
LINE
  5
A55B
330
A348
100
AcDbEntity
  8
1
  6
Continuous
100
AcDbLine
 10
284.624698
 20
168.846553
 30
0.0
 11
282.8214279999999
 21
170.649823
 31
0.0
  0
LINE
  5
A55C
330
A348
100
AcDbEntity
  8
1
  6
Continuous
100
AcDbLine
 10
280.700108
 20
168.846553
 30
0.0
 11
282.503378
 21
170.649823
 31
0.0
  0
LINE
  5
A55D
330
A348
100
AcDbEntity
  8
1
  6
Continuous
100
AcDbLine
 10
282.503378
 20
168.846553
 30
0.0
 11
280.700108
 21
170.649823
 31
0.0
  0
ARC
  5
A55E
330
A348
100
AcDbEntity
  8
1
  6
Continuous
100
AcDbCircle
 10
275.8379179999999
 20
171.4628109999999
 30
0.0
 40
1.098799999999998
100
AcDbArc
 50
119.429525
 51
159.693839
  0
LINE
  5
A55F
330
A348
100
AcDbEntity
  8
1
  6
Continuous
100
AcDbLine
 10
274.557587
 20
169.0679929999998
 30
0.0
 11
276.1394169999999
 21
170.649823
 31
0.0
  0
LINE
  5
A560
330
A348
100
AcDbEntity
  8
1
  6
Continuous
100
AcDbLine
 10
276.1394169999999
 20
168.846553
 30
0.0
 11
274.557587
 21
170.428382
 31
0.0
  0
ARC
  5
A561
330
A348
100
AcDbEntity
  8
1
  6
Continuous
100
AcDbCircle
 10
277.1557819999998
 20
172.1750219999999
 30
0.0
 40
2.371570999999998
100
AcDbArc
 50
188.020211
 51
220.040406
  0
LINE
  5
A562
330
A348
100
AcDbEntity
  8
1
  6
Continuous
100
AcDbLine
 10
276.457467
 20
168.846553
 30
0.0
 11
278.260737
 21
170.649823
 31
0.0
  0
LINE
  5
A563
330
A348
100
AcDbEntity
  8
1
  6
Continuous
100
AcDbLine
 10
278.260737
 20
168.846553
 30
0.0
 11
276.457467
 21
170.649823
 31
0.0
  0
LINE
  5
A564
330
A348
100
AcDbEntity
  8
1
  6
Continuous
100
AcDbLine
 10
274.557587
 20
170.649823
 30
0.0
 11
274.557587
 21
168.846553
 31
0.0
  0
LINE
  5
A565
330
A348
100
AcDbEntity
  8
1
  6
Continuous
100
AcDbLine
 10
287.064069
 20
168.846553
 30
0.0
 11
288.867339
 21
170.649823
 31
0.0
  0
LINE
  5
A566
330
A348
100
AcDbEntity
  8
1
  6
Continuous
100
AcDbLine
 10
288.867339
 20
168.846553
 30
0.0
 11
287.064069
 21
170.649823
 31
0.0
  0
LINE
  5
A567
330
A348
100
AcDbEntity
  8
1
  6
Continuous
100
AcDbLine
 10
284.942749
 20
168.846553
 30
0.0
 11
286.746019
 21
170.649823
 31
0.0
  0
LINE
  5
A568
330
A348
100
AcDbEntity
  8
1
  6
Continuous
100
AcDbLine
 10
286.746019
 20
168.846553
 30
0.0
 11
284.942749
 21
170.649823
 31
0.0
  0
ARC
  5
A569
330
A348
100
AcDbEntity
  8
1
  6
Continuous
100
AcDbCircle
 10
278.6085499999999
 20
171.979644
 30
0.0
 40
2.5
100
AcDbArc
 50
90.0
 51
169.858981
  0
ARC
  5
A56A
330
A348
100
AcDbEntity
  8
1
  6
Continuous
100
AcDbCircle
 10
279.3830919999999
 20
155.489397
 30
0.0
 40
7.0
100
AcDbArc
 50
41.17715399999997
 51
90.0
  0
ARC
  5
A56B
330
A348
100
AcDbEntity
  8
1
  6
Continuous
100
AcDbCircle
 10
278.002348
 20
153.747468
 30
0.0
 40
8.741928999999997
100
AcDbArc
 50
44.931337
 51
90.0
  0
ARC
  5
A56C
330
A348
100
AcDbEntity
  8
1
  6
Continuous
100
AcDbCircle
 10
276.528353
 20
165.942553
 30
0.0
 40
2.903999999999999
100
AcDbArc
 50
90.0
 51
144.4100699999999
  0
LINE
  5
A56D
330
A348
100
AcDbEntity
  8
1
  6
Continuous
100
AcDbLine
 10
275.315087
 20
162.489397
 30
0.0
 11
274.857587
 21
162.4236379999999
 31
0.0
  0
LINE
  5
A56E
330
A348
100
AcDbEntity
  8
1
  6
Continuous
100
AcDbLine
 10
275.315087
 20
162.489397
 30
0.0
 11
279.3830919999999
 21
162.489397
 31
0.0
  0
LINE
  5
A56F
330
A348
100
AcDbEntity
  8
1
  6
Continuous
100
AcDbLine
 10
274.857587
 20
162.4236379999999
 30
0.0
 11
278.981422
 21
162.4343969999999
 31
0.0
  0
LINE
  5
A570
330
A348
100
AcDbEntity
  8
1
  6
Continuous
100
AcDbLine
 10
273.507587
 20
162.589622
 30
0.0
 11
273.507587
 21
163.7586379999999
 31
0.0
  0
ARC
  5
A571
330
A348
100
AcDbEntity
  8
1
  6
Continuous
100
AcDbCircle
 10
261.3619749999999
 20
164.452619
 30
0.0
 40
12.165422
100
AcDbArc
 50
356.7297679999999
 51
4.554966
  0
LINE
  5
A572
330
A348
100
AcDbEntity
  8
1
  6
Continuous
100
AcDbLine
 10
305.4676069999998
 20
177.379633
 30
0.0
 11
276.147607
 21
177.379633
 31
0.0
  0
LINE
  5
A573
330
A348
100
AcDbEntity
  8
1
  6
Continuous
100
AcDbLine
 10
293.307567
 20
213.379633
 30
0.0
 11
288.3076069999999
 21
213.379633
 31
0.0
  0
LINE
  5
A574
330
A348
100
AcDbEntity
  8
1
  6
Continuous
100
AcDbLine
 10
294.8076069999999
 20
211.879633
 30
0.0
 11
286.8076069999998
 21
211.879633
 31
0.0
  0
LINE
  5
A575
330
A348
100
AcDbEntity
  8
1
  6
Continuous
100
AcDbLine
 10
300.057587
 20
211.279633
 30
0.0
 11
281.5575869999999
 21
211.279633
 31
0.0
  0
LINE
  5
A576
330
A348
100
AcDbEntity
  8
1
  6
Continuous
100
AcDbLine
 10
300.3075869999999
 20
208.379633
 30
0.0
 11
281.307587
 21
208.379633
 31
0.0
  0
LINE
  5
A577
330
A348
100
AcDbEntity
  8
1
  6
Continuous
100
AcDbLine
 10
294.807567
 20
211.879633
 30
0.0
 11
293.307567
 21
213.379633
 31
0.0
  0
LINE
  5
A578
330
A348
100
AcDbEntity
  8
1
  6
Continuous
100
AcDbLine
 10
294.8076069999999
 20
211.279633
 30
0.0
 11
294.8076069999999
 21
211.879594
 31
0.0
  0
LINE
  5
A579
330
A348
100
AcDbEntity
  8
2
  6
Continuous
100
AcDbLine
 10
294.1310869999999
 20
212.5561129999999
 30
0.0
 11
294.1310869999999
 21
211.279633
 31
0.0
  0
LINE
  5
A57A
330
A348
100
AcDbEntity
  8
1
  6
Continuous
100
AcDbLine
 10
286.8076069999998
 20
211.279633
 30
0.0
 11
286.8076069999998
 21
211.879633
 31
0.0
  0
LINE
  5
A57B
330
A348
100
AcDbEntity
  8
1
  6
Continuous
100
AcDbLine
 10
286.8076069999998
 20
211.879633
 30
0.0
 11
288.3076069999999
 21
213.379633
 31
0.0
  0
LINE
  5
A57C
330
A348
100
AcDbEntity
  8
2
  6
Continuous
100
AcDbLine
 10
287.4840869999998
 20
212.5561129999999
 30
0.0
 11
287.4840869999998
 21
211.279633
 31
0.0
  0
CIRCLE
  5
A57D
330
A348
100
AcDbEntity
  8
1
  6
Continuous
100
AcDbCircle
 10
309.807587
 20
141.379624
 30
0.0
 40
4.0
  0
CIRCLE
  5
A57E
330
A348
100
AcDbEntity
  8
2
  6
Continuous
100
AcDbCircle
 10
142.389761
 20
270.734523
 30
0.0
 40
3.3235
  0
ARC
  5
A57F
330
A348
100
AcDbEntity
  8
1
  6
Continuous
100
AcDbCircle
 10
142.389761
 20
270.734523
 30
0.0
 40
17.3
100
AcDbArc
 50
228.6925579999999
 51
131.3074419999999
  0
ARC
  5
A580
330
A348
100
AcDbEntity
  8
1
  6
Continuous
100
AcDbCircle
 10
128.329647
 20
286.7346229999998
 30
0.0
 40
4.0
100
AcDbArc
 50
270.0
 51
311.3074419999999
  0
ARC
  5
A581
330
A348
100
AcDbEntity
  8
1
  6
Continuous
100
AcDbCircle
 10
128.329647
 20
254.7344229999999
 30
0.0
 40
4.0
100
AcDbArc
 50
48.692558
 51
90.0
  0
LINE
  5
A582
330
A348
100
AcDbEntity
  8
1
  6
Continuous
100
AcDbLine
 10
281.307587
 20
208.379633
 30
0.0
 11
281.307587
 21
178.979633
 31
0.0
  0
LINE
  5
A583
330
A348
100
AcDbEntity
  8
1
  6
Continuous
100
AcDbLine
 10
300.3075869999999
 20
208.379633
 30
0.0
 11
300.3075869999999
 21
178.979633
 31
0.0
  0
LINE
  5
A584
330
A348
100
AcDbEntity
  8
1
  6
Continuous
100
AcDbLine
 10
281.307587
 20
181.379633
 30
0.0
 11
300.3075869999999
 21
181.379633
 31
0.0
  0
ARC
  5
A585
330
A348
100
AcDbEntity
  8
1
  6
Continuous
100
AcDbCircle
 10
282.807587
 20
178.979633
 30
0.0
 40
1.5
100
AcDbArc
 50
180.0
 51
270.0
  0
ARC
  5
A586
330
A348
100
AcDbEntity
  8
1
  6
Continuous
100
AcDbCircle
 10
298.807587
 20
178.979633
 30
0.0
 40
1.5
100
AcDbArc
 50
270.0
 51
0.0
  0
LINE
  5
A587
330
A348
100
AcDbEntity
  8
1
  6
Continuous
100
AcDbLine
 10
281.5575869999999
 20
208.379633
 30
0.0
 11
281.5575869999999
 21
211.279633
 31
0.0
  0
LINE
  5
A588
330
A348
100
AcDbEntity
  8
1
  6
Continuous
100
AcDbLine
 10
286.6242869999999
 20
211.279633
 30
0.0
 11
286.6242869999999
 21
208.379633
 31
0.0
  0
LINE
  5
A589
330
A348
100
AcDbEntity
  8
1
  6
Continuous
100
AcDbLine
 10
294.9908869999998
 20
211.279633
 30
0.0
 11
294.9908869999998
 21
208.379633
 31
0.0
  0
LINE
  5
A58A
330
A348
100
AcDbEntity
  8
1
  6
Continuous
100
AcDbLine
 10
300.057587
 20
208.379633
 30
0.0
 11
300.057587
 21
211.279633
 31
0.0
  0
LINE
  5
A58B
330
A348
100
AcDbEntity
  8
1
  6
Continuous
100
AcDbLine
 10
37.930847
 20
208.3797389999999
 30
0.0
 11
37.930847
 21
211.2797389999998
 31
0.0
  0
CIRCLE
  5
A58C
330
A348
100
AcDbEntity
  8
1
  6
Continuous
100
AcDbCircle
 10
142.389761
 20
270.734523
 30
0.0
 40
9.5
  0
ARC
  5
A58D
330
A348
100
AcDbEntity
  8
1
  6
Continuous
100
AcDbCircle
 10
142.389761
 20
270.734523
 30
0.0
 40
9.25
100
AcDbArc
 50
116.888048
 51
243.111952
  0
ARC
  5
A58E
330
A348
100
AcDbEntity
  8
1
  6
Continuous
100
AcDbCircle
 10
142.389761
 20
270.734523
 30
0.0
 40
9.25
100
AcDbArc
 50
296.8880480000001
 51
63.111952
  0
LINE
  5
A58F
330
A348
100
AcDbEntity
  8
1
  6
Continuous
100
AcDbLine
 10
138.206461
 20
262.484523
 30
0.0
 11
146.573061
 21
262.484523
 31
0.0
  0
LINE
  5
A590
330
A348
100
AcDbEntity
  8
1
  6
Continuous
100
AcDbLine
 10
146.573061
 20
278.984523
 30
0.0
 11
138.206461
 21
278.984523
 31
0.0
  0
LINE
  5
A591
330
A348
100
AcDbEntity
  8
1
  6
Continuous
100
AcDbLine
 10
54.43084699999999
 20
208.3797389999999
 30
0.0
 11
54.43084699999999
 21
211.2797389999998
 31
0.0
  0
LINE
  5
A592
330
A348
100
AcDbEntity
  8
1
  6
Continuous
100
AcDbLine
 10
36.680847
 20
181.3797389999998
 30
0.0
 11
55.68084699999999
 21
181.3797389999998
 31
0.0
  0
ARC
  5
A593
330
A348
100
AcDbEntity
  8
1
  6
Continuous
100
AcDbCircle
 10
38.18084699999999
 20
178.9797389999999
 30
0.0
 40
1.5
100
AcDbArc
 50
180.0
 51
270.0
  0
LINE
  5
A594
330
A348
100
AcDbEntity
  8
1
  6
Continuous
100
AcDbLine
 10
36.680847
 20
208.3797389999999
 30
0.0
 11
36.680847
 21
178.9797389999999
 31
0.0
  0
ARC
  5
A595
330
A348
100
AcDbEntity
  8
1
  6
Continuous
100
AcDbCircle
 10
54.180847
 20
178.9797389999999
 30
0.0
 40
1.5
100
AcDbArc
 50
270.0
 51
0.0
  0
LINE
  5
A596
330
A348
100
AcDbEntity
  8
1
  6
Continuous
100
AcDbLine
 10
55.68084699999999
 20
208.3797389999999
 30
0.0
 11
55.68084699999999
 21
178.9797389999999
 31
0.0
  0
ARC
  5
A597
330
A348
100
AcDbEntity
  8
1
  6
Continuous
100
AcDbCircle
 10
150.3897609999999
 20
178.979633
 30
0.0
 40
1.5
100
AcDbArc
 50
270.0
 51
0.0
  0
ARC
  5
A598
330
A348
100
AcDbEntity
  8
1
  6
Continuous
100
AcDbCircle
 10
134.3897609999999
 20
178.979633
 30
0.0
 40
1.5
100
AcDbArc
 50
180.0
 51
270.0
  0
LINE
  5
A599
330
A348
100
AcDbEntity
  8
1
  6
Continuous
100
AcDbLine
 10
151.8897609999999
 20
208.379633
 30
0.0
 11
151.8897609999999
 21
178.979633
 31
0.0
  0
LINE
  5
A59A
330
A348
100
AcDbEntity
  8
1
  6
Continuous
100
AcDbLine
 10
132.889761
 20
208.379633
 30
0.0
 11
132.889761
 21
178.979633
 31
0.0
  0
LINE
  5
A59B
330
A348
100
AcDbEntity
  8
1
  6
Continuous
100
AcDbLine
 10
132.889761
 20
181.379633
 30
0.0
 11
151.8897609999999
 21
181.379633
 31
0.0
  0
LINE
  5
A59C
330
A348
100
AcDbEntity
  8
1
  6
Continuous
100
AcDbLine
 10
207.0986739999999
 20
181.3797389999998
 30
0.0
 11
226.0986739999999
 21
181.3797389999998
 31
0.0
  0
LINE
  5
A59D
330
A348
100
AcDbEntity
  8
1
  6
Continuous
100
AcDbLine
 10
207.0986739999999
 20
208.3797389999999
 30
0.0
 11
207.0986739999999
 21
178.9797389999999
 31
0.0
  0
ARC
  5
A59E
330
A348
100
AcDbEntity
  8
1
  6
Continuous
100
AcDbCircle
 10
208.598674
 20
178.9797389999999
 30
0.0
 40
1.5
100
AcDbArc
 50
180.0
 51
270.0
  0
LINE
  5
A59F
330
A348
100
AcDbEntity
  8
1
  6
Continuous
100
AcDbLine
 10
226.0986739999999
 20
208.3797389999999
 30
0.0
 11
226.0986739999999
 21
178.9797389999999
 31
0.0
  0
ARC
  5
A5A0
330
A348
100
AcDbEntity
  8
1
  6
Continuous
100
AcDbCircle
 10
224.5986739999999
 20
178.9797389999999
 30
0.0
 40
1.5
100
AcDbArc
 50
270.0
 51
0.0
  0
LINE
  5
A5A1
330
A348
100
AcDbEntity
  8
1
  6
Continuous
100
AcDbLine
 10
138.206461
 20
211.279633
 30
0.0
 11
138.206461
 21
208.379633
 31
0.0
  0
LINE
  5
A5A2
330
A348
100
AcDbEntity
  8
1
  6
Continuous
100
AcDbLine
 10
133.139761
 20
208.379633
 30
0.0
 11
133.139761
 21
211.279633
 31
0.0
  0
LINE
  5
A5A3
330
A348
100
AcDbEntity
  8
1
  6
Continuous
100
AcDbLine
 10
151.639761
 20
208.379633
 30
0.0
 11
151.639761
 21
211.279633
 31
0.0
  0
LINE
  5
A5A4
330
A348
100
AcDbEntity
  8
1
  6
Continuous
100
AcDbLine
 10
146.573061
 20
211.279633
 30
0.0
 11
146.573061
 21
208.379633
 31
0.0
  0
LINE
  5
A5A5
330
A348
100
AcDbEntity
  8
1
  6
Continuous
100
AcDbLine
 10
208.348674
 20
208.3797389999999
 30
0.0
 11
208.348674
 21
211.2797389999998
 31
0.0
  0
LINE
  5
A5A6
330
A348
100
AcDbEntity
  8
1
  6
Continuous
100
AcDbLine
 10
224.848674
 20
208.3797389999999
 30
0.0
 11
224.848674
 21
211.2797389999998
 31
0.0
  0
ENDSEC
  0
SECTION
  2
OBJECTS
  0
DICTIONARY
  5
A336
330
0
100
AcDbDictionary
281
     1
  3
ACAD_CIP_PREVIOUS_PRODUCT_INFO
350
A608
  3
ACAD_COLOR
350
A5EA
  3
ACAD_DETAILVIEWSTYLE
350
A603
  3
ACAD_GROUP
350
A337
  3
ACAD_LAYOUT
350
A343
  3
ACAD_MATERIAL
350
A5B8
  3
ACAD_MLEADERSTYLE
350
A5FF
  3
ACAD_MLINESTYLE
350
A340
  3
ACAD_PLOTSETTINGS
350
A342
  3
ACAD_PLOTSTYLENAME
350
A5B6
  3
ACAD_SCALELIST
350
A5ED
  3
ACAD_SECTIONVIEWSTYLE
350
A601
  3
ACAD_TABLESTYLE
350
A5EB
  3
ACAD_VISUALSTYLE
350
A5D1
  3
ACDB_RECOMPOSE_DATA
350
A626
  3
AcDbVariableDictionary
350
A619
  3
DWGPROPS
350
A627
  0
DICTIONARY
  5
A609
330
A33A
100
AcDbDictionary
280
     1
281
     1
  3
ADSK_XREC_LAYER_RECONCILED
360
A60A
  0
DICTIONARY
  5
A60B
330
A350
100
AcDbDictionary
280
     1
281
     1
  3
ADSK_XREC_LAYER_RECONCILED
360
A60C
  0
DICTIONARY
  5
A60D
330
A351
100
AcDbDictionary
280
     1
281
     1
  3
ADSK_XREC_LAYER_RECONCILED
360
A60E
  0
DICTIONARY
  5
A60F
330
A352
100
AcDbDictionary
280
     1
281
     1
  3
ADSK_XREC_LAYER_RECONCILED
360
A610
  0
DICTIONARY
  5
A611
330
A353
100
AcDbDictionary
280
     1
281
     1
  3
ADSK_XREC_LAYER_RECONCILED
360
A612
  0
DICTIONARY
  5
A613
330
A354
100
AcDbDictionary
280
     1
281
     1
  3
ADSK_XREC_LAYER_RECONCILED
360
A614
  0
DICTIONARY
  5
A615
330
A355
100
AcDbDictionary
280
     1
281
     1
  3
ADSK_XREC_LAYER_RECONCILED
360
A616
  0
DICTIONARY
  5
A617
330
A356
100
AcDbDictionary
280
     1
281
     1
  3
ADSK_XREC_LAYER_RECONCILED
360
A618
  0
DICTIONARY
  5
A5B1
330
A348
100
AcDbDictionary
281
     1
  3
ACAD_LAYOUTSELFREF
350
A5B2
  0
DICTIONARY
  5
A5AF
330
A344
100
AcDbDictionary
281
     1
  3
ACAD_LAYOUTSELFREF
350
A5B0
  0
XRECORD
  5
A608
102
{ACAD_REACTORS
330
A336
102
}
330
A336
100
AcDbXrecord
280
     1
300
ACDLT
300
2014
300
ACDLT_F_S
  0
DICTIONARY
  5
A5EA
102
{ACAD_REACTORS
330
A336
102
}
330
A336
100
AcDbDictionary
281
     1
  0
DICTIONARY
  5
A603
102
{ACAD_REACTORS
330
A336
102
}
330
A336
100
AcDbDictionary
281
     1
  3
Imperial24
350
A604
  0
DICTIONARY
  5
A337
102
{ACAD_REACTORS
330
A336
102
}
330
A336
100
AcDbDictionary
281
     1
  0
DICTIONARY
  5
A343
102
{ACAD_REACTORS
330
A336
102
}
330
A336
100
AcDbDictionary
281
     1
  3
Model
350
A605
  3
レイアウト1
350
A606
  0
DICTIONARY
  5
A5B8
102
{ACAD_REACTORS
330
A336
102
}
330
A336
100
AcDbDictionary
281
     1
  3
ByBlock
350
A5C1
  3
ByLayer
350
A5B9
  3
Global
350
A5C9
  0
DICTIONARY
  5
A5FF
102
{ACAD_REACTORS
330
A336
102
}
330
A336
100
AcDbDictionary
281
     1
  3
Standard
350
A600
  0
DICTIONARY
  5
A340
102
{ACAD_REACTORS
330
A336
102
}
330
A336
100
AcDbDictionary
281
     1
  3
STANDARD
350
A341
  0
DICTIONARY
  5
A342
102
{ACAD_REACTORS
330
A336
102
}
330
A336
100
AcDbDictionary
281
     1
  0
ACDBDICTIONARYWDFLT
  5
A5B6
102
{ACAD_REACTORS
330
A336
102
}
330
A336
100
AcDbDictionary
281
     1
  3
Normal
350
A5B7
100
AcDbDictionaryWithDefault
340
A5B7
  0
DICTIONARY
  5
A5ED
102
{ACAD_REACTORS
330
A336
102
}
330
A336
100
AcDbDictionary
281
     1
  3
A0
350
A5EE
  3
A1
350
A5EF
  3
A2
350
A5F0
  3
A3
350
A5F1
  3
A4
350
A5F2
  3
A5
350
A5F3
  3
A6
350
A5F4
  3
A7
350
A5F5
  3
A8
350
A5F6
  3
A9
350
A5F7
  3
B0
350
A5F8
  3
B1
350
A5F9
  3
B2
350
A5FA
  3
B3
350
A5FB
  3
B4
350
A5FC
  3
B5
350
A5FD
  3
B6
350
A5FE
  0
DICTIONARY
  5
A601
102
{ACAD_REACTORS
330
A336
102
}
330
A336
100
AcDbDictionary
281
     1
  3
Imperial24
350
A602
  0
DICTIONARY
  5
A5EB
102
{ACAD_REACTORS
330
A336
102
}
330
A336
100
AcDbDictionary
281
     1
  3
Standard
350
A5EC
  0
DICTIONARY
  5
A5D1
102
{ACAD_REACTORS
330
A336
102
}
330
A336
100
AcDbDictionary
281
     1
  3
2dWireframe
350
A5D7
  3
Basic
350
A5D6
  3
Brighten
350
A5DD
  3
ColorChange
350
A5E1
  3
Conceptual
350
A5DA
  3
Dim
350
A5DC
  3
EdgeColorOff
350
A5E9
  3
Facepattern
350
A5E0
  3
Flat
350
A5D2
  3
FlatWithEdges
350
A5D3
  3
Gouraud
350
A5D4
  3
GouraudWithEdges
350
A5D5
  3
Hidden
350
A5D9
  3
JitterOff
350
A5E7
  3
Linepattern
350
A5DF
  3
OverhangOff
350
A5E8
  3
Realistic
350
A5DB
  3
Shaded
350
A5E6
  3
Shaded with edges
350
A5E5
  3
Shades of Gray
350
A5E2
  3
Sketchy
350
A5E3
  3
Thicken
350
A5DE
  3
Wireframe
350
A5D8
  3
X-Ray
350
A5E4
  0
XRECORD
  5
A626
102
{ACAD_REACTORS
330
A336
102
}
330
A336
100
AcDbXrecord
280
     1
 90
        1
330
A5EC
  0
DICTIONARY
  5
A619
102
{ACAD_REACTORS
330
A336
102
}
330
A336
100
AcDbDictionary
281
     1
  3
CANNOSCALE
350
A61E
  3
CMLEADERSTYLE
350
A61B
  3
CTABLESTYLE
350
A61A
  3
CVIEWDETAILSTYLE
350
A61C
  3
CVIEWSECTIONSTYLE
350
A61D
  3
DIMASSOC
350
A621
  3
INDEXCTL
350
A620
  3
SORTENTS
350
A61F
  3
XCLIPFRAME
350
A622
  0
XRECORD
  5
A627
102
{ACAD_REACTORS
330
A336
102
}
330
A336
100
AcDbXrecord
280
     1
  1
DWGPROPS COOKIE
  2

  3

  4

  6

  7

  8
Yoshitsune
  9

300
=
301
=
302
=
303
=
304
=
305
=
306
=
307
=
308
=
309
=
 40
0.0000093055555556
 41
2451302.654148611
 42
2457192.687638819
  1

 90
        0
  0
XRECORD
  5
A60A
102
{ACAD_REACTORS
330
A609
102
}
330
A609
100
AcDbXrecord
280
     1
290
     1
  0
XRECORD
  5
A60C
102
{ACAD_REACTORS
330
A60B
102
}
330
A60B
100
AcDbXrecord
280
     1
290
     1
  0
XRECORD
  5
A60E
102
{ACAD_REACTORS
330
A60D
102
}
330
A60D
100
AcDbXrecord
280
     1
290
     1
  0
XRECORD
  5
A610
102
{ACAD_REACTORS
330
A60F
102
}
330
A60F
100
AcDbXrecord
280
     1
290
     1
  0
XRECORD
  5
A612
102
{ACAD_REACTORS
330
A611
102
}
330
A611
100
AcDbXrecord
280
     1
290
     1
  0
XRECORD
  5
A614
102
{ACAD_REACTORS
330
A613
102
}
330
A613
100
AcDbXrecord
280
     1
290
     1
  0
XRECORD
  5
A616
102
{ACAD_REACTORS
330
A615
102
}
330
A615
100
AcDbXrecord
280
     1
290
     1
  0
XRECORD
  5
A618
102
{ACAD_REACTORS
330
A617
102
}
330
A617
100
AcDbXrecord
280
     1
290
     1
  0
XRECORD
  5
A5B2
102
{ACAD_REACTORS
330
A5B1
102
}
330
A5B1
100
AcDbXrecord
280
     1
340
A348
  0
XRECORD
  5
A5B0
102
{ACAD_REACTORS
330
A5AF
102
}
330
A5AF
100
AcDbXrecord
280
     1
340
A344
  0
ACDBDETAILVIEWSTYLE
  5
A604
102
{ACAD_XDICTIONARY
360
A65F
102
}
102
{ACAD_REACTORS
330
A603
102
}
330
A603
100
AcDbModelDocViewStyle
 70
     0
  3
Imperial24
290
     0
100
AcDbDetailViewStyle
 70
     0
 71
     0
 90
        3
 71
     1
340
A33B
 40
0.24
340
0
 40
0.24
300

 40
0.36
280
     3
 71
     2
340
A33F
 90
       25
 71
     3
340
A33B
 40
0.24
 90
        1
 40
0.75
 90
        1
300
%<\AcVar ViewType \f "%tc1">% %<\AcVar ViewDetailId>%\PSCALE %<\AcVar ViewScale \f "%sn">%
 71
     4
340
A33F
 90
       25
340
A33F
 90
       25
280
     0
  0
LAYOUT
  5
A605
102
{ACAD_XDICTIONARY
360
A661
102
}
102
{ACAD_REACTORS
330
A343
102
}
330
A343
100
AcDbPlotSettings
  1

  2
Canon LBP9100C
  4

  6

 40
0.0
 41
0.0
 42
0.0
 43
0.0
 44
0.0
 45
0.0
 46
0.0
 47
0.0
 48
0.0
 49
0.0
140
0.0
141
0.0
142
1.0
143
1.0
 70
  1712
 72
     0
 73
     0
 74
     0
  7

 75
     0
147
1.0
148
0.0
149
0.0
100
AcDbLayout
  1
Model
 70
     1
 71
     0
 10
0.0
 20
0.0
 11
12.0
 21
9.0
 12
0.0
 22
0.0
 32
0.0
 14
0.0
 24
0.0
 34
0.0
 15
0.0
 25
0.0
 35
0.0
146
0.0
 13
0.0
 23
0.0
 33
0.0
 16
1.0
 26
0.0
 36
0.0
 17
0.0
 27
1.0
 37
0.0
 76
     0
330
A348
331
A5AE
  0
LAYOUT
  5
A606
102
{ACAD_XDICTIONARY
360
A663
102
}
102
{ACAD_REACTORS
330
A343
102
}
330
A343
100
AcDbPlotSettings
  1

  2
Canon LBP9100C
  4

  6

 40
0.0
 41
0.0
 42
0.0
 43
0.0
 44
0.0
 45
0.0
 46
0.0
 47
0.0
 48
0.0
 49
0.0
140
0.0
141
0.0
142
1.0
143
1.0
 70
   688
 72
     0
 73
     0
 74
     5
  7

 75
    16
147
1.0
148
0.0
149
0.0
100
AcDbLayout
  1
レイアウト1
 70
     0
 71
     1
 10
0.0
 20
0.0
 11
420.0
 21
297.0
 12
0.0
 22
0.0
 32
0.0
 14
1.000000000000000E+20
 24
1.000000000000000E+20
 34
1.000000000000000E+20
 15
-1.000000000000000E+20
 25
-1.000000000000000E+20
 35
-1.000000000000000E+20
146
0.0
 13
0.0
 23
0.0
 33
0.0
 16
1.0
 26
0.0
 36
0.0
 17
0.0
 27
1.0
 37
0.0
 76
     0
330
A344
  0
MATERIAL
  5
A5C1
102
{ACAD_XDICTIONARY
360
A5C2
102
}
102
{ACAD_REACTORS
330
A5B8
102
}
330
A5B8
100
AcDbMaterial
  1
ByBlock
 72
     0
 43
0.0208333333333333
 43
0.0
 43
0.0
 43
0.0
 43
0.0
 43
0.0208333333333333
 43
0.0
 43
0.0
 43
0.0
 43
0.0
 43
1.0
 43
0.0
 43
0.0
 43
0.0
 43
0.0
 43
1.0
 77
     0
 47
0.0208333333333333
 47
0.0
 47
0.0
 47
0.0
 47
0.0
 47
0.0208333333333333
 47
0.0
 47
0.0
 47
0.0
 47
0.0
 47
1.0
 47
0.0
 47
0.0
 47
0.0
 47
0.0
 47
1.0
171
     0
 49
0.0208333333333333
 49
0.0
 49
0.0
 49
0.0
 49
0.0
 49
0.0208333333333333
 49
0.0
 49
0.0
 49
0.0
 49
0.0
 49
1.0
 49
0.0
 49
0.0
 49
0.0
 49
0.0
 49
1.0
175
     0
142
0.0208333333333333
142
0.0
142
0.0
142
0.0
142
0.0
142
0.0208333333333333
142
0.0
142
0.0
142
0.0
142
0.0
142
1.0
142
0.0
142
0.0
142
0.0
142
0.0
142
1.0
179
     0
144
0.0208333333333333
144
0.0
144
0.0
144
0.0
144
0.0
144
0.0208333333333333
144
0.0
144
0.0
144
0.0
144
0.0
144
1.0
144
0.0
144
0.0
144
0.0
144
0.0
144
1.0
147
0.0208333333333333
147
0.0
147
0.0
147
0.0
147
0.0
147
0.0208333333333333
147
0.0
147
0.0
147
0.0
147
0.0
147
1.0
147
0.0
147
0.0
147
0.0
147
0.0
147
1.0
  0
MATERIAL
  5
A5B9
102
{ACAD_XDICTIONARY
360
A5BA
102
}
102
{ACAD_REACTORS
330
A5B8
102
}
330
A5B8
100
AcDbMaterial
  1
ByLayer
 72
     0
 43
0.0208333333333333
 43
0.0
 43
0.0
 43
0.0
 43
0.0
 43
0.0208333333333333
 43
0.0
 43
0.0
 43
0.0
 43
0.0
 43
1.0
 43
0.0
 43
0.0
 43
0.0
 43
0.0
 43
1.0
 77
     0
 47
0.0208333333333333
 47
0.0
 47
0.0
 47
0.0
 47
0.0
 47
0.0208333333333333
 47
0.0
 47
0.0
 47
0.0
 47
0.0
 47
1.0
 47
0.0
 47
0.0
 47
0.0
 47
0.0
 47
1.0
171
     0
 49
0.0208333333333333
 49
0.0
 49
0.0
 49
0.0
 49
0.0
 49
0.0208333333333333
 49
0.0
 49
0.0
 49
0.0
 49
0.0
 49
1.0
 49
0.0
 49
0.0
 49
0.0
 49
0.0
 49
1.0
175
     0
142
0.0208333333333333
142
0.0
142
0.0
142
0.0
142
0.0
142
0.0208333333333333
142
0.0
142
0.0
142
0.0
142
0.0
142
1.0
142
0.0
142
0.0
142
0.0
142
0.0
142
1.0
179
     0
144
0.0208333333333333
144
0.0
144
0.0
144
0.0
144
0.0
144
0.0208333333333333
144
0.0
144
0.0
144
0.0
144
0.0
144
1.0
144
0.0
144
0.0
144
0.0
144
0.0
144
1.0
147
0.0208333333333333
147
0.0
147
0.0
147
0.0
147
0.0
147
0.0208333333333333
147
0.0
147
0.0
147
0.0
147
0.0
147
1.0
147
0.0
147
0.0
147
0.0
147
0.0
147
1.0
  0
MATERIAL
  5
A5C9
102
{ACAD_XDICTIONARY
360
A5CA
102
}
102
{ACAD_REACTORS
330
A5B8
102
}
330
A5B8
100
AcDbMaterial
  1
Global
 72
     0
 43
0.0208333333333333
 43
0.0
 43
0.0
 43
0.0
 43
0.0
 43
0.0208333333333333
 43
0.0
 43
0.0
 43
0.0
 43
0.0
 43
1.0
 43
0.0
 43
0.0
 43
0.0
 43
0.0
 43
1.0
 77
     0
 47
0.0208333333333333
 47
0.0
 47
0.0
 47
0.0
 47
0.0
 47
0.0208333333333333
 47
0.0
 47
0.0
 47
0.0
 47
0.0
 47
1.0
 47
0.0
 47
0.0
 47
0.0
 47
0.0
 47
1.0
171
     0
 49
0.0208333333333333
 49
0.0
 49
0.0
 49
0.0
 49
0.0
 49
0.0208333333333333
 49
0.0
 49
0.0
 49
0.0
 49
0.0
 49
1.0
 49
0.0
 49
0.0
 49
0.0
 49
0.0
 49
1.0
175
     0
142
0.0208333333333333
142
0.0
142
0.0
142
0.0
142
0.0
142
0.0208333333333333
142
0.0
142
0.0
142
0.0
142
0.0
142
1.0
142
0.0
142
0.0
142
0.0
142
0.0
142
1.0
179
     0
144
0.0208333333333333
144
0.0
144
0.0
144
0.0
144
0.0
144
0.0208333333333333
144
0.0
144
0.0
144
0.0
144
0.0
144
1.0
144
0.0
144
0.0
144
0.0
144
0.0
144
1.0
147
0.0208333333333333
147
0.0
147
0.0
147
0.0
147
0.0
147
0.0208333333333333
147
0.0
147
0.0
147
0.0
147
0.0
147
1.0
147
0.0
147
0.0
147
0.0
147
0.0
147
1.0
  0
MLEADERSTYLE
  5
A600
102
{ACAD_REACTORS
330
A5FF
102
}
330
A5FF
100
AcDbMLeaderStyle
170
     2
171
     1
172
     0
 90
        2
 40
0.0
 41
0.0
173
     1
 91
-1056964608
340
A33D
 92
       -2
290
     1
 42
0.09
291
     1
 43
0.36
  3
Standard
 44
0.18
300

342
A33B
174
     1
178
     6
175
     1
176
     0
 93
-1056964608
 45
0.18
292
     0
297
     0
 46
0.18
 94
-1056964608
 47
1.0
 49
1.0
140
1.0
293
     1
141
0.0
294
     1
177
     0
142
1.0
295
     0
296
     0
143
0.125
1001
ACAD_MLEADERVER
1070
     2
  0
MLINESTYLE
  5
A341
102
{ACAD_REACTORS
330
A340
102
}
330
A340
100
AcDbMlineStyle
  2
STANDARD
 70
     0
  3

 62
   256
 51
90.0
 52
90.0
 71
     2
 49
0.5
 62
   256
  6
BYLAYER
 49
-0.5
 62
   256
  6
BYLAYER
  0
ACDBPLACEHOLDER
  5
A5B7
102
{ACAD_REACTORS
330
A5B6
102
}
330
A5B6
  0
SCALE
  5
A5EE
102
{ACAD_REACTORS
330
A5ED
102
}
330
A5ED
100
AcDbScale
 70
     0
300
1:1
140
1.0
141
1.0
290
     1
  0
SCALE
  5
A5EF
102
{ACAD_REACTORS
330
A5ED
102
}
330
A5ED
100
AcDbScale
 70
     0
300
1/128" = 1'-0"
140
0.0078125
141
12.0
290
     0
  0
SCALE
  5
A5F0
102
{ACAD_REACTORS
330
A5ED
102
}
330
A5ED
100
AcDbScale
 70
     0
300
1/64" = 1'-0"
140
0.015625
141
12.0
290
     0
  0
SCALE
  5
A5F1
102
{ACAD_REACTORS
330
A5ED
102
}
330
A5ED
100
AcDbScale
 70
     0
300
1/32" = 1'-0"
140
0.03125
141
12.0
290
     0
  0
SCALE
  5
A5F2
102
{ACAD_REACTORS
330
A5ED
102
}
330
A5ED
100
AcDbScale
 70
     0
300
1/16" = 1'-0"
140
0.0625
141
12.0
290
     0
  0
SCALE
  5
A5F3
102
{ACAD_REACTORS
330
A5ED
102
}
330
A5ED
100
AcDbScale
 70
     0
300
3/32" = 1'-0"
140
0.09375
141
12.0
290
     0
  0
SCALE
  5
A5F4
102
{ACAD_REACTORS
330
A5ED
102
}
330
A5ED
100
AcDbScale
 70
     0
300
1/8" = 1'-0"
140
0.125
141
12.0
290
     0
  0
SCALE
  5
A5F5
102
{ACAD_REACTORS
330
A5ED
102
}
330
A5ED
100
AcDbScale
 70
     0
300
3/16" = 1'-0"
140
0.1875
141
12.0
290
     0
  0
SCALE
  5
A5F6
102
{ACAD_REACTORS
330
A5ED
102
}
330
A5ED
100
AcDbScale
 70
     0
300
1/4" = 1'-0"
140
0.25
141
12.0
290
     0
  0
SCALE
  5
A5F7
102
{ACAD_REACTORS
330
A5ED
102
}
330
A5ED
100
AcDbScale
 70
     0
300
3/8" = 1'-0"
140
0.375
141
12.0
290
     0
  0
SCALE
  5
A5F8
102
{ACAD_REACTORS
330
A5ED
102
}
330
A5ED
100
AcDbScale
 70
     0
300
1/2" = 1'-0"
140
0.5
141
12.0
290
     0
  0
SCALE
  5
A5F9
102
{ACAD_REACTORS
330
A5ED
102
}
330
A5ED
100
AcDbScale
 70
     0
300
3/4" = 1'-0"
140
0.75
141
12.0
290
     0
  0
SCALE
  5
A5FA
102
{ACAD_REACTORS
330
A5ED
102
}
330
A5ED
100
AcDbScale
 70
     0
300
1" = 1'-0"
140
1.0
141
12.0
290
     0
  0
SCALE
  5
A5FB
102
{ACAD_REACTORS
330
A5ED
102
}
330
A5ED
100
AcDbScale
 70
     0
300
1-1/2" = 1'-0"
140
1.5
141
12.0
290
     0
  0
SCALE
  5
A5FC
102
{ACAD_REACTORS
330
A5ED
102
}
330
A5ED
100
AcDbScale
 70
     0
300
3" = 1'-0"
140
3.0
141
12.0
290
     0
  0
SCALE
  5
A5FD
102
{ACAD_REACTORS
330
A5ED
102
}
330
A5ED
100
AcDbScale
 70
     0
300
6" = 1'-0"
140
6.0
141
12.0
290
     0
  0
SCALE
  5
A5FE
102
{ACAD_REACTORS
330
A5ED
102
}
330
A5ED
100
AcDbScale
 70
     0
300
1'-0" = 1'-0"
140
12.0
141
12.0
290
     0
  0
ACDBSECTIONVIEWSTYLE
  5
A602
102
{ACAD_XDICTIONARY
360
A65D
102
}
102
{ACAD_REACTORS
330
A601
102
}
330
A601
100
AcDbModelDocViewStyle
 70
     0
  3
Imperial24
290
     0
100
AcDbSectionViewStyle
 70
     0
 71
     0
 90
       78
 71
     1
340
A33B
 40
0.24
340
0
340
0
 40
0.24
300
I, O, Q, S, X, Z
 40
0.48
 90
        3
 40
0.18
 90
        1
 71
     2
340
A33F
 90
       25
340
A33F
 90
       50
 40
0.24
 40
0.0
 40
0.24
 71
     3
340
A33B
 40
0.24
 90
        1
 40
0.75
 90
        1
300
%<\AcVar ViewType \f "%tc1">% %<\AcVar ViewSectionStartId>%-%<\AcVar ViewSectionEndId>%\PSCALE %<\AcVar ViewScale \f "%sn">%
 71
     4
300
ANSI31
 40
1.0
 90
        0
290
     0
290
     0
 90
        6
 40
0.0
 40
1.570796326794896
 40
0.2617993877991494
 40
1.308996938995747
 40
-0.2617993877991494
 40
1.832595714594046
  0
TABLESTYLE
  5
A5EC
102
{ACAD_XDICTIONARY
360
A624
102
}
102
{ACAD_REACTORS
330
A5EB
102
}
330
A5EB
100
AcDbTableStyle
  3
Standard
 70
     0
 71
     0
 40
0.06
 41
0.06
280
     0
281
     0
  7
STANDARD
140
0.18
170
     2
 62
     0
 63
     7
283
     0
274
    -2
284
     1
 64
     0
275
    -2
285
     1
 65
     0
276
    -2
286
     1
 66
     0
277
    -2
287
     1
 67
     0
278
    -2
288
     1
 68
     0
279
    -2
289
     1
 69
     0
  7
STANDARD
140
0.25
170
     5
 62
     0
 63
     7
283
     0
274
    -2
284
     1
 64
     0
275
    -2
285
     1
 65
     0
276
    -2
286
     1
 66
     0
277
    -2
287
     1
 67
     0
278
    -2
288
     1
 68
     0
279
    -2
289
     1
 69
     0
  7
STANDARD
140
0.18
170
     5
 62
     0
 63
     7
283
     0
274
    -2
284
     1
 64
     0
275
    -2
285
     1
 65
     0
276
    -2
286
     1
 66
     0
277
    -2
287
     1
 67
     0
278
    -2
288
     1
 68
     0
279
    -2
289
     1
 69
     0
  0
VISUALSTYLE
  5
A5D7
102
{ACAD_XDICTIONARY
360
A635
102
}
102
{ACAD_REACTORS
330
A5D1
102
}
330
A5D1
100
AcDbVisualStyle
  2
2dWireframe
 70
     4
 71
     0
 72
     2
 73
     0
 90
        0
 40
-0.6
 41
-30.0
 62
     5
 63
     7
 74
     1
 91
        4
 64
     7
 65
   257
 75
     1
175
     1
 42
1.0
 92
        0
 66
   257
 43
1.0
 76
     1
 77
     6
 78
     2
 67
     7
 79
     5
170
     0
171
     0
290
     0
174
     0
 93
        1
 44
0.0
173
     0
291
     0
 45
0.0
1001
ACAD
1000
AcDbSavedByObjectVersion
1070
     0
  0
VISUALSTYLE
  5
A5D6
102
{ACAD_XDICTIONARY
360
A633
102
}
102
{ACAD_REACTORS
330
A5D1
102
}
330
A5D1
100
AcDbVisualStyle
  2
Basic
 70
     7
 71
     1
 72
     0
 73
     1
 90
        0
 40
-0.6
 41
-30.0
 62
     5
 63
     7
 74
     0
 91
        4
 64
     7
 65
   257
 75
     1
175
     1
 42
1.0
 92
        8
 66
     7
 43
1.0
 76
     1
 77
     6
 78
     2
 67
     7
 79
     5
170
     0
171
     0
290
     0
174
     0
 93
        1
 44
0.0
173
     0
291
     1
 45
0.0
1001
ACAD
1000
AcDbSavedByObjectVersion
1070
     0
  0
VISUALSTYLE
  5
A5DD
102
{ACAD_XDICTIONARY
360
A641
102
}
102
{ACAD_REACTORS
330
A5D1
102
}
330
A5D1
100
AcDbVisualStyle
  2
Brighten
 70
    12
 71
     2
 72
     2
 73
     0
 90
        0
 40
-0.6
 41
-30.0
 62
     5
 63
     7
 74
     1
 91
        4
 64
     7
 65
   257
 75
     1
175
     1
 42
1.0
 92
        8
 66
     7
 43
1.0
 76
     1
 77
     6
 78
     2
 67
     7
 79
     5
170
     0
171
     0
290
     0
174
     0
 93
        1
 44
50.0
173
     0
291
     1
 45
0.0
1001
ACAD
1000
AcDbSavedByObjectVersion
1070
     0
  0
VISUALSTYLE
  5
A5E1
102
{ACAD_XDICTIONARY
360
A649
102
}
102
{ACAD_REACTORS
330
A5D1
102
}
330
A5D1
100
AcDbVisualStyle
  2
ColorChange
 70
    16
 71
     2
 72
     2
 73
     3
 90
        0
 40
-0.6
 41
-30.0
 62
     5
 63
     8
 74
     1
 91
        4
 64
     7
 65
   257
 75
     1
175
     1
 42
1.0
 92
        8
 66
     8
 43
1.0
 76
     1
 77
     6
 78
     2
 67
     7
 79
     5
170
     0
171
     0
290
     0
174
     0
 93
        1
 44
0.0
173
     0
291
     1
 45
0.0
1001
ACAD
1000
AcDbSavedByObjectVersion
1070
     0
  0
VISUALSTYLE
  5
A5DA
102
{ACAD_XDICTIONARY
360
A63B
102
}
102
{ACAD_REACTORS
330
A5D1
102
}
330
A5D1
100
AcDbVisualStyle
  2
Conceptual
 70
     9
 71
     3
 72
     2
 73
     0
 90
        0
 40
-0.6
 41
-30.0
 62
     5
 63
     7
 74
     2
 91
        2
 64
     7
 65
   257
 75
     1
175
     1
 42
179.0
 92
        8
 66
     7
 43
1.0
 76
     1
 77
     6
 78
     2
 67
     7
 79
     3
170
     0
171
     0
290
     0
174
     0
 93
        1
 44
0.0
173
     0
291
     0
 45
0.0
1001
ACAD
1000
AcDbSavedByObjectVersion
1070
     0
  0
VISUALSTYLE
  5
A5DC
102
{ACAD_XDICTIONARY
360
A63F
102
}
102
{ACAD_REACTORS
330
A5D1
102
}
330
A5D1
100
AcDbVisualStyle
  2
Dim
 70
    11
 71
     2
 72
     2
 73
     0
 90
        0
 40
-0.6
 41
-30.0
 62
     5
 63
     7
 74
     1
 91
        4
 64
     7
 65
   257
 75
     1
175
     1
 42
1.0
 92
        8
 66
     7
 43
1.0
 76
     1
 77
     6
 78
     2
 67
     7
 79
     5
170
     0
171
     0
290
     0
174
     0
 93
        1
 44
-50.0
173
     0
291
     1
 45
0.0
1001
ACAD
1000
AcDbSavedByObjectVersion
1070
     0
  0
VISUALSTYLE
  5
A5E9
102
{ACAD_XDICTIONARY
360
A659
102
}
102
{ACAD_REACTORS
330
A5D1
102
}
330
A5D1
100
AcDbVisualStyle
  2
EdgeColorOff
 70
    22
 71
     2
 72
     2
 73
     0
 90
        0
 40
-0.6
 41
-30.0
 62
     5
 63
     7
 74
     1
 91
        4
 64
     7
 65
   257
 75
     1
175
     1
 42
1.0
 92
        8
 66
     7
 43
1.0
 76
     1
 77
     6
 78
     2
 67
     7
 79
     5
170
     0
171
     0
290
     0
174
     0
 93
        1
 44
0.0
173
     0
291
     1
 45
0.0
1001
ACAD
1000
AcDbSavedByObjectVersion
1070
     0
  0
VISUALSTYLE
  5
A5E0
102
{ACAD_XDICTIONARY
360
A647
102
}
102
{ACAD_REACTORS
330
A5D1
102
}
330
A5D1
100
AcDbVisualStyle
  2
Facepattern
 70
    15
 71
     2
 72
     2
 73
     0
 90
        0
 40
-0.6
 41
-30.0
 62
     5
 63
     7
 74
     1
 91
        4
 64
     7
 65
   257
 75
     1
175
     1
 42
1.0
 92
        8
 66
     7
 43
1.0
 76
     1
 77
     6
 78
     2
 67
     7
 79
     5
170
     0
171
     0
290
     0
174
     0
 93
        1
 44
0.0
173
     0
291
     1
 45
0.0
1001
ACAD
1000
AcDbSavedByObjectVersion
1070
     0
  0
VISUALSTYLE
  5
A5D2
102
{ACAD_XDICTIONARY
360
A62B
102
}
102
{ACAD_REACTORS
330
A5D1
102
}
330
A5D1
100
AcDbVisualStyle
  2
Flat
 70
     0
 71
     2
 72
     1
 73
     1
 90
        2
 40
-0.6
 41
30.0
 62
     5
 63
     7
 74
     0
 91
        0
 64
     7
 65
   257
 75
     1
175
     1
 42
1.0
 92
        8
 66
     7
 43
1.0
 76
     1
 77
     6
 78
     2
 67
     7
 79
     5
170
     0
171
     0
290
     0
174
     0
 93
       13
 44
0.0
173
     0
291
     1
 45
0.0
1001
ACAD
1000
AcDbSavedByObjectVersion
1070
     0
  0
VISUALSTYLE
  5
A5D3
102
{ACAD_XDICTIONARY
360
A62D
102
}
102
{ACAD_REACTORS
330
A5D1
102
}
330
A5D1
100
AcDbVisualStyle
  2
FlatWithEdges
 70
     1
 71
     2
 72
     1
 73
     1
 90
        2
 40
-0.6
 41
30.0
 62
     5
 63
     7
 74
     1
 91
        0
 64
     7
 65
   257
 75
     1
175
     1
 42
1.0
 92
        0
 66
   257
 43
1.0
 76
     1
 77
     6
 78
     2
 67
     7
 79
     5
170
     0
171
     0
290
     0
174
     0
 93
       13
 44
0.0
173
     0
291
     1
 45
0.0
1001
ACAD
1000
AcDbSavedByObjectVersion
1070
     0
  0
VISUALSTYLE
  5
A5D4
102
{ACAD_XDICTIONARY
360
A62F
102
}
102
{ACAD_REACTORS
330
A5D1
102
}
330
A5D1
100
AcDbVisualStyle
  2
Gouraud
 70
     2
 71
     2
 72
     2
 73
     1
 90
        2
 40
-0.6
 41
30.0
 62
     5
 63
     7
 74
     0
 91
        0
 64
     7
 65
   257
 75
     1
175
     1
 42
1.0
 92
        0
 66
     7
 43
1.0
 76
     1
 77
     6
 78
     2
 67
     7
 79
     5
170
     0
171
     0
290
     0
174
     0
 93
       13
 44
0.0
173
     0
291
     1
 45
0.0
1001
ACAD
1000
AcDbSavedByObjectVersion
1070
     0
  0
VISUALSTYLE
  5
A5D5
102
{ACAD_XDICTIONARY
360
A631
102
}
102
{ACAD_REACTORS
330
A5D1
102
}
330
A5D1
100
AcDbVisualStyle
  2
GouraudWithEdges
 70
     3
 71
     2
 72
     2
 73
     1
 90
        2
 40
-0.6
 41
30.0
 62
     5
 63
     7
 74
     1
 91
        0
 64
     7
 65
   257
 75
     1
175
     1
 42
1.0
 92
        0
 66
   257
 43
1.0
 76
     1
 77
     6
 78
     2
 67
     7
 79
     5
170
     0
171
     0
290
     0
174
     0
 93
       13
 44
0.0
173
     0
291
     1
 45
0.0
1001
ACAD
1000
AcDbSavedByObjectVersion
1070
     0
  0
VISUALSTYLE
  5
A5D9
102
{ACAD_XDICTIONARY
360
A639
102
}
102
{ACAD_REACTORS
330
A5D1
102
}
330
A5D1
100
AcDbVisualStyle
  2
Hidden
 70
     6
 71
     1
 72
     2
 73
     2
 90
        0
 40
-0.6
 41
-30.0
 62
     5
 63
     7
 74
     2
 91
        2
 64
     7
 65
   257
 75
     2
175
     1
 42
40.0
 92
        0
 66
   257
 43
1.0
 76
     1
 77
     6
 78
     2
 67
     7
 79
     3
170
     0
171
     0
290
     0
174
     0
 93
        1
 44
0.0
173
     0
291
     0
 45
0.0
1001
ACAD
1000
AcDbSavedByObjectVersion
1070
     0
  0
VISUALSTYLE
  5
A5E7
102
{ACAD_XDICTIONARY
360
A655
102
}
102
{ACAD_REACTORS
330
A5D1
102
}
330
A5D1
100
AcDbVisualStyle
  2
JitterOff
 70
    20
 71
     2
 72
     2
 73
     0
 90
        0
 40
-0.6
 41
-30.0
 62
     5
 63
     7
 74
     1
 91
        4
 64
     7
 65
   257
 75
     1
175
     1
 42
1.0
 92
       10
 66
     7
 43
1.0
 76
     1
 77
     6
 78
     2
 67
     7
 79
     5
170
     0
171
     0
290
     0
174
     0
 93
        1
 44
0.0
173
     0
291
     1
 45
0.0
1001
ACAD
1000
AcDbSavedByObjectVersion
1070
     0
  0
VISUALSTYLE
  5
A5DF
102
{ACAD_XDICTIONARY
360
A645
102
}
102
{ACAD_REACTORS
330
A5D1
102
}
330
A5D1
100
AcDbVisualStyle
  2
Linepattern
 70
    14
 71
     2
 72
     2
 73
     0
 90
        0
 40
-0.6
 41
-30.0
 62
     5
 63
     7
 74
     1
 91
        4
 64
     7
 65
   257
 75
     7
175
     7
 42
1.0
 92
        8
 66
     7
 43
1.0
 76
     1
 77
     6
 78
     2
 67
     7
 79
     5
170
     0
171
     0
290
     0
174
     0
 93
        1
 44
0.0
173
     0
291
     1
 45
0.0
1001
ACAD
1000
AcDbSavedByObjectVersion
1070
     0
  0
VISUALSTYLE
  5
A5E8
102
{ACAD_XDICTIONARY
360
A657
102
}
102
{ACAD_REACTORS
330
A5D1
102
}
330
A5D1
100
AcDbVisualStyle
  2
OverhangOff
 70
    21
 71
     2
 72
     2
 73
     0
 90
        0
 40
-0.6
 41
-30.0
 62
     5
 63
     7
 74
     1
 91
        4
 64
     7
 65
   257
 75
     1
175
     1
 42
1.0
 92
        9
 66
     7
 43
1.0
 76
     1
 77
     6
 78
     2
 67
     7
 79
     5
170
     0
171
     0
290
     0
174
     0
 93
        1
 44
0.0
173
     0
291
     1
 45
0.0
1001
ACAD
1000
AcDbSavedByObjectVersion
1070
     0
  0
VISUALSTYLE
  5
A5DB
102
{ACAD_XDICTIONARY
360
A63D
102
}
102
{ACAD_REACTORS
330
A5D1
102
}
330
A5D1
100
AcDbVisualStyle
  2
Realistic
 70
     8
 71
     2
 72
     3
 73
     0
 90
        2
 40
-0.6
 41
30.0
 62
     5
 63
     7
 74
     0
 91
        0
 64
     7
 65
   257
 75
     1
175
     1
 42
1.0
 92
        8
 66
   257
 43
1.0
 76
     1
 77
     6
 78
     2
 67
     7
 79
     3
170
     0
171
     0
290
     0
174
     0
 93
       13
 44
0.0
173
     0
291
     0
 45
0.0
1001
ACAD
1000
AcDbSavedByObjectVersion
1070
     0
  0
VISUALSTYLE
  5
A5E6
102
{ACAD_XDICTIONARY
360
A653
102
}
102
{ACAD_REACTORS
330
A5D1
102
}
330
A5D1
100
AcDbVisualStyle
  2
Shaded
 70
    27
 71
     2
 72
     2
 73
     1
 90
        2
 40
-0.6
 41
30.0
 62
     5
 63
     7
 74
     0
 91
        4
 64
     7
 65
   257
 75
     1
175
     1
 42
1.0
 92
        8
 66
   257
 43
1.0
 76
     1
 77
     6
 78
     2
 67
     8
 79
     3
170
     0
171
     0
290
     0
174
     0
 93
        5
 44
0.0
173
     0
291
     0
 45
0.0
1001
ACAD
1000
AcDbSavedByObjectVersion
1070
     0
  0
VISUALSTYLE
  5
A5E5
102
{ACAD_XDICTIONARY
360
A651
102
}
102
{ACAD_REACTORS
330
A5D1
102
}
330
A5D1
100
AcDbVisualStyle
  2
Shaded with edges
 70
    26
 71
     2
 72
     2
 73
     1
 90
        2
 40
-0.6
 41
30.0
 62
     5
 63
     7
 74
     1
 91
       10
 64
     7
 65
   257
 75
     2
175
     1
 42
1.0
 92
        8
 66
   257
 43
1.0
 76
     1
 77
     6
 78
     2
 67
     7
 79
     3
170
     0
171
     0
290
     0
174
     0
 93
        5
 44
0.0
173
     0
291
     0
 45
0.0
1001
ACAD
1000
AcDbSavedByObjectVersion
1070
     0
  0
VISUALSTYLE
  5
A5E2
102
{ACAD_XDICTIONARY
360
A64B
102
}
102
{ACAD_REACTORS
330
A5D1
102
}
330
A5D1
100
AcDbVisualStyle
  2
Shades of Gray
 70
    23
 71
     2
 72
     2
 73
     3
 90
        0
 40
-0.6
 41
-30.0
 62
     5
 63
     7
 74
     2
 91
        2
 64
     7
 65
     7
 75
     1
175
     1
 42
40.0
 92
        8
 66
     7
 43
1.0
 76
     1
 77
     6
 78
     2
 67
     7
 79
     3
170
     0
171
     0
290
     0
174
     0
 93
        1
 44
0.0
173
     0
291
     0
 45
0.0
1001
ACAD
1000
AcDbSavedByObjectVersion
1070
     0
  0
VISUALSTYLE
  5
A5E3
102
{ACAD_XDICTIONARY
360
A64D
102
}
102
{ACAD_REACTORS
330
A5D1
102
}
330
A5D1
100
AcDbVisualStyle
  2
Sketchy
 70
    24
 71
     1
 72
     2
 73
     2
 90
        0
 40
-0.6
 41
-30.0
 62
     5
 63
     7
 74
     2
 91
        2
 64
     7
 65
     7
 75
     1
175
     1
 42
40.0
 92
       11
 66
     7
 43
1.0
 76
     1
 77
     6
 78
     2
 67
     7
 79
     6
170
     0
171
     0
290
     0
174
     0
 93
        1
 44
0.0
173
     0
291
     0
 45
0.0
1001
ACAD
1000
AcDbSavedByObjectVersion
1070
     0
  0
VISUALSTYLE
  5
A5DE
102
{ACAD_XDICTIONARY
360
A643
102
}
102
{ACAD_REACTORS
330
A5D1
102
}
330
A5D1
100
AcDbVisualStyle
  2
Thicken
 70
    13
 71
     2
 72
     2
 73
     0
 90
        0
 40
-0.6
 41
-30.0
 62
     5
 63
     7
 74
     1
 91
        4
 64
     7
 65
   257
 75
     1
175
     1
 42
1.0
 92
       12
 66
     7
 43
1.0
 76
     1
 77
     6
 78
     2
 67
     7
 79
     5
170
     0
171
     0
290
     0
174
     0
 93
        1
 44
0.0
173
     0
291
     1
 45
0.0
1001
ACAD
1000
AcDbSavedByObjectVersion
1070
     0
  0
VISUALSTYLE
  5
A5D8
102
{ACAD_XDICTIONARY
360
A637
102
}
102
{ACAD_REACTORS
330
A5D1
102
}
330
A5D1
100
AcDbVisualStyle
  2
Wireframe
 70
     5
 71
     0
 72
     2
 73
     0
 90
        0
 40
-0.6
 41
-30.0
 62
     5
 63
     7
 74
     1
 91
        4
 64
     7
 65
   257
 75
     1
175
     1
 42
1.0
 92
        0
 66
   257
 43
1.0
 76
     1
 77
     6
 78
     2
 67
     7
 79
     3
170
     0
171
     0
290
     0
174
     0
 93
        1
 44
0.0
173
     0
291
     0
 45
0.0
1001
ACAD
1000
AcDbSavedByObjectVersion
1070
     0
  0
VISUALSTYLE
  5
A5E4
102
{ACAD_XDICTIONARY
360
A64F
102
}
102
{ACAD_REACTORS
330
A5D1
102
}
330
A5D1
100
AcDbVisualStyle
  2
X-Ray
 70
    25
 71
     2
 72
     2
 73
     1
 90
        1
 40
0.5
 41
-30.0
 62
     5
 63
     7
 74
     1
 91
        0
 64
     7
 65
   257
 75
     1
175
     1
 42
1.0
 92
        8
 66
     7
 43
1.0
 76
     1
 77
     6
 78
     2
 67
     7
 79
     3
170
     0
171
     0
290
     0
174
     0
 93
       13
 44
0.0
173
     0
291
     0
 45
0.0
1001
ACAD
1000
AcDbSavedByObjectVersion
1070
     0
  0
DICTIONARYVAR
  5
A61E
102
{ACAD_REACTORS
330
A619
102
}
330
A619
100
DictionaryVariables
280
     0
  1
1:1
  0
DICTIONARYVAR
  5
A61B
102
{ACAD_REACTORS
330
A619
102
}
330
A619
100
DictionaryVariables
280
     0
  1
STANDARD
  0
DICTIONARYVAR
  5
A61A
102
{ACAD_REACTORS
330
A619
102
}
330
A619
100
DictionaryVariables
280
     0
  1
STANDARD
  0
DICTIONARYVAR
  5
A61C
102
{ACAD_REACTORS
330
A619
102
}
330
A619
100
DictionaryVariables
280
     0
  1
Imperial24
  0
DICTIONARYVAR
  5
A61D
102
{ACAD_REACTORS
330
A619
102
}
330
A619
100
DictionaryVariables
280
     0
  1
Imperial24
  0
DICTIONARYVAR
  5
A621
102
{ACAD_REACTORS
330
A619
102
}
330
A619
100
DictionaryVariables
280
     0
  1
1
  0
DICTIONARYVAR
  5
A620
102
{ACAD_REACTORS
330
A619
102
}
330
A619
100
DictionaryVariables
280
     0
  1
0
  0
DICTIONARYVAR
  5
A61F
102
{ACAD_REACTORS
330
A619
102
}
330
A619
100
DictionaryVariables
280
     0
  1
127
  0
DICTIONARYVAR
  5
A622
102
{ACAD_REACTORS
330
A619
102
}
330
A619
100
DictionaryVariables
280
     0
  1
2
  0
DICTIONARY
  5
A65F
330
A604
100
AcDbDictionary
280
     1
281
     1
  3
ACAD_XREC_ROUNDTRIP
360
A660
  0
DICTIONARY
  5
A661
330
A605
100
AcDbDictionary
280
     1
281
     1
  3
ACAD_XREC_ROUNDTRIP
360
A662
  0
DICTIONARY
  5
A663
330
A606
100
AcDbDictionary
280
     1
281
     1
  3
ACAD_XREC_ROUNDTRIP
360
A664
  0
DICTIONARY
  5
A5C2
330
A5C1
100
AcDbDictionary
280
     1
281
     1
  3
ACAD_XREC_ROUNDTRIP
360
A629
  3
BUMPTILE
360
A5C4
  3
DIFFUSETILE
360
A5C3
  3
OPACITYTILE
360
A5C7
  3
REFLECTIONTILE
360
A5C6
  3
REFRACTIONTILE
360
A5C8
  3
SPECULARTILE
360
A5C5
  0
DICTIONARY
  5
A5BA
330
A5B9
100
AcDbDictionary
280
     1
281
     1
  3
ACAD_XREC_ROUNDTRIP
360
A628
  3
BUMPTILE
360
A5BC
  3
DIFFUSETILE
360
A5BB
  3
OPACITYTILE
360
A5BF
  3
REFLECTIONTILE
360
A5BE
  3
REFRACTIONTILE
360
A5C0
  3
SPECULARTILE
360
A5BD
  0
DICTIONARY
  5
A5CA
330
A5C9
100
AcDbDictionary
280
     1
281
     1
  3
ACAD_XREC_ROUNDTRIP
360
A62A
  3
BUMPTILE
360
A5CC
  3
DIFFUSETILE
360
A5CB
  3
OPACITYTILE
360
A5CF
  3
REFLECTIONTILE
360
A5CE
  3
REFRACTIONTILE
360
A5D0
  3
SPECULARTILE
360
A5CD
  0
DICTIONARY
  5
A65D
330
A602
100
AcDbDictionary
280
     1
281
     1
  3
ACAD_XREC_ROUNDTRIP
360
A65E
  0
DICTIONARY
  5
A624
330
A5EC
100
AcDbDictionary
280
     1
281
     1
  3
ACAD_ROUNDTRIP_2008_TABLESTYLE_CELLSTYLEMAP
360
A625
  3
ACAD_XREC_ROUNDTRIP
360
A65B
  0
DICTIONARY
  5
A635
330
A5D7
100
AcDbDictionary
280
     1
281
     1
  3
ACAD_XREC_ROUNDTRIP
360
A636
  0
DICTIONARY
  5
A633
330
A5D6
100
AcDbDictionary
280
     1
281
     1
  3
ACAD_XREC_ROUNDTRIP
360
A634
  0
DICTIONARY
  5
A641
330
A5DD
100
AcDbDictionary
280
     1
281
     1
  3
ACAD_XREC_ROUNDTRIP
360
A642
  0
DICTIONARY
  5
A649
330
A5E1
100
AcDbDictionary
280
     1
281
     1
  3
ACAD_XREC_ROUNDTRIP
360
A64A
  0
DICTIONARY
  5
A63B
330
A5DA
100
AcDbDictionary
280
     1
281
     1
  3
ACAD_XREC_ROUNDTRIP
360
A63C
  0
DICTIONARY
  5
A63F
330
A5DC
100
AcDbDictionary
280
     1
281
     1
  3
ACAD_XREC_ROUNDTRIP
360
A640
  0
DICTIONARY
  5
A659
330
A5E9
100
AcDbDictionary
280
     1
281
     1
  3
ACAD_XREC_ROUNDTRIP
360
A65A
  0
DICTIONARY
  5
A647
330
A5E0
100
AcDbDictionary
280
     1
281
     1
  3
ACAD_XREC_ROUNDTRIP
360
A648
  0
DICTIONARY
  5
A62B
330
A5D2
100
AcDbDictionary
280
     1
281
     1
  3
ACAD_XREC_ROUNDTRIP
360
A62C
  0
DICTIONARY
  5
A62D
330
A5D3
100
AcDbDictionary
280
     1
281
     1
  3
ACAD_XREC_ROUNDTRIP
360
A62E
  0
DICTIONARY
  5
A62F
330
A5D4
100
AcDbDictionary
280
     1
281
     1
  3
ACAD_XREC_ROUNDTRIP
360
A630
  0
DICTIONARY
  5
A631
330
A5D5
100
AcDbDictionary
280
     1
281
     1
  3
ACAD_XREC_ROUNDTRIP
360
A632
  0
DICTIONARY
  5
A639
330
A5D9
100
AcDbDictionary
280
     1
281
     1
  3
ACAD_XREC_ROUNDTRIP
360
A63A
  0
DICTIONARY
  5
A655
330
A5E7
100
AcDbDictionary
280
     1
281
     1
  3
ACAD_XREC_ROUNDTRIP
360
A656
  0
DICTIONARY
  5
A645
330
A5DF
100
AcDbDictionary
280
     1
281
     1
  3
ACAD_XREC_ROUNDTRIP
360
A646
  0
DICTIONARY
  5
A657
330
A5E8
100
AcDbDictionary
280
     1
281
     1
  3
ACAD_XREC_ROUNDTRIP
360
A658
  0
DICTIONARY
  5
A63D
330
A5DB
100
AcDbDictionary
280
     1
281
     1
  3
ACAD_XREC_ROUNDTRIP
360
A63E
  0
DICTIONARY
  5
A653
330
A5E6
100
AcDbDictionary
280
     1
281
     1
  3
ACAD_XREC_ROUNDTRIP
360
A654
  0
DICTIONARY
  5
A651
330
A5E5
100
AcDbDictionary
280
     1
281
     1
  3
ACAD_XREC_ROUNDTRIP
360
A652
  0
DICTIONARY
  5
A64B
330
A5E2
100
AcDbDictionary
280
     1
281
     1
  3
ACAD_XREC_ROUNDTRIP
360
A64C
  0
DICTIONARY
  5
A64D
330
A5E3
100
AcDbDictionary
280
     1
281
     1
  3
ACAD_XREC_ROUNDTRIP
360
A64E
  0
DICTIONARY
  5
A643
330
A5DE
100
AcDbDictionary
280
     1
281
     1
  3
ACAD_XREC_ROUNDTRIP
360
A644
  0
DICTIONARY
  5
A637
330
A5D8
100
AcDbDictionary
280
     1
281
     1
  3
ACAD_XREC_ROUNDTRIP
360
A638
  0
DICTIONARY
  5
A64F
330
A5E4
100
AcDbDictionary
280
     1
281
     1
  3
ACAD_XREC_ROUNDTRIP
360
A650
  0
XRECORD
  5
A660
102
{ACAD_REACTORS
330
A65F
102
}
330
A65F
100
AcDbXrecord
280
     1
102
DISPLAYNAME
  1
Imperial24
102
FLAGS
 90
        0
  0
XRECORD
  5
A662
102
{ACAD_REACTORS
330
A661
102
}
330
A661
100
AcDbXrecord
280
     1
102
SHADEPLOT
 70
     0
102
SHADEPLOTRESLEVEL
 70
     2
102
SHADEPLOTCUSTOMDPI
 70
   300
  0
XRECORD
  5
A664
102
{ACAD_REACTORS
330
A663
102
}
330
A663
100
AcDbXrecord
280
     1
102
SHADEPLOT
 70
     0
102
SHADEPLOTRESLEVEL
 70
     2
102
SHADEPLOTCUSTOMDPI
 70
   300
  0
XRECORD
  5
A629
102
{ACAD_REACTORS
330
A5C2
102
}
330
A5C2
100
AcDbXrecord
280
     1
102
MATERIAL
148
0.0
149
0.0
149
0.0
 93
        0
 94
      127
282
     0
 72
     0
 77
     0
171
     0
175
     0
179
     0
273
     0
  0
XRECORD
  5
A5C4
102
{ACAD_REACTORS
330
A5C2
102
}
330
A5C2
100
AcDbXrecord
280
     1
270
     1
271
     1
  0
XRECORD
  5
A5C3
102
{ACAD_REACTORS
330
A5C2
102
}
330
A5C2
100
AcDbXrecord
280
     1
270
     1
271
     1
  0
XRECORD
  5
A5C7
102
{ACAD_REACTORS
330
A5C2
102
}
330
A5C2
100
AcDbXrecord
280
     1
270
     1
271
     1
  0
XRECORD
  5
A5C6
102
{ACAD_REACTORS
330
A5C2
102
}
330
A5C2
100
AcDbXrecord
280
     1
270
     1
271
     1
  0
XRECORD
  5
A5C8
102
{ACAD_REACTORS
330
A5C2
102
}
330
A5C2
100
AcDbXrecord
280
     1
270
     1
271
     1
  0
XRECORD
  5
A5C5
102
{ACAD_REACTORS
330
A5C2
102
}
330
A5C2
100
AcDbXrecord
280
     1
270
     1
271
     1
  0
XRECORD
  5
A628
102
{ACAD_REACTORS
330
A5BA
102
}
330
A5BA
100
AcDbXrecord
280
     1
102
MATERIAL
148
0.0
149
0.0
149
0.0
 93
        0
 94
      127
282
     0
 72
     0
 77
     0
171
     0
175
     0
179
     0
273
     0
  0
XRECORD
  5
A5BC
102
{ACAD_REACTORS
330
A5BA
102
}
330
A5BA
100
AcDbXrecord
280
     1
270
     1
271
     1
  0
XRECORD
  5
A5BB
102
{ACAD_REACTORS
330
A5BA
102
}
330
A5BA
100
AcDbXrecord
280
     1
270
     1
271
     1
  0
XRECORD
  5
A5BF
102
{ACAD_REACTORS
330
A5BA
102
}
330
A5BA
100
AcDbXrecord
280
     1
270
     1
271
     1
  0
XRECORD
  5
A5BE
102
{ACAD_REACTORS
330
A5BA
102
}
330
A5BA
100
AcDbXrecord
280
     1
270
     1
271
     1
  0
XRECORD
  5
A5C0
102
{ACAD_REACTORS
330
A5BA
102
}
330
A5BA
100
AcDbXrecord
280
     1
270
     1
271
     1
  0
XRECORD
  5
A5BD
102
{ACAD_REACTORS
330
A5BA
102
}
330
A5BA
100
AcDbXrecord
280
     1
270
     1
271
     1
  0
XRECORD
  5
A62A
102
{ACAD_REACTORS
330
A5CA
102
}
330
A5CA
100
AcDbXrecord
280
     1
102
MATERIAL
148
0.0
149
0.0
149
0.0
 93
        0
 94
      127
282
     0
 72
     0
 77
     0
171
     0
175
     0
179
     0
273
     0
  0
XRECORD
  5
A5CC
102
{ACAD_REACTORS
330
A5CA
102
}
330
A5CA
100
AcDbXrecord
280
     1
270
     1
271
     1
  0
XRECORD
  5
A5CB
102
{ACAD_REACTORS
330
A5CA
102
}
330
A5CA
100
AcDbXrecord
280
     1
270
     1
271
     1
  0
XRECORD
  5
A5CF
102
{ACAD_REACTORS
330
A5CA
102
}
330
A5CA
100
AcDbXrecord
280
     1
270
     1
271
     1
  0
XRECORD
  5
A5CE
102
{ACAD_REACTORS
330
A5CA
102
}
330
A5CA
100
AcDbXrecord
280
     1
270
     1
271
     1
  0
XRECORD
  5
A5D0
102
{ACAD_REACTORS
330
A5CA
102
}
330
A5CA
100
AcDbXrecord
280
     1
270
     1
271
     1
  0
XRECORD
  5
A5CD
102
{ACAD_REACTORS
330
A5CA
102
}
330
A5CA
100
AcDbXrecord
280
     1
270
     1
271
     1
  0
XRECORD
  5
A65E
102
{ACAD_REACTORS
330
A65D
102
}
330
A65D
100
AcDbXrecord
280
     1
102
DISPLAYNAME
  1
Imperial24
102
FLAGS
 90
        0
  0
CELLSTYLEMAP
  5
A625
102
{ACAD_REACTORS
330
A624
102
}
330
A624
100
AcDbCellStyleMap
 90
        3
300
CELLSTYLE
  1
TABLEFORMAT_BEGIN
 90
        5
170
     1
 91
        0
 92
    32768
 62
   257
 93
        1
300
CONTENTFORMAT
  1
CONTENTFORMAT_BEGIN
 90
        0
 91
        0
 92
      512
 93
        0
300

 40
0.0
140
1.0
 94
        5
 62
     0
340
A33B
144
0.25
309
CONTENTFORMAT_END
171
     0
 94
        0
309
TABLEFORMAT_END
  1
CELLSTYLE_BEGIN
 90
        1
 91
        1
300
_TITLE
309
CELLSTYLE_END
300
CELLSTYLE
  1
TABLEFORMAT_BEGIN
 90
        5
170
     1
 91
        0
 92
        0
 62
   257
 93
        1
300
CONTENTFORMAT
  1
CONTENTFORMAT_BEGIN
 90
        0
 91
        0
 92
      512
 93
        0
300

 40
0.0
140
1.0
 94
        5
 62
     0
340
A33B
144
0.18
309
CONTENTFORMAT_END
171
     0
 94
        0
309
TABLEFORMAT_END
  1
CELLSTYLE_BEGIN
 90
        2
 91
        1
300
_HEADER
309
CELLSTYLE_END
300
CELLSTYLE
  1
TABLEFORMAT_BEGIN
 90
        5
170
     1
 91
        0
 92
        0
 62
   257
 93
        1
300
CONTENTFORMAT
  1
CONTENTFORMAT_BEGIN
 90
        0
 91
        0
 92
      512
 93
        0
300

 40
0.0
140
1.0
 94
        2
 62
     0
340
A33B
144
0.18
309
CONTENTFORMAT_END
171
     0
 94
        0
309
TABLEFORMAT_END
  1
CELLSTYLE_BEGIN
 90
        3
 91
        2
300
_DATA
309
CELLSTYLE_END
  0
XRECORD
  5
A65B
102
{ACAD_REACTORS
330
A624
102
}
330
A624
100
AcDbXrecord
280
     1
102
ACAD_ROUNDTRIP_PRE2007_TABLESTYLE
 90
      512
 91
        0
  1

 92
      512
 93
        0
  2

 94
      512
 95
        0
  3

  0
XRECORD
  5
A636
102
{ACAD_REACTORS
330
A635
102
}
330
A635
100
AcDbXrecord
280
     1
102
RTVSPost2010Prop28
280
     1
102
RTVSPost2010PropOp28
 70
     1
102
RTVSPost2010Prop29
280
     1
102
RTVSPost2010PropOp29
 70
     1
102
RTVSPost2010Prop30
280
     0
102
RTVSPost2010PropOp30
 70
     1
102
RTVSPost2010Prop31
280
     0
102
RTVSPost2010PropOp31
 70
     1
102
RTVSPost2010Prop32
280
     0
102
RTVSPost2010PropOp32
 70
     1
102
RTVSPost2010Prop33
280
     0
102
RTVSPost2010PropOp33
 70
     1
102
RTVSPost2010Prop34
280
     0
102
RTVSPost2010PropOp34
 70
     1
102
RTVSPost2010Prop35
280
     0
102
RTVSPost2010PropOp35
 70
     1
102
RTVSPost2010Prop36
280
     0
102
RTVSPost2010PropOp36
 70
     1
102
RTVSPost2010Prop37
 90
       50
102
RTVSPost2010PropOp37
 70
     1
102
RTVSPost2010Prop38
140
0.0
102
RTVSPost2010PropOp38
 70
     1
102
RTVSPost2010Prop39
140
1.0
102
RTVSPost2010PropOp39
 70
     1
102
RTVSPost2010Prop40
 90
        0
102
RTVSPost2010PropOp40
 70
     1
102
RTVSPost2010Prop41ColorIndex
 90
       18
102
RTVSPost2010Prop41ColorRGB
 90
        0
102
RTVSPost2010PropOp41
 70
     1
102
RTVSPost2010Prop42
 90
       50
102
RTVSPost2010PropOp42
 70
     1
102
RTVSPost2010Prop43
 90
        3
102
RTVSPost2010PropOp43
 70
     1
102
RTVSPost2010Prop44ColorIndex
 90
        5
102
RTVSPost2010Prop44ColorRGB
 90
      255
102
RTVSPost2010PropOp44
 70
     1
102
RTVSPost2010Prop45
280
     0
102
RTVSPost2010PropOp45
 70
     1
102
RTVSPost2010Prop46
 90
       50
102
RTVSPost2010PropOp46
 70
     1
102
RTVSPost2010Prop47
 90
       50
102
RTVSPost2010PropOp47
 70
     1
102
RTVSPost2010Prop48
 90
       50
102
RTVSPost2010PropOp48
 70
     1
102
RTVSPost2010Prop49
280
     0
102
RTVSPost2010PropOp49
 70
     1
102
RTVSPost2010Prop50
 90
       50
102
RTVSPost2010PropOp50
 70
     1
102
RTVSPost2010Prop51ColorIndex
 90
      256
102
RTVSPost2010Prop51ColorRGB
 90
-16777216
102
RTVSPost2010PropOp51
 70
     0
102
RTVSPost2010Prop52
140
1.0
102
RTVSPost2010PropOp52
 70
     0
102
RTVSPost2010Prop53
 90
        2
102
RTVSPost2010PropOp53
 70
     1
102
RTVSPost2010Prop54
  1
strokes_ogs.tif
102
RTVSPost2010PropOp54
 70
     1
102
RTVSPost2010Prop55
280
     0
102
RTVSPost2010PropOp55
 70
     1
102
RTVSPost2010Prop56
140
1.0
102
RTVSPost2010PropOp56
 70
     1
102
RTVSPost2010Prop57
140
1.0
102
RTVSPost2010PropOp57
 70
     1
102
RTVSPropertyOp0
 70
     1
102
RTVSPropertyOp1
 70
     1
102
RTVSPropertyOp2
 70
     1
102
RTVSPropertyOp3
 70
     1
102
RTVSPropertyOp4
 70
     1
102
RTVSPropertyOp5
 70
     1
102
RTVSPropertyOp6
 70
     1
102
RTVSPropertyOp7
 70
     1
102
RTVSPropertyOp8
 70
     1
102
RTVSPropertyOp9
 70
     1
102
RTVSPropertyOp10
 70
     1
102
RTVSPropertyOp11
 70
     1
102
RTVSPropertyOp12
 70
     1
102
RTVSPropertyOp13
 70
     1
102
RTVSPropertyOp14
 70
     1
102
RTVSPropertyOp15
 70
     1
102
RTVSPropertyOp16
 70
     1
102
RTVSPropertyOp17
 70
     1
102
RTVSPropertyOp18
 70
     1
102
RTVSPropertyOp19
 70
     1
102
RTVSPropertyOp20
 70
     1
102
RTVSPropertyOp21
 70
     1
102
RTVSPropertyOp22
 70
     1
102
RTVSPropertyOp23
 70
     1
102
RTVSPropertyOp24
 70
     1
102
RTVSPropertyOp25
 70
     1
102
RTVSPropertyOp26
 70
     1
102
RTVSPropertyOp27
 70
     1
102
RTVSPropertyOp28
 70
     1
102
RTVSPropertyOp29
 70
     1
102
RTVSPropertyOp30
 70
     1
102
RTVSPropertyOp31
 70
     1
102
RTVSPropertyOp32
 70
     1
102
RTVSPropertyOp33
 70
     1
102
RTVSPropertyOp34
 70
     1
102
RTVSPropertyOp35
 70
     1
102
RTVSPropertyOp36
 70
     1
102
RTVSPropertyOp37
 70
     1
102
RTVSPropertyOp38
 70
     1
102
RTVSPropertyOp39
 70
     1
102
RTVSPropertyOp40
 70
     1
102
RTVSPropertyOp41
 70
     1
102
RTVSPropertyOp42
 70
     1
102
RTVSPropertyOp43
 70
     1
102
RTVSPropertyOp44
 70
     1
102
RTVSPropertyOp45
 70
     1
102
RTVSPropertyOp46
 70
     1
102
RTVSPropertyOp47
 70
     1
102
RTVSPropertyOp48
 70
     1
102
RTVSPropertyOp49
 70
     1
102
RTVSPropertyOp50
 70
     1
102
RTVSPropertyOp51
 70
     0
102
RTVSPropertyOp52
 70
     0
102
RTVSPropertyOp53
 70
     1
102
RTVSPropertyOp54
 70
     1
102
RTVSPropertyOp55
 70
     1
102
RTVSPropertyOp56
 70
     1
102
RTVSPropertyOp57
 70
     1
102
RTVSPropertyOp58
 70
     1
102
RTVSPropertyOp59
 70
     1
102
RTVSPropertyOp60
 70
     1
102
RTVSPropertyOp61
 70
     1
102
RTVSPropertyOp62
 70
     1
  0
XRECORD
  5
A634
102
{ACAD_REACTORS
330
A633
102
}
330
A633
100
AcDbXrecord
280
     1
102
RTVSPost2010Prop28
280
     0
102
RTVSPost2010PropOp28
 70
     1
102
RTVSPost2010Prop29
280
     1
102
RTVSPost2010PropOp29
 70
     1
102
RTVSPost2010Prop30
280
     1
102
RTVSPost2010PropOp30
 70
     1
102
RTVSPost2010Prop31
280
     0
102
RTVSPost2010PropOp31
 70
     1
102
RTVSPost2010Prop32
280
     0
102
RTVSPost2010PropOp32
 70
     1
102
RTVSPost2010Prop33
280
     0
102
RTVSPost2010PropOp33
 70
     1
102
RTVSPost2010Prop34
280
     0
102
RTVSPost2010PropOp34
 70
     1
102
RTVSPost2010Prop35
280
     0
102
RTVSPost2010PropOp35
 70
     1
102
RTVSPost2010Prop36
280
     0
102
RTVSPost2010PropOp36
 70
     1
102
RTVSPost2010Prop37
 90
       50
102
RTVSPost2010PropOp37
 70
     1
102
RTVSPost2010Prop38
140
0.0
102
RTVSPost2010PropOp38
 70
     1
102
RTVSPost2010Prop39
140
1.0
102
RTVSPost2010PropOp39
 70
     1
102
RTVSPost2010Prop40
 90
        0
102
RTVSPost2010PropOp40
 70
     1
102
RTVSPost2010Prop41ColorIndex
 90
       18
102
RTVSPost2010Prop41ColorRGB
 90
        0
102
RTVSPost2010PropOp41
 70
     1
102
RTVSPost2010Prop42
 90
       50
102
RTVSPost2010PropOp42
 70
     1
102
RTVSPost2010Prop43
 90
        3
102
RTVSPost2010PropOp43
 70
     1
102
RTVSPost2010Prop44ColorIndex
 90
        5
102
RTVSPost2010Prop44ColorRGB
 90
      255
102
RTVSPost2010PropOp44
 70
     1
102
RTVSPost2010Prop45
280
     0
102
RTVSPost2010PropOp45
 70
     1
102
RTVSPost2010Prop46
 90
       50
102
RTVSPost2010PropOp46
 70
     1
102
RTVSPost2010Prop47
 90
       50
102
RTVSPost2010PropOp47
 70
     1
102
RTVSPost2010Prop48
 90
       50
102
RTVSPost2010PropOp48
 70
     1
102
RTVSPost2010Prop49
280
     0
102
RTVSPost2010PropOp49
 70
     1
102
RTVSPost2010Prop50
 90
       50
102
RTVSPost2010PropOp50
 70
     1
102
RTVSPost2010Prop51ColorIndex
 90
      256
102
RTVSPost2010Prop51ColorRGB
 90
-16777216
102
RTVSPost2010PropOp51
 70
     0
102
RTVSPost2010Prop52
140
1.0
102
RTVSPost2010PropOp52
 70
     0
102
RTVSPost2010Prop53
 90
        2
102
RTVSPost2010PropOp53
 70
     1
102
RTVSPost2010Prop54
  1
strokes_ogs.tif
102
RTVSPost2010PropOp54
 70
     1
102
RTVSPost2010Prop55
280
     0
102
RTVSPost2010PropOp55
 70
     1
102
RTVSPost2010Prop56
140
1.0
102
RTVSPost2010PropOp56
 70
     1
102
RTVSPost2010Prop57
140
1.0
102
RTVSPost2010PropOp57
 70
     1
102
RTVSPropertyOp0
 70
     1
102
RTVSPropertyOp1
 70
     1
102
RTVSPropertyOp2
 70
     1
102
RTVSPropertyOp3
 70
     1
102
RTVSPropertyOp4
 70
     1
102
RTVSPropertyOp5
 70
     1
102
RTVSPropertyOp6
 70
     1
102
RTVSPropertyOp7
 70
     1
102
RTVSPropertyOp8
 70
     1
102
RTVSPropertyOp9
 70
     1
102
RTVSPropertyOp10
 70
     1
102
RTVSPropertyOp11
 70
     1
102
RTVSPropertyOp12
 70
     1
102
RTVSPropertyOp13
 70
     1
102
RTVSPropertyOp14
 70
     1
102
RTVSPropertyOp15
 70
     1
102
RTVSPropertyOp16
 70
     1
102
RTVSPropertyOp17
 70
     1
102
RTVSPropertyOp18
 70
     1
102
RTVSPropertyOp19
 70
     1
102
RTVSPropertyOp20
 70
     1
102
RTVSPropertyOp21
 70
     1
102
RTVSPropertyOp22
 70
     1
102
RTVSPropertyOp23
 70
     1
102
RTVSPropertyOp24
 70
     1
102
RTVSPropertyOp25
 70
     1
102
RTVSPropertyOp26
 70
     1
102
RTVSPropertyOp27
 70
     1
102
RTVSPropertyOp28
 70
     1
102
RTVSPropertyOp29
 70
     1
102
RTVSPropertyOp30
 70
     1
102
RTVSPropertyOp31
 70
     1
102
RTVSPropertyOp32
 70
     1
102
RTVSPropertyOp33
 70
     1
102
RTVSPropertyOp34
 70
     1
102
RTVSPropertyOp35
 70
     1
102
RTVSPropertyOp36
 70
     1
102
RTVSPropertyOp37
 70
     1
102
RTVSPropertyOp38
 70
     1
102
RTVSPropertyOp39
 70
     1
102
RTVSPropertyOp40
 70
     1
102
RTVSPropertyOp41
 70
     1
102
RTVSPropertyOp42
 70
     1
102
RTVSPropertyOp43
 70
     1
102
RTVSPropertyOp44
 70
     1
102
RTVSPropertyOp45
 70
     1
102
RTVSPropertyOp46
 70
     1
102
RTVSPropertyOp47
 70
     1
102
RTVSPropertyOp48
 70
     1
102
RTVSPropertyOp49
 70
     1
102
RTVSPropertyOp50
 70
     1
102
RTVSPropertyOp51
 70
     0
102
RTVSPropertyOp52
 70
     0
102
RTVSPropertyOp53
 70
     1
102
RTVSPropertyOp54
 70
     1
102
RTVSPropertyOp55
 70
     1
102
RTVSPropertyOp56
 70
     1
102
RTVSPropertyOp57
 70
     1
102
RTVSPropertyOp58
 70
     1
102
RTVSPropertyOp59
 70
     1
102
RTVSPropertyOp60
 70
     1
102
RTVSPropertyOp61
 70
     1
102
RTVSPropertyOp62
 70
     1
  0
XRECORD
  5
A642
102
{ACAD_REACTORS
330
A641
102
}
330
A641
100
AcDbXrecord
280
     1
102
RTVSPost2010Prop28
280
     0
102
RTVSPost2010PropOp28
 70
     1
102
RTVSPost2010Prop29
280
     1
102
RTVSPost2010PropOp29
 70
     1
102
RTVSPost2010Prop30
280
     1
102
RTVSPost2010PropOp30
 70
     1
102
RTVSPost2010Prop31
280
     0
102
RTVSPost2010PropOp31
 70
     1
102
RTVSPost2010Prop32
280
     0
102
RTVSPost2010PropOp32
 70
     1
102
RTVSPost2010Prop33
280
     0
102
RTVSPost2010PropOp33
 70
     1
102
RTVSPost2010Prop34
280
     0
102
RTVSPost2010PropOp34
 70
     1
102
RTVSPost2010Prop35
280
     0
102
RTVSPost2010PropOp35
 70
     1
102
RTVSPost2010Prop36
280
     0
102
RTVSPost2010PropOp36
 70
     1
102
RTVSPost2010Prop37
 90
       50
102
RTVSPost2010PropOp37
 70
     1
102
RTVSPost2010Prop38
140
0.0
102
RTVSPost2010PropOp38
 70
     1
102
RTVSPost2010Prop39
140
1.0
102
RTVSPost2010PropOp39
 70
     1
102
RTVSPost2010Prop40
 90
        0
102
RTVSPost2010PropOp40
 70
     1
102
RTVSPost2010Prop41ColorIndex
 90
       18
102
RTVSPost2010Prop41ColorRGB
 90
        0
102
RTVSPost2010PropOp41
 70
     1
102
RTVSPost2010Prop42
 90
       50
102
RTVSPost2010PropOp42
 70
     1
102
RTVSPost2010Prop43
 90
        3
102
RTVSPost2010PropOp43
 70
     1
102
RTVSPost2010Prop44ColorIndex
 90
        5
102
RTVSPost2010Prop44ColorRGB
 90
      255
102
RTVSPost2010PropOp44
 70
     1
102
RTVSPost2010Prop45
280
     0
102
RTVSPost2010PropOp45
 70
     1
102
RTVSPost2010Prop46
 90
       50
102
RTVSPost2010PropOp46
 70
     1
102
RTVSPost2010Prop47
 90
       50
102
RTVSPost2010PropOp47
 70
     1
102
RTVSPost2010Prop48
 90
       50
102
RTVSPost2010PropOp48
 70
     1
102
RTVSPost2010Prop49
280
     0
102
RTVSPost2010PropOp49
 70
     1
102
RTVSPost2010Prop50
 90
       50
102
RTVSPost2010PropOp50
 70
     1
102
RTVSPost2010Prop51ColorIndex
 90
      256
102
RTVSPost2010Prop51ColorRGB
 90
-16777216
102
RTVSPost2010PropOp51
 70
     0
102
RTVSPost2010Prop52
140
1.0
102
RTVSPost2010PropOp52
 70
     0
102
RTVSPost2010Prop53
 90
        2
102
RTVSPost2010PropOp53
 70
     1
102
RTVSPost2010Prop54
  1
strokes_ogs.tif
102
RTVSPost2010PropOp54
 70
     1
102
RTVSPost2010Prop55
280
     0
102
RTVSPost2010PropOp55
 70
     1
102
RTVSPost2010Prop56
140
1.0
102
RTVSPost2010PropOp56
 70
     1
102
RTVSPost2010Prop57
140
1.0
102
RTVSPost2010PropOp57
 70
     1
102
RTVSPropertyOp0
 70
     1
102
RTVSPropertyOp1
 70
     1
102
RTVSPropertyOp2
 70
     1
102
RTVSPropertyOp3
 70
     1
102
RTVSPropertyOp4
 70
     1
102
RTVSPropertyOp5
 70
     1
102
RTVSPropertyOp6
 70
     1
102
RTVSPropertyOp7
 70
     1
102
RTVSPropertyOp8
 70
     1
102
RTVSPropertyOp9
 70
     1
102
RTVSPropertyOp10
 70
     1
102
RTVSPropertyOp11
 70
     1
102
RTVSPropertyOp12
 70
     1
102
RTVSPropertyOp13
 70
     1
102
RTVSPropertyOp14
 70
     1
102
RTVSPropertyOp15
 70
     1
102
RTVSPropertyOp16
 70
     1
102
RTVSPropertyOp17
 70
     1
102
RTVSPropertyOp18
 70
     1
102
RTVSPropertyOp19
 70
     1
102
RTVSPropertyOp20
 70
     1
102
RTVSPropertyOp21
 70
     1
102
RTVSPropertyOp22
 70
     1
102
RTVSPropertyOp23
 70
     1
102
RTVSPropertyOp24
 70
     1
102
RTVSPropertyOp25
 70
     1
102
RTVSPropertyOp26
 70
     1
102
RTVSPropertyOp27
 70
     1
102
RTVSPropertyOp28
 70
     1
102
RTVSPropertyOp29
 70
     1
102
RTVSPropertyOp30
 70
     1
102
RTVSPropertyOp31
 70
     1
102
RTVSPropertyOp32
 70
     1
102
RTVSPropertyOp33
 70
     1
102
RTVSPropertyOp34
 70
     1
102
RTVSPropertyOp35
 70
     1
102
RTVSPropertyOp36
 70
     1
102
RTVSPropertyOp37
 70
     1
102
RTVSPropertyOp38
 70
     1
102
RTVSPropertyOp39
 70
     1
102
RTVSPropertyOp40
 70
     1
102
RTVSPropertyOp41
 70
     1
102
RTVSPropertyOp42
 70
     1
102
RTVSPropertyOp43
 70
     1
102
RTVSPropertyOp44
 70
     1
102
RTVSPropertyOp45
 70
     1
102
RTVSPropertyOp46
 70
     1
102
RTVSPropertyOp47
 70
     1
102
RTVSPropertyOp48
 70
     1
102
RTVSPropertyOp49
 70
     1
102
RTVSPropertyOp50
 70
     1
102
RTVSPropertyOp51
 70
     0
102
RTVSPropertyOp52
 70
     0
102
RTVSPropertyOp53
 70
     1
102
RTVSPropertyOp54
 70
     1
102
RTVSPropertyOp55
 70
     1
102
RTVSPropertyOp56
 70
     1
102
RTVSPropertyOp57
 70
     1
102
RTVSPropertyOp58
 70
     1
102
RTVSPropertyOp59
 70
     1
102
RTVSPropertyOp60
 70
     1
102
RTVSPropertyOp61
 70
     1
102
RTVSPropertyOp62
 70
     1
  0
XRECORD
  5
A64A
102
{ACAD_REACTORS
330
A649
102
}
330
A649
100
AcDbXrecord
280
     1
102
RTVSPost2010Prop28
280
     0
102
RTVSPost2010PropOp28
 70
     1
102
RTVSPost2010Prop29
280
     1
102
RTVSPost2010PropOp29
 70
     1
102
RTVSPost2010Prop30
280
     1
102
RTVSPost2010PropOp30
 70
     1
102
RTVSPost2010Prop31
280
     0
102
RTVSPost2010PropOp31
 70
     1
102
RTVSPost2010Prop32
280
     0
102
RTVSPost2010PropOp32
 70
     1
102
RTVSPost2010Prop33
280
     0
102
RTVSPost2010PropOp33
 70
     1
102
RTVSPost2010Prop34
280
     0
102
RTVSPost2010PropOp34
 70
     1
102
RTVSPost2010Prop35
280
     0
102
RTVSPost2010PropOp35
 70
     1
102
RTVSPost2010Prop36
280
     0
102
RTVSPost2010PropOp36
 70
     1
102
RTVSPost2010Prop37
 90
       50
102
RTVSPost2010PropOp37
 70
     1
102
RTVSPost2010Prop38
140
0.0
102
RTVSPost2010PropOp38
 70
     1
102
RTVSPost2010Prop39
140
1.0
102
RTVSPost2010PropOp39
 70
     1
102
RTVSPost2010Prop40
 90
        0
102
RTVSPost2010PropOp40
 70
     1
102
RTVSPost2010Prop41ColorIndex
 90
       18
102
RTVSPost2010Prop41ColorRGB
 90
        0
102
RTVSPost2010PropOp41
 70
     1
102
RTVSPost2010Prop42
 90
       50
102
RTVSPost2010PropOp42
 70
     1
102
RTVSPost2010Prop43
 90
        3
102
RTVSPost2010PropOp43
 70
     1
102
RTVSPost2010Prop44ColorIndex
 90
        5
102
RTVSPost2010Prop44ColorRGB
 90
      255
102
RTVSPost2010PropOp44
 70
     1
102
RTVSPost2010Prop45
280
     0
102
RTVSPost2010PropOp45
 70
     1
102
RTVSPost2010Prop46
 90
       50
102
RTVSPost2010PropOp46
 70
     1
102
RTVSPost2010Prop47
 90
       50
102
RTVSPost2010PropOp47
 70
     1
102
RTVSPost2010Prop48
 90
       50
102
RTVSPost2010PropOp48
 70
     1
102
RTVSPost2010Prop49
280
     0
102
RTVSPost2010PropOp49
 70
     1
102
RTVSPost2010Prop50
 90
       50
102
RTVSPost2010PropOp50
 70
     1
102
RTVSPost2010Prop51ColorIndex
 90
      256
102
RTVSPost2010Prop51ColorRGB
 90
-16777216
102
RTVSPost2010PropOp51
 70
     0
102
RTVSPost2010Prop52
140
1.0
102
RTVSPost2010PropOp52
 70
     0
102
RTVSPost2010Prop53
 90
        2
102
RTVSPost2010PropOp53
 70
     1
102
RTVSPost2010Prop54
  1
strokes_ogs.tif
102
RTVSPost2010PropOp54
 70
     1
102
RTVSPost2010Prop55
280
     0
102
RTVSPost2010PropOp55
 70
     1
102
RTVSPost2010Prop56
140
1.0
102
RTVSPost2010PropOp56
 70
     1
102
RTVSPost2010Prop57
140
1.0
102
RTVSPost2010PropOp57
 70
     1
102
RTVSPropertyOp0
 70
     1
102
RTVSPropertyOp1
 70
     1
102
RTVSPropertyOp2
 70
     1
102
RTVSPropertyOp3
 70
     1
102
RTVSPropertyOp4
 70
     1
102
RTVSPropertyOp5
 70
     1
102
RTVSPropertyOp6
 70
     1
102
RTVSPropertyOp7
 70
     1
102
RTVSPropertyOp8
 70
     1
102
RTVSPropertyOp9
 70
     1
102
RTVSPropertyOp10
 70
     1
102
RTVSPropertyOp11
 70
     1
102
RTVSPropertyOp12
 70
     1
102
RTVSPropertyOp13
 70
     1
102
RTVSPropertyOp14
 70
     1
102
RTVSPropertyOp15
 70
     1
102
RTVSPropertyOp16
 70
     1
102
RTVSPropertyOp17
 70
     1
102
RTVSPropertyOp18
 70
     1
102
RTVSPropertyOp19
 70
     1
102
RTVSPropertyOp20
 70
     1
102
RTVSPropertyOp21
 70
     1
102
RTVSPropertyOp22
 70
     1
102
RTVSPropertyOp23
 70
     1
102
RTVSPropertyOp24
 70
     1
102
RTVSPropertyOp25
 70
     1
102
RTVSPropertyOp26
 70
     1
102
RTVSPropertyOp27
 70
     1
102
RTVSPropertyOp28
 70
     1
102
RTVSPropertyOp29
 70
     1
102
RTVSPropertyOp30
 70
     1
102
RTVSPropertyOp31
 70
     1
102
RTVSPropertyOp32
 70
     1
102
RTVSPropertyOp33
 70
     1
102
RTVSPropertyOp34
 70
     1
102
RTVSPropertyOp35
 70
     1
102
RTVSPropertyOp36
 70
     1
102
RTVSPropertyOp37
 70
     1
102
RTVSPropertyOp38
 70
     1
102
RTVSPropertyOp39
 70
     1
102
RTVSPropertyOp40
 70
     1
102
RTVSPropertyOp41
 70
     1
102
RTVSPropertyOp42
 70
     1
102
RTVSPropertyOp43
 70
     1
102
RTVSPropertyOp44
 70
     1
102
RTVSPropertyOp45
 70
     1
102
RTVSPropertyOp46
 70
     1
102
RTVSPropertyOp47
 70
     1
102
RTVSPropertyOp48
 70
     1
102
RTVSPropertyOp49
 70
     1
102
RTVSPropertyOp50
 70
     1
102
RTVSPropertyOp51
 70
     0
102
RTVSPropertyOp52
 70
     0
102
RTVSPropertyOp53
 70
     1
102
RTVSPropertyOp54
 70
     1
102
RTVSPropertyOp55
 70
     1
102
RTVSPropertyOp56
 70
     1
102
RTVSPropertyOp57
 70
     1
102
RTVSPropertyOp58
 70
     1
102
RTVSPropertyOp59
 70
     1
102
RTVSPropertyOp60
 70
     1
102
RTVSPropertyOp61
 70
     1
102
RTVSPropertyOp62
 70
     1
  0
XRECORD
  5
A63C
102
{ACAD_REACTORS
330
A63B
102
}
330
A63B
100
AcDbXrecord
280
     1
102
RTVSPost2010Prop28
280
     0
102
RTVSPost2010PropOp28
 70
     1
102
RTVSPost2010Prop29
280
     1
102
RTVSPost2010PropOp29
 70
     1
102
RTVSPost2010Prop30
280
     1
102
RTVSPost2010PropOp30
 70
     1
102
RTVSPost2010Prop31
280
     0
102
RTVSPost2010PropOp31
 70
     1
102
RTVSPost2010Prop32
280
     0
102
RTVSPost2010PropOp32
 70
     1
102
RTVSPost2010Prop33
280
     0
102
RTVSPost2010PropOp33
 70
     1
102
RTVSPost2010Prop34
280
     0
102
RTVSPost2010PropOp34
 70
     1
102
RTVSPost2010Prop35
280
     0
102
RTVSPost2010PropOp35
 70
     1
102
RTVSPost2010Prop36
280
     0
102
RTVSPost2010PropOp36
 70
     1
102
RTVSPost2010Prop37
 90
       50
102
RTVSPost2010PropOp37
 70
     1
102
RTVSPost2010Prop38
140
0.0
102
RTVSPost2010PropOp38
 70
     1
102
RTVSPost2010Prop39
140
1.0
102
RTVSPost2010PropOp39
 70
     1
102
RTVSPost2010Prop40
 90
        0
102
RTVSPost2010PropOp40
 70
     1
102
RTVSPost2010Prop41ColorIndex
 90
       18
102
RTVSPost2010Prop41ColorRGB
 90
        0
102
RTVSPost2010PropOp41
 70
     1
102
RTVSPost2010Prop42
 90
       50
102
RTVSPost2010PropOp42
 70
     1
102
RTVSPost2010Prop43
 90
        3
102
RTVSPost2010PropOp43
 70
     1
102
RTVSPost2010Prop44ColorIndex
 90
        5
102
RTVSPost2010Prop44ColorRGB
 90
      255
102
RTVSPost2010PropOp44
 70
     1
102
RTVSPost2010Prop45
280
     0
102
RTVSPost2010PropOp45
 70
     1
102
RTVSPost2010Prop46
 90
       50
102
RTVSPost2010PropOp46
 70
     1
102
RTVSPost2010Prop47
 90
       50
102
RTVSPost2010PropOp47
 70
     1
102
RTVSPost2010Prop48
 90
       50
102
RTVSPost2010PropOp48
 70
     1
102
RTVSPost2010Prop49
280
     0
102
RTVSPost2010PropOp49
 70
     1
102
RTVSPost2010Prop50
 90
       50
102
RTVSPost2010PropOp50
 70
     1
102
RTVSPost2010Prop51ColorIndex
 90
      256
102
RTVSPost2010Prop51ColorRGB
 90
-16777216
102
RTVSPost2010PropOp51
 70
     0
102
RTVSPost2010Prop52
140
1.0
102
RTVSPost2010PropOp52
 70
     0
102
RTVSPost2010Prop53
 90
        2
102
RTVSPost2010PropOp53
 70
     1
102
RTVSPost2010Prop54
  1
strokes_ogs.tif
102
RTVSPost2010PropOp54
 70
     1
102
RTVSPost2010Prop55
280
     0
102
RTVSPost2010PropOp55
 70
     1
102
RTVSPost2010Prop56
140
1.0
102
RTVSPost2010PropOp56
 70
     1
102
RTVSPost2010Prop57
140
1.0
102
RTVSPost2010PropOp57
 70
     1
102
RTVSPropertyOp0
 70
     1
102
RTVSPropertyOp1
 70
     1
102
RTVSPropertyOp2
 70
     1
102
RTVSPropertyOp3
 70
     1
102
RTVSPropertyOp4
 70
     1
102
RTVSPropertyOp5
 70
     1
102
RTVSPropertyOp6
 70
     1
102
RTVSPropertyOp7
 70
     1
102
RTVSPropertyOp8
 70
     1
102
RTVSPropertyOp9
 70
     1
102
RTVSPropertyOp10
 70
     1
102
RTVSPropertyOp11
 70
     1
102
RTVSPropertyOp12
 70
     1
102
RTVSPropertyOp13
 70
     1
102
RTVSPropertyOp14
 70
     1
102
RTVSPropertyOp15
 70
     1
102
RTVSPropertyOp16
 70
     1
102
RTVSPropertyOp17
 70
     1
102
RTVSPropertyOp18
 70
     1
102
RTVSPropertyOp19
 70
     1
102
RTVSPropertyOp20
 70
     1
102
RTVSPropertyOp21
 70
     1
102
RTVSPropertyOp22
 70
     1
102
RTVSPropertyOp23
 70
     1
102
RTVSPropertyOp24
 70
     1
102
RTVSPropertyOp25
 70
     1
102
RTVSPropertyOp26
 70
     1
102
RTVSPropertyOp27
 70
     1
102
RTVSPropertyOp28
 70
     1
102
RTVSPropertyOp29
 70
     1
102
RTVSPropertyOp30
 70
     1
102
RTVSPropertyOp31
 70
     1
102
RTVSPropertyOp32
 70
     1
102
RTVSPropertyOp33
 70
     1
102
RTVSPropertyOp34
 70
     1
102
RTVSPropertyOp35
 70
     1
102
RTVSPropertyOp36
 70
     1
102
RTVSPropertyOp37
 70
     1
102
RTVSPropertyOp38
 70
     1
102
RTVSPropertyOp39
 70
     1
102
RTVSPropertyOp40
 70
     1
102
RTVSPropertyOp41
 70
     1
102
RTVSPropertyOp42
 70
     1
102
RTVSPropertyOp43
 70
     1
102
RTVSPropertyOp44
 70
     1
102
RTVSPropertyOp45
 70
     1
102
RTVSPropertyOp46
 70
     1
102
RTVSPropertyOp47
 70
     1
102
RTVSPropertyOp48
 70
     1
102
RTVSPropertyOp49
 70
     1
102
RTVSPropertyOp50
 70
     1
102
RTVSPropertyOp51
 70
     0
102
RTVSPropertyOp52
 70
     0
102
RTVSPropertyOp53
 70
     1
102
RTVSPropertyOp54
 70
     1
102
RTVSPropertyOp55
 70
     1
102
RTVSPropertyOp56
 70
     1
102
RTVSPropertyOp57
 70
     1
102
RTVSPropertyOp58
 70
     1
102
RTVSPropertyOp59
 70
     1
102
RTVSPropertyOp60
 70
     1
102
RTVSPropertyOp61
 70
     1
102
RTVSPropertyOp62
 70
     1
  0
XRECORD
  5
A640
102
{ACAD_REACTORS
330
A63F
102
}
330
A63F
100
AcDbXrecord
280
     1
102
RTVSPost2010Prop28
280
     0
102
RTVSPost2010PropOp28
 70
     1
102
RTVSPost2010Prop29
280
     1
102
RTVSPost2010PropOp29
 70
     1
102
RTVSPost2010Prop30
280
     1
102
RTVSPost2010PropOp30
 70
     1
102
RTVSPost2010Prop31
280
     0
102
RTVSPost2010PropOp31
 70
     1
102
RTVSPost2010Prop32
280
     0
102
RTVSPost2010PropOp32
 70
     1
102
RTVSPost2010Prop33
280
     0
102
RTVSPost2010PropOp33
 70
     1
102
RTVSPost2010Prop34
280
     0
102
RTVSPost2010PropOp34
 70
     1
102
RTVSPost2010Prop35
280
     0
102
RTVSPost2010PropOp35
 70
     1
102
RTVSPost2010Prop36
280
     0
102
RTVSPost2010PropOp36
 70
     1
102
RTVSPost2010Prop37
 90
       50
102
RTVSPost2010PropOp37
 70
     1
102
RTVSPost2010Prop38
140
0.0
102
RTVSPost2010PropOp38
 70
     1
102
RTVSPost2010Prop39
140
1.0
102
RTVSPost2010PropOp39
 70
     1
102
RTVSPost2010Prop40
 90
        0
102
RTVSPost2010PropOp40
 70
     1
102
RTVSPost2010Prop41ColorIndex
 90
       18
102
RTVSPost2010Prop41ColorRGB
 90
        0
102
RTVSPost2010PropOp41
 70
     1
102
RTVSPost2010Prop42
 90
       50
102
RTVSPost2010PropOp42
 70
     1
102
RTVSPost2010Prop43
 90
        3
102
RTVSPost2010PropOp43
 70
     1
102
RTVSPost2010Prop44ColorIndex
 90
        5
102
RTVSPost2010Prop44ColorRGB
 90
      255
102
RTVSPost2010PropOp44
 70
     1
102
RTVSPost2010Prop45
280
     0
102
RTVSPost2010PropOp45
 70
     1
102
RTVSPost2010Prop46
 90
       50
102
RTVSPost2010PropOp46
 70
     1
102
RTVSPost2010Prop47
 90
       50
102
RTVSPost2010PropOp47
 70
     1
102
RTVSPost2010Prop48
 90
       50
102
RTVSPost2010PropOp48
 70
     1
102
RTVSPost2010Prop49
280
     0
102
RTVSPost2010PropOp49
 70
     1
102
RTVSPost2010Prop50
 90
       50
102
RTVSPost2010PropOp50
 70
     1
102
RTVSPost2010Prop51ColorIndex
 90
      256
102
RTVSPost2010Prop51ColorRGB
 90
-16777216
102
RTVSPost2010PropOp51
 70
     0
102
RTVSPost2010Prop52
140
1.0
102
RTVSPost2010PropOp52
 70
     0
102
RTVSPost2010Prop53
 90
        2
102
RTVSPost2010PropOp53
 70
     1
102
RTVSPost2010Prop54
  1
strokes_ogs.tif
102
RTVSPost2010PropOp54
 70
     1
102
RTVSPost2010Prop55
280
     0
102
RTVSPost2010PropOp55
 70
     1
102
RTVSPost2010Prop56
140
1.0
102
RTVSPost2010PropOp56
 70
     1
102
RTVSPost2010Prop57
140
1.0
102
RTVSPost2010PropOp57
 70
     1
102
RTVSPropertyOp0
 70
     1
102
RTVSPropertyOp1
 70
     1
102
RTVSPropertyOp2
 70
     1
102
RTVSPropertyOp3
 70
     1
102
RTVSPropertyOp4
 70
     1
102
RTVSPropertyOp5
 70
     1
102
RTVSPropertyOp6
 70
     1
102
RTVSPropertyOp7
 70
     1
102
RTVSPropertyOp8
 70
     1
102
RTVSPropertyOp9
 70
     1
102
RTVSPropertyOp10
 70
     1
102
RTVSPropertyOp11
 70
     1
102
RTVSPropertyOp12
 70
     1
102
RTVSPropertyOp13
 70
     1
102
RTVSPropertyOp14
 70
     1
102
RTVSPropertyOp15
 70
     1
102
RTVSPropertyOp16
 70
     1
102
RTVSPropertyOp17
 70
     1
102
RTVSPropertyOp18
 70
     1
102
RTVSPropertyOp19
 70
     1
102
RTVSPropertyOp20
 70
     1
102
RTVSPropertyOp21
 70
     1
102
RTVSPropertyOp22
 70
     1
102
RTVSPropertyOp23
 70
     1
102
RTVSPropertyOp24
 70
     1
102
RTVSPropertyOp25
 70
     1
102
RTVSPropertyOp26
 70
     1
102
RTVSPropertyOp27
 70
     1
102
RTVSPropertyOp28
 70
     1
102
RTVSPropertyOp29
 70
     1
102
RTVSPropertyOp30
 70
     1
102
RTVSPropertyOp31
 70
     1
102
RTVSPropertyOp32
 70
     1
102
RTVSPropertyOp33
 70
     1
102
RTVSPropertyOp34
 70
     1
102
RTVSPropertyOp35
 70
     1
102
RTVSPropertyOp36
 70
     1
102
RTVSPropertyOp37
 70
     1
102
RTVSPropertyOp38
 70
     1
102
RTVSPropertyOp39
 70
     1
102
RTVSPropertyOp40
 70
     1
102
RTVSPropertyOp41
 70
     1
102
RTVSPropertyOp42
 70
     1
102
RTVSPropertyOp43
 70
     1
102
RTVSPropertyOp44
 70
     1
102
RTVSPropertyOp45
 70
     1
102
RTVSPropertyOp46
 70
     1
102
RTVSPropertyOp47
 70
     1
102
RTVSPropertyOp48
 70
     1
102
RTVSPropertyOp49
 70
     1
102
RTVSPropertyOp50
 70
     1
102
RTVSPropertyOp51
 70
     0
102
RTVSPropertyOp52
 70
     0
102
RTVSPropertyOp53
 70
     1
102
RTVSPropertyOp54
 70
     1
102
RTVSPropertyOp55
 70
     1
102
RTVSPropertyOp56
 70
     1
102
RTVSPropertyOp57
 70
     1
102
RTVSPropertyOp58
 70
     1
102
RTVSPropertyOp59
 70
     1
102
RTVSPropertyOp60
 70
     1
102
RTVSPropertyOp61
 70
     1
102
RTVSPropertyOp62
 70
     1
  0
XRECORD
  5
A65A
102
{ACAD_REACTORS
330
A659
102
}
330
A659
100
AcDbXrecord
280
     1
102
RTVSPost2010Prop28
280
     0
102
RTVSPost2010PropOp28
 70
     1
102
RTVSPost2010Prop29
280
     1
102
RTVSPost2010PropOp29
 70
     1
102
RTVSPost2010Prop30
280
     1
102
RTVSPost2010PropOp30
 70
     1
102
RTVSPost2010Prop31
280
     0
102
RTVSPost2010PropOp31
 70
     1
102
RTVSPost2010Prop32
280
     0
102
RTVSPost2010PropOp32
 70
     1
102
RTVSPost2010Prop33
280
     0
102
RTVSPost2010PropOp33
 70
     1
102
RTVSPost2010Prop34
280
     0
102
RTVSPost2010PropOp34
 70
     1
102
RTVSPost2010Prop35
280
     0
102
RTVSPost2010PropOp35
 70
     1
102
RTVSPost2010Prop36
280
     0
102
RTVSPost2010PropOp36
 70
     1
102
RTVSPost2010Prop37
 90
       50
102
RTVSPost2010PropOp37
 70
     0
102
RTVSPost2010Prop38
140
0.0
102
RTVSPost2010PropOp38
 70
     0
102
RTVSPost2010Prop39
140
1.0
102
RTVSPost2010PropOp39
 70
     0
102
RTVSPost2010Prop40
 90
        0
102
RTVSPost2010PropOp40
 70
     0
102
RTVSPost2010Prop41ColorIndex
 90
       18
102
RTVSPost2010Prop41ColorRGB
 90
        0
102
RTVSPost2010PropOp41
 70
     0
102
RTVSPost2010Prop42
 90
       50
102
RTVSPost2010PropOp42
 70
     0
102
RTVSPost2010Prop43
 90
        3
102
RTVSPost2010PropOp43
 70
     0
102
RTVSPost2010Prop44ColorIndex
 90
        5
102
RTVSPost2010Prop44ColorRGB
 90
      255
102
RTVSPost2010PropOp44
 70
     0
102
RTVSPost2010Prop45
280
     0
102
RTVSPost2010PropOp45
 70
     1
102
RTVSPost2010Prop46
 90
       50
102
RTVSPost2010PropOp46
 70
     0
102
RTVSPost2010Prop47
 90
       50
102
RTVSPost2010PropOp47
 70
     0
102
RTVSPost2010Prop48
 90
       50
102
RTVSPost2010PropOp48
 70
     0
102
RTVSPost2010Prop49
280
     0
102
RTVSPost2010PropOp49
 70
     1
102
RTVSPost2010Prop50
 90
       50
102
RTVSPost2010PropOp50
 70
     0
102
RTVSPost2010Prop51ColorIndex
 90
      256
102
RTVSPost2010Prop51ColorRGB
 90
-16777216
102
RTVSPost2010PropOp51
 70
     0
102
RTVSPost2010Prop52
140
1.0
102
RTVSPost2010PropOp52
 70
     0
102
RTVSPost2010Prop53
 90
        2
102
RTVSPost2010PropOp53
 70
     0
102
RTVSPost2010Prop54
  1
strokes_ogs.tif
102
RTVSPost2010PropOp54
 70
     0
102
RTVSPost2010Prop55
280
     0
102
RTVSPost2010PropOp55
 70
     1
102
RTVSPost2010Prop56
140
1.0
102
RTVSPost2010PropOp56
 70
     0
102
RTVSPost2010Prop57
140
1.0
102
RTVSPost2010PropOp57
 70
     0
102
RTVSPropertyOp0
 70
     0
102
RTVSPropertyOp1
 70
     0
102
RTVSPropertyOp2
 70
     0
102
RTVSPropertyOp3
 70
     0
102
RTVSPropertyOp4
 70
     0
102
RTVSPropertyOp5
 70
     0
102
RTVSPropertyOp6
 70
     0
102
RTVSPropertyOp7
 70
     0
102
RTVSPropertyOp8
 70
     0
102
RTVSPropertyOp9
 70
     0
102
RTVSPropertyOp10
 70
     0
102
RTVSPropertyOp11
 70
     0
102
RTVSPropertyOp12
 70
     0
102
RTVSPropertyOp13
 70
     0
102
RTVSPropertyOp14
 70
     2
102
RTVSPropertyOp15
 70
     0
102
RTVSPropertyOp16
 70
     0
102
RTVSPropertyOp17
 70
     0
102
RTVSPropertyOp18
 70
     0
102
RTVSPropertyOp19
 70
     0
102
RTVSPropertyOp20
 70
     0
102
RTVSPropertyOp21
 70
     0
102
RTVSPropertyOp22
 70
     0
102
RTVSPropertyOp23
 70
     0
102
RTVSPropertyOp24
 70
     0
102
RTVSPropertyOp25
 70
     0
102
RTVSPropertyOp26
 70
     0
102
RTVSPropertyOp27
 70
     0
102
RTVSPropertyOp28
 70
     1
102
RTVSPropertyOp29
 70
     1
102
RTVSPropertyOp30
 70
     1
102
RTVSPropertyOp31
 70
     1
102
RTVSPropertyOp32
 70
     1
102
RTVSPropertyOp33
 70
     1
102
RTVSPropertyOp34
 70
     1
102
RTVSPropertyOp35
 70
     1
102
RTVSPropertyOp36
 70
     1
102
RTVSPropertyOp37
 70
     0
102
RTVSPropertyOp38
 70
     0
102
RTVSPropertyOp39
 70
     0
102
RTVSPropertyOp40
 70
     0
102
RTVSPropertyOp41
 70
     0
102
RTVSPropertyOp42
 70
     0
102
RTVSPropertyOp43
 70
     0
102
RTVSPropertyOp44
 70
     0
102
RTVSPropertyOp45
 70
     1
102
RTVSPropertyOp46
 70
     0
102
RTVSPropertyOp47
 70
     0
102
RTVSPropertyOp48
 70
     0
102
RTVSPropertyOp49
 70
     1
102
RTVSPropertyOp50
 70
     0
102
RTVSPropertyOp51
 70
     0
102
RTVSPropertyOp52
 70
     0
102
RTVSPropertyOp53
 70
     0
102
RTVSPropertyOp54
 70
     0
102
RTVSPropertyOp55
 70
     1
102
RTVSPropertyOp56
 70
     0
102
RTVSPropertyOp57
 70
     0
102
RTVSPropertyOp58
 70
     0
102
RTVSPropertyOp59
 70
     0
102
RTVSPropertyOp60
 70
     0
102
RTVSPropertyOp61
 70
     0
102
RTVSPropertyOp62
 70
     0
  0
XRECORD
  5
A648
102
{ACAD_REACTORS
330
A647
102
}
330
A647
100
AcDbXrecord
280
     1
102
RTVSPost2010Prop28
280
     0
102
RTVSPost2010PropOp28
 70
     1
102
RTVSPost2010Prop29
280
     1
102
RTVSPost2010PropOp29
 70
     1
102
RTVSPost2010Prop30
280
     1
102
RTVSPost2010PropOp30
 70
     1
102
RTVSPost2010Prop31
280
     0
102
RTVSPost2010PropOp31
 70
     1
102
RTVSPost2010Prop32
280
     0
102
RTVSPost2010PropOp32
 70
     1
102
RTVSPost2010Prop33
280
     0
102
RTVSPost2010PropOp33
 70
     1
102
RTVSPost2010Prop34
280
     0
102
RTVSPost2010PropOp34
 70
     1
102
RTVSPost2010Prop35
280
     0
102
RTVSPost2010PropOp35
 70
     1
102
RTVSPost2010Prop36
280
     0
102
RTVSPost2010PropOp36
 70
     1
102
RTVSPost2010Prop37
 90
       50
102
RTVSPost2010PropOp37
 70
     1
102
RTVSPost2010Prop38
140
0.0
102
RTVSPost2010PropOp38
 70
     1
102
RTVSPost2010Prop39
140
1.0
102
RTVSPost2010PropOp39
 70
     1
102
RTVSPost2010Prop40
 90
        0
102
RTVSPost2010PropOp40
 70
     1
102
RTVSPost2010Prop41ColorIndex
 90
       18
102
RTVSPost2010Prop41ColorRGB
 90
        0
102
RTVSPost2010PropOp41
 70
     1
102
RTVSPost2010Prop42
 90
       50
102
RTVSPost2010PropOp42
 70
     1
102
RTVSPost2010Prop43
 90
        3
102
RTVSPost2010PropOp43
 70
     1
102
RTVSPost2010Prop44ColorIndex
 90
        5
102
RTVSPost2010Prop44ColorRGB
 90
      255
102
RTVSPost2010PropOp44
 70
     1
102
RTVSPost2010Prop45
280
     0
102
RTVSPost2010PropOp45
 70
     1
102
RTVSPost2010Prop46
 90
       50
102
RTVSPost2010PropOp46
 70
     1
102
RTVSPost2010Prop47
 90
       50
102
RTVSPost2010PropOp47
 70
     1
102
RTVSPost2010Prop48
 90
       50
102
RTVSPost2010PropOp48
 70
     1
102
RTVSPost2010Prop49
280
     0
102
RTVSPost2010PropOp49
 70
     1
102
RTVSPost2010Prop50
 90
       50
102
RTVSPost2010PropOp50
 70
     1
102
RTVSPost2010Prop51ColorIndex
 90
      256
102
RTVSPost2010Prop51ColorRGB
 90
-16777216
102
RTVSPost2010PropOp51
 70
     0
102
RTVSPost2010Prop52
140
1.0
102
RTVSPost2010PropOp52
 70
     0
102
RTVSPost2010Prop53
 90
        2
102
RTVSPost2010PropOp53
 70
     1
102
RTVSPost2010Prop54
  1
strokes_ogs.tif
102
RTVSPost2010PropOp54
 70
     1
102
RTVSPost2010Prop55
280
     0
102
RTVSPost2010PropOp55
 70
     1
102
RTVSPost2010Prop56
140
1.0
102
RTVSPost2010PropOp56
 70
     1
102
RTVSPost2010Prop57
140
1.0
102
RTVSPost2010PropOp57
 70
     1
102
RTVSPropertyOp0
 70
     1
102
RTVSPropertyOp1
 70
     1
102
RTVSPropertyOp2
 70
     1
102
RTVSPropertyOp3
 70
     1
102
RTVSPropertyOp4
 70
     1
102
RTVSPropertyOp5
 70
     1
102
RTVSPropertyOp6
 70
     1
102
RTVSPropertyOp7
 70
     1
102
RTVSPropertyOp8
 70
     1
102
RTVSPropertyOp9
 70
     1
102
RTVSPropertyOp10
 70
     1
102
RTVSPropertyOp11
 70
     1
102
RTVSPropertyOp12
 70
     1
102
RTVSPropertyOp13
 70
     1
102
RTVSPropertyOp14
 70
     1
102
RTVSPropertyOp15
 70
     1
102
RTVSPropertyOp16
 70
     1
102
RTVSPropertyOp17
 70
     1
102
RTVSPropertyOp18
 70
     1
102
RTVSPropertyOp19
 70
     1
102
RTVSPropertyOp20
 70
     1
102
RTVSPropertyOp21
 70
     1
102
RTVSPropertyOp22
 70
     1
102
RTVSPropertyOp23
 70
     1
102
RTVSPropertyOp24
 70
     1
102
RTVSPropertyOp25
 70
     1
102
RTVSPropertyOp26
 70
     1
102
RTVSPropertyOp27
 70
     1
102
RTVSPropertyOp28
 70
     1
102
RTVSPropertyOp29
 70
     1
102
RTVSPropertyOp30
 70
     1
102
RTVSPropertyOp31
 70
     1
102
RTVSPropertyOp32
 70
     1
102
RTVSPropertyOp33
 70
     1
102
RTVSPropertyOp34
 70
     1
102
RTVSPropertyOp35
 70
     1
102
RTVSPropertyOp36
 70
     1
102
RTVSPropertyOp37
 70
     1
102
RTVSPropertyOp38
 70
     1
102
RTVSPropertyOp39
 70
     1
102
RTVSPropertyOp40
 70
     1
102
RTVSPropertyOp41
 70
     1
102
RTVSPropertyOp42
 70
     1
102
RTVSPropertyOp43
 70
     1
102
RTVSPropertyOp44
 70
     1
102
RTVSPropertyOp45
 70
     1
102
RTVSPropertyOp46
 70
     1
102
RTVSPropertyOp47
 70
     1
102
RTVSPropertyOp48
 70
     1
102
RTVSPropertyOp49
 70
     1
102
RTVSPropertyOp50
 70
     1
102
RTVSPropertyOp51
 70
     0
102
RTVSPropertyOp52
 70
     0
102
RTVSPropertyOp53
 70
     1
102
RTVSPropertyOp54
 70
     1
102
RTVSPropertyOp55
 70
     1
102
RTVSPropertyOp56
 70
     1
102
RTVSPropertyOp57
 70
     1
102
RTVSPropertyOp58
 70
     1
102
RTVSPropertyOp59
 70
     1
102
RTVSPropertyOp60
 70
     1
102
RTVSPropertyOp61
 70
     1
102
RTVSPropertyOp62
 70
     1
  0
XRECORD
  5
A62C
102
{ACAD_REACTORS
330
A62B
102
}
330
A62B
100
AcDbXrecord
280
     1
102
RTVSPost2010Prop28
280
     0
102
RTVSPost2010PropOp28
 70
     1
102
RTVSPost2010Prop29
280
     1
102
RTVSPost2010PropOp29
 70
     1
102
RTVSPost2010Prop30
280
     1
102
RTVSPost2010PropOp30
 70
     1
102
RTVSPost2010Prop31
280
     0
102
RTVSPost2010PropOp31
 70
     1
102
RTVSPost2010Prop32
280
     0
102
RTVSPost2010PropOp32
 70
     1
102
RTVSPost2010Prop33
280
     0
102
RTVSPost2010PropOp33
 70
     1
102
RTVSPost2010Prop34
280
     0
102
RTVSPost2010PropOp34
 70
     1
102
RTVSPost2010Prop35
280
     0
102
RTVSPost2010PropOp35
 70
     1
102
RTVSPost2010Prop36
280
     0
102
RTVSPost2010PropOp36
 70
     1
102
RTVSPost2010Prop37
 90
       50
102
RTVSPost2010PropOp37
 70
     1
102
RTVSPost2010Prop38
140
0.0
102
RTVSPost2010PropOp38
 70
     1
102
RTVSPost2010Prop39
140
1.0
102
RTVSPost2010PropOp39
 70
     1
102
RTVSPost2010Prop40
 90
        0
102
RTVSPost2010PropOp40
 70
     1
102
RTVSPost2010Prop41ColorIndex
 90
       18
102
RTVSPost2010Prop41ColorRGB
 90
        0
102
RTVSPost2010PropOp41
 70
     1
102
RTVSPost2010Prop42
 90
       50
102
RTVSPost2010PropOp42
 70
     1
102
RTVSPost2010Prop43
 90
        3
102
RTVSPost2010PropOp43
 70
     1
102
RTVSPost2010Prop44ColorIndex
 90
        5
102
RTVSPost2010Prop44ColorRGB
 90
      255
102
RTVSPost2010PropOp44
 70
     1
102
RTVSPost2010Prop45
280
     0
102
RTVSPost2010PropOp45
 70
     1
102
RTVSPost2010Prop46
 90
       50
102
RTVSPost2010PropOp46
 70
     1
102
RTVSPost2010Prop47
 90
       50
102
RTVSPost2010PropOp47
 70
     1
102
RTVSPost2010Prop48
 90
       50
102
RTVSPost2010PropOp48
 70
     1
102
RTVSPost2010Prop49
280
     0
102
RTVSPost2010PropOp49
 70
     1
102
RTVSPost2010Prop50
 90
       50
102
RTVSPost2010PropOp50
 70
     1
102
RTVSPost2010Prop51ColorIndex
 90
      256
102
RTVSPost2010Prop51ColorRGB
 90
-16777216
102
RTVSPost2010PropOp51
 70
     0
102
RTVSPost2010Prop52
140
1.0
102
RTVSPost2010PropOp52
 70
     0
102
RTVSPost2010Prop53
 90
        2
102
RTVSPost2010PropOp53
 70
     1
102
RTVSPost2010Prop54
  1
strokes_ogs.tif
102
RTVSPost2010PropOp54
 70
     1
102
RTVSPost2010Prop55
280
     0
102
RTVSPost2010PropOp55
 70
     1
102
RTVSPost2010Prop56
140
1.0
102
RTVSPost2010PropOp56
 70
     1
102
RTVSPost2010Prop57
140
1.0
102
RTVSPost2010PropOp57
 70
     1
102
RTVSPropertyOp0
 70
     1
102
RTVSPropertyOp1
 70
     1
102
RTVSPropertyOp2
 70
     1
102
RTVSPropertyOp3
 70
     1
102
RTVSPropertyOp4
 70
     1
102
RTVSPropertyOp5
 70
     1
102
RTVSPropertyOp6
 70
     1
102
RTVSPropertyOp7
 70
     1
102
RTVSPropertyOp8
 70
     1
102
RTVSPropertyOp9
 70
     1
102
RTVSPropertyOp10
 70
     1
102
RTVSPropertyOp11
 70
     1
102
RTVSPropertyOp12
 70
     1
102
RTVSPropertyOp13
 70
     1
102
RTVSPropertyOp14
 70
     1
102
RTVSPropertyOp15
 70
     1
102
RTVSPropertyOp16
 70
     1
102
RTVSPropertyOp17
 70
     1
102
RTVSPropertyOp18
 70
     1
102
RTVSPropertyOp19
 70
     1
102
RTVSPropertyOp20
 70
     1
102
RTVSPropertyOp21
 70
     1
102
RTVSPropertyOp22
 70
     1
102
RTVSPropertyOp23
 70
     1
102
RTVSPropertyOp24
 70
     1
102
RTVSPropertyOp25
 70
     1
102
RTVSPropertyOp26
 70
     1
102
RTVSPropertyOp27
 70
     1
102
RTVSPropertyOp28
 70
     1
102
RTVSPropertyOp29
 70
     1
102
RTVSPropertyOp30
 70
     1
102
RTVSPropertyOp31
 70
     1
102
RTVSPropertyOp32
 70
     1
102
RTVSPropertyOp33
 70
     1
102
RTVSPropertyOp34
 70
     1
102
RTVSPropertyOp35
 70
     1
102
RTVSPropertyOp36
 70
     1
102
RTVSPropertyOp37
 70
     1
102
RTVSPropertyOp38
 70
     1
102
RTVSPropertyOp39
 70
     1
102
RTVSPropertyOp40
 70
     1
102
RTVSPropertyOp41
 70
     1
102
RTVSPropertyOp42
 70
     1
102
RTVSPropertyOp43
 70
     1
102
RTVSPropertyOp44
 70
     1
102
RTVSPropertyOp45
 70
     1
102
RTVSPropertyOp46
 70
     1
102
RTVSPropertyOp47
 70
     1
102
RTVSPropertyOp48
 70
     1
102
RTVSPropertyOp49
 70
     1
102
RTVSPropertyOp50
 70
     1
102
RTVSPropertyOp51
 70
     0
102
RTVSPropertyOp52
 70
     0
102
RTVSPropertyOp53
 70
     1
102
RTVSPropertyOp54
 70
     1
102
RTVSPropertyOp55
 70
     1
102
RTVSPropertyOp56
 70
     1
102
RTVSPropertyOp57
 70
     1
102
RTVSPropertyOp58
 70
     1
102
RTVSPropertyOp59
 70
     1
102
RTVSPropertyOp60
 70
     1
102
RTVSPropertyOp61
 70
     1
102
RTVSPropertyOp62
 70
     1
  0
XRECORD
  5
A62E
102
{ACAD_REACTORS
330
A62D
102
}
330
A62D
100
AcDbXrecord
280
     1
102
RTVSPost2010Prop28
280
     0
102
RTVSPost2010PropOp28
 70
     1
102
RTVSPost2010Prop29
280
     1
102
RTVSPost2010PropOp29
 70
     1
102
RTVSPost2010Prop30
280
     1
102
RTVSPost2010PropOp30
 70
     1
102
RTVSPost2010Prop31
280
     0
102
RTVSPost2010PropOp31
 70
     1
102
RTVSPost2010Prop32
280
     0
102
RTVSPost2010PropOp32
 70
     1
102
RTVSPost2010Prop33
280
     0
102
RTVSPost2010PropOp33
 70
     1
102
RTVSPost2010Prop34
280
     0
102
RTVSPost2010PropOp34
 70
     1
102
RTVSPost2010Prop35
280
     0
102
RTVSPost2010PropOp35
 70
     1
102
RTVSPost2010Prop36
280
     0
102
RTVSPost2010PropOp36
 70
     1
102
RTVSPost2010Prop37
 90
       50
102
RTVSPost2010PropOp37
 70
     1
102
RTVSPost2010Prop38
140
0.0
102
RTVSPost2010PropOp38
 70
     1
102
RTVSPost2010Prop39
140
1.0
102
RTVSPost2010PropOp39
 70
     1
102
RTVSPost2010Prop40
 90
        0
102
RTVSPost2010PropOp40
 70
     1
102
RTVSPost2010Prop41ColorIndex
 90
       18
102
RTVSPost2010Prop41ColorRGB
 90
        0
102
RTVSPost2010PropOp41
 70
     1
102
RTVSPost2010Prop42
 90
       50
102
RTVSPost2010PropOp42
 70
     1
102
RTVSPost2010Prop43
 90
        3
102
RTVSPost2010PropOp43
 70
     1
102
RTVSPost2010Prop44ColorIndex
 90
        5
102
RTVSPost2010Prop44ColorRGB
 90
      255
102
RTVSPost2010PropOp44
 70
     1
102
RTVSPost2010Prop45
280
     0
102
RTVSPost2010PropOp45
 70
     1
102
RTVSPost2010Prop46
 90
       50
102
RTVSPost2010PropOp46
 70
     1
102
RTVSPost2010Prop47
 90
       50
102
RTVSPost2010PropOp47
 70
     1
102
RTVSPost2010Prop48
 90
       50
102
RTVSPost2010PropOp48
 70
     1
102
RTVSPost2010Prop49
280
     0
102
RTVSPost2010PropOp49
 70
     1
102
RTVSPost2010Prop50
 90
       50
102
RTVSPost2010PropOp50
 70
     1
102
RTVSPost2010Prop51ColorIndex
 90
      256
102
RTVSPost2010Prop51ColorRGB
 90
-16777216
102
RTVSPost2010PropOp51
 70
     0
102
RTVSPost2010Prop52
140
1.0
102
RTVSPost2010PropOp52
 70
     0
102
RTVSPost2010Prop53
 90
        2
102
RTVSPost2010PropOp53
 70
     1
102
RTVSPost2010Prop54
  1
strokes_ogs.tif
102
RTVSPost2010PropOp54
 70
     1
102
RTVSPost2010Prop55
280
     0
102
RTVSPost2010PropOp55
 70
     1
102
RTVSPost2010Prop56
140
1.0
102
RTVSPost2010PropOp56
 70
     1
102
RTVSPost2010Prop57
140
1.0
102
RTVSPost2010PropOp57
 70
     1
102
RTVSPropertyOp0
 70
     1
102
RTVSPropertyOp1
 70
     1
102
RTVSPropertyOp2
 70
     1
102
RTVSPropertyOp3
 70
     1
102
RTVSPropertyOp4
 70
     1
102
RTVSPropertyOp5
 70
     1
102
RTVSPropertyOp6
 70
     1
102
RTVSPropertyOp7
 70
     1
102
RTVSPropertyOp8
 70
     1
102
RTVSPropertyOp9
 70
     1
102
RTVSPropertyOp10
 70
     1
102
RTVSPropertyOp11
 70
     1
102
RTVSPropertyOp12
 70
     1
102
RTVSPropertyOp13
 70
     1
102
RTVSPropertyOp14
 70
     1
102
RTVSPropertyOp15
 70
     1
102
RTVSPropertyOp16
 70
     1
102
RTVSPropertyOp17
 70
     1
102
RTVSPropertyOp18
 70
     1
102
RTVSPropertyOp19
 70
     1
102
RTVSPropertyOp20
 70
     1
102
RTVSPropertyOp21
 70
     1
102
RTVSPropertyOp22
 70
     1
102
RTVSPropertyOp23
 70
     1
102
RTVSPropertyOp24
 70
     1
102
RTVSPropertyOp25
 70
     1
102
RTVSPropertyOp26
 70
     1
102
RTVSPropertyOp27
 70
     1
102
RTVSPropertyOp28
 70
     1
102
RTVSPropertyOp29
 70
     1
102
RTVSPropertyOp30
 70
     1
102
RTVSPropertyOp31
 70
     1
102
RTVSPropertyOp32
 70
     1
102
RTVSPropertyOp33
 70
     1
102
RTVSPropertyOp34
 70
     1
102
RTVSPropertyOp35
 70
     1
102
RTVSPropertyOp36
 70
     1
102
RTVSPropertyOp37
 70
     1
102
RTVSPropertyOp38
 70
     1
102
RTVSPropertyOp39
 70
     1
102
RTVSPropertyOp40
 70
     1
102
RTVSPropertyOp41
 70
     1
102
RTVSPropertyOp42
 70
     1
102
RTVSPropertyOp43
 70
     1
102
RTVSPropertyOp44
 70
     1
102
RTVSPropertyOp45
 70
     1
102
RTVSPropertyOp46
 70
     1
102
RTVSPropertyOp47
 70
     1
102
RTVSPropertyOp48
 70
     1
102
RTVSPropertyOp49
 70
     1
102
RTVSPropertyOp50
 70
     1
102
RTVSPropertyOp51
 70
     0
102
RTVSPropertyOp52
 70
     0
102
RTVSPropertyOp53
 70
     1
102
RTVSPropertyOp54
 70
     1
102
RTVSPropertyOp55
 70
     1
102
RTVSPropertyOp56
 70
     1
102
RTVSPropertyOp57
 70
     1
102
RTVSPropertyOp58
 70
     1
102
RTVSPropertyOp59
 70
     1
102
RTVSPropertyOp60
 70
     1
102
RTVSPropertyOp61
 70
     1
102
RTVSPropertyOp62
 70
     1
  0
XRECORD
  5
A630
102
{ACAD_REACTORS
330
A62F
102
}
330
A62F
100
AcDbXrecord
280
     1
102
RTVSPost2010Prop28
280
     0
102
RTVSPost2010PropOp28
 70
     1
102
RTVSPost2010Prop29
280
     1
102
RTVSPost2010PropOp29
 70
     1
102
RTVSPost2010Prop30
280
     1
102
RTVSPost2010PropOp30
 70
     1
102
RTVSPost2010Prop31
280
     0
102
RTVSPost2010PropOp31
 70
     1
102
RTVSPost2010Prop32
280
     0
102
RTVSPost2010PropOp32
 70
     1
102
RTVSPost2010Prop33
280
     0
102
RTVSPost2010PropOp33
 70
     1
102
RTVSPost2010Prop34
280
     0
102
RTVSPost2010PropOp34
 70
     1
102
RTVSPost2010Prop35
280
     0
102
RTVSPost2010PropOp35
 70
     1
102
RTVSPost2010Prop36
280
     0
102
RTVSPost2010PropOp36
 70
     1
102
RTVSPost2010Prop37
 90
       50
102
RTVSPost2010PropOp37
 70
     1
102
RTVSPost2010Prop38
140
0.0
102
RTVSPost2010PropOp38
 70
     1
102
RTVSPost2010Prop39
140
1.0
102
RTVSPost2010PropOp39
 70
     1
102
RTVSPost2010Prop40
 90
        0
102
RTVSPost2010PropOp40
 70
     1
102
RTVSPost2010Prop41ColorIndex
 90
       18
102
RTVSPost2010Prop41ColorRGB
 90
        0
102
RTVSPost2010PropOp41
 70
     1
102
RTVSPost2010Prop42
 90
       50
102
RTVSPost2010PropOp42
 70
     1
102
RTVSPost2010Prop43
 90
        3
102
RTVSPost2010PropOp43
 70
     1
102
RTVSPost2010Prop44ColorIndex
 90
        5
102
RTVSPost2010Prop44ColorRGB
 90
      255
102
RTVSPost2010PropOp44
 70
     1
102
RTVSPost2010Prop45
280
     0
102
RTVSPost2010PropOp45
 70
     1
102
RTVSPost2010Prop46
 90
       50
102
RTVSPost2010PropOp46
 70
     1
102
RTVSPost2010Prop47
 90
       50
102
RTVSPost2010PropOp47
 70
     1
102
RTVSPost2010Prop48
 90
       50
102
RTVSPost2010PropOp48
 70
     1
102
RTVSPost2010Prop49
280
     0
102
RTVSPost2010PropOp49
 70
     1
102
RTVSPost2010Prop50
 90
       50
102
RTVSPost2010PropOp50
 70
     1
102
RTVSPost2010Prop51ColorIndex
 90
      256
102
RTVSPost2010Prop51ColorRGB
 90
-16777216
102
RTVSPost2010PropOp51
 70
     0
102
RTVSPost2010Prop52
140
1.0
102
RTVSPost2010PropOp52
 70
     0
102
RTVSPost2010Prop53
 90
        2
102
RTVSPost2010PropOp53
 70
     1
102
RTVSPost2010Prop54
  1
strokes_ogs.tif
102
RTVSPost2010PropOp54
 70
     1
102
RTVSPost2010Prop55
280
     0
102
RTVSPost2010PropOp55
 70
     1
102
RTVSPost2010Prop56
140
1.0
102
RTVSPost2010PropOp56
 70
     1
102
RTVSPost2010Prop57
140
1.0
102
RTVSPost2010PropOp57
 70
     1
102
RTVSPropertyOp0
 70
     1
102
RTVSPropertyOp1
 70
     1
102
RTVSPropertyOp2
 70
     1
102
RTVSPropertyOp3
 70
     1
102
RTVSPropertyOp4
 70
     1
102
RTVSPropertyOp5
 70
     1
102
RTVSPropertyOp6
 70
     1
102
RTVSPropertyOp7
 70
     1
102
RTVSPropertyOp8
 70
     1
102
RTVSPropertyOp9
 70
     1
102
RTVSPropertyOp10
 70
     1
102
RTVSPropertyOp11
 70
     1
102
RTVSPropertyOp12
 70
     1
102
RTVSPropertyOp13
 70
     1
102
RTVSPropertyOp14
 70
     1
102
RTVSPropertyOp15
 70
     1
102
RTVSPropertyOp16
 70
     1
102
RTVSPropertyOp17
 70
     1
102
RTVSPropertyOp18
 70
     1
102
RTVSPropertyOp19
 70
     1
102
RTVSPropertyOp20
 70
     1
102
RTVSPropertyOp21
 70
     1
102
RTVSPropertyOp22
 70
     1
102
RTVSPropertyOp23
 70
     1
102
RTVSPropertyOp24
 70
     1
102
RTVSPropertyOp25
 70
     1
102
RTVSPropertyOp26
 70
     1
102
RTVSPropertyOp27
 70
     1
102
RTVSPropertyOp28
 70
     1
102
RTVSPropertyOp29
 70
     1
102
RTVSPropertyOp30
 70
     1
102
RTVSPropertyOp31
 70
     1
102
RTVSPropertyOp32
 70
     1
102
RTVSPropertyOp33
 70
     1
102
RTVSPropertyOp34
 70
     1
102
RTVSPropertyOp35
 70
     1
102
RTVSPropertyOp36
 70
     1
102
RTVSPropertyOp37
 70
     1
102
RTVSPropertyOp38
 70
     1
102
RTVSPropertyOp39
 70
     1
102
RTVSPropertyOp40
 70
     1
102
RTVSPropertyOp41
 70
     1
102
RTVSPropertyOp42
 70
     1
102
RTVSPropertyOp43
 70
     1
102
RTVSPropertyOp44
 70
     1
102
RTVSPropertyOp45
 70
     1
102
RTVSPropertyOp46
 70
     1
102
RTVSPropertyOp47
 70
     1
102
RTVSPropertyOp48
 70
     1
102
RTVSPropertyOp49
 70
     1
102
RTVSPropertyOp50
 70
     1
102
RTVSPropertyOp51
 70
     0
102
RTVSPropertyOp52
 70
     0
102
RTVSPropertyOp53
 70
     1
102
RTVSPropertyOp54
 70
     1
102
RTVSPropertyOp55
 70
     1
102
RTVSPropertyOp56
 70
     1
102
RTVSPropertyOp57
 70
     1
102
RTVSPropertyOp58
 70
     1
102
RTVSPropertyOp59
 70
     1
102
RTVSPropertyOp60
 70
     1
102
RTVSPropertyOp61
 70
     1
102
RTVSPropertyOp62
 70
     1
  0
XRECORD
  5
A632
102
{ACAD_REACTORS
330
A631
102
}
330
A631
100
AcDbXrecord
280
     1
102
RTVSPost2010Prop28
280
     0
102
RTVSPost2010PropOp28
 70
     1
102
RTVSPost2010Prop29
280
     1
102
RTVSPost2010PropOp29
 70
     1
102
RTVSPost2010Prop30
280
     1
102
RTVSPost2010PropOp30
 70
     1
102
RTVSPost2010Prop31
280
     0
102
RTVSPost2010PropOp31
 70
     1
102
RTVSPost2010Prop32
280
     0
102
RTVSPost2010PropOp32
 70
     1
102
RTVSPost2010Prop33
280
     0
102
RTVSPost2010PropOp33
 70
     1
102
RTVSPost2010Prop34
280
     0
102
RTVSPost2010PropOp34
 70
     1
102
RTVSPost2010Prop35
280
     0
102
RTVSPost2010PropOp35
 70
     1
102
RTVSPost2010Prop36
280
     0
102
RTVSPost2010PropOp36
 70
     1
102
RTVSPost2010Prop37
 90
       50
102
RTVSPost2010PropOp37
 70
     1
102
RTVSPost2010Prop38
140
0.0
102
RTVSPost2010PropOp38
 70
     1
102
RTVSPost2010Prop39
140
1.0
102
RTVSPost2010PropOp39
 70
     1
102
RTVSPost2010Prop40
 90
        0
102
RTVSPost2010PropOp40
 70
     1
102
RTVSPost2010Prop41ColorIndex
 90
       18
102
RTVSPost2010Prop41ColorRGB
 90
        0
102
RTVSPost2010PropOp41
 70
     1
102
RTVSPost2010Prop42
 90
       50
102
RTVSPost2010PropOp42
 70
     1
102
RTVSPost2010Prop43
 90
        3
102
RTVSPost2010PropOp43
 70
     1
102
RTVSPost2010Prop44ColorIndex
 90
        5
102
RTVSPost2010Prop44ColorRGB
 90
      255
102
RTVSPost2010PropOp44
 70
     1
102
RTVSPost2010Prop45
280
     0
102
RTVSPost2010PropOp45
 70
     1
102
RTVSPost2010Prop46
 90
       50
102
RTVSPost2010PropOp46
 70
     1
102
RTVSPost2010Prop47
 90
       50
102
RTVSPost2010PropOp47
 70
     1
102
RTVSPost2010Prop48
 90
       50
102
RTVSPost2010PropOp48
 70
     1
102
RTVSPost2010Prop49
280
     0
102
RTVSPost2010PropOp49
 70
     1
102
RTVSPost2010Prop50
 90
       50
102
RTVSPost2010PropOp50
 70
     1
102
RTVSPost2010Prop51ColorIndex
 90
      256
102
RTVSPost2010Prop51ColorRGB
 90
-16777216
102
RTVSPost2010PropOp51
 70
     0
102
RTVSPost2010Prop52
140
1.0
102
RTVSPost2010PropOp52
 70
     0
102
RTVSPost2010Prop53
 90
        2
102
RTVSPost2010PropOp53
 70
     1
102
RTVSPost2010Prop54
  1
strokes_ogs.tif
102
RTVSPost2010PropOp54
 70
     1
102
RTVSPost2010Prop55
280
     0
102
RTVSPost2010PropOp55
 70
     1
102
RTVSPost2010Prop56
140
1.0
102
RTVSPost2010PropOp56
 70
     1
102
RTVSPost2010Prop57
140
1.0
102
RTVSPost2010PropOp57
 70
     1
102
RTVSPropertyOp0
 70
     1
102
RTVSPropertyOp1
 70
     1
102
RTVSPropertyOp2
 70
     1
102
RTVSPropertyOp3
 70
     1
102
RTVSPropertyOp4
 70
     1
102
RTVSPropertyOp5
 70
     1
102
RTVSPropertyOp6
 70
     1
102
RTVSPropertyOp7
 70
     1
102
RTVSPropertyOp8
 70
     1
102
RTVSPropertyOp9
 70
     1
102
RTVSPropertyOp10
 70
     1
102
RTVSPropertyOp11
 70
     1
102
RTVSPropertyOp12
 70
     1
102
RTVSPropertyOp13
 70
     1
102
RTVSPropertyOp14
 70
     1
102
RTVSPropertyOp15
 70
     1
102
RTVSPropertyOp16
 70
     1
102
RTVSPropertyOp17
 70
     1
102
RTVSPropertyOp18
 70
     1
102
RTVSPropertyOp19
 70
     1
102
RTVSPropertyOp20
 70
     1
102
RTVSPropertyOp21
 70
     1
102
RTVSPropertyOp22
 70
     1
102
RTVSPropertyOp23
 70
     1
102
RTVSPropertyOp24
 70
     1
102
RTVSPropertyOp25
 70
     1
102
RTVSPropertyOp26
 70
     1
102
RTVSPropertyOp27
 70
     1
102
RTVSPropertyOp28
 70
     1
102
RTVSPropertyOp29
 70
     1
102
RTVSPropertyOp30
 70
     1
102
RTVSPropertyOp31
 70
     1
102
RTVSPropertyOp32
 70
     1
102
RTVSPropertyOp33
 70
     1
102
RTVSPropertyOp34
 70
     1
102
RTVSPropertyOp35
 70
     1
102
RTVSPropertyOp36
 70
     1
102
RTVSPropertyOp37
 70
     1
102
RTVSPropertyOp38
 70
     1
102
RTVSPropertyOp39
 70
     1
102
RTVSPropertyOp40
 70
     1
102
RTVSPropertyOp41
 70
     1
102
RTVSPropertyOp42
 70
     1
102
RTVSPropertyOp43
 70
     1
102
RTVSPropertyOp44
 70
     1
102
RTVSPropertyOp45
 70
     1
102
RTVSPropertyOp46
 70
     1
102
RTVSPropertyOp47
 70
     1
102
RTVSPropertyOp48
 70
     1
102
RTVSPropertyOp49
 70
     1
102
RTVSPropertyOp50
 70
     1
102
RTVSPropertyOp51
 70
     0
102
RTVSPropertyOp52
 70
     0
102
RTVSPropertyOp53
 70
     1
102
RTVSPropertyOp54
 70
     1
102
RTVSPropertyOp55
 70
     1
102
RTVSPropertyOp56
 70
     1
102
RTVSPropertyOp57
 70
     1
102
RTVSPropertyOp58
 70
     1
102
RTVSPropertyOp59
 70
     1
102
RTVSPropertyOp60
 70
     1
102
RTVSPropertyOp61
 70
     1
102
RTVSPropertyOp62
 70
     1
  0
XRECORD
  5
A63A
102
{ACAD_REACTORS
330
A639
102
}
330
A639
100
AcDbXrecord
280
     1
102
RTVSPost2010Prop28
280
     0
102
RTVSPost2010PropOp28
 70
     1
102
RTVSPost2010Prop29
280
     1
102
RTVSPost2010PropOp29
 70
     1
102
RTVSPost2010Prop30
280
     1
102
RTVSPost2010PropOp30
 70
     1
102
RTVSPost2010Prop31
280
     0
102
RTVSPost2010PropOp31
 70
     1
102
RTVSPost2010Prop32
280
     0
102
RTVSPost2010PropOp32
 70
     1
102
RTVSPost2010Prop33
280
     0
102
RTVSPost2010PropOp33
 70
     1
102
RTVSPost2010Prop34
280
     0
102
RTVSPost2010PropOp34
 70
     1
102
RTVSPost2010Prop35
280
     0
102
RTVSPost2010PropOp35
 70
     1
102
RTVSPost2010Prop36
280
     0
102
RTVSPost2010PropOp36
 70
     1
102
RTVSPost2010Prop37
 90
       50
102
RTVSPost2010PropOp37
 70
     1
102
RTVSPost2010Prop38
140
0.0
102
RTVSPost2010PropOp38
 70
     1
102
RTVSPost2010Prop39
140
1.0
102
RTVSPost2010PropOp39
 70
     1
102
RTVSPost2010Prop40
 90
        0
102
RTVSPost2010PropOp40
 70
     1
102
RTVSPost2010Prop41ColorIndex
 90
       18
102
RTVSPost2010Prop41ColorRGB
 90
        0
102
RTVSPost2010PropOp41
 70
     1
102
RTVSPost2010Prop42
 90
       50
102
RTVSPost2010PropOp42
 70
     1
102
RTVSPost2010Prop43
 90
        3
102
RTVSPost2010PropOp43
 70
     1
102
RTVSPost2010Prop44ColorIndex
 90
        5
102
RTVSPost2010Prop44ColorRGB
 90
      255
102
RTVSPost2010PropOp44
 70
     1
102
RTVSPost2010Prop45
280
     0
102
RTVSPost2010PropOp45
 70
     1
102
RTVSPost2010Prop46
 90
       50
102
RTVSPost2010PropOp46
 70
     1
102
RTVSPost2010Prop47
 90
       50
102
RTVSPost2010PropOp47
 70
     1
102
RTVSPost2010Prop48
 90
       50
102
RTVSPost2010PropOp48
 70
     1
102
RTVSPost2010Prop49
280
     0
102
RTVSPost2010PropOp49
 70
     1
102
RTVSPost2010Prop50
 90
       50
102
RTVSPost2010PropOp50
 70
     1
102
RTVSPost2010Prop51ColorIndex
 90
      256
102
RTVSPost2010Prop51ColorRGB
 90
-16777216
102
RTVSPost2010PropOp51
 70
     0
102
RTVSPost2010Prop52
140
1.0
102
RTVSPost2010PropOp52
 70
     0
102
RTVSPost2010Prop53
 90
        2
102
RTVSPost2010PropOp53
 70
     1
102
RTVSPost2010Prop54
  1
strokes_ogs.tif
102
RTVSPost2010PropOp54
 70
     1
102
RTVSPost2010Prop55
280
     0
102
RTVSPost2010PropOp55
 70
     1
102
RTVSPost2010Prop56
140
1.0
102
RTVSPost2010PropOp56
 70
     1
102
RTVSPost2010Prop57
140
1.0
102
RTVSPost2010PropOp57
 70
     1
102
RTVSPropertyOp0
 70
     1
102
RTVSPropertyOp1
 70
     1
102
RTVSPropertyOp2
 70
     1
102
RTVSPropertyOp3
 70
     1
102
RTVSPropertyOp4
 70
     1
102
RTVSPropertyOp5
 70
     1
102
RTVSPropertyOp6
 70
     1
102
RTVSPropertyOp7
 70
     1
102
RTVSPropertyOp8
 70
     1
102
RTVSPropertyOp9
 70
     1
102
RTVSPropertyOp10
 70
     1
102
RTVSPropertyOp11
 70
     1
102
RTVSPropertyOp12
 70
     1
102
RTVSPropertyOp13
 70
     1
102
RTVSPropertyOp14
 70
     1
102
RTVSPropertyOp15
 70
     1
102
RTVSPropertyOp16
 70
     1
102
RTVSPropertyOp17
 70
     1
102
RTVSPropertyOp18
 70
     1
102
RTVSPropertyOp19
 70
     1
102
RTVSPropertyOp20
 70
     1
102
RTVSPropertyOp21
 70
     1
102
RTVSPropertyOp22
 70
     1
102
RTVSPropertyOp23
 70
     1
102
RTVSPropertyOp24
 70
     1
102
RTVSPropertyOp25
 70
     1
102
RTVSPropertyOp26
 70
     1
102
RTVSPropertyOp27
 70
     1
102
RTVSPropertyOp28
 70
     1
102
RTVSPropertyOp29
 70
     1
102
RTVSPropertyOp30
 70
     1
102
RTVSPropertyOp31
 70
     1
102
RTVSPropertyOp32
 70
     1
102
RTVSPropertyOp33
 70
     1
102
RTVSPropertyOp34
 70
     1
102
RTVSPropertyOp35
 70
     1
102
RTVSPropertyOp36
 70
     1
102
RTVSPropertyOp37
 70
     1
102
RTVSPropertyOp38
 70
     1
102
RTVSPropertyOp39
 70
     1
102
RTVSPropertyOp40
 70
     1
102
RTVSPropertyOp41
 70
     1
102
RTVSPropertyOp42
 70
     1
102
RTVSPropertyOp43
 70
     1
102
RTVSPropertyOp44
 70
     1
102
RTVSPropertyOp45
 70
     1
102
RTVSPropertyOp46
 70
     1
102
RTVSPropertyOp47
 70
     1
102
RTVSPropertyOp48
 70
     1
102
RTVSPropertyOp49
 70
     1
102
RTVSPropertyOp50
 70
     1
102
RTVSPropertyOp51
 70
     0
102
RTVSPropertyOp52
 70
     0
102
RTVSPropertyOp53
 70
     1
102
RTVSPropertyOp54
 70
     1
102
RTVSPropertyOp55
 70
     1
102
RTVSPropertyOp56
 70
     1
102
RTVSPropertyOp57
 70
     1
102
RTVSPropertyOp58
 70
     1
102
RTVSPropertyOp59
 70
     1
102
RTVSPropertyOp60
 70
     1
102
RTVSPropertyOp61
 70
     1
102
RTVSPropertyOp62
 70
     1
  0
XRECORD
  5
A656
102
{ACAD_REACTORS
330
A655
102
}
330
A655
100
AcDbXrecord
280
     1
102
RTVSPost2010Prop28
280
     0
102
RTVSPost2010PropOp28
 70
     1
102
RTVSPost2010Prop29
280
     1
102
RTVSPost2010PropOp29
 70
     1
102
RTVSPost2010Prop30
280
     1
102
RTVSPost2010PropOp30
 70
     1
102
RTVSPost2010Prop31
280
     0
102
RTVSPost2010PropOp31
 70
     1
102
RTVSPost2010Prop32
280
     0
102
RTVSPost2010PropOp32
 70
     1
102
RTVSPost2010Prop33
280
     0
102
RTVSPost2010PropOp33
 70
     1
102
RTVSPost2010Prop34
280
     0
102
RTVSPost2010PropOp34
 70
     1
102
RTVSPost2010Prop35
280
     0
102
RTVSPost2010PropOp35
 70
     1
102
RTVSPost2010Prop36
280
     0
102
RTVSPost2010PropOp36
 70
     1
102
RTVSPost2010Prop37
 90
       50
102
RTVSPost2010PropOp37
 70
     0
102
RTVSPost2010Prop38
140
0.0
102
RTVSPost2010PropOp38
 70
     0
102
RTVSPost2010Prop39
140
1.0
102
RTVSPost2010PropOp39
 70
     0
102
RTVSPost2010Prop40
 90
        0
102
RTVSPost2010PropOp40
 70
     0
102
RTVSPost2010Prop41ColorIndex
 90
       18
102
RTVSPost2010Prop41ColorRGB
 90
        0
102
RTVSPost2010PropOp41
 70
     0
102
RTVSPost2010Prop42
 90
       50
102
RTVSPost2010PropOp42
 70
     0
102
RTVSPost2010Prop43
 90
        3
102
RTVSPost2010PropOp43
 70
     0
102
RTVSPost2010Prop44ColorIndex
 90
        5
102
RTVSPost2010Prop44ColorRGB
 90
      255
102
RTVSPost2010PropOp44
 70
     0
102
RTVSPost2010Prop45
280
     0
102
RTVSPost2010PropOp45
 70
     1
102
RTVSPost2010Prop46
 90
       50
102
RTVSPost2010PropOp46
 70
     0
102
RTVSPost2010Prop47
 90
       50
102
RTVSPost2010PropOp47
 70
     0
102
RTVSPost2010Prop48
 90
       50
102
RTVSPost2010PropOp48
 70
     0
102
RTVSPost2010Prop49
280
     0
102
RTVSPost2010PropOp49
 70
     1
102
RTVSPost2010Prop50
 90
       50
102
RTVSPost2010PropOp50
 70
     0
102
RTVSPost2010Prop51ColorIndex
 90
      256
102
RTVSPost2010Prop51ColorRGB
 90
-16777216
102
RTVSPost2010PropOp51
 70
     0
102
RTVSPost2010Prop52
140
1.0
102
RTVSPost2010PropOp52
 70
     0
102
RTVSPost2010Prop53
 90
        2
102
RTVSPost2010PropOp53
 70
     0
102
RTVSPost2010Prop54
  1
strokes_ogs.tif
102
RTVSPost2010PropOp54
 70
     0
102
RTVSPost2010Prop55
280
     0
102
RTVSPost2010PropOp55
 70
     1
102
RTVSPost2010Prop56
140
1.0
102
RTVSPost2010PropOp56
 70
     0
102
RTVSPost2010Prop57
140
1.0
102
RTVSPost2010PropOp57
 70
     0
102
RTVSPropertyOp0
 70
     0
102
RTVSPropertyOp1
 70
     0
102
RTVSPropertyOp2
 70
     0
102
RTVSPropertyOp3
 70
     0
102
RTVSPropertyOp4
 70
     0
102
RTVSPropertyOp5
 70
     0
102
RTVSPropertyOp6
 70
     0
102
RTVSPropertyOp7
 70
     0
102
RTVSPropertyOp8
 70
     0
102
RTVSPropertyOp9
 70
     0
102
RTVSPropertyOp10
 70
     0
102
RTVSPropertyOp11
 70
     0
102
RTVSPropertyOp12
 70
     0
102
RTVSPropertyOp13
 70
     0
102
RTVSPropertyOp14
 70
     2
102
RTVSPropertyOp15
 70
     0
102
RTVSPropertyOp16
 70
     0
102
RTVSPropertyOp17
 70
     0
102
RTVSPropertyOp18
 70
     0
102
RTVSPropertyOp19
 70
     0
102
RTVSPropertyOp20
 70
     0
102
RTVSPropertyOp21
 70
     0
102
RTVSPropertyOp22
 70
     0
102
RTVSPropertyOp23
 70
     0
102
RTVSPropertyOp24
 70
     0
102
RTVSPropertyOp25
 70
     0
102
RTVSPropertyOp26
 70
     0
102
RTVSPropertyOp27
 70
     0
102
RTVSPropertyOp28
 70
     1
102
RTVSPropertyOp29
 70
     1
102
RTVSPropertyOp30
 70
     1
102
RTVSPropertyOp31
 70
     1
102
RTVSPropertyOp32
 70
     1
102
RTVSPropertyOp33
 70
     1
102
RTVSPropertyOp34
 70
     1
102
RTVSPropertyOp35
 70
     1
102
RTVSPropertyOp36
 70
     1
102
RTVSPropertyOp37
 70
     0
102
RTVSPropertyOp38
 70
     0
102
RTVSPropertyOp39
 70
     0
102
RTVSPropertyOp40
 70
     0
102
RTVSPropertyOp41
 70
     0
102
RTVSPropertyOp42
 70
     0
102
RTVSPropertyOp43
 70
     0
102
RTVSPropertyOp44
 70
     0
102
RTVSPropertyOp45
 70
     1
102
RTVSPropertyOp46
 70
     0
102
RTVSPropertyOp47
 70
     0
102
RTVSPropertyOp48
 70
     0
102
RTVSPropertyOp49
 70
     1
102
RTVSPropertyOp50
 70
     0
102
RTVSPropertyOp51
 70
     0
102
RTVSPropertyOp52
 70
     0
102
RTVSPropertyOp53
 70
     0
102
RTVSPropertyOp54
 70
     0
102
RTVSPropertyOp55
 70
     1
102
RTVSPropertyOp56
 70
     0
102
RTVSPropertyOp57
 70
     0
102
RTVSPropertyOp58
 70
     0
102
RTVSPropertyOp59
 70
     0
102
RTVSPropertyOp60
 70
     0
102
RTVSPropertyOp61
 70
     0
102
RTVSPropertyOp62
 70
     0
  0
XRECORD
  5
A646
102
{ACAD_REACTORS
330
A645
102
}
330
A645
100
AcDbXrecord
280
     1
102
RTVSPost2010Prop28
280
     0
102
RTVSPost2010PropOp28
 70
     1
102
RTVSPost2010Prop29
280
     1
102
RTVSPost2010PropOp29
 70
     1
102
RTVSPost2010Prop30
280
     1
102
RTVSPost2010PropOp30
 70
     1
102
RTVSPost2010Prop31
280
     0
102
RTVSPost2010PropOp31
 70
     1
102
RTVSPost2010Prop32
280
     0
102
RTVSPost2010PropOp32
 70
     1
102
RTVSPost2010Prop33
280
     0
102
RTVSPost2010PropOp33
 70
     1
102
RTVSPost2010Prop34
280
     0
102
RTVSPost2010PropOp34
 70
     1
102
RTVSPost2010Prop35
280
     0
102
RTVSPost2010PropOp35
 70
     1
102
RTVSPost2010Prop36
280
     0
102
RTVSPost2010PropOp36
 70
     1
102
RTVSPost2010Prop37
 90
       50
102
RTVSPost2010PropOp37
 70
     1
102
RTVSPost2010Prop38
140
0.0
102
RTVSPost2010PropOp38
 70
     1
102
RTVSPost2010Prop39
140
1.0
102
RTVSPost2010PropOp39
 70
     1
102
RTVSPost2010Prop40
 90
        0
102
RTVSPost2010PropOp40
 70
     1
102
RTVSPost2010Prop41ColorIndex
 90
       18
102
RTVSPost2010Prop41ColorRGB
 90
        0
102
RTVSPost2010PropOp41
 70
     1
102
RTVSPost2010Prop42
 90
       50
102
RTVSPost2010PropOp42
 70
     1
102
RTVSPost2010Prop43
 90
        3
102
RTVSPost2010PropOp43
 70
     1
102
RTVSPost2010Prop44ColorIndex
 90
        5
102
RTVSPost2010Prop44ColorRGB
 90
      255
102
RTVSPost2010PropOp44
 70
     1
102
RTVSPost2010Prop45
280
     0
102
RTVSPost2010PropOp45
 70
     1
102
RTVSPost2010Prop46
 90
       50
102
RTVSPost2010PropOp46
 70
     1
102
RTVSPost2010Prop47
 90
       50
102
RTVSPost2010PropOp47
 70
     1
102
RTVSPost2010Prop48
 90
       50
102
RTVSPost2010PropOp48
 70
     1
102
RTVSPost2010Prop49
280
     0
102
RTVSPost2010PropOp49
 70
     1
102
RTVSPost2010Prop50
 90
       50
102
RTVSPost2010PropOp50
 70
     1
102
RTVSPost2010Prop51ColorIndex
 90
      256
102
RTVSPost2010Prop51ColorRGB
 90
-16777216
102
RTVSPost2010PropOp51
 70
     0
102
RTVSPost2010Prop52
140
1.0
102
RTVSPost2010PropOp52
 70
     0
102
RTVSPost2010Prop53
 90
        2
102
RTVSPost2010PropOp53
 70
     1
102
RTVSPost2010Prop54
  1
strokes_ogs.tif
102
RTVSPost2010PropOp54
 70
     1
102
RTVSPost2010Prop55
280
     0
102
RTVSPost2010PropOp55
 70
     1
102
RTVSPost2010Prop56
140
1.0
102
RTVSPost2010PropOp56
 70
     1
102
RTVSPost2010Prop57
140
1.0
102
RTVSPost2010PropOp57
 70
     1
102
RTVSPropertyOp0
 70
     1
102
RTVSPropertyOp1
 70
     1
102
RTVSPropertyOp2
 70
     1
102
RTVSPropertyOp3
 70
     1
102
RTVSPropertyOp4
 70
     1
102
RTVSPropertyOp5
 70
     1
102
RTVSPropertyOp6
 70
     1
102
RTVSPropertyOp7
 70
     1
102
RTVSPropertyOp8
 70
     1
102
RTVSPropertyOp9
 70
     1
102
RTVSPropertyOp10
 70
     1
102
RTVSPropertyOp11
 70
     1
102
RTVSPropertyOp12
 70
     1
102
RTVSPropertyOp13
 70
     1
102
RTVSPropertyOp14
 70
     1
102
RTVSPropertyOp15
 70
     1
102
RTVSPropertyOp16
 70
     1
102
RTVSPropertyOp17
 70
     1
102
RTVSPropertyOp18
 70
     1
102
RTVSPropertyOp19
 70
     1
102
RTVSPropertyOp20
 70
     1
102
RTVSPropertyOp21
 70
     1
102
RTVSPropertyOp22
 70
     1
102
RTVSPropertyOp23
 70
     1
102
RTVSPropertyOp24
 70
     1
102
RTVSPropertyOp25
 70
     1
102
RTVSPropertyOp26
 70
     1
102
RTVSPropertyOp27
 70
     1
102
RTVSPropertyOp28
 70
     1
102
RTVSPropertyOp29
 70
     1
102
RTVSPropertyOp30
 70
     1
102
RTVSPropertyOp31
 70
     1
102
RTVSPropertyOp32
 70
     1
102
RTVSPropertyOp33
 70
     1
102
RTVSPropertyOp34
 70
     1
102
RTVSPropertyOp35
 70
     1
102
RTVSPropertyOp36
 70
     1
102
RTVSPropertyOp37
 70
     1
102
RTVSPropertyOp38
 70
     1
102
RTVSPropertyOp39
 70
     1
102
RTVSPropertyOp40
 70
     1
102
RTVSPropertyOp41
 70
     1
102
RTVSPropertyOp42
 70
     1
102
RTVSPropertyOp43
 70
     1
102
RTVSPropertyOp44
 70
     1
102
RTVSPropertyOp45
 70
     1
102
RTVSPropertyOp46
 70
     1
102
RTVSPropertyOp47
 70
     1
102
RTVSPropertyOp48
 70
     1
102
RTVSPropertyOp49
 70
     1
102
RTVSPropertyOp50
 70
     1
102
RTVSPropertyOp51
 70
     0
102
RTVSPropertyOp52
 70
     0
102
RTVSPropertyOp53
 70
     1
102
RTVSPropertyOp54
 70
     1
102
RTVSPropertyOp55
 70
     1
102
RTVSPropertyOp56
 70
     1
102
RTVSPropertyOp57
 70
     1
102
RTVSPropertyOp58
 70
     1
102
RTVSPropertyOp59
 70
     1
102
RTVSPropertyOp60
 70
     1
102
RTVSPropertyOp61
 70
     1
102
RTVSPropertyOp62
 70
     1
  0
XRECORD
  5
A658
102
{ACAD_REACTORS
330
A657
102
}
330
A657
100
AcDbXrecord
280
     1
102
RTVSPost2010Prop28
280
     0
102
RTVSPost2010PropOp28
 70
     1
102
RTVSPost2010Prop29
280
     1
102
RTVSPost2010PropOp29
 70
     1
102
RTVSPost2010Prop30
280
     1
102
RTVSPost2010PropOp30
 70
     1
102
RTVSPost2010Prop31
280
     0
102
RTVSPost2010PropOp31
 70
     1
102
RTVSPost2010Prop32
280
     0
102
RTVSPost2010PropOp32
 70
     1
102
RTVSPost2010Prop33
280
     0
102
RTVSPost2010PropOp33
 70
     1
102
RTVSPost2010Prop34
280
     0
102
RTVSPost2010PropOp34
 70
     1
102
RTVSPost2010Prop35
280
     0
102
RTVSPost2010PropOp35
 70
     1
102
RTVSPost2010Prop36
280
     0
102
RTVSPost2010PropOp36
 70
     1
102
RTVSPost2010Prop37
 90
       50
102
RTVSPost2010PropOp37
 70
     0
102
RTVSPost2010Prop38
140
0.0
102
RTVSPost2010PropOp38
 70
     0
102
RTVSPost2010Prop39
140
1.0
102
RTVSPost2010PropOp39
 70
     0
102
RTVSPost2010Prop40
 90
        0
102
RTVSPost2010PropOp40
 70
     0
102
RTVSPost2010Prop41ColorIndex
 90
       18
102
RTVSPost2010Prop41ColorRGB
 90
        0
102
RTVSPost2010PropOp41
 70
     0
102
RTVSPost2010Prop42
 90
       50
102
RTVSPost2010PropOp42
 70
     0
102
RTVSPost2010Prop43
 90
        3
102
RTVSPost2010PropOp43
 70
     0
102
RTVSPost2010Prop44ColorIndex
 90
        5
102
RTVSPost2010Prop44ColorRGB
 90
      255
102
RTVSPost2010PropOp44
 70
     0
102
RTVSPost2010Prop45
280
     0
102
RTVSPost2010PropOp45
 70
     1
102
RTVSPost2010Prop46
 90
       50
102
RTVSPost2010PropOp46
 70
     0
102
RTVSPost2010Prop47
 90
       50
102
RTVSPost2010PropOp47
 70
     0
102
RTVSPost2010Prop48
 90
       50
102
RTVSPost2010PropOp48
 70
     0
102
RTVSPost2010Prop49
280
     0
102
RTVSPost2010PropOp49
 70
     1
102
RTVSPost2010Prop50
 90
       50
102
RTVSPost2010PropOp50
 70
     0
102
RTVSPost2010Prop51ColorIndex
 90
      256
102
RTVSPost2010Prop51ColorRGB
 90
-16777216
102
RTVSPost2010PropOp51
 70
     0
102
RTVSPost2010Prop52
140
1.0
102
RTVSPost2010PropOp52
 70
     0
102
RTVSPost2010Prop53
 90
        2
102
RTVSPost2010PropOp53
 70
     0
102
RTVSPost2010Prop54
  1
strokes_ogs.tif
102
RTVSPost2010PropOp54
 70
     0
102
RTVSPost2010Prop55
280
     0
102
RTVSPost2010PropOp55
 70
     1
102
RTVSPost2010Prop56
140
1.0
102
RTVSPost2010PropOp56
 70
     0
102
RTVSPost2010Prop57
140
1.0
102
RTVSPost2010PropOp57
 70
     0
102
RTVSPropertyOp0
 70
     0
102
RTVSPropertyOp1
 70
     0
102
RTVSPropertyOp2
 70
     0
102
RTVSPropertyOp3
 70
     0
102
RTVSPropertyOp4
 70
     0
102
RTVSPropertyOp5
 70
     0
102
RTVSPropertyOp6
 70
     0
102
RTVSPropertyOp7
 70
     0
102
RTVSPropertyOp8
 70
     0
102
RTVSPropertyOp9
 70
     0
102
RTVSPropertyOp10
 70
     0
102
RTVSPropertyOp11
 70
     0
102
RTVSPropertyOp12
 70
     0
102
RTVSPropertyOp13
 70
     0
102
RTVSPropertyOp14
 70
     2
102
RTVSPropertyOp15
 70
     0
102
RTVSPropertyOp16
 70
     0
102
RTVSPropertyOp17
 70
     0
102
RTVSPropertyOp18
 70
     0
102
RTVSPropertyOp19
 70
     0
102
RTVSPropertyOp20
 70
     0
102
RTVSPropertyOp21
 70
     0
102
RTVSPropertyOp22
 70
     0
102
RTVSPropertyOp23
 70
     0
102
RTVSPropertyOp24
 70
     0
102
RTVSPropertyOp25
 70
     0
102
RTVSPropertyOp26
 70
     0
102
RTVSPropertyOp27
 70
     0
102
RTVSPropertyOp28
 70
     1
102
RTVSPropertyOp29
 70
     1
102
RTVSPropertyOp30
 70
     1
102
RTVSPropertyOp31
 70
     1
102
RTVSPropertyOp32
 70
     1
102
RTVSPropertyOp33
 70
     1
102
RTVSPropertyOp34
 70
     1
102
RTVSPropertyOp35
 70
     1
102
RTVSPropertyOp36
 70
     1
102
RTVSPropertyOp37
 70
     0
102
RTVSPropertyOp38
 70
     0
102
RTVSPropertyOp39
 70
     0
102
RTVSPropertyOp40
 70
     0
102
RTVSPropertyOp41
 70
     0
102
RTVSPropertyOp42
 70
     0
102
RTVSPropertyOp43
 70
     0
102
RTVSPropertyOp44
 70
     0
102
RTVSPropertyOp45
 70
     1
102
RTVSPropertyOp46
 70
     0
102
RTVSPropertyOp47
 70
     0
102
RTVSPropertyOp48
 70
     0
102
RTVSPropertyOp49
 70
     1
102
RTVSPropertyOp50
 70
     0
102
RTVSPropertyOp51
 70
     0
102
RTVSPropertyOp52
 70
     0
102
RTVSPropertyOp53
 70
     0
102
RTVSPropertyOp54
 70
     0
102
RTVSPropertyOp55
 70
     1
102
RTVSPropertyOp56
 70
     0
102
RTVSPropertyOp57
 70
     0
102
RTVSPropertyOp58
 70
     0
102
RTVSPropertyOp59
 70
     0
102
RTVSPropertyOp60
 70
     0
102
RTVSPropertyOp61
 70
     0
102
RTVSPropertyOp62
 70
     0
  0
XRECORD
  5
A63E
102
{ACAD_REACTORS
330
A63D
102
}
330
A63D
100
AcDbXrecord
280
     1
102
RTVSPost2010Prop28
280
     0
102
RTVSPost2010PropOp28
 70
     1
102
RTVSPost2010Prop29
280
     1
102
RTVSPost2010PropOp29
 70
     1
102
RTVSPost2010Prop30
280
     1
102
RTVSPost2010PropOp30
 70
     1
102
RTVSPost2010Prop31
280
     0
102
RTVSPost2010PropOp31
 70
     1
102
RTVSPost2010Prop32
280
     0
102
RTVSPost2010PropOp32
 70
     1
102
RTVSPost2010Prop33
280
     0
102
RTVSPost2010PropOp33
 70
     1
102
RTVSPost2010Prop34
280
     0
102
RTVSPost2010PropOp34
 70
     1
102
RTVSPost2010Prop35
280
     0
102
RTVSPost2010PropOp35
 70
     1
102
RTVSPost2010Prop36
280
     0
102
RTVSPost2010PropOp36
 70
     1
102
RTVSPost2010Prop37
 90
       50
102
RTVSPost2010PropOp37
 70
     1
102
RTVSPost2010Prop38
140
0.0
102
RTVSPost2010PropOp38
 70
     1
102
RTVSPost2010Prop39
140
1.0
102
RTVSPost2010PropOp39
 70
     1
102
RTVSPost2010Prop40
 90
        0
102
RTVSPost2010PropOp40
 70
     1
102
RTVSPost2010Prop41ColorIndex
 90
       18
102
RTVSPost2010Prop41ColorRGB
 90
        0
102
RTVSPost2010PropOp41
 70
     1
102
RTVSPost2010Prop42
 90
       50
102
RTVSPost2010PropOp42
 70
     1
102
RTVSPost2010Prop43
 90
        3
102
RTVSPost2010PropOp43
 70
     1
102
RTVSPost2010Prop44ColorIndex
 90
        5
102
RTVSPost2010Prop44ColorRGB
 90
      255
102
RTVSPost2010PropOp44
 70
     1
102
RTVSPost2010Prop45
280
     0
102
RTVSPost2010PropOp45
 70
     1
102
RTVSPost2010Prop46
 90
       50
102
RTVSPost2010PropOp46
 70
     1
102
RTVSPost2010Prop47
 90
       50
102
RTVSPost2010PropOp47
 70
     1
102
RTVSPost2010Prop48
 90
       50
102
RTVSPost2010PropOp48
 70
     1
102
RTVSPost2010Prop49
280
     0
102
RTVSPost2010PropOp49
 70
     1
102
RTVSPost2010Prop50
 90
       50
102
RTVSPost2010PropOp50
 70
     1
102
RTVSPost2010Prop51ColorIndex
 90
      256
102
RTVSPost2010Prop51ColorRGB
 90
-16777216
102
RTVSPost2010PropOp51
 70
     0
102
RTVSPost2010Prop52
140
1.0
102
RTVSPost2010PropOp52
 70
     0
102
RTVSPost2010Prop53
 90
        2
102
RTVSPost2010PropOp53
 70
     1
102
RTVSPost2010Prop54
  1
strokes_ogs.tif
102
RTVSPost2010PropOp54
 70
     1
102
RTVSPost2010Prop55
280
     0
102
RTVSPost2010PropOp55
 70
     1
102
RTVSPost2010Prop56
140
1.0
102
RTVSPost2010PropOp56
 70
     1
102
RTVSPost2010Prop57
140
1.0
102
RTVSPost2010PropOp57
 70
     1
102
RTVSPropertyOp0
 70
     1
102
RTVSPropertyOp1
 70
     1
102
RTVSPropertyOp2
 70
     1
102
RTVSPropertyOp3
 70
     1
102
RTVSPropertyOp4
 70
     1
102
RTVSPropertyOp5
 70
     1
102
RTVSPropertyOp6
 70
     1
102
RTVSPropertyOp7
 70
     1
102
RTVSPropertyOp8
 70
     1
102
RTVSPropertyOp9
 70
     1
102
RTVSPropertyOp10
 70
     1
102
RTVSPropertyOp11
 70
     1
102
RTVSPropertyOp12
 70
     1
102
RTVSPropertyOp13
 70
     1
102
RTVSPropertyOp14
 70
     1
102
RTVSPropertyOp15
 70
     1
102
RTVSPropertyOp16
 70
     1
102
RTVSPropertyOp17
 70
     1
102
RTVSPropertyOp18
 70
     1
102
RTVSPropertyOp19
 70
     1
102
RTVSPropertyOp20
 70
     1
102
RTVSPropertyOp21
 70
     1
102
RTVSPropertyOp22
 70
     1
102
RTVSPropertyOp23
 70
     1
102
RTVSPropertyOp24
 70
     1
102
RTVSPropertyOp25
 70
     1
102
RTVSPropertyOp26
 70
     1
102
RTVSPropertyOp27
 70
     1
102
RTVSPropertyOp28
 70
     1
102
RTVSPropertyOp29
 70
     1
102
RTVSPropertyOp30
 70
     1
102
RTVSPropertyOp31
 70
     1
102
RTVSPropertyOp32
 70
     1
102
RTVSPropertyOp33
 70
     1
102
RTVSPropertyOp34
 70
     1
102
RTVSPropertyOp35
 70
     1
102
RTVSPropertyOp36
 70
     1
102
RTVSPropertyOp37
 70
     1
102
RTVSPropertyOp38
 70
     1
102
RTVSPropertyOp39
 70
     1
102
RTVSPropertyOp40
 70
     1
102
RTVSPropertyOp41
 70
     1
102
RTVSPropertyOp42
 70
     1
102
RTVSPropertyOp43
 70
     1
102
RTVSPropertyOp44
 70
     1
102
RTVSPropertyOp45
 70
     1
102
RTVSPropertyOp46
 70
     1
102
RTVSPropertyOp47
 70
     1
102
RTVSPropertyOp48
 70
     1
102
RTVSPropertyOp49
 70
     1
102
RTVSPropertyOp50
 70
     1
102
RTVSPropertyOp51
 70
     0
102
RTVSPropertyOp52
 70
     0
102
RTVSPropertyOp53
 70
     1
102
RTVSPropertyOp54
 70
     1
102
RTVSPropertyOp55
 70
     1
102
RTVSPropertyOp56
 70
     1
102
RTVSPropertyOp57
 70
     1
102
RTVSPropertyOp58
 70
     1
102
RTVSPropertyOp59
 70
     1
102
RTVSPropertyOp60
 70
     1
102
RTVSPropertyOp61
 70
     1
102
RTVSPropertyOp62
 70
     1
  0
XRECORD
  5
A654
102
{ACAD_REACTORS
330
A653
102
}
330
A653
100
AcDbXrecord
280
     1
102
RTVSPost2010Prop28
280
     0
102
RTVSPost2010PropOp28
 70
     1
102
RTVSPost2010Prop29
280
     1
102
RTVSPost2010PropOp29
 70
     1
102
RTVSPost2010Prop30
280
     1
102
RTVSPost2010PropOp30
 70
     1
102
RTVSPost2010Prop31
280
     0
102
RTVSPost2010PropOp31
 70
     1
102
RTVSPost2010Prop32
280
     0
102
RTVSPost2010PropOp32
 70
     1
102
RTVSPost2010Prop33
280
     0
102
RTVSPost2010PropOp33
 70
     1
102
RTVSPost2010Prop34
280
     0
102
RTVSPost2010PropOp34
 70
     1
102
RTVSPost2010Prop35
280
     0
102
RTVSPost2010PropOp35
 70
     1
102
RTVSPost2010Prop36
280
     0
102
RTVSPost2010PropOp36
 70
     1
102
RTVSPost2010Prop37
 90
       50
102
RTVSPost2010PropOp37
 70
     1
102
RTVSPost2010Prop38
140
0.0
102
RTVSPost2010PropOp38
 70
     1
102
RTVSPost2010Prop39
140
1.0
102
RTVSPost2010PropOp39
 70
     1
102
RTVSPost2010Prop40
 90
        0
102
RTVSPost2010PropOp40
 70
     1
102
RTVSPost2010Prop41ColorIndex
 90
       18
102
RTVSPost2010Prop41ColorRGB
 90
        0
102
RTVSPost2010PropOp41
 70
     1
102
RTVSPost2010Prop42
 90
       50
102
RTVSPost2010PropOp42
 70
     1
102
RTVSPost2010Prop43
 90
        3
102
RTVSPost2010PropOp43
 70
     1
102
RTVSPost2010Prop44ColorIndex
 90
        5
102
RTVSPost2010Prop44ColorRGB
 90
      255
102
RTVSPost2010PropOp44
 70
     1
102
RTVSPost2010Prop45
280
     0
102
RTVSPost2010PropOp45
 70
     1
102
RTVSPost2010Prop46
 90
       50
102
RTVSPost2010PropOp46
 70
     1
102
RTVSPost2010Prop47
 90
       50
102
RTVSPost2010PropOp47
 70
     1
102
RTVSPost2010Prop48
 90
       50
102
RTVSPost2010PropOp48
 70
     1
102
RTVSPost2010Prop49
280
     0
102
RTVSPost2010PropOp49
 70
     1
102
RTVSPost2010Prop50
 90
       50
102
RTVSPost2010PropOp50
 70
     1
102
RTVSPost2010Prop51ColorIndex
 90
      256
102
RTVSPost2010Prop51ColorRGB
 90
-16777216
102
RTVSPost2010PropOp51
 70
     0
102
RTVSPost2010Prop52
140
1.0
102
RTVSPost2010PropOp52
 70
     0
102
RTVSPost2010Prop53
 90
        2
102
RTVSPost2010PropOp53
 70
     1
102
RTVSPost2010Prop54
  1
strokes_ogs.tif
102
RTVSPost2010PropOp54
 70
     1
102
RTVSPost2010Prop55
280
     0
102
RTVSPost2010PropOp55
 70
     1
102
RTVSPost2010Prop56
140
1.0
102
RTVSPost2010PropOp56
 70
     1
102
RTVSPost2010Prop57
140
1.0
102
RTVSPost2010PropOp57
 70
     1
102
RTVSPropertyOp0
 70
     1
102
RTVSPropertyOp1
 70
     1
102
RTVSPropertyOp2
 70
     1
102
RTVSPropertyOp3
 70
     1
102
RTVSPropertyOp4
 70
     1
102
RTVSPropertyOp5
 70
     1
102
RTVSPropertyOp6
 70
     1
102
RTVSPropertyOp7
 70
     1
102
RTVSPropertyOp8
 70
     1
102
RTVSPropertyOp9
 70
     1
102
RTVSPropertyOp10
 70
     1
102
RTVSPropertyOp11
 70
     1
102
RTVSPropertyOp12
 70
     1
102
RTVSPropertyOp13
 70
     1
102
RTVSPropertyOp14
 70
     1
102
RTVSPropertyOp15
 70
     1
102
RTVSPropertyOp16
 70
     1
102
RTVSPropertyOp17
 70
     1
102
RTVSPropertyOp18
 70
     1
102
RTVSPropertyOp19
 70
     1
102
RTVSPropertyOp20
 70
     1
102
RTVSPropertyOp21
 70
     1
102
RTVSPropertyOp22
 70
     1
102
RTVSPropertyOp23
 70
     1
102
RTVSPropertyOp24
 70
     1
102
RTVSPropertyOp25
 70
     1
102
RTVSPropertyOp26
 70
     1
102
RTVSPropertyOp27
 70
     1
102
RTVSPropertyOp28
 70
     1
102
RTVSPropertyOp29
 70
     1
102
RTVSPropertyOp30
 70
     1
102
RTVSPropertyOp31
 70
     1
102
RTVSPropertyOp32
 70
     1
102
RTVSPropertyOp33
 70
     1
102
RTVSPropertyOp34
 70
     1
102
RTVSPropertyOp35
 70
     1
102
RTVSPropertyOp36
 70
     1
102
RTVSPropertyOp37
 70
     1
102
RTVSPropertyOp38
 70
     1
102
RTVSPropertyOp39
 70
     1
102
RTVSPropertyOp40
 70
     1
102
RTVSPropertyOp41
 70
     1
102
RTVSPropertyOp42
 70
     1
102
RTVSPropertyOp43
 70
     1
102
RTVSPropertyOp44
 70
     1
102
RTVSPropertyOp45
 70
     1
102
RTVSPropertyOp46
 70
     1
102
RTVSPropertyOp47
 70
     1
102
RTVSPropertyOp48
 70
     1
102
RTVSPropertyOp49
 70
     1
102
RTVSPropertyOp50
 70
     1
102
RTVSPropertyOp51
 70
     0
102
RTVSPropertyOp52
 70
     0
102
RTVSPropertyOp53
 70
     1
102
RTVSPropertyOp54
 70
     1
102
RTVSPropertyOp55
 70
     1
102
RTVSPropertyOp56
 70
     1
102
RTVSPropertyOp57
 70
     1
102
RTVSPropertyOp58
 70
     1
102
RTVSPropertyOp59
 70
     1
102
RTVSPropertyOp60
 70
     1
102
RTVSPropertyOp61
 70
     1
102
RTVSPropertyOp62
 70
     1
  0
XRECORD
  5
A652
102
{ACAD_REACTORS
330
A651
102
}
330
A651
100
AcDbXrecord
280
     1
102
RTVSPost2010Prop28
280
     0
102
RTVSPost2010PropOp28
 70
     1
102
RTVSPost2010Prop29
280
     1
102
RTVSPost2010PropOp29
 70
     1
102
RTVSPost2010Prop30
280
     1
102
RTVSPost2010PropOp30
 70
     1
102
RTVSPost2010Prop31
280
     0
102
RTVSPost2010PropOp31
 70
     1
102
RTVSPost2010Prop32
280
     0
102
RTVSPost2010PropOp32
 70
     1
102
RTVSPost2010Prop33
280
     0
102
RTVSPost2010PropOp33
 70
     1
102
RTVSPost2010Prop34
280
     0
102
RTVSPost2010PropOp34
 70
     1
102
RTVSPost2010Prop35
280
     0
102
RTVSPost2010PropOp35
 70
     1
102
RTVSPost2010Prop36
280
     0
102
RTVSPost2010PropOp36
 70
     1
102
RTVSPost2010Prop37
 90
       50
102
RTVSPost2010PropOp37
 70
     1
102
RTVSPost2010Prop38
140
0.0
102
RTVSPost2010PropOp38
 70
     1
102
RTVSPost2010Prop39
140
1.0
102
RTVSPost2010PropOp39
 70
     1
102
RTVSPost2010Prop40
 90
        0
102
RTVSPost2010PropOp40
 70
     1
102
RTVSPost2010Prop41ColorIndex
 90
       18
102
RTVSPost2010Prop41ColorRGB
 90
        0
102
RTVSPost2010PropOp41
 70
     1
102
RTVSPost2010Prop42
 90
       50
102
RTVSPost2010PropOp42
 70
     1
102
RTVSPost2010Prop43
 90
        3
102
RTVSPost2010PropOp43
 70
     1
102
RTVSPost2010Prop44ColorIndex
 90
        5
102
RTVSPost2010Prop44ColorRGB
 90
      255
102
RTVSPost2010PropOp44
 70
     1
102
RTVSPost2010Prop45
280
     0
102
RTVSPost2010PropOp45
 70
     1
102
RTVSPost2010Prop46
 90
       50
102
RTVSPost2010PropOp46
 70
     1
102
RTVSPost2010Prop47
 90
       50
102
RTVSPost2010PropOp47
 70
     1
102
RTVSPost2010Prop48
 90
       50
102
RTVSPost2010PropOp48
 70
     1
102
RTVSPost2010Prop49
280
     0
102
RTVSPost2010PropOp49
 70
     1
102
RTVSPost2010Prop50
 90
       50
102
RTVSPost2010PropOp50
 70
     1
102
RTVSPost2010Prop51ColorIndex
 90
      256
102
RTVSPost2010Prop51ColorRGB
 90
-16777216
102
RTVSPost2010PropOp51
 70
     0
102
RTVSPost2010Prop52
140
1.0
102
RTVSPost2010PropOp52
 70
     0
102
RTVSPost2010Prop53
 90
        2
102
RTVSPost2010PropOp53
 70
     1
102
RTVSPost2010Prop54
  1
strokes_ogs.tif
102
RTVSPost2010PropOp54
 70
     1
102
RTVSPost2010Prop55
280
     0
102
RTVSPost2010PropOp55
 70
     1
102
RTVSPost2010Prop56
140
1.0
102
RTVSPost2010PropOp56
 70
     1
102
RTVSPost2010Prop57
140
1.0
102
RTVSPost2010PropOp57
 70
     1
102
RTVSPropertyOp0
 70
     1
102
RTVSPropertyOp1
 70
     1
102
RTVSPropertyOp2
 70
     1
102
RTVSPropertyOp3
 70
     1
102
RTVSPropertyOp4
 70
     1
102
RTVSPropertyOp5
 70
     1
102
RTVSPropertyOp6
 70
     1
102
RTVSPropertyOp7
 70
     1
102
RTVSPropertyOp8
 70
     1
102
RTVSPropertyOp9
 70
     1
102
RTVSPropertyOp10
 70
     1
102
RTVSPropertyOp11
 70
     1
102
RTVSPropertyOp12
 70
     1
102
RTVSPropertyOp13
 70
     1
102
RTVSPropertyOp14
 70
     1
102
RTVSPropertyOp15
 70
     1
102
RTVSPropertyOp16
 70
     1
102
RTVSPropertyOp17
 70
     1
102
RTVSPropertyOp18
 70
     1
102
RTVSPropertyOp19
 70
     1
102
RTVSPropertyOp20
 70
     1
102
RTVSPropertyOp21
 70
     1
102
RTVSPropertyOp22
 70
     1
102
RTVSPropertyOp23
 70
     1
102
RTVSPropertyOp24
 70
     1
102
RTVSPropertyOp25
 70
     1
102
RTVSPropertyOp26
 70
     1
102
RTVSPropertyOp27
 70
     1
102
RTVSPropertyOp28
 70
     1
102
RTVSPropertyOp29
 70
     1
102
RTVSPropertyOp30
 70
     1
102
RTVSPropertyOp31
 70
     1
102
RTVSPropertyOp32
 70
     1
102
RTVSPropertyOp33
 70
     1
102
RTVSPropertyOp34
 70
     1
102
RTVSPropertyOp35
 70
     1
102
RTVSPropertyOp36
 70
     1
102
RTVSPropertyOp37
 70
     1
102
RTVSPropertyOp38
 70
     1
102
RTVSPropertyOp39
 70
     1
102
RTVSPropertyOp40
 70
     1
102
RTVSPropertyOp41
 70
     1
102
RTVSPropertyOp42
 70
     1
102
RTVSPropertyOp43
 70
     1
102
RTVSPropertyOp44
 70
     1
102
RTVSPropertyOp45
 70
     1
102
RTVSPropertyOp46
 70
     1
102
RTVSPropertyOp47
 70
     1
102
RTVSPropertyOp48
 70
     1
102
RTVSPropertyOp49
 70
     1
102
RTVSPropertyOp50
 70
     1
102
RTVSPropertyOp51
 70
     0
102
RTVSPropertyOp52
 70
     0
102
RTVSPropertyOp53
 70
     1
102
RTVSPropertyOp54
 70
     1
102
RTVSPropertyOp55
 70
     1
102
RTVSPropertyOp56
 70
     1
102
RTVSPropertyOp57
 70
     1
102
RTVSPropertyOp58
 70
     1
102
RTVSPropertyOp59
 70
     1
102
RTVSPropertyOp60
 70
     1
102
RTVSPropertyOp61
 70
     1
102
RTVSPropertyOp62
 70
     1
  0
XRECORD
  5
A64C
102
{ACAD_REACTORS
330
A64B
102
}
330
A64B
100
AcDbXrecord
280
     1
102
RTVSPost2010Prop28
280
     0
102
RTVSPost2010PropOp28
 70
     1
102
RTVSPost2010Prop29
280
     1
102
RTVSPost2010PropOp29
 70
     1
102
RTVSPost2010Prop30
280
     1
102
RTVSPost2010PropOp30
 70
     1
102
RTVSPost2010Prop31
280
     0
102
RTVSPost2010PropOp31
 70
     1
102
RTVSPost2010Prop32
280
     0
102
RTVSPost2010PropOp32
 70
     1
102
RTVSPost2010Prop33
280
     0
102
RTVSPost2010PropOp33
 70
     1
102
RTVSPost2010Prop34
280
     0
102
RTVSPost2010PropOp34
 70
     1
102
RTVSPost2010Prop35
280
     0
102
RTVSPost2010PropOp35
 70
     1
102
RTVSPost2010Prop36
280
     0
102
RTVSPost2010PropOp36
 70
     1
102
RTVSPost2010Prop37
 90
       50
102
RTVSPost2010PropOp37
 70
     1
102
RTVSPost2010Prop38
140
0.0
102
RTVSPost2010PropOp38
 70
     1
102
RTVSPost2010Prop39
140
1.0
102
RTVSPost2010PropOp39
 70
     1
102
RTVSPost2010Prop40
 90
        0
102
RTVSPost2010PropOp40
 70
     1
102
RTVSPost2010Prop41ColorIndex
 90
       18
102
RTVSPost2010Prop41ColorRGB
 90
        0
102
RTVSPost2010PropOp41
 70
     1
102
RTVSPost2010Prop42
 90
       50
102
RTVSPost2010PropOp42
 70
     1
102
RTVSPost2010Prop43
 90
        3
102
RTVSPost2010PropOp43
 70
     1
102
RTVSPost2010Prop44ColorIndex
 90
        5
102
RTVSPost2010Prop44ColorRGB
 90
      255
102
RTVSPost2010PropOp44
 70
     1
102
RTVSPost2010Prop45
280
     0
102
RTVSPost2010PropOp45
 70
     1
102
RTVSPost2010Prop46
 90
       50
102
RTVSPost2010PropOp46
 70
     1
102
RTVSPost2010Prop47
 90
       50
102
RTVSPost2010PropOp47
 70
     1
102
RTVSPost2010Prop48
 90
       50
102
RTVSPost2010PropOp48
 70
     1
102
RTVSPost2010Prop49
280
     0
102
RTVSPost2010PropOp49
 70
     1
102
RTVSPost2010Prop50
 90
       50
102
RTVSPost2010PropOp50
 70
     1
102
RTVSPost2010Prop51ColorIndex
 90
      256
102
RTVSPost2010Prop51ColorRGB
 90
-16777216
102
RTVSPost2010PropOp51
 70
     0
102
RTVSPost2010Prop52
140
1.0
102
RTVSPost2010PropOp52
 70
     0
102
RTVSPost2010Prop53
 90
        2
102
RTVSPost2010PropOp53
 70
     1
102
RTVSPost2010Prop54
  1
strokes_ogs.tif
102
RTVSPost2010PropOp54
 70
     1
102
RTVSPost2010Prop55
280
     0
102
RTVSPost2010PropOp55
 70
     1
102
RTVSPost2010Prop56
140
1.0
102
RTVSPost2010PropOp56
 70
     1
102
RTVSPost2010Prop57
140
1.0
102
RTVSPost2010PropOp57
 70
     1
102
RTVSPropertyOp0
 70
     1
102
RTVSPropertyOp1
 70
     1
102
RTVSPropertyOp2
 70
     1
102
RTVSPropertyOp3
 70
     1
102
RTVSPropertyOp4
 70
     1
102
RTVSPropertyOp5
 70
     1
102
RTVSPropertyOp6
 70
     1
102
RTVSPropertyOp7
 70
     1
102
RTVSPropertyOp8
 70
     1
102
RTVSPropertyOp9
 70
     1
102
RTVSPropertyOp10
 70
     1
102
RTVSPropertyOp11
 70
     1
102
RTVSPropertyOp12
 70
     1
102
RTVSPropertyOp13
 70
     1
102
RTVSPropertyOp14
 70
     1
102
RTVSPropertyOp15
 70
     1
102
RTVSPropertyOp16
 70
     1
102
RTVSPropertyOp17
 70
     1
102
RTVSPropertyOp18
 70
     1
102
RTVSPropertyOp19
 70
     1
102
RTVSPropertyOp20
 70
     1
102
RTVSPropertyOp21
 70
     1
102
RTVSPropertyOp22
 70
     1
102
RTVSPropertyOp23
 70
     1
102
RTVSPropertyOp24
 70
     1
102
RTVSPropertyOp25
 70
     1
102
RTVSPropertyOp26
 70
     1
102
RTVSPropertyOp27
 70
     1
102
RTVSPropertyOp28
 70
     1
102
RTVSPropertyOp29
 70
     1
102
RTVSPropertyOp30
 70
     1
102
RTVSPropertyOp31
 70
     1
102
RTVSPropertyOp32
 70
     1
102
RTVSPropertyOp33
 70
     1
102
RTVSPropertyOp34
 70
     1
102
RTVSPropertyOp35
 70
     1
102
RTVSPropertyOp36
 70
     1
102
RTVSPropertyOp37
 70
     1
102
RTVSPropertyOp38
 70
     1
102
RTVSPropertyOp39
 70
     1
102
RTVSPropertyOp40
 70
     1
102
RTVSPropertyOp41
 70
     1
102
RTVSPropertyOp42
 70
     1
102
RTVSPropertyOp43
 70
     1
102
RTVSPropertyOp44
 70
     1
102
RTVSPropertyOp45
 70
     1
102
RTVSPropertyOp46
 70
     1
102
RTVSPropertyOp47
 70
     1
102
RTVSPropertyOp48
 70
     1
102
RTVSPropertyOp49
 70
     1
102
RTVSPropertyOp50
 70
     1
102
RTVSPropertyOp51
 70
     0
102
RTVSPropertyOp52
 70
     0
102
RTVSPropertyOp53
 70
     1
102
RTVSPropertyOp54
 70
     1
102
RTVSPropertyOp55
 70
     1
102
RTVSPropertyOp56
 70
     1
102
RTVSPropertyOp57
 70
     1
102
RTVSPropertyOp58
 70
     1
102
RTVSPropertyOp59
 70
     1
102
RTVSPropertyOp60
 70
     1
102
RTVSPropertyOp61
 70
     1
102
RTVSPropertyOp62
 70
     1
  0
XRECORD
  5
A64E
102
{ACAD_REACTORS
330
A64D
102
}
330
A64D
100
AcDbXrecord
280
     1
102
RTVSPost2010Prop28
280
     0
102
RTVSPost2010PropOp28
 70
     1
102
RTVSPost2010Prop29
280
     1
102
RTVSPost2010PropOp29
 70
     1
102
RTVSPost2010Prop30
280
     1
102
RTVSPost2010PropOp30
 70
     1
102
RTVSPost2010Prop31
280
     0
102
RTVSPost2010PropOp31
 70
     1
102
RTVSPost2010Prop32
280
     0
102
RTVSPost2010PropOp32
 70
     1
102
RTVSPost2010Prop33
280
     0
102
RTVSPost2010PropOp33
 70
     1
102
RTVSPost2010Prop34
280
     0
102
RTVSPost2010PropOp34
 70
     1
102
RTVSPost2010Prop35
280
     0
102
RTVSPost2010PropOp35
 70
     1
102
RTVSPost2010Prop36
280
     0
102
RTVSPost2010PropOp36
 70
     1
102
RTVSPost2010Prop37
 90
       50
102
RTVSPost2010PropOp37
 70
     1
102
RTVSPost2010Prop38
140
0.0
102
RTVSPost2010PropOp38
 70
     1
102
RTVSPost2010Prop39
140
1.0
102
RTVSPost2010PropOp39
 70
     1
102
RTVSPost2010Prop40
 90
        0
102
RTVSPost2010PropOp40
 70
     1
102
RTVSPost2010Prop41ColorIndex
 90
       18
102
RTVSPost2010Prop41ColorRGB
 90
        0
102
RTVSPost2010PropOp41
 70
     1
102
RTVSPost2010Prop42
 90
       50
102
RTVSPost2010PropOp42
 70
     1
102
RTVSPost2010Prop43
 90
        3
102
RTVSPost2010PropOp43
 70
     1
102
RTVSPost2010Prop44ColorIndex
 90
        5
102
RTVSPost2010Prop44ColorRGB
 90
      255
102
RTVSPost2010PropOp44
 70
     1
102
RTVSPost2010Prop45
280
     0
102
RTVSPost2010PropOp45
 70
     1
102
RTVSPost2010Prop46
 90
       50
102
RTVSPost2010PropOp46
 70
     1
102
RTVSPost2010Prop47
 90
       50
102
RTVSPost2010PropOp47
 70
     1
102
RTVSPost2010Prop48
 90
       50
102
RTVSPost2010PropOp48
 70
     1
102
RTVSPost2010Prop49
280
     0
102
RTVSPost2010PropOp49
 70
     1
102
RTVSPost2010Prop50
 90
       50
102
RTVSPost2010PropOp50
 70
     1
102
RTVSPost2010Prop51ColorIndex
 90
      256
102
RTVSPost2010Prop51ColorRGB
 90
-16777216
102
RTVSPost2010PropOp51
 70
     0
102
RTVSPost2010Prop52
140
1.0
102
RTVSPost2010PropOp52
 70
     0
102
RTVSPost2010Prop53
 90
        2
102
RTVSPost2010PropOp53
 70
     1
102
RTVSPost2010Prop54
  1
strokes_ogs.tif
102
RTVSPost2010PropOp54
 70
     1
102
RTVSPost2010Prop55
280
     0
102
RTVSPost2010PropOp55
 70
     1
102
RTVSPost2010Prop56
140
1.0
102
RTVSPost2010PropOp56
 70
     1
102
RTVSPost2010Prop57
140
1.0
102
RTVSPost2010PropOp57
 70
     1
102
RTVSPropertyOp0
 70
     1
102
RTVSPropertyOp1
 70
     1
102
RTVSPropertyOp2
 70
     1
102
RTVSPropertyOp3
 70
     1
102
RTVSPropertyOp4
 70
     1
102
RTVSPropertyOp5
 70
     1
102
RTVSPropertyOp6
 70
     1
102
RTVSPropertyOp7
 70
     1
102
RTVSPropertyOp8
 70
     1
102
RTVSPropertyOp9
 70
     1
102
RTVSPropertyOp10
 70
     1
102
RTVSPropertyOp11
 70
     1
102
RTVSPropertyOp12
 70
     1
102
RTVSPropertyOp13
 70
     1
102
RTVSPropertyOp14
 70
     1
102
RTVSPropertyOp15
 70
     1
102
RTVSPropertyOp16
 70
     1
102
RTVSPropertyOp17
 70
     1
102
RTVSPropertyOp18
 70
     1
102
RTVSPropertyOp19
 70
     1
102
RTVSPropertyOp20
 70
     1
102
RTVSPropertyOp21
 70
     1
102
RTVSPropertyOp22
 70
     1
102
RTVSPropertyOp23
 70
     1
102
RTVSPropertyOp24
 70
     1
102
RTVSPropertyOp25
 70
     1
102
RTVSPropertyOp26
 70
     1
102
RTVSPropertyOp27
 70
     1
102
RTVSPropertyOp28
 70
     1
102
RTVSPropertyOp29
 70
     1
102
RTVSPropertyOp30
 70
     1
102
RTVSPropertyOp31
 70
     1
102
RTVSPropertyOp32
 70
     1
102
RTVSPropertyOp33
 70
     1
102
RTVSPropertyOp34
 70
     1
102
RTVSPropertyOp35
 70
     1
102
RTVSPropertyOp36
 70
     1
102
RTVSPropertyOp37
 70
     1
102
RTVSPropertyOp38
 70
     1
102
RTVSPropertyOp39
 70
     1
102
RTVSPropertyOp40
 70
     1
102
RTVSPropertyOp41
 70
     1
102
RTVSPropertyOp42
 70
     1
102
RTVSPropertyOp43
 70
     1
102
RTVSPropertyOp44
 70
     1
102
RTVSPropertyOp45
 70
     1
102
RTVSPropertyOp46
 70
     1
102
RTVSPropertyOp47
 70
     1
102
RTVSPropertyOp48
 70
     1
102
RTVSPropertyOp49
 70
     1
102
RTVSPropertyOp50
 70
     1
102
RTVSPropertyOp51
 70
     0
102
RTVSPropertyOp52
 70
     0
102
RTVSPropertyOp53
 70
     1
102
RTVSPropertyOp54
 70
     1
102
RTVSPropertyOp55
 70
     1
102
RTVSPropertyOp56
 70
     1
102
RTVSPropertyOp57
 70
     1
102
RTVSPropertyOp58
 70
     1
102
RTVSPropertyOp59
 70
     1
102
RTVSPropertyOp60
 70
     1
102
RTVSPropertyOp61
 70
     1
102
RTVSPropertyOp62
 70
     1
  0
XRECORD
  5
A644
102
{ACAD_REACTORS
330
A643
102
}
330
A643
100
AcDbXrecord
280
     1
102
RTVSPost2010Prop28
280
     0
102
RTVSPost2010PropOp28
 70
     1
102
RTVSPost2010Prop29
280
     1
102
RTVSPost2010PropOp29
 70
     1
102
RTVSPost2010Prop30
280
     1
102
RTVSPost2010PropOp30
 70
     1
102
RTVSPost2010Prop31
280
     0
102
RTVSPost2010PropOp31
 70
     1
102
RTVSPost2010Prop32
280
     0
102
RTVSPost2010PropOp32
 70
     1
102
RTVSPost2010Prop33
280
     0
102
RTVSPost2010PropOp33
 70
     1
102
RTVSPost2010Prop34
280
     0
102
RTVSPost2010PropOp34
 70
     1
102
RTVSPost2010Prop35
280
     0
102
RTVSPost2010PropOp35
 70
     1
102
RTVSPost2010Prop36
280
     0
102
RTVSPost2010PropOp36
 70
     1
102
RTVSPost2010Prop37
 90
       50
102
RTVSPost2010PropOp37
 70
     1
102
RTVSPost2010Prop38
140
0.0
102
RTVSPost2010PropOp38
 70
     1
102
RTVSPost2010Prop39
140
1.0
102
RTVSPost2010PropOp39
 70
     1
102
RTVSPost2010Prop40
 90
        0
102
RTVSPost2010PropOp40
 70
     1
102
RTVSPost2010Prop41ColorIndex
 90
       18
102
RTVSPost2010Prop41ColorRGB
 90
        0
102
RTVSPost2010PropOp41
 70
     1
102
RTVSPost2010Prop42
 90
       50
102
RTVSPost2010PropOp42
 70
     1
102
RTVSPost2010Prop43
 90
        3
102
RTVSPost2010PropOp43
 70
     1
102
RTVSPost2010Prop44ColorIndex
 90
        5
102
RTVSPost2010Prop44ColorRGB
 90
      255
102
RTVSPost2010PropOp44
 70
     1
102
RTVSPost2010Prop45
280
     0
102
RTVSPost2010PropOp45
 70
     1
102
RTVSPost2010Prop46
 90
       50
102
RTVSPost2010PropOp46
 70
     1
102
RTVSPost2010Prop47
 90
       50
102
RTVSPost2010PropOp47
 70
     1
102
RTVSPost2010Prop48
 90
       50
102
RTVSPost2010PropOp48
 70
     1
102
RTVSPost2010Prop49
280
     0
102
RTVSPost2010PropOp49
 70
     1
102
RTVSPost2010Prop50
 90
       50
102
RTVSPost2010PropOp50
 70
     1
102
RTVSPost2010Prop51ColorIndex
 90
      256
102
RTVSPost2010Prop51ColorRGB
 90
-16777216
102
RTVSPost2010PropOp51
 70
     0
102
RTVSPost2010Prop52
140
1.0
102
RTVSPost2010PropOp52
 70
     0
102
RTVSPost2010Prop53
 90
        2
102
RTVSPost2010PropOp53
 70
     1
102
RTVSPost2010Prop54
  1
strokes_ogs.tif
102
RTVSPost2010PropOp54
 70
     1
102
RTVSPost2010Prop55
280
     0
102
RTVSPost2010PropOp55
 70
     1
102
RTVSPost2010Prop56
140
1.0
102
RTVSPost2010PropOp56
 70
     1
102
RTVSPost2010Prop57
140
1.0
102
RTVSPost2010PropOp57
 70
     1
102
RTVSPropertyOp0
 70
     1
102
RTVSPropertyOp1
 70
     1
102
RTVSPropertyOp2
 70
     1
102
RTVSPropertyOp3
 70
     1
102
RTVSPropertyOp4
 70
     1
102
RTVSPropertyOp5
 70
     1
102
RTVSPropertyOp6
 70
     1
102
RTVSPropertyOp7
 70
     1
102
RTVSPropertyOp8
 70
     1
102
RTVSPropertyOp9
 70
     1
102
RTVSPropertyOp10
 70
     1
102
RTVSPropertyOp11
 70
     1
102
RTVSPropertyOp12
 70
     1
102
RTVSPropertyOp13
 70
     1
102
RTVSPropertyOp14
 70
     1
102
RTVSPropertyOp15
 70
     1
102
RTVSPropertyOp16
 70
     1
102
RTVSPropertyOp17
 70
     1
102
RTVSPropertyOp18
 70
     1
102
RTVSPropertyOp19
 70
     1
102
RTVSPropertyOp20
 70
     1
102
RTVSPropertyOp21
 70
     1
102
RTVSPropertyOp22
 70
     1
102
RTVSPropertyOp23
 70
     1
102
RTVSPropertyOp24
 70
     1
102
RTVSPropertyOp25
 70
     1
102
RTVSPropertyOp26
 70
     1
102
RTVSPropertyOp27
 70
     1
102
RTVSPropertyOp28
 70
     1
102
RTVSPropertyOp29
 70
     1
102
RTVSPropertyOp30
 70
     1
102
RTVSPropertyOp31
 70
     1
102
RTVSPropertyOp32
 70
     1
102
RTVSPropertyOp33
 70
     1
102
RTVSPropertyOp34
 70
     1
102
RTVSPropertyOp35
 70
     1
102
RTVSPropertyOp36
 70
     1
102
RTVSPropertyOp37
 70
     1
102
RTVSPropertyOp38
 70
     1
102
RTVSPropertyOp39
 70
     1
102
RTVSPropertyOp40
 70
     1
102
RTVSPropertyOp41
 70
     1
102
RTVSPropertyOp42
 70
     1
102
RTVSPropertyOp43
 70
     1
102
RTVSPropertyOp44
 70
     1
102
RTVSPropertyOp45
 70
     1
102
RTVSPropertyOp46
 70
     1
102
RTVSPropertyOp47
 70
     1
102
RTVSPropertyOp48
 70
     1
102
RTVSPropertyOp49
 70
     1
102
RTVSPropertyOp50
 70
     1
102
RTVSPropertyOp51
 70
     0
102
RTVSPropertyOp52
 70
     0
102
RTVSPropertyOp53
 70
     1
102
RTVSPropertyOp54
 70
     1
102
RTVSPropertyOp55
 70
     1
102
RTVSPropertyOp56
 70
     1
102
RTVSPropertyOp57
 70
     1
102
RTVSPropertyOp58
 70
     1
102
RTVSPropertyOp59
 70
     1
102
RTVSPropertyOp60
 70
     1
102
RTVSPropertyOp61
 70
     1
102
RTVSPropertyOp62
 70
     1
  0
XRECORD
  5
A638
102
{ACAD_REACTORS
330
A637
102
}
330
A637
100
AcDbXrecord
280
     1
102
RTVSPost2010Prop28
280
     0
102
RTVSPost2010PropOp28
 70
     1
102
RTVSPost2010Prop29
280
     1
102
RTVSPost2010PropOp29
 70
     1
102
RTVSPost2010Prop30
280
     1
102
RTVSPost2010PropOp30
 70
     1
102
RTVSPost2010Prop31
280
     0
102
RTVSPost2010PropOp31
 70
     1
102
RTVSPost2010Prop32
280
     0
102
RTVSPost2010PropOp32
 70
     1
102
RTVSPost2010Prop33
280
     0
102
RTVSPost2010PropOp33
 70
     1
102
RTVSPost2010Prop34
280
     0
102
RTVSPost2010PropOp34
 70
     1
102
RTVSPost2010Prop35
280
     0
102
RTVSPost2010PropOp35
 70
     1
102
RTVSPost2010Prop36
280
     0
102
RTVSPost2010PropOp36
 70
     1
102
RTVSPost2010Prop37
 90
       50
102
RTVSPost2010PropOp37
 70
     1
102
RTVSPost2010Prop38
140
0.0
102
RTVSPost2010PropOp38
 70
     1
102
RTVSPost2010Prop39
140
1.0
102
RTVSPost2010PropOp39
 70
     1
102
RTVSPost2010Prop40
 90
        0
102
RTVSPost2010PropOp40
 70
     1
102
RTVSPost2010Prop41ColorIndex
 90
       18
102
RTVSPost2010Prop41ColorRGB
 90
        0
102
RTVSPost2010PropOp41
 70
     1
102
RTVSPost2010Prop42
 90
       50
102
RTVSPost2010PropOp42
 70
     1
102
RTVSPost2010Prop43
 90
        3
102
RTVSPost2010PropOp43
 70
     1
102
RTVSPost2010Prop44ColorIndex
 90
        5
102
RTVSPost2010Prop44ColorRGB
 90
      255
102
RTVSPost2010PropOp44
 70
     1
102
RTVSPost2010Prop45
280
     0
102
RTVSPost2010PropOp45
 70
     1
102
RTVSPost2010Prop46
 90
       50
102
RTVSPost2010PropOp46
 70
     1
102
RTVSPost2010Prop47
 90
       50
102
RTVSPost2010PropOp47
 70
     1
102
RTVSPost2010Prop48
 90
       50
102
RTVSPost2010PropOp48
 70
     1
102
RTVSPost2010Prop49
280
     0
102
RTVSPost2010PropOp49
 70
     1
102
RTVSPost2010Prop50
 90
       50
102
RTVSPost2010PropOp50
 70
     1
102
RTVSPost2010Prop51ColorIndex
 90
      256
102
RTVSPost2010Prop51ColorRGB
 90
-16777216
102
RTVSPost2010PropOp51
 70
     0
102
RTVSPost2010Prop52
140
1.0
102
RTVSPost2010PropOp52
 70
     0
102
RTVSPost2010Prop53
 90
        2
102
RTVSPost2010PropOp53
 70
     1
102
RTVSPost2010Prop54
  1
strokes_ogs.tif
102
RTVSPost2010PropOp54
 70
     1
102
RTVSPost2010Prop55
280
     0
102
RTVSPost2010PropOp55
 70
     1
102
RTVSPost2010Prop56
140
1.0
102
RTVSPost2010PropOp56
 70
     1
102
RTVSPost2010Prop57
140
1.0
102
RTVSPost2010PropOp57
 70
     1
102
RTVSPropertyOp0
 70
     1
102
RTVSPropertyOp1
 70
     1
102
RTVSPropertyOp2
 70
     1
102
RTVSPropertyOp3
 70
     1
102
RTVSPropertyOp4
 70
     1
102
RTVSPropertyOp5
 70
     1
102
RTVSPropertyOp6
 70
     1
102
RTVSPropertyOp7
 70
     1
102
RTVSPropertyOp8
 70
     1
102
RTVSPropertyOp9
 70
     1
102
RTVSPropertyOp10
 70
     1
102
RTVSPropertyOp11
 70
     1
102
RTVSPropertyOp12
 70
     1
102
RTVSPropertyOp13
 70
     1
102
RTVSPropertyOp14
 70
     1
102
RTVSPropertyOp15
 70
     1
102
RTVSPropertyOp16
 70
     1
102
RTVSPropertyOp17
 70
     1
102
RTVSPropertyOp18
 70
     1
102
RTVSPropertyOp19
 70
     1
102
RTVSPropertyOp20
 70
     1
102
RTVSPropertyOp21
 70
     1
102
RTVSPropertyOp22
 70
     1
102
RTVSPropertyOp23
 70
     1
102
RTVSPropertyOp24
 70
     1
102
RTVSPropertyOp25
 70
     1
102
RTVSPropertyOp26
 70
     1
102
RTVSPropertyOp27
 70
     1
102
RTVSPropertyOp28
 70
     1
102
RTVSPropertyOp29
 70
     1
102
RTVSPropertyOp30
 70
     1
102
RTVSPropertyOp31
 70
     1
102
RTVSPropertyOp32
 70
     1
102
RTVSPropertyOp33
 70
     1
102
RTVSPropertyOp34
 70
     1
102
RTVSPropertyOp35
 70
     1
102
RTVSPropertyOp36
 70
     1
102
RTVSPropertyOp37
 70
     1
102
RTVSPropertyOp38
 70
     1
102
RTVSPropertyOp39
 70
     1
102
RTVSPropertyOp40
 70
     1
102
RTVSPropertyOp41
 70
     1
102
RTVSPropertyOp42
 70
     1
102
RTVSPropertyOp43
 70
     1
102
RTVSPropertyOp44
 70
     1
102
RTVSPropertyOp45
 70
     1
102
RTVSPropertyOp46
 70
     1
102
RTVSPropertyOp47
 70
     1
102
RTVSPropertyOp48
 70
     1
102
RTVSPropertyOp49
 70
     1
102
RTVSPropertyOp50
 70
     1
102
RTVSPropertyOp51
 70
     0
102
RTVSPropertyOp52
 70
     0
102
RTVSPropertyOp53
 70
     1
102
RTVSPropertyOp54
 70
     1
102
RTVSPropertyOp55
 70
     1
102
RTVSPropertyOp56
 70
     1
102
RTVSPropertyOp57
 70
     1
102
RTVSPropertyOp58
 70
     1
102
RTVSPropertyOp59
 70
     1
102
RTVSPropertyOp60
 70
     1
102
RTVSPropertyOp61
 70
     1
102
RTVSPropertyOp62
 70
     1
  0
XRECORD
  5
A650
102
{ACAD_REACTORS
330
A64F
102
}
330
A64F
100
AcDbXrecord
280
     1
102
RTVSPost2010Prop28
280
     0
102
RTVSPost2010PropOp28
 70
     1
102
RTVSPost2010Prop29
280
     1
102
RTVSPost2010PropOp29
 70
     1
102
RTVSPost2010Prop30
280
     1
102
RTVSPost2010PropOp30
 70
     1
102
RTVSPost2010Prop31
280
     0
102
RTVSPost2010PropOp31
 70
     1
102
RTVSPost2010Prop32
280
     0
102
RTVSPost2010PropOp32
 70
     1
102
RTVSPost2010Prop33
280
     0
102
RTVSPost2010PropOp33
 70
     1
102
RTVSPost2010Prop34
280
     0
102
RTVSPost2010PropOp34
 70
     1
102
RTVSPost2010Prop35
280
     0
102
RTVSPost2010PropOp35
 70
     1
102
RTVSPost2010Prop36
280
     0
102
RTVSPost2010PropOp36
 70
     1
102
RTVSPost2010Prop37
 90
       50
102
RTVSPost2010PropOp37
 70
     1
102
RTVSPost2010Prop38
140
0.0
102
RTVSPost2010PropOp38
 70
     1
102
RTVSPost2010Prop39
140
1.0
102
RTVSPost2010PropOp39
 70
     1
102
RTVSPost2010Prop40
 90
        0
102
RTVSPost2010PropOp40
 70
     1
102
RTVSPost2010Prop41ColorIndex
 90
       18
102
RTVSPost2010Prop41ColorRGB
 90
        0
102
RTVSPost2010PropOp41
 70
     1
102
RTVSPost2010Prop42
 90
       50
102
RTVSPost2010PropOp42
 70
     1
102
RTVSPost2010Prop43
 90
        3
102
RTVSPost2010PropOp43
 70
     1
102
RTVSPost2010Prop44ColorIndex
 90
        5
102
RTVSPost2010Prop44ColorRGB
 90
      255
102
RTVSPost2010PropOp44
 70
     1
102
RTVSPost2010Prop45
280
     0
102
RTVSPost2010PropOp45
 70
     1
102
RTVSPost2010Prop46
 90
       50
102
RTVSPost2010PropOp46
 70
     1
102
RTVSPost2010Prop47
 90
       50
102
RTVSPost2010PropOp47
 70
     1
102
RTVSPost2010Prop48
 90
       50
102
RTVSPost2010PropOp48
 70
     1
102
RTVSPost2010Prop49
280
     0
102
RTVSPost2010PropOp49
 70
     1
102
RTVSPost2010Prop50
 90
       50
102
RTVSPost2010PropOp50
 70
     1
102
RTVSPost2010Prop51ColorIndex
 90
      256
102
RTVSPost2010Prop51ColorRGB
 90
-16777216
102
RTVSPost2010PropOp51
 70
     0
102
RTVSPost2010Prop52
140
1.0
102
RTVSPost2010PropOp52
 70
     0
102
RTVSPost2010Prop53
 90
        2
102
RTVSPost2010PropOp53
 70
     1
102
RTVSPost2010Prop54
  1
strokes_ogs.tif
102
RTVSPost2010PropOp54
 70
     1
102
RTVSPost2010Prop55
280
     0
102
RTVSPost2010PropOp55
 70
     1
102
RTVSPost2010Prop56
140
1.0
102
RTVSPost2010PropOp56
 70
     1
102
RTVSPost2010Prop57
140
1.0
102
RTVSPost2010PropOp57
 70
     1
102
RTVSPropertyOp0
 70
     1
102
RTVSPropertyOp1
 70
     1
102
RTVSPropertyOp2
 70
     1
102
RTVSPropertyOp3
 70
     1
102
RTVSPropertyOp4
 70
     1
102
RTVSPropertyOp5
 70
     1
102
RTVSPropertyOp6
 70
     1
102
RTVSPropertyOp7
 70
     1
102
RTVSPropertyOp8
 70
     1
102
RTVSPropertyOp9
 70
     1
102
RTVSPropertyOp10
 70
     1
102
RTVSPropertyOp11
 70
     1
102
RTVSPropertyOp12
 70
     1
102
RTVSPropertyOp13
 70
     1
102
RTVSPropertyOp14
 70
     1
102
RTVSPropertyOp15
 70
     1
102
RTVSPropertyOp16
 70
     1
102
RTVSPropertyOp17
 70
     1
102
RTVSPropertyOp18
 70
     1
102
RTVSPropertyOp19
 70
     1
102
RTVSPropertyOp20
 70
     1
102
RTVSPropertyOp21
 70
     1
102
RTVSPropertyOp22
 70
     1
102
RTVSPropertyOp23
 70
     1
102
RTVSPropertyOp24
 70
     1
102
RTVSPropertyOp25
 70
     1
102
RTVSPropertyOp26
 70
     1
102
RTVSPropertyOp27
 70
     1
102
RTVSPropertyOp28
 70
     1
102
RTVSPropertyOp29
 70
     1
102
RTVSPropertyOp30
 70
     1
102
RTVSPropertyOp31
 70
     1
102
RTVSPropertyOp32
 70
     1
102
RTVSPropertyOp33
 70
     1
102
RTVSPropertyOp34
 70
     1
102
RTVSPropertyOp35
 70
     1
102
RTVSPropertyOp36
 70
     1
102
RTVSPropertyOp37
 70
     1
102
RTVSPropertyOp38
 70
     1
102
RTVSPropertyOp39
 70
     1
102
RTVSPropertyOp40
 70
     1
102
RTVSPropertyOp41
 70
     1
102
RTVSPropertyOp42
 70
     1
102
RTVSPropertyOp43
 70
     1
102
RTVSPropertyOp44
 70
     1
102
RTVSPropertyOp45
 70
     1
102
RTVSPropertyOp46
 70
     1
102
RTVSPropertyOp47
 70
     1
102
RTVSPropertyOp48
 70
     1
102
RTVSPropertyOp49
 70
     1
102
RTVSPropertyOp50
 70
     1
102
RTVSPropertyOp51
 70
     0
102
RTVSPropertyOp52
 70
     0
102
RTVSPropertyOp53
 70
     1
102
RTVSPropertyOp54
 70
     1
102
RTVSPropertyOp55
 70
     1
102
RTVSPropertyOp56
 70
     1
102
RTVSPropertyOp57
 70
     1
102
RTVSPropertyOp58
 70
     1
102
RTVSPropertyOp59
 70
     1
102
RTVSPropertyOp60
 70
     1
102
RTVSPropertyOp61
 70
     1
102
RTVSPropertyOp62
 70
     1
  0
ENDSEC
  0
EOF
