  0
SECTION
  2
HEADER
  9
$ACADVER
  1
AC1015
  9
$ACADMAINTVER
 70
    20
  9
$DWGCODEPAGE
  3
ANSI_932
  9
$INSBASE
 10
0.0
 20
0.0
 30
0.0
  9
$EXTMIN
 10
10.0
 20
9.999999999999998
 30
0.0
  9
$EXTMAX
 10
353.5618329999999
 20
320.484862
 30
0.0
  9
$LIMMIN
 10
0.0
 20
0.0
  9
$LIMMAX
 10
495.0
 20
341.25
  9
$ORTHOMODE
 70
     1
  9
$REGENMODE
 70
     1
  9
$FILLMODE
 70
     1
  9
$QTEXTMODE
 70
     0
  9
$MIRRTEXT
 70
     1
  9
$LTSCALE
 40
20.0
  9
$ATTMODE
 70
     1
  9
$TEXTSIZE
 40
5.0
  9
$TRACEWID
 40
1.0
  9
$TEXTSTYLE
  7
STANDARD
  9
$CLAYER
  8
0
  9
$CELTYPE
  6
BYLAYER
  9
$CECOLOR
 62
   256
  9
$CELTSCALE
 40
1.0
  9
$DISPSILH
 70
     0
  9
$DIMSCALE
 40
1.0
  9
$DIMASZ
 40
3.0
  9
$DIMEXO
 40
1.0
  9
$DIMDLI
 40
10.0
  9
$DIMRND
 40
0.0
  9
$DIMDLE
 40
0.0
  9
$DIMEXE
 40
1.0
  9
$DIMTP
 40
0.0
  9
$DIMTM
 40
0.0
  9
$DIMTXT
 40
3.2
  9
$DIMCEN
 40
0.0
  9
$DIMTSZ
 40
0.0
  9
$DIMTOL
 70
     0
  9
$DIMLIM
 70
     0
  9
$DIMTIH
 70
     0
  9
$DIMTOH
 70
     0
  9
$DIMSE1
 70
     0
  9
$DIMSE2
 70
     0
  9
$DIMTAD
 70
     3
  9
$DIMZIN
 70
     8
  9
$DIMBLK
  1

  9
$DIMASO
 70
     1
  9
$DIMSHO
 70
     1
  9
$DIMPOST
  1

  9
$DIMAPOST
  1

  9
$DIMALT
 70
     0
  9
$DIMALTD
 70
     2
  9
$DIMALTF
 40
25.4
  9
$DIMLFAC
 40
1.0
  9
$DIMTOFL
 70
     1
  9
$DIMTVP
 40
0.0
  9
$DIMTIX
 70
     0
  9
$DIMSOXD
 70
     0
  9
$DIMSAH
 70
     1
  9
$DIMBLK1
  1
OPEN
  9
$DIMBLK2
  1
OPEN
  9
$DIMSTYLE
  2
STANDARD
  9
$DIMCLRD
 70
     0
  9
$DIMCLRE
 70
     0
  9
$DIMCLRT
 70
     0
  9
$DIMTFAC
 40
1.0
  9
$DIMGAP
 40
1.0
  9
$DIMJUST
 70
     0
  9
$DIMSD1
 70
     0
  9
$DIMSD2
 70
     0
  9
$DIMTOLJ
 70
     1
  9
$DIMTZIN
 70
     0
  9
$DIMALTZ
 70
     0
  9
$DIMALTTZ
 70
     0
  9
$DIMUPT
 70
     0
  9
$DIMDEC
 70
     4
  9
$DIMTDEC
 70
     4
  9
$DIMALTU
 70
     2
  9
$DIMALTTD
 70
     2
  9
$DIMTXSTY
  7
STANDARD
  9
$DIMAUNIT
 70
     0
  9
$DIMADEC
 70
     0
  9
$DIMALTRND
 40
0.0
  9
$DIMAZIN
 70
     0
  9
$DIMDSEP
 70
    46
  9
$DIMATFIT
 70
     3
  9
$DIMFRAC
 70
     0
  9
$DIMLDRBLK
  1
OPEN
  9
$DIMLUNIT
 70
     2
  9
$DIMLWD
 70
    -2
  9
$DIMLWE
 70
    -2
  9
$DIMTMOVE
 70
     0
  9
$LUNITS
 70
     2
  9
$LUPREC
 70
     4
  9
$SKETCHINC
 40
1.0
  9
$FILLETRAD
 40
7.0
  9
$AUNITS
 70
     0
  9
$AUPREC
 70
     2
  9
$MENU
  1
.
  9
$ELEVATION
 40
0.0
  9
$PELEVATION
 40
0.0
  9
$THICKNESS
 40
0.0
  9
$LIMCHECK
 70
     0
  9
$CHAMFERA
 40
10.0
  9
$CHAMFERB
 40
10.0
  9
$CHAMFERC
 40
0.0
  9
$CHAMFERD
 40
0.0
  9
$SKPOLY
 70
     0
  9
$TDCREATE
 40
2451302.659228588
  9
$TDUCREATE
 40
2451302.284228588
  9
$TDUPDATE
 40
2457192.687667871
  9
$TDUUPDATE
 40
2457192.312667871
  9
$TDINDWG
 40
0.0000126852
  9
$TDUSRTIMER
 40
0.0000121875
  9
$USRTIMER
 70
     1
  9
$ANGBASE
 50
0.0
  9
$ANGDIR
 70
     0
  9
$PDMODE
 70
     0
  9
$PDSIZE
 40
0.0
  9
$PLINEWID
 40
0.0
  9
$SPLFRAME
 70
     0
  9
$SPLINETYPE
 70
     6
  9
$SPLINESEGS
 70
     8
  9
$HANDSEED
  5
BA2E
  9
$SURFTAB1
 70
     6
  9
$SURFTAB2
 70
     6
  9
$SURFTYPE
 70
     6
  9
$SURFU
 70
     6
  9
$SURFV
 70
     6
  9
$UCSBASE
  2

  9
$UCSNAME
  2

  9
$UCSORG
 10
0.0
 20
0.0
 30
0.0
  9
$UCSXDIR
 10
1.0
 20
0.0
 30
0.0
  9
$UCSYDIR
 10
0.0
 20
1.0
 30
0.0
  9
$UCSORTHOREF
  2

  9
$UCSORTHOVIEW
 70
     0
  9
$UCSORGTOP
 10
0.0
 20
0.0
 30
0.0
  9
$UCSORGBOTTOM
 10
0.0
 20
0.0
 30
0.0
  9
$UCSORGLEFT
 10
0.0
 20
0.0
 30
0.0
  9
$UCSORGRIGHT
 10
0.0
 20
0.0
 30
0.0
  9
$UCSORGFRONT
 10
0.0
 20
0.0
 30
0.0
  9
$UCSORGBACK
 10
0.0
 20
0.0
 30
0.0
  9
$PUCSBASE
  2

  9
$PUCSNAME
  2

  9
$PUCSORG
 10
0.0
 20
0.0
 30
0.0
  9
$PUCSXDIR
 10
1.0
 20
0.0
 30
0.0
  9
$PUCSYDIR
 10
0.0
 20
1.0
 30
0.0
  9
$PUCSORTHOREF
  2

  9
$PUCSORTHOVIEW
 70
     0
  9
$PUCSORGTOP
 10
0.0
 20
0.0
 30
0.0
  9
$PUCSORGBOTTOM
 10
0.0
 20
0.0
 30
0.0
  9
$PUCSORGLEFT
 10
0.0
 20
0.0
 30
0.0
  9
$PUCSORGRIGHT
 10
0.0
 20
0.0
 30
0.0
  9
$PUCSORGFRONT
 10
0.0
 20
0.0
 30
0.0
  9
$PUCSORGBACK
 10
0.0
 20
0.0
 30
0.0
  9
$USERI1
 70
     0
  9
$USERI2
 70
     0
  9
$USERI3
 70
     0
  9
$USERI4
 70
     0
  9
$USERI5
 70
     0
  9
$USERR1
 40
0.0
  9
$USERR2
 40
0.0
  9
$USERR3
 40
0.0
  9
$USERR4
 40
0.0
  9
$USERR5
 40
0.0
  9
$WORLDVIEW
 70
     1
  9
$SHADEDGE
 70
     3
  9
$SHADEDIF
 70
    70
  9
$TILEMODE
 70
     1
  9
$MAXACTVP
 70
    16
  9
$PINSBASE
 10
0.0
 20
0.0
 30
0.0
  9
$PLIMCHECK
 70
     0
  9
$PEXTMIN
 10
1.000000000000000E+20
 20
1.000000000000000E+20
 30
1.000000000000000E+20
  9
$PEXTMAX
 10
-1.000000000000000E+20
 20
-1.000000000000000E+20
 30
-1.000000000000000E+20
  9
$PLIMMIN
 10
0.0
 20
0.0
  9
$PLIMMAX
 10
420.0
 20
297.0
  9
$UNITMODE
 70
     0
  9
$VISRETAIN
 70
     0
  9
$PLINEGEN
 70
     0
  9
$PSLTSCALE
 70
     0
  9
$TREEDEPTH
 70
  3020
  9
$CMLSTYLE
  2
STANDARD
  9
$CMLJUST
 70
     0
  9
$CMLSCALE
 40
1.0
  9
$PROXYGRAPHICS
 70
     1
  9
$MEASUREMENT
 70
     0
  9
$CELWEIGHT
370
    -1
  9
$ENDCAPS
280
     0
  9
$JOINSTYLE
280
     0
  9
$LWDISPLAY
290
     0
  9
$INSUNITS
 70
     0
  9
$HYPERLINKBASE
  1

  9
$STYLESHEET
  1

  9
$XEDIT
290
     1
  9
$CEPSNTYPE
380
     0
  9
$PSTYLEMODE
290
     1
  9
$FINGERPRINTGUID
  2
{6EEA08B6-1A83-4AA4-89F5-87DDAAFD0A88}
  9
$VERSIONGUID
  2
{2AD15FC8-FCE6-46BC-A5DF-0D41C9315916}
  9
$EXTNAMES
290
     1
  9
$PSVPSCALE
 40
0.0
  9
$OLESTARTUP
290
     0
  0
ENDSEC
  0
SECTION
  2
CLASSES
  0
CLASS
  1
ACDBDICTIONARYWDFLT
  2
AcDbDictionaryWithDefault
  3
ObjectDBX Classes
 90
        0
280
     0
281
     0
  0
CLASS
  1
ACDBPLACEHOLDER
  2
AcDbPlaceHolder
  3
ObjectDBX Classes
 90
        0
280
     0
281
     0
  0
CLASS
  1
LAYOUT
  2
AcDbLayout
  3
ObjectDBX Classes
 90
        0
280
     0
281
     0
  0
CLASS
  1
DICTIONARYVAR
  2
AcDbDictionaryVar
  3
ObjectDBX Classes
 90
        0
280
     0
281
     0
  0
CLASS
  1
MATERIAL
  2
AcDbMaterial
  3
ObjectDBX Classes
 90
     1153
280
     0
281
     0
  0
CLASS
  1
VISUALSTYLE
  2
AcDbVisualStyle
  3
ObjectDBX Classes
 90
     4095
280
     0
281
     0
  0
CLASS
  1
TABLESTYLE
  2
AcDbTableStyle
  3
ObjectDBX Classes
 90
     4095
280
     0
281
     0
  0
CLASS
  1
SCALE
  2
AcDbScale
  3
ObjectDBX Classes
 90
     1153
280
     0
281
     0
  0
CLASS
  1
MLEADERSTYLE
  2
AcDbMLeaderStyle
  3
ACDB_MLEADERSTYLE_CLASS
 90
     4095
280
     0
281
     0
  0
CLASS
  1
ACDBSECTIONVIEWSTYLE
  2
AcDbSectionViewStyle
  3
ObjectDBX Classes
 90
     1025
280
     0
281
     0
  0
CLASS
  1
ACDBDETAILVIEWSTYLE
  2
AcDbDetailViewStyle
  3
ObjectDBX Classes
 90
     1025
280
     0
281
     0
  0
CLASS
  1
CELLSTYLEMAP
  2
AcDbCellStyleMap
  3
ObjectDBX Classes
 90
     1152
280
     0
281
     0
  0
ENDSEC
  0
SECTION
  2
TABLES
  0
TABLE
  2
VPORT
  5
B52D
330
0
100
AcDbSymbolTable
 70
     1
  0
VPORT
  5
B977
330
B52D
100
AcDbSymbolTableRecord
100
AcDbViewportTableRecord
  2
*ACTIVE
 70
     0
 10
0.0
 20
0.0
 11
1.0
 21
1.0
 12
275.8398784503081
 22
165.2487095132513
 13
0.0
 23
0.0
 14
10.0
 24
10.0
 15
10.0
 25
10.0
 16
0.0
 26
0.0
 36
1.0
 17
0.0
 27
0.0
 37
0.0
 40
313.9543232635158
 41
2.35006605019815
 42
50.0
 43
0.0
 44
0.0
 50
0.0
 51
0.0
 71
     0
 72
   100
 73
     1
 74
     0
 75
     0
 76
     0
 77
     0
 78
     0
281
     0
 65
     1
110
0.0
120
0.0
130
0.0
111
1.0
121
0.0
131
0.0
112
0.0
122
1.0
132
0.0
 79
     0
146
0.0
1001
ACAD_NAV_VCDISPLAY
1070
     3
  0
ENDTAB
  0
TABLE
  2
LTYPE
  5
B52A
330
0
100
AcDbSymbolTable
 70
     4
  0
LTYPE
  5
B538
330
B52A
100
AcDbSymbolTableRecord
100
AcDbLinetypeTableRecord
  2
BYBLOCK
 70
     0
  3

 72
    65
 73
     0
 40
0.0
  0
LTYPE
  5
B539
330
B52A
100
AcDbSymbolTableRecord
100
AcDbLinetypeTableRecord
  2
BYLAYER
 70
     0
  3

 72
    65
 73
     0
 40
0.0
  0
LTYPE
  5
B53A
330
B52A
100
AcDbSymbolTableRecord
100
AcDbLinetypeTableRecord
  2
CONTINUOUS
 70
     0
  3
Solid line
 72
    65
 73
     0
 40
0.0
  0
LTYPE
  5
B548
330
B52A
100
AcDbSymbolTableRecord
100
AcDbLinetypeTableRecord
  2
DASHED
 70
     0
  3
__ __ __ __ __ __ __ __ __ __ __ __ __ __ __ __
 72
    65
 73
     2
 40
0.75
 49
0.5
 74
     0
 49
-0.25
 74
     0
  0
LTYPE
  5
B549
330
B52A
100
AcDbSymbolTableRecord
100
AcDbLinetypeTableRecord
  2
CENTER
 70
     0
  3
____ _ ____ _ ____ _ ____ _ ____ _ ____ _ ____ 
 72
    65
 73
     4
 40
2.0
 49
1.25
 74
     0
 49
-0.25
 74
     0
 49
0.25
 74
     0
 49
-0.25
 74
     0
  0
LTYPE
  5
B54A
330
B52A
100
AcDbSymbolTableRecord
100
AcDbLinetypeTableRecord
  2
PHANTOM
 70
     0
  3
______  __  __  ______  __  __  ______  __  __ 
 72
    65
 73
     6
 40
2.5
 49
1.25
 74
     0
 49
-0.25
 74
     0
 49
0.25
 74
     0
 49
-0.25
 74
     0
 49
0.25
 74
     0
 49
-0.25
 74
     0
  0
ENDTAB
  0
TABLE
  2
LAYER
  5
B527
330
0
100
AcDbSymbolTable
 70
     8
  0
LAYER
  5
B535
102
{ACAD_XDICTIONARY
360
B9D2
102
}
330
B527
100
AcDbSymbolTableRecord
100
AcDbLayerTableRecord
  2
0
 70
     0
 62
     7
  6
CONTINUOUS
370
    -3
390
B980
  0
LAYER
  5
B54B
102
{ACAD_XDICTIONARY
360
B9D4
102
}
330
B527
100
AcDbSymbolTableRecord
100
AcDbLayerTableRecord
  2
4
 70
     0
 62
     1
  6
CENTER
370
    -3
390
B980
  0
LAYER
  5
B54C
102
{ACAD_XDICTIONARY
360
B9D6
102
}
330
B527
100
AcDbSymbolTableRecord
100
AcDbLayerTableRecord
  2
5
 70
     0
 62
     6
  6
PHANTOM
370
    -3
390
B980
  0
LAYER
  5
B54D
102
{ACAD_XDICTIONARY
360
B9D8
102
}
330
B527
100
AcDbSymbolTableRecord
100
AcDbLayerTableRecord
  2
1
 70
     0
 62
     7
  6
CONTINUOUS
370
    -3
390
B980
  0
LAYER
  5
B54E
102
{ACAD_XDICTIONARY
360
B9DA
102
}
330
B527
100
AcDbSymbolTableRecord
100
AcDbLayerTableRecord
  2
2
 70
     0
 62
     4
  6
CONTINUOUS
370
    -3
390
B980
  0
LAYER
  5
B54F
102
{ACAD_XDICTIONARY
360
B9DC
102
}
330
B527
100
AcDbSymbolTableRecord
100
AcDbLayerTableRecord
  2
3
 70
     0
 62
     2
  6
DASHED
370
    -3
390
B980
  0
LAYER
  5
B550
102
{ACAD_XDICTIONARY
360
B9DE
102
}
330
B527
100
AcDbSymbolTableRecord
100
AcDbLayerTableRecord
  2
6
 70
     0
 62
     5
  6
CONTINUOUS
370
    -3
390
B980
  0
LAYER
  5
B551
102
{ACAD_XDICTIONARY
360
B9E0
102
}
330
B527
100
AcDbSymbolTableRecord
100
AcDbLayerTableRecord
  2
7
 70
     0
 62
     3
  6
CONTINUOUS
370
    -3
390
B980
  0
ENDTAB
  0
TABLE
  2
STYLE
  5
B528
330
0
100
AcDbSymbolTable
 70
     1
  0
STYLE
  5
B536
330
B528
100
AcDbSymbolTableRecord
100
AcDbTextStyleTableRecord
  2
STANDARD
 70
     0
 40
0.0
 41
1.0
 50
0.0
 71
     0
 42
5.0
  3
txt
  4

  0
ENDTAB
  0
TABLE
  2
VIEW
  5
B52B
330
0
100
AcDbSymbolTable
 70
     0
  0
ENDTAB
  0
TABLE
  2
UCS
  5
B52C
330
0
100
AcDbSymbolTable
 70
     0
  0
ENDTAB
  0
TABLE
  2
APPID
  5
B52E
330
0
100
AcDbSymbolTable
 70
     3
  0
APPID
  5
B537
330
B52E
100
AcDbSymbolTableRecord
100
AcDbRegAppTableRecord
  2
ACAD
 70
     0
  0
APPID
  5
B9EC
330
B52E
100
AcDbSymbolTableRecord
100
AcDbRegAppTableRecord
  2
ACAD_NAV_VCDISPLAY
 70
     0
  0
APPID
  5
BA25
330
B52E
100
AcDbSymbolTableRecord
100
AcDbRegAppTableRecord
  2
ACAD_MLEADERVER
 70
     0
  0
ENDTAB
  0
TABLE
  2
DIMSTYLE
  5
B52F
330
0
100
AcDbSymbolTable
 70
     1
100
AcDbDimStyleTable
 71
     0
  0
DIMSTYLE
105
B553
330
B52F
100
AcDbSymbolTableRecord
100
AcDbDimStyleTableRecord
  2
STANDARD
 70
     0
 41
3.0
 42
1.0
 43
10.0
 44
1.0
 73
     0
 74
     0
 77
     3
 78
     8
140
3.2
141
0.0
147
1.0
172
     1
173
     1
284
     8
285
     8
286
     8
340
B536
  0
ENDTAB
  0
TABLE
  2
BLOCK_RECORD
  5
B526
330
0
100
AcDbSymbolTable
 70
     1
  0
BLOCK_RECORD
  5
B543
102
{ACAD_XDICTIONARY
360
B97A
102
}
330
B526
100
AcDbSymbolTableRecord
100
AcDbBlockTableRecord
  2
*MODEL_SPACE
340
B9CE
  0
BLOCK_RECORD
  5
B53F
102
{ACAD_XDICTIONARY
360
B978
102
}
330
B526
100
AcDbSymbolTableRecord
100
AcDbBlockTableRecord
  2
*PAPER_SPACE
340
B9CF
  0
BLOCK_RECORD
  5
B55B
330
B526
100
AcDbSymbolTableRecord
100
AcDbBlockTableRecord
  2
_OPEN
340
0
  0
ENDTAB
  0
ENDSEC
  0
SECTION
  2
BLOCKS
  0
BLOCK
  5
B544
330
B543
100
AcDbEntity
  8
0
100
AcDbBlockBegin
  2
*MODEL_SPACE
 70
     0
 10
0.0
 20
0.0
 30
0.0
  3
*MODEL_SPACE
  1

  0
ENDBLK
  5
B545
330
B543
100
AcDbEntity
  8
0
100
AcDbBlockEnd
  0
BLOCK
  5
B540
330
B53F
100
AcDbEntity
 67
     1
  8
0
100
AcDbBlockBegin
  2
*PAPER_SPACE
 70
     0
 10
0.0
 20
0.0
 30
0.0
  3
*PAPER_SPACE
  1

  0
ENDBLK
  5
B541
330
B53F
100
AcDbEntity
 67
     1
  8
0
100
AcDbBlockEnd
  0
BLOCK
  5
B55C
330
B55B
100
AcDbEntity
  8
0
100
AcDbBlockBegin
  2
_OPEN
 70
     0
 10
0.0
 20
0.0
 30
0.0
  3
_OPEN
  1

  0
LINE
  5
B55D
330
B55B
100
AcDbEntity
  8
0
  6
ByBlock
 62
     0
100
AcDbLine
 10
-1.0
 20
0.166667
 30
0.0
 11
0.0
 21
0.0
 31
0.0
  0
LINE
  5
B55E
330
B55B
100
AcDbEntity
  8
0
  6
ByBlock
 62
     0
100
AcDbLine
 10
0.0
 20
0.0
 30
0.0
 11
-1.0
 21
-0.166667
 31
0.0
  0
LINE
  5
B55F
330
B55B
100
AcDbEntity
  8
0
  6
ByBlock
 62
     0
100
AcDbLine
 10
0.0
 20
0.0
 30
0.0
 11
-1.0
 21
0.0
 31
0.0
  0
ENDBLK
  5
B560
330
B55B
100
AcDbEntity
  8
0
100
AcDbBlockEnd
  0
ENDSEC
  0
SECTION
  2
ENTITIES
  0
TEXT
  5
B561
330
B543
100
AcDbEntity
  8
7
  6
Continuous
100
AcDbText
 10
10.0
 20
18.0
 30
0.0
 40
3.0
  1
TYPE No.203S d=19
100
AcDbText
  0
TEXT
  5
B562
330
B543
100
AcDbEntity
  8
7
  6
Continuous
100
AcDbText
 10
10.0
 20
26.0
 30
0.0
 40
3.0
  1
CODE No.9172
100
AcDbText
  0
TEXT
  5
B563
330
B543
100
AcDbEntity
  8
1
  6
Continuous
100
AcDbText
 10
10.0
 20
10.0
 30
0.0
 40
1.399999999999999
  1
LAYER
100
AcDbText
  0
TEXT
  5
B564
330
B543
100
AcDbEntity
  8
1
  6
Continuous
100
AcDbText
 10
17.97951099999998
 20
10.04873699999998
 30
0.0
 40
1.399999999999999
  1
1
100
AcDbText
  0
TEXT
  5
B565
330
B543
100
AcDbEntity
  8
7
  6
Continuous
100
AcDbText
 10
29.97951099999999
 20
10.04873699999998
 30
0.0
 40
1.399999999999999
  1
7
100
AcDbText
  0
TEXT
  5
B566
330
B543
100
AcDbEntity
  8
4
  6
CENTER
100
AcDbText
 10
23.97951099999999
 20
10.04873699999998
 30
0.0
 40
1.399999999999999
  1
4
100
AcDbText
  0
TEXT
  5
B567
330
B543
100
AcDbEntity
  8
3
  6
DASHED
100
AcDbText
 10
21.979511
 20
10.04873699999998
 30
0.0
 40
1.399999999999999
  1
3
100
AcDbText
  0
TEXT
  5
B568
330
B543
100
AcDbEntity
  8
2
  6
Continuous
100
AcDbText
 10
19.97951099999999
 20
10.04873699999998
 30
0.0
 40
1.399999999999999
  1
2
100
AcDbText
  0
TEXT
  5
B569
330
B543
100
AcDbEntity
  8
6
  6
Continuous
100
AcDbText
 10
27.979511
 20
10.04873699999998
 30
0.0
 40
1.399999999999999
  1
6
100
AcDbText
  0
TEXT
  5
B56A
330
B543
100
AcDbEntity
  8
5
  6
PHANTOM
100
AcDbText
 10
25.97951099999999
 20
10.04873699999998
 30
0.0
 40
1.399999999999999
  1
5
100
AcDbText
  0
LINE
  5
B56B
330
B543
100
AcDbEntity
  8
1
  6
Continuous
100
AcDbLine
 10
247.213203
 20
187.371179
 30
0.0
 11
247.213203
 21
166.971179
 31
0.0
  0
ARC
  5
B56C
330
B543
100
AcDbEntity
  8
1
  6
Continuous
100
AcDbCircle
 10
212.5132029999998
 20
187.371179
 30
0.0
 40
3.0
100
AcDbArc
 50
90.0
 51
180.0
  0
ARC
  5
B56D
330
B543
100
AcDbEntity
  8
1
  6
Continuous
100
AcDbCircle
 10
244.2132029999999
 20
187.371179
 30
0.0
 40
3.0
100
AcDbArc
 50
0.0
 51
90.0
  0
LINE
  5
B56E
330
B543
100
AcDbEntity
  8
1
  6
Continuous
100
AcDbLine
 10
212.1131039999999
 20
190.371237
 30
0.0
 11
244.613104
 21
190.3710429999999
 31
0.0
  0
LINE
  5
B56F
330
B543
100
AcDbEntity
  8
1
  6
Continuous
100
AcDbLine
 10
215.115879
 20
183.667428
 30
0.0
 11
241.610528
 21
183.667428
 31
0.0
  0
ARC
  5
B570
330
B543
100
AcDbEntity
  8
1
  6
Continuous
100
AcDbCircle
 10
241.610528
 20
179.718738
 30
0.0
 40
3.94869
100
AcDbArc
 50
33.136856
 51
90.0
  0
ARC
  5
B571
330
B543
100
AcDbEntity
  8
1
  6
Continuous
100
AcDbCircle
 10
233.0944479999998
 20
174.159366
 30
0.0
 40
14.11875499999999
100
AcDbArc
 50
0.0
 51
33.136856
  0
ARC
  5
B572
330
B543
100
AcDbEntity
  8
1
  6
Continuous
100
AcDbCircle
 10
231.953684
 20
174.0758109999999
 30
0.0
 40
13.262575
100
AcDbArc
 50
4.189117999999997
 51
46.32007700000001
  0
ARC
  5
B573
330
B543
100
AcDbEntity
  8
1
  6
Continuous
100
AcDbCircle
 10
215.115879
 20
179.718738
 30
0.0
 40
3.94869
100
AcDbArc
 50
90.0
 51
146.863144
  0
ARC
  5
B574
330
B543
100
AcDbEntity
  8
1
  6
Continuous
100
AcDbCircle
 10
223.6319589999999
 20
174.159366
 30
0.0
 40
14.11875499999999
100
AcDbArc
 50
146.863144
 51
180.0
  0
LINE
  5
B575
330
B543
100
AcDbEntity
  8
1
  6
Continuous
100
AcDbLine
 10
218.3632029999999
 20
180.086741
 30
0.0
 11
218.3632029999999
 21
135.279334
 31
0.0
  0
LINE
  5
B576
330
B543
100
AcDbEntity
  8
1
  6
Continuous
100
AcDbLine
 10
216.8632029999999
 20
166.1830379999998
 30
0.0
 11
216.8632029999999
 21
149.1830379999998
 31
0.0
  0
LINE
  5
B577
330
B543
100
AcDbEntity
  8
1
  6
Continuous
100
AcDbLine
 10
216.8632029999999
 20
166.1830379999998
 30
0.0
 11
218.3632029999999
 21
166.1830379999998
 31
0.0
  0
ARC
  5
B578
330
B543
100
AcDbEntity
  8
1
  6
Continuous
100
AcDbCircle
 10
228.3632029999999
 20
147.6830379999998
 30
0.0
 40
35.0
100
AcDbArc
 50
75.30157599999999
 51
104.698424
  0
ARC
  5
B579
330
B543
100
AcDbEntity
  8
1
  6
Continuous
100
AcDbCircle
 10
219.8632029999999
 20
180.086741
 30
0.0
 40
1.5
100
AcDbArc
 50
104.698424
 51
180.0
  0
LINE
  5
B57A
330
B543
100
AcDbEntity
  8
1
  6
Continuous
100
AcDbLine
 10
238.3632029999999
 20
180.086741
 30
0.0
 11
238.3632029999999
 21
135.279334
 31
0.0
  0
LINE
  5
B57B
330
B543
100
AcDbEntity
  8
1
  6
Continuous
100
AcDbLine
 10
239.8632029999999
 20
166.1830379999998
 30
0.0
 11
238.3632029999999
 21
166.1830379999998
 31
0.0
  0
ARC
  5
B57C
330
B543
100
AcDbEntity
  8
1
  6
Continuous
100
AcDbCircle
 10
236.8632029999999
 20
180.086741
 30
0.0
 40
1.5
100
AcDbArc
 50
0.0
 51
75.30157599999999
  0
LINE
  5
B57D
330
B543
100
AcDbEntity
  8
1
  6
Continuous
100
AcDbLine
 10
216.8632029999999
 20
149.1830379999998
 30
0.0
 11
218.3632029999999
 21
149.1830379999998
 31
0.0
  0
ARC
  5
B57E
330
B543
100
AcDbEntity
  8
1
  6
Continuous
100
AcDbCircle
 10
228.3632029999999
 20
167.6830379999999
 30
0.0
 40
35.0
100
AcDbArc
 50
255.301576
 51
284.6984239999999
  0
ARC
  5
B57F
330
B543
100
AcDbEntity
  8
1
  6
Continuous
100
AcDbCircle
 10
219.8632029999999
 20
135.279334
 30
0.0
 40
1.5
100
AcDbArc
 50
180.0
 51
255.301576
  0
LINE
  5
B580
330
B543
100
AcDbEntity
  8
1
  6
Continuous
100
AcDbLine
 10
239.8632029999999
 20
149.1830379999998
 30
0.0
 11
238.3632029999999
 21
149.1830379999998
 31
0.0
  0
ARC
  5
B581
330
B543
100
AcDbEntity
  8
1
  6
Continuous
100
AcDbCircle
 10
236.8632029999999
 20
135.279334
 30
0.0
 40
1.5
100
AcDbArc
 50
284.6984239999999
 51
0.0
  0
LINE
  5
B582
330
B543
100
AcDbEntity
  8
1
  6
Continuous
100
AcDbLine
 10
239.8632029999999
 20
166.1830379999998
 30
0.0
 11
239.8632029999999
 21
149.1830379999998
 31
0.0
  0
LINE
  5
B583
330
B543
100
AcDbEntity
  8
1
  6
Continuous
100
AcDbLine
 10
215.8632029999999
 20
160.6830379999999
 30
0.0
 11
216.8632029999999
 21
160.6830379999999
 31
0.0
  0
LINE
  5
B584
330
B543
100
AcDbEntity
  8
1
  6
Continuous
100
AcDbLine
 10
239.8632029999999
 20
160.6830379999999
 30
0.0
 11
240.8632029999999
 21
160.6830379999999
 31
0.0
  0
LINE
  5
B585
330
B543
100
AcDbEntity
  8
1
  6
Continuous
100
AcDbLine
 10
215.8632029999999
 20
154.6830379999998
 30
0.0
 11
216.8632029999999
 21
154.6830379999998
 31
0.0
  0
LINE
  5
B586
330
B543
100
AcDbEntity
  8
1
  6
Continuous
100
AcDbLine
 10
239.8632029999999
 20
154.6830379999998
 30
0.0
 11
240.8632029999999
 21
154.6830379999998
 31
0.0
  0
LINE
  5
B587
330
B543
100
AcDbEntity
  8
4
  6
CENTER
100
AcDbLine
 10
176.0146189999999
 20
296.634862
 30
0.0
 11
103.715027
 21
296.634862
 31
0.0
  0
LINE
  5
B588
330
B543
100
AcDbEntity
  8
4
  6
CENTER
100
AcDbLine
 10
152.164619
 20
320.484862
 30
0.0
 11
152.164619
 21
272.7848619999999
 31
0.0
  0
LINE
  5
B589
330
B543
100
AcDbEntity
  8
4
  6
CENTER
100
AcDbLine
 10
228.3632029999999
 20
239.53127
 30
0.0
 11
228.3632029999999
 21
127.6830379999999
 31
0.0
  0
LINE
  5
B58A
330
B543
100
AcDbEntity
  8
4
  6
CENTER
100
AcDbLine
 10
199.863403
 20
157.6830379999998
 30
0.0
 11
249.863443
 21
157.6830379999998
 31
0.0
  0
LINE
  5
B58B
330
B543
100
AcDbEntity
  8
4
  6
CENTER
100
AcDbLine
 10
103.164626
 20
157.6822369999999
 30
0.0
 11
163.164626
 21
157.6822369999999
 31
0.0
  0
LINE
  5
B58C
330
B543
100
AcDbEntity
  8
1
  6
Continuous
100
AcDbLine
 10
135.717126
 20
187.550838
 30
0.0
 11
132.0371259999998
 21
187.5070279999999
 31
0.0
  0
ARC
  5
B58D
330
B543
100
AcDbEntity
  8
1
  6
Continuous
100
AcDbCircle
 10
133.5146259999999
 20
156.732237
 30
0.0
 40
7.5
100
AcDbArc
 50
221.016873
 51
277.6844179999998
  0
ARC
  5
B58E
330
B543
100
AcDbEntity
  8
1
  6
Continuous
100
AcDbCircle
 10
133.164626
 20
157.6822369999999
 30
0.0
 40
8.5
100
AcDbArc
 50
215.770985
 51
279.319315
  0
ARC
  5
B58F
330
B543
100
AcDbEntity
  8
1
  6
Continuous
100
AcDbCircle
 10
133.164626
 20
157.6822369999999
 30
0.0
 40
17.5
100
AcDbArc
 50
107.378525
 51
144.752443
  0
ARC
  5
B590
330
B543
100
AcDbEntity
  8
1
  6
Continuous
100
AcDbCircle
 10
133.164626
 20
157.6822369999999
 30
0.0
 40
25.0
100
AcDbArc
 50
99.78061099999999
 51
147.9938109999999
  0
LINE
  5
B591
330
B543
100
AcDbEntity
  8
1
  6
Continuous
100
AcDbLine
 10
141.0146259999999
 20
186.633782
 30
0.0
 11
141.0146259999999
 21
162.276283
 31
0.0
  0
ARC
  5
B592
330
B543
100
AcDbEntity
  8
1
  6
Continuous
100
AcDbCircle
 10
205.7691629999999
 20
136.558325
 30
0.0
 40
63.35981999999999
100
AcDbArc
 50
134.0470019999999
 51
143.333821
  0
LINE
  5
B593
330
B543
100
AcDbEntity
  8
4
  6
CENTER
100
AcDbLine
 10
152.1646259999999
 20
239.53127
 30
0.0
 11
152.1646259999999
 21
167.1422599999999
 31
0.0
  0
ARC
  5
B594
330
B543
100
AcDbEntity
  8
1
  6
Continuous
100
AcDbCircle
 10
268.1828499999999
 20
90.093882
 30
0.0
 40
141.169928
100
AcDbArc
 50
143.333821
 51
147.9917129999998
  0
ARC
  5
B595
330
B543
100
AcDbEntity
  8
1
  6
Continuous
100
AcDbCircle
 10
165.5442449999999
 20
178.144123
 30
0.0
 40
5.502905999999999
100
AcDbArc
 50
90.0
 51
134.0470019999999
  0
LINE
  5
B596
330
B543
100
AcDbEntity
  8
1
  6
Continuous
100
AcDbLine
 10
169.3501259999998
 20
183.5870279999998
 30
0.0
 11
169.127126
 21
183.647028
 31
0.0
  0
LINE
  5
B597
330
B543
100
AcDbEntity
  8
1
  6
Continuous
100
AcDbLine
 10
169.127126
 20
183.647028
 30
0.0
 11
165.5442449999999
 21
183.647028
 31
0.0
  0
LINE
  5
B598
330
B543
100
AcDbEntity
  8
1
  6
Continuous
100
AcDbLine
 10
170.764126
 20
183.6743669999999
 30
0.0
 11
170.015126
 21
183.6320279999999
 31
0.0
  0
ARC
  5
B599
330
B543
100
AcDbEntity
  8
1
  6
Continuous
100
AcDbCircle
 10
167.9451409999998
 20
187.7889979999999
 30
0.0
 40
2.732905
100
AcDbArc
 50
0.0
 51
70.822161
  0
LINE
  5
B59A
330
B543
100
AcDbEntity
  8
1
  6
Continuous
100
AcDbLine
 10
170.015126
 20
183.6320279999999
 30
0.0
 11
169.3501259999998
 21
183.5870279999998
 31
0.0
  0
ARC
  5
B59B
330
B543
100
AcDbEntity
  8
1
  6
Continuous
100
AcDbCircle
 10
136.8794169999999
 20
187.2558689999999
 30
0.0
 40
3.266183999999998
100
AcDbArc
 50
107.537707
 51
141.743298
  0
ARC
  5
B59C
330
B543
100
AcDbEntity
  8
1
  6
Continuous
100
AcDbCircle
 10
137.810311
 20
186.521835
 30
0.0
 40
4.451666999999998
100
AcDbArc
 50
141.743298
 51
156.849068
  0
LINE
  5
B59D
330
B543
100
AcDbEntity
  8
1
  6
Continuous
100
AcDbLine
 10
133.717126
 20
188.272028
 30
0.0
 11
133.5721259999999
 21
187.837028
 31
0.0
  0
LINE
  5
B59E
330
B543
100
AcDbEntity
  8
1
  6
Continuous
100
AcDbLine
 10
133.5721259999999
 20
187.837028
 30
0.0
 11
133.232126
 21
187.6370279999999
 31
0.0
  0
LINE
  5
B59F
330
B543
100
AcDbEntity
  8
1
  6
Continuous
100
AcDbLine
 10
133.232126
 20
187.6370279999999
 30
0.0
 11
133.062126
 21
187.552028
 31
0.0
  0
LINE
  5
B5A0
330
B543
100
AcDbEntity
  8
1
  6
Continuous
100
AcDbLine
 10
133.062126
 20
187.552028
 30
0.0
 11
132.877126
 21
187.517028
 31
0.0
  0
ARC
  5
B5A1
330
B543
100
AcDbEntity
  8
1
  6
Continuous
100
AcDbCircle
 10
135.6928139999999
 20
189.593062
 30
0.0
 40
2.042368999999998
100
AcDbArc
 50
270.6820599999999
 51
340.178191
  0
LINE
  5
B5A2
330
B543
100
AcDbEntity
  8
1
  6
Continuous
100
AcDbLine
 10
130.877126
 20
187.497028
 30
0.0
 11
127.658798
 21
187.5613949999998
 31
0.0
  0
LINE
  5
B5A3
330
B543
100
AcDbEntity
  8
1
  6
Continuous
100
AcDbLine
 10
132.0371259999998
 20
187.5070279999999
 30
0.0
 11
131.442126
 21
187.487028
 31
0.0
  0
LINE
  5
B5A4
330
B543
100
AcDbEntity
  8
1
  6
Continuous
100
AcDbLine
 10
131.442126
 20
187.487028
 30
0.0
 11
130.877126
 21
187.497028
 31
0.0
  0
ARC
  5
B5A5
330
B543
100
AcDbEntity
  8
1
  6
Continuous
100
AcDbCircle
 10
127.631779
 20
186.210488
 30
0.0
 40
1.351175999999999
100
AcDbArc
 50
88.85423700000002
 51
129.236686
  0
LINE
  5
B5A6
330
B543
100
AcDbEntity
  8
1
  6
Continuous
100
AcDbLine
 10
129.217126
 20
185.5300409999999
 30
0.0
 11
126.9481689999998
 21
185.563798
 31
0.0
  0
LINE
  5
B5A7
330
B543
100
AcDbEntity
  8
1
  6
Continuous
100
AcDbLine
 10
126.7771259999999
 20
187.2570279999999
 30
0.0
 11
126.717126
 21
186.3420279999999
 31
0.0
  0
LINE
  5
B5A8
330
B543
100
AcDbEntity
  8
1
  6
Continuous
100
AcDbLine
 10
126.717126
 20
186.3420279999999
 30
0.0
 11
126.717126
 21
185.6570279999999
 31
0.0
  0
ARC
  5
B5A9
330
B543
100
AcDbEntity
  8
1
  6
Continuous
100
AcDbCircle
 10
126.953311
 20
185.9094419999999
 30
0.0
 40
0.345682
100
AcDbArc
 50
226.9023309999998
 51
269.1476279999998
  0
LINE
  5
B5AA
330
B543
100
AcDbEntity
  8
1
  6
Continuous
100
AcDbLine
 10
209.513203
 20
187.371179
 30
0.0
 11
209.513203
 21
166.971179
 31
0.0
  0
ARC
  5
B5AB
330
B543
100
AcDbEntity
  8
1
  6
Continuous
100
AcDbCircle
 10
56.366049
 20
135.279334
 30
0.0
 40
1.5
100
AcDbArc
 50
284.6984239999999
 51
0.0
  0
ARC
  5
B5AC
330
B543
100
AcDbEntity
  8
1
  6
Continuous
100
AcDbCircle
 10
47.86604899999999
 20
167.6830379999999
 30
0.0
 40
35.0
100
AcDbArc
 50
255.301576
 51
284.6984239999999
  0
ARC
  5
B5AD
330
B543
100
AcDbEntity
  8
1
  6
Continuous
100
AcDbCircle
 10
39.36604899999998
 20
135.279334
 30
0.0
 40
1.5
100
AcDbArc
 50
180.0
 51
255.301576
  0
LINE
  5
B5AE
330
B543
100
AcDbEntity
  8
4
  6
CENTER
100
AcDbLine
 10
76.36584899999999
 20
157.6830379999998
 30
0.0
 11
26.365809
 21
157.6830379999998
 31
0.0
  0
ARC
  5
B5AF
330
B543
100
AcDbEntity
  8
1
  6
Continuous
100
AcDbCircle
 10
56.366049
 20
180.086741
 30
0.0
 40
1.5
100
AcDbArc
 50
0.0
 51
75.30157599999999
  0
LINE
  5
B5B0
330
B543
100
AcDbEntity
  8
1
  6
Continuous
100
AcDbLine
 10
57.866049
 20
180.086741
 30
0.0
 11
57.866049
 21
135.279334
 31
0.0
  0
LINE
  5
B5B1
330
B543
100
AcDbEntity
  8
1
  6
Continuous
100
AcDbLine
 10
59.36604899999998
 20
159.83077
 30
0.0
 11
59.36604899999998
 21
149.1830379999998
 31
0.0
  0
LINE
  5
B5B2
330
B543
100
AcDbEntity
  8
1
  6
Continuous
100
AcDbLine
 10
59.36604899999998
 20
149.1830379999998
 30
0.0
 11
57.866049
 21
149.1830379999998
 31
0.0
  0
LINE
  5
B5B3
330
B543
100
AcDbEntity
  8
1
  6
Continuous
100
AcDbLine
 10
60.366049
 20
154.6830379999998
 30
0.0
 11
59.36604899999998
 21
154.6830379999998
 31
0.0
  0
LINE
  5
B5B4
330
B543
100
AcDbEntity
  8
1
  6
Continuous
100
AcDbLine
 10
58.47234199999999
 20
166.1830379999998
 30
0.0
 11
57.866049
 21
166.1830379999998
 31
0.0
  0
ARC
  5
B5B5
330
B543
100
AcDbEntity
  8
1
  6
Continuous
100
AcDbCircle
 10
39.36604899999998
 20
180.086741
 30
0.0
 40
1.5
100
AcDbArc
 50
104.698424
 51
180.0
  0
LINE
  5
B5B6
330
B543
100
AcDbEntity
  8
1
  6
Continuous
100
AcDbLine
 10
37.86604899999999
 20
180.086741
 30
0.0
 11
37.86604899999999
 21
135.279334
 31
0.0
  0
LINE
  5
B5B7
330
B543
100
AcDbEntity
  8
1
  6
Continuous
100
AcDbLine
 10
36.366049
 20
166.1830379999998
 30
0.0
 11
36.366049
 21
149.1830379999998
 31
0.0
  0
LINE
  5
B5B8
330
B543
100
AcDbEntity
  8
1
  6
Continuous
100
AcDbLine
 10
36.366049
 20
149.1830379999998
 30
0.0
 11
37.86604899999999
 21
149.1830379999998
 31
0.0
  0
LINE
  5
B5B9
330
B543
100
AcDbEntity
  8
1
  6
Continuous
100
AcDbLine
 10
36.366049
 20
166.1830379999998
 30
0.0
 11
37.86604899999999
 21
166.1830379999998
 31
0.0
  0
ARC
  5
B5BA
330
B543
100
AcDbEntity
  8
1
  6
Continuous
100
AcDbCircle
 10
47.86604899999999
 20
147.6830379999998
 30
0.0
 40
35.0
100
AcDbArc
 50
75.30157599999999
 51
104.698424
  0
LINE
  5
B5BB
330
B543
100
AcDbEntity
  8
4
  6
CENTER
100
AcDbLine
 10
47.86604899999999
 20
239.53127
 30
0.0
 11
47.86604899999999
 21
127.6830379999999
 31
0.0
  0
LINE
  5
B5BC
330
B543
100
AcDbEntity
  8
1
  6
Continuous
100
AcDbLine
 10
31.61595
 20
190.371237
 30
0.0
 11
64.116049
 21
190.3710439999999
 31
0.0
  0
ARC
  5
B5BD
330
B543
100
AcDbEntity
  8
1
  6
Continuous
100
AcDbCircle
 10
37.11580899999999
 20
183.5820179999998
 30
0.0
 40
3.75
100
AcDbArc
 50
90.0
 51
180.0
  0
LINE
  5
B5BE
330
B543
100
AcDbEntity
  8
1
  6
Continuous
100
AcDbLine
 10
33.36580899999999
 20
149.2463159999998
 30
0.0
 11
35.36604899999999
 21
149.2463159999998
 31
0.0
  0
ARC
  5
B5BF
330
B543
100
AcDbEntity
  8
1
  6
Continuous
100
AcDbCircle
 10
55.731462
 20
167.6032299999999
 30
0.0
 40
26.722888
100
AcDbArc
 50
181.355289
 51
204.692905
  0
LINE
  5
B5C0
330
B543
100
AcDbEntity
  8
1
  6
Continuous
100
AcDbLine
 10
33.36580899999999
 20
183.5820179999998
 30
0.0
 11
33.36580899999999
 21
149.2463159999998
 31
0.0
  0
LINE
  5
B5C1
330
B543
100
AcDbEntity
  8
1
  6
Continuous
100
AcDbLine
 10
32.432493
 20
161.9330379999999
 30
0.0
 11
32.432493
 21
153.4330379999999
 31
0.0
  0
ARC
  5
B5C2
330
B543
100
AcDbEntity
  8
1
  6
Continuous
100
AcDbCircle
 10
40.36580899999999
 20
157.6830379999998
 30
0.0
 40
9.0
100
AcDbArc
 50
151.821357
 51
208.178643
  0
LINE
  5
B5C3
330
B543
100
AcDbEntity
  8
1
  6
Continuous
100
AcDbLine
 10
33.36580899999999
 20
153.4330379999999
 30
0.0
 11
32.432493
 21
153.4330379999999
 31
0.0
  0
LINE
  5
B5C4
330
B543
100
AcDbEntity
  8
1
  6
Continuous
100
AcDbLine
 10
29.016049
 20
187.371179
 30
0.0
 11
29.016049
 21
166.971179
 31
0.0
  0
LINE
  5
B5C5
330
B543
100
AcDbEntity
  8
1
  6
Continuous
100
AcDbLine
 10
33.36580899999999
 20
161.9330379999999
 30
0.0
 11
32.432493
 21
161.9330379999999
 31
0.0
  0
ARC
  5
B5C6
330
B543
100
AcDbEntity
  8
1
  6
Continuous
100
AcDbCircle
 10
32.23066699999999
 20
187.1490939999999
 30
0.0
 40
3.22228
100
AcDbArc
 50
89.37084
 51
176.0479389999999
  0
ARC
  5
B5C7
330
B543
100
AcDbEntity
  8
1
  6
Continuous
100
AcDbCircle
 10
40.006289
 20
167.440484
 30
0.0
 40
26.713884
100
AcDbArc
 50
353.4437459999999
 51
358.9933849999999
  0
LINE
  5
B5C8
330
B543
100
AcDbEntity
  8
1
  6
Continuous
100
AcDbLine
 10
35.36604899999999
 20
183.5904239999999
 30
0.0
 11
35.36604899999999
 21
149.2463159999998
 31
0.0
  0
LINE
  5
B5C9
330
B543
100
AcDbEntity
  8
1
  6
Continuous
100
AcDbLine
 10
60.366049
 20
183.5904239999999
 30
0.0
 11
60.366049
 21
172.2873889999999
 31
0.0
  0
LINE
  5
B5CA
330
B543
100
AcDbEntity
  8
1
  6
Continuous
100
AcDbLine
 10
62.366289
 20
183.5820179999998
 30
0.0
 11
62.366289
 21
172.2902159999999
 31
0.0
  0
LINE
  5
B5CB
330
B543
100
AcDbEntity
  8
1
  6
Continuous
100
AcDbLine
 10
35.36604899999999
 20
154.6830379999998
 30
0.0
 11
36.366049
 21
154.6830379999998
 31
0.0
  0
LINE
  5
B5CC
330
B543
100
AcDbEntity
  8
1
  6
Continuous
100
AcDbLine
 10
60.366049
 20
149.2463159999998
 30
0.0
 11
62.366289
 21
149.2463159999998
 31
0.0
  0
ARC
  5
B5CD
330
B543
100
AcDbEntity
  8
1
  6
Continuous
100
AcDbCircle
 10
63.50143199999997
 20
187.1490939999999
 30
0.0
 40
3.22228
100
AcDbArc
 50
3.952061
 51
90.62915999999999
  0
LINE
  5
B5CE
330
B543
100
AcDbEntity
  8
1
  6
Continuous
100
AcDbLine
 10
66.716049
 20
187.371179
 30
0.0
 11
66.716049
 21
172.250218
 31
0.0
  0
LINE
  5
B5CF
330
B543
100
AcDbEntity
  8
1
  6
Continuous
100
AcDbLine
 10
35.36604899999999
 20
160.6830379999999
 30
0.0
 11
36.366049
 21
160.6830379999999
 31
0.0
  0
LINE
  5
B5D0
330
B543
100
AcDbEntity
  8
1
  6
Continuous
100
AcDbLine
 10
37.11604899999999
 20
185.340424
 30
0.0
 11
58.61604899999999
 21
185.340424
 31
0.0
  0
LINE
  5
B5D1
330
B543
100
AcDbEntity
  8
1
  6
Continuous
100
AcDbLine
 10
37.11580899999999
 20
187.332018
 30
0.0
 11
58.616289
 21
187.332018
 31
0.0
  0
ARC
  5
B5D2
330
B543
100
AcDbEntity
  8
1
  6
Continuous
100
AcDbCircle
 10
37.11604899999999
 20
183.5904239999999
 30
0.0
 40
1.75
100
AcDbArc
 50
90.0
 51
180.0
  0
ARC
  5
B5D3
330
B543
100
AcDbEntity
  8
1
  6
Continuous
100
AcDbCircle
 10
58.616289
 20
183.5820179999998
 30
0.0
 40
3.75
100
AcDbArc
 50
0.0
 51
90.0
  0
ARC
  5
B5D4
330
B543
100
AcDbEntity
  8
1
  6
Continuous
100
AcDbCircle
 10
58.61604899999999
 20
183.5904239999999
 30
0.0
 40
1.75
100
AcDbArc
 50
0.0
 51
90.0
  0
LINE
  5
B5D5
330
B543
100
AcDbEntity
  8
1
  6
Continuous
100
AcDbLine
 10
240.8632029999999
 20
183.5904239999999
 30
0.0
 11
240.8632029999999
 21
149.2463159999998
 31
0.0
  0
LINE
  5
B5D6
330
B543
100
AcDbEntity
  8
1
  6
Continuous
100
AcDbLine
 10
215.8632029999999
 20
183.5904239999999
 30
0.0
 11
215.8632029999999
 21
149.2463159999998
 31
0.0
  0
ARC
  5
B5D7
330
B543
100
AcDbEntity
  8
1
  6
Continuous
100
AcDbCircle
 10
236.1134429999999
 20
157.6830379999998
 30
0.0
 40
9.0
100
AcDbArc
 50
331.8213569999999
 51
355.5531859999998
  0
LINE
  5
B5D8
330
B543
100
AcDbEntity
  8
1
  6
Continuous
100
AcDbLine
 10
244.0467589999999
 20
154.817337
 30
0.0
 11
244.0467589999999
 21
153.4330379999999
 31
0.0
  0
LINE
  5
B5D9
330
B543
100
AcDbEntity
  8
1
  6
Continuous
100
AcDbLine
 10
243.4357299999998
 20
153.4330379999999
 30
0.0
 11
244.0467589999999
 21
153.4330379999999
 31
0.0
  0
LINE
  5
B5DA
330
B543
100
AcDbEntity
  8
1
  6
Continuous
100
AcDbLine
 10
129.4032709999999
 20
187.5265049999999
 30
0.0
 11
126.953979
 21
165.561912
 31
0.0
  0
LINE
  5
B5DB
330
B543
100
AcDbEntity
  8
4
  6
CENTER
100
AcDbLine
 10
176.0146189999999
 20
70.009612
 30
0.0
 11
103.164626
 21
70.009612
 31
0.0
  0
LINE
  5
B5DC
330
B543
100
AcDbEntity
  8
4
  6
CENTER
100
AcDbLine
 10
152.164619
 20
46.159612
 30
0.0
 11
152.164619
 21
93.859612
 31
0.0
  0
LINE
  5
B5DD
330
B543
100
AcDbEntity
  8
1
  6
Continuous
100
AcDbLine
 10
137.8128769999999
 20
57.50961199999998
 30
0.0
 11
126.07531
 21
57.50961199999998
 31
0.0
  0
LINE
  5
B5DE
330
B543
100
AcDbEntity
  8
1
  6
Continuous
100
AcDbLine
 10
137.8132369999999
 20
55.50937199999999
 30
0.0
 11
126.07531
 21
55.50937199999999
 31
0.0
  0
LINE
  5
B5DF
330
B543
100
AcDbEntity
  8
1
  6
Continuous
100
AcDbLine
 10
137.8128769999999
 20
82.509612
 30
0.0
 11
126.07531
 21
82.509612
 31
0.0
  0
LINE
  5
B5E0
330
B543
100
AcDbEntity
  8
4
  6
CENTER
100
AcDbLine
 10
133.164626
 20
127.682237
 30
0.0
 11
133.164626
 21
185.6822369999999
 31
0.0
  0
LINE
  5
B5E1
330
B543
100
AcDbEntity
  8
1
  6
Continuous
100
AcDbLine
 10
126.07531
 20
55.50937199999999
 30
0.0
 11
126.07531
 21
57.50961199999998
 31
0.0
  0
LINE
  5
B5E2
330
B543
100
AcDbEntity
  8
1
  6
Continuous
100
AcDbLine
 10
126.07531
 20
82.509612
 30
0.0
 11
126.07531
 21
84.50985199999998
 31
0.0
  0
ARC
  5
B5E3
330
B543
100
AcDbEntity
  8
1
  6
Continuous
100
AcDbCircle
 10
152.164619
 20
70.009612
 30
0.0
 40
13.6
100
AcDbArc
 50
227.332075
 51
91.34108699999996
  0
ARC
  5
B5E4
330
B543
100
AcDbEntity
  8
1
  6
Continuous
100
AcDbCircle
 10
152.164619
 20
70.009612
 30
0.0
 40
12.0
100
AcDbArc
 50
236.44269
 51
123.55731
  0
LINE
  5
B5E5
330
B543
100
AcDbEntity
  8
1
  6
Continuous
100
AcDbLine
 10
110.760923
 20
80.009612
 30
0.0
 11
155.56833
 21
80.009612
 31
0.0
  0
ARC
  5
B5E6
330
B543
100
AcDbEntity
  8
1
  6
Continuous
100
AcDbCircle
 10
123.1646259999999
 20
70.009612
 30
0.0
 40
35.0
100
AcDbArc
 50
345.3015759999999
 51
14.698424
  0
ARC
  5
B5E7
330
B543
100
AcDbEntity
  8
1
  6
Continuous
100
AcDbCircle
 10
155.56833
 20
78.509612
 30
0.0
 40
1.5
100
AcDbArc
 50
14.698424
 51
90.0
  0
LINE
  5
B5E8
330
B543
100
AcDbEntity
  8
1
  6
Continuous
100
AcDbLine
 10
110.760923
 20
60.00961199999998
 30
0.0
 11
155.56833
 21
60.00961199999998
 31
0.0
  0
ARC
  5
B5E9
330
B543
100
AcDbEntity
  8
1
  6
Continuous
100
AcDbCircle
 10
155.56833
 20
61.509612
 30
0.0
 40
1.5
100
AcDbArc
 50
270.0
 51
345.3015759999999
  0
LINE
  5
B5EA
330
B543
100
AcDbEntity
  8
4
  6
CENTER
100
AcDbLine
 10
133.164626
 20
98.509652
 30
0.0
 11
133.164626
 21
48.509372
 31
0.0
  0
ARC
  5
B5EB
330
B543
100
AcDbEntity
  8
1
  6
Continuous
100
AcDbCircle
 10
133.164626
 20
62.509372
 30
0.0
 40
9.0
100
AcDbArc
 50
241.8213569999999
 51
298.178643
  0
LINE
  5
B5EC
330
B543
100
AcDbEntity
  8
1
  6
Continuous
100
AcDbLine
 10
128.914626
 20
54.576056
 30
0.0
 11
137.414626
 21
54.576056
 31
0.0
  0
LINE
  5
B5ED
330
B543
100
AcDbEntity
  8
1
  6
Continuous
100
AcDbLine
 10
124.664626
 20
58.509612
 30
0.0
 11
141.664626
 21
58.509612
 31
0.0
  0
LINE
  5
B5EE
330
B543
100
AcDbEntity
  8
1
  6
Continuous
100
AcDbLine
 10
124.664626
 20
81.50961200000002
 30
0.0
 11
141.664626
 21
81.50961200000002
 31
0.0
  0
LINE
  5
B5EF
330
B543
100
AcDbEntity
  8
1
  6
Continuous
100
AcDbLine
 10
136.164626
 20
57.50961199999998
 30
0.0
 11
136.164626
 21
58.509612
 31
0.0
  0
LINE
  5
B5F0
330
B543
100
AcDbEntity
  8
1
  6
Continuous
100
AcDbLine
 10
137.414626
 20
55.50937199999999
 30
0.0
 11
137.414626
 21
54.576056
 31
0.0
  0
LINE
  5
B5F1
330
B543
100
AcDbEntity
  8
1
  6
Continuous
100
AcDbLine
 10
141.664626
 20
58.509612
 30
0.0
 11
141.664626
 21
60.00961199999998
 31
0.0
  0
LINE
  5
B5F2
330
B543
100
AcDbEntity
  8
1
  6
Continuous
100
AcDbLine
 10
136.164626
 20
82.509612
 30
0.0
 11
136.164626
 21
81.50961200000002
 31
0.0
  0
LINE
  5
B5F3
330
B543
100
AcDbEntity
  8
1
  6
Continuous
100
AcDbLine
 10
141.664626
 20
81.50961200000002
 30
0.0
 11
141.664626
 21
80.009612
 31
0.0
  0
LINE
  5
B5F4
330
B543
100
AcDbEntity
  8
1
  6
Continuous
100
AcDbLine
 10
130.164626
 20
57.50961199999998
 30
0.0
 11
130.164626
 21
58.509612
 31
0.0
  0
LINE
  5
B5F5
330
B543
100
AcDbEntity
  8
1
  6
Continuous
100
AcDbLine
 10
128.914626
 20
55.50937199999999
 30
0.0
 11
128.914626
 21
54.576056
 31
0.0
  0
LINE
  5
B5F6
330
B543
100
AcDbEntity
  8
1
  6
Continuous
100
AcDbLine
 10
124.664626
 20
58.509612
 30
0.0
 11
124.664626
 21
60.00961199999998
 31
0.0
  0
LINE
  5
B5F7
330
B543
100
AcDbEntity
  8
1
  6
Continuous
100
AcDbLine
 10
130.164626
 20
82.509612
 30
0.0
 11
130.164626
 21
81.50961200000002
 31
0.0
  0
LINE
  5
B5F8
330
B543
100
AcDbEntity
  8
1
  6
Continuous
100
AcDbLine
 10
124.664626
 20
81.50961200000002
 30
0.0
 11
124.664626
 21
80.009612
 31
0.0
  0
ARC
  5
B5F9
330
B543
100
AcDbEntity
  8
1
  6
Continuous
100
AcDbCircle
 10
110.760923
 20
78.509612
 30
0.0
 40
1.5
100
AcDbArc
 50
90.0
 51
165.301576
  0
ARC
  5
B5FA
330
B543
100
AcDbEntity
  8
1
  6
Continuous
100
AcDbCircle
 10
143.1646259999999
 20
70.009612
 30
0.0
 40
35.0
100
AcDbArc
 50
165.301576
 51
194.698424
  0
ARC
  5
B5FB
330
B543
100
AcDbEntity
  8
1
  6
Continuous
100
AcDbCircle
 10
110.760923
 20
61.509612
 30
0.0
 40
1.5
100
AcDbArc
 50
194.698424
 51
270.0
  0
LINE
  5
B5FC
330
B543
100
AcDbEntity
  8
1
  6
Continuous
100
AcDbLine
 10
170.764126
 20
183.6743669999999
 30
0.0
 11
171.0146259999999
 21
183.6743669999999
 31
0.0
  0
LINE
  5
B5FD
330
B543
100
AcDbEntity
  8
1
  6
Continuous
100
AcDbLine
 10
171.0146259999999
 20
183.6743669999999
 30
0.0
 11
170.6780469999999
 21
187.7889979999999
 31
0.0
  0
ARC
  5
B5FE
330
B543
100
AcDbEntity
  8
1
  6
Continuous
100
AcDbCircle
 10
152.164619
 20
70.009612
 30
0.0
 40
18.85
100
AcDbArc
 50
236.2769409999999
 51
54.775542
  0
ARC
  5
B5FF
330
B543
100
AcDbEntity
  8
1
  6
Continuous
100
AcDbCircle
 10
152.164619
 20
70.009612
 30
0.0
 40
16.85
100
AcDbArc
 50
236.2759829999999
 51
64.422782
  0
ARC
  5
B600
330
B543
100
AcDbEntity
  8
1
  6
Continuous
100
AcDbCircle
 10
55.731462
 20
167.6032299999999
 30
0.0
 40
26.722888
100
AcDbArc
 50
212.0233099999999
 51
213.180835
  0
LINE
  5
B601
330
B543
100
AcDbEntity
  8
1
  6
Continuous
100
AcDbLine
 10
242.8634429999999
 20
150.098637
 30
0.0
 11
242.8634429999999
 21
149.2463159999998
 31
0.0
  0
ARC
  5
B602
330
B543
100
AcDbEntity
  8
1
  6
Continuous
100
AcDbCircle
 10
220.5034429999999
 20
167.440484
 30
0.0
 40
26.713884
100
AcDbArc
 50
331.812974
 51
358.9933849999999
  0
LINE
  5
B603
330
B543
100
AcDbEntity
  8
1
  6
Continuous
100
AcDbLine
 10
240.8632029999999
 20
149.2463159999998
 30
0.0
 11
242.8634429999999
 21
149.2463159999998
 31
0.0
  0
ARC
  5
B604
330
B543
100
AcDbEntity
  8
1
  6
Continuous
100
AcDbCircle
 10
252.8634429999999
 20
150.098637
 30
0.0
 40
10.0
100
AcDbArc
 50
151.812974
 51
180.0
  0
LINE
  5
B605
330
B543
100
AcDbEntity
  8
1
  6
Continuous
100
AcDbLine
 10
245.1808269999999
 20
175.044628
 30
0.0
 11
245.1808269999999
 21
167.856439
 31
0.0
  0
ARC
  5
B606
330
B543
100
AcDbEntity
  8
1
  6
Continuous
100
AcDbCircle
 10
218.471067
 20
168.325744
 30
0.0
 40
26.713884
100
AcDbArc
 50
331.812974
 51
358.9933849999999
  0
ARC
  5
B607
330
B543
100
AcDbEntity
  8
1
  6
Continuous
100
AcDbCircle
 10
250.8310669999999
 20
150.983898
 30
0.0
 40
10.0
100
AcDbArc
 50
151.812974
 51
175.405317
  0
ARC
  5
B608
330
B543
100
AcDbEntity
  8
1
  6
Continuous
100
AcDbCircle
 10
236.2229629999999
 20
167.440484
 30
0.0
 40
26.713884
100
AcDbArc
 50
181.006615
 51
186.53995
  0
ARC
  5
B609
330
B543
100
AcDbEntity
  8
1
  6
Continuous
100
AcDbCircle
 10
203.8629629999999
 20
150.098637
 30
0.0
 40
10.0
100
AcDbArc
 50
0.0
 51
16.808385
  0
LINE
  5
B60A
330
B543
100
AcDbEntity
  8
1
  6
Continuous
100
AcDbLine
 10
215.8632029999999
 20
149.2463159999998
 30
0.0
 11
212.8250319999999
 21
149.2463159999998
 31
0.0
  0
LINE
  5
B60B
330
B543
100
AcDbEntity
  8
1
  6
Continuous
100
AcDbLine
 10
213.862963
 20
150.098637
 30
0.0
 11
213.862963
 21
149.2463159999998
 31
0.0
  0
ARC
  5
B60C
330
B543
100
AcDbEntity
  8
1
  6
Continuous
100
AcDbCircle
 10
205.89534
 20
150.983898
 30
0.0
 40
10.0
100
AcDbArc
 50
4.594682999999998
 51
22.90469499999999
  0
ARC
  5
B60D
330
B543
100
AcDbEntity
  8
1
  6
Continuous
100
AcDbCircle
 10
238.2553399999999
 20
168.325744
 30
0.0
 40
26.713884
100
AcDbArc
 50
181.006615
 51
189.878237
  0
LINE
  5
B60E
330
B543
100
AcDbEntity
  8
1
  6
Continuous
100
AcDbLine
 10
211.5455799999998
 20
175.044628
 30
0.0
 11
211.5455799999998
 21
167.856439
 31
0.0
  0
ARC
  5
B60F
330
B543
100
AcDbEntity
  8
1
  6
Continuous
100
AcDbCircle
 10
224.7727219999999
 20
174.0758109999999
 30
0.0
 40
13.262575
100
AcDbArc
 50
133.679923
 51
175.810882
  0
LINE
  5
B610
330
B543
100
AcDbEntity
  8
1
  6
Continuous
100
AcDbLine
 10
135.8952069999999
 20
190.3702369999998
 30
0.0
 11
168.842904
 21
190.3702369999998
 31
0.0
  0
CIRCLE
  5
B611
330
B543
100
AcDbEntity
  8
1
  6
Continuous
100
AcDbCircle
 10
152.164619
 20
296.634862
 30
0.0
 40
9.5
  0
ARC
  5
B612
330
B543
100
AcDbEntity
  8
1
  6
Continuous
100
AcDbCircle
 10
152.164619
 20
296.634862
 30
0.0
 40
9.25
100
AcDbArc
 50
116.888048
 51
243.111952
  0
LINE
  5
B613
330
B543
100
AcDbEntity
  8
1
  6
Continuous
100
AcDbLine
 10
144.834619
 20
309.3307939999998
 30
0.0
 11
137.5046189999999
 21
296.634862
 31
0.0
  0
LINE
  5
B614
330
B543
100
AcDbEntity
  8
1
  6
Continuous
100
AcDbLine
 10
137.5046189999999
 20
296.634862
 30
0.0
 11
144.834619
 21
283.9389299999999
 31
0.0
  0
CIRCLE
  5
B615
330
B543
100
AcDbEntity
  8
1
  6
Continuous
100
AcDbCircle
 10
152.164619
 20
296.634862
 30
0.0
 40
14.660012
  0
CIRCLE
  5
B616
330
B543
100
AcDbEntity
  8
1
  6
Continuous
100
AcDbCircle
 10
152.164619
 20
296.634862
 30
0.0
 40
16.25
  0
CIRCLE
  5
B617
330
B543
100
AcDbEntity
  8
1
  6
Continuous
100
AcDbCircle
 10
152.164619
 20
296.634862
 30
0.0
 40
16.00018
  0
ARC
  5
B618
330
B543
100
AcDbEntity
  8
1
  6
Continuous
100
AcDbCircle
 10
152.164619
 20
296.634862
 30
0.0
 40
9.25
100
AcDbArc
 50
296.8880480000001
 51
63.111952
  0
LINE
  5
B619
330
B543
100
AcDbEntity
  8
1
  6
Continuous
100
AcDbLine
 10
166.8246189999998
 20
296.634862
 30
0.0
 11
159.4946189999998
 21
309.3307939999998
 31
0.0
  0
LINE
  5
B61A
330
B543
100
AcDbEntity
  8
1
  6
Continuous
100
AcDbLine
 10
159.4946189999998
 20
283.9389299999999
 30
0.0
 11
166.8246189999998
 21
296.634862
 31
0.0
  0
LINE
  5
B61B
330
B543
100
AcDbEntity
  8
1
  6
Continuous
100
AcDbLine
 10
156.3479199999999
 20
288.384862
 30
0.0
 11
147.9813189999999
 21
288.384862
 31
0.0
  0
LINE
  5
B61C
330
B543
100
AcDbEntity
  8
1
  6
Continuous
100
AcDbLine
 10
144.834619
 20
283.9389299999999
 30
0.0
 11
159.4946189999998
 21
283.9389299999999
 31
0.0
  0
CIRCLE
  5
B61D
330
B543
100
AcDbEntity
  8
1
  6
Continuous
100
AcDbCircle
 10
152.164619
 20
296.634862
 30
0.0
 40
4.0
  0
LINE
  5
B61E
330
B543
100
AcDbEntity
  8
1
  6
Continuous
100
AcDbLine
 10
147.9813189999999
 20
304.884862
 30
0.0
 11
156.3479199999999
 21
304.884862
 31
0.0
  0
LINE
  5
B61F
330
B543
100
AcDbEntity
  8
1
  6
Continuous
100
AcDbLine
 10
159.4946189999998
 20
309.3307939999998
 30
0.0
 11
144.834619
 21
309.3307939999998
 31
0.0
  0
LINE
  5
B620
330
B543
100
AcDbEntity
  8
4
  6
CENTER
100
AcDbLine
 10
133.165027
 20
268.1350619999999
 30
0.0
 11
133.165027
 21
318.134902
 31
0.0
  0
ARC
  5
B621
330
B543
100
AcDbEntity
  8
1
  6
Continuous
100
AcDbCircle
 10
152.572527
 20
296.634862
 30
0.0
 40
19.0
100
AcDbArc
 50
127.799415
 51
180.0
  0
LINE
  5
B622
330
B543
100
AcDbEntity
  8
1
  6
Continuous
100
AcDbLine
 10
124.6650269999999
 20
285.1348619999999
 30
0.0
 11
128.4592249999997
 21
285.1348619999999
 31
0.0
  0
LINE
  5
B623
330
B543
100
AcDbEntity
  8
1
  6
Continuous
100
AcDbLine
 10
127.883256
 20
286.634862
 30
0.0
 11
110.761324
 21
286.634862
 31
0.0
  0
LINE
  5
B624
330
B543
100
AcDbEntity
  8
1
  6
Continuous
100
AcDbLine
 10
128.8957469999998
 20
284.134862
 30
0.0
 11
126.4406609999999
 21
284.134862
 31
0.0
  0
ARC
  5
B625
330
B543
100
AcDbEntity
  8
1
  6
Continuous
100
AcDbCircle
 10
156.167527
 20
296.634862
 30
0.0
 40
30.0
100
AcDbArc
 50
154.381133
 51
205.6188689999999
  0
ARC
  5
B626
330
B543
100
AcDbEntity
  8
1
  6
Continuous
100
AcDbCircle
 10
152.572527
 20
296.634862
 30
0.0
 40
19.0
100
AcDbArc
 50
180.0
 51
232.200585
  0
LINE
  5
B627
330
B543
100
AcDbEntity
  8
1
  6
Continuous
100
AcDbLine
 10
137.415027
 20
312.068218
 30
0.0
 11
128.915027
 21
312.068218
 31
0.0
  0
ARC
  5
B628
330
B543
100
AcDbEntity
  8
1
  6
Continuous
100
AcDbCircle
 10
133.165027
 20
304.134902
 30
0.0
 40
9.0
100
AcDbArc
 50
61.82135699999999
 51
118.178643
  0
LINE
  5
B629
330
B543
100
AcDbEntity
  8
1
  6
Continuous
100
AcDbLine
 10
137.415027
 20
311.134862
 30
0.0
 11
137.415027
 21
312.068218
 31
0.0
  0
ARC
  5
B62A
330
B543
100
AcDbEntity
  8
1
  6
Continuous
100
AcDbCircle
 10
127.34396
 20
283.351992
 30
0.0
 40
1.8
100
AcDbArc
 50
317.4539069999998
 51
9.961921999999999
  0
LINE
  5
B62B
330
B543
100
AcDbEntity
  8
1
  6
Continuous
100
AcDbLine
 10
128.915027
 20
311.134862
 30
0.0
 11
128.915027
 21
312.068218
 31
0.0
  0
LINE
  5
B62C
330
B543
100
AcDbEntity
  8
1
  6
Continuous
100
AcDbLine
 10
124.6650269999999
 20
285.1348619999999
 30
0.0
 11
124.6650269999999
 21
286.634862
 31
0.0
  0
LINE
  5
B62D
330
B543
100
AcDbEntity
  8
1
  6
Continuous
100
AcDbLine
 10
137.8128769999999
 20
311.134862
 30
0.0
 11
126.015027
 21
311.134862
 31
0.0
  0
LINE
  5
B62E
330
B543
100
AcDbEntity
  8
1
  6
Continuous
100
AcDbLine
 10
124.6650269999999
 20
308.1348619999999
 30
0.0
 11
128.4592249999997
 21
308.1348619999999
 31
0.0
  0
LINE
  5
B62F
330
B543
100
AcDbEntity
  8
1
  6
Continuous
100
AcDbLine
 10
127.883256
 20
306.6348619999998
 30
0.0
 11
110.761324
 21
306.6348619999998
 31
0.0
  0
LINE
  5
B630
330
B543
100
AcDbEntity
  8
1
  6
Continuous
100
AcDbLine
 10
128.8957469999998
 20
309.134862
 30
0.0
 11
126.015027
 21
309.134862
 31
0.0
  0
ARC
  5
B631
330
B543
100
AcDbEntity
  8
1
  6
Continuous
100
AcDbCircle
 10
127.34396
 20
309.9177319999999
 30
0.0
 40
1.8
100
AcDbArc
 50
350.0380779999999
 51
42.546093
  0
LINE
  5
B632
330
B543
100
AcDbEntity
  8
1
  6
Continuous
100
AcDbLine
 10
124.6650269999999
 20
308.1348619999999
 30
0.0
 11
124.6650269999999
 21
306.6348619999998
 31
0.0
  0
LINE
  5
B633
330
B543
100
AcDbEntity
  8
1
  6
Continuous
100
AcDbLine
 10
126.015027
 20
309.134862
 30
0.0
 11
126.015027
 21
311.134862
 31
0.0
  0
LINE
  5
B634
330
B543
100
AcDbEntity
  8
1
  6
Continuous
100
AcDbLine
 10
144.8346259999999
 20
198.6826729999999
 30
0.0
 11
144.8346259999999
 21
195.7826289999999
 31
0.0
  0
LINE
  5
B635
330
B543
100
AcDbEntity
  8
1
  6
Continuous
100
AcDbLine
 10
137.5046259999998
 20
195.782555
 30
0.0
 11
137.5046259999998
 21
198.6826729999999
 31
0.0
  0
LINE
  5
B636
330
B543
100
AcDbEntity
  8
1
  6
Continuous
100
AcDbLine
 10
166.824626
 20
195.782555
 30
0.0
 11
166.824626
 21
198.6826729999999
 31
0.0
  0
LINE
  5
B637
330
B543
100
AcDbEntity
  8
1
  6
Continuous
100
AcDbLine
 10
159.494626
 20
198.6826729999999
 30
0.0
 11
159.494626
 21
195.7826289999999
 31
0.0
  0
LINE
  5
B638
330
B543
100
AcDbEntity
  8
1
  6
Continuous
100
AcDbLine
 10
237.863302
 20
229.4825759999999
 30
0.0
 11
237.863302
 21
200.182576
 31
0.0
  0
LINE
  5
B639
330
B543
100
AcDbEntity
  8
1
  6
Continuous
100
AcDbLine
 10
218.863302
 20
229.4825759999999
 30
0.0
 11
218.863302
 21
200.182576
 31
0.0
  0
LINE
  5
B63A
330
B543
100
AcDbEntity
  8
1
  6
Continuous
100
AcDbLine
 10
215.66737
 20
198.682576
 30
0.0
 11
241.059234
 21
198.682576
 31
0.0
  0
LINE
  5
B63B
330
B543
100
AcDbEntity
  8
1
  6
Continuous
100
AcDbLine
 10
215.66737
 20
195.782476
 30
0.0
 11
241.059234
 21
195.782476
 31
0.0
  0
LINE
  5
B63C
330
B543
100
AcDbEntity
  8
1
  6
Continuous
100
AcDbLine
 10
224.4269099999999
 20
191.8012329999999
 30
0.0
 11
222.426914
 21
190.371237
 31
0.0
  0
LINE
  5
B63D
330
B543
100
AcDbEntity
  8
1
  6
Continuous
100
AcDbLine
 10
222.426914
 20
191.8012329999999
 30
0.0
 11
224.4269099999999
 21
190.371237
 31
0.0
  0
LINE
  5
B63E
330
B543
100
AcDbEntity
  8
1
  6
Continuous
100
AcDbLine
 10
244.6132029999999
 20
191.8011929999999
 30
0.0
 11
212.1132029999999
 21
191.801273
 31
0.0
  0
LINE
  5
B63F
330
B543
100
AcDbEntity
  8
1
  6
Continuous
100
AcDbLine
 10
212.853735
 20
193.7226369999999
 30
0.0
 11
243.872869
 21
193.7226369999999
 31
0.0
  0
LINE
  5
B640
330
B543
100
AcDbEntity
  8
1
  6
Continuous
100
AcDbLine
 10
244.363483
 20
193.1469489999998
 30
0.0
 11
212.363122
 21
193.1469489999998
 31
0.0
  0
LINE
  5
B641
330
B543
100
AcDbEntity
  8
1
  6
Continuous
100
AcDbLine
 10
237.863302
 20
202.582576
 30
0.0
 11
218.863302
 21
202.582576
 31
0.0
  0
LINE
  5
B642
330
B543
100
AcDbEntity
  8
1
  6
Continuous
100
AcDbLine
 10
215.66737
 20
195.782476
 30
0.0
 11
215.66737
 21
198.682576
 31
0.0
  0
ARC
  5
B643
330
B543
100
AcDbEntity
  8
1
  6
Continuous
100
AcDbCircle
 10
220.363302
 20
200.182576
 30
0.0
 40
1.5
100
AcDbArc
 50
180.0
 51
270.0
  0
ARC
  5
B644
330
B543
100
AcDbEntity
  8
1
  6
Continuous
100
AcDbCircle
 10
214.711497
 20
193.4778359999999
 30
0.0
 40
2.371570999999998
100
AcDbArc
 50
188.020211
 51
224.9867219999999
  0
ARC
  5
B645
330
B543
100
AcDbEntity
  8
1
  6
Continuous
100
AcDbCircle
 10
213.393633
 20
192.765625
 30
0.0
 40
1.098799999999998
100
AcDbArc
 50
119.429525
 51
159.693839
  0
LINE
  5
B646
330
B543
100
AcDbEntity
  8
1
  6
Continuous
100
AcDbLine
 10
213.1132019999999
 20
191.8012329999999
 30
0.0
 11
212.1132029999999
 21
191.371235
 31
0.0
  0
ARC
  5
B647
330
B543
100
AcDbEntity
  8
1
  6
Continuous
100
AcDbCircle
 10
216.164266
 20
193.2824579999999
 30
0.0
 40
2.5
100
AcDbArc
 50
90.0
 51
169.858981
  0
LINE
  5
B648
330
B543
100
AcDbEntity
  8
1
  6
Continuous
100
AcDbLine
 10
212.1132029999999
 20
191.8012329999999
 30
0.0
 11
212.1132029999999
 21
190.371237
 31
0.0
  0
LINE
  5
B649
330
B543
100
AcDbEntity
  8
1
  6
Continuous
100
AcDbLine
 10
212.1132029999999
 20
191.8012329999999
 30
0.0
 11
212.1132029999999
 21
190.371237
 31
0.0
  0
LINE
  5
B64A
330
B543
100
AcDbEntity
  8
1
  6
Continuous
100
AcDbLine
 10
214.527415
 20
191.8012329999999
 30
0.0
 11
212.5274189999999
 21
190.371237
 31
0.0
  0
LINE
  5
B64B
330
B543
100
AcDbEntity
  8
1
  6
Continuous
100
AcDbLine
 10
215.941629
 20
191.8012329999999
 30
0.0
 11
213.9416319999999
 21
190.371237
 31
0.0
  0
LINE
  5
B64C
330
B543
100
AcDbEntity
  8
1
  6
Continuous
100
AcDbLine
 10
217.3558419999999
 20
191.8012329999999
 30
0.0
 11
215.3558459999999
 21
190.371237
 31
0.0
  0
LINE
  5
B64D
330
B543
100
AcDbEntity
  8
1
  6
Continuous
100
AcDbLine
 10
218.770056
 20
191.8012329999999
 30
0.0
 11
216.7700589999999
 21
190.371237
 31
0.0
  0
LINE
  5
B64E
330
B543
100
AcDbEntity
  8
1
  6
Continuous
100
AcDbLine
 10
220.1842689999998
 20
191.8012329999999
 30
0.0
 11
218.184273
 21
190.371237
 31
0.0
  0
LINE
  5
B64F
330
B543
100
AcDbEntity
  8
1
  6
Continuous
100
AcDbLine
 10
221.598483
 20
191.8012329999999
 30
0.0
 11
219.5984859999998
 21
190.371237
 31
0.0
  0
LINE
  5
B650
330
B543
100
AcDbEntity
  8
1
  6
Continuous
100
AcDbLine
 10
223.012696
 20
191.8012329999999
 30
0.0
 11
221.0126999999999
 21
190.371237
 31
0.0
  0
LINE
  5
B651
330
B543
100
AcDbEntity
  8
1
  6
Continuous
100
AcDbLine
 10
213.1132019999999
 20
190.371237
 30
0.0
 11
212.1132029999999
 21
191.371235
 31
0.0
  0
LINE
  5
B652
330
B543
100
AcDbEntity
  8
1
  6
Continuous
100
AcDbLine
 10
213.9416319999999
 20
191.8012329999999
 30
0.0
 11
215.941629
 21
190.371237
 31
0.0
  0
LINE
  5
B653
330
B543
100
AcDbEntity
  8
1
  6
Continuous
100
AcDbLine
 10
216.7700589999999
 20
191.8012329999999
 30
0.0
 11
218.770056
 21
190.371237
 31
0.0
  0
LINE
  5
B654
330
B543
100
AcDbEntity
  8
1
  6
Continuous
100
AcDbLine
 10
219.5984859999998
 20
191.8012329999999
 30
0.0
 11
221.598483
 21
190.371237
 31
0.0
  0
LINE
  5
B655
330
B543
100
AcDbEntity
  8
1
  6
Continuous
100
AcDbLine
 10
239.9832589999999
 20
191.8012329999999
 30
0.0
 11
237.983263
 21
190.371237
 31
0.0
  0
LINE
  5
B656
330
B543
100
AcDbEntity
  8
1
  6
Continuous
100
AcDbLine
 10
228.3633019999999
 20
195.782476
 30
0.0
 11
228.3633019999999
 21
198.682576
 31
0.0
  0
ARC
  5
B657
330
B543
100
AcDbEntity
  8
1
  6
Continuous
100
AcDbCircle
 10
236.3633019999999
 20
200.182576
 30
0.0
 40
1.5
100
AcDbArc
 50
270.0
 51
0.0
  0
LINE
  5
B658
330
B543
100
AcDbEntity
  8
1
  6
Continuous
100
AcDbLine
 10
230.083764
 20
191.8012329999999
 30
0.0
 11
228.0837679999999
 21
190.371237
 31
0.0
  0
LINE
  5
B659
330
B543
100
AcDbEntity
  8
1
  6
Continuous
100
AcDbLine
 10
231.4979779999999
 20
191.8012329999999
 30
0.0
 11
229.497981
 21
190.371237
 31
0.0
  0
LINE
  5
B65A
330
B543
100
AcDbEntity
  8
1
  6
Continuous
100
AcDbLine
 10
232.912191
 20
191.8012329999999
 30
0.0
 11
230.912195
 21
190.371237
 31
0.0
  0
LINE
  5
B65B
330
B543
100
AcDbEntity
  8
1
  6
Continuous
100
AcDbLine
 10
234.326405
 20
191.8012329999999
 30
0.0
 11
232.3264089999999
 21
190.371237
 31
0.0
  0
LINE
  5
B65C
330
B543
100
AcDbEntity
  8
1
  6
Continuous
100
AcDbLine
 10
235.7406189999999
 20
191.8012329999999
 30
0.0
 11
233.740622
 21
190.371237
 31
0.0
  0
LINE
  5
B65D
330
B543
100
AcDbEntity
  8
1
  6
Continuous
100
AcDbLine
 10
237.1548319999999
 20
191.8012329999999
 30
0.0
 11
235.1548359999999
 21
190.371237
 31
0.0
  0
LINE
  5
B65E
330
B543
100
AcDbEntity
  8
1
  6
Continuous
100
AcDbLine
 10
238.5690459999999
 20
191.8012329999999
 30
0.0
 11
236.5690489999999
 21
190.371237
 31
0.0
  0
LINE
  5
B65F
330
B543
100
AcDbEntity
  8
1
  6
Continuous
100
AcDbLine
 10
228.0837679999999
 20
191.8012329999999
 30
0.0
 11
230.083764
 21
190.371237
 31
0.0
  0
LINE
  5
B660
330
B543
100
AcDbEntity
  8
1
  6
Continuous
100
AcDbLine
 10
230.912195
 20
191.8012329999999
 30
0.0
 11
232.912191
 21
190.371237
 31
0.0
  0
LINE
  5
B661
330
B543
100
AcDbEntity
  8
1
  6
Continuous
100
AcDbLine
 10
233.740622
 20
191.8012329999999
 30
0.0
 11
235.7406189999999
 21
190.371237
 31
0.0
  0
LINE
  5
B662
330
B543
100
AcDbEntity
  8
1
  6
Continuous
100
AcDbLine
 10
236.5690489999999
 20
191.8012329999999
 30
0.0
 11
238.5690459999999
 21
190.371237
 31
0.0
  0
LINE
  5
B663
330
B543
100
AcDbEntity
  8
1
  6
Continuous
100
AcDbLine
 10
225.841124
 20
191.8012329999999
 30
0.0
 11
223.8411269999998
 21
190.371237
 31
0.0
  0
LINE
  5
B664
330
B543
100
AcDbEntity
  8
1
  6
Continuous
100
AcDbLine
 10
227.255337
 20
191.8012329999999
 30
0.0
 11
225.2553409999999
 21
190.371237
 31
0.0
  0
LINE
  5
B665
330
B543
100
AcDbEntity
  8
1
  6
Continuous
100
AcDbLine
 10
228.6695509999999
 20
191.8012329999999
 30
0.0
 11
226.669554
 21
190.371237
 31
0.0
  0
LINE
  5
B666
330
B543
100
AcDbEntity
  8
1
  6
Continuous
100
AcDbLine
 10
225.2553409999999
 20
191.8012329999999
 30
0.0
 11
227.255337
 21
190.371237
 31
0.0
  0
ARC
  5
B667
330
B543
100
AcDbEntity
  8
1
  6
Continuous
100
AcDbCircle
 10
240.5623789999999
 20
193.2824579999999
 30
0.0
 40
2.5
100
AcDbArc
 50
10.141019
 51
90.0
  0
LINE
  5
B668
330
B543
100
AcDbEntity
  8
1
  6
Continuous
100
AcDbLine
 10
241.059234
 20
195.782476
 30
0.0
 11
241.059234
 21
198.682576
 31
0.0
  0
ARC
  5
B669
330
B543
100
AcDbEntity
  8
1
  6
Continuous
100
AcDbCircle
 10
242.015108
 20
193.4778359999999
 30
0.0
 40
2.371570999999998
100
AcDbArc
 50
315.0106999999998
 51
351.9797889999999
  0
ARC
  5
B66A
330
B543
100
AcDbEntity
  8
1
  6
Continuous
100
AcDbCircle
 10
243.3329709999999
 20
192.765625
 30
0.0
 40
1.098799999999998
100
AcDbArc
 50
20.306161
 51
60.57047500000001
  0
LINE
  5
B66B
330
B543
100
AcDbEntity
  8
1
  6
Continuous
100
AcDbLine
 10
244.6132029999999
 20
191.8012329999999
 30
0.0
 11
244.6132029999999
 21
190.371237
 31
0.0
  0
LINE
  5
B66C
330
B543
100
AcDbEntity
  8
1
  6
Continuous
100
AcDbLine
 10
244.6132029999999
 20
191.8012329999999
 30
0.0
 11
244.6132029999999
 21
190.371237
 31
0.0
  0
LINE
  5
B66D
330
B543
100
AcDbEntity
  8
1
  6
Continuous
100
AcDbLine
 10
241.397473
 20
191.8012329999999
 30
0.0
 11
239.3974759999999
 21
190.371237
 31
0.0
  0
LINE
  5
B66E
330
B543
100
AcDbEntity
  8
1
  6
Continuous
100
AcDbLine
 10
242.8116859999999
 20
191.8012329999999
 30
0.0
 11
240.81169
 21
190.371237
 31
0.0
  0
LINE
  5
B66F
330
B543
100
AcDbEntity
  8
1
  6
Continuous
100
AcDbLine
 10
244.2258999999999
 20
191.8012329999999
 30
0.0
 11
242.2259029999999
 21
190.371237
 31
0.0
  0
LINE
  5
B670
330
B543
100
AcDbEntity
  8
1
  6
Continuous
100
AcDbLine
 10
244.6132029999999
 20
191.344323
 30
0.0
 11
243.6401169999999
 21
190.371237
 31
0.0
  0
LINE
  5
B671
330
B543
100
AcDbEntity
  8
1
  6
Continuous
100
AcDbLine
 10
239.3974759999999
 20
191.8012329999999
 30
0.0
 11
241.397473
 21
190.371237
 31
0.0
  0
LINE
  5
B672
330
B543
100
AcDbEntity
  8
1
  6
Continuous
100
AcDbLine
 10
242.2259029999999
 20
191.8012329999999
 30
0.0
 11
244.2258999999999
 21
190.371237
 31
0.0
  0
LINE
  5
B673
330
B543
100
AcDbEntity
  8
1
  6
Continuous
100
AcDbLine
 10
237.863302
 20
229.4825759999999
 30
0.0
 11
218.863302
 21
229.4825759999999
 31
0.0
  0
LINE
  5
B674
330
B543
100
AcDbEntity
  8
1
  6
Continuous
100
AcDbLine
 10
220.1133019999998
 20
232.6825759999999
 30
0.0
 11
236.6133019999999
 21
232.6825759999999
 31
0.0
  0
LINE
  5
B675
330
B543
100
AcDbEntity
  8
1
  6
Continuous
100
AcDbLine
 10
220.1133019999998
 20
229.4825759999999
 30
0.0
 11
220.1133019999998
 21
232.6825759999999
 31
0.0
  0
LINE
  5
B676
330
B543
100
AcDbEntity
  8
2
  6
Continuous
100
AcDbLine
 10
231.686802
 20
233.859057
 30
0.0
 11
231.686802
 21
232.6825759999999
 31
0.0
  0
LINE
  5
B677
330
B543
100
AcDbEntity
  8
2
  6
Continuous
100
AcDbLine
 10
225.0398019999999
 20
233.859056
 30
0.0
 11
225.0398019999999
 21
232.6825759999999
 31
0.0
  0
LINE
  5
B678
330
B543
100
AcDbEntity
  8
1
  6
Continuous
100
AcDbLine
 10
236.6133019999999
 20
229.4825759999999
 30
0.0
 11
236.6133019999999
 21
232.6825759999999
 31
0.0
  0
LINE
  5
B679
330
B543
100
AcDbEntity
  8
1
  6
Continuous
100
AcDbLine
 10
232.363322
 20
232.6825759999999
 30
0.0
 11
232.363322
 21
233.182576
 31
0.0
  0
LINE
  5
B67A
330
B543
100
AcDbEntity
  8
1
  6
Continuous
100
AcDbLine
 10
232.363283
 20
233.182576
 30
0.0
 11
230.863283
 21
234.6825759999999
 31
0.0
  0
LINE
  5
B67B
330
B543
100
AcDbEntity
  8
1
  6
Continuous
100
AcDbLine
 10
224.3633219999999
 20
232.6825759999999
 30
0.0
 11
224.3633219999999
 21
233.182576
 31
0.0
  0
LINE
  5
B67C
330
B543
100
AcDbEntity
  8
1
  6
Continuous
100
AcDbLine
 10
224.3633219999999
 20
233.182576
 30
0.0
 11
225.863322
 21
234.6825759999999
 31
0.0
  0
LINE
  5
B67D
330
B543
100
AcDbEntity
  8
1
  6
Continuous
100
AcDbLine
 10
230.863283
 20
234.6825759999999
 30
0.0
 11
225.863322
 21
234.6825759999999
 31
0.0
  0
LINE
  5
B67E
330
B543
100
AcDbEntity
  8
1
  6
Continuous
100
AcDbLine
 10
232.363322
 20
233.182576
 30
0.0
 11
224.3633219999999
 21
233.182576
 31
0.0
  0
LINE
  5
B67F
330
B543
100
AcDbEntity
  8
1
  6
Continuous
100
AcDbLine
 10
61.728749
 20
191.8012339999999
 30
0.0
 11
63.72874599999999
 21
190.3712379999998
 31
0.0
  0
LINE
  5
B680
330
B543
100
AcDbEntity
  8
1
  6
Continuous
100
AcDbLine
 10
63.72874599999999
 20
191.8012339999999
 30
0.0
 11
61.728749
 21
190.3712379999998
 31
0.0
  0
LINE
  5
B681
330
B543
100
AcDbEntity
  8
1
  6
Continuous
100
AcDbLine
 10
62.31453199999999
 20
191.8012339999999
 30
0.0
 11
60.31453599999998
 21
190.3712379999998
 31
0.0
  0
ARC
  5
B682
330
B543
100
AcDbEntity
  8
1
  6
Continuous
100
AcDbCircle
 10
60.06522499999999
 20
193.2824589999999
 30
0.0
 40
2.5
100
AcDbArc
 50
10.141019
 51
90.0
  0
LINE
  5
B683
330
B543
100
AcDbEntity
  8
1
  6
Continuous
100
AcDbLine
 10
63.866329
 20
193.14695
 30
0.0
 11
31.865968
 21
193.14695
 31
0.0
  0
LINE
  5
B684
330
B543
100
AcDbEntity
  8
1
  6
Continuous
100
AcDbLine
 10
32.356581
 20
193.722638
 30
0.0
 11
63.375715
 21
193.722638
 31
0.0
  0
LINE
  5
B685
330
B543
100
AcDbEntity
  8
1
  6
Continuous
100
AcDbLine
 10
64.116049
 20
191.8011939999999
 30
0.0
 11
31.616049
 21
191.8012739999998
 31
0.0
  0
LINE
  5
B686
330
B543
100
AcDbEntity
  8
1
  6
Continuous
100
AcDbLine
 10
38.36614799999999
 20
229.482577
 30
0.0
 11
38.36614799999999
 21
200.1825769999999
 31
0.0
  0
LINE
  5
B687
330
B543
100
AcDbEntity
  8
1
  6
Continuous
100
AcDbLine
 10
57.36614799999999
 20
229.482577
 30
0.0
 11
57.36614799999999
 21
200.1825769999999
 31
0.0
  0
LINE
  5
B688
330
B543
100
AcDbEntity
  8
1
  6
Continuous
100
AcDbLine
 10
44.758187
 20
191.8012339999999
 30
0.0
 11
46.758183
 21
190.3712379999998
 31
0.0
  0
LINE
  5
B689
330
B543
100
AcDbEntity
  8
1
  6
Continuous
100
AcDbLine
 10
46.758183
 20
191.8012339999999
 30
0.0
 11
44.758187
 21
190.3712379999998
 31
0.0
  0
LINE
  5
B68A
330
B543
100
AcDbEntity
  8
1
  6
Continuous
100
AcDbLine
 10
35.17021599999999
 20
195.782477
 30
0.0
 11
60.56208
 21
195.782477
 31
0.0
  0
LINE
  5
B68B
330
B543
100
AcDbEntity
  8
1
  6
Continuous
100
AcDbLine
 10
35.17021599999999
 20
198.682577
 30
0.0
 11
60.56208
 21
198.682577
 31
0.0
  0
LINE
  5
B68C
330
B543
100
AcDbEntity
  8
1
  6
Continuous
100
AcDbLine
 10
45.34397
 20
191.8012339999999
 30
0.0
 11
43.343973
 21
190.3712379999998
 31
0.0
  0
LINE
  5
B68D
330
B543
100
AcDbEntity
  8
1
  6
Continuous
100
AcDbLine
 10
39.101332
 20
191.8012339999999
 30
0.0
 11
41.10132899999999
 21
190.3712379999998
 31
0.0
  0
LINE
  5
B68E
330
B543
100
AcDbEntity
  8
1
  6
Continuous
100
AcDbLine
 10
36.272905
 20
191.8012339999999
 30
0.0
 11
38.272902
 21
190.3712379999998
 31
0.0
  0
LINE
  5
B68F
330
B543
100
AcDbEntity
  8
1
  6
Continuous
100
AcDbLine
 10
33.44447799999999
 20
191.8012339999999
 30
0.0
 11
35.44447499999999
 21
190.3712379999998
 31
0.0
  0
LINE
  5
B690
330
B543
100
AcDbEntity
  8
1
  6
Continuous
100
AcDbLine
 10
32.616048
 20
190.3712379999998
 30
0.0
 11
31.616049
 21
191.371236
 31
0.0
  0
LINE
  5
B691
330
B543
100
AcDbEntity
  8
1
  6
Continuous
100
AcDbLine
 10
42.515542
 20
191.8012339999999
 30
0.0
 11
40.515546
 21
190.3712379999998
 31
0.0
  0
LINE
  5
B692
330
B543
100
AcDbEntity
  8
1
  6
Continuous
100
AcDbLine
 10
41.10132899999999
 20
191.8012339999999
 30
0.0
 11
39.101332
 21
190.3712379999998
 31
0.0
  0
LINE
  5
B693
330
B543
100
AcDbEntity
  8
1
  6
Continuous
100
AcDbLine
 10
39.68711499999999
 20
191.8012339999999
 30
0.0
 11
37.687119
 21
190.3712379999998
 31
0.0
  0
LINE
  5
B694
330
B543
100
AcDbEntity
  8
1
  6
Continuous
100
AcDbLine
 10
38.272902
 20
191.8012339999999
 30
0.0
 11
36.272905
 21
190.3712379999998
 31
0.0
  0
LINE
  5
B695
330
B543
100
AcDbEntity
  8
1
  6
Continuous
100
AcDbLine
 10
36.858688
 20
191.8012339999999
 30
0.0
 11
34.85869199999999
 21
190.3712379999998
 31
0.0
  0
LINE
  5
B696
330
B543
100
AcDbEntity
  8
1
  6
Continuous
100
AcDbLine
 10
35.44447499999999
 20
191.8012339999999
 30
0.0
 11
33.44447799999999
 21
190.3712379999998
 31
0.0
  0
LINE
  5
B697
330
B543
100
AcDbEntity
  8
1
  6
Continuous
100
AcDbLine
 10
34.03026099999999
 20
191.8012339999999
 30
0.0
 11
32.03026499999999
 21
190.3712379999998
 31
0.0
  0
LINE
  5
B698
330
B543
100
AcDbEntity
  8
1
  6
Continuous
100
AcDbLine
 10
31.616049
 20
191.8012339999999
 30
0.0
 11
31.616049
 21
190.3712379999998
 31
0.0
  0
LINE
  5
B699
330
B543
100
AcDbEntity
  8
1
  6
Continuous
100
AcDbLine
 10
31.616049
 20
191.8012339999999
 30
0.0
 11
31.616049
 21
190.3712379999998
 31
0.0
  0
ARC
  5
B69A
330
B543
100
AcDbEntity
  8
1
  6
Continuous
100
AcDbCircle
 10
35.66711200000001
 20
193.2824589999999
 30
0.0
 40
2.5
100
AcDbArc
 50
90.0
 51
169.858981
  0
LINE
  5
B69B
330
B543
100
AcDbEntity
  8
1
  6
Continuous
100
AcDbLine
 10
32.616048
 20
191.8012339999999
 30
0.0
 11
31.616049
 21
191.371236
 31
0.0
  0
ARC
  5
B69C
330
B543
100
AcDbEntity
  8
1
  6
Continuous
100
AcDbCircle
 10
32.896479
 20
192.765626
 30
0.0
 40
1.098799999999998
100
AcDbArc
 50
119.429525
 51
159.693839
  0
ARC
  5
B69D
330
B543
100
AcDbEntity
  8
1
  6
Continuous
100
AcDbCircle
 10
34.214343
 20
193.477837
 30
0.0
 40
2.371570999999998
100
AcDbArc
 50
188.020211
 51
224.9867219999999
  0
ARC
  5
B69E
330
B543
100
AcDbEntity
  8
1
  6
Continuous
100
AcDbCircle
 10
39.86614799999999
 20
200.1825769999999
 30
0.0
 40
1.5
100
AcDbArc
 50
180.0
 51
270.0
  0
LINE
  5
B69F
330
B543
100
AcDbEntity
  8
1
  6
Continuous
100
AcDbLine
 10
35.17021599999999
 20
195.782477
 30
0.0
 11
35.17021599999999
 21
198.682577
 31
0.0
  0
LINE
  5
B6A0
330
B543
100
AcDbEntity
  8
1
  6
Continuous
100
AcDbLine
 10
41.92975999999997
 20
191.8012339999999
 30
0.0
 11
43.92975599999998
 21
190.3712379999998
 31
0.0
  0
LINE
  5
B6A1
330
B543
100
AcDbEntity
  8
1
  6
Continuous
100
AcDbLine
 10
43.92975599999998
 20
191.8012339999999
 30
0.0
 11
41.92975999999997
 21
190.3712379999998
 31
0.0
  0
LINE
  5
B6A2
330
B543
100
AcDbEntity
  8
1
  6
Continuous
100
AcDbLine
 10
58.900322
 20
191.8012339999999
 30
0.0
 11
60.90031899999999
 21
190.3712379999998
 31
0.0
  0
LINE
  5
B6A3
330
B543
100
AcDbEntity
  8
1
  6
Continuous
100
AcDbLine
 10
60.90031899999999
 20
191.8012339999999
 30
0.0
 11
58.900322
 21
190.3712379999998
 31
0.0
  0
LINE
  5
B6A4
330
B543
100
AcDbEntity
  8
1
  6
Continuous
100
AcDbLine
 10
60.56208
 20
195.782477
 30
0.0
 11
60.56208
 21
198.682577
 31
0.0
  0
LINE
  5
B6A5
330
B543
100
AcDbEntity
  8
1
  6
Continuous
100
AcDbLine
 10
48.172397
 20
191.8012339999999
 30
0.0
 11
46.1724
 21
190.3712379999998
 31
0.0
  0
LINE
  5
B6A6
330
B543
100
AcDbEntity
  8
1
  6
Continuous
100
AcDbLine
 10
56.071895
 20
191.8012339999999
 30
0.0
 11
58.07189199999999
 21
190.3712379999998
 31
0.0
  0
LINE
  5
B6A7
330
B543
100
AcDbEntity
  8
1
  6
Continuous
100
AcDbLine
 10
53.243468
 20
191.8012339999999
 30
0.0
 11
55.243465
 21
190.3712379999998
 31
0.0
  0
LINE
  5
B6A8
330
B543
100
AcDbEntity
  8
1
  6
Continuous
100
AcDbLine
 10
50.415041
 20
191.8012339999999
 30
0.0
 11
52.41503699999999
 21
190.3712379999998
 31
0.0
  0
LINE
  5
B6A9
330
B543
100
AcDbEntity
  8
1
  6
Continuous
100
AcDbLine
 10
47.586614
 20
191.8012339999999
 30
0.0
 11
49.58661
 21
190.3712379999998
 31
0.0
  0
LINE
  5
B6AA
330
B543
100
AcDbEntity
  8
1
  6
Continuous
100
AcDbLine
 10
58.07189199999999
 20
191.8012339999999
 30
0.0
 11
56.071895
 21
190.3712379999998
 31
0.0
  0
LINE
  5
B6AB
330
B543
100
AcDbEntity
  8
1
  6
Continuous
100
AcDbLine
 10
56.65767800000001
 20
191.8012339999999
 30
0.0
 11
54.65768199999999
 21
190.3712379999998
 31
0.0
  0
LINE
  5
B6AC
330
B543
100
AcDbEntity
  8
1
  6
Continuous
100
AcDbLine
 10
55.243465
 20
191.8012339999999
 30
0.0
 11
53.243468
 21
190.3712379999998
 31
0.0
  0
LINE
  5
B6AD
330
B543
100
AcDbEntity
  8
1
  6
Continuous
100
AcDbLine
 10
53.829251
 20
191.8012339999999
 30
0.0
 11
51.82925499999999
 21
190.3712379999998
 31
0.0
  0
LINE
  5
B6AE
330
B543
100
AcDbEntity
  8
1
  6
Continuous
100
AcDbLine
 10
52.41503699999999
 20
191.8012339999999
 30
0.0
 11
50.415041
 21
190.3712379999998
 31
0.0
  0
LINE
  5
B6AF
330
B543
100
AcDbEntity
  8
1
  6
Continuous
100
AcDbLine
 10
51.000824
 20
191.8012339999999
 30
0.0
 11
49.000827
 21
190.3712379999998
 31
0.0
  0
LINE
  5
B6B0
330
B543
100
AcDbEntity
  8
1
  6
Continuous
100
AcDbLine
 10
49.58661
 20
191.8012339999999
 30
0.0
 11
47.586614
 21
190.3712379999998
 31
0.0
  0
ARC
  5
B6B1
330
B543
100
AcDbEntity
  8
1
  6
Continuous
100
AcDbCircle
 10
55.86614799999999
 20
200.1825769999999
 30
0.0
 40
1.5
100
AcDbArc
 50
270.0
 51
0.0
  0
LINE
  5
B6B2
330
B543
100
AcDbEntity
  8
1
  6
Continuous
100
AcDbLine
 10
47.86614799999997
 20
195.782477
 30
0.0
 11
47.86614799999997
 21
198.682577
 31
0.0
  0
LINE
  5
B6B3
330
B543
100
AcDbEntity
  8
1
  6
Continuous
100
AcDbLine
 10
59.486105
 20
191.8012339999999
 30
0.0
 11
57.486109
 21
190.3712379999998
 31
0.0
  0
LINE
  5
B6B4
330
B543
100
AcDbEntity
  8
1
  6
Continuous
100
AcDbLine
 10
57.36614799999999
 20
202.5825769999999
 30
0.0
 11
38.36614799999999
 21
202.5825769999999
 31
0.0
  0
LINE
  5
B6B5
330
B543
100
AcDbEntity
  8
1
  6
Continuous
100
AcDbLine
 10
51.866168
 20
233.182577
 30
0.0
 11
43.866168
 21
233.182577
 31
0.0
  0
LINE
  5
B6B6
330
B543
100
AcDbEntity
  8
1
  6
Continuous
100
AcDbLine
 10
50.366129
 20
234.682577
 30
0.0
 11
45.366168
 21
234.682577
 31
0.0
  0
LINE
  5
B6B7
330
B543
100
AcDbEntity
  8
1
  6
Continuous
100
AcDbLine
 10
39.61614799999999
 20
232.682577
 30
0.0
 11
56.11614799999999
 21
232.682577
 31
0.0
  0
LINE
  5
B6B8
330
B543
100
AcDbEntity
  8
1
  6
Continuous
100
AcDbLine
 10
57.36614799999999
 20
229.482577
 30
0.0
 11
38.36614799999999
 21
229.482577
 31
0.0
  0
LINE
  5
B6B9
330
B543
100
AcDbEntity
  8
1
  6
Continuous
100
AcDbLine
 10
43.866168
 20
233.182577
 30
0.0
 11
45.366168
 21
234.682577
 31
0.0
  0
LINE
  5
B6BA
330
B543
100
AcDbEntity
  8
1
  6
Continuous
100
AcDbLine
 10
43.866168
 20
232.682577
 30
0.0
 11
43.866168
 21
233.182577
 31
0.0
  0
LINE
  5
B6BB
330
B543
100
AcDbEntity
  8
2
  6
Continuous
100
AcDbLine
 10
44.54264799999999
 20
233.859057
 30
0.0
 11
44.54264799999999
 21
232.682577
 31
0.0
  0
LINE
  5
B6BC
330
B543
100
AcDbEntity
  8
1
  6
Continuous
100
AcDbLine
 10
39.61614799999999
 20
229.482577
 30
0.0
 11
39.61614799999999
 21
232.682577
 31
0.0
  0
LINE
  5
B6BD
330
B543
100
AcDbEntity
  8
1
  6
Continuous
100
AcDbLine
 10
51.866129
 20
233.182577
 30
0.0
 11
50.366129
 21
234.682577
 31
0.0
  0
LINE
  5
B6BE
330
B543
100
AcDbEntity
  8
1
  6
Continuous
100
AcDbLine
 10
51.866168
 20
232.682577
 30
0.0
 11
51.866168
 21
233.182577
 31
0.0
  0
LINE
  5
B6BF
330
B543
100
AcDbEntity
  8
1
  6
Continuous
100
AcDbLine
 10
56.11614799999999
 20
229.482577
 30
0.0
 11
56.11614799999999
 21
232.682577
 31
0.0
  0
LINE
  5
B6C0
330
B543
100
AcDbEntity
  8
2
  6
Continuous
100
AcDbLine
 10
51.189648
 20
233.8590579999999
 30
0.0
 11
51.189648
 21
232.682577
 31
0.0
  0
LINE
  5
B6C1
330
B543
100
AcDbEntity
  8
1
  6
Continuous
100
AcDbLine
 10
64.116049
 20
191.344324
 30
0.0
 11
63.142963
 21
190.3712379999998
 31
0.0
  0
LINE
  5
B6C2
330
B543
100
AcDbEntity
  8
1
  6
Continuous
100
AcDbLine
 10
64.116049
 20
191.8012339999999
 30
0.0
 11
64.116049
 21
190.3712379999998
 31
0.0
  0
LINE
  5
B6C3
330
B543
100
AcDbEntity
  8
1
  6
Continuous
100
AcDbLine
 10
64.116049
 20
191.8012339999999
 30
0.0
 11
64.116049
 21
190.3710439999999
 31
0.0
  0
ARC
  5
B6C4
330
B543
100
AcDbEntity
  8
1
  6
Continuous
100
AcDbCircle
 10
62.835817
 20
192.765626
 30
0.0
 40
1.098799999999998
100
AcDbArc
 50
20.306161
 51
60.57047500000001
  0
ARC
  5
B6C5
330
B543
100
AcDbEntity
  8
1
  6
Continuous
100
AcDbCircle
 10
61.51795400000001
 20
193.477837
 30
0.0
 40
2.371570999999998
100
AcDbArc
 50
315.0106999999998
 51
351.9797889999999
  0
ARC
  5
B6C6
330
B543
100
AcDbEntity
  8
1
  6
Continuous
100
AcDbCircle
 10
165.816531
 20
193.4779329999998
 30
0.0
 40
2.371570999999998
100
AcDbArc
 50
315.0106999999998
 51
351.9797889999999
  0
ARC
  5
B6C7
330
B543
100
AcDbEntity
  8
1
  6
Continuous
100
AcDbCircle
 10
167.1343939999998
 20
192.765722
 30
0.0
 40
1.098799999999998
100
AcDbArc
 50
20.306161
 51
60.57047500000001
  0
LINE
  5
B6C8
330
B543
100
AcDbEntity
  8
1
  6
Continuous
100
AcDbLine
 10
168.414626
 20
191.34342
 30
0.0
 11
167.4415399999998
 21
190.370334
 31
0.0
  0
LINE
  5
B6C9
330
B543
100
AcDbEntity
  8
1
  6
Continuous
100
AcDbLine
 10
168.414626
 20
191.8012899999999
 30
0.0
 11
135.9146259999999
 21
191.8013699999999
 31
0.0
  0
LINE
  5
B6CA
330
B543
100
AcDbEntity
  8
1
  6
Continuous
100
AcDbLine
 10
168.1649059999998
 20
193.1470459999999
 30
0.0
 11
136.164545
 21
193.1470459999999
 31
0.0
  0
LINE
  5
B6CB
330
B543
100
AcDbEntity
  8
1
  6
Continuous
100
AcDbLine
 10
161.6647249999998
 20
229.482673
 30
0.0
 11
161.6647249999998
 21
200.1826729999999
 31
0.0
  0
LINE
  5
B6CC
330
B543
100
AcDbEntity
  8
1
  6
Continuous
100
AcDbLine
 10
142.664725
 20
229.482673
 30
0.0
 11
142.664725
 21
200.1826729999999
 31
0.0
  0
ARC
  5
B6CD
330
B543
100
AcDbEntity
  8
1
  6
Continuous
100
AcDbCircle
 10
138.51292
 20
193.4779329999998
 30
0.0
 40
2.371570999999998
100
AcDbArc
 50
188.020211
 51
224.9867219999999
  0
ARC
  5
B6CE
330
B543
100
AcDbEntity
  8
1
  6
Continuous
100
AcDbCircle
 10
137.1950559999999
 20
192.765722
 30
0.0
 40
1.098799999999998
100
AcDbArc
 50
119.429525
 51
159.693839
  0
LINE
  5
B6CF
330
B543
100
AcDbEntity
  8
1
  6
Continuous
100
AcDbLine
 10
136.914625
 20
191.80133
 30
0.0
 11
135.9146259999999
 21
191.3703319999999
 31
0.0
  0
LINE
  5
B6D0
330
B543
100
AcDbEntity
  8
1
  6
Continuous
100
AcDbLine
 10
136.914625
 20
190.370334
 30
0.0
 11
135.9146259999999
 21
191.3703319999999
 31
0.0
  0
LINE
  5
B6D1
330
B543
100
AcDbEntity
  8
1
  6
Continuous
100
AcDbLine
 10
135.9146259999999
 20
191.80133
 30
0.0
 11
135.9146259999999
 21
190.370334
 31
0.0
  0
LINE
  5
B6D2
330
B543
100
AcDbEntity
  8
1
  6
Continuous
100
AcDbLine
 10
135.9146259999999
 20
191.80133
 30
0.0
 11
135.9146259999999
 21
190.370334
 31
0.0
  0
LINE
  5
B6D3
330
B543
100
AcDbEntity
  8
1
  6
Continuous
100
AcDbLine
 10
153.885187
 20
191.80133
 30
0.0
 11
151.8851909999999
 21
190.370334
 31
0.0
  0
LINE
  5
B6D4
330
B543
100
AcDbEntity
  8
1
  6
Continuous
100
AcDbLine
 10
151.8851909999999
 20
191.80133
 30
0.0
 11
153.885187
 21
190.370334
 31
0.0
  0
LINE
  5
B6D5
330
B543
100
AcDbEntity
  8
1
  6
Continuous
100
AcDbLine
 10
152.470974
 20
191.80133
 30
0.0
 11
150.470977
 21
190.370334
 31
0.0
  0
LINE
  5
B6D6
330
B543
100
AcDbEntity
  8
1
  6
Continuous
100
AcDbLine
 10
137.5046259999998
 20
195.7825729999999
 30
0.0
 11
166.824626
 21
195.7825729999999
 31
0.0
  0
LINE
  5
B6D7
330
B543
100
AcDbEntity
  8
1
  6
Continuous
100
AcDbLine
 10
136.655158
 20
193.7227339999998
 30
0.0
 11
167.6742919999998
 21
193.7227339999998
 31
0.0
  0
LINE
  5
B6D8
330
B543
100
AcDbEntity
  8
1
  6
Continuous
100
AcDbLine
 10
148.228333
 20
191.80133
 30
0.0
 11
146.228337
 21
190.370334
 31
0.0
  0
LINE
  5
B6D9
330
B543
100
AcDbEntity
  8
1
  6
Continuous
100
AcDbLine
 10
146.228337
 20
191.80133
 30
0.0
 11
148.228333
 21
190.370334
 31
0.0
  0
ARC
  5
B6DA
330
B543
100
AcDbEntity
  8
1
  6
Continuous
100
AcDbCircle
 10
139.9656889999999
 20
193.282555
 30
0.0
 40
2.5
100
AcDbArc
 50
90.0
 51
169.858981
  0
LINE
  5
B6DB
330
B543
100
AcDbEntity
  8
1
  6
Continuous
100
AcDbLine
 10
138.3288379999999
 20
191.80133
 30
0.0
 11
136.3288419999999
 21
190.370334
 31
0.0
  0
LINE
  5
B6DC
330
B543
100
AcDbEntity
  8
1
  6
Continuous
100
AcDbLine
 10
139.743052
 20
191.80133
 30
0.0
 11
137.7430549999999
 21
190.370334
 31
0.0
  0
LINE
  5
B6DD
330
B543
100
AcDbEntity
  8
1
  6
Continuous
100
AcDbLine
 10
141.1572649999999
 20
191.80133
 30
0.0
 11
139.1572689999998
 21
190.370334
 31
0.0
  0
LINE
  5
B6DE
330
B543
100
AcDbEntity
  8
1
  6
Continuous
100
AcDbLine
 10
142.571479
 20
191.80133
 30
0.0
 11
140.571482
 21
190.370334
 31
0.0
  0
LINE
  5
B6DF
330
B543
100
AcDbEntity
  8
1
  6
Continuous
100
AcDbLine
 10
143.9856919999998
 20
191.80133
 30
0.0
 11
141.9856959999999
 21
190.370334
 31
0.0
  0
LINE
  5
B6E0
330
B543
100
AcDbEntity
  8
1
  6
Continuous
100
AcDbLine
 10
145.3999059999999
 20
191.80133
 30
0.0
 11
143.399909
 21
190.370334
 31
0.0
  0
LINE
  5
B6E1
330
B543
100
AcDbEntity
  8
1
  6
Continuous
100
AcDbLine
 10
146.814119
 20
191.80133
 30
0.0
 11
144.814123
 21
190.370334
 31
0.0
  0
LINE
  5
B6E2
330
B543
100
AcDbEntity
  8
1
  6
Continuous
100
AcDbLine
 10
137.7430549999999
 20
191.80133
 30
0.0
 11
139.743052
 21
190.370334
 31
0.0
  0
LINE
  5
B6E3
330
B543
100
AcDbEntity
  8
1
  6
Continuous
100
AcDbLine
 10
140.571482
 20
191.80133
 30
0.0
 11
142.571479
 21
190.370334
 31
0.0
  0
LINE
  5
B6E4
330
B543
100
AcDbEntity
  8
1
  6
Continuous
100
AcDbLine
 10
143.399909
 20
191.80133
 30
0.0
 11
145.3999059999999
 21
190.370334
 31
0.0
  0
LINE
  5
B6E5
330
B543
100
AcDbEntity
  8
1
  6
Continuous
100
AcDbLine
 10
149.642547
 20
191.80133
 30
0.0
 11
147.6425499999998
 21
190.370334
 31
0.0
  0
LINE
  5
B6E6
330
B543
100
AcDbEntity
  8
1
  6
Continuous
100
AcDbLine
 10
151.0567599999999
 20
191.80133
 30
0.0
 11
149.0567639999999
 21
190.370334
 31
0.0
  0
LINE
  5
B6E7
330
B543
100
AcDbEntity
  8
1
  6
Continuous
100
AcDbLine
 10
149.0567639999999
 20
191.80133
 30
0.0
 11
151.0567599999999
 21
190.370334
 31
0.0
  0
LINE
  5
B6E8
330
B543
100
AcDbEntity
  8
1
  6
Continuous
100
AcDbLine
 10
163.784682
 20
191.80133
 30
0.0
 11
161.784686
 21
190.370334
 31
0.0
  0
LINE
  5
B6E9
330
B543
100
AcDbEntity
  8
1
  6
Continuous
100
AcDbLine
 10
155.2994009999999
 20
191.80133
 30
0.0
 11
153.299404
 21
190.370334
 31
0.0
  0
LINE
  5
B6EA
330
B543
100
AcDbEntity
  8
1
  6
Continuous
100
AcDbLine
 10
156.7136139999998
 20
191.80133
 30
0.0
 11
154.713618
 21
190.370334
 31
0.0
  0
LINE
  5
B6EB
330
B543
100
AcDbEntity
  8
1
  6
Continuous
100
AcDbLine
 10
158.127828
 20
191.80133
 30
0.0
 11
156.127832
 21
190.370334
 31
0.0
  0
LINE
  5
B6EC
330
B543
100
AcDbEntity
  8
1
  6
Continuous
100
AcDbLine
 10
159.5420419999999
 20
191.80133
 30
0.0
 11
157.542045
 21
190.370334
 31
0.0
  0
LINE
  5
B6ED
330
B543
100
AcDbEntity
  8
1
  6
Continuous
100
AcDbLine
 10
160.9562549999999
 20
191.80133
 30
0.0
 11
158.9562589999999
 21
190.370334
 31
0.0
  0
LINE
  5
B6EE
330
B543
100
AcDbEntity
  8
1
  6
Continuous
100
AcDbLine
 10
162.3704689999998
 20
191.80133
 30
0.0
 11
160.370472
 21
190.370334
 31
0.0
  0
LINE
  5
B6EF
330
B543
100
AcDbEntity
  8
1
  6
Continuous
100
AcDbLine
 10
154.713618
 20
191.80133
 30
0.0
 11
156.7136139999998
 21
190.370334
 31
0.0
  0
LINE
  5
B6F0
330
B543
100
AcDbEntity
  8
1
  6
Continuous
100
AcDbLine
 10
157.542045
 20
191.80133
 30
0.0
 11
159.5420419999999
 21
190.370334
 31
0.0
  0
LINE
  5
B6F1
330
B543
100
AcDbEntity
  8
1
  6
Continuous
100
AcDbLine
 10
160.370472
 20
191.80133
 30
0.0
 11
162.3704689999998
 21
190.370334
 31
0.0
  0
LINE
  5
B6F2
330
B543
100
AcDbEntity
  8
1
  6
Continuous
100
AcDbLine
 10
165.1988959999999
 20
191.80133
 30
0.0
 11
163.198899
 21
190.370334
 31
0.0
  0
LINE
  5
B6F3
330
B543
100
AcDbEntity
  8
1
  6
Continuous
100
AcDbLine
 10
163.198899
 20
191.80133
 30
0.0
 11
165.1988959999999
 21
190.370334
 31
0.0
  0
ARC
  5
B6F4
330
B543
100
AcDbEntity
  8
1
  6
Continuous
100
AcDbCircle
 10
164.363802
 20
193.282555
 30
0.0
 40
2.5
100
AcDbArc
 50
10.141019
 51
90.0
  0
LINE
  5
B6F5
330
B543
100
AcDbEntity
  8
1
  6
Continuous
100
AcDbLine
 10
166.613109
 20
191.80133
 30
0.0
 11
164.613113
 21
190.370334
 31
0.0
  0
LINE
  5
B6F6
330
B543
100
AcDbEntity
  8
1
  6
Continuous
100
AcDbLine
 10
168.027323
 20
191.80133
 30
0.0
 11
166.0273259999998
 21
190.370334
 31
0.0
  0
LINE
  5
B6F7
330
B543
100
AcDbEntity
  8
1
  6
Continuous
100
AcDbLine
 10
166.0273259999998
 20
191.80133
 30
0.0
 11
168.027323
 21
190.370334
 31
0.0
  0
LINE
  5
B6F8
330
B543
100
AcDbEntity
  8
1
  6
Continuous
100
AcDbLine
 10
161.6647249999998
 20
202.5826729999999
 30
0.0
 11
142.664725
 21
202.5826729999999
 31
0.0
  0
LINE
  5
B6F9
330
B543
100
AcDbEntity
  8
1
  6
Continuous
100
AcDbLine
 10
137.5046259999998
 20
198.6826729999999
 30
0.0
 11
166.824626
 21
198.6826729999999
 31
0.0
  0
ARC
  5
B6FA
330
B543
100
AcDbEntity
  8
1
  6
Continuous
100
AcDbCircle
 10
144.164725
 20
200.1826729999999
 30
0.0
 40
1.5
100
AcDbArc
 50
180.0
 51
270.0
  0
ARC
  5
B6FB
330
B543
100
AcDbEntity
  8
1
  6
Continuous
100
AcDbCircle
 10
160.164725
 20
200.1826729999999
 30
0.0
 40
1.5
100
AcDbArc
 50
270.0
 51
0.0
  0
LINE
  5
B6FC
330
B543
100
AcDbEntity
  8
1
  6
Continuous
100
AcDbLine
 10
161.6647249999998
 20
229.482673
 30
0.0
 11
142.664725
 21
229.482673
 31
0.0
  0
LINE
  5
B6FD
330
B543
100
AcDbEntity
  8
1
  6
Continuous
100
AcDbLine
 10
142.914626
 20
232.682673
 30
0.0
 11
161.414626
 21
232.682673
 31
0.0
  0
LINE
  5
B6FE
330
B543
100
AcDbEntity
  8
1
  6
Continuous
100
AcDbLine
 10
154.6647059999999
 20
234.682673
 30
0.0
 11
149.6647449999999
 21
234.682673
 31
0.0
  0
LINE
  5
B6FF
330
B543
100
AcDbEntity
  8
1
  6
Continuous
100
AcDbLine
 10
156.1647449999999
 20
233.1826729999999
 30
0.0
 11
148.1647449999998
 21
233.1826729999999
 31
0.0
  0
LINE
  5
B700
330
B543
100
AcDbEntity
  8
2
  6
Continuous
100
AcDbLine
 10
148.841225
 20
233.8591529999999
 30
0.0
 11
148.841225
 21
232.682673
 31
0.0
  0
LINE
  5
B701
330
B543
100
AcDbEntity
  8
1
  6
Continuous
100
AcDbLine
 10
148.1647449999998
 20
232.682673
 30
0.0
 11
148.1647449999998
 21
233.1826729999999
 31
0.0
  0
LINE
  5
B702
330
B543
100
AcDbEntity
  8
1
  6
Continuous
100
AcDbLine
 10
148.1647449999998
 20
233.1826729999999
 30
0.0
 11
149.6647449999999
 21
234.682673
 31
0.0
  0
LINE
  5
B703
330
B543
100
AcDbEntity
  8
2
  6
Continuous
100
AcDbLine
 10
155.488225
 20
233.8591539999999
 30
0.0
 11
155.488225
 21
232.682673
 31
0.0
  0
LINE
  5
B704
330
B543
100
AcDbEntity
  8
1
  6
Continuous
100
AcDbLine
 10
156.1647449999999
 20
232.682673
 30
0.0
 11
156.1647449999999
 21
233.1826729999999
 31
0.0
  0
LINE
  5
B705
330
B543
100
AcDbEntity
  8
1
  6
Continuous
100
AcDbLine
 10
156.164706
 20
233.1826729999999
 30
0.0
 11
154.6647059999999
 21
234.682673
 31
0.0
  0
LINE
  5
B706
330
B543
100
AcDbEntity
  8
1
  6
Continuous
100
AcDbLine
 10
168.414626
 20
191.80133
 30
0.0
 11
168.414626
 21
190.370141
 31
0.0
  0
LINE
  5
B707
330
B543
100
AcDbEntity
  8
1
  6
Continuous
100
AcDbLine
 10
168.414626
 20
191.80133
 30
0.0
 11
168.414626
 21
190.370334
 31
0.0
  0
LINE
  5
B708
330
B543
100
AcDbEntity
  8
1
  6
Continuous
100
AcDbLine
 10
147.981326
 20
232.682673
 30
0.0
 11
147.981326
 21
229.482673
 31
0.0
  0
LINE
  5
B709
330
B543
100
AcDbEntity
  8
1
  6
Continuous
100
AcDbLine
 10
142.914626
 20
229.482673
 30
0.0
 11
142.914626
 21
232.682673
 31
0.0
  0
LINE
  5
B70A
330
B543
100
AcDbEntity
  8
1
  6
Continuous
100
AcDbLine
 10
161.414626
 20
229.482673
 30
0.0
 11
161.414626
 21
232.682673
 31
0.0
  0
LINE
  5
B70B
330
B543
100
AcDbEntity
  8
1
  6
Continuous
100
AcDbLine
 10
156.347926
 20
232.682673
 30
0.0
 11
156.347926
 21
229.482673
 31
0.0
  0
ARC
  5
B70C
330
B543
100
AcDbEntity
  8
1
  6
Continuous
100
AcDbCircle
 10
152.164619
 20
296.634862
 30
0.0
 40
18.85
100
AcDbArc
 50
236.2759829999999
 51
123.7240169999999
  0
ARC
  5
B70D
330
B543
100
AcDbEntity
  8
1
  6
Continuous
100
AcDbCircle
 10
143.165027
 20
296.634862
 30
0.0
 40
35.0
100
AcDbArc
 50
165.301576
 51
194.698424
  0
ARC
  5
B70E
330
B543
100
AcDbEntity
  8
1
  6
Continuous
100
AcDbCircle
 10
110.761324
 20
305.134862
 30
0.0
 40
1.5
100
AcDbArc
 50
90.0
 51
165.301576
  0
ARC
  5
B70F
330
B543
100
AcDbEntity
  8
1
  6
Continuous
100
AcDbCircle
 10
110.761324
 20
288.134862
 30
0.0
 40
1.5
100
AcDbArc
 50
194.698424
 51
270.0
  0
CIRCLE
  5
B710
330
B543
100
AcDbEntity
  8
2
  6
Continuous
100
AcDbCircle
 10
152.164619
 20
296.634862
 30
0.0
 40
3.3235
  0
CIRCLE
  5
B711
330
B543
100
AcDbEntity
  8
1
  6
Continuous
100
AcDbCircle
 10
152.164619
 20
296.634862
 30
0.0
 40
2.499874
  0
ARC
  5
B712
330
B543
100
AcDbEntity
  8
1
  6
Continuous
100
AcDbCircle
 10
137.8132369999999
 20
91.50985199999999
 30
0.0
 40
7.0
100
AcDbArc
 50
284.6805419999999
 51
303.723059
  0
ARC
  5
B713
330
B543
100
AcDbEntity
  8
1
  6
Continuous
100
AcDbCircle
 10
137.8128769999999
 20
91.50961200000001
 30
0.0
 40
9.0
100
AcDbArc
 50
270.0
 51
303.724017
  0
ARC
  5
B714
330
B543
100
AcDbEntity
  8
1
  6
Continuous
100
AcDbCircle
 10
137.8128769999999
 20
48.509612
 30
0.0
 40
9.0
100
AcDbArc
 50
56.27598299999999
 51
90.0
  0
ARC
  5
B715
330
B543
100
AcDbEntity
  8
1
  6
Continuous
100
AcDbCircle
 10
137.8132369999999
 20
48.509372
 30
0.0
 40
7.0
100
AcDbArc
 50
56.276941
 51
90.0
  0
ARC
  5
B716
330
B543
100
AcDbEntity
  8
1
  6
Continuous
100
AcDbCircle
 10
137.8128769999999
 20
318.134862
 30
0.0
 40
7.0
100
AcDbArc
 50
270.0
 51
303.724017
  0
ARC
  5
B717
330
B543
100
AcDbEntity
  8
1
  6
Continuous
100
AcDbCircle
 10
137.8128769999999
 20
275.1348619999999
 30
0.0
 40
7.0
100
AcDbArc
 50
56.27598299999999
 51
90.0
  0
ARC
  5
B718
330
B543
100
AcDbEntity
  8
1
  6
Continuous
100
AcDbCircle
 10
156.167527
 20
70.009612
 30
0.0
 40
30.0
100
AcDbArc
 50
155.375682
 51
157.4596899999999
  0
ARC
  5
B719
330
B543
100
AcDbEntity
  8
1
  6
Continuous
100
AcDbCircle
 10
156.167527
 20
70.009612
 30
0.0
 40
30.0
100
AcDbArc
 50
202.54031
 51
204.6243179999999
  0
ARC
  5
B71A
330
B543
100
AcDbEntity
  8
1
  6
Continuous
100
AcDbCircle
 10
65.012106
 20
137.4709259999999
 30
0.0
 40
1.0
100
AcDbArc
 50
97.370643
 51
135.3226
  0
LINE
  5
B71B
330
B543
100
AcDbEntity
  8
1
  6
Continuous
100
AcDbLine
 10
65.472342
 20
170.2902159999998
 30
0.0
 11
60.47234200000001
 21
170.2902159999998
 31
0.0
  0
LINE
  5
B71C
330
B543
100
AcDbEntity
  8
1
  6
Continuous
100
AcDbLine
 10
65.472342
 20
170.2902159999998
 30
0.0
 11
60.47234200000001
 21
170.2902159999998
 31
0.0
  0
LINE
  5
B71D
330
B543
100
AcDbEntity
  8
1
  6
Continuous
100
AcDbLine
 10
65.472342
 20
172.2902159999999
 30
0.0
 11
60.47234200000001
 21
172.2902159999999
 31
0.0
  0
LINE
  5
B71E
330
B543
100
AcDbEntity
  8
1
  6
Continuous
100
AcDbLine
 10
64.366049
 20
150.0039069999999
 30
0.0
 11
67.363196
 21
150.0039069999999
 31
0.0
  0
LINE
  5
B71F
330
B543
100
AcDbEntity
  8
1
  6
Continuous
100
AcDbLine
 10
63.79228799999999
 20
149.1318599999999
 30
0.0
 11
65.48921800000001
 21
148.6236659999998
 31
0.0
  0
LINE
  5
B720
330
B543
100
AcDbEntity
  8
1
  6
Continuous
100
AcDbLine
 10
65.472342
 20
167.427018
 30
0.0
 11
60.47234200000001
 21
167.427018
 31
0.0
  0
ARC
  5
B721
330
B543
100
AcDbEntity
  8
1
  6
Continuous
100
AcDbCircle
 10
64.60680299999999
 20
163.890329
 30
0.0
 40
0.5
100
AcDbArc
 50
3.077856
 51
90.00000500000002
  0
LINE
  5
B722
330
B543
100
AcDbEntity
  8
1
  6
Continuous
100
AcDbLine
 10
64.366049
 20
164.390329
 30
0.0
 11
66.915274
 21
164.390329
 31
0.0
  0
LINE
  5
B723
330
B543
100
AcDbEntity
  8
1
  6
Continuous
100
AcDbLine
 10
67.84488499999999
 20
149.4482819999998
 30
0.0
 11
63.95801399999999
 21
137.0827879999999
 31
0.0
  0
LINE
  5
B724
330
B543
100
AcDbEntity
  8
1
  6
Continuous
100
AcDbLine
 10
65.489203
 20
148.6236659999998
 30
0.0
 11
62.05005500000001
 21
137.6825189999999
 31
0.0
  0
LINE
  5
B725
330
B543
100
AcDbEntity
  8
1
  6
Continuous
100
AcDbLine
 10
64.366049
 20
167.427018
 30
0.0
 11
64.366049
 21
150.0039069999999
 31
0.0
  0
LINE
  5
B726
330
B543
100
AcDbEntity
  8
1
  6
Continuous
100
AcDbLine
 10
62.36604899999999
 20
159.825105
 30
0.0
 11
62.36604899999999
 21
151.047784
 31
0.0
  0
ARC
  5
B727
330
B543
100
AcDbEntity
  8
1
  6
Continuous
100
AcDbCircle
 10
64.366049
 20
151.047784
 30
0.0
 40
2.0
100
AcDbArc
 50
179.999997
 51
253.3282509999999
  0
LINE
  5
B728
330
B543
100
AcDbEntity
  8
1
  6
Continuous
100
AcDbLine
 10
63.95801399999999
 20
137.0827879999999
 30
0.0
 11
62.05005500000001
 21
137.6825189999999
 31
0.0
  0
LINE
  5
B729
330
B543
100
AcDbEntity
  8
1
  6
Continuous
100
AcDbLine
 10
63.40444
 20
149.248002
 30
0.0
 11
61.98283299999999
 21
137.4686669999998
 31
0.0
  0
ARC
  5
B72A
330
B543
100
AcDbEntity
  8
1
  6
Continuous
100
AcDbCircle
 10
60.47234200000001
 20
170.2902159999998
 30
0.0
 40
2.0
100
AcDbArc
 50
90.00000500000002
 51
180.0000009999999
  0
LINE
  5
B72B
330
B543
100
AcDbEntity
  8
1
  6
Continuous
100
AcDbLine
 10
59.472342
 20
159.825105
 30
0.0
 11
62.36604899999999
 21
159.825105
 31
0.0
  0
LINE
  5
B72C
330
B543
100
AcDbEntity
  8
1
  6
Continuous
100
AcDbLine
 10
60.47234200000001
 20
160.325105
 30
0.0
 11
63.366049
 21
160.325105
 31
0.0
  0
ARC
  5
B72D
330
B543
100
AcDbEntity
  8
1
  6
Continuous
100
AcDbCircle
 10
59.472342
 20
160.8251049999998
 30
0.0
 40
1.0
100
AcDbArc
 50
179.999997
 51
269.9999969999999
  0
ARC
  5
B72E
330
B543
100
AcDbEntity
  8
1
  6
Continuous
100
AcDbCircle
 10
63.366049
 20
159.325105
 30
0.0
 40
1.0
100
AcDbArc
 50
0.000003
 51
90.00000500000002
  0
LINE
  5
B72F
330
B543
100
AcDbEntity
  8
1
  6
Continuous
100
AcDbLine
 10
60.47234200000001
 20
170.2902159999998
 30
0.0
 11
60.47234200000001
 21
160.325105
 31
0.0
  0
LINE
  5
B730
330
B543
100
AcDbEntity
  8
1
  6
Continuous
100
AcDbLine
 10
58.47234199999999
 20
170.2902159999998
 30
0.0
 11
58.47234199999999
 21
160.8251049999998
 31
0.0
  0
ARC
  5
B731
330
B543
100
AcDbEntity
  8
1
  6
Continuous
100
AcDbCircle
 10
210.756917
 20
188.7834259999999
 30
0.0
 40
19.356407
100
AcDbArc
 50
255.410175
 51
266.3160179999999
  0
LINE
  5
B732
330
B543
100
AcDbEntity
  8
1
  6
Continuous
100
AcDbLine
 10
205.2569169999999
 20
170.8586209999999
 30
0.0
 11
205.2569169999999
 21
169.427026
 31
0.0
  0
LINE
  5
B733
330
B543
100
AcDbEntity
  8
5
  6
PHANTOM
100
AcDbLine
 10
119.312118
 20
158.992303
 30
0.0
 11
123.0762169999999
 21
160.0721069999999
 31
0.0
  0
ARC
  5
B734
330
B543
100
AcDbEntity
  8
1
  6
Continuous
100
AcDbCircle
 10
121.6620929999999
 20
171.961702
 30
0.0
 40
4.93677
100
AcDbArc
 50
251.7994349999999
 51
284.6765299999999
  0
ARC
  5
B735
330
B543
100
AcDbEntity
  8
5
  6
PHANTOM
100
AcDbCircle
 10
459.239837
 20
-896.2690569999999
 30
0.0
 40
1096.410278
100
AcDbArc
 50
107.688082
 51
107.9409899999999
  0
ARC
  5
B736
330
B543
100
AcDbEntity
  8
1
  6
Continuous
100
AcDbCircle
 10
108.907211
 20
121.8270889999998
 30
0.0
 40
35.431274
100
AcDbArc
 50
59.45394900000001
 51
68.68807700000001
  0
ARC
  5
B737
330
B543
100
AcDbEntity
  8
1
  6
Continuous
100
AcDbCircle
 10
117.4183799999999
 20
84.50985199999998
 30
0.0
 40
2.0
100
AcDbArc
 50
90.00000300000001
 51
153.4156519999999
  0
ARC
  5
B738
330
B543
100
AcDbEntity
  8
1
  6
Continuous
100
AcDbCircle
 10
116.355529
 20
82.61614499999998
 30
0.0
 40
2.0
100
AcDbArc
 50
269.9999969999999
 51
333.4156469999999
  0
LINE
  5
B739
330
B543
100
AcDbEntity
  8
1
  6
Continuous
100
AcDbLine
 10
117.3607779999999
 20
84.50984400000001
 30
0.0
 11
115.965225
 21
81.72109499999997
 31
0.0
  0
LINE
  5
B73A
330
B543
100
AcDbEntity
  8
1
  6
Continuous
100
AcDbLine
 10
115.6298209999998
 20
85.40487199999999
 30
0.0
 11
114.234283
 21
82.61613699999998
 31
0.0
  0
LINE
  5
B73B
330
B543
100
AcDbEntity
  8
1
  6
Continuous
100
AcDbLine
 10
106.0387259999999
 20
80.61614500000002
 30
0.0
 11
106.0387259999999
 21
87.61614499999996
 31
0.0
  0
ARC
  5
B73C
330
B543
100
AcDbEntity
  8
1
  6
Continuous
100
AcDbCircle
 10
111.538726
 20
87.61614499999996
 30
0.0
 40
5.5
100
AcDbArc
 50
0.0
 51
180.000005
  0
ARC
  5
B73D
330
B543
100
AcDbEntity
  8
1
  6
Continuous
100
AcDbCircle
 10
114.176681
 20
82.61614499999998
 30
0.0
 40
2.0
100
AcDbArc
 50
269.9999969999999
 51
333.4156469999999
  0
LINE
  5
B73E
330
B543
100
AcDbEntity
  8
1
  6
Continuous
100
AcDbLine
 10
107.532852
 20
80.61614500000002
 30
0.0
 11
107.532852
 21
82.61614499999998
 31
0.0
  0
LINE
  5
B73F
330
B543
100
AcDbEntity
  8
1
  6
Continuous
100
AcDbLine
 10
106.0387259999999
 20
80.61614500000002
 30
0.0
 11
116.355529
 21
80.61614500000002
 31
0.0
  0
LINE
  5
B740
330
B543
100
AcDbEntity
  8
1
  6
Continuous
100
AcDbLine
 10
106.0387259999999
 20
82.61614499999998
 30
0.0
 11
114.234283
 21
82.61614499999998
 31
0.0
  0
LINE
  5
B741
330
B543
100
AcDbEntity
  8
1
  6
Continuous
100
AcDbLine
 10
117.098053
 20
86.50985199999999
 30
0.0
 11
117.098053
 21
87.61614499999996
 31
0.0
  0
LINE
  5
B742
330
B543
100
AcDbEntity
  8
1
  6
Continuous
100
AcDbLine
 10
67.84488499999999
 20
151.9095379999999
 30
0.0
 11
67.84488499999999
 21
149.448289
 31
0.0
  0
ARC
  5
B743
330
B543
100
AcDbEntity
  8
1
  6
Continuous
100
AcDbCircle
 10
69.876227
 20
145.5014659999999
 30
0.0
 40
6.340179
100
AcDbArc
 50
277.370682
 51
309.623304
  0
LINE
  5
B744
330
B543
100
AcDbEntity
  8
1
  6
Continuous
100
AcDbLine
 10
75.376227
 20
144.8945249999999
 30
0.0
 11
75.376227
 21
143.7150509999999
 31
0.0
  0
ARC
  5
B745
330
B543
100
AcDbEntity
  8
1
  6
Continuous
100
AcDbCircle
 10
71.355307
 20
144.8945249999999
 30
0.0
 40
4.020926
100
AcDbArc
 50
351.566194
 51
50.37669799999999
  0
ARC
  5
B746
330
B543
100
AcDbEntity
  8
1
  6
Continuous
100
AcDbCircle
 10
71.355307
 20
143.7150509999999
 30
0.0
 40
4.020926
100
AcDbArc
 50
309.623304
 51
61.115504
  0
LINE
  5
B747
330
B543
100
AcDbEntity
  8
1
  6
Continuous
100
AcDbLine
 10
67.47414300000001
 20
148.2688149999999
 30
0.0
 11
69.876227
 21
148.2688149999999
 31
0.0
  0
LINE
  5
B748
330
B543
100
AcDbEntity
  8
1
  6
Continuous
100
AcDbLine
 10
67.84488499999999
 20
149.448289
 30
0.0
 11
69.876227
 21
149.448289
 31
0.0
  0
ARC
  5
B749
330
B543
100
AcDbEntity
  8
1
  6
Continuous
100
AcDbCircle
 10
67.363196
 20
149.52221
 30
0.0
 40
0.481696
100
AcDbArc
 50
342.5503990000001
 51
90.00000500000002
  0
LINE
  5
B74A
330
B543
100
AcDbEntity
  8
1
  6
Continuous
100
AcDbLine
 10
64.883826
 20
138.462655
 30
0.0
 11
70.68959699999997
 21
139.21367
 31
0.0
  0
ARC
  5
B74B
330
B543
100
AcDbEntity
  8
1
  6
Continuous
100
AcDbCircle
 10
69.876227
 20
141.928636
 30
0.0
 40
6.340179
100
AcDbArc
 50
50.37669799999999
 51
90.00000500000002
  0
ARC
  5
B74C
330
B543
100
AcDbEntity
  8
1
  6
Continuous
100
AcDbCircle
 10
69.876227
 20
143.10811
 30
0.0
 40
6.340179
100
AcDbArc
 50
50.37669799999999
 51
90.00000500000002
  0
ARC
  5
B74D
330
B543
100
AcDbEntity
  8
1
  6
Continuous
100
AcDbCircle
 10
65.472342
 20
150.9338089999999
 30
0.0
 40
19.356407
100
AcDbArc
 50
75.41017499999998
 51
90.00000500000002
  0
ARC
  5
B74E
330
B543
100
AcDbEntity
  8
1
  6
Continuous
100
AcDbCircle
 10
65.472342
 20
152.9338089999999
 30
0.0
 40
19.356407
100
AcDbArc
 50
75.41017499999998
 51
90.00000500000002
  0
ARC
  5
B74F
330
B543
100
AcDbEntity
  8
1
  6
Continuous
100
AcDbCircle
 10
70.138007
 20
170.858613
 30
0.0
 40
0.834336
100
AcDbArc
 50
0.000003
 51
75.41017499999998
  0
ARC
  5
B750
330
B543
100
AcDbEntity
  8
1
  6
Continuous
100
AcDbCircle
 10
65.472342
 20
186.783426
 30
0.0
 40
19.356407
100
AcDbArc
 50
269.9999969999999
 51
284.589829
  0
ARC
  5
B751
330
B543
100
AcDbEntity
  8
1
  6
Continuous
100
AcDbCircle
 10
66.915274
 20
163.890329
 30
0.0
 40
0.5
100
AcDbArc
 50
3.077856
 51
90.00000500000002
  0
LINE
  5
B752
330
B543
100
AcDbEntity
  8
1
  6
Continuous
100
AcDbLine
 10
65.106085
 20
163.917176
 30
0.0
 11
65.113298
 21
163.7830379999998
 31
0.0
  0
LINE
  5
B753
330
B543
100
AcDbEntity
  8
1
  6
Continuous
100
AcDbLine
 10
67.41455699999999
 20
163.917176
 30
0.0
 11
67.43932700000001
 21
163.4565379999999
 31
0.0
  0
LINE
  5
B754
330
B543
100
AcDbEntity
  8
1
  6
Continuous
100
AcDbLine
 10
70.97234199999999
 20
170.858613
 30
0.0
 11
70.97234199999999
 21
168.858613
 31
0.0
  0
ARC
  5
B755
330
B543
100
AcDbEntity
  8
1
  6
Continuous
100
AcDbCircle
 10
70.138007
 20
168.858613
 30
0.0
 40
0.834336
100
AcDbArc
 50
284.589829
 51
75.41017499999998
  0
LINE
  5
B756
330
B543
100
AcDbEntity
  8
1
  6
Continuous
100
AcDbLine
 10
118.9802999999999
 20
167.7039429999998
 30
0.0
 11
115.083312
 21
157.174554
 31
0.0
  0
ARC
  5
B757
330
B543
100
AcDbEntity
  8
5
  6
PHANTOM
100
AcDbCircle
 10
115.23912
 20
161.540681
 30
0.0
 40
4.93677
100
AcDbArc
 50
290.799433
 51
323.676531
  0
ARC
  5
B758
330
B543
100
AcDbEntity
  8
1
  6
Continuous
100
AcDbCircle
 10
105.5099019999999
 20
136.5540329999997
 30
0.0
 40
22.719694
100
AcDbArc
 50
65.227289
 51
72.51581100000001
  0
ARC
  5
B759
330
B543
100
AcDbEntity
  8
5
  6
PHANTOM
100
AcDbCircle
 10
-1788.187012
 20
-4923.495986
 30
0.0
 40
5415.550781
100
AcDbArc
 50
69.50158
 51
69.53411200000001
  0
LINE
  5
B75A
330
B543
100
AcDbEntity
  8
5
  6
PHANTOM
100
AcDbLine
 10
104.059875
 20
150.520135
 30
0.0
 11
114.5244589999999
 21
155.180856
 31
0.0
  0
LINE
  5
B75B
330
B543
100
AcDbEntity
  8
5
  6
PHANTOM
100
AcDbLine
 10
103.504958
 20
152.460237
 30
0.0
 11
113.729827
 21
157.055909
 31
0.0
  0
LINE
  5
B75C
330
B543
100
AcDbEntity
  8
5
  6
PHANTOM
100
AcDbLine
 10
103.504974
 20
152.460237
 30
0.0
 11
104.1032399999999
 21
150.3685619999999
 31
0.0
  0
ARC
  5
B75D
330
B543
100
AcDbEntity
  8
5
  6
PHANTOM
100
AcDbCircle
 10
104.450927
 20
147.7972499999999
 30
0.0
 40
2.594708999999999
100
AcDbArc
 50
69.53411200000001
 51
97.70087700000001
  0
ARC
  5
B75E
330
B543
100
AcDbEntity
  8
5
  6
PHANTOM
100
AcDbCircle
 10
115.6734919999999
 20
158.9795619999999
 30
0.0
 40
2.440793999999999
100
AcDbArc
 50
271.258398
 51
302.701659
  0
LINE
  5
B75F
330
B543
100
AcDbEntity
  8
5
  6
PHANTOM
100
AcDbLine
 10
114.5244589999999
 20
155.180848
 30
0.0
 11
113.896056
 21
157.058603
 31
0.0
  0
ARC
  5
B760
330
B543
100
AcDbEntity
  8
5
  6
PHANTOM
100
AcDbCircle
 10
114.3748159999999
 20
155.322641
 30
0.0
 40
1.038931
100
AcDbArc
 50
70.09784200000002
 51
103.151006
  0
ARC
  5
B761
330
B543
100
AcDbEntity
  8
5
  6
PHANTOM
100
AcDbCircle
 10
116.0645289999999
 20
152.935464
 30
0.0
 40
3.619658999999998
100
AcDbArc
 50
95.34903100000002
 51
111.6606219999999
  0
ARC
  5
B762
330
B543
100
AcDbEntity
  8
1
  6
Continuous
100
AcDbCircle
 10
-276.7003639999999
 20
-866.5975479999998
 30
0.0
 40
1096.410278
100
AcDbArc
 50
68.68807700000001
 51
68.940993
  0
ARC
  5
B763
330
B543
100
AcDbEntity
  8
1
  6
Continuous
100
AcDbCircle
 10
113.3554379999998
 20
146.4129879999999
 30
0.0
 40
10.8994
100
AcDbArc
 50
68.940993
 51
81.16270799999998
  0
ARC
  5
B764
330
B543
100
AcDbEntity
  8
5
  6
PHANTOM
100
AcDbCircle
 10
124.861968
 20
136.4580629999998
 30
0.0
 40
10.8994
100
AcDbArc
 50
107.9409899999999
 51
120.162712
  0
ARC
  5
B765
330
B543
100
AcDbEntity
  8
5
  6
PHANTOM
100
AcDbCircle
 10
124.969283
 20
123.858857
 30
0.0
 40
22.719694
100
AcDbArc
 50
104.227287
 51
111.515809
  0
ARC
  5
B766
330
B543
100
AcDbEntity
  8
5
  6
PHANTOM
100
AcDbCircle
 10
106.775436
 20
170.0092939999999
 30
0.0
 40
26.88754799999999
100
AcDbArc
 50
287.720507
 51
291.5158109999999
  0
ARC
  5
B767
330
B543
100
AcDbEntity
  8
5
  6
PHANTOM
100
AcDbCircle
 10
105.8788749999998
 20
142.838998
 30
0.0
 40
6.739846
100
AcDbArc
 50
25.095239
 51
69.50158
  0
ARC
  5
B768
330
B543
100
AcDbEntity
  8
5
  6
PHANTOM
100
AcDbCircle
 10
114.210479
 20
146.74096
 30
0.0
 40
2.460205999999999
100
AcDbArc
 50
205.095244
 51
287.720507
  0
LINE
  5
B769
330
B543
100
AcDbEntity
  8
5
  6
PHANTOM
100
AcDbLine
 10
115.8344719999999
 20
156.5440759999999
 30
0.0
 11
119.432296
 21
145.9087539999999
 31
0.0
  0
ARC
  5
B76A
330
B543
100
AcDbEntity
  8
1
  6
Continuous
100
AcDbCircle
 10
104.6290579999999
 20
168.0702829999999
 30
0.0
 40
2.594708999999999
100
AcDbArc
 50
30.53411500000001
 51
58.700872
  0
LINE
  5
B76B
330
B543
100
AcDbEntity
  8
1
  6
Continuous
100
AcDbLine
 10
106.828429
 20
172.2894149999999
 30
0.0
 11
105.977035
 21
170.287378
 31
0.0
  0
LINE
  5
B76C
330
B543
100
AcDbEntity
  8
1
  6
Continuous
100
AcDbLine
 10
106.0387259999999
 20
170.432451
 30
0.0
 11
117.104324
 21
167.468934
 31
0.0
  0
LINE
  5
B76D
330
B543
100
AcDbEntity
  8
5
  6
PHANTOM
100
AcDbLine
 10
119.3121029999999
 20
158.992303
 30
0.0
 11
119.2166129999999
 21
158.6164259999998
 31
0.0
  0
ARC
  5
B76E
330
B543
100
AcDbEntity
  8
1
  6
Continuous
100
AcDbCircle
 10
117.6130669999998
 20
169.222833
 30
0.0
 40
0.210357
100
AcDbArc
 50
28.650816
 51
75.20206299999998
  0
ARC
  5
B76F
330
B543
100
AcDbEntity
  8
1
  6
Continuous
100
AcDbCircle
 10
116.888107
 20
164.754747
 30
0.0
 40
3.619658999999998
100
AcDbArc
 50
56.349033
 51
72.66062499999998
  0
ARC
  5
B770
330
B543
100
AcDbEntity
  8
1
  6
Continuous
100
AcDbCircle
 10
117.0772549999999
 20
167.673303
 30
0.0
 40
1.038931
100
AcDbArc
 50
31.097841
 51
64.15100799999999
  0
LINE
  5
B771
330
B543
100
AcDbEntity
  8
1
  6
Continuous
100
AcDbLine
 10
117.104324
 20
167.468934
 30
0.0
 11
117.7976679999999
 21
169.323694
 31
0.0
  0
ARC
  5
B772
330
B543
100
AcDbEntity
  8
1
  6
Continuous
100
AcDbCircle
 10
120.3878929999999
 20
169.697984
 30
0.0
 40
2.440793999999999
100
AcDbArc
 50
232.2584009999999
 51
263.7016609999998
  0
ARC
  5
B773
330
B543
100
AcDbEntity
  8
1
  6
Continuous
100
AcDbCircle
 10
111.5489189999999
 20
161.107507
 30
0.0
 40
2.460205999999999
100
AcDbArc
 50
166.0952429999998
 51
248.7204919999999
  0
ARC
  5
B774
330
B543
100
AcDbEntity
  8
1
  6
Continuous
100
AcDbCircle
 10
120.4140309999999
 20
183.869417
 30
0.0
 40
26.88754799999999
100
AcDbArc
 50
248.720502
 51
252.5158129999999
  0
ARC
  5
B775
330
B543
100
AcDbEntity
  8
1
  6
Continuous
100
AcDbCircle
 10
102.618453
 20
163.318361
 30
0.0
 40
6.739846
100
AcDbArc
 50
346.095239
 51
30.501579
  0
ARC
  5
B776
330
B543
100
AcDbEntity
  8
1
  6
Continuous
100
AcDbCircle
 10
-4557.695190999999
 20
-2581.98915
 30
0.0
 40
5415.550781
100
AcDbArc
 50
30.501579
 51
30.53411500000001
  0
LINE
  5
B777
330
B543
100
AcDbEntity
  8
1
  6
Continuous
100
AcDbLine
 10
106.828429
 20
172.2894149999999
 30
0.0
 11
117.666793
 21
169.4262099999999
 31
0.0
  0
LWPOLYLINE
  5
B778
330
B543
100
AcDbEntity
  8
1
  6
Continuous
100
AcDbPolyline
 90
        2
 70
     0
 43
0.0
 10
149.1222529999998
 20
86.73414099999998
 10
149.658737
 20
83.91758199999998
  0
LINE
  5
B77C
330
B543
100
AcDbEntity
  8
1
  6
Continuous
100
AcDbLine
 10
139.9386589999998
 20
88.09226499999999
 30
0.0
 11
161.407568
 21
84.917291
 31
0.0
  0
LINE
  5
B77D
330
B543
100
AcDbEntity
  8
1
  6
Continuous
100
AcDbLine
 10
140.786178
 20
89.98867999999999
 30
0.0
 11
162.170486
 21
86.82622
 31
0.0
  0
LINE
  5
B77E
330
B543
100
AcDbEntity
  8
1
  6
Continuous
100
AcDbLine
 10
119.539627
 20
84.50984400000001
 30
0.0
 11
118.1440879999999
 21
81.72110999999999
 31
0.0
  0
LINE
  5
B77F
330
B543
100
AcDbEntity
  8
1
  6
Continuous
100
AcDbLine
 10
117.3607779999999
 20
84.50985199999998
 30
0.0
 11
138.658874
 21
84.50985199999998
 31
0.0
  0
LINE
  5
B780
330
B543
100
AcDbEntity
  8
1
  6
Continuous
100
AcDbLine
 10
117.4183799999999
 20
86.50985199999999
 30
0.0
 11
136.480026
 21
86.50985199999999
 31
0.0
  0
LWPOLYLINE
  5
B781
330
B543
100
AcDbEntity
  8
1
  6
Continuous
100
AcDbPolyline
 90
        2
 70
     0
 43
0.0
 10
140.3229819999999
 20
85.40044599999998
 10
141.941787
 20
87.828654
  0
ARC
  5
B785
330
B543
100
AcDbEntity
  8
1
  6
Continuous
100
AcDbCircle
 10
140.1789549999998
 20
87.55129499999998
 30
0.0
 40
0.5
100
AcDbArc
 50
81.58765499999999
 51
146.309933
  0
ARC
  5
B786
330
B543
100
AcDbEntity
  8
1
  6
Continuous
100
AcDbCircle
 10
136.480026
 20
86.50985199999999
 30
0.0
 40
2.0
100
AcDbArc
 50
269.9999969999999
 51
326.309931
  0
LWPOLYLINE
  5
B787
330
B543
100
AcDbEntity
  8
1
  6
Continuous
100
AcDbPolyline
 90
        2
 70
     0
 43
0.0
 10
136.480026
 20
86.50985199999999
 10
137.962646
 20
88.73378999999998
  0
LWPOLYLINE
  5
B78B
330
B543
100
AcDbEntity
  8
1
  6
Continuous
100
AcDbPolyline
 90
        2
 70
     0
 43
0.0
 10
138.144134
 20
85.40044599999998
 10
139.9386739999999
 20
88.09226499999999
  0
ARC
  5
B78F
330
B543
100
AcDbEntity
  8
1
  6
Continuous
100
AcDbCircle
 10
138.658874
 20
86.50985199999999
 30
0.0
 40
2.0
100
AcDbArc
 50
269.9999969999999
 51
326.309931
  0
LWPOLYLINE
  5
B790
330
B543
100
AcDbEntity
  8
1
  6
Continuous
100
AcDbPolyline
 90
       18
 70
     0
 43
0.0
 10
137.9626309999999
 20
88.73375899999997
 10
138.078628
 20
88.884821
 10
138.2037959999999
 20
89.02837599999998
 10
138.3376309999999
 20
89.16387399999996
 10
138.4796899999997
 20
89.29082699999998
 10
138.6293179999998
 20
89.408671
 10
138.7859949999999
 20
89.51699299999999
 10
138.949127
 20
89.61538199999997
 10
139.1180419999998
 20
89.70340999999995
 10
139.2920829999999
 20
89.78077199999999
 10
139.4706569999999
 20
89.847178
 10
139.6529539999999
 20
89.90233899999998
 10
139.838333
 20
89.946055
 10
140.0260769999999
 20
89.97816
 10
140.2154989999999
 20
89.99854499999996
 10
140.405777
 20
90.00710500000002
 10
140.596206
 20
90.003825
 10
140.786163
 20
89.98868799999998
  0
ARC
  5
B7A4
330
B543
100
AcDbEntity
  8
1
  6
Continuous
100
AcDbCircle
 10
161.7001639999998
 20
86.89577699999999
 30
0.0
 40
2.0
100
AcDbArc
 50
261.5876559999999
 51
351.5876549999999
  0
ARC
  5
B7A5
330
B543
100
AcDbEntity
  8
1
  6
Continuous
100
AcDbCircle
 10
160.186172
 20
94.791377
 30
0.0
 40
2.909844999999998
100
AcDbArc
 50
23.929797
 51
136.0702089999997
  0
ARC
  5
B7A6
330
B543
100
AcDbEntity
  8
1
  6
Continuous
100
AcDbCircle
 10
163.5281369999999
 20
91.57198599999999
 30
0.0
 40
7.550231
100
AcDbArc
 50
136.0702089999997
 51
170.7781019999998
  0
ARC
  5
B7A7
330
B543
100
AcDbEntity
  8
1
  6
Continuous
100
AcDbCircle
 10
161.1997069999999
 20
94.64149
 30
0.0
 40
2.909844999999998
100
AcDbArc
 50
23.929797
 51
81.58765499999999
  0
ARC
  5
B7A8
330
B543
100
AcDbEntity
  8
1
  6
Continuous
100
AcDbCircle
 10
156.9582059999999
 20
92.75927199999999
 30
0.0
 40
7.550231
100
AcDbArc
 50
352.7213919999999
 51
23.929797
  0
LINE
  5
B7A9
330
B543
100
AcDbEntity
  8
1
  6
Continuous
100
AcDbLine
 10
162.7382499999999
 20
87.24769100000001
 30
0.0
 11
163.434051
 21
91.95259300000001
 31
0.0
  0
ARC
  5
B7AA
330
B543
100
AcDbEntity
  8
1
  6
Continuous
100
AcDbCircle
 10
162.243637
 20
87.32084099999999
 30
0.0
 40
0.5
100
AcDbArc
 50
261.5876559999999
 51
351.5876549999999
  0
LINE
  5
B7AB
330
B543
100
AcDbEntity
  8
1
  6
Continuous
100
AcDbLine
 10
163.678649
 20
86.60317499999996
 30
0.0
 11
164.4476399999998
 21
91.80305000000002
 31
0.0
  0
ARC
  5
B7AC
330
B543
100
AcDbEntity
  8
1
  6
Continuous
100
AcDbCircle
 10
155.944656
 20
92.90915899999999
 30
0.0
 40
7.550231
100
AcDbArc
 50
352.7213919999999
 51
23.929797
  0
LINE
  5
B7AD
330
B543
100
AcDbEntity
  8
1
  6
Continuous
100
AcDbLine
 10
160.6118769999999
 20
97.669917
 30
0.0
 11
161.625412
 21
97.52002199999999
 31
0.0
  0
LWPOLYLINE
  5
B7AE
330
B543
100
AcDbEntity
  8
1
  6
Continuous
100
AcDbPolyline
 90
        2
 70
     0
 43
0.0
 10
151.7047419999999
 20
86.35221300000003
 10
150.866287
 20
83.83684800000002
  0
LWPOLYLINE
  5
B7B2
330
B543
100
AcDbEntity
  8
1
  6
Continuous
100
AcDbPolyline
 90
        2
 70
     0
 43
0.0
 10
152.7182919999999
 20
86.20232599999999
 10
151.8798209999999
 20
83.68694599999997
  0
ARC
  5
B7B6
330
B543
100
AcDbEntity
  8
1
  6
Continuous
100
AcDbCircle
 10
150.2730399999999
 20
84.03458699999999
 30
0.0
 40
0.625342
100
AcDbArc
 50
190.7843039999999
 51
341.5650509999999
  0
LINE
  5
B7B7
330
B543
100
AcDbEntity
  8
1
  6
Continuous
100
AcDbLine
 10
150.181549
 20
83.41597199999998
 30
0.0
 11
151.1950979999998
 21
83.266085
 31
0.0
  0
ARC
  5
B7B8
330
B543
100
AcDbEntity
  8
1
  6
Continuous
100
AcDbCircle
 10
151.286575
 20
83.884699
 30
0.0
 40
0.625342
100
AcDbArc
 50
261.5876559999999
 51
341.5650509999999
  0
LINE
  5
B7B9
330
B543
100
AcDbEntity
  8
1
  6
Continuous
100
AcDbLine
 10
155.3432459999999
 20
87.835879
 30
0.0
 11
156.0591269999999
 21
92.676554
 31
0.0
  0
LINE
  5
B7BA
330
B543
100
AcDbEntity
  8
1
  6
Continuous
100
AcDbLine
 10
154.7288049999998
 20
159.573068
 30
0.0
 11
153.3648059999999
 21
155.8614359999999
 31
0.0
  0
LINE
  5
B7BB
330
B543
100
AcDbEntity
  8
1
  6
Continuous
100
AcDbLine
 10
153.3648059999999
 20
155.8614209999998
 30
0.0
 11
155.5083919999999
 21
154.8575989999999
 31
0.0
  0
ARC
  5
B7BC
330
B543
100
AcDbEntity
  8
5
  6
PHANTOM
100
AcDbCircle
 10
155.484298
 20
167.010286
 30
0.0
 40
1.414184999999997
100
AcDbArc
 50
184.9331399999999
 51
286.3461699999998
  0
ARC
  5
B7BD
330
B543
100
AcDbEntity
  8
1
  6
Continuous
100
AcDbCircle
 10
151.5886379999998
 20
160.5002069999999
 30
0.0
 40
3.187289999999998
100
AcDbArc
 50
24.02594
 51
70.284901
  0
LINE
  5
B7BE
330
B543
100
AcDbEntity
  8
1
  6
Continuous
100
AcDbLine
 10
144.3960109999999
 20
163.4711159999999
 30
0.0
 11
154.7288049999998
 21
159.5730599999999
 31
0.0
  0
ARC
  5
B7BF
330
B543
100
AcDbEntity
  8
1
  6
Continuous
100
AcDbCircle
 10
177.9001609999999
 20
193.235628
 30
0.0
 40
56.58425499999999
100
AcDbArc
 50
237.84417
 51
247.0983529999998
  0
ARC
  5
B7C0
330
B543
100
AcDbEntity
  8
5
  6
PHANTOM
100
AcDbCircle
 10
145.5561969999999
 20
213.465394
 30
0.0
 40
56.58425499999999
100
AcDbArc
 50
276.844168
 51
286.0983499999999
  0
ARC
  5
B7C1
330
B543
100
AcDbEntity
  8
1
  6
Continuous
100
AcDbCircle
 10
155.747863
 20
319.32274
 30
0.0
 40
171.423233
100
AcDbArc
 50
263.532088
 51
264.8760509999998
  0
ARC
  5
B7C2
330
B543
100
AcDbEntity
  8
5
  6
PHANTOM
100
AcDbCircle
 10
128.7661129999999
 20
173.415262
 30
0.0
 40
23.93382099999999
100
AcDbArc
 50
287.737541
 51
299.683153
  0
ARC
  5
B7C3
330
B543
100
AcDbEntity
  8
5
  6
PHANTOM
100
AcDbCircle
 10
127.575286
 20
177.1382309999999
 30
0.0
 40
27.842596
100
AcDbArc
 50
278.453948
 51
287.737541
  0
ARC
  5
B7C4
330
B543
100
AcDbEntity
  8
1
  6
Continuous
100
AcDbCircle
 10
136.385482
 20
151.6616379999998
 30
0.0
 40
2.671529999999997
100
AcDbArc
 50
256.74801
 51
271.11771
  0
ARC
  5
B7C5
330
B543
100
AcDbEntity
  8
1
  6
Continuous
100
AcDbCircle
 10
139.6474599999999
 20
172.6771709999999
 30
0.0
 40
23.93382099999999
100
AcDbArc
 50
248.737537
 51
260.6831549999998
  0
ARC
  5
B7C6
330
B543
100
AcDbEntity
  8
1
  6
Continuous
100
AcDbCircle
 10
255.052886
 20
115.488107
 30
0.0
 40
123.5627139999998
100
AcDbArc
 50
162.1740479999999
 51
164.262006
  0
ARC
  5
B7C7
330
B543
100
AcDbEntity
  8
5
  6
PHANTOM
100
AcDbCircle
 10
136.877456
 20
114.551866
 30
0.0
 40
35.431274
100
AcDbArc
 50
98.453946
 51
107.688082
  0
ARC
  5
B7C8
330
B543
100
AcDbEntity
  8
1
  6
Continuous
100
AcDbCircle
 10
141.0649409999998
 20
176.319871
 30
0.0
 40
27.842596
100
AcDbArc
 50
239.45395
 51
248.737537
  0
ARC
  5
B7C9
330
B543
100
AcDbEntity
  8
5
  6
PHANTOM
100
AcDbCircle
 10
48.99143099999999
 20
297.51259
 30
0.0
 40
171.423233
100
AcDbArc
 50
302.5320859999999
 51
303.876052
  0
ARC
  5
B7CA
330
B543
100
AcDbEntity
  8
5
  6
PHANTOM
100
AcDbCircle
 10
139.4565879999998
 20
155.0302979999998
 30
0.0
 40
2.671529999999997
100
AcDbArc
 50
295.748014
 51
310.1177079999998
  0
ARC
  5
B7CB
330
B543
100
AcDbEntity
  8
5
  6
PHANTOM
100
AcDbCircle
 10
254.443206
 20
201.5979929999998
 30
0.0
 40
123.5627139999998
100
AcDbArc
 50
200.9023819999999
 51
203.262007
  0
ARC
  5
B7CC
330
B543
100
AcDbEntity
  8
5
  6
PHANTOM
100
AcDbCircle
 10
155.6275019999999
 20
129.555002
 30
0.0
 40
27.92838099999999
100
AcDbArc
 50
96.844166
 51
113.385232
  0
ARC
  5
B7CD
330
B543
100
AcDbEntity
  8
1
  6
Continuous
100
AcDbCircle
 10
132.9205159999999
 20
121.686921
 30
0.0
 40
27.92838099999999
100
AcDbArc
 50
57.844169
 51
74.38523399999998
  0
ARC
  5
B7CE
330
B543
100
AcDbEntity
  8
5
  6
PHANTOM
100
AcDbCircle
 10
141.4627529999999
 20
169.6472179999998
 30
0.0
 40
3.284759999999999
100
AcDbArc
 50
129.8009419999999
 51
184.4514439999999
  0
ARC
  5
B7CF
330
B543
100
AcDbEntity
  8
5
  6
PHANTOM
100
AcDbCircle
 10
139.0056299999999
 20
162.461625
 30
0.0
 40
3.732066
100
AcDbArc
 50
85.56350100000001
 51
106.7198209999999
  0
ARC
  5
B7D0
330
B543
100
AcDbEntity
  8
5
  6
PHANTOM
100
AcDbCircle
 10
119.0046379999998
 20
160.984178
 30
0.0
 40
20.94500899999999
100
AcDbArc
 50
14.37038999999999
 51
23.668023
  0
ARC
  5
B7D1
330
B543
100
AcDbEntity
  8
1
  6
Continuous
100
AcDbCircle
 10
129.203506
 20
145.784524
 30
0.0
 40
20.298761
100
AcDbArc
 50
55.98089599999998
 51
63.073792
  0
LINE
  5
B7D2
330
B543
100
AcDbEntity
  8
5
  6
PHANTOM
100
AcDbLine
 10
138.249999
 20
169.249177
 30
0.0
 11
148.733215
 21
172.7224589999999
 31
0.0
  0
ARC
  5
B7D3
330
B543
100
AcDbEntity
  8
5
  6
PHANTOM
100
AcDbCircle
 10
254.443206
 20
201.5979929999998
 30
0.0
 40
123.5627139999998
100
AcDbArc
 50
196.650248
 51
198.908923
  0
ARC
  5
B7D4
330
B543
100
AcDbEntity
  8
5
  6
PHANTOM
100
AcDbCircle
 10
137.57373
 20
145.9431619999998
 30
0.0
 40
20.298761
100
AcDbArc
 50
94.98089699999999
 51
102.073789
  0
ARC
  5
B7D5
330
B543
100
AcDbEntity
  8
5
  6
PHANTOM
100
AcDbCircle
 10
136.0583949999998
 20
165.106843
 30
0.0
 40
1.086873999999999
100
AcDbArc
 50
77.954486
 51
103.139634
  0
ARC
  5
B7D6
330
B543
100
AcDbEntity
  8
5
  6
PHANTOM
100
AcDbCircle
 10
137.2796779999999
 20
168.2073069999999
 30
0.0
 40
2.267253999999998
100
AcDbArc
 50
243.9841279999999
 51
286.719816
  0
ARC
  5
B7D7
330
B543
100
AcDbEntity
  8
1
  6
Continuous
100
AcDbCircle
 10
129.61209
 20
178.645677
 30
0.0
 40
13.95287699999999
100
AcDbArc
 50
269.5458449999999
 51
279.438779
  0
ARC
  5
B7D8
330
B543
100
AcDbEntity
  8
1
  6
Continuous
100
AcDbCircle
 10
133.6271509999999
 20
154.4941419999998
 30
0.0
 40
10.530131
100
AcDbArc
 50
63.073792
 51
99.43877800000002
  0
ARC
  5
B7D9
330
B543
100
AcDbEntity
  8
5
  6
PHANTOM
100
AcDbCircle
 10
117.2110739999999
 20
171.7382139999999
 30
0.0
 40
13.95287699999999
100
AcDbArc
 50
308.5458459999999
 51
318.438777
  0
ARC
  5
B7DA
330
B543
100
AcDbEntity
  8
5
  6
PHANTOM
100
AcDbCircle
 10
123.2453449999999
 20
164.164537
 30
0.0
 40
4.269231999999997
100
AcDbArc
 50
269.844337
 51
308.5458459999999
  0
LINE
  5
B7DB
330
B543
100
AcDbEntity
  8
5
  6
PHANTOM
100
AcDbLine
 10
123.0762169999999
 20
160.0721069999999
 30
0.0
 11
123.233733
 21
159.895318
 31
0.0
  0
LINE
  5
B7DC
330
B543
100
AcDbEntity
  8
1
  6
Continuous
100
AcDbLine
 10
123.2236469999999
 20
167.418031
 30
0.0
 11
126.82846
 21
165.88836
 31
0.0
  0
LINE
  5
B7DD
330
B543
100
AcDbEntity
  8
1
  6
Continuous
100
AcDbLine
 10
123.2236469999999
 20
167.418023
 30
0.0
 11
122.912887
 21
167.186006
 31
0.0
  0
LINE
  5
B7DE
330
B543
100
AcDbEntity
  8
1
  6
Continuous
100
AcDbLine
 10
126.828475
 20
165.88836
 30
0.0
 11
126.839629
 21
165.6518409999998
 31
0.0
  0
ARC
  5
B7DF
330
B543
100
AcDbEntity
  8
5
  6
PHANTOM
100
AcDbCircle
 10
135.5304099999999
 20
155.495698
 30
0.0
 40
10.530131
100
AcDbArc
 50
102.073789
 51
138.438782
  0
ARC
  5
B7E0
330
B543
100
AcDbEntity
  8
1
  6
Continuous
100
AcDbCircle
 10
129.535339
 20
168.962343
 30
0.0
 40
4.269231999999997
100
AcDbArc
 50
230.844333
 51
269.5458449999999
  0
ARC
  5
B7E1
330
B543
100
AcDbEntity
  8
5
  6
PHANTOM
100
AcDbCircle
 10
150.256423
 20
166.559053
 30
0.0
 40
3.833123
100
AcDbArc
 50
4.933144999999997
 51
26.958099
  0
LINE
  5
B7E2
330
B543
100
AcDbEntity
  8
5
  6
PHANTOM
100
AcDbLine
 10
152.3065939999999
 20
169.5484779999999
 30
0.0
 11
153.673034
 21
168.296747
 31
0.0
  0
ARC
  5
B7E3
330
B543
100
AcDbEntity
  8
5
  6
PHANTOM
100
AcDbCircle
 10
145.5266109999998
 20
171.1077129999999
 30
0.0
 40
3.590214
100
AcDbArc
 50
15.150125
 51
63.02593899999999
  0
ARC
  5
B7E4
330
B543
100
AcDbEntity
  8
5
  6
PHANTOM
100
AcDbCircle
 10
150.056106
 20
173.7134259999999
 30
0.0
 40
4.734078
100
AcDbArc
 50
269.4296699999999
 51
298.3840579999998
  0
ARC
  5
B7E5
330
B543
100
AcDbEntity
  8
5
  6
PHANTOM
100
AcDbCircle
 10
161.334991
 20
175.612886
 30
0.0
 40
13.106242
100
AcDbArc
 50
197.688805
 51
210.4064539999999
  0
ARC
  5
B7E6
330
B543
100
AcDbEntity
  8
5
  6
PHANTOM
100
AcDbCircle
 10
149.198241
 20
171.7421739999998
 30
0.0
 40
0.367205
100
AcDbArc
 50
124.162457
 51
197.688802
  0
ARC
  5
B7E7
330
B543
100
AcDbEntity
  8
1
  6
Continuous
100
AcDbCircle
 10
147.191222
 20
158.3295909999999
 30
0.0
 40
6.714102999999997
100
AcDbArc
 50
70.284901
 51
90.80094499999995
  0
LINE
  5
B7E8
330
B543
100
AcDbEntity
  8
1
  6
Continuous
100
AcDbLine
 10
149.4561909999999
 20
164.650125
 30
0.0
 11
152.663848
 21
163.500665
 31
0.0
  0
ARC
  5
B7E9
330
B543
100
AcDbEntity
  8
1
  6
Continuous
100
AcDbCircle
 10
255.052886
 20
115.488107
 30
0.0
 40
123.5627139999998
100
AcDbArc
 50
157.650246
 51
159.637255
  0
LINE
  5
B7EA
330
B543
100
AcDbEntity
  8
1
  6
Continuous
100
AcDbLine
 10
144.4378039999998
 20
163.6214
 30
0.0
 11
143.277679
 21
160.43065
 31
0.0
  0
LINE
  5
B7EB
330
B543
100
AcDbEntity
  8
1
  6
Continuous
100
AcDbLine
 10
140.772201
 20
162.473993
 30
0.0
 11
143.277679
 21
160.43065
 31
0.0
  0
LINE
  5
B7EC
330
B543
100
AcDbEntity
  8
5
  6
PHANTOM
100
AcDbLine
 10
141.4405209999999
 20
173.349908
 30
0.0
 11
144.656722
 21
174.475259
 31
0.0
  0
ARC
  5
B7ED
330
B543
100
AcDbEntity
  8
5
  6
PHANTOM
100
AcDbCircle
 10
143.657958
 20
167.0125439999999
 30
0.0
 40
6.714102999999997
100
AcDbArc
 50
109.284898
 51
129.8009419999999
  0
ARC
  5
B7EE
330
B543
100
AcDbEntity
  8
1
  6
Continuous
100
AcDbCircle
 10
140.0859669999998
 20
161.6311429999998
 30
0.0
 40
1.086873999999999
100
AcDbArc
 50
38.954485
 51
64.13963599999999
  0
ARC
  5
B7EF
330
B543
100
AcDbEntity
  8
1
  6
Continuous
100
AcDbCircle
 10
147.143295
 20
161.7586
 30
0.0
 40
3.284759999999999
100
AcDbArc
 50
90.80094499999995
 51
145.451447
  0
ARC
  5
B7F0
330
B543
100
AcDbEntity
  8
5
  6
PHANTOM
100
AcDbCircle
 10
145.709365
 20
171.4668129999998
 30
0.0
 40
3.187289999999998
100
AcDbArc
 50
63.02593899999999
 51
109.284898
  0
ARC
  5
B7F1
330
B543
100
AcDbEntity
  8
1
  6
Continuous
100
AcDbCircle
 10
162.0298149999999
 20
140.972802
 30
0.0
 40
1.162484
100
AcDbArc
 50
268.9252189999999
 51
323.707377
  0
LINE
  5
B7F2
330
B543
100
AcDbEntity
  8
1
  6
Continuous
100
AcDbLine
 10
163.9107349999999
 20
139.160478
 30
0.0
 11
165.2591699999998
 21
140.339944
 31
0.0
  0
LINE
  5
B7F3
330
B543
100
AcDbEntity
  8
1
  6
Continuous
100
AcDbLine
 10
155.5083919999999
 20
154.8576139999999
 30
0.0
 11
155.7825919999999
 21
153.0249109999998
 31
0.0
  0
ARC
  5
B7F4
330
B543
100
AcDbEntity
  8
1
  6
Continuous
100
AcDbCircle
 10
156.3805989999998
 20
150.88527
 30
0.0
 40
1.414184999999997
100
AcDbArc
 50
145.9331389999998
 51
247.3461759999999
  0
ARC
  5
B7F5
330
B543
100
AcDbEntity
  8
1
  6
Continuous
100
AcDbCircle
 10
157.01979
 20
152.3407759999998
 30
0.0
 40
3.003727999999998
100
AcDbArc
 50
246.787777
 51
285.585185
  0
LINE
  5
B7F6
330
B543
100
AcDbEntity
  8
1
  6
Continuous
100
AcDbLine
 10
155.8359059999999
 20
149.5801939999998
 30
0.0
 11
155.8488
 21
148.7621849999999
 31
0.0
  0
ARC
  5
B7F7
330
B543
100
AcDbEntity
  8
1
  6
Continuous
100
AcDbCircle
 10
152.0338129999998
 20
153.824602
 30
0.0
 40
3.833123
100
AcDbArc
 50
325.9331439999999
 51
347.9581
  0
LINE
  5
B7F8
330
B543
100
AcDbEntity
  8
1
  6
Continuous
100
AcDbLine
 10
157.8268119999999
 20
149.447488
 30
0.0
 11
165.2591699999998
 21
140.339952
 31
0.0
  0
LINE
  5
B7F9
330
B543
100
AcDbEntity
  8
1
  6
Continuous
100
AcDbLine
 10
163.9107199999999
 20
139.160478
 30
0.0
 11
155.8488
 21
148.762178
 31
0.0
  0
ARC
  5
B7FA
330
B543
100
AcDbEntity
  8
1
  6
Continuous
100
AcDbCircle
 10
162.318328
 20
156.3512049999999
 30
0.0
 40
16.543596
100
AcDbArc
 50
247.0983529999998
 51
268.9252189999999
  0
ARC
  5
B7FB
330
B543
100
AcDbEntity
  8
5
  6
PHANTOM
100
AcDbCircle
 10
156.65895
 20
174.994844
 30
0.0
 40
16.543596
100
AcDbArc
 50
286.0983499999999
 51
307.925221
  0
LINE
  5
B7FC
330
B543
100
AcDbEntity
  8
5
  6
PHANTOM
100
AcDbLine
 10
168.7149499999998
 20
162.637277
 30
0.0
 11
169.0206139999999
 21
164.402498
 31
0.0
  0
ARC
  5
B7FD
330
B543
100
AcDbEntity
  8
5
  6
PHANTOM
100
AcDbCircle
 10
166.112685
 20
162.8620159999998
 30
0.0
 40
1.162484
100
AcDbArc
 50
307.925221
 51
2.707376
  0
ARC
  5
B7FE
330
B543
100
AcDbEntity
  8
1
  6
Continuous
100
AcDbCircle
 10
151.2206109999999
 20
160.3361519999999
 30
0.0
 40
3.590214
100
AcDbArc
 50
336.150123
 51
24.02594
  0
LINE
  5
B7FF
330
B543
100
AcDbEntity
  8
5
  6
PHANTOM
100
AcDbLine
 10
155.882293
 20
165.653261
 30
0.0
 11
156.4071039999998
 21
165.025667
 31
0.0
  0
ARC
  5
B800
330
B543
100
AcDbEntity
  8
5
  6
PHANTOM
100
AcDbCircle
 10
155.0650629999998
 20
168.5436799999999
 30
0.0
 40
3.003727999999998
100
AcDbArc
 50
285.787782
 51
324.5851859999999
  0
LINE
  5
B801
330
B543
100
AcDbEntity
  8
5
  6
PHANTOM
100
AcDbLine
 10
157.513046
 20
166.8030409999998
 30
0.0
 11
169.020629
 21
164.402498
 31
0.0
  0
LINE
  5
B802
330
B543
100
AcDbEntity
  8
5
  6
PHANTOM
100
AcDbLine
 10
168.7149499999998
 20
162.6372849999999
 30
0.0
 11
156.4071039999998
 21
165.025674
 31
0.0
  0
ARC
  5
B803
330
B543
100
AcDbEntity
  8
1
  6
Continuous
100
AcDbCircle
 10
210.756917
 20
187.351831
 30
0.0
 40
19.356407
100
AcDbArc
 50
255.410175
 51
266.3160179999999
  0
LINE
  5
B804
330
B543
100
AcDbEntity
  8
1
  6
Continuous
100
AcDbLine
 10
214.5298509999999
 20
153.956033
 30
0.0
 11
211.2287339999999
 21
152.4155669999998
 31
0.0
  0
LINE
  5
B805
330
B543
100
AcDbEntity
  8
1
  6
Continuous
100
AcDbLine
 10
214.5298509999999
 20
153.5009239999999
 30
0.0
 11
212.429814
 21
152.5209439999999
 31
0.0
  0
LINE
  5
B806
330
B543
100
AcDbEntity
  8
1
  6
Continuous
100
AcDbLine
 10
214.106969
 20
155.8622369999999
 30
0.0
 11
211.246968
 21
155.8622369999999
 31
0.0
  0
ARC
  5
B807
330
B543
100
AcDbEntity
  8
1
  6
Continuous
100
AcDbCircle
 10
213.1263469999999
 20
138.403436
 30
0.0
 40
1.0
100
AcDbArc
 50
6.881516
 51
82.629368
  0
LINE
  5
B808
330
B543
100
AcDbEntity
  8
1
  6
Continuous
100
AcDbLine
 10
212.2712289999999
 20
137.0827879999999
 30
0.0
 11
214.2710459999999
 21
137.2645959999998
 31
0.0
  0
LINE
  5
B809
330
B543
100
AcDbEntity
  8
1
  6
Continuous
100
AcDbLine
 10
212.429829
 20
152.5209439999999
 30
0.0
 11
214.2710619999999
 21
137.2645809999999
 31
0.0
  0
ARC
  5
B80A
330
B543
100
AcDbEntity
  8
1
  6
Continuous
100
AcDbCircle
 10
211.027516
 20
147.4482969999999
 30
0.0
 40
2.0
100
AcDbArc
 50
6.881516
 51
90.00000300000001
  0
ARC
  5
B80B
330
B543
100
AcDbEntity
  8
1
  6
Continuous
100
AcDbCircle
 10
204.873952
 20
144.8945249999999
 30
0.0
 40
4.020926
100
AcDbArc
 50
129.6233039999999
 51
230.3767119999998
  0
ARC
  5
B80C
330
B543
100
AcDbEntity
  8
1
  6
Continuous
100
AcDbCircle
 10
206.353032
 20
145.501474
 30
0.0
 40
6.340179
100
AcDbArc
 50
230.376698
 51
262.629318
  0
ARC
  5
B80D
330
B543
100
AcDbEntity
  8
1
  6
Continuous
100
AcDbCircle
 10
206.353032
 20
146.680932
 30
0.0
 40
6.340179
100
AcDbArc
 50
230.376698
 51
262.674645
  0
LINE
  5
B80E
330
B543
100
AcDbEntity
  8
1
  6
Continuous
100
AcDbLine
 10
213.254643
 20
139.3951659999999
 30
0.0
 11
205.5446369999999
 21
140.392501
 31
0.0
  0
LINE
  5
B80F
330
B543
100
AcDbEntity
  8
1
  6
Continuous
100
AcDbLine
 10
200.853032
 20
144.8945249999999
 30
0.0
 11
200.853032
 21
143.7150509999999
 31
0.0
  0
LINE
  5
B810
330
B543
100
AcDbEntity
  8
1
  6
Continuous
100
AcDbLine
 10
212.1167499999998
 20
138.362878
 30
0.0
 11
205.5396619999999
 21
139.213662
 31
0.0
  0
LINE
  5
B811
330
B543
100
AcDbEntity
  8
1
  6
Continuous
100
AcDbLine
 10
212.1167499999998
 20
138.362878
 30
0.0
 11
212.2712449999999
 21
137.0827879999999
 31
0.0
  0
ARC
  5
B812
330
B543
100
AcDbEntity
  8
1
  6
Continuous
100
AcDbCircle
 10
204.873952
 20
143.7150509999999
 30
0.0
 40
4.020926
100
AcDbArc
 50
180.0000029999999
 51
230.376698
  0
ARC
  5
B813
330
B543
100
AcDbEntity
  8
1
  6
Continuous
100
AcDbCircle
 10
206.091252
 20
169.427026
 30
0.0
 40
0.834336
100
AcDbArc
 50
180.0000029999999
 51
255.410175
  0
ARC
  5
B814
330
B543
100
AcDbEntity
  8
1
  6
Continuous
100
AcDbCircle
 10
211.246968
 20
154.8622369999999
 30
0.0
 40
1.0
100
AcDbArc
 50
90.0
 51
186.8815209999999
  0
LINE
  5
B815
330
B543
100
AcDbEntity
  8
1
  6
Continuous
100
AcDbLine
 10
209.303899
 20
164.390237
 30
0.0
 11
211.308949
 21
164.4306729999998
 31
0.0
  0
LINE
  5
B816
330
B543
100
AcDbEntity
  8
1
  6
Continuous
100
AcDbLine
 10
209.776158
 20
164.0810789999999
 30
0.0
 11
210.041585
 21
163.4379209999998
 31
0.0
  0
LINE
  5
B817
330
B543
100
AcDbEntity
  8
1
  6
Continuous
100
AcDbLine
 10
208.7926529999998
 20
163.4719169999998
 30
0.0
 11
210.3207439999999
 21
159.5738609999999
 31
0.0
  0
LINE
  5
B818
330
B543
100
AcDbEntity
  8
1
  6
Continuous
100
AcDbLine
 10
211.027516
 20
149.4482969999999
 30
0.0
 11
206.353032
 21
149.4482969999999
 31
0.0
  0
ARC
  5
B819
330
B543
100
AcDbEntity
  8
1
  6
Continuous
100
AcDbCircle
 10
211.6516009999999
 20
151.5093929999999
 30
0.0
 40
1.0
100
AcDbArc
 50
115.01613
 51
186.8815209999999
  0
LINE
  5
B81A
330
B543
100
AcDbEntity
  8
1
  6
Continuous
100
AcDbLine
 10
210.6588029999998
 20
151.389566
 30
0.0
 11
210.893635
 21
149.443795
 31
0.0
  0
LINE
  5
B81B
330
B543
100
AcDbEntity
  8
1
  6
Continuous
100
AcDbLine
 10
212.41747
 20
161.299432
 30
0.0
 11
212.121983
 21
155.8622369999999
 31
0.0
  0
LINE
  5
B81C
330
B543
100
AcDbEntity
  8
1
  6
Continuous
100
AcDbLine
 10
210.4123279999998
 20
161.2591789999999
 30
0.0
 11
210.1190229999999
 21
155.862222
 31
0.0
  0
LINE
  5
B81D
330
B543
100
AcDbEntity
  8
1
  6
Continuous
100
AcDbLine
 10
210.1190229999999
 20
155.862222
 30
0.0
 11
210.2541699999999
 21
154.7424249999999
 31
0.0
  0
ARC
  5
B81E
330
B543
100
AcDbEntity
  8
1
  6
Continuous
100
AcDbCircle
 10
207.42484
 20
161.5707789999999
 30
0.0
 40
5.0
100
AcDbArc
 50
356.8891879999998
 51
22.42549599999999
  0
ARC
  5
B81F
330
B543
100
AcDbEntity
  8
1
  6
Continuous
100
AcDbCircle
 10
205.4196979999999
 20
161.530526
 30
0.0
 40
5.0
100
AcDbArc
 50
356.8891879999998
 51
22.42549599999999
  0
LINE
  5
B820
330
B543
100
AcDbEntity
  8
1
  6
Continuous
100
AcDbLine
 10
211.781224
 20
164.1215149999998
 30
0.0
 11
212.046727
 21
163.478189
 31
0.0
  0
LINE
  5
B821
330
B543
100
AcDbEntity
  8
1
  6
Continuous
100
AcDbLine
 10
208.384373
 20
161.770974
 30
0.0
 11
208.384373
 21
149.4482969999999
 31
0.0
  0
LINE
  5
B822
330
B543
100
AcDbEntity
  8
1
  6
Continuous
100
AcDbLine
 10
208.384373
 20
161.770974
 30
0.0
 11
208.7043959999999
 21
161.865869
 31
0.0
  0
LINE
  5
B823
330
B543
100
AcDbEntity
  8
1
  6
Continuous
100
AcDbLine
 10
208.384373
 20
161.770959
 30
0.0
 11
208.6272629999998
 21
160.431466
 31
0.0
  0
LINE
  5
B824
330
B543
100
AcDbEntity
  8
1
  6
Continuous
100
AcDbLine
 10
208.814687
 20
163.9171689999998
 30
0.0
 11
208.6272629999998
 21
160.431451
 31
0.0
  0
ARC
  5
B825
330
B543
100
AcDbEntity
  8
1
  6
Continuous
100
AcDbCircle
 10
206.353032
 20
143.1081169999998
 30
0.0
 40
6.340179
100
AcDbArc
 50
90.00000300000001
 51
129.6233039999999
  0
ARC
  5
B826
330
B543
100
AcDbEntity
  8
1
  6
Continuous
100
AcDbCircle
 10
211.3190349999999
 20
163.9307639999999
 30
0.0
 40
0.5
100
AcDbArc
 50
22.42549599999999
 51
91.155404
  0
ARC
  5
B827
330
B543
100
AcDbEntity
  8
1
  6
Continuous
100
AcDbCircle
 10
209.313969
 20
163.890329
 30
0.0
 40
0.5
100
AcDbArc
 50
22.42549599999999
 51
176.9221419999998
  0
ARC
  5
B828
330
B543
100
AcDbEntity
  8
1
  6
Continuous
100
AcDbCircle
 10
214.106969
 20
154.8622369999999
 30
0.0
 40
1.0
100
AcDbArc
 50
295.0161229999998
 51
90.0
  0
ARC
  5
B829
330
B543
100
AcDbEntity
  8
1
  6
Continuous
100
AcDbCircle
 10
214.106969
 20
154.4071129999998
 30
0.0
 40
1.0
100
AcDbArc
 50
295.0161229999998
 51
13.15351399999999
  0
ARC
  5
B82A
330
B543
100
AcDbEntity
  8
1
  6
Continuous
100
AcDbCircle
 10
122.305309
 20
281.134862
 30
0.0
 40
1.0
100
AcDbArc
 50
269.9999969999999
 51
355.1494599999998
  0
ARC
  5
B82B
330
B543
100
AcDbEntity
  8
1
  6
Continuous
100
AcDbCircle
 10
124.1774179999999
 20
283.6348619999998
 30
0.0
 40
1.5
100
AcDbArc
 50
73.55996299999998
 51
175.1494639999999
  0
LINE
  5
B82C
330
B543
100
AcDbEntity
  8
1
  6
Continuous
100
AcDbLine
 10
117.9474899999999
 20
280.134862
 30
0.0
 11
139.508312
 21
280.134862
 31
0.0
  0
ARC
  5
B82D
330
B543
100
AcDbEntity
  8
1
  6
Continuous
100
AcDbCircle
 10
120.3890649999999
 20
282.134862
 30
0.0
 40
2.0
100
AcDbArc
 50
206.584348
 51
269.9999969999999
  0
LINE
  5
B82E
330
B543
100
AcDbEntity
  8
1
  6
Continuous
100
AcDbLine
 10
117.9474899999999
 20
285.0285729999999
 30
0.0
 11
117.9474899999999
 21
279.028577
 31
0.0
  0
LINE
  5
B82F
330
B543
100
AcDbEntity
  8
1
  6
Continuous
100
AcDbLine
 10
106.8881639999998
 20
286.028573
 30
0.0
 11
106.8881639999998
 21
279.028577
 31
0.0
  0
LINE
  5
B830
330
B543
100
AcDbEntity
  8
1
  6
Continuous
100
AcDbLine
 10
106.0391269999998
 20
286.028573
 30
0.0
 11
106.0391269999998
 21
279.028577
 31
0.0
  0
ARC
  5
B831
330
B543
100
AcDbEntity
  8
1
  6
Continuous
100
AcDbCircle
 10
112.388164
 20
279.028577
 30
0.0
 40
5.5
100
AcDbArc
 50
179.9999909999999
 51
0.00001
  0
ARC
  5
B832
330
B543
100
AcDbEntity
  8
1
  6
Continuous
100
AcDbCircle
 10
111.5391269999999
 20
279.028577
 30
0.0
 40
5.5
100
AcDbArc
 50
179.9999909999999
 51
274.426783
  0
LINE
  5
B833
330
B543
100
AcDbEntity
  8
1
  6
Continuous
100
AcDbLine
 10
106.0391269999998
 20
286.028573
 30
0.0
 11
117.204967
 21
286.028573
 31
0.0
  0
ARC
  5
B834
330
B543
100
AcDbEntity
  8
1
  6
Continuous
100
AcDbCircle
 10
116.9474899999999
 20
285.0285729999999
 30
0.0
 40
1.0
100
AcDbArc
 50
0.0
 51
90.00000300000001
  0
ARC
  5
B835
330
B543
100
AcDbEntity
  8
1
  6
Continuous
100
AcDbCircle
 10
117.204967
 20
284.028573
 30
0.0
 40
2.0
100
AcDbArc
 50
26.58435300000001
 51
90.00000300000001
  0
LINE
  5
B836
330
B543
100
AcDbEntity
  8
1
  6
Continuous
100
AcDbLine
 10
122.544734
 20
282.134863
 30
0.0
 11
122.6827889999998
 21
283.761699
 31
0.0
  0
LINE
  5
B837
330
B543
100
AcDbEntity
  8
1
  6
Continuous
100
AcDbLine
 10
118.6005159999998
 20
281.2398309999999
 30
0.0
 11
117.947493
 21
282.5447779999998
 31
0.0
  0
LINE
  5
B838
330
B543
100
AcDbEntity
  8
1
  6
Continuous
100
AcDbLine
 10
120.3890649999999
 20
282.134862
 30
0.0
 11
122.544735
 21
282.134862
 31
0.0
  0
LINE
  5
B839
330
B543
100
AcDbEntity
  8
1
  6
Continuous
100
AcDbLine
 10
120.3890689999999
 20
282.1348599999998
 30
0.0
 11
118.993521
 21
284.9236069999999
 31
0.0
  0
ARC
  5
B83A
330
B543
100
AcDbEntity
  8
1
  6
Continuous
100
AcDbCircle
 10
162.5495949999999
 20
279.748937
 30
0.0
 40
2.0
100
AcDbArc
 50
8.412345
 51
63.28534200000001
  0
LWPOLYLINE
  5
B83B
330
B543
100
AcDbEntity
  8
1
  6
Continuous
100
AcDbPolyline
 90
        2
 70
     0
 43
0.0
 10
141.1724129999998
 20
281.244264
 10
142.7714269999998
 20
278.84575
  0
LWPOLYLINE
  5
B83F
330
B543
100
AcDbEntity
  8
1
  6
Continuous
100
AcDbPolyline
 90
        2
 70
     0
 43
0.0
 10
137.329464
 20
280.134862
 10
138.812084
 20
277.9109279999999
  0
LWPOLYLINE
  5
B843
330
B543
100
AcDbEntity
  8
1
  6
Continuous
100
AcDbPolyline
 90
        2
 70
     0
 43
0.0
 10
139.508312
 20
280.134862
 10
141.107326
 20
277.736348
  0
ARC
  5
B847
330
B543
100
AcDbEntity
  8
1
  6
Continuous
100
AcDbCircle
 10
125.740398
 20
281.134862
 30
0.0
 40
1.0
100
AcDbArc
 50
269.9999969999999
 51
4.850539999999998
  0
LWPOLYLINE
  5
B848
330
B543
100
AcDbEntity
  8
1
  6
Continuous
100
AcDbPolyline
 90
       18
 70
     0
 43
0.0
 10
138.812069
 20
277.910947
 10
138.9280579999999
 20
277.7599
 10
139.053226
 20
277.616334
 10
139.187069
 20
277.480836
 10
139.3291199999999
 20
277.353883
 10
139.478756
 20
277.236039
 10
139.6354249999999
 20
277.127725
 10
139.798565
 20
277.0293399999999
 10
139.9674719999999
 20
276.9413039999998
 10
140.141514
 20
276.8639419999999
 10
140.320087
 20
276.7975399999999
 10
140.5023919999998
 20
276.742379
 10
140.687771
 20
276.6986589999999
 10
140.8755149999998
 20
276.6665469999999
 10
141.06493
 20
276.6461689999998
 10
141.255207
 20
276.637609
 10
141.4456439999999
 20
276.640893
 10
141.6355929999998
 20
276.656022
  0
LINE
  5
B85C
330
B543
100
AcDbEntity
  8
1
  6
Continuous
100
AcDbLine
 10
143.0640149999999
 20
276.8672669999999
 30
0.0
 11
142.771423
 21
278.84575
 31
0.0
  0
ARC
  5
B85D
330
B543
100
AcDbEntity
  8
1
  6
Continuous
100
AcDbCircle
 10
142.7714269999998
 20
278.84575
 30
0.0
 40
2.0
100
AcDbArc
 50
213.690067
 51
278.412345
  0
LINE
  5
B85E
330
B543
100
AcDbEntity
  8
1
  6
Continuous
100
AcDbLine
 10
164.528082
 20
280.0415319999999
 30
0.0
 11
165.2595629999999
 21
275.095326
 31
0.0
  0
LINE
  5
B85F
330
B543
100
AcDbEntity
  8
1
  6
Continuous
100
AcDbLine
 10
161.4613019999999
 20
268.974799
 30
0.0
 11
162.4748459999999
 21
269.1246899999998
 31
0.0
  0
ARC
  5
B860
330
B543
100
AcDbEntity
  8
1
  6
Continuous
100
AcDbCircle
 10
162.0491439999999
 20
272.003224
 30
0.0
 40
2.909844999999998
100
AcDbArc
 50
278.412345
 51
336.070203
  0
ARC
  5
B861
330
B543
100
AcDbEntity
  8
1
  6
Continuous
100
AcDbCircle
 10
157.807636
 20
273.885446
 30
0.0
 40
7.550231
100
AcDbArc
 50
336.070203
 51
9.546331
  0
ARC
  5
B862
330
B543
100
AcDbEntity
  8
1
  6
Continuous
100
AcDbCircle
 10
165.391109
 20
275.222615
 30
0.0
 40
7.550231
100
AcDbArc
 50
188.4123429999999
 51
223.9297909999999
  0
ARC
  5
B863
330
B543
100
AcDbEntity
  8
1
  6
Continuous
100
AcDbCircle
 10
164.377567
 20
275.0727279999999
 30
0.0
 40
7.550231
100
AcDbArc
 50
188.4123429999999
 51
223.9297909999999
  0
LINE
  5
B864
330
B543
100
AcDbEntity
  8
1
  6
Continuous
100
AcDbLine
 10
157.275418
 20
278.4909309999998
 30
0.0
 11
157.922113
 21
274.1180449999998
 31
0.0
  0
LINE
  5
B865
330
B543
100
AcDbEntity
  8
1
  6
Continuous
100
AcDbLine
 10
156.276979
 20
278.238912
 30
0.0
 11
156.908569
 21
273.96816
 31
0.0
  0
ARC
  5
B866
330
B543
100
AcDbEntity
  8
1
  6
Continuous
100
AcDbCircle
 10
162.0491439999999
 20
272.003224
 30
0.0
 40
2.909844999999998
100
AcDbArc
 50
223.9297909999999
 51
336.070203
  0
ARC
  5
B867
330
B543
100
AcDbEntity
  8
1
  6
Continuous
100
AcDbCircle
 10
161.035602
 20
271.853337
 30
0.0
 40
2.909844999999998
100
AcDbArc
 50
223.9297909999999
 51
278.412345
  0
LINE
  5
B868
330
B543
100
AcDbEntity
  8
1
  6
Continuous
100
AcDbLine
 10
126.6591299999999
 20
282.134862
 30
0.0
 11
137.8128769999999
 21
282.134862
 31
0.0
  0
LINE
  5
B869
330
B543
100
AcDbEntity
  8
1
  6
Continuous
100
AcDbLine
 10
126.736819
 20
281.219418
 30
0.0
 11
126.521079
 21
283.761699
 31
0.0
  0
LINE
  5
B86A
330
B543
100
AcDbEntity
  8
1
  6
Continuous
100
AcDbLine
 10
123.301731
 20
281.0503029999998
 30
0.0
 11
123.5318219999999
 21
283.7616959999999
 31
0.0
  0
ARC
  5
B86B
330
B543
100
AcDbEntity
  8
1
  6
Continuous
100
AcDbCircle
 10
125.0264469999999
 20
283.6348619999998
 30
0.0
 40
1.5
100
AcDbArc
 50
0.0
 51
175.1494639999999
  0
ARC
  5
B86C
330
B543
100
AcDbEntity
  8
1
  6
Continuous
100
AcDbCircle
 10
210.756917
 20
152.9338159999998
 30
0.0
 40
19.356407
100
AcDbArc
 50
93.68398199999999
 51
104.589825
  0
ARC
  5
B86D
330
B543
100
AcDbEntity
  8
1
  6
Continuous
100
AcDbCircle
 10
206.091252
 20
170.8586209999999
 30
0.0
 40
0.834336
100
AcDbArc
 50
104.589825
 51
255.410175
  0
LINE
  5
B86E
330
B543
100
AcDbEntity
  8
1
  6
Continuous
100
AcDbLine
 10
66.716049
 20
167.4670159999998
 30
0.0
 11
66.716049
 21
166.971179
 31
0.0
  0
LINE
  5
B86F
330
B543
100
AcDbEntity
  8
1
  6
Continuous
100
AcDbLine
 10
62.366289
 20
167.427018
 30
0.0
 11
62.366289
 21
160.325105
 31
0.0
  0
LINE
  5
B870
330
B543
100
AcDbEntity
  8
1
  6
Continuous
100
AcDbLine
 10
62.366289
 20
151.0168009999999
 30
0.0
 11
62.366289
 21
149.2463159999998
 31
0.0
  0
LINE
  5
B871
330
B543
100
AcDbEntity
  8
1
  6
Continuous
100
AcDbLine
 10
60.366049
 20
159.825105
 30
0.0
 11
60.366049
 21
149.2463159999998
 31
0.0
  0
ARC
  5
B872
330
B543
100
AcDbEntity
  8
1
  6
Continuous
100
AcDbCircle
 10
238.2553399999999
 20
168.325744
 30
0.0
 40
26.713884
100
AcDbArc
 50
194.772977
 51
208.187026
  0
ARC
  5
B873
330
B543
100
AcDbEntity
  8
1
  6
Continuous
100
AcDbCircle
 10
205.89534
 20
150.983898
 30
0.0
 40
10.0
100
AcDbArc
 50
27.65789499999999
 51
28.18702599999999
  0
LWPOLYLINE
  5
B874
330
B543
100
AcDbEntity
  8
1
  6
Continuous
100
AcDbPolyline
 90
        2
 70
     0
 43
0.0
 10
150.063219
 20
277.9023599999998
 10
141.2609519999998
 20
276.600617
  0
LWPOLYLINE
  5
B878
330
B543
100
AcDbEntity
  8
1
  6
Continuous
100
AcDbPolyline
 90
        2
 70
     0
 43
0.0
 10
145.043427
 20
279.18175
 10
142.7714269999998
 20
278.84575
  0
ARC
  5
B87C
330
B543
100
AcDbEntity
  8
1
  6
Continuous
100
AcDbCircle
 10
152.164619
 20
70.009612
 30
0.0
 40
18.85
100
AcDbArc
 50
112.9289389999998
 51
123.723059
  0
ARC
  5
B87D
330
B543
100
AcDbEntity
  8
1
  6
Continuous
100
AcDbCircle
 10
152.164619
 20
70.009612
 30
0.0
 40
18.85
100
AcDbArc
 50
79.95666700000002
 51
97.80992000000004
  0
ARC
  5
B87E
330
B543
100
AcDbEntity
  8
1
  6
Continuous
100
AcDbCircle
 10
152.164619
 20
70.009612
 30
0.0
 40
16.85
100
AcDbArc
 50
100.305769
 51
123.7240169999999
  0
ARC
  5
B87F
330
B543
100
AcDbEntity
  8
1
  6
Continuous
100
AcDbCircle
 10
152.164619
 20
70.009612
 30
0.0
 40
13.6
100
AcDbArc
 50
98.89518000000002
 51
132.6679249999999
  0
LINE
  5
B880
330
B543
100
AcDbEntity
  8
1
  6
Continuous
100
AcDbLine
 10
138.165027
 20
274.634862
 30
0.0
 11
128.165027
 21
274.634862
 31
0.0
  0
ARC
  5
B881
330
B543
100
AcDbEntity
  8
1
  6
Continuous
100
AcDbCircle
 10
135.665027
 20
281.860154
 30
0.0
 40
7.225291999999997
100
AcDbArc
 50
249.7567339999999
 51
290.243266
  0
LINE
  5
B882
330
B543
100
AcDbEntity
  8
1
  6
Continuous
100
AcDbLine
 10
66.266049
 20
159.5830379999999
 30
0.0
 11
64.366049
 21
157.6830379999998
 31
0.0
  0
ARC
  5
B883
330
B543
100
AcDbEntity
  8
1
  6
Continuous
100
AcDbCircle
 10
75.826998
 20
157.683538
 30
0.0
 40
9.560949
100
AcDbArc
 50
162.4247879999998
 51
197.5752119999999
  0
ARC
  5
B884
330
B543
100
AcDbEntity
  8
1
  6
Continuous
100
AcDbCircle
 10
60.305101
 20
157.683538
 30
0.0
 40
9.560949
100
AcDbArc
 50
342.4247879999999
 51
17.575212
  0
LINE
  5
B885
330
B543
100
AcDbEntity
  8
1
  6
Continuous
100
AcDbLine
 10
71.36584899999999
 20
160.1415379999999
 30
0.0
 11
71.36584899999999
 21
155.224538
 31
0.0
  0
LINE
  5
B886
330
B543
100
AcDbEntity
  8
1
  6
Continuous
100
AcDbLine
 10
70.82434899999999
 20
160.6830379999999
 30
0.0
 11
70.82434899999999
 21
154.6830379999998
 31
0.0
  0
LINE
  5
B887
330
B543
100
AcDbEntity
  8
1
  6
Continuous
100
AcDbLine
 10
66.266049
 20
163.7830379999998
 30
0.0
 11
66.266049
 21
151.5830379999998
 31
0.0
  0
LINE
  5
B888
330
B543
100
AcDbEntity
  8
1
  6
Continuous
100
AcDbLine
 10
69.866049
 20
162.6835379999999
 30
0.0
 11
69.866049
 21
152.682538
 31
0.0
  0
ARC
  5
B889
330
B543
100
AcDbEntity
  8
1
  6
Continuous
100
AcDbCircle
 10
130.665027
 20
271.00957
 30
0.0
 40
7.225291999999997
100
AcDbArc
 50
69.75673399999999
 51
110.2432659999999
  0
ARC
  5
B88A
330
B543
100
AcDbEntity
  8
1
  6
Continuous
100
AcDbCircle
 10
130.665027
 20
281.860154
 30
0.0
 40
7.225291999999997
100
AcDbArc
 50
249.7567339999999
 51
290.243266
  0
LINE
  5
B88B
330
B543
100
AcDbEntity
  8
1
  6
Continuous
100
AcDbLine
 10
128.165027
 20
278.234862
 30
0.0
 11
128.165027
 21
274.634862
 31
0.0
  0
ARC
  5
B88C
330
B543
100
AcDbEntity
  8
1
  6
Continuous
100
AcDbCircle
 10
135.665027
 20
271.00957
 30
0.0
 40
7.225291999999997
100
AcDbArc
 50
69.75673399999999
 51
110.2432659999999
  0
LINE
  5
B88D
330
B543
100
AcDbEntity
  8
1
  6
Continuous
100
AcDbLine
 10
133.165027
 20
275.081154
 30
0.0
 11
133.165027
 21
277.78857
 31
0.0
  0
LINE
  5
B88E
330
B543
100
AcDbEntity
  8
2
  6
Continuous
100
AcDbLine
 10
135.6235269999999
 20
273.135062
 30
0.0
 11
135.6235269999999
 21
274.634862
 31
0.0
  0
LINE
  5
B88F
330
B543
100
AcDbEntity
  8
1
  6
Continuous
100
AcDbLine
 10
136.165027
 20
273.6765619999999
 30
0.0
 11
136.165027
 21
274.634862
 31
0.0
  0
LINE
  5
B890
330
B543
100
AcDbEntity
  8
1
  6
Continuous
100
AcDbLine
 10
136.165027
 20
273.6765619999999
 30
0.0
 11
130.165027
 21
273.6765619999999
 31
0.0
  0
LINE
  5
B891
330
B543
100
AcDbEntity
  8
1
  6
Continuous
100
AcDbLine
 10
135.6235269999999
 20
273.135062
 30
0.0
 11
136.165027
 21
273.6765619999999
 31
0.0
  0
LINE
  5
B892
330
B543
100
AcDbEntity
  8
1
  6
Continuous
100
AcDbLine
 10
135.6235269999999
 20
273.135062
 30
0.0
 11
130.706527
 21
273.135062
 31
0.0
  0
LINE
  5
B893
330
B543
100
AcDbEntity
  8
1
  6
Continuous
100
AcDbLine
 10
130.165027
 20
273.6765619999999
 30
0.0
 11
130.165027
 21
274.634862
 31
0.0
  0
LINE
  5
B894
330
B543
100
AcDbEntity
  8
2
  6
Continuous
100
AcDbLine
 10
130.706527
 20
273.135062
 30
0.0
 11
130.706527
 21
274.634862
 31
0.0
  0
LINE
  5
B895
330
B543
100
AcDbEntity
  8
1
  6
Continuous
100
AcDbLine
 10
130.706527
 20
273.135062
 30
0.0
 11
130.165027
 21
273.6765619999999
 31
0.0
  0
LINE
  5
B896
330
B543
100
AcDbEntity
  8
1
  6
Continuous
100
AcDbLine
 10
135.0650269999999
 20
278.234862
 30
0.0
 11
133.165027
 21
280.134862
 31
0.0
  0
LINE
  5
B897
330
B543
100
AcDbEntity
  8
1
  6
Continuous
100
AcDbLine
 10
133.165027
 20
278.234862
 30
0.0
 11
131.265027
 21
280.134862
 31
0.0
  0
LINE
  5
B898
330
B543
100
AcDbEntity
  8
1
  6
Continuous
100
AcDbLine
 10
127.0650269999999
 20
278.234862
 30
0.0
 11
127.0650269999999
 21
280.134862
 31
0.0
  0
LINE
  5
B899
330
B543
100
AcDbEntity
  8
1
  6
Continuous
100
AcDbLine
 10
127.0650269999999
 20
278.234862
 30
0.0
 11
138.5961279999999
 21
278.234862
 31
0.0
  0
LINE
  5
B89A
330
B543
100
AcDbEntity
  8
1
  6
Continuous
100
AcDbLine
 10
66.266049
 20
157.6830379999998
 30
0.0
 11
64.366049
 21
155.7830379999998
 31
0.0
  0
LINE
  5
B89B
330
B543
100
AcDbEntity
  8
1
  6
Continuous
100
AcDbLine
 10
66.266049
 20
151.5830379999998
 30
0.0
 11
64.366049
 21
151.5830379999998
 31
0.0
  0
LINE
  5
B89C
330
B543
100
AcDbEntity
  8
1
  6
Continuous
100
AcDbLine
 10
66.71234100000001
 20
154.7965379999999
 30
0.0
 11
69.419758
 21
154.7965379999999
 31
0.0
  0
LINE
  5
B89D
330
B543
100
AcDbEntity
  8
2
  6
Continuous
100
AcDbLine
 10
71.36584899999999
 20
155.224538
 30
0.0
 11
69.866049
 21
155.224538
 31
0.0
  0
LINE
  5
B89E
330
B543
100
AcDbEntity
  8
1
  6
Continuous
100
AcDbLine
 10
70.82434899999999
 20
154.6830379999998
 30
0.0
 11
69.866049
 21
154.6830379999998
 31
0.0
  0
LINE
  5
B89F
330
B543
100
AcDbEntity
  8
1
  6
Continuous
100
AcDbLine
 10
71.36584899999999
 20
155.224538
 30
0.0
 11
70.82434899999999
 21
154.6830379999998
 31
0.0
  0
LINE
  5
B8A0
330
B543
100
AcDbEntity
  8
1
  6
Continuous
100
AcDbLine
 10
66.71234100000001
 20
151.9095379999999
 30
0.0
 11
69.419758
 21
151.9095379999999
 31
0.0
  0
LINE
  5
B8A1
330
B543
100
AcDbEntity
  8
1
  6
Continuous
100
AcDbLine
 10
66.266049
 20
152.682538
 30
0.0
 11
66.71234100000001
 21
151.9095379999999
 31
0.0
  0
ARC
  5
B8A2
330
B543
100
AcDbEntity
  8
1
  6
Continuous
100
AcDbCircle
 10
68.82204899999999
 20
153.353538
 30
0.0
 40
2.55582
100
AcDbArc
 50
214.3528569999999
 51
214.3839999999999
  0
ARC
  5
B8A3
330
B543
100
AcDbEntity
  8
1
  6
Continuous
100
AcDbCircle
 10
67.31004899999999
 20
153.353538
 30
0.0
 40
2.55582
100
AcDbArc
 50
325.6159999999998
 51
325.647143
  0
LINE
  5
B8A4
330
B543
100
AcDbEntity
  8
1
  6
Continuous
100
AcDbLine
 10
69.866049
 20
152.682538
 30
0.0
 11
69.419758
 21
151.9095379999999
 31
0.0
  0
ARC
  5
B8A5
330
B543
100
AcDbEntity
  8
1
  6
Continuous
100
AcDbCircle
 10
67.31006999999999
 20
153.3525379999999
 30
0.0
 40
2.555979999999999
100
AcDbArc
 50
334.371637
 51
34.371637
  0
ARC
  5
B8A6
330
B543
100
AcDbEntity
  8
1
  6
Continuous
100
AcDbCircle
 10
68.822029
 20
153.3525379999999
 30
0.0
 40
2.555979999999999
100
AcDbArc
 50
145.6283629999998
 51
205.6283629999998
  0
LINE
  5
B8A7
330
B543
100
AcDbEntity
  8
1
  6
Continuous
100
AcDbLine
 10
66.266049
 20
163.7830379999998
 30
0.0
 11
64.366049
 21
163.7830379999998
 31
0.0
  0
LINE
  5
B8A8
330
B543
100
AcDbEntity
  8
1
  6
Continuous
100
AcDbLine
 10
66.71234100000001
 20
163.4565379999999
 30
0.0
 11
69.419758
 21
163.4565379999999
 31
0.0
  0
LINE
  5
B8A9
330
B543
100
AcDbEntity
  8
1
  6
Continuous
100
AcDbLine
 10
66.71234100000001
 20
160.570538
 30
0.0
 11
69.419758
 21
160.570538
 31
0.0
  0
LINE
  5
B8AA
330
B543
100
AcDbEntity
  8
1
  6
Continuous
100
AcDbLine
 10
66.266049
 20
162.6835379999999
 30
0.0
 11
66.71234100000001
 21
163.4565379999999
 31
0.0
  0
ARC
  5
B8AB
330
B543
100
AcDbEntity
  8
1
  6
Continuous
100
AcDbCircle
 10
68.822029
 20
162.0135379999998
 30
0.0
 40
2.555979999999999
100
AcDbArc
 50
154.371637
 51
214.371637
  0
LINE
  5
B8AC
330
B543
100
AcDbEntity
  8
1
  6
Continuous
100
AcDbLine
 10
69.866049
 20
162.6835379999999
 30
0.0
 11
69.419758
 21
163.4565379999999
 31
0.0
  0
ARC
  5
B8AD
330
B543
100
AcDbEntity
  8
1
  6
Continuous
100
AcDbCircle
 10
67.31006999999999
 20
162.0135379999998
 30
0.0
 40
2.555979999999999
100
AcDbArc
 50
325.6283629999999
 51
25.628363
  0
LINE
  5
B8AE
330
B543
100
AcDbEntity
  8
2
  6
Continuous
100
AcDbLine
 10
71.36584899999999
 20
160.1415379999999
 30
0.0
 11
69.866049
 21
160.1415379999999
 31
0.0
  0
LINE
  5
B8AF
330
B543
100
AcDbEntity
  8
1
  6
Continuous
100
AcDbLine
 10
70.82434899999999
 20
160.6830379999999
 30
0.0
 11
69.866049
 21
160.6830379999999
 31
0.0
  0
LINE
  5
B8B0
330
B543
100
AcDbEntity
  8
1
  6
Continuous
100
AcDbLine
 10
71.36584899999999
 20
160.1415379999999
 30
0.0
 11
70.82434899999999
 21
160.6830379999999
 31
0.0
  0
LINE
  5
B8B1
330
B543
100
AcDbEntity
  8
1
  6
Continuous
100
AcDbLine
 10
138.1646259999999
 20
154.7952369999999
 30
0.0
 11
138.1646259999999
 21
160.5692369999999
 31
0.0
  0
LINE
  5
B8B2
330
B543
100
AcDbEntity
  8
1
  6
Continuous
100
AcDbLine
 10
128.164626
 20
154.7952369999999
 30
0.0
 11
128.164626
 21
160.5692369999999
 31
0.0
  0
CIRCLE
  5
B8B3
330
B543
100
AcDbEntity
  8
1
  6
Continuous
100
AcDbCircle
 10
133.164626
 20
157.6822369999999
 30
0.0
 40
3.0
  0
CIRCLE
  5
B8B4
330
B543
100
AcDbEntity
  8
1
  6
Continuous
100
AcDbCircle
 10
133.164626
 20
157.6822369999999
 30
0.0
 40
5.0
  0
CIRCLE
  5
B8B5
330
B543
100
AcDbEntity
  8
1
  6
Continuous
100
AcDbCircle
 10
133.164626
 20
157.6822369999999
 30
0.0
 40
6.099999999999997
  0
LINE
  5
B8B6
330
B543
100
AcDbEntity
  8
1
  6
Continuous
100
AcDbLine
 10
138.165027
 20
278.234862
 30
0.0
 11
138.165027
 21
274.634862
 31
0.0
  0
LINE
  5
B8B7
330
B543
100
AcDbEntity
  8
1
  6
Continuous
100
AcDbLine
 10
138.1646259999999
 20
154.7952369999999
 30
0.0
 11
133.164626
 21
151.908237
 31
0.0
  0
CIRCLE
  5
B8B8
330
B543
100
AcDbEntity
  8
2
  6
Continuous
100
AcDbCircle
 10
133.164626
 20
157.6822369999999
 30
0.0
 40
2.458499999999999
  0
LINE
  5
B8B9
330
B543
100
AcDbEntity
  8
1
  6
Continuous
100
AcDbLine
 10
128.164626
 20
154.7952369999999
 30
0.0
 11
133.164626
 21
151.908237
 31
0.0
  0
LINE
  5
B8BA
330
B543
100
AcDbEntity
  8
1
  6
Continuous
100
AcDbLine
 10
133.164626
 20
163.455237
 30
0.0
 11
138.1646259999999
 21
160.5692369999999
 31
0.0
  0
LINE
  5
B8BB
330
B543
100
AcDbEntity
  8
1
  6
Continuous
100
AcDbLine
 10
133.164626
 20
163.455237
 30
0.0
 11
128.164626
 21
160.5692369999999
 31
0.0
  0
LINE
  5
B8BC
330
B543
100
AcDbEntity
  8
1
  6
Continuous
100
AcDbLine
 10
127.064626
 20
88.409852
 30
0.0
 11
137.6849879999997
 21
88.409852
 31
0.0
  0
LINE
  5
B8BD
330
B543
100
AcDbEntity
  8
1
  6
Continuous
100
AcDbLine
 10
135.623126
 20
93.509652
 30
0.0
 11
136.164626
 21
92.96815200000001
 31
0.0
  0
LINE
  5
B8BE
330
B543
100
AcDbEntity
  8
1
  6
Continuous
100
AcDbLine
 10
136.164626
 20
92.96815200000001
 30
0.0
 11
130.164626
 21
92.96815200000001
 31
0.0
  0
ARC
  5
B8BF
330
B543
100
AcDbEntity
  8
1
  6
Continuous
100
AcDbCircle
 10
135.6646259999999
 20
95.635144
 30
0.0
 40
7.225291999999997
100
AcDbArc
 50
249.7567339999999
 51
288.2942969999998
  0
ARC
  5
B8C0
330
B543
100
AcDbEntity
  8
1
  6
Continuous
100
AcDbCircle
 10
135.6646259999999
 20
84.78455999999999
 30
0.0
 40
7.225291999999997
100
AcDbArc
 50
69.75673399999999
 51
110.2432659999999
  0
LINE
  5
B8C1
330
B543
100
AcDbEntity
  8
1
  6
Continuous
100
AcDbLine
 10
138.1646259999999
 20
92.00985199999999
 30
0.0
 11
128.164626
 21
92.00985199999999
 31
0.0
  0
LINE
  5
B8C2
330
B543
100
AcDbEntity
  8
1
  6
Continuous
100
AcDbLine
 10
127.064626
 20
88.409852
 30
0.0
 11
127.064626
 21
86.50985199999999
 31
0.0
  0
LINE
  5
B8C3
330
B543
100
AcDbEntity
  8
1
  6
Continuous
100
AcDbLine
 10
133.164626
 20
88.409852
 30
0.0
 11
135.0646259999997
 21
86.50985199999999
 31
0.0
  0
LINE
  5
B8C4
330
B543
100
AcDbEntity
  8
1
  6
Continuous
100
AcDbLine
 10
131.2646259999999
 20
88.409852
 30
0.0
 11
133.164626
 21
86.50985199999999
 31
0.0
  0
LINE
  5
B8C5
330
B543
100
AcDbEntity
  8
1
  6
Continuous
100
AcDbLine
 10
130.706126
 20
93.509652
 30
0.0
 11
130.164626
 21
92.96815200000001
 31
0.0
  0
LINE
  5
B8C6
330
B543
100
AcDbEntity
  8
2
  6
Continuous
100
AcDbLine
 10
130.706126
 20
93.509652
 30
0.0
 11
130.706126
 21
92.00985199999999
 31
0.0
  0
LINE
  5
B8C7
330
B543
100
AcDbEntity
  8
1
  6
Continuous
100
AcDbLine
 10
130.164626
 20
92.96815200000001
 30
0.0
 11
130.164626
 21
92.00985199999999
 31
0.0
  0
LINE
  5
B8C8
330
B543
100
AcDbEntity
  8
1
  6
Continuous
100
AcDbLine
 10
135.623126
 20
93.509652
 30
0.0
 11
130.706126
 21
93.509652
 31
0.0
  0
LINE
  5
B8C9
330
B543
100
AcDbEntity
  8
2
  6
Continuous
100
AcDbLine
 10
135.623126
 20
93.509652
 30
0.0
 11
135.623126
 21
92.00985199999999
 31
0.0
  0
LINE
  5
B8CA
330
B543
100
AcDbEntity
  8
1
  6
Continuous
100
AcDbLine
 10
133.164626
 20
91.56356
 30
0.0
 11
133.164626
 21
88.85614399999999
 31
0.0
  0
LINE
  5
B8CB
330
B543
100
AcDbEntity
  8
1
  6
Continuous
100
AcDbLine
 10
128.164626
 20
88.409852
 30
0.0
 11
128.164626
 21
92.00985199999999
 31
0.0
  0
ARC
  5
B8CC
330
B543
100
AcDbEntity
  8
1
  6
Continuous
100
AcDbCircle
 10
130.6646259999999
 20
84.78455999999999
 30
0.0
 40
7.225291999999997
100
AcDbArc
 50
69.75673399999999
 51
110.2432659999999
  0
ARC
  5
B8CD
330
B543
100
AcDbEntity
  8
1
  6
Continuous
100
AcDbCircle
 10
130.6646259999999
 20
95.635144
 30
0.0
 40
7.225291999999997
100
AcDbArc
 50
249.7567339999999
 51
290.243266
  0
LINE
  5
B8CE
330
B543
100
AcDbEntity
  8
1
  6
Continuous
100
AcDbLine
 10
138.1646259999999
 20
89.051187
 30
0.0
 11
138.1646259999999
 21
92.00985199999999
 31
0.0
  0
LINE
  5
B8CF
330
B543
100
AcDbEntity
  8
1
  6
Continuous
100
AcDbLine
 10
136.164626
 20
92.96815200000001
 30
0.0
 11
136.164626
 21
92.00985199999999
 31
0.0
  0
ARC
  5
B8D0
330
B543
100
AcDbEntity
  8
1
  6
Continuous
100
AcDbCircle
 10
208.9191829999998
 20
153.3525379999999
 30
0.0
 40
2.555979999999999
100
AcDbArc
 50
145.6283629999998
 51
205.6283629999998
  0
LINE
  5
B8D1
330
B543
100
AcDbEntity
  8
1
  6
Continuous
100
AcDbLine
 10
206.3632029999999
 20
162.6835379999999
 30
0.0
 11
206.3632029999999
 21
152.682538
 31
0.0
  0
ARC
  5
B8D2
330
B543
100
AcDbEntity
  8
1
  6
Continuous
100
AcDbCircle
 10
208.9192029999999
 20
153.353538
 30
0.0
 40
2.55582
100
AcDbArc
 50
214.3528569999999
 51
214.3839999999999
  0
LINE
  5
B8D3
330
B543
100
AcDbEntity
  8
1
  6
Continuous
100
AcDbLine
 10
208.384373
 20
151.9095379999999
 30
0.0
 11
206.8094949999998
 21
151.9095379999999
 31
0.0
  0
LINE
  5
B8D4
330
B543
100
AcDbEntity
  8
1
  6
Continuous
100
AcDbLine
 10
206.3632029999999
 20
152.682538
 30
0.0
 11
206.8094949999998
 21
151.9095379999999
 31
0.0
  0
LINE
  5
B8D5
330
B543
100
AcDbEntity
  8
1
  6
Continuous
100
AcDbLine
 10
204.863403
 20
160.1415379999999
 30
0.0
 11
205.4049029999999
 21
160.6830379999999
 31
0.0
  0
LINE
  5
B8D6
330
B543
100
AcDbEntity
  8
1
  6
Continuous
100
AcDbLine
 10
205.4049029999999
 20
160.6830379999999
 30
0.0
 11
206.3632029999999
 21
160.6830379999999
 31
0.0
  0
LINE
  5
B8D7
330
B543
100
AcDbEntity
  8
2
  6
Continuous
100
AcDbLine
 10
204.863403
 20
160.1415379999999
 30
0.0
 11
206.3632029999999
 21
160.1415379999999
 31
0.0
  0
LINE
  5
B8D8
330
B543
100
AcDbEntity
  8
1
  6
Continuous
100
AcDbLine
 10
204.863403
 20
155.224538
 30
0.0
 11
205.4049029999999
 21
154.6830379999998
 31
0.0
  0
LINE
  5
B8D9
330
B543
100
AcDbEntity
  8
1
  6
Continuous
100
AcDbLine
 10
205.4049029999999
 20
154.6830379999998
 30
0.0
 11
206.3632029999999
 21
154.6830379999998
 31
0.0
  0
LINE
  5
B8DA
330
B543
100
AcDbEntity
  8
2
  6
Continuous
100
AcDbLine
 10
204.863403
 20
155.224538
 30
0.0
 11
206.3632029999999
 21
155.224538
 31
0.0
  0
LINE
  5
B8DB
330
B543
100
AcDbEntity
  8
1
  6
Continuous
100
AcDbLine
 10
205.4049029999999
 20
160.6830379999999
 30
0.0
 11
205.4049029999999
 21
154.6830379999998
 31
0.0
  0
LINE
  5
B8DC
330
B543
100
AcDbEntity
  8
1
  6
Continuous
100
AcDbLine
 10
204.863403
 20
160.1415379999999
 30
0.0
 11
204.863403
 21
155.224538
 31
0.0
  0
LINE
  5
B8DD
330
B543
100
AcDbEntity
  8
1
  6
Continuous
100
AcDbLine
 10
208.384373
 20
160.570538
 30
0.0
 11
206.8094949999998
 21
160.570538
 31
0.0
  0
LINE
  5
B8DE
330
B543
100
AcDbEntity
  8
1
  6
Continuous
100
AcDbLine
 10
208.7899189999999
 20
163.4565379999999
 30
0.0
 11
206.8094949999998
 21
163.4565379999999
 31
0.0
  0
LINE
  5
B8DF
330
B543
100
AcDbEntity
  8
1
  6
Continuous
100
AcDbLine
 10
208.384373
 20
154.7965379999999
 30
0.0
 11
206.8094949999998
 21
154.7965379999999
 31
0.0
  0
ARC
  5
B8E0
330
B543
100
AcDbEntity
  8
1
  6
Continuous
100
AcDbCircle
 10
208.9191829999998
 20
162.0135379999998
 30
0.0
 40
2.555979999999999
100
AcDbArc
 50
154.371637
 51
214.371637
  0
LINE
  5
B8E1
330
B543
100
AcDbEntity
  8
1
  6
Continuous
100
AcDbLine
 10
206.3632029999999
 20
162.6835379999999
 30
0.0
 11
206.8094949999998
 21
163.4565379999999
 31
0.0
  0
ARC
  5
B8E2
330
B543
100
AcDbEntity
  8
1
  6
Continuous
100
AcDbCircle
 10
215.924152
 20
157.683538
 30
0.0
 40
9.560949
100
AcDbArc
 50
162.4247879999998
 51
197.5752119999999
  0
LINE
  5
B8E3
330
B543
100
AcDbEntity
  8
4
  6
CENTER
100
AcDbLine
 10
323.5617799999999
 20
127.682069
 30
0.0
 11
323.561883
 21
185.6820689999999
 31
0.0
  0
LINE
  5
B8E4
330
B543
100
AcDbEntity
  8
1
  6
Continuous
100
AcDbLine
 10
327.3232409999998
 20
187.52633
 30
0.0
 11
330.6794449999999
 21
157.428316
 31
0.0
  0
LINE
  5
B8E5
330
B543
100
AcDbEntity
  8
4
  6
CENTER
100
AcDbLine
 10
304.5619779999999
 20
239.531135
 30
0.0
 11
304.5618499999998
 21
167.1421249999999
 31
0.0
  0
ARC
  5
B8E6
330
B543
100
AcDbEntity
  8
1
  6
Continuous
100
AcDbCircle
 10
250.9572589999999
 20
136.558285
 30
0.0
 40
63.35981999999999
100
AcDbArc
 50
36.66607799999999
 51
45.95289699999999
  0
LINE
  5
B8E7
330
B543
100
AcDbEntity
  8
1
  6
Continuous
100
AcDbLine
 10
315.7118849999998
 20
186.6336279999999
 30
0.0
 11
315.711831
 21
156.449321
 31
0.0
  0
ARC
  5
B8E8
330
B543
100
AcDbEntity
  8
1
  6
Continuous
100
AcDbCircle
 10
323.5618329999998
 20
157.6820689999999
 30
0.0
 40
25.0
100
AcDbArc
 50
144.161832
 51
80.21928800000003
  0
ARC
  5
B8E9
330
B543
100
AcDbEntity
  8
1
  6
Continuous
100
AcDbCircle
 10
323.5618329999998
 20
157.6820689999999
 30
0.0
 40
17.5
100
AcDbArc
 50
153.524234
 51
72.621374
  0
ARC
  5
B8EA
330
B543
100
AcDbEntity
  8
1
  6
Continuous
100
AcDbCircle
 10
323.5618329999998
 20
157.6820689999999
 30
0.0
 40
8.5
100
AcDbArc
 50
258.210341
 51
40.376848
  0
ARC
  5
B8EB
330
B543
100
AcDbEntity
  8
1
  6
Continuous
100
AcDbCircle
 10
323.2118319999999
 20
156.732069
 30
0.0
 40
7.5
100
AcDbArc
 50
244.078997
 51
5.326601999999999
  0
LINE
  5
B8EC
330
B543
100
AcDbEntity
  8
4
  6
CENTER
100
AcDbLine
 10
353.5618329999999
 20
157.682016
 30
0.0
 11
293.561833
 21
157.682122
 31
0.0
  0
LINE
  5
B8ED
330
B543
100
AcDbEntity
  8
5
  6
PHANTOM
100
AcDbLine
 10
353.221492
 20
152.460016
 30
0.0
 11
348.37581
 21
154.637968
 31
0.0
  0
ARC
  5
B8EE
330
B543
100
AcDbEntity
  8
5
  6
PHANTOM
100
AcDbCircle
 10
350.8475579999998
 20
142.838782
 30
0.0
 40
6.739846
100
AcDbArc
 50
110.498318
 51
128.3984859999999
  0
ARC
  5
B8EF
330
B543
100
AcDbEntity
  8
5
  6
PHANTOM
100
AcDbCircle
 10
2244.904489
 20
-4923.499550999999
 30
0.0
 40
5415.550781
100
AcDbArc
 50
110.465786
 51
110.498318
  0
LINE
  5
B8F0
330
B543
100
AcDbEntity
  8
5
  6
PHANTOM
100
AcDbLine
 10
353.2214769999998
 20
152.460016
 30
0.0
 11
352.6232069999999
 21
150.3683419999999
 31
0.0
  0
ARC
  5
B8F1
330
B543
100
AcDbEntity
  8
5
  6
PHANTOM
100
AcDbCircle
 10
352.275515
 20
147.797031
 30
0.0
 40
2.594708999999999
100
AcDbArc
 50
82.29902199999996
 51
110.465786
  0
LINE
  5
B8F2
330
B543
100
AcDbEntity
  8
1
  6
Continuous
100
AcDbLine
 10
349.898056
 20
172.2891999999999
 30
0.0
 11
344.7616279999999
 21
170.932303
 31
0.0
  0
ARC
  5
B8F3
330
B543
100
AcDbEntity
  8
1
  6
Continuous
100
AcDbCircle
 10
352.0974199999998
 20
168.070065
 30
0.0
 40
2.594708999999999
100
AcDbArc
 50
121.2990259999999
 51
149.465784
  0
LINE
  5
B8F4
330
B543
100
AcDbEntity
  8
1
  6
Continuous
100
AcDbLine
 10
349.898056
 20
172.2891999999999
 30
0.0
 11
350.7494469999999
 21
170.287161
 31
0.0
  0
ARC
  5
B8F5
330
B543
100
AcDbEntity
  8
1
  6
Continuous
100
AcDbCircle
 10
5014.416808
 20
-2581.997611
 30
0.0
 40
5415.550781
100
AcDbArc
 50
149.465784
 51
149.49832
  0
ARC
  5
B8F6
330
B543
100
AcDbEntity
  8
1
  6
Continuous
100
AcDbCircle
 10
354.108016
 20
163.3181379999998
 30
0.0
 40
6.739846
100
AcDbArc
 50
149.49832
 51
167.3986679999998
  0
ARC
  5
B8F7
330
B543
100
AcDbEntity
  8
5
  6
PHANTOM
100
AcDbCircle
 10
311.170361
 20
213.465248
 30
0.0
 40
56.58425499999999
100
AcDbArc
 50
253.9015479999999
 51
257.1328219999999
  0
LINE
  5
B8F8
330
B543
100
AcDbEntity
  8
5
  6
PHANTOM
100
AcDbLine
 10
288.011519
 20
162.637179
 30
0.0
 11
289.4525970000001
 21
162.916824
 31
0.0
  0
LINE
  5
B8F9
330
B543
100
AcDbEntity
  8
5
  6
PHANTOM
100
AcDbLine
 10
299.2134299999999
 20
166.8029159999998
 30
0.0
 11
287.705842
 21
164.4023929999999
 31
0.0
  0
ARC
  5
B8FA
330
B543
100
AcDbEntity
  8
1
  6
Continuous
100
AcDbCircle
 10
294.4081289999999
 20
156.3510879999998
 30
0.0
 40
16.543596
100
AcDbArc
 50
271.0746789999999
 51
292.901546
  0
LINE
  5
B8FB
330
B543
100
AcDbEntity
  8
1
  6
Continuous
100
AcDbLine
 10
298.8996329999999
 20
149.4473629999999
 30
0.0
 11
291.467259
 21
140.3398399999999
 31
0.0
  0
LINE
  5
B8FC
330
B543
100
AcDbEntity
  8
1
  6
Continuous
100
AcDbLine
 10
292.8157069999999
 20
139.1603639999999
 30
0.0
 11
293.7596529999999
 21
140.2845939999999
 31
0.0
  0
ARC
  5
B8FD
330
B543
100
AcDbEntity
  8
1
  6
Continuous
100
AcDbCircle
 10
365.6037769999999
 20
192.391151
 30
0.0
 40
63.31738699999998
100
AcDbArc
 50
210.017325
 51
218.0250179999999
  0
ARC
  5
B8FE
330
B543
100
AcDbEntity
  8
1
  6
Continuous
100
AcDbCircle
 10
325.1789229999999
 20
160.7793589999999
 30
0.0
 40
12.0
100
AcDbArc
 50
218.0250179999999
 51
244.078997
  0
ARC
  5
B8FF
330
B543
100
AcDbEntity
  8
1
  6
Continuous
100
AcDbCircle
 10
299.70666
 20
152.34065
 30
0.0
 40
3.003727999999998
100
AcDbArc
 50
254.414714
 51
275.432164
  0
ARC
  5
B900
330
B543
100
AcDbEntity
  8
1
  6
Continuous
100
AcDbCircle
 10
278.826362
 20
193.2355379999999
 30
0.0
 40
56.58425499999999
100
AcDbArc
 50
292.901546
 51
296.1328179999999
  0
ARC
  5
B901
330
B543
100
AcDbEntity
  8
5
  6
PHANTOM
100
AcDbCircle
 10
301.6614159999999
 20
168.54355
 30
0.0
 40
3.003727999999998
100
AcDbArc
 50
215.4147129999999
 51
236.432178
  0
ARC
  5
B902
330
B543
100
AcDbEntity
  8
1
  6
Continuous
100
AcDbCircle
 10
188.5434899999999
 20
90.093952
 30
0.0
 40
141.169928
100
AcDbArc
 50
30.017325
 51
36.66607799999999
  0
ARC
  5
B903
330
B543
100
AcDbEntity
  8
1
  6
Continuous
100
AcDbCircle
 10
294.696615
 20
140.972685
 30
0.0
 40
1.162484
100
AcDbArc
 50
216.2925219999999
 51
271.0746789999999
  0
LINE
  5
B904
330
B543
100
AcDbEntity
  8
1
  6
Continuous
100
AcDbLine
 10
292.815692
 20
139.1603639999999
 30
0.0
 11
291.467259
 21
140.3398329999999
 31
0.0
  0
LINE
  5
B905
330
B543
100
AcDbEntity
  8
5
  6
PHANTOM
100
AcDbLine
 10
288.011519
 20
162.6371719999999
 30
0.0
 11
287.7058579999999
 21
164.4023929999999
 31
0.0
  0
ARC
  5
B906
330
B543
100
AcDbEntity
  8
5
  6
PHANTOM
100
AcDbCircle
 10
290.613783
 20
162.861906
 30
0.0
 40
1.162484
100
AcDbArc
 50
177.292523
 51
232.0746779999999
  0
ARC
  5
B907
330
B543
100
AcDbEntity
  8
5
  6
PHANTOM
100
AcDbCircle
 10
300.0675399999999
 20
174.9947169999998
 30
0.0
 40
16.543596
100
AcDbArc
 50
232.0746779999999
 51
253.9015479999999
  0
LINE
  5
B908
330
B543
100
AcDbEntity
  8
1
  6
Continuous
100
AcDbLine
 10
327.509383
 20
185.529866
 30
0.0
 11
329.77834
 21
185.563619
 31
0.0
  0
ARC
  5
B909
330
B543
100
AcDbEntity
  8
1
  6
Continuous
100
AcDbCircle
 10
329.094731
 20
186.2103099999999
 30
0.0
 40
1.351175999999999
100
AcDbArc
 50
50.763213
 51
91.145662
  0
ARC
  5
B90A
330
B543
100
AcDbEntity
  8
1
  6
Continuous
100
AcDbCircle
 10
329.773198
 20
185.9092629999999
 30
0.0
 40
0.345682
100
AcDbArc
 50
270.852271
 51
313.097568
  0
LINE
  5
B90B
330
B543
100
AcDbEntity
  8
1
  6
Continuous
100
AcDbLine
 10
330.009384
 20
186.3418479999999
 30
0.0
 11
330.009383
 21
185.6568479999999
 31
0.0
  0
LINE
  5
B90C
330
B543
100
AcDbEntity
  8
1
  6
Continuous
100
AcDbLine
 10
329.949386
 20
187.2568479999999
 30
0.0
 11
330.009384
 21
186.3418479999999
 31
0.0
  0
LINE
  5
B90D
330
B543
100
AcDbEntity
  8
1
  6
Continuous
100
AcDbLine
 10
314.0618609999999
 20
229.4825219999999
 30
0.0
 11
314.0618099999999
 21
200.182522
 31
0.0
  0
LINE
  5
B90E
330
B543
100
AcDbEntity
  8
1
  6
Continuous
100
AcDbLine
 10
295.0618609999999
 20
229.482555
 30
0.0
 11
295.0618099999999
 21
200.1825549999999
 31
0.0
  0
LINE
  5
B90F
330
B543
100
AcDbEntity
  8
1
  6
Continuous
100
AcDbLine
 10
319.2219059999998
 20
198.6825119999998
 30
0.0
 11
289.901906
 21
198.6825639999999
 31
0.0
  0
LINE
  5
B910
330
B543
100
AcDbEntity
  8
1
  6
Continuous
100
AcDbLine
 10
295.061814
 20
202.5825549999999
 30
0.0
 11
314.061814
 21
202.5825219999999
 31
0.0
  0
LINE
  5
B911
330
B543
100
AcDbEntity
  8
1
  6
Continuous
100
AcDbLine
 10
295.7702649999998
 20
191.801211
 30
0.0
 11
297.770258
 21
190.370211
 31
0.0
  0
LINE
  5
B912
330
B543
100
AcDbEntity
  8
1
  6
Continuous
100
AcDbLine
 10
320.071365
 20
193.7225719999999
 30
0.0
 11
289.052231
 21
193.722627
 31
0.0
  0
LINE
  5
B913
330
B543
100
AcDbEntity
  8
1
  6
Continuous
100
AcDbLine
 10
319.221901
 20
195.7824119999999
 30
0.0
 11
289.9019009999999
 21
195.7824639999999
 31
0.0
  0
LINE
  5
B914
330
B543
100
AcDbEntity
  8
1
  6
Continuous
100
AcDbLine
 10
288.561616
 20
193.14694
 30
0.0
 11
320.561977
 21
193.146883
 31
0.0
  0
LINE
  5
B915
330
B543
100
AcDbEntity
  8
1
  6
Continuous
100
AcDbLine
 10
288.311894
 20
191.801184
 30
0.0
 11
320.8118939999998
 21
191.8012069999998
 31
0.0
  0
LINE
  5
B916
330
B543
100
AcDbEntity
  8
1
  6
Continuous
100
AcDbLine
 10
320.8313099999998
 20
190.3700739999999
 30
0.0
 11
287.8836129999999
 21
190.370132
 31
0.0
  0
LINE
  5
B917
330
B543
100
AcDbEntity
  8
1
  6
Continuous
100
AcDbLine
 10
297.2319059999999
 20
198.6825509999999
 30
0.0
 11
297.231901
 21
195.782507
 31
0.0
  0
LINE
  5
B918
330
B543
100
AcDbEntity
  8
1
  6
Continuous
100
AcDbLine
 10
319.221901
 20
195.7823939999999
 30
0.0
 11
319.2219059999998
 21
198.6825119999998
 31
0.0
  0
LINE
  5
B919
330
B543
100
AcDbEntity
  8
1
  6
Continuous
100
AcDbLine
 10
311.891906
 20
198.682525
 30
0.0
 11
311.8919009999999
 21
195.7824809999999
 31
0.0
  0
LINE
  5
B91A
330
B543
100
AcDbEntity
  8
1
  6
Continuous
100
AcDbLine
 10
313.326611
 20
191.80118
 30
0.0
 11
311.326611
 21
190.3701869999999
 31
0.0
  0
LINE
  5
B91B
330
B543
100
AcDbEntity
  8
1
  6
Continuous
100
AcDbLine
 10
311.326614
 20
191.801183
 30
0.0
 11
313.326608
 21
190.370184
 31
0.0
  0
LINE
  5
B91C
330
B543
100
AcDbEntity
  8
1
  6
Continuous
100
AcDbLine
 10
312.7408279999999
 20
191.801181
 30
0.0
 11
314.740821
 21
190.370181
 31
0.0
  0
LINE
  5
B91D
330
B543
100
AcDbEntity
  8
1
  6
Continuous
100
AcDbLine
 10
316.1550379999998
 20
191.8011749999998
 30
0.0
 11
314.1550379999998
 21
190.370182
 31
0.0
  0
LINE
  5
B91E
330
B543
100
AcDbEntity
  8
1
  6
Continuous
100
AcDbLine
 10
318.9834649999998
 20
191.8011699999999
 30
0.0
 11
316.9834649999998
 21
190.3701769999999
 31
0.0
  0
LINE
  5
B91F
330
B543
100
AcDbEntity
  8
1
  6
Continuous
100
AcDbLine
 10
314.1550409999999
 20
191.801178
 30
0.0
 11
316.155035
 21
190.370179
 31
0.0
  0
LINE
  5
B920
330
B543
100
AcDbEntity
  8
1
  6
Continuous
100
AcDbLine
 10
315.5692549999999
 20
191.8011759999999
 30
0.0
 11
317.569248
 21
190.3701759999999
 31
0.0
  0
LINE
  5
B921
330
B543
100
AcDbEntity
  8
1
  6
Continuous
100
AcDbLine
 10
316.983468
 20
191.801173
 30
0.0
 11
318.9834619999999
 21
190.3701739999999
 31
0.0
  0
LINE
  5
B922
330
B543
100
AcDbEntity
  8
1
  6
Continuous
100
AcDbLine
 10
318.3976819999998
 20
191.8011709999999
 30
0.0
 11
320.3976749999998
 21
190.3701709999999
 31
0.0
  0
ARC
  5
B923
330
B543
100
AcDbEntity
  8
1
  6
Continuous
100
AcDbCircle
 10
316.760833
 20
193.2823989999999
 30
0.0
 40
2.5
100
AcDbArc
 50
10.14091799999998
 51
89.999899
  0
LINE
  5
B924
330
B543
100
AcDbEntity
  8
1
  6
Continuous
100
AcDbLine
 10
320.8118939999998
 20
191.801167
 30
0.0
 11
320.811891
 21
190.3701709999999
 31
0.0
  0
LINE
  5
B925
330
B543
100
AcDbEntity
  8
1
  6
Continuous
100
AcDbLine
 10
320.8118939999998
 20
191.801167
 30
0.0
 11
320.811891
 21
190.3701709999999
 31
0.0
  0
LINE
  5
B926
330
B543
100
AcDbEntity
  8
1
  6
Continuous
100
AcDbLine
 10
319.811892
 20
190.3701719999999
 30
0.0
 11
320.8118929999999
 21
191.370169
 31
0.0
  0
LINE
  5
B927
330
B543
100
AcDbEntity
  8
1
  6
Continuous
100
AcDbLine
 10
319.811895
 20
191.801168
 30
0.0
 11
320.8118929999999
 21
191.370169
 31
0.0
  0
ARC
  5
B928
330
B543
100
AcDbEntity
  8
1
  6
Continuous
100
AcDbCircle
 10
319.5314649999999
 20
192.765561
 30
0.0
 40
1.098799999999998
100
AcDbArc
 50
20.30606
 51
60.570374
  0
ARC
  5
B929
330
B543
100
AcDbEntity
  8
1
  6
Continuous
100
AcDbCircle
 10
318.2136029999999
 20
193.477774
 30
0.0
 40
2.371570999999998
100
AcDbArc
 50
315.0131769999999
 51
351.979688
  0
LINE
  5
B92A
330
B543
100
AcDbEntity
  8
1
  6
Continuous
100
AcDbLine
 10
325.284386
 20
187.4868569999999
 30
0.0
 11
325.8493859999999
 21
187.496856
 31
0.0
  0
LINE
  5
B92B
330
B543
100
AcDbEntity
  8
1
  6
Continuous
100
AcDbLine
 10
324.689386
 20
187.5068579999999
 30
0.0
 11
325.284386
 21
187.4868569999999
 31
0.0
  0
LINE
  5
B92C
330
B543
100
AcDbEntity
  8
1
  6
Continuous
100
AcDbLine
 10
325.8493859999999
 20
187.496856
 30
0.0
 11
329.067714
 21
187.561217
 31
0.0
  0
ARC
  5
B92D
330
B543
100
AcDbEntity
  8
1
  6
Continuous
100
AcDbCircle
 10
321.033702
 20
189.5928979999999
 30
0.0
 40
2.042368999999998
100
AcDbArc
 50
199.8217079999998
 51
269.3178389999999
  0
LINE
  5
B92E
330
B543
100
AcDbEntity
  8
1
  6
Continuous
100
AcDbLine
 10
323.664386
 20
187.55186
 30
0.0
 11
323.8493859999999
 21
187.516859
 31
0.0
  0
LINE
  5
B92F
330
B543
100
AcDbEntity
  8
1
  6
Continuous
100
AcDbLine
 10
323.4943859999999
 20
187.63686
 30
0.0
 11
323.664386
 21
187.55186
 31
0.0
  0
LINE
  5
B930
330
B543
100
AcDbEntity
  8
1
  6
Continuous
100
AcDbLine
 10
323.1543869999998
 20
187.8368599999998
 30
0.0
 11
323.4943859999999
 21
187.63686
 31
0.0
  0
LINE
  5
B931
330
B543
100
AcDbEntity
  8
1
  6
Continuous
100
AcDbLine
 10
323.009387
 20
188.2718609999998
 30
0.0
 11
323.1543869999998
 21
187.8368599999998
 31
0.0
  0
ARC
  5
B932
330
B543
100
AcDbEntity
  8
1
  6
Continuous
100
AcDbCircle
 10
318.916199
 20
186.5216749999999
 30
0.0
 40
4.451666999999998
100
AcDbArc
 50
23.15083099999998
 51
38.256601
  0
ARC
  5
B933
330
B543
100
AcDbEntity
  8
1
  6
Continuous
100
AcDbCircle
 10
319.847095
 20
187.255707
 30
0.0
 40
3.266183999999998
100
AcDbArc
 50
38.256601
 51
72.462192
  0
LINE
  5
B934
330
B543
100
AcDbEntity
  8
1
  6
Continuous
100
AcDbLine
 10
321.009386
 20
187.5506739999999
 30
0.0
 11
324.689386
 21
187.5068579999999
 31
0.0
  0
LINE
  5
B935
330
B543
100
AcDbEntity
  8
1
  6
Continuous
100
AcDbLine
 10
299.184475
 20
191.801205
 30
0.0
 11
297.184475
 21
190.370212
 31
0.0
  0
LINE
  5
B936
330
B543
100
AcDbEntity
  8
1
  6
Continuous
100
AcDbLine
 10
302.012902
 20
191.8012
 30
0.0
 11
300.012903
 21
190.3702069999999
 31
0.0
  0
LINE
  5
B937
330
B543
100
AcDbEntity
  8
1
  6
Continuous
100
AcDbLine
 10
297.1844779999999
 20
191.801208
 30
0.0
 11
299.184472
 21
190.3702089999999
 31
0.0
  0
LINE
  5
B938
330
B543
100
AcDbEntity
  8
1
  6
Continuous
100
AcDbLine
 10
298.5986919999998
 20
191.801206
 30
0.0
 11
300.5986849999998
 21
190.370206
 31
0.0
  0
LINE
  5
B939
330
B543
100
AcDbEntity
  8
1
  6
Continuous
100
AcDbLine
 10
300.0129059999999
 20
191.8012029999999
 30
0.0
 11
302.0128989999999
 21
190.3702039999998
 31
0.0
  0
LINE
  5
B93A
330
B543
100
AcDbEntity
  8
1
  6
Continuous
100
AcDbLine
 10
301.427119
 20
191.8012009999999
 30
0.0
 11
303.4271129999999
 21
190.370201
 31
0.0
  0
LINE
  5
B93B
330
B543
100
AcDbEntity
  8
1
  6
Continuous
100
AcDbLine
 10
307.6697559999999
 20
191.8011899999999
 30
0.0
 11
305.669757
 21
190.370197
 31
0.0
  0
LINE
  5
B93C
330
B543
100
AcDbEntity
  8
1
  6
Continuous
100
AcDbLine
 10
305.66976
 20
191.8011929999999
 30
0.0
 11
307.6697529999999
 21
190.3701939999999
 31
0.0
  0
LINE
  5
B93D
330
B543
100
AcDbEntity
  8
1
  6
Continuous
100
AcDbLine
 10
307.083973
 20
191.8011909999999
 30
0.0
 11
309.0839669999998
 21
190.370191
 31
0.0
  0
LINE
  5
B93E
330
B543
100
AcDbEntity
  8
1
  6
Continuous
100
AcDbLine
 10
309.912401
 20
191.801186
 30
0.0
 11
311.912394
 21
190.3701859999999
 31
0.0
  0
LINE
  5
B93F
330
B543
100
AcDbEntity
  8
1
  6
Continuous
100
AcDbLine
 10
310.4981829999999
 20
191.801185
 30
0.0
 11
308.4981839999999
 21
190.3701919999998
 31
0.0
  0
LINE
  5
B940
330
B543
100
AcDbEntity
  8
1
  6
Continuous
100
AcDbLine
 10
308.498187
 20
191.8011879999999
 30
0.0
 11
310.49818
 21
190.3701889999999
 31
0.0
  0
LINE
  5
B941
330
B543
100
AcDbEntity
  8
1
  6
Continuous
100
AcDbLine
 10
304.2555459999999
 20
191.801196
 30
0.0
 11
306.2555399999999
 21
190.370196
 31
0.0
  0
LINE
  5
B942
330
B543
100
AcDbEntity
  8
1
  6
Continuous
100
AcDbLine
 10
304.8413289999999
 20
191.801195
 30
0.0
 11
302.8413299999999
 21
190.370202
 31
0.0
  0
LINE
  5
B943
330
B543
100
AcDbEntity
  8
1
  6
Continuous
100
AcDbLine
 10
302.841333
 20
191.8011979999999
 30
0.0
 11
304.8413259999999
 21
190.3701989999999
 31
0.0
  0
ARC
  5
B944
330
B543
100
AcDbEntity
  8
1
  6
Continuous
100
AcDbCircle
 10
312.56181
 20
200.182524
 30
0.0
 40
1.5
100
AcDbArc
 50
269.999899
 51
359.999899
  0
LINE
  5
B945
330
B543
100
AcDbEntity
  8
1
  6
Continuous
100
AcDbLine
 10
289.9019009999999
 20
195.7824459999999
 30
0.0
 11
289.901906
 21
198.6825639999999
 31
0.0
  0
LINE
  5
B946
330
B543
100
AcDbEntity
  8
1
  6
Continuous
100
AcDbLine
 10
288.311894
 20
191.8012239999999
 30
0.0
 11
288.3118909999998
 21
190.370228
 31
0.0
  0
LINE
  5
B947
330
B543
100
AcDbEntity
  8
1
  6
Continuous
100
AcDbLine
 10
288.311894
 20
191.8012239999999
 30
0.0
 11
288.3118909999998
 21
190.370035
 31
0.0
  0
LINE
  5
B948
330
B543
100
AcDbEntity
  8
1
  6
Continuous
100
AcDbLine
 10
290.6991939999999
 20
191.8012199999998
 30
0.0
 11
288.6991939999999
 21
190.370227
 31
0.0
  0
LINE
  5
B949
330
B543
100
AcDbEntity
  8
1
  6
Continuous
100
AcDbLine
 10
288.699197
 20
191.801223
 30
0.0
 11
290.6991909999998
 21
190.370224
 31
0.0
  0
LINE
  5
B94A
330
B543
100
AcDbEntity
  8
1
  6
Continuous
100
AcDbLine
 10
290.113411
 20
191.801221
 30
0.0
 11
292.113404
 21
190.3702209999999
 31
0.0
  0
ARC
  5
B94B
330
B543
100
AcDbEntity
  8
1
  6
Continuous
100
AcDbCircle
 10
292.36272
 20
193.282442
 30
0.0
 40
2.5
100
AcDbArc
 50
89.999899
 51
169.85888
  0
LINE
  5
B94C
330
B543
100
AcDbEntity
  8
1
  6
Continuous
100
AcDbLine
 10
293.5276209999999
 20
191.8012149999999
 30
0.0
 11
291.527621
 21
190.3702219999999
 31
0.0
  0
LINE
  5
B94D
330
B543
100
AcDbEntity
  8
1
  6
Continuous
100
AcDbLine
 10
291.527624
 20
191.801218
 30
0.0
 11
293.527618
 21
190.3702189999999
 31
0.0
  0
LINE
  5
B94E
330
B543
100
AcDbEntity
  8
1
  6
Continuous
100
AcDbLine
 10
296.3560479999998
 20
191.80121
 30
0.0
 11
294.356048
 21
190.370217
 31
0.0
  0
LINE
  5
B94F
330
B543
100
AcDbEntity
  8
1
  6
Continuous
100
AcDbLine
 10
294.3560509999999
 20
191.8012129999999
 30
0.0
 11
296.356045
 21
190.3702139999998
 31
0.0
  0
LINE
  5
B950
330
B543
100
AcDbEntity
  8
1
  6
Continuous
100
AcDbLine
 10
292.9418379999999
 20
191.8012159999999
 30
0.0
 11
294.941831
 21
190.3702159999999
 31
0.0
  0
LINE
  5
B951
330
B543
100
AcDbEntity
  8
1
  6
Continuous
100
AcDbLine
 10
288.311893
 20
191.343314
 30
0.0
 11
289.2849770000001
 21
190.370226
 31
0.0
  0
ARC
  5
B952
330
B543
100
AcDbEntity
  8
1
  6
Continuous
100
AcDbCircle
 10
289.592127
 20
192.765614
 30
0.0
 40
1.098799999999998
100
AcDbArc
 50
119.4294239999999
 51
159.6937379999999
  0
ARC
  5
B953
330
B543
100
AcDbEntity
  8
1
  6
Continuous
100
AcDbCircle
 10
290.909992
 20
193.477822
 30
0.0
 40
2.371570999999998
100
AcDbArc
 50
188.0201099999999
 51
224.989199
  0
LINE
  5
B954
330
B543
100
AcDbEntity
  8
1
  6
Continuous
100
AcDbLine
 10
285.711879
 20
183.6742649999999
 30
0.0
 11
286.048466
 21
187.7888959999999
 31
0.0
  0
LINE
  5
B955
330
B543
100
AcDbEntity
  8
1
  6
Continuous
100
AcDbLine
 10
285.962379
 20
183.6742649999999
 30
0.0
 11
285.711879
 21
183.6742649999999
 31
0.0
  0
LINE
  5
B956
330
B543
100
AcDbEntity
  8
1
  6
Continuous
100
AcDbLine
 10
286.711379
 20
183.631925
 30
0.0
 11
287.3763789999998
 21
183.586924
 31
0.0
  0
ARC
  5
B957
330
B543
100
AcDbEntity
  8
1
  6
Continuous
100
AcDbCircle
 10
288.781372
 20
187.7888909999999
 30
0.0
 40
2.732905
100
AcDbArc
 50
109.1777379999999
 51
179.9998989999999
  0
LINE
  5
B958
330
B543
100
AcDbEntity
  8
1
  6
Continuous
100
AcDbLine
 10
285.962379
 20
183.6742649999999
 30
0.0
 11
286.711379
 21
183.631925
 31
0.0
  0
LINE
  5
B959
330
B543
100
AcDbEntity
  8
1
  6
Continuous
100
AcDbLine
 10
287.5993789999998
 20
183.6469229999999
 30
0.0
 11
291.1822599999999
 21
183.6469169999998
 31
0.0
  0
LINE
  5
B95A
330
B543
100
AcDbEntity
  8
1
  6
Continuous
100
AcDbLine
 10
287.3763789999998
 20
183.586924
 30
0.0
 11
287.5993789999998
 21
183.6469229999999
 31
0.0
  0
ARC
  5
B95B
330
B543
100
AcDbEntity
  8
1
  6
Continuous
100
AcDbCircle
 10
291.1822509999998
 20
178.144012
 30
0.0
 40
5.502905999999999
100
AcDbArc
 50
45.95289699999999
 51
89.999899
  0
ARC
  5
B95C
330
B543
100
AcDbEntity
  8
1
  6
Continuous
100
AcDbCircle
 10
296.56181
 20
200.1825519999999
 30
0.0
 40
1.5
100
AcDbArc
 50
179.9998989999999
 51
269.999899
  0
LINE
  5
B95D
330
B543
100
AcDbEntity
  8
1
  6
Continuous
100
AcDbLine
 10
313.811966
 20
232.6825219999999
 30
0.0
 11
295.311966
 21
232.6825549999998
 31
0.0
  0
LINE
  5
B95E
330
B543
100
AcDbEntity
  8
1
  6
Continuous
100
AcDbLine
 10
295.0618609999999
 20
229.482555
 30
0.0
 11
314.0618609999999
 21
229.4825219999999
 31
0.0
  0
LINE
  5
B95F
330
B543
100
AcDbEntity
  8
1
  6
Continuous
100
AcDbLine
 10
313.81196
 20
229.4825219999999
 30
0.0
 11
313.811966
 21
232.6825219999999
 31
0.0
  0
LINE
  5
B960
330
B543
100
AcDbEntity
  8
1
  6
Continuous
100
AcDbLine
 10
300.378666
 20
232.682546
 30
0.0
 11
300.37866
 21
229.4825459999999
 31
0.0
  0
LINE
  5
B961
330
B543
100
AcDbEntity
  8
1
  6
Continuous
100
AcDbLine
 10
308.745266
 20
232.682531
 30
0.0
 11
308.7452599999999
 21
229.4825309999999
 31
0.0
  0
LINE
  5
B962
330
B543
100
AcDbEntity
  8
1
  6
Continuous
100
AcDbLine
 10
300.561887
 20
233.182545
 30
0.0
 11
302.06189
 21
234.6825429999999
 31
0.0
  0
LINE
  5
B963
330
B543
100
AcDbEntity
  8
1
  6
Continuous
100
AcDbLine
 10
300.5618469999999
 20
232.682545
 30
0.0
 11
300.5618479999998
 21
233.182545
 31
0.0
  0
LINE
  5
B964
330
B543
100
AcDbEntity
  8
2
  6
Continuous
100
AcDbLine
 10
301.238369
 20
233.859025
 30
0.0
 11
301.2383669999999
 21
232.6825439999999
 31
0.0
  0
LINE
  5
B965
330
B543
100
AcDbEntity
  8
1
  6
Continuous
100
AcDbLine
 10
308.5618479999999
 20
233.182531
 30
0.0
 11
307.061851
 21
234.6825339999998
 31
0.0
  0
LINE
  5
B966
330
B543
100
AcDbEntity
  8
1
  6
Continuous
100
AcDbLine
 10
308.561847
 20
232.682531
 30
0.0
 11
308.5618479999999
 21
233.182531
 31
0.0
  0
LINE
  5
B967
330
B543
100
AcDbEntity
  8
2
  6
Continuous
100
AcDbLine
 10
307.8853689999998
 20
233.859012
 30
0.0
 11
307.8853669999999
 21
232.6825319999999
 31
0.0
  0
LINE
  5
B968
330
B543
100
AcDbEntity
  8
1
  6
Continuous
100
AcDbLine
 10
300.5618479999998
 20
233.182545
 30
0.0
 11
308.5618479999999
 21
233.182531
 31
0.0
  0
LINE
  5
B969
330
B543
100
AcDbEntity
  8
1
  6
Continuous
100
AcDbLine
 10
302.06189
 20
234.6825429999999
 30
0.0
 11
307.061851
 21
234.6825339999998
 31
0.0
  0
LINE
  5
B96A
330
B543
100
AcDbEntity
  8
1
  6
Continuous
100
AcDbLine
 10
295.3119599999999
 20
229.482555
 30
0.0
 11
295.311966
 21
232.6825549999998
 31
0.0
  0
CIRCLE
  5
B96B
330
B543
100
AcDbEntity
  8
1
  6
Continuous
100
AcDbCircle
 10
323.5618329999998
 20
157.6820689999999
 30
0.0
 40
4.25
  0
ARC
  5
B96C
330
B543
100
AcDbEntity
  8
1
  6
Continuous
100
AcDbCircle
 10
133.164626
 20
157.6822369999999
 30
0.0
 40
25.0
100
AcDbArc
 50
163.4853389999999
 51
322.4205609999998
  0
ARC
  5
B96D
330
B543
100
AcDbEntity
  8
1
  6
Continuous
100
AcDbCircle
 10
133.164626
 20
157.6822369999999
 30
0.0
 40
17.5
100
AcDbArc
 50
182.0292169999999
 51
318.8861289999999
  0
ARC
  5
B96E
330
B543
100
AcDbEntity
  8
1
  6
Continuous
100
AcDbCircle
 10
133.164626
 20
157.6822369999999
 30
0.0
 40
17.5
100
AcDbArc
 50
23.79675099999999
 51
26.47566499999999
  0
ARC
  5
B96F
330
B543
100
AcDbEntity
  8
1
  6
Continuous
100
AcDbCircle
 10
133.164626
 20
157.6822369999999
 30
0.0
 40
25.0
100
AcDbArc
 50
340.5327529999999
 51
35.83806699999998
  0
ENDSEC
  0
SECTION
  2
OBJECTS
  0
DICTIONARY
  5
B531
330
0
100
AcDbDictionary
281
     1
  3
ACAD_CIP_PREVIOUS_PRODUCT_INFO
350
B9D1
  3
ACAD_COLOR
350
B9B3
  3
ACAD_DETAILVIEWSTYLE
350
B9CC
  3
ACAD_GROUP
350
B532
  3
ACAD_LAYOUT
350
B53E
  3
ACAD_MATERIAL
350
B981
  3
ACAD_MLEADERSTYLE
350
B9C8
  3
ACAD_MLINESTYLE
350
B53B
  3
ACAD_PLOTSETTINGS
350
B53D
  3
ACAD_PLOTSTYLENAME
350
B97F
  3
ACAD_SCALELIST
350
B9B6
  3
ACAD_SECTIONVIEWSTYLE
350
B9CA
  3
ACAD_TABLESTYLE
350
B9B4
  3
ACAD_VISUALSTYLE
350
B99A
  3
ACDB_RECOMPOSE_DATA
350
B9EF
  3
AcDbVariableDictionary
350
B9E2
  3
DWGPROPS
350
B9F0
  0
DICTIONARY
  5
B9D2
330
B535
100
AcDbDictionary
280
     1
281
     1
  3
ADSK_XREC_LAYER_RECONCILED
360
B9D3
  0
DICTIONARY
  5
B9D4
330
B54B
100
AcDbDictionary
280
     1
281
     1
  3
ADSK_XREC_LAYER_RECONCILED
360
B9D5
  0
DICTIONARY
  5
B9D6
330
B54C
100
AcDbDictionary
280
     1
281
     1
  3
ADSK_XREC_LAYER_RECONCILED
360
B9D7
  0
DICTIONARY
  5
B9D8
330
B54D
100
AcDbDictionary
280
     1
281
     1
  3
ADSK_XREC_LAYER_RECONCILED
360
B9D9
  0
DICTIONARY
  5
B9DA
330
B54E
100
AcDbDictionary
280
     1
281
     1
  3
ADSK_XREC_LAYER_RECONCILED
360
B9DB
  0
DICTIONARY
  5
B9DC
330
B54F
100
AcDbDictionary
280
     1
281
     1
  3
ADSK_XREC_LAYER_RECONCILED
360
B9DD
  0
DICTIONARY
  5
B9DE
330
B550
100
AcDbDictionary
280
     1
281
     1
  3
ADSK_XREC_LAYER_RECONCILED
360
B9DF
  0
DICTIONARY
  5
B9E0
330
B551
100
AcDbDictionary
280
     1
281
     1
  3
ADSK_XREC_LAYER_RECONCILED
360
B9E1
  0
DICTIONARY
  5
B97A
330
B543
100
AcDbDictionary
281
     1
  3
ACAD_LAYOUTSELFREF
350
B97B
  0
DICTIONARY
  5
B978
330
B53F
100
AcDbDictionary
281
     1
  3
ACAD_LAYOUTSELFREF
350
B979
  0
XRECORD
  5
B9D1
102
{ACAD_REACTORS
330
B531
102
}
330
B531
100
AcDbXrecord
280
     1
300
ACDLT
300
2014
300
ACDLT_F_S
  0
DICTIONARY
  5
B9B3
102
{ACAD_REACTORS
330
B531
102
}
330
B531
100
AcDbDictionary
281
     1
  0
DICTIONARY
  5
B9CC
102
{ACAD_REACTORS
330
B531
102
}
330
B531
100
AcDbDictionary
281
     1
  3
Imperial24
350
B9CD
  0
DICTIONARY
  5
B532
102
{ACAD_REACTORS
330
B531
102
}
330
B531
100
AcDbDictionary
281
     1
  0
DICTIONARY
  5
B53E
102
{ACAD_REACTORS
330
B531
102
}
330
B531
100
AcDbDictionary
281
     1
  3
Model
350
B9CE
  3
レイアウト1
350
B9CF
  0
DICTIONARY
  5
B981
102
{ACAD_REACTORS
330
B531
102
}
330
B531
100
AcDbDictionary
281
     1
  3
ByBlock
350
B98A
  3
ByLayer
350
B982
  3
Global
350
B992
  0
DICTIONARY
  5
B9C8
102
{ACAD_REACTORS
330
B531
102
}
330
B531
100
AcDbDictionary
281
     1
  3
Standard
350
B9C9
  0
DICTIONARY
  5
B53B
102
{ACAD_REACTORS
330
B531
102
}
330
B531
100
AcDbDictionary
281
     1
  3
STANDARD
350
B53C
  0
DICTIONARY
  5
B53D
102
{ACAD_REACTORS
330
B531
102
}
330
B531
100
AcDbDictionary
281
     1
  0
ACDBDICTIONARYWDFLT
  5
B97F
102
{ACAD_REACTORS
330
B531
102
}
330
B531
100
AcDbDictionary
281
     1
  3
Normal
350
B980
100
AcDbDictionaryWithDefault
340
B980
  0
DICTIONARY
  5
B9B6
102
{ACAD_REACTORS
330
B531
102
}
330
B531
100
AcDbDictionary
281
     1
  3
A0
350
B9B7
  3
A1
350
B9B8
  3
A2
350
B9B9
  3
A3
350
B9BA
  3
A4
350
B9BB
  3
A5
350
B9BC
  3
A6
350
B9BD
  3
A7
350
B9BE
  3
A8
350
B9BF
  3
A9
350
B9C0
  3
B0
350
B9C1
  3
B1
350
B9C2
  3
B2
350
B9C3
  3
B3
350
B9C4
  3
B4
350
B9C5
  3
B5
350
B9C6
  3
B6
350
B9C7
  0
DICTIONARY
  5
B9CA
102
{ACAD_REACTORS
330
B531
102
}
330
B531
100
AcDbDictionary
281
     1
  3
Imperial24
350
B9CB
  0
DICTIONARY
  5
B9B4
102
{ACAD_REACTORS
330
B531
102
}
330
B531
100
AcDbDictionary
281
     1
  3
Standard
350
B9B5
  0
DICTIONARY
  5
B99A
102
{ACAD_REACTORS
330
B531
102
}
330
B531
100
AcDbDictionary
281
     1
  3
2dWireframe
350
B9A0
  3
Basic
350
B99F
  3
Brighten
350
B9A6
  3
ColorChange
350
B9AA
  3
Conceptual
350
B9A3
  3
Dim
350
B9A5
  3
EdgeColorOff
350
B9B2
  3
Facepattern
350
B9A9
  3
Flat
350
B99B
  3
FlatWithEdges
350
B99C
  3
Gouraud
350
B99D
  3
GouraudWithEdges
350
B99E
  3
Hidden
350
B9A2
  3
JitterOff
350
B9B0
  3
Linepattern
350
B9A8
  3
OverhangOff
350
B9B1
  3
Realistic
350
B9A4
  3
Shaded
350
B9AF
  3
Shaded with edges
350
B9AE
  3
Shades of Gray
350
B9AB
  3
Sketchy
350
B9AC
  3
Thicken
350
B9A7
  3
Wireframe
350
B9A1
  3
X-Ray
350
B9AD
  0
XRECORD
  5
B9EF
102
{ACAD_REACTORS
330
B531
102
}
330
B531
100
AcDbXrecord
280
     1
 90
        1
330
B9B5
  0
DICTIONARY
  5
B9E2
102
{ACAD_REACTORS
330
B531
102
}
330
B531
100
AcDbDictionary
281
     1
  3
CANNOSCALE
350
B9E7
  3
CMLEADERSTYLE
350
B9E4
  3
CTABLESTYLE
350
B9E3
  3
CVIEWDETAILSTYLE
350
B9E5
  3
CVIEWSECTIONSTYLE
350
B9E6
  3
DIMASSOC
350
B9EA
  3
INDEXCTL
350
B9E9
  3
SORTENTS
350
B9E8
  3
XCLIPFRAME
350
B9EB
  0
XRECORD
  5
B9F0
102
{ACAD_REACTORS
330
B531
102
}
330
B531
100
AcDbXrecord
280
     1
  1
DWGPROPS COOKIE
  2

  3

  4

  6

  7

  8
Yoshitsune
  9

300
=
301
=
302
=
303
=
304
=
305
=
306
=
307
=
308
=
309
=
 40
0.000012025462963
 41
2451302.659228588
 42
2457192.687667871
  1

 90
        0
  0
XRECORD
  5
B9D3
102
{ACAD_REACTORS
330
B9D2
102
}
330
B9D2
100
AcDbXrecord
280
     1
290
     1
  0
XRECORD
  5
B9D5
102
{ACAD_REACTORS
330
B9D4
102
}
330
B9D4
100
AcDbXrecord
280
     1
290
     1
  0
XRECORD
  5
B9D7
102
{ACAD_REACTORS
330
B9D6
102
}
330
B9D6
100
AcDbXrecord
280
     1
290
     1
  0
XRECORD
  5
B9D9
102
{ACAD_REACTORS
330
B9D8
102
}
330
B9D8
100
AcDbXrecord
280
     1
290
     1
  0
XRECORD
  5
B9DB
102
{ACAD_REACTORS
330
B9DA
102
}
330
B9DA
100
AcDbXrecord
280
     1
290
     1
  0
XRECORD
  5
B9DD
102
{ACAD_REACTORS
330
B9DC
102
}
330
B9DC
100
AcDbXrecord
280
     1
290
     1
  0
XRECORD
  5
B9DF
102
{ACAD_REACTORS
330
B9DE
102
}
330
B9DE
100
AcDbXrecord
280
     1
290
     1
  0
XRECORD
  5
B9E1
102
{ACAD_REACTORS
330
B9E0
102
}
330
B9E0
100
AcDbXrecord
280
     1
290
     1
  0
XRECORD
  5
B97B
102
{ACAD_REACTORS
330
B97A
102
}
330
B97A
100
AcDbXrecord
280
     1
340
B543
  0
XRECORD
  5
B979
102
{ACAD_REACTORS
330
B978
102
}
330
B978
100
AcDbXrecord
280
     1
340
B53F
  0
ACDBDETAILVIEWSTYLE
  5
B9CD
102
{ACAD_XDICTIONARY
360
BA28
102
}
102
{ACAD_REACTORS
330
B9CC
102
}
330
B9CC
100
AcDbModelDocViewStyle
 70
     0
  3
Imperial24
290
     0
100
AcDbDetailViewStyle
 70
     0
 71
     0
 90
        3
 71
     1
340
B536
 40
0.24
340
0
 40
0.24
300

 40
0.36
280
     3
 71
     2
340
B53A
 90
       25
 71
     3
340
B536
 40
0.24
 90
        1
 40
0.75
 90
        1
300
%<\AcVar ViewType \f "%tc1">% %<\AcVar ViewDetailId>%\PSCALE %<\AcVar ViewScale \f "%sn">%
 71
     4
340
B53A
 90
       25
340
B53A
 90
       25
280
     0
  0
LAYOUT
  5
B9CE
102
{ACAD_XDICTIONARY
360
BA2A
102
}
102
{ACAD_REACTORS
330
B53E
102
}
330
B53E
100
AcDbPlotSettings
  1

  2
Canon LBP9100C
  4

  6

 40
0.0
 41
0.0
 42
0.0
 43
0.0
 44
0.0
 45
0.0
 46
0.0
 47
0.0
 48
0.0
 49
0.0
140
0.0
141
0.0
142
1.0
143
1.0
 70
  1712
 72
     0
 73
     0
 74
     0
  7

 75
     0
147
1.0
148
0.0
149
0.0
100
AcDbLayout
  1
Model
 70
     1
 71
     0
 10
0.0
 20
0.0
 11
12.0
 21
9.0
 12
0.0
 22
0.0
 32
0.0
 14
0.0
 24
0.0
 34
0.0
 15
0.0
 25
0.0
 35
0.0
146
0.0
 13
0.0
 23
0.0
 33
0.0
 16
1.0
 26
0.0
 36
0.0
 17
0.0
 27
1.0
 37
0.0
 76
     0
330
B543
331
B977
  0
LAYOUT
  5
B9CF
102
{ACAD_XDICTIONARY
360
BA2C
102
}
102
{ACAD_REACTORS
330
B53E
102
}
330
B53E
100
AcDbPlotSettings
  1

  2
Canon LBP9100C
  4

  6

 40
0.0
 41
0.0
 42
0.0
 43
0.0
 44
0.0
 45
0.0
 46
0.0
 47
0.0
 48
0.0
 49
0.0
140
0.0
141
0.0
142
1.0
143
1.0
 70
   688
 72
     0
 73
     0
 74
     5
  7

 75
    16
147
1.0
148
0.0
149
0.0
100
AcDbLayout
  1
レイアウト1
 70
     0
 71
     1
 10
0.0
 20
0.0
 11
420.0
 21
297.0
 12
0.0
 22
0.0
 32
0.0
 14
1.000000000000000E+20
 24
1.000000000000000E+20
 34
1.000000000000000E+20
 15
-1.000000000000000E+20
 25
-1.000000000000000E+20
 35
-1.000000000000000E+20
146
0.0
 13
0.0
 23
0.0
 33
0.0
 16
1.0
 26
0.0
 36
0.0
 17
0.0
 27
1.0
 37
0.0
 76
     0
330
B53F
  0
MATERIAL
  5
B98A
102
{ACAD_XDICTIONARY
360
B98B
102
}
102
{ACAD_REACTORS
330
B981
102
}
330
B981
100
AcDbMaterial
  1
ByBlock
 72
     0
 43
0.0208333333333333
 43
0.0
 43
0.0
 43
0.0
 43
0.0
 43
0.0208333333333333
 43
0.0
 43
0.0
 43
0.0
 43
0.0
 43
1.0
 43
0.0
 43
0.0
 43
0.0
 43
0.0
 43
1.0
 77
     0
 47
0.0208333333333333
 47
0.0
 47
0.0
 47
0.0
 47
0.0
 47
0.0208333333333333
 47
0.0
 47
0.0
 47
0.0
 47
0.0
 47
1.0
 47
0.0
 47
0.0
 47
0.0
 47
0.0
 47
1.0
171
     0
 49
0.0208333333333333
 49
0.0
 49
0.0
 49
0.0
 49
0.0
 49
0.0208333333333333
 49
0.0
 49
0.0
 49
0.0
 49
0.0
 49
1.0
 49
0.0
 49
0.0
 49
0.0
 49
0.0
 49
1.0
175
     0
142
0.0208333333333333
142
0.0
142
0.0
142
0.0
142
0.0
142
0.0208333333333333
142
0.0
142
0.0
142
0.0
142
0.0
142
1.0
142
0.0
142
0.0
142
0.0
142
0.0
142
1.0
179
     0
144
0.0208333333333333
144
0.0
144
0.0
144
0.0
144
0.0
144
0.0208333333333333
144
0.0
144
0.0
144
0.0
144
0.0
144
1.0
144
0.0
144
0.0
144
0.0
144
0.0
144
1.0
147
0.0208333333333333
147
0.0
147
0.0
147
0.0
147
0.0
147
0.0208333333333333
147
0.0
147
0.0
147
0.0
147
0.0
147
1.0
147
0.0
147
0.0
147
0.0
147
0.0
147
1.0
  0
MATERIAL
  5
B982
102
{ACAD_XDICTIONARY
360
B983
102
}
102
{ACAD_REACTORS
330
B981
102
}
330
B981
100
AcDbMaterial
  1
ByLayer
 72
     0
 43
0.0208333333333333
 43
0.0
 43
0.0
 43
0.0
 43
0.0
 43
0.0208333333333333
 43
0.0
 43
0.0
 43
0.0
 43
0.0
 43
1.0
 43
0.0
 43
0.0
 43
0.0
 43
0.0
 43
1.0
 77
     0
 47
0.0208333333333333
 47
0.0
 47
0.0
 47
0.0
 47
0.0
 47
0.0208333333333333
 47
0.0
 47
0.0
 47
0.0
 47
0.0
 47
1.0
 47
0.0
 47
0.0
 47
0.0
 47
0.0
 47
1.0
171
     0
 49
0.0208333333333333
 49
0.0
 49
0.0
 49
0.0
 49
0.0
 49
0.0208333333333333
 49
0.0
 49
0.0
 49
0.0
 49
0.0
 49
1.0
 49
0.0
 49
0.0
 49
0.0
 49
0.0
 49
1.0
175
     0
142
0.0208333333333333
142
0.0
142
0.0
142
0.0
142
0.0
142
0.0208333333333333
142
0.0
142
0.0
142
0.0
142
0.0
142
1.0
142
0.0
142
0.0
142
0.0
142
0.0
142
1.0
179
     0
144
0.0208333333333333
144
0.0
144
0.0
144
0.0
144
0.0
144
0.0208333333333333
144
0.0
144
0.0
144
0.0
144
0.0
144
1.0
144
0.0
144
0.0
144
0.0
144
0.0
144
1.0
147
0.0208333333333333
147
0.0
147
0.0
147
0.0
147
0.0
147
0.0208333333333333
147
0.0
147
0.0
147
0.0
147
0.0
147
1.0
147
0.0
147
0.0
147
0.0
147
0.0
147
1.0
  0
MATERIAL
  5
B992
102
{ACAD_XDICTIONARY
360
B993
102
}
102
{ACAD_REACTORS
330
B981
102
}
330
B981
100
AcDbMaterial
  1
Global
 72
     0
 43
0.0208333333333333
 43
0.0
 43
0.0
 43
0.0
 43
0.0
 43
0.0208333333333333
 43
0.0
 43
0.0
 43
0.0
 43
0.0
 43
1.0
 43
0.0
 43
0.0
 43
0.0
 43
0.0
 43
1.0
 77
     0
 47
0.0208333333333333
 47
0.0
 47
0.0
 47
0.0
 47
0.0
 47
0.0208333333333333
 47
0.0
 47
0.0
 47
0.0
 47
0.0
 47
1.0
 47
0.0
 47
0.0
 47
0.0
 47
0.0
 47
1.0
171
     0
 49
0.0208333333333333
 49
0.0
 49
0.0
 49
0.0
 49
0.0
 49
0.0208333333333333
 49
0.0
 49
0.0
 49
0.0
 49
0.0
 49
1.0
 49
0.0
 49
0.0
 49
0.0
 49
0.0
 49
1.0
175
     0
142
0.0208333333333333
142
0.0
142
0.0
142
0.0
142
0.0
142
0.0208333333333333
142
0.0
142
0.0
142
0.0
142
0.0
142
1.0
142
0.0
142
0.0
142
0.0
142
0.0
142
1.0
179
     0
144
0.0208333333333333
144
0.0
144
0.0
144
0.0
144
0.0
144
0.0208333333333333
144
0.0
144
0.0
144
0.0
144
0.0
144
1.0
144
0.0
144
0.0
144
0.0
144
0.0
144
1.0
147
0.0208333333333333
147
0.0
147
0.0
147
0.0
147
0.0
147
0.0208333333333333
147
0.0
147
0.0
147
0.0
147
0.0
147
1.0
147
0.0
147
0.0
147
0.0
147
0.0
147
1.0
  0
MLEADERSTYLE
  5
B9C9
102
{ACAD_REACTORS
330
B9C8
102
}
330
B9C8
100
AcDbMLeaderStyle
170
     2
171
     1
172
     0
 90
        2
 40
0.0
 41
0.0
173
     1
 91
-1056964608
340
B538
 92
       -2
290
     1
 42
0.09
291
     1
 43
0.36
  3
Standard
 44
0.18
300

342
B536
174
     1
178
     6
175
     1
176
     0
 93
-1056964608
 45
0.18
292
     0
297
     0
 46
0.18
 94
-1056964608
 47
1.0
 49
1.0
140
1.0
293
     1
141
0.0
294
     1
177
     0
142
1.0
295
     0
296
     0
143
0.125
1001
ACAD_MLEADERVER
1070
     2
  0
MLINESTYLE
  5
B53C
102
{ACAD_REACTORS
330
B53B
102
}
330
B53B
100
AcDbMlineStyle
  2
STANDARD
 70
     0
  3

 62
   256
 51
90.0
 52
90.0
 71
     2
 49
0.5
 62
   256
  6
BYLAYER
 49
-0.5
 62
   256
  6
BYLAYER
  0
ACDBPLACEHOLDER
  5
B980
102
{ACAD_REACTORS
330
B97F
102
}
330
B97F
  0
SCALE
  5
B9B7
102
{ACAD_REACTORS
330
B9B6
102
}
330
B9B6
100
AcDbScale
 70
     0
300
1:1
140
1.0
141
1.0
290
     1
  0
SCALE
  5
B9B8
102
{ACAD_REACTORS
330
B9B6
102
}
330
B9B6
100
AcDbScale
 70
     0
300
1/128" = 1'-0"
140
0.0078125
141
12.0
290
     0
  0
SCALE
  5
B9B9
102
{ACAD_REACTORS
330
B9B6
102
}
330
B9B6
100
AcDbScale
 70
     0
300
1/64" = 1'-0"
140
0.015625
141
12.0
290
     0
  0
SCALE
  5
B9BA
102
{ACAD_REACTORS
330
B9B6
102
}
330
B9B6
100
AcDbScale
 70
     0
300
1/32" = 1'-0"
140
0.03125
141
12.0
290
     0
  0
SCALE
  5
B9BB
102
{ACAD_REACTORS
330
B9B6
102
}
330
B9B6
100
AcDbScale
 70
     0
300
1/16" = 1'-0"
140
0.0625
141
12.0
290
     0
  0
SCALE
  5
B9BC
102
{ACAD_REACTORS
330
B9B6
102
}
330
B9B6
100
AcDbScale
 70
     0
300
3/32" = 1'-0"
140
0.09375
141
12.0
290
     0
  0
SCALE
  5
B9BD
102
{ACAD_REACTORS
330
B9B6
102
}
330
B9B6
100
AcDbScale
 70
     0
300
1/8" = 1'-0"
140
0.125
141
12.0
290
     0
  0
SCALE
  5
B9BE
102
{ACAD_REACTORS
330
B9B6
102
}
330
B9B6
100
AcDbScale
 70
     0
300
3/16" = 1'-0"
140
0.1875
141
12.0
290
     0
  0
SCALE
  5
B9BF
102
{ACAD_REACTORS
330
B9B6
102
}
330
B9B6
100
AcDbScale
 70
     0
300
1/4" = 1'-0"
140
0.25
141
12.0
290
     0
  0
SCALE
  5
B9C0
102
{ACAD_REACTORS
330
B9B6
102
}
330
B9B6
100
AcDbScale
 70
     0
300
3/8" = 1'-0"
140
0.375
141
12.0
290
     0
  0
SCALE
  5
B9C1
102
{ACAD_REACTORS
330
B9B6
102
}
330
B9B6
100
AcDbScale
 70
     0
300
1/2" = 1'-0"
140
0.5
141
12.0
290
     0
  0
SCALE
  5
B9C2
102
{ACAD_REACTORS
330
B9B6
102
}
330
B9B6
100
AcDbScale
 70
     0
300
3/4" = 1'-0"
140
0.75
141
12.0
290
     0
  0
SCALE
  5
B9C3
102
{ACAD_REACTORS
330
B9B6
102
}
330
B9B6
100
AcDbScale
 70
     0
300
1" = 1'-0"
140
1.0
141
12.0
290
     0
  0
SCALE
  5
B9C4
102
{ACAD_REACTORS
330
B9B6
102
}
330
B9B6
100
AcDbScale
 70
     0
300
1-1/2" = 1'-0"
140
1.5
141
12.0
290
     0
  0
SCALE
  5
B9C5
102
{ACAD_REACTORS
330
B9B6
102
}
330
B9B6
100
AcDbScale
 70
     0
300
3" = 1'-0"
140
3.0
141
12.0
290
     0
  0
SCALE
  5
B9C6
102
{ACAD_REACTORS
330
B9B6
102
}
330
B9B6
100
AcDbScale
 70
     0
300
6" = 1'-0"
140
6.0
141
12.0
290
     0
  0
SCALE
  5
B9C7
102
{ACAD_REACTORS
330
B9B6
102
}
330
B9B6
100
AcDbScale
 70
     0
300
1'-0" = 1'-0"
140
12.0
141
12.0
290
     0
  0
ACDBSECTIONVIEWSTYLE
  5
B9CB
102
{ACAD_XDICTIONARY
360
BA26
102
}
102
{ACAD_REACTORS
330
B9CA
102
}
330
B9CA
100
AcDbModelDocViewStyle
 70
     0
  3
Imperial24
290
     0
100
AcDbSectionViewStyle
 70
     0
 71
     0
 90
       78
 71
     1
340
B536
 40
0.24
340
0
340
0
 40
0.24
300
I, O, Q, S, X, Z
 40
0.48
 90
        3
 40
0.18
 90
        1
 71
     2
340
B53A
 90
       25
340
B53A
 90
       50
 40
0.24
 40
0.0
 40
0.24
 71
     3
340
B536
 40
0.24
 90
        1
 40
0.75
 90
        1
300
%<\AcVar ViewType \f "%tc1">% %<\AcVar ViewSectionStartId>%-%<\AcVar ViewSectionEndId>%\PSCALE %<\AcVar ViewScale \f "%sn">%
 71
     4
300
ANSI31
 40
1.0
 90
        0
290
     0
290
     0
 90
        6
 40
0.0
 40
1.570796326794896
 40
0.2617993877991494
 40
1.308996938995747
 40
-0.2617993877991494
 40
1.832595714594046
  0
TABLESTYLE
  5
B9B5
102
{ACAD_XDICTIONARY
360
B9ED
102
}
102
{ACAD_REACTORS
330
B9B4
102
}
330
B9B4
100
AcDbTableStyle
  3
Standard
 70
     0
 71
     0
 40
0.06
 41
0.06
280
     0
281
     0
  7
STANDARD
140
0.18
170
     2
 62
     0
 63
     7
283
     0
274
    -2
284
     1
 64
     0
275
    -2
285
     1
 65
     0
276
    -2
286
     1
 66
     0
277
    -2
287
     1
 67
     0
278
    -2
288
     1
 68
     0
279
    -2
289
     1
 69
     0
  7
STANDARD
140
0.25
170
     5
 62
     0
 63
     7
283
     0
274
    -2
284
     1
 64
     0
275
    -2
285
     1
 65
     0
276
    -2
286
     1
 66
     0
277
    -2
287
     1
 67
     0
278
    -2
288
     1
 68
     0
279
    -2
289
     1
 69
     0
  7
STANDARD
140
0.18
170
     5
 62
     0
 63
     7
283
     0
274
    -2
284
     1
 64
     0
275
    -2
285
     1
 65
     0
276
    -2
286
     1
 66
     0
277
    -2
287
     1
 67
     0
278
    -2
288
     1
 68
     0
279
    -2
289
     1
 69
     0
  0
VISUALSTYLE
  5
B9A0
102
{ACAD_XDICTIONARY
360
B9FE
102
}
102
{ACAD_REACTORS
330
B99A
102
}
330
B99A
100
AcDbVisualStyle
  2
2dWireframe
 70
     4
 71
     0
 72
     2
 73
     0
 90
        0
 40
-0.6
 41
-30.0
 62
     5
 63
     7
 74
     1
 91
        4
 64
     7
 65
   257
 75
     1
175
     1
 42
1.0
 92
        0
 66
   257
 43
1.0
 76
     1
 77
     6
 78
     2
 67
     7
 79
     5
170
     0
171
     0
290
     0
174
     0
 93
        1
 44
0.0
173
     0
291
     0
 45
0.0
1001
ACAD
1000
AcDbSavedByObjectVersion
1070
     0
  0
VISUALSTYLE
  5
B99F
102
{ACAD_XDICTIONARY
360
B9FC
102
}
102
{ACAD_REACTORS
330
B99A
102
}
330
B99A
100
AcDbVisualStyle
  2
Basic
 70
     7
 71
     1
 72
     0
 73
     1
 90
        0
 40
-0.6
 41
-30.0
 62
     5
 63
     7
 74
     0
 91
        4
 64
     7
 65
   257
 75
     1
175
     1
 42
1.0
 92
        8
 66
     7
 43
1.0
 76
     1
 77
     6
 78
     2
 67
     7
 79
     5
170
     0
171
     0
290
     0
174
     0
 93
        1
 44
0.0
173
     0
291
     1
 45
0.0
1001
ACAD
1000
AcDbSavedByObjectVersion
1070
     0
  0
VISUALSTYLE
  5
B9A6
102
{ACAD_XDICTIONARY
360
BA0A
102
}
102
{ACAD_REACTORS
330
B99A
102
}
330
B99A
100
AcDbVisualStyle
  2
Brighten
 70
    12
 71
     2
 72
     2
 73
     0
 90
        0
 40
-0.6
 41
-30.0
 62
     5
 63
     7
 74
     1
 91
        4
 64
     7
 65
   257
 75
     1
175
     1
 42
1.0
 92
        8
 66
     7
 43
1.0
 76
     1
 77
     6
 78
     2
 67
     7
 79
     5
170
     0
171
     0
290
     0
174
     0
 93
        1
 44
50.0
173
     0
291
     1
 45
0.0
1001
ACAD
1000
AcDbSavedByObjectVersion
1070
     0
  0
VISUALSTYLE
  5
B9AA
102
{ACAD_XDICTIONARY
360
BA12
102
}
102
{ACAD_REACTORS
330
B99A
102
}
330
B99A
100
AcDbVisualStyle
  2
ColorChange
 70
    16
 71
     2
 72
     2
 73
     3
 90
        0
 40
-0.6
 41
-30.0
 62
     5
 63
     8
 74
     1
 91
        4
 64
     7
 65
   257
 75
     1
175
     1
 42
1.0
 92
        8
 66
     8
 43
1.0
 76
     1
 77
     6
 78
     2
 67
     7
 79
     5
170
     0
171
     0
290
     0
174
     0
 93
        1
 44
0.0
173
     0
291
     1
 45
0.0
1001
ACAD
1000
AcDbSavedByObjectVersion
1070
     0
  0
VISUALSTYLE
  5
B9A3
102
{ACAD_XDICTIONARY
360
BA04
102
}
102
{ACAD_REACTORS
330
B99A
102
}
330
B99A
100
AcDbVisualStyle
  2
Conceptual
 70
     9
 71
     3
 72
     2
 73
     0
 90
        0
 40
-0.6
 41
-30.0
 62
     5
 63
     7
 74
     2
 91
        2
 64
     7
 65
   257
 75
     1
175
     1
 42
179.0
 92
        8
 66
     7
 43
1.0
 76
     1
 77
     6
 78
     2
 67
     7
 79
     3
170
     0
171
     0
290
     0
174
     0
 93
        1
 44
0.0
173
     0
291
     0
 45
0.0
1001
ACAD
1000
AcDbSavedByObjectVersion
1070
     0
  0
VISUALSTYLE
  5
B9A5
102
{ACAD_XDICTIONARY
360
BA08
102
}
102
{ACAD_REACTORS
330
B99A
102
}
330
B99A
100
AcDbVisualStyle
  2
Dim
 70
    11
 71
     2
 72
     2
 73
     0
 90
        0
 40
-0.6
 41
-30.0
 62
     5
 63
     7
 74
     1
 91
        4
 64
     7
 65
   257
 75
     1
175
     1
 42
1.0
 92
        8
 66
     7
 43
1.0
 76
     1
 77
     6
 78
     2
 67
     7
 79
     5
170
     0
171
     0
290
     0
174
     0
 93
        1
 44
-50.0
173
     0
291
     1
 45
0.0
1001
ACAD
1000
AcDbSavedByObjectVersion
1070
     0
  0
VISUALSTYLE
  5
B9B2
102
{ACAD_XDICTIONARY
360
BA22
102
}
102
{ACAD_REACTORS
330
B99A
102
}
330
B99A
100
AcDbVisualStyle
  2
EdgeColorOff
 70
    22
 71
     2
 72
     2
 73
     0
 90
        0
 40
-0.6
 41
-30.0
 62
     5
 63
     7
 74
     1
 91
        4
 64
     7
 65
   257
 75
     1
175
     1
 42
1.0
 92
        8
 66
     7
 43
1.0
 76
     1
 77
     6
 78
     2
 67
     7
 79
     5
170
     0
171
     0
290
     0
174
     0
 93
        1
 44
0.0
173
     0
291
     1
 45
0.0
1001
ACAD
1000
AcDbSavedByObjectVersion
1070
     0
  0
VISUALSTYLE
  5
B9A9
102
{ACAD_XDICTIONARY
360
BA10
102
}
102
{ACAD_REACTORS
330
B99A
102
}
330
B99A
100
AcDbVisualStyle
  2
Facepattern
 70
    15
 71
     2
 72
     2
 73
     0
 90
        0
 40
-0.6
 41
-30.0
 62
     5
 63
     7
 74
     1
 91
        4
 64
     7
 65
   257
 75
     1
175
     1
 42
1.0
 92
        8
 66
     7
 43
1.0
 76
     1
 77
     6
 78
     2
 67
     7
 79
     5
170
     0
171
     0
290
     0
174
     0
 93
        1
 44
0.0
173
     0
291
     1
 45
0.0
1001
ACAD
1000
AcDbSavedByObjectVersion
1070
     0
  0
VISUALSTYLE
  5
B99B
102
{ACAD_XDICTIONARY
360
B9F4
102
}
102
{ACAD_REACTORS
330
B99A
102
}
330
B99A
100
AcDbVisualStyle
  2
Flat
 70
     0
 71
     2
 72
     1
 73
     1
 90
        2
 40
-0.6
 41
30.0
 62
     5
 63
     7
 74
     0
 91
        0
 64
     7
 65
   257
 75
     1
175
     1
 42
1.0
 92
        8
 66
     7
 43
1.0
 76
     1
 77
     6
 78
     2
 67
     7
 79
     5
170
     0
171
     0
290
     0
174
     0
 93
       13
 44
0.0
173
     0
291
     1
 45
0.0
1001
ACAD
1000
AcDbSavedByObjectVersion
1070
     0
  0
VISUALSTYLE
  5
B99C
102
{ACAD_XDICTIONARY
360
B9F6
102
}
102
{ACAD_REACTORS
330
B99A
102
}
330
B99A
100
AcDbVisualStyle
  2
FlatWithEdges
 70
     1
 71
     2
 72
     1
 73
     1
 90
        2
 40
-0.6
 41
30.0
 62
     5
 63
     7
 74
     1
 91
        0
 64
     7
 65
   257
 75
     1
175
     1
 42
1.0
 92
        0
 66
   257
 43
1.0
 76
     1
 77
     6
 78
     2
 67
     7
 79
     5
170
     0
171
     0
290
     0
174
     0
 93
       13
 44
0.0
173
     0
291
     1
 45
0.0
1001
ACAD
1000
AcDbSavedByObjectVersion
1070
     0
  0
VISUALSTYLE
  5
B99D
102
{ACAD_XDICTIONARY
360
B9F8
102
}
102
{ACAD_REACTORS
330
B99A
102
}
330
B99A
100
AcDbVisualStyle
  2
Gouraud
 70
     2
 71
     2
 72
     2
 73
     1
 90
        2
 40
-0.6
 41
30.0
 62
     5
 63
     7
 74
     0
 91
        0
 64
     7
 65
   257
 75
     1
175
     1
 42
1.0
 92
        0
 66
     7
 43
1.0
 76
     1
 77
     6
 78
     2
 67
     7
 79
     5
170
     0
171
     0
290
     0
174
     0
 93
       13
 44
0.0
173
     0
291
     1
 45
0.0
1001
ACAD
1000
AcDbSavedByObjectVersion
1070
     0
  0
VISUALSTYLE
  5
B99E
102
{ACAD_XDICTIONARY
360
B9FA
102
}
102
{ACAD_REACTORS
330
B99A
102
}
330
B99A
100
AcDbVisualStyle
  2
GouraudWithEdges
 70
     3
 71
     2
 72
     2
 73
     1
 90
        2
 40
-0.6
 41
30.0
 62
     5
 63
     7
 74
     1
 91
        0
 64
     7
 65
   257
 75
     1
175
     1
 42
1.0
 92
        0
 66
   257
 43
1.0
 76
     1
 77
     6
 78
     2
 67
     7
 79
     5
170
     0
171
     0
290
     0
174
     0
 93
       13
 44
0.0
173
     0
291
     1
 45
0.0
1001
ACAD
1000
AcDbSavedByObjectVersion
1070
     0
  0
VISUALSTYLE
  5
B9A2
102
{ACAD_XDICTIONARY
360
BA02
102
}
102
{ACAD_REACTORS
330
B99A
102
}
330
B99A
100
AcDbVisualStyle
  2
Hidden
 70
     6
 71
     1
 72
     2
 73
     2
 90
        0
 40
-0.6
 41
-30.0
 62
     5
 63
     7
 74
     2
 91
        2
 64
     7
 65
   257
 75
     2
175
     1
 42
40.0
 92
        0
 66
   257
 43
1.0
 76
     1
 77
     6
 78
     2
 67
     7
 79
     3
170
     0
171
     0
290
     0
174
     0
 93
        1
 44
0.0
173
     0
291
     0
 45
0.0
1001
ACAD
1000
AcDbSavedByObjectVersion
1070
     0
  0
VISUALSTYLE
  5
B9B0
102
{ACAD_XDICTIONARY
360
BA1E
102
}
102
{ACAD_REACTORS
330
B99A
102
}
330
B99A
100
AcDbVisualStyle
  2
JitterOff
 70
    20
 71
     2
 72
     2
 73
     0
 90
        0
 40
-0.6
 41
-30.0
 62
     5
 63
     7
 74
     1
 91
        4
 64
     7
 65
   257
 75
     1
175
     1
 42
1.0
 92
       10
 66
     7
 43
1.0
 76
     1
 77
     6
 78
     2
 67
     7
 79
     5
170
     0
171
     0
290
     0
174
     0
 93
        1
 44
0.0
173
     0
291
     1
 45
0.0
1001
ACAD
1000
AcDbSavedByObjectVersion
1070
     0
  0
VISUALSTYLE
  5
B9A8
102
{ACAD_XDICTIONARY
360
BA0E
102
}
102
{ACAD_REACTORS
330
B99A
102
}
330
B99A
100
AcDbVisualStyle
  2
Linepattern
 70
    14
 71
     2
 72
     2
 73
     0
 90
        0
 40
-0.6
 41
-30.0
 62
     5
 63
     7
 74
     1
 91
        4
 64
     7
 65
   257
 75
     7
175
     7
 42
1.0
 92
        8
 66
     7
 43
1.0
 76
     1
 77
     6
 78
     2
 67
     7
 79
     5
170
     0
171
     0
290
     0
174
     0
 93
        1
 44
0.0
173
     0
291
     1
 45
0.0
1001
ACAD
1000
AcDbSavedByObjectVersion
1070
     0
  0
VISUALSTYLE
  5
B9B1
102
{ACAD_XDICTIONARY
360
BA20
102
}
102
{ACAD_REACTORS
330
B99A
102
}
330
B99A
100
AcDbVisualStyle
  2
OverhangOff
 70
    21
 71
     2
 72
     2
 73
     0
 90
        0
 40
-0.6
 41
-30.0
 62
     5
 63
     7
 74
     1
 91
        4
 64
     7
 65
   257
 75
     1
175
     1
 42
1.0
 92
        9
 66
     7
 43
1.0
 76
     1
 77
     6
 78
     2
 67
     7
 79
     5
170
     0
171
     0
290
     0
174
     0
 93
        1
 44
0.0
173
     0
291
     1
 45
0.0
1001
ACAD
1000
AcDbSavedByObjectVersion
1070
     0
  0
VISUALSTYLE
  5
B9A4
102
{ACAD_XDICTIONARY
360
BA06
102
}
102
{ACAD_REACTORS
330
B99A
102
}
330
B99A
100
AcDbVisualStyle
  2
Realistic
 70
     8
 71
     2
 72
     3
 73
     0
 90
        2
 40
-0.6
 41
30.0
 62
     5
 63
     7
 74
     0
 91
        0
 64
     7
 65
   257
 75
     1
175
     1
 42
1.0
 92
        8
 66
   257
 43
1.0
 76
     1
 77
     6
 78
     2
 67
     7
 79
     3
170
     0
171
     0
290
     0
174
     0
 93
       13
 44
0.0
173
     0
291
     0
 45
0.0
1001
ACAD
1000
AcDbSavedByObjectVersion
1070
     0
  0
VISUALSTYLE
  5
B9AF
102
{ACAD_XDICTIONARY
360
BA1C
102
}
102
{ACAD_REACTORS
330
B99A
102
}
330
B99A
100
AcDbVisualStyle
  2
Shaded
 70
    27
 71
     2
 72
     2
 73
     1
 90
        2
 40
-0.6
 41
30.0
 62
     5
 63
     7
 74
     0
 91
        4
 64
     7
 65
   257
 75
     1
175
     1
 42
1.0
 92
        8
 66
   257
 43
1.0
 76
     1
 77
     6
 78
     2
 67
     8
 79
     3
170
     0
171
     0
290
     0
174
     0
 93
        5
 44
0.0
173
     0
291
     0
 45
0.0
1001
ACAD
1000
AcDbSavedByObjectVersion
1070
     0
  0
VISUALSTYLE
  5
B9AE
102
{ACAD_XDICTIONARY
360
BA1A
102
}
102
{ACAD_REACTORS
330
B99A
102
}
330
B99A
100
AcDbVisualStyle
  2
Shaded with edges
 70
    26
 71
     2
 72
     2
 73
     1
 90
        2
 40
-0.6
 41
30.0
 62
     5
 63
     7
 74
     1
 91
       10
 64
     7
 65
   257
 75
     2
175
     1
 42
1.0
 92
        8
 66
   257
 43
1.0
 76
     1
 77
     6
 78
     2
 67
     7
 79
     3
170
     0
171
     0
290
     0
174
     0
 93
        5
 44
0.0
173
     0
291
     0
 45
0.0
1001
ACAD
1000
AcDbSavedByObjectVersion
1070
     0
  0
VISUALSTYLE
  5
B9AB
102
{ACAD_XDICTIONARY
360
BA14
102
}
102
{ACAD_REACTORS
330
B99A
102
}
330
B99A
100
AcDbVisualStyle
  2
Shades of Gray
 70
    23
 71
     2
 72
     2
 73
     3
 90
        0
 40
-0.6
 41
-30.0
 62
     5
 63
     7
 74
     2
 91
        2
 64
     7
 65
     7
 75
     1
175
     1
 42
40.0
 92
        8
 66
     7
 43
1.0
 76
     1
 77
     6
 78
     2
 67
     7
 79
     3
170
     0
171
     0
290
     0
174
     0
 93
        1
 44
0.0
173
     0
291
     0
 45
0.0
1001
ACAD
1000
AcDbSavedByObjectVersion
1070
     0
  0
VISUALSTYLE
  5
B9AC
102
{ACAD_XDICTIONARY
360
BA16
102
}
102
{ACAD_REACTORS
330
B99A
102
}
330
B99A
100
AcDbVisualStyle
  2
Sketchy
 70
    24
 71
     1
 72
     2
 73
     2
 90
        0
 40
-0.6
 41
-30.0
 62
     5
 63
     7
 74
     2
 91
        2
 64
     7
 65
     7
 75
     1
175
     1
 42
40.0
 92
       11
 66
     7
 43
1.0
 76
     1
 77
     6
 78
     2
 67
     7
 79
     6
170
     0
171
     0
290
     0
174
     0
 93
        1
 44
0.0
173
     0
291
     0
 45
0.0
1001
ACAD
1000
AcDbSavedByObjectVersion
1070
     0
  0
VISUALSTYLE
  5
B9A7
102
{ACAD_XDICTIONARY
360
BA0C
102
}
102
{ACAD_REACTORS
330
B99A
102
}
330
B99A
100
AcDbVisualStyle
  2
Thicken
 70
    13
 71
     2
 72
     2
 73
     0
 90
        0
 40
-0.6
 41
-30.0
 62
     5
 63
     7
 74
     1
 91
        4
 64
     7
 65
   257
 75
     1
175
     1
 42
1.0
 92
       12
 66
     7
 43
1.0
 76
     1
 77
     6
 78
     2
 67
     7
 79
     5
170
     0
171
     0
290
     0
174
     0
 93
        1
 44
0.0
173
     0
291
     1
 45
0.0
1001
ACAD
1000
AcDbSavedByObjectVersion
1070
     0
  0
VISUALSTYLE
  5
B9A1
102
{ACAD_XDICTIONARY
360
BA00
102
}
102
{ACAD_REACTORS
330
B99A
102
}
330
B99A
100
AcDbVisualStyle
  2
Wireframe
 70
     5
 71
     0
 72
     2
 73
     0
 90
        0
 40
-0.6
 41
-30.0
 62
     5
 63
     7
 74
     1
 91
        4
 64
     7
 65
   257
 75
     1
175
     1
 42
1.0
 92
        0
 66
   257
 43
1.0
 76
     1
 77
     6
 78
     2
 67
     7
 79
     3
170
     0
171
     0
290
     0
174
     0
 93
        1
 44
0.0
173
     0
291
     0
 45
0.0
1001
ACAD
1000
AcDbSavedByObjectVersion
1070
     0
  0
VISUALSTYLE
  5
B9AD
102
{ACAD_XDICTIONARY
360
BA18
102
}
102
{ACAD_REACTORS
330
B99A
102
}
330
B99A
100
AcDbVisualStyle
  2
X-Ray
 70
    25
 71
     2
 72
     2
 73
     1
 90
        1
 40
0.5
 41
-30.0
 62
     5
 63
     7
 74
     1
 91
        0
 64
     7
 65
   257
 75
     1
175
     1
 42
1.0
 92
        8
 66
     7
 43
1.0
 76
     1
 77
     6
 78
     2
 67
     7
 79
     3
170
     0
171
     0
290
     0
174
     0
 93
       13
 44
0.0
173
     0
291
     0
 45
0.0
1001
ACAD
1000
AcDbSavedByObjectVersion
1070
     0
  0
DICTIONARYVAR
  5
B9E7
102
{ACAD_REACTORS
330
B9E2
102
}
330
B9E2
100
DictionaryVariables
280
     0
  1
1:1
  0
DICTIONARYVAR
  5
B9E4
102
{ACAD_REACTORS
330
B9E2
102
}
330
B9E2
100
DictionaryVariables
280
     0
  1
STANDARD
  0
DICTIONARYVAR
  5
B9E3
102
{ACAD_REACTORS
330
B9E2
102
}
330
B9E2
100
DictionaryVariables
280
     0
  1
STANDARD
  0
DICTIONARYVAR
  5
B9E5
102
{ACAD_REACTORS
330
B9E2
102
}
330
B9E2
100
DictionaryVariables
280
     0
  1
Imperial24
  0
DICTIONARYVAR
  5
B9E6
102
{ACAD_REACTORS
330
B9E2
102
}
330
B9E2
100
DictionaryVariables
280
     0
  1
Imperial24
  0
DICTIONARYVAR
  5
B9EA
102
{ACAD_REACTORS
330
B9E2
102
}
330
B9E2
100
DictionaryVariables
280
     0
  1
1
  0
DICTIONARYVAR
  5
B9E9
102
{ACAD_REACTORS
330
B9E2
102
}
330
B9E2
100
DictionaryVariables
280
     0
  1
0
  0
DICTIONARYVAR
  5
B9E8
102
{ACAD_REACTORS
330
B9E2
102
}
330
B9E2
100
DictionaryVariables
280
     0
  1
127
  0
DICTIONARYVAR
  5
B9EB
102
{ACAD_REACTORS
330
B9E2
102
}
330
B9E2
100
DictionaryVariables
280
     0
  1
2
  0
DICTIONARY
  5
BA28
330
B9CD
100
AcDbDictionary
280
     1
281
     1
  3
ACAD_XREC_ROUNDTRIP
360
BA29
  0
DICTIONARY
  5
BA2A
330
B9CE
100
AcDbDictionary
280
     1
281
     1
  3
ACAD_XREC_ROUNDTRIP
360
BA2B
  0
DICTIONARY
  5
BA2C
330
B9CF
100
AcDbDictionary
280
     1
281
     1
  3
ACAD_XREC_ROUNDTRIP
360
BA2D
  0
DICTIONARY
  5
B98B
330
B98A
100
AcDbDictionary
280
     1
281
     1
  3
ACAD_XREC_ROUNDTRIP
360
B9F2
  3
BUMPTILE
360
B98D
  3
DIFFUSETILE
360
B98C
  3
OPACITYTILE
360
B990
  3
REFLECTIONTILE
360
B98F
  3
REFRACTIONTILE
360
B991
  3
SPECULARTILE
360
B98E
  0
DICTIONARY
  5
B983
330
B982
100
AcDbDictionary
280
     1
281
     1
  3
ACAD_XREC_ROUNDTRIP
360
B9F1
  3
BUMPTILE
360
B985
  3
DIFFUSETILE
360
B984
  3
OPACITYTILE
360
B988
  3
REFLECTIONTILE
360
B987
  3
REFRACTIONTILE
360
B989
  3
SPECULARTILE
360
B986
  0
DICTIONARY
  5
B993
330
B992
100
AcDbDictionary
280
     1
281
     1
  3
ACAD_XREC_ROUNDTRIP
360
B9F3
  3
BUMPTILE
360
B995
  3
DIFFUSETILE
360
B994
  3
OPACITYTILE
360
B998
  3
REFLECTIONTILE
360
B997
  3
REFRACTIONTILE
360
B999
  3
SPECULARTILE
360
B996
  0
DICTIONARY
  5
BA26
330
B9CB
100
AcDbDictionary
280
     1
281
     1
  3
ACAD_XREC_ROUNDTRIP
360
BA27
  0
DICTIONARY
  5
B9ED
330
B9B5
100
AcDbDictionary
280
     1
281
     1
  3
ACAD_ROUNDTRIP_2008_TABLESTYLE_CELLSTYLEMAP
360
B9EE
  3
ACAD_XREC_ROUNDTRIP
360
BA24
  0
DICTIONARY
  5
B9FE
330
B9A0
100
AcDbDictionary
280
     1
281
     1
  3
ACAD_XREC_ROUNDTRIP
360
B9FF
  0
DICTIONARY
  5
B9FC
330
B99F
100
AcDbDictionary
280
     1
281
     1
  3
ACAD_XREC_ROUNDTRIP
360
B9FD
  0
DICTIONARY
  5
BA0A
330
B9A6
100
AcDbDictionary
280
     1
281
     1
  3
ACAD_XREC_ROUNDTRIP
360
BA0B
  0
DICTIONARY
  5
BA12
330
B9AA
100
AcDbDictionary
280
     1
281
     1
  3
ACAD_XREC_ROUNDTRIP
360
BA13
  0
DICTIONARY
  5
BA04
330
B9A3
100
AcDbDictionary
280
     1
281
     1
  3
ACAD_XREC_ROUNDTRIP
360
BA05
  0
DICTIONARY
  5
BA08
330
B9A5
100
AcDbDictionary
280
     1
281
     1
  3
ACAD_XREC_ROUNDTRIP
360
BA09
  0
DICTIONARY
  5
BA22
330
B9B2
100
AcDbDictionary
280
     1
281
     1
  3
ACAD_XREC_ROUNDTRIP
360
BA23
  0
DICTIONARY
  5
BA10
330
B9A9
100
AcDbDictionary
280
     1
281
     1
  3
ACAD_XREC_ROUNDTRIP
360
BA11
  0
DICTIONARY
  5
B9F4
330
B99B
100
AcDbDictionary
280
     1
281
     1
  3
ACAD_XREC_ROUNDTRIP
360
B9F5
  0
DICTIONARY
  5
B9F6
330
B99C
100
AcDbDictionary
280
     1
281
     1
  3
ACAD_XREC_ROUNDTRIP
360
B9F7
  0
DICTIONARY
  5
B9F8
330
B99D
100
AcDbDictionary
280
     1
281
     1
  3
ACAD_XREC_ROUNDTRIP
360
B9F9
  0
DICTIONARY
  5
B9FA
330
B99E
100
AcDbDictionary
280
     1
281
     1
  3
ACAD_XREC_ROUNDTRIP
360
B9FB
  0
DICTIONARY
  5
BA02
330
B9A2
100
AcDbDictionary
280
     1
281
     1
  3
ACAD_XREC_ROUNDTRIP
360
BA03
  0
DICTIONARY
  5
BA1E
330
B9B0
100
AcDbDictionary
280
     1
281
     1
  3
ACAD_XREC_ROUNDTRIP
360
BA1F
  0
DICTIONARY
  5
BA0E
330
B9A8
100
AcDbDictionary
280
     1
281
     1
  3
ACAD_XREC_ROUNDTRIP
360
BA0F
  0
DICTIONARY
  5
BA20
330
B9B1
100
AcDbDictionary
280
     1
281
     1
  3
ACAD_XREC_ROUNDTRIP
360
BA21
  0
DICTIONARY
  5
BA06
330
B9A4
100
AcDbDictionary
280
     1
281
     1
  3
ACAD_XREC_ROUNDTRIP
360
BA07
  0
DICTIONARY
  5
BA1C
330
B9AF
100
AcDbDictionary
280
     1
281
     1
  3
ACAD_XREC_ROUNDTRIP
360
BA1D
  0
DICTIONARY
  5
BA1A
330
B9AE
100
AcDbDictionary
280
     1
281
     1
  3
ACAD_XREC_ROUNDTRIP
360
BA1B
  0
DICTIONARY
  5
BA14
330
B9AB
100
AcDbDictionary
280
     1
281
     1
  3
ACAD_XREC_ROUNDTRIP
360
BA15
  0
DICTIONARY
  5
BA16
330
B9AC
100
AcDbDictionary
280
     1
281
     1
  3
ACAD_XREC_ROUNDTRIP
360
BA17
  0
DICTIONARY
  5
BA0C
330
B9A7
100
AcDbDictionary
280
     1
281
     1
  3
ACAD_XREC_ROUNDTRIP
360
BA0D
  0
DICTIONARY
  5
BA00
330
B9A1
100
AcDbDictionary
280
     1
281
     1
  3
ACAD_XREC_ROUNDTRIP
360
BA01
  0
DICTIONARY
  5
BA18
330
B9AD
100
AcDbDictionary
280
     1
281
     1
  3
ACAD_XREC_ROUNDTRIP
360
BA19
  0
XRECORD
  5
BA29
102
{ACAD_REACTORS
330
BA28
102
}
330
BA28
100
AcDbXrecord
280
     1
102
DISPLAYNAME
  1
Imperial24
102
FLAGS
 90
        0
  0
XRECORD
  5
BA2B
102
{ACAD_REACTORS
330
BA2A
102
}
330
BA2A
100
AcDbXrecord
280
     1
102
SHADEPLOT
 70
     0
102
SHADEPLOTRESLEVEL
 70
     2
102
SHADEPLOTCUSTOMDPI
 70
   300
  0
XRECORD
  5
BA2D
102
{ACAD_REACTORS
330
BA2C
102
}
330
BA2C
100
AcDbXrecord
280
     1
102
SHADEPLOT
 70
     0
102
SHADEPLOTRESLEVEL
 70
     2
102
SHADEPLOTCUSTOMDPI
 70
   300
  0
XRECORD
  5
B9F2
102
{ACAD_REACTORS
330
B98B
102
}
330
B98B
100
AcDbXrecord
280
     1
102
MATERIAL
148
0.0
149
0.0
149
0.0
 93
        0
 94
      127
282
     0
 72
     0
 77
     0
171
     0
175
     0
179
     0
273
     0
  0
XRECORD
  5
B98D
102
{ACAD_REACTORS
330
B98B
102
}
330
B98B
100
AcDbXrecord
280
     1
270
     1
271
     1
  0
XRECORD
  5
B98C
102
{ACAD_REACTORS
330
B98B
102
}
330
B98B
100
AcDbXrecord
280
     1
270
     1
271
     1
  0
XRECORD
  5
B990
102
{ACAD_REACTORS
330
B98B
102
}
330
B98B
100
AcDbXrecord
280
     1
270
     1
271
     1
  0
XRECORD
  5
B98F
102
{ACAD_REACTORS
330
B98B
102
}
330
B98B
100
AcDbXrecord
280
     1
270
     1
271
     1
  0
XRECORD
  5
B991
102
{ACAD_REACTORS
330
B98B
102
}
330
B98B
100
AcDbXrecord
280
     1
270
     1
271
     1
  0
XRECORD
  5
B98E
102
{ACAD_REACTORS
330
B98B
102
}
330
B98B
100
AcDbXrecord
280
     1
270
     1
271
     1
  0
XRECORD
  5
B9F1
102
{ACAD_REACTORS
330
B983
102
}
330
B983
100
AcDbXrecord
280
     1
102
MATERIAL
148
0.0
149
0.0
149
0.0
 93
        0
 94
      127
282
     0
 72
     0
 77
     0
171
     0
175
     0
179
     0
273
     0
  0
XRECORD
  5
B985
102
{ACAD_REACTORS
330
B983
102
}
330
B983
100
AcDbXrecord
280
     1
270
     1
271
     1
  0
XRECORD
  5
B984
102
{ACAD_REACTORS
330
B983
102
}
330
B983
100
AcDbXrecord
280
     1
270
     1
271
     1
  0
XRECORD
  5
B988
102
{ACAD_REACTORS
330
B983
102
}
330
B983
100
AcDbXrecord
280
     1
270
     1
271
     1
  0
XRECORD
  5
B987
102
{ACAD_REACTORS
330
B983
102
}
330
B983
100
AcDbXrecord
280
     1
270
     1
271
     1
  0
XRECORD
  5
B989
102
{ACAD_REACTORS
330
B983
102
}
330
B983
100
AcDbXrecord
280
     1
270
     1
271
     1
  0
XRECORD
  5
B986
102
{ACAD_REACTORS
330
B983
102
}
330
B983
100
AcDbXrecord
280
     1
270
     1
271
     1
  0
XRECORD
  5
B9F3
102
{ACAD_REACTORS
330
B993
102
}
330
B993
100
AcDbXrecord
280
     1
102
MATERIAL
148
0.0
149
0.0
149
0.0
 93
        0
 94
      127
282
     0
 72
     0
 77
     0
171
     0
175
     0
179
     0
273
     0
  0
XRECORD
  5
B995
102
{ACAD_REACTORS
330
B993
102
}
330
B993
100
AcDbXrecord
280
     1
270
     1
271
     1
  0
XRECORD
  5
B994
102
{ACAD_REACTORS
330
B993
102
}
330
B993
100
AcDbXrecord
280
     1
270
     1
271
     1
  0
XRECORD
  5
B998
102
{ACAD_REACTORS
330
B993
102
}
330
B993
100
AcDbXrecord
280
     1
270
     1
271
     1
  0
XRECORD
  5
B997
102
{ACAD_REACTORS
330
B993
102
}
330
B993
100
AcDbXrecord
280
     1
270
     1
271
     1
  0
XRECORD
  5
B999
102
{ACAD_REACTORS
330
B993
102
}
330
B993
100
AcDbXrecord
280
     1
270
     1
271
     1
  0
XRECORD
  5
B996
102
{ACAD_REACTORS
330
B993
102
}
330
B993
100
AcDbXrecord
280
     1
270
     1
271
     1
  0
XRECORD
  5
BA27
102
{ACAD_REACTORS
330
BA26
102
}
330
BA26
100
AcDbXrecord
280
     1
102
DISPLAYNAME
  1
Imperial24
102
FLAGS
 90
        0
  0
CELLSTYLEMAP
  5
B9EE
102
{ACAD_REACTORS
330
B9ED
102
}
330
B9ED
100
AcDbCellStyleMap
 90
        3
300
CELLSTYLE
  1
TABLEFORMAT_BEGIN
 90
        5
170
     1
 91
        0
 92
    32768
 62
   257
 93
        1
300
CONTENTFORMAT
  1
CONTENTFORMAT_BEGIN
 90
        0
 91
        0
 92
      512
 93
        0
300

 40
0.0
140
1.0
 94
        5
 62
     0
340
B536
144
0.25
309
CONTENTFORMAT_END
171
     0
 94
        0
309
TABLEFORMAT_END
  1
CELLSTYLE_BEGIN
 90
        1
 91
        1
300
_TITLE
309
CELLSTYLE_END
300
CELLSTYLE
  1
TABLEFORMAT_BEGIN
 90
        5
170
     1
 91
        0
 92
        0
 62
   257
 93
        1
300
CONTENTFORMAT
  1
CONTENTFORMAT_BEGIN
 90
        0
 91
        0
 92
      512
 93
        0
300

 40
0.0
140
1.0
 94
        5
 62
     0
340
B536
144
0.18
309
CONTENTFORMAT_END
171
     0
 94
        0
309
TABLEFORMAT_END
  1
CELLSTYLE_BEGIN
 90
        2
 91
        1
300
_HEADER
309
CELLSTYLE_END
300
CELLSTYLE
  1
TABLEFORMAT_BEGIN
 90
        5
170
     1
 91
        0
 92
        0
 62
   257
 93
        1
300
CONTENTFORMAT
  1
CONTENTFORMAT_BEGIN
 90
        0
 91
        0
 92
      512
 93
        0
300

 40
0.0
140
1.0
 94
        2
 62
     0
340
B536
144
0.18
309
CONTENTFORMAT_END
171
     0
 94
        0
309
TABLEFORMAT_END
  1
CELLSTYLE_BEGIN
 90
        3
 91
        2
300
_DATA
309
CELLSTYLE_END
  0
XRECORD
  5
BA24
102
{ACAD_REACTORS
330
B9ED
102
}
330
B9ED
100
AcDbXrecord
280
     1
102
ACAD_ROUNDTRIP_PRE2007_TABLESTYLE
 90
      512
 91
        0
  1

 92
      512
 93
        0
  2

 94
      512
 95
        0
  3

  0
XRECORD
  5
B9FF
102
{ACAD_REACTORS
330
B9FE
102
}
330
B9FE
100
AcDbXrecord
280
     1
102
RTVSPost2010Prop28
280
     1
102
RTVSPost2010PropOp28
 70
     1
102
RTVSPost2010Prop29
280
     1
102
RTVSPost2010PropOp29
 70
     1
102
RTVSPost2010Prop30
280
     0
102
RTVSPost2010PropOp30
 70
     1
102
RTVSPost2010Prop31
280
     0
102
RTVSPost2010PropOp31
 70
     1
102
RTVSPost2010Prop32
280
     0
102
RTVSPost2010PropOp32
 70
     1
102
RTVSPost2010Prop33
280
     0
102
RTVSPost2010PropOp33
 70
     1
102
RTVSPost2010Prop34
280
     0
102
RTVSPost2010PropOp34
 70
     1
102
RTVSPost2010Prop35
280
     0
102
RTVSPost2010PropOp35
 70
     1
102
RTVSPost2010Prop36
280
     0
102
RTVSPost2010PropOp36
 70
     1
102
RTVSPost2010Prop37
 90
       50
102
RTVSPost2010PropOp37
 70
     1
102
RTVSPost2010Prop38
140
0.0
102
RTVSPost2010PropOp38
 70
     1
102
RTVSPost2010Prop39
140
1.0
102
RTVSPost2010PropOp39
 70
     1
102
RTVSPost2010Prop40
 90
        0
102
RTVSPost2010PropOp40
 70
     1
102
RTVSPost2010Prop41ColorIndex
 90
       18
102
RTVSPost2010Prop41ColorRGB
 90
        0
102
RTVSPost2010PropOp41
 70
     1
102
RTVSPost2010Prop42
 90
       50
102
RTVSPost2010PropOp42
 70
     1
102
RTVSPost2010Prop43
 90
        3
102
RTVSPost2010PropOp43
 70
     1
102
RTVSPost2010Prop44ColorIndex
 90
        5
102
RTVSPost2010Prop44ColorRGB
 90
      255
102
RTVSPost2010PropOp44
 70
     1
102
RTVSPost2010Prop45
280
     0
102
RTVSPost2010PropOp45
 70
     1
102
RTVSPost2010Prop46
 90
       50
102
RTVSPost2010PropOp46
 70
     1
102
RTVSPost2010Prop47
 90
       50
102
RTVSPost2010PropOp47
 70
     1
102
RTVSPost2010Prop48
 90
       50
102
RTVSPost2010PropOp48
 70
     1
102
RTVSPost2010Prop49
280
     0
102
RTVSPost2010PropOp49
 70
     1
102
RTVSPost2010Prop50
 90
       50
102
RTVSPost2010PropOp50
 70
     1
102
RTVSPost2010Prop51ColorIndex
 90
      256
102
RTVSPost2010Prop51ColorRGB
 90
-16777216
102
RTVSPost2010PropOp51
 70
     0
102
RTVSPost2010Prop52
140
1.0
102
RTVSPost2010PropOp52
 70
     0
102
RTVSPost2010Prop53
 90
        2
102
RTVSPost2010PropOp53
 70
     1
102
RTVSPost2010Prop54
  1
strokes_ogs.tif
102
RTVSPost2010PropOp54
 70
     1
102
RTVSPost2010Prop55
280
     0
102
RTVSPost2010PropOp55
 70
     1
102
RTVSPost2010Prop56
140
1.0
102
RTVSPost2010PropOp56
 70
     1
102
RTVSPost2010Prop57
140
1.0
102
RTVSPost2010PropOp57
 70
     1
102
RTVSPropertyOp0
 70
     1
102
RTVSPropertyOp1
 70
     1
102
RTVSPropertyOp2
 70
     1
102
RTVSPropertyOp3
 70
     1
102
RTVSPropertyOp4
 70
     1
102
RTVSPropertyOp5
 70
     1
102
RTVSPropertyOp6
 70
     1
102
RTVSPropertyOp7
 70
     1
102
RTVSPropertyOp8
 70
     1
102
RTVSPropertyOp9
 70
     1
102
RTVSPropertyOp10
 70
     1
102
RTVSPropertyOp11
 70
     1
102
RTVSPropertyOp12
 70
     1
102
RTVSPropertyOp13
 70
     1
102
RTVSPropertyOp14
 70
     1
102
RTVSPropertyOp15
 70
     1
102
RTVSPropertyOp16
 70
     1
102
RTVSPropertyOp17
 70
     1
102
RTVSPropertyOp18
 70
     1
102
RTVSPropertyOp19
 70
     1
102
RTVSPropertyOp20
 70
     1
102
RTVSPropertyOp21
 70
     1
102
RTVSPropertyOp22
 70
     1
102
RTVSPropertyOp23
 70
     1
102
RTVSPropertyOp24
 70
     1
102
RTVSPropertyOp25
 70
     1
102
RTVSPropertyOp26
 70
     1
102
RTVSPropertyOp27
 70
     1
102
RTVSPropertyOp28
 70
     1
102
RTVSPropertyOp29
 70
     1
102
RTVSPropertyOp30
 70
     1
102
RTVSPropertyOp31
 70
     1
102
RTVSPropertyOp32
 70
     1
102
RTVSPropertyOp33
 70
     1
102
RTVSPropertyOp34
 70
     1
102
RTVSPropertyOp35
 70
     1
102
RTVSPropertyOp36
 70
     1
102
RTVSPropertyOp37
 70
     1
102
RTVSPropertyOp38
 70
     1
102
RTVSPropertyOp39
 70
     1
102
RTVSPropertyOp40
 70
     1
102
RTVSPropertyOp41
 70
     1
102
RTVSPropertyOp42
 70
     1
102
RTVSPropertyOp43
 70
     1
102
RTVSPropertyOp44
 70
     1
102
RTVSPropertyOp45
 70
     1
102
RTVSPropertyOp46
 70
     1
102
RTVSPropertyOp47
 70
     1
102
RTVSPropertyOp48
 70
     1
102
RTVSPropertyOp49
 70
     1
102
RTVSPropertyOp50
 70
     1
102
RTVSPropertyOp51
 70
     0
102
RTVSPropertyOp52
 70
     0
102
RTVSPropertyOp53
 70
     1
102
RTVSPropertyOp54
 70
     1
102
RTVSPropertyOp55
 70
     1
102
RTVSPropertyOp56
 70
     1
102
RTVSPropertyOp57
 70
     1
102
RTVSPropertyOp58
 70
     1
102
RTVSPropertyOp59
 70
     1
102
RTVSPropertyOp60
 70
     1
102
RTVSPropertyOp61
 70
     1
102
RTVSPropertyOp62
 70
     1
  0
XRECORD
  5
B9FD
102
{ACAD_REACTORS
330
B9FC
102
}
330
B9FC
100
AcDbXrecord
280
     1
102
RTVSPost2010Prop28
280
     0
102
RTVSPost2010PropOp28
 70
     1
102
RTVSPost2010Prop29
280
     1
102
RTVSPost2010PropOp29
 70
     1
102
RTVSPost2010Prop30
280
     1
102
RTVSPost2010PropOp30
 70
     1
102
RTVSPost2010Prop31
280
     0
102
RTVSPost2010PropOp31
 70
     1
102
RTVSPost2010Prop32
280
     0
102
RTVSPost2010PropOp32
 70
     1
102
RTVSPost2010Prop33
280
     0
102
RTVSPost2010PropOp33
 70
     1
102
RTVSPost2010Prop34
280
     0
102
RTVSPost2010PropOp34
 70
     1
102
RTVSPost2010Prop35
280
     0
102
RTVSPost2010PropOp35
 70
     1
102
RTVSPost2010Prop36
280
     0
102
RTVSPost2010PropOp36
 70
     1
102
RTVSPost2010Prop37
 90
       50
102
RTVSPost2010PropOp37
 70
     1
102
RTVSPost2010Prop38
140
0.0
102
RTVSPost2010PropOp38
 70
     1
102
RTVSPost2010Prop39
140
1.0
102
RTVSPost2010PropOp39
 70
     1
102
RTVSPost2010Prop40
 90
        0
102
RTVSPost2010PropOp40
 70
     1
102
RTVSPost2010Prop41ColorIndex
 90
       18
102
RTVSPost2010Prop41ColorRGB
 90
        0
102
RTVSPost2010PropOp41
 70
     1
102
RTVSPost2010Prop42
 90
       50
102
RTVSPost2010PropOp42
 70
     1
102
RTVSPost2010Prop43
 90
        3
102
RTVSPost2010PropOp43
 70
     1
102
RTVSPost2010Prop44ColorIndex
 90
        5
102
RTVSPost2010Prop44ColorRGB
 90
      255
102
RTVSPost2010PropOp44
 70
     1
102
RTVSPost2010Prop45
280
     0
102
RTVSPost2010PropOp45
 70
     1
102
RTVSPost2010Prop46
 90
       50
102
RTVSPost2010PropOp46
 70
     1
102
RTVSPost2010Prop47
 90
       50
102
RTVSPost2010PropOp47
 70
     1
102
RTVSPost2010Prop48
 90
       50
102
RTVSPost2010PropOp48
 70
     1
102
RTVSPost2010Prop49
280
     0
102
RTVSPost2010PropOp49
 70
     1
102
RTVSPost2010Prop50
 90
       50
102
RTVSPost2010PropOp50
 70
     1
102
RTVSPost2010Prop51ColorIndex
 90
      256
102
RTVSPost2010Prop51ColorRGB
 90
-16777216
102
RTVSPost2010PropOp51
 70
     0
102
RTVSPost2010Prop52
140
1.0
102
RTVSPost2010PropOp52
 70
     0
102
RTVSPost2010Prop53
 90
        2
102
RTVSPost2010PropOp53
 70
     1
102
RTVSPost2010Prop54
  1
strokes_ogs.tif
102
RTVSPost2010PropOp54
 70
     1
102
RTVSPost2010Prop55
280
     0
102
RTVSPost2010PropOp55
 70
     1
102
RTVSPost2010Prop56
140
1.0
102
RTVSPost2010PropOp56
 70
     1
102
RTVSPost2010Prop57
140
1.0
102
RTVSPost2010PropOp57
 70
     1
102
RTVSPropertyOp0
 70
     1
102
RTVSPropertyOp1
 70
     1
102
RTVSPropertyOp2
 70
     1
102
RTVSPropertyOp3
 70
     1
102
RTVSPropertyOp4
 70
     1
102
RTVSPropertyOp5
 70
     1
102
RTVSPropertyOp6
 70
     1
102
RTVSPropertyOp7
 70
     1
102
RTVSPropertyOp8
 70
     1
102
RTVSPropertyOp9
 70
     1
102
RTVSPropertyOp10
 70
     1
102
RTVSPropertyOp11
 70
     1
102
RTVSPropertyOp12
 70
     1
102
RTVSPropertyOp13
 70
     1
102
RTVSPropertyOp14
 70
     1
102
RTVSPropertyOp15
 70
     1
102
RTVSPropertyOp16
 70
     1
102
RTVSPropertyOp17
 70
     1
102
RTVSPropertyOp18
 70
     1
102
RTVSPropertyOp19
 70
     1
102
RTVSPropertyOp20
 70
     1
102
RTVSPropertyOp21
 70
     1
102
RTVSPropertyOp22
 70
     1
102
RTVSPropertyOp23
 70
     1
102
RTVSPropertyOp24
 70
     1
102
RTVSPropertyOp25
 70
     1
102
RTVSPropertyOp26
 70
     1
102
RTVSPropertyOp27
 70
     1
102
RTVSPropertyOp28
 70
     1
102
RTVSPropertyOp29
 70
     1
102
RTVSPropertyOp30
 70
     1
102
RTVSPropertyOp31
 70
     1
102
RTVSPropertyOp32
 70
     1
102
RTVSPropertyOp33
 70
     1
102
RTVSPropertyOp34
 70
     1
102
RTVSPropertyOp35
 70
     1
102
RTVSPropertyOp36
 70
     1
102
RTVSPropertyOp37
 70
     1
102
RTVSPropertyOp38
 70
     1
102
RTVSPropertyOp39
 70
     1
102
RTVSPropertyOp40
 70
     1
102
RTVSPropertyOp41
 70
     1
102
RTVSPropertyOp42
 70
     1
102
RTVSPropertyOp43
 70
     1
102
RTVSPropertyOp44
 70
     1
102
RTVSPropertyOp45
 70
     1
102
RTVSPropertyOp46
 70
     1
102
RTVSPropertyOp47
 70
     1
102
RTVSPropertyOp48
 70
     1
102
RTVSPropertyOp49
 70
     1
102
RTVSPropertyOp50
 70
     1
102
RTVSPropertyOp51
 70
     0
102
RTVSPropertyOp52
 70
     0
102
RTVSPropertyOp53
 70
     1
102
RTVSPropertyOp54
 70
     1
102
RTVSPropertyOp55
 70
     1
102
RTVSPropertyOp56
 70
     1
102
RTVSPropertyOp57
 70
     1
102
RTVSPropertyOp58
 70
     1
102
RTVSPropertyOp59
 70
     1
102
RTVSPropertyOp60
 70
     1
102
RTVSPropertyOp61
 70
     1
102
RTVSPropertyOp62
 70
     1
  0
XRECORD
  5
BA0B
102
{ACAD_REACTORS
330
BA0A
102
}
330
BA0A
100
AcDbXrecord
280
     1
102
RTVSPost2010Prop28
280
     0
102
RTVSPost2010PropOp28
 70
     1
102
RTVSPost2010Prop29
280
     1
102
RTVSPost2010PropOp29
 70
     1
102
RTVSPost2010Prop30
280
     1
102
RTVSPost2010PropOp30
 70
     1
102
RTVSPost2010Prop31
280
     0
102
RTVSPost2010PropOp31
 70
     1
102
RTVSPost2010Prop32
280
     0
102
RTVSPost2010PropOp32
 70
     1
102
RTVSPost2010Prop33
280
     0
102
RTVSPost2010PropOp33
 70
     1
102
RTVSPost2010Prop34
280
     0
102
RTVSPost2010PropOp34
 70
     1
102
RTVSPost2010Prop35
280
     0
102
RTVSPost2010PropOp35
 70
     1
102
RTVSPost2010Prop36
280
     0
102
RTVSPost2010PropOp36
 70
     1
102
RTVSPost2010Prop37
 90
       50
102
RTVSPost2010PropOp37
 70
     1
102
RTVSPost2010Prop38
140
0.0
102
RTVSPost2010PropOp38
 70
     1
102
RTVSPost2010Prop39
140
1.0
102
RTVSPost2010PropOp39
 70
     1
102
RTVSPost2010Prop40
 90
        0
102
RTVSPost2010PropOp40
 70
     1
102
RTVSPost2010Prop41ColorIndex
 90
       18
102
RTVSPost2010Prop41ColorRGB
 90
        0
102
RTVSPost2010PropOp41
 70
     1
102
RTVSPost2010Prop42
 90
       50
102
RTVSPost2010PropOp42
 70
     1
102
RTVSPost2010Prop43
 90
        3
102
RTVSPost2010PropOp43
 70
     1
102
RTVSPost2010Prop44ColorIndex
 90
        5
102
RTVSPost2010Prop44ColorRGB
 90
      255
102
RTVSPost2010PropOp44
 70
     1
102
RTVSPost2010Prop45
280
     0
102
RTVSPost2010PropOp45
 70
     1
102
RTVSPost2010Prop46
 90
       50
102
RTVSPost2010PropOp46
 70
     1
102
RTVSPost2010Prop47
 90
       50
102
RTVSPost2010PropOp47
 70
     1
102
RTVSPost2010Prop48
 90
       50
102
RTVSPost2010PropOp48
 70
     1
102
RTVSPost2010Prop49
280
     0
102
RTVSPost2010PropOp49
 70
     1
102
RTVSPost2010Prop50
 90
       50
102
RTVSPost2010PropOp50
 70
     1
102
RTVSPost2010Prop51ColorIndex
 90
      256
102
RTVSPost2010Prop51ColorRGB
 90
-16777216
102
RTVSPost2010PropOp51
 70
     0
102
RTVSPost2010Prop52
140
1.0
102
RTVSPost2010PropOp52
 70
     0
102
RTVSPost2010Prop53
 90
        2
102
RTVSPost2010PropOp53
 70
     1
102
RTVSPost2010Prop54
  1
strokes_ogs.tif
102
RTVSPost2010PropOp54
 70
     1
102
RTVSPost2010Prop55
280
     0
102
RTVSPost2010PropOp55
 70
     1
102
RTVSPost2010Prop56
140
1.0
102
RTVSPost2010PropOp56
 70
     1
102
RTVSPost2010Prop57
140
1.0
102
RTVSPost2010PropOp57
 70
     1
102
RTVSPropertyOp0
 70
     1
102
RTVSPropertyOp1
 70
     1
102
RTVSPropertyOp2
 70
     1
102
RTVSPropertyOp3
 70
     1
102
RTVSPropertyOp4
 70
     1
102
RTVSPropertyOp5
 70
     1
102
RTVSPropertyOp6
 70
     1
102
RTVSPropertyOp7
 70
     1
102
RTVSPropertyOp8
 70
     1
102
RTVSPropertyOp9
 70
     1
102
RTVSPropertyOp10
 70
     1
102
RTVSPropertyOp11
 70
     1
102
RTVSPropertyOp12
 70
     1
102
RTVSPropertyOp13
 70
     1
102
RTVSPropertyOp14
 70
     1
102
RTVSPropertyOp15
 70
     1
102
RTVSPropertyOp16
 70
     1
102
RTVSPropertyOp17
 70
     1
102
RTVSPropertyOp18
 70
     1
102
RTVSPropertyOp19
 70
     1
102
RTVSPropertyOp20
 70
     1
102
RTVSPropertyOp21
 70
     1
102
RTVSPropertyOp22
 70
     1
102
RTVSPropertyOp23
 70
     1
102
RTVSPropertyOp24
 70
     1
102
RTVSPropertyOp25
 70
     1
102
RTVSPropertyOp26
 70
     1
102
RTVSPropertyOp27
 70
     1
102
RTVSPropertyOp28
 70
     1
102
RTVSPropertyOp29
 70
     1
102
RTVSPropertyOp30
 70
     1
102
RTVSPropertyOp31
 70
     1
102
RTVSPropertyOp32
 70
     1
102
RTVSPropertyOp33
 70
     1
102
RTVSPropertyOp34
 70
     1
102
RTVSPropertyOp35
 70
     1
102
RTVSPropertyOp36
 70
     1
102
RTVSPropertyOp37
 70
     1
102
RTVSPropertyOp38
 70
     1
102
RTVSPropertyOp39
 70
     1
102
RTVSPropertyOp40
 70
     1
102
RTVSPropertyOp41
 70
     1
102
RTVSPropertyOp42
 70
     1
102
RTVSPropertyOp43
 70
     1
102
RTVSPropertyOp44
 70
     1
102
RTVSPropertyOp45
 70
     1
102
RTVSPropertyOp46
 70
     1
102
RTVSPropertyOp47
 70
     1
102
RTVSPropertyOp48
 70
     1
102
RTVSPropertyOp49
 70
     1
102
RTVSPropertyOp50
 70
     1
102
RTVSPropertyOp51
 70
     0
102
RTVSPropertyOp52
 70
     0
102
RTVSPropertyOp53
 70
     1
102
RTVSPropertyOp54
 70
     1
102
RTVSPropertyOp55
 70
     1
102
RTVSPropertyOp56
 70
     1
102
RTVSPropertyOp57
 70
     1
102
RTVSPropertyOp58
 70
     1
102
RTVSPropertyOp59
 70
     1
102
RTVSPropertyOp60
 70
     1
102
RTVSPropertyOp61
 70
     1
102
RTVSPropertyOp62
 70
     1
  0
XRECORD
  5
BA13
102
{ACAD_REACTORS
330
BA12
102
}
330
BA12
100
AcDbXrecord
280
     1
102
RTVSPost2010Prop28
280
     0
102
RTVSPost2010PropOp28
 70
     1
102
RTVSPost2010Prop29
280
     1
102
RTVSPost2010PropOp29
 70
     1
102
RTVSPost2010Prop30
280
     1
102
RTVSPost2010PropOp30
 70
     1
102
RTVSPost2010Prop31
280
     0
102
RTVSPost2010PropOp31
 70
     1
102
RTVSPost2010Prop32
280
     0
102
RTVSPost2010PropOp32
 70
     1
102
RTVSPost2010Prop33
280
     0
102
RTVSPost2010PropOp33
 70
     1
102
RTVSPost2010Prop34
280
     0
102
RTVSPost2010PropOp34
 70
     1
102
RTVSPost2010Prop35
280
     0
102
RTVSPost2010PropOp35
 70
     1
102
RTVSPost2010Prop36
280
     0
102
RTVSPost2010PropOp36
 70
     1
102
RTVSPost2010Prop37
 90
       50
102
RTVSPost2010PropOp37
 70
     1
102
RTVSPost2010Prop38
140
0.0
102
RTVSPost2010PropOp38
 70
     1
102
RTVSPost2010Prop39
140
1.0
102
RTVSPost2010PropOp39
 70
     1
102
RTVSPost2010Prop40
 90
        0
102
RTVSPost2010PropOp40
 70
     1
102
RTVSPost2010Prop41ColorIndex
 90
       18
102
RTVSPost2010Prop41ColorRGB
 90
        0
102
RTVSPost2010PropOp41
 70
     1
102
RTVSPost2010Prop42
 90
       50
102
RTVSPost2010PropOp42
 70
     1
102
RTVSPost2010Prop43
 90
        3
102
RTVSPost2010PropOp43
 70
     1
102
RTVSPost2010Prop44ColorIndex
 90
        5
102
RTVSPost2010Prop44ColorRGB
 90
      255
102
RTVSPost2010PropOp44
 70
     1
102
RTVSPost2010Prop45
280
     0
102
RTVSPost2010PropOp45
 70
     1
102
RTVSPost2010Prop46
 90
       50
102
RTVSPost2010PropOp46
 70
     1
102
RTVSPost2010Prop47
 90
       50
102
RTVSPost2010PropOp47
 70
     1
102
RTVSPost2010Prop48
 90
       50
102
RTVSPost2010PropOp48
 70
     1
102
RTVSPost2010Prop49
280
     0
102
RTVSPost2010PropOp49
 70
     1
102
RTVSPost2010Prop50
 90
       50
102
RTVSPost2010PropOp50
 70
     1
102
RTVSPost2010Prop51ColorIndex
 90
      256
102
RTVSPost2010Prop51ColorRGB
 90
-16777216
102
RTVSPost2010PropOp51
 70
     0
102
RTVSPost2010Prop52
140
1.0
102
RTVSPost2010PropOp52
 70
     0
102
RTVSPost2010Prop53
 90
        2
102
RTVSPost2010PropOp53
 70
     1
102
RTVSPost2010Prop54
  1
strokes_ogs.tif
102
RTVSPost2010PropOp54
 70
     1
102
RTVSPost2010Prop55
280
     0
102
RTVSPost2010PropOp55
 70
     1
102
RTVSPost2010Prop56
140
1.0
102
RTVSPost2010PropOp56
 70
     1
102
RTVSPost2010Prop57
140
1.0
102
RTVSPost2010PropOp57
 70
     1
102
RTVSPropertyOp0
 70
     1
102
RTVSPropertyOp1
 70
     1
102
RTVSPropertyOp2
 70
     1
102
RTVSPropertyOp3
 70
     1
102
RTVSPropertyOp4
 70
     1
102
RTVSPropertyOp5
 70
     1
102
RTVSPropertyOp6
 70
     1
102
RTVSPropertyOp7
 70
     1
102
RTVSPropertyOp8
 70
     1
102
RTVSPropertyOp9
 70
     1
102
RTVSPropertyOp10
 70
     1
102
RTVSPropertyOp11
 70
     1
102
RTVSPropertyOp12
 70
     1
102
RTVSPropertyOp13
 70
     1
102
RTVSPropertyOp14
 70
     1
102
RTVSPropertyOp15
 70
     1
102
RTVSPropertyOp16
 70
     1
102
RTVSPropertyOp17
 70
     1
102
RTVSPropertyOp18
 70
     1
102
RTVSPropertyOp19
 70
     1
102
RTVSPropertyOp20
 70
     1
102
RTVSPropertyOp21
 70
     1
102
RTVSPropertyOp22
 70
     1
102
RTVSPropertyOp23
 70
     1
102
RTVSPropertyOp24
 70
     1
102
RTVSPropertyOp25
 70
     1
102
RTVSPropertyOp26
 70
     1
102
RTVSPropertyOp27
 70
     1
102
RTVSPropertyOp28
 70
     1
102
RTVSPropertyOp29
 70
     1
102
RTVSPropertyOp30
 70
     1
102
RTVSPropertyOp31
 70
     1
102
RTVSPropertyOp32
 70
     1
102
RTVSPropertyOp33
 70
     1
102
RTVSPropertyOp34
 70
     1
102
RTVSPropertyOp35
 70
     1
102
RTVSPropertyOp36
 70
     1
102
RTVSPropertyOp37
 70
     1
102
RTVSPropertyOp38
 70
     1
102
RTVSPropertyOp39
 70
     1
102
RTVSPropertyOp40
 70
     1
102
RTVSPropertyOp41
 70
     1
102
RTVSPropertyOp42
 70
     1
102
RTVSPropertyOp43
 70
     1
102
RTVSPropertyOp44
 70
     1
102
RTVSPropertyOp45
 70
     1
102
RTVSPropertyOp46
 70
     1
102
RTVSPropertyOp47
 70
     1
102
RTVSPropertyOp48
 70
     1
102
RTVSPropertyOp49
 70
     1
102
RTVSPropertyOp50
 70
     1
102
RTVSPropertyOp51
 70
     0
102
RTVSPropertyOp52
 70
     0
102
RTVSPropertyOp53
 70
     1
102
RTVSPropertyOp54
 70
     1
102
RTVSPropertyOp55
 70
     1
102
RTVSPropertyOp56
 70
     1
102
RTVSPropertyOp57
 70
     1
102
RTVSPropertyOp58
 70
     1
102
RTVSPropertyOp59
 70
     1
102
RTVSPropertyOp60
 70
     1
102
RTVSPropertyOp61
 70
     1
102
RTVSPropertyOp62
 70
     1
  0
XRECORD
  5
BA05
102
{ACAD_REACTORS
330
BA04
102
}
330
BA04
100
AcDbXrecord
280
     1
102
RTVSPost2010Prop28
280
     0
102
RTVSPost2010PropOp28
 70
     1
102
RTVSPost2010Prop29
280
     1
102
RTVSPost2010PropOp29
 70
     1
102
RTVSPost2010Prop30
280
     1
102
RTVSPost2010PropOp30
 70
     1
102
RTVSPost2010Prop31
280
     0
102
RTVSPost2010PropOp31
 70
     1
102
RTVSPost2010Prop32
280
     0
102
RTVSPost2010PropOp32
 70
     1
102
RTVSPost2010Prop33
280
     0
102
RTVSPost2010PropOp33
 70
     1
102
RTVSPost2010Prop34
280
     0
102
RTVSPost2010PropOp34
 70
     1
102
RTVSPost2010Prop35
280
     0
102
RTVSPost2010PropOp35
 70
     1
102
RTVSPost2010Prop36
280
     0
102
RTVSPost2010PropOp36
 70
     1
102
RTVSPost2010Prop37
 90
       50
102
RTVSPost2010PropOp37
 70
     1
102
RTVSPost2010Prop38
140
0.0
102
RTVSPost2010PropOp38
 70
     1
102
RTVSPost2010Prop39
140
1.0
102
RTVSPost2010PropOp39
 70
     1
102
RTVSPost2010Prop40
 90
        0
102
RTVSPost2010PropOp40
 70
     1
102
RTVSPost2010Prop41ColorIndex
 90
       18
102
RTVSPost2010Prop41ColorRGB
 90
        0
102
RTVSPost2010PropOp41
 70
     1
102
RTVSPost2010Prop42
 90
       50
102
RTVSPost2010PropOp42
 70
     1
102
RTVSPost2010Prop43
 90
        3
102
RTVSPost2010PropOp43
 70
     1
102
RTVSPost2010Prop44ColorIndex
 90
        5
102
RTVSPost2010Prop44ColorRGB
 90
      255
102
RTVSPost2010PropOp44
 70
     1
102
RTVSPost2010Prop45
280
     0
102
RTVSPost2010PropOp45
 70
     1
102
RTVSPost2010Prop46
 90
       50
102
RTVSPost2010PropOp46
 70
     1
102
RTVSPost2010Prop47
 90
       50
102
RTVSPost2010PropOp47
 70
     1
102
RTVSPost2010Prop48
 90
       50
102
RTVSPost2010PropOp48
 70
     1
102
RTVSPost2010Prop49
280
     0
102
RTVSPost2010PropOp49
 70
     1
102
RTVSPost2010Prop50
 90
       50
102
RTVSPost2010PropOp50
 70
     1
102
RTVSPost2010Prop51ColorIndex
 90
      256
102
RTVSPost2010Prop51ColorRGB
 90
-16777216
102
RTVSPost2010PropOp51
 70
     0
102
RTVSPost2010Prop52
140
1.0
102
RTVSPost2010PropOp52
 70
     0
102
RTVSPost2010Prop53
 90
        2
102
RTVSPost2010PropOp53
 70
     1
102
RTVSPost2010Prop54
  1
strokes_ogs.tif
102
RTVSPost2010PropOp54
 70
     1
102
RTVSPost2010Prop55
280
     0
102
RTVSPost2010PropOp55
 70
     1
102
RTVSPost2010Prop56
140
1.0
102
RTVSPost2010PropOp56
 70
     1
102
RTVSPost2010Prop57
140
1.0
102
RTVSPost2010PropOp57
 70
     1
102
RTVSPropertyOp0
 70
     1
102
RTVSPropertyOp1
 70
     1
102
RTVSPropertyOp2
 70
     1
102
RTVSPropertyOp3
 70
     1
102
RTVSPropertyOp4
 70
     1
102
RTVSPropertyOp5
 70
     1
102
RTVSPropertyOp6
 70
     1
102
RTVSPropertyOp7
 70
     1
102
RTVSPropertyOp8
 70
     1
102
RTVSPropertyOp9
 70
     1
102
RTVSPropertyOp10
 70
     1
102
RTVSPropertyOp11
 70
     1
102
RTVSPropertyOp12
 70
     1
102
RTVSPropertyOp13
 70
     1
102
RTVSPropertyOp14
 70
     1
102
RTVSPropertyOp15
 70
     1
102
RTVSPropertyOp16
 70
     1
102
RTVSPropertyOp17
 70
     1
102
RTVSPropertyOp18
 70
     1
102
RTVSPropertyOp19
 70
     1
102
RTVSPropertyOp20
 70
     1
102
RTVSPropertyOp21
 70
     1
102
RTVSPropertyOp22
 70
     1
102
RTVSPropertyOp23
 70
     1
102
RTVSPropertyOp24
 70
     1
102
RTVSPropertyOp25
 70
     1
102
RTVSPropertyOp26
 70
     1
102
RTVSPropertyOp27
 70
     1
102
RTVSPropertyOp28
 70
     1
102
RTVSPropertyOp29
 70
     1
102
RTVSPropertyOp30
 70
     1
102
RTVSPropertyOp31
 70
     1
102
RTVSPropertyOp32
 70
     1
102
RTVSPropertyOp33
 70
     1
102
RTVSPropertyOp34
 70
     1
102
RTVSPropertyOp35
 70
     1
102
RTVSPropertyOp36
 70
     1
102
RTVSPropertyOp37
 70
     1
102
RTVSPropertyOp38
 70
     1
102
RTVSPropertyOp39
 70
     1
102
RTVSPropertyOp40
 70
     1
102
RTVSPropertyOp41
 70
     1
102
RTVSPropertyOp42
 70
     1
102
RTVSPropertyOp43
 70
     1
102
RTVSPropertyOp44
 70
     1
102
RTVSPropertyOp45
 70
     1
102
RTVSPropertyOp46
 70
     1
102
RTVSPropertyOp47
 70
     1
102
RTVSPropertyOp48
 70
     1
102
RTVSPropertyOp49
 70
     1
102
RTVSPropertyOp50
 70
     1
102
RTVSPropertyOp51
 70
     0
102
RTVSPropertyOp52
 70
     0
102
RTVSPropertyOp53
 70
     1
102
RTVSPropertyOp54
 70
     1
102
RTVSPropertyOp55
 70
     1
102
RTVSPropertyOp56
 70
     1
102
RTVSPropertyOp57
 70
     1
102
RTVSPropertyOp58
 70
     1
102
RTVSPropertyOp59
 70
     1
102
RTVSPropertyOp60
 70
     1
102
RTVSPropertyOp61
 70
     1
102
RTVSPropertyOp62
 70
     1
  0
XRECORD
  5
BA09
102
{ACAD_REACTORS
330
BA08
102
}
330
BA08
100
AcDbXrecord
280
     1
102
RTVSPost2010Prop28
280
     0
102
RTVSPost2010PropOp28
 70
     1
102
RTVSPost2010Prop29
280
     1
102
RTVSPost2010PropOp29
 70
     1
102
RTVSPost2010Prop30
280
     1
102
RTVSPost2010PropOp30
 70
     1
102
RTVSPost2010Prop31
280
     0
102
RTVSPost2010PropOp31
 70
     1
102
RTVSPost2010Prop32
280
     0
102
RTVSPost2010PropOp32
 70
     1
102
RTVSPost2010Prop33
280
     0
102
RTVSPost2010PropOp33
 70
     1
102
RTVSPost2010Prop34
280
     0
102
RTVSPost2010PropOp34
 70
     1
102
RTVSPost2010Prop35
280
     0
102
RTVSPost2010PropOp35
 70
     1
102
RTVSPost2010Prop36
280
     0
102
RTVSPost2010PropOp36
 70
     1
102
RTVSPost2010Prop37
 90
       50
102
RTVSPost2010PropOp37
 70
     1
102
RTVSPost2010Prop38
140
0.0
102
RTVSPost2010PropOp38
 70
     1
102
RTVSPost2010Prop39
140
1.0
102
RTVSPost2010PropOp39
 70
     1
102
RTVSPost2010Prop40
 90
        0
102
RTVSPost2010PropOp40
 70
     1
102
RTVSPost2010Prop41ColorIndex
 90
       18
102
RTVSPost2010Prop41ColorRGB
 90
        0
102
RTVSPost2010PropOp41
 70
     1
102
RTVSPost2010Prop42
 90
       50
102
RTVSPost2010PropOp42
 70
     1
102
RTVSPost2010Prop43
 90
        3
102
RTVSPost2010PropOp43
 70
     1
102
RTVSPost2010Prop44ColorIndex
 90
        5
102
RTVSPost2010Prop44ColorRGB
 90
      255
102
RTVSPost2010PropOp44
 70
     1
102
RTVSPost2010Prop45
280
     0
102
RTVSPost2010PropOp45
 70
     1
102
RTVSPost2010Prop46
 90
       50
102
RTVSPost2010PropOp46
 70
     1
102
RTVSPost2010Prop47
 90
       50
102
RTVSPost2010PropOp47
 70
     1
102
RTVSPost2010Prop48
 90
       50
102
RTVSPost2010PropOp48
 70
     1
102
RTVSPost2010Prop49
280
     0
102
RTVSPost2010PropOp49
 70
     1
102
RTVSPost2010Prop50
 90
       50
102
RTVSPost2010PropOp50
 70
     1
102
RTVSPost2010Prop51ColorIndex
 90
      256
102
RTVSPost2010Prop51ColorRGB
 90
-16777216
102
RTVSPost2010PropOp51
 70
     0
102
RTVSPost2010Prop52
140
1.0
102
RTVSPost2010PropOp52
 70
     0
102
RTVSPost2010Prop53
 90
        2
102
RTVSPost2010PropOp53
 70
     1
102
RTVSPost2010Prop54
  1
strokes_ogs.tif
102
RTVSPost2010PropOp54
 70
     1
102
RTVSPost2010Prop55
280
     0
102
RTVSPost2010PropOp55
 70
     1
102
RTVSPost2010Prop56
140
1.0
102
RTVSPost2010PropOp56
 70
     1
102
RTVSPost2010Prop57
140
1.0
102
RTVSPost2010PropOp57
 70
     1
102
RTVSPropertyOp0
 70
     1
102
RTVSPropertyOp1
 70
     1
102
RTVSPropertyOp2
 70
     1
102
RTVSPropertyOp3
 70
     1
102
RTVSPropertyOp4
 70
     1
102
RTVSPropertyOp5
 70
     1
102
RTVSPropertyOp6
 70
     1
102
RTVSPropertyOp7
 70
     1
102
RTVSPropertyOp8
 70
     1
102
RTVSPropertyOp9
 70
     1
102
RTVSPropertyOp10
 70
     1
102
RTVSPropertyOp11
 70
     1
102
RTVSPropertyOp12
 70
     1
102
RTVSPropertyOp13
 70
     1
102
RTVSPropertyOp14
 70
     1
102
RTVSPropertyOp15
 70
     1
102
RTVSPropertyOp16
 70
     1
102
RTVSPropertyOp17
 70
     1
102
RTVSPropertyOp18
 70
     1
102
RTVSPropertyOp19
 70
     1
102
RTVSPropertyOp20
 70
     1
102
RTVSPropertyOp21
 70
     1
102
RTVSPropertyOp22
 70
     1
102
RTVSPropertyOp23
 70
     1
102
RTVSPropertyOp24
 70
     1
102
RTVSPropertyOp25
 70
     1
102
RTVSPropertyOp26
 70
     1
102
RTVSPropertyOp27
 70
     1
102
RTVSPropertyOp28
 70
     1
102
RTVSPropertyOp29
 70
     1
102
RTVSPropertyOp30
 70
     1
102
RTVSPropertyOp31
 70
     1
102
RTVSPropertyOp32
 70
     1
102
RTVSPropertyOp33
 70
     1
102
RTVSPropertyOp34
 70
     1
102
RTVSPropertyOp35
 70
     1
102
RTVSPropertyOp36
 70
     1
102
RTVSPropertyOp37
 70
     1
102
RTVSPropertyOp38
 70
     1
102
RTVSPropertyOp39
 70
     1
102
RTVSPropertyOp40
 70
     1
102
RTVSPropertyOp41
 70
     1
102
RTVSPropertyOp42
 70
     1
102
RTVSPropertyOp43
 70
     1
102
RTVSPropertyOp44
 70
     1
102
RTVSPropertyOp45
 70
     1
102
RTVSPropertyOp46
 70
     1
102
RTVSPropertyOp47
 70
     1
102
RTVSPropertyOp48
 70
     1
102
RTVSPropertyOp49
 70
     1
102
RTVSPropertyOp50
 70
     1
102
RTVSPropertyOp51
 70
     0
102
RTVSPropertyOp52
 70
     0
102
RTVSPropertyOp53
 70
     1
102
RTVSPropertyOp54
 70
     1
102
RTVSPropertyOp55
 70
     1
102
RTVSPropertyOp56
 70
     1
102
RTVSPropertyOp57
 70
     1
102
RTVSPropertyOp58
 70
     1
102
RTVSPropertyOp59
 70
     1
102
RTVSPropertyOp60
 70
     1
102
RTVSPropertyOp61
 70
     1
102
RTVSPropertyOp62
 70
     1
  0
XRECORD
  5
BA23
102
{ACAD_REACTORS
330
BA22
102
}
330
BA22
100
AcDbXrecord
280
     1
102
RTVSPost2010Prop28
280
     0
102
RTVSPost2010PropOp28
 70
     1
102
RTVSPost2010Prop29
280
     1
102
RTVSPost2010PropOp29
 70
     1
102
RTVSPost2010Prop30
280
     1
102
RTVSPost2010PropOp30
 70
     1
102
RTVSPost2010Prop31
280
     0
102
RTVSPost2010PropOp31
 70
     1
102
RTVSPost2010Prop32
280
     0
102
RTVSPost2010PropOp32
 70
     1
102
RTVSPost2010Prop33
280
     0
102
RTVSPost2010PropOp33
 70
     1
102
RTVSPost2010Prop34
280
     0
102
RTVSPost2010PropOp34
 70
     1
102
RTVSPost2010Prop35
280
     0
102
RTVSPost2010PropOp35
 70
     1
102
RTVSPost2010Prop36
280
     0
102
RTVSPost2010PropOp36
 70
     1
102
RTVSPost2010Prop37
 90
       50
102
RTVSPost2010PropOp37
 70
     0
102
RTVSPost2010Prop38
140
0.0
102
RTVSPost2010PropOp38
 70
     0
102
RTVSPost2010Prop39
140
1.0
102
RTVSPost2010PropOp39
 70
     0
102
RTVSPost2010Prop40
 90
        0
102
RTVSPost2010PropOp40
 70
     0
102
RTVSPost2010Prop41ColorIndex
 90
       18
102
RTVSPost2010Prop41ColorRGB
 90
        0
102
RTVSPost2010PropOp41
 70
     0
102
RTVSPost2010Prop42
 90
       50
102
RTVSPost2010PropOp42
 70
     0
102
RTVSPost2010Prop43
 90
        3
102
RTVSPost2010PropOp43
 70
     0
102
RTVSPost2010Prop44ColorIndex
 90
        5
102
RTVSPost2010Prop44ColorRGB
 90
      255
102
RTVSPost2010PropOp44
 70
     0
102
RTVSPost2010Prop45
280
     0
102
RTVSPost2010PropOp45
 70
     1
102
RTVSPost2010Prop46
 90
       50
102
RTVSPost2010PropOp46
 70
     0
102
RTVSPost2010Prop47
 90
       50
102
RTVSPost2010PropOp47
 70
     0
102
RTVSPost2010Prop48
 90
       50
102
RTVSPost2010PropOp48
 70
     0
102
RTVSPost2010Prop49
280
     0
102
RTVSPost2010PropOp49
 70
     1
102
RTVSPost2010Prop50
 90
       50
102
RTVSPost2010PropOp50
 70
     0
102
RTVSPost2010Prop51ColorIndex
 90
      256
102
RTVSPost2010Prop51ColorRGB
 90
-16777216
102
RTVSPost2010PropOp51
 70
     0
102
RTVSPost2010Prop52
140
1.0
102
RTVSPost2010PropOp52
 70
     0
102
RTVSPost2010Prop53
 90
        2
102
RTVSPost2010PropOp53
 70
     0
102
RTVSPost2010Prop54
  1
strokes_ogs.tif
102
RTVSPost2010PropOp54
 70
     0
102
RTVSPost2010Prop55
280
     0
102
RTVSPost2010PropOp55
 70
     1
102
RTVSPost2010Prop56
140
1.0
102
RTVSPost2010PropOp56
 70
     0
102
RTVSPost2010Prop57
140
1.0
102
RTVSPost2010PropOp57
 70
     0
102
RTVSPropertyOp0
 70
     0
102
RTVSPropertyOp1
 70
     0
102
RTVSPropertyOp2
 70
     0
102
RTVSPropertyOp3
 70
     0
102
RTVSPropertyOp4
 70
     0
102
RTVSPropertyOp5
 70
     0
102
RTVSPropertyOp6
 70
     0
102
RTVSPropertyOp7
 70
     0
102
RTVSPropertyOp8
 70
     0
102
RTVSPropertyOp9
 70
     0
102
RTVSPropertyOp10
 70
     0
102
RTVSPropertyOp11
 70
     0
102
RTVSPropertyOp12
 70
     0
102
RTVSPropertyOp13
 70
     0
102
RTVSPropertyOp14
 70
     2
102
RTVSPropertyOp15
 70
     0
102
RTVSPropertyOp16
 70
     0
102
RTVSPropertyOp17
 70
     0
102
RTVSPropertyOp18
 70
     0
102
RTVSPropertyOp19
 70
     0
102
RTVSPropertyOp20
 70
     0
102
RTVSPropertyOp21
 70
     0
102
RTVSPropertyOp22
 70
     0
102
RTVSPropertyOp23
 70
     0
102
RTVSPropertyOp24
 70
     0
102
RTVSPropertyOp25
 70
     0
102
RTVSPropertyOp26
 70
     0
102
RTVSPropertyOp27
 70
     0
102
RTVSPropertyOp28
 70
     1
102
RTVSPropertyOp29
 70
     1
102
RTVSPropertyOp30
 70
     1
102
RTVSPropertyOp31
 70
     1
102
RTVSPropertyOp32
 70
     1
102
RTVSPropertyOp33
 70
     1
102
RTVSPropertyOp34
 70
     1
102
RTVSPropertyOp35
 70
     1
102
RTVSPropertyOp36
 70
     1
102
RTVSPropertyOp37
 70
     0
102
RTVSPropertyOp38
 70
     0
102
RTVSPropertyOp39
 70
     0
102
RTVSPropertyOp40
 70
     0
102
RTVSPropertyOp41
 70
     0
102
RTVSPropertyOp42
 70
     0
102
RTVSPropertyOp43
 70
     0
102
RTVSPropertyOp44
 70
     0
102
RTVSPropertyOp45
 70
     1
102
RTVSPropertyOp46
 70
     0
102
RTVSPropertyOp47
 70
     0
102
RTVSPropertyOp48
 70
     0
102
RTVSPropertyOp49
 70
     1
102
RTVSPropertyOp50
 70
     0
102
RTVSPropertyOp51
 70
     0
102
RTVSPropertyOp52
 70
     0
102
RTVSPropertyOp53
 70
     0
102
RTVSPropertyOp54
 70
     0
102
RTVSPropertyOp55
 70
     1
102
RTVSPropertyOp56
 70
     0
102
RTVSPropertyOp57
 70
     0
102
RTVSPropertyOp58
 70
     0
102
RTVSPropertyOp59
 70
     0
102
RTVSPropertyOp60
 70
     0
102
RTVSPropertyOp61
 70
     0
102
RTVSPropertyOp62
 70
     0
  0
XRECORD
  5
BA11
102
{ACAD_REACTORS
330
BA10
102
}
330
BA10
100
AcDbXrecord
280
     1
102
RTVSPost2010Prop28
280
     0
102
RTVSPost2010PropOp28
 70
     1
102
RTVSPost2010Prop29
280
     1
102
RTVSPost2010PropOp29
 70
     1
102
RTVSPost2010Prop30
280
     1
102
RTVSPost2010PropOp30
 70
     1
102
RTVSPost2010Prop31
280
     0
102
RTVSPost2010PropOp31
 70
     1
102
RTVSPost2010Prop32
280
     0
102
RTVSPost2010PropOp32
 70
     1
102
RTVSPost2010Prop33
280
     0
102
RTVSPost2010PropOp33
 70
     1
102
RTVSPost2010Prop34
280
     0
102
RTVSPost2010PropOp34
 70
     1
102
RTVSPost2010Prop35
280
     0
102
RTVSPost2010PropOp35
 70
     1
102
RTVSPost2010Prop36
280
     0
102
RTVSPost2010PropOp36
 70
     1
102
RTVSPost2010Prop37
 90
       50
102
RTVSPost2010PropOp37
 70
     1
102
RTVSPost2010Prop38
140
0.0
102
RTVSPost2010PropOp38
 70
     1
102
RTVSPost2010Prop39
140
1.0
102
RTVSPost2010PropOp39
 70
     1
102
RTVSPost2010Prop40
 90
        0
102
RTVSPost2010PropOp40
 70
     1
102
RTVSPost2010Prop41ColorIndex
 90
       18
102
RTVSPost2010Prop41ColorRGB
 90
        0
102
RTVSPost2010PropOp41
 70
     1
102
RTVSPost2010Prop42
 90
       50
102
RTVSPost2010PropOp42
 70
     1
102
RTVSPost2010Prop43
 90
        3
102
RTVSPost2010PropOp43
 70
     1
102
RTVSPost2010Prop44ColorIndex
 90
        5
102
RTVSPost2010Prop44ColorRGB
 90
      255
102
RTVSPost2010PropOp44
 70
     1
102
RTVSPost2010Prop45
280
     0
102
RTVSPost2010PropOp45
 70
     1
102
RTVSPost2010Prop46
 90
       50
102
RTVSPost2010PropOp46
 70
     1
102
RTVSPost2010Prop47
 90
       50
102
RTVSPost2010PropOp47
 70
     1
102
RTVSPost2010Prop48
 90
       50
102
RTVSPost2010PropOp48
 70
     1
102
RTVSPost2010Prop49
280
     0
102
RTVSPost2010PropOp49
 70
     1
102
RTVSPost2010Prop50
 90
       50
102
RTVSPost2010PropOp50
 70
     1
102
RTVSPost2010Prop51ColorIndex
 90
      256
102
RTVSPost2010Prop51ColorRGB
 90
-16777216
102
RTVSPost2010PropOp51
 70
     0
102
RTVSPost2010Prop52
140
1.0
102
RTVSPost2010PropOp52
 70
     0
102
RTVSPost2010Prop53
 90
        2
102
RTVSPost2010PropOp53
 70
     1
102
RTVSPost2010Prop54
  1
strokes_ogs.tif
102
RTVSPost2010PropOp54
 70
     1
102
RTVSPost2010Prop55
280
     0
102
RTVSPost2010PropOp55
 70
     1
102
RTVSPost2010Prop56
140
1.0
102
RTVSPost2010PropOp56
 70
     1
102
RTVSPost2010Prop57
140
1.0
102
RTVSPost2010PropOp57
 70
     1
102
RTVSPropertyOp0
 70
     1
102
RTVSPropertyOp1
 70
     1
102
RTVSPropertyOp2
 70
     1
102
RTVSPropertyOp3
 70
     1
102
RTVSPropertyOp4
 70
     1
102
RTVSPropertyOp5
 70
     1
102
RTVSPropertyOp6
 70
     1
102
RTVSPropertyOp7
 70
     1
102
RTVSPropertyOp8
 70
     1
102
RTVSPropertyOp9
 70
     1
102
RTVSPropertyOp10
 70
     1
102
RTVSPropertyOp11
 70
     1
102
RTVSPropertyOp12
 70
     1
102
RTVSPropertyOp13
 70
     1
102
RTVSPropertyOp14
 70
     1
102
RTVSPropertyOp15
 70
     1
102
RTVSPropertyOp16
 70
     1
102
RTVSPropertyOp17
 70
     1
102
RTVSPropertyOp18
 70
     1
102
RTVSPropertyOp19
 70
     1
102
RTVSPropertyOp20
 70
     1
102
RTVSPropertyOp21
 70
     1
102
RTVSPropertyOp22
 70
     1
102
RTVSPropertyOp23
 70
     1
102
RTVSPropertyOp24
 70
     1
102
RTVSPropertyOp25
 70
     1
102
RTVSPropertyOp26
 70
     1
102
RTVSPropertyOp27
 70
     1
102
RTVSPropertyOp28
 70
     1
102
RTVSPropertyOp29
 70
     1
102
RTVSPropertyOp30
 70
     1
102
RTVSPropertyOp31
 70
     1
102
RTVSPropertyOp32
 70
     1
102
RTVSPropertyOp33
 70
     1
102
RTVSPropertyOp34
 70
     1
102
RTVSPropertyOp35
 70
     1
102
RTVSPropertyOp36
 70
     1
102
RTVSPropertyOp37
 70
     1
102
RTVSPropertyOp38
 70
     1
102
RTVSPropertyOp39
 70
     1
102
RTVSPropertyOp40
 70
     1
102
RTVSPropertyOp41
 70
     1
102
RTVSPropertyOp42
 70
     1
102
RTVSPropertyOp43
 70
     1
102
RTVSPropertyOp44
 70
     1
102
RTVSPropertyOp45
 70
     1
102
RTVSPropertyOp46
 70
     1
102
RTVSPropertyOp47
 70
     1
102
RTVSPropertyOp48
 70
     1
102
RTVSPropertyOp49
 70
     1
102
RTVSPropertyOp50
 70
     1
102
RTVSPropertyOp51
 70
     0
102
RTVSPropertyOp52
 70
     0
102
RTVSPropertyOp53
 70
     1
102
RTVSPropertyOp54
 70
     1
102
RTVSPropertyOp55
 70
     1
102
RTVSPropertyOp56
 70
     1
102
RTVSPropertyOp57
 70
     1
102
RTVSPropertyOp58
 70
     1
102
RTVSPropertyOp59
 70
     1
102
RTVSPropertyOp60
 70
     1
102
RTVSPropertyOp61
 70
     1
102
RTVSPropertyOp62
 70
     1
  0
XRECORD
  5
B9F5
102
{ACAD_REACTORS
330
B9F4
102
}
330
B9F4
100
AcDbXrecord
280
     1
102
RTVSPost2010Prop28
280
     0
102
RTVSPost2010PropOp28
 70
     1
102
RTVSPost2010Prop29
280
     1
102
RTVSPost2010PropOp29
 70
     1
102
RTVSPost2010Prop30
280
     1
102
RTVSPost2010PropOp30
 70
     1
102
RTVSPost2010Prop31
280
     0
102
RTVSPost2010PropOp31
 70
     1
102
RTVSPost2010Prop32
280
     0
102
RTVSPost2010PropOp32
 70
     1
102
RTVSPost2010Prop33
280
     0
102
RTVSPost2010PropOp33
 70
     1
102
RTVSPost2010Prop34
280
     0
102
RTVSPost2010PropOp34
 70
     1
102
RTVSPost2010Prop35
280
     0
102
RTVSPost2010PropOp35
 70
     1
102
RTVSPost2010Prop36
280
     0
102
RTVSPost2010PropOp36
 70
     1
102
RTVSPost2010Prop37
 90
       50
102
RTVSPost2010PropOp37
 70
     1
102
RTVSPost2010Prop38
140
0.0
102
RTVSPost2010PropOp38
 70
     1
102
RTVSPost2010Prop39
140
1.0
102
RTVSPost2010PropOp39
 70
     1
102
RTVSPost2010Prop40
 90
        0
102
RTVSPost2010PropOp40
 70
     1
102
RTVSPost2010Prop41ColorIndex
 90
       18
102
RTVSPost2010Prop41ColorRGB
 90
        0
102
RTVSPost2010PropOp41
 70
     1
102
RTVSPost2010Prop42
 90
       50
102
RTVSPost2010PropOp42
 70
     1
102
RTVSPost2010Prop43
 90
        3
102
RTVSPost2010PropOp43
 70
     1
102
RTVSPost2010Prop44ColorIndex
 90
        5
102
RTVSPost2010Prop44ColorRGB
 90
      255
102
RTVSPost2010PropOp44
 70
     1
102
RTVSPost2010Prop45
280
     0
102
RTVSPost2010PropOp45
 70
     1
102
RTVSPost2010Prop46
 90
       50
102
RTVSPost2010PropOp46
 70
     1
102
RTVSPost2010Prop47
 90
       50
102
RTVSPost2010PropOp47
 70
     1
102
RTVSPost2010Prop48
 90
       50
102
RTVSPost2010PropOp48
 70
     1
102
RTVSPost2010Prop49
280
     0
102
RTVSPost2010PropOp49
 70
     1
102
RTVSPost2010Prop50
 90
       50
102
RTVSPost2010PropOp50
 70
     1
102
RTVSPost2010Prop51ColorIndex
 90
      256
102
RTVSPost2010Prop51ColorRGB
 90
-16777216
102
RTVSPost2010PropOp51
 70
     0
102
RTVSPost2010Prop52
140
1.0
102
RTVSPost2010PropOp52
 70
     0
102
RTVSPost2010Prop53
 90
        2
102
RTVSPost2010PropOp53
 70
     1
102
RTVSPost2010Prop54
  1
strokes_ogs.tif
102
RTVSPost2010PropOp54
 70
     1
102
RTVSPost2010Prop55
280
     0
102
RTVSPost2010PropOp55
 70
     1
102
RTVSPost2010Prop56
140
1.0
102
RTVSPost2010PropOp56
 70
     1
102
RTVSPost2010Prop57
140
1.0
102
RTVSPost2010PropOp57
 70
     1
102
RTVSPropertyOp0
 70
     1
102
RTVSPropertyOp1
 70
     1
102
RTVSPropertyOp2
 70
     1
102
RTVSPropertyOp3
 70
     1
102
RTVSPropertyOp4
 70
     1
102
RTVSPropertyOp5
 70
     1
102
RTVSPropertyOp6
 70
     1
102
RTVSPropertyOp7
 70
     1
102
RTVSPropertyOp8
 70
     1
102
RTVSPropertyOp9
 70
     1
102
RTVSPropertyOp10
 70
     1
102
RTVSPropertyOp11
 70
     1
102
RTVSPropertyOp12
 70
     1
102
RTVSPropertyOp13
 70
     1
102
RTVSPropertyOp14
 70
     1
102
RTVSPropertyOp15
 70
     1
102
RTVSPropertyOp16
 70
     1
102
RTVSPropertyOp17
 70
     1
102
RTVSPropertyOp18
 70
     1
102
RTVSPropertyOp19
 70
     1
102
RTVSPropertyOp20
 70
     1
102
RTVSPropertyOp21
 70
     1
102
RTVSPropertyOp22
 70
     1
102
RTVSPropertyOp23
 70
     1
102
RTVSPropertyOp24
 70
     1
102
RTVSPropertyOp25
 70
     1
102
RTVSPropertyOp26
 70
     1
102
RTVSPropertyOp27
 70
     1
102
RTVSPropertyOp28
 70
     1
102
RTVSPropertyOp29
 70
     1
102
RTVSPropertyOp30
 70
     1
102
RTVSPropertyOp31
 70
     1
102
RTVSPropertyOp32
 70
     1
102
RTVSPropertyOp33
 70
     1
102
RTVSPropertyOp34
 70
     1
102
RTVSPropertyOp35
 70
     1
102
RTVSPropertyOp36
 70
     1
102
RTVSPropertyOp37
 70
     1
102
RTVSPropertyOp38
 70
     1
102
RTVSPropertyOp39
 70
     1
102
RTVSPropertyOp40
 70
     1
102
RTVSPropertyOp41
 70
     1
102
RTVSPropertyOp42
 70
     1
102
RTVSPropertyOp43
 70
     1
102
RTVSPropertyOp44
 70
     1
102
RTVSPropertyOp45
 70
     1
102
RTVSPropertyOp46
 70
     1
102
RTVSPropertyOp47
 70
     1
102
RTVSPropertyOp48
 70
     1
102
RTVSPropertyOp49
 70
     1
102
RTVSPropertyOp50
 70
     1
102
RTVSPropertyOp51
 70
     0
102
RTVSPropertyOp52
 70
     0
102
RTVSPropertyOp53
 70
     1
102
RTVSPropertyOp54
 70
     1
102
RTVSPropertyOp55
 70
     1
102
RTVSPropertyOp56
 70
     1
102
RTVSPropertyOp57
 70
     1
102
RTVSPropertyOp58
 70
     1
102
RTVSPropertyOp59
 70
     1
102
RTVSPropertyOp60
 70
     1
102
RTVSPropertyOp61
 70
     1
102
RTVSPropertyOp62
 70
     1
  0
XRECORD
  5
B9F7
102
{ACAD_REACTORS
330
B9F6
102
}
330
B9F6
100
AcDbXrecord
280
     1
102
RTVSPost2010Prop28
280
     0
102
RTVSPost2010PropOp28
 70
     1
102
RTVSPost2010Prop29
280
     1
102
RTVSPost2010PropOp29
 70
     1
102
RTVSPost2010Prop30
280
     1
102
RTVSPost2010PropOp30
 70
     1
102
RTVSPost2010Prop31
280
     0
102
RTVSPost2010PropOp31
 70
     1
102
RTVSPost2010Prop32
280
     0
102
RTVSPost2010PropOp32
 70
     1
102
RTVSPost2010Prop33
280
     0
102
RTVSPost2010PropOp33
 70
     1
102
RTVSPost2010Prop34
280
     0
102
RTVSPost2010PropOp34
 70
     1
102
RTVSPost2010Prop35
280
     0
102
RTVSPost2010PropOp35
 70
     1
102
RTVSPost2010Prop36
280
     0
102
RTVSPost2010PropOp36
 70
     1
102
RTVSPost2010Prop37
 90
       50
102
RTVSPost2010PropOp37
 70
     1
102
RTVSPost2010Prop38
140
0.0
102
RTVSPost2010PropOp38
 70
     1
102
RTVSPost2010Prop39
140
1.0
102
RTVSPost2010PropOp39
 70
     1
102
RTVSPost2010Prop40
 90
        0
102
RTVSPost2010PropOp40
 70
     1
102
RTVSPost2010Prop41ColorIndex
 90
       18
102
RTVSPost2010Prop41ColorRGB
 90
        0
102
RTVSPost2010PropOp41
 70
     1
102
RTVSPost2010Prop42
 90
       50
102
RTVSPost2010PropOp42
 70
     1
102
RTVSPost2010Prop43
 90
        3
102
RTVSPost2010PropOp43
 70
     1
102
RTVSPost2010Prop44ColorIndex
 90
        5
102
RTVSPost2010Prop44ColorRGB
 90
      255
102
RTVSPost2010PropOp44
 70
     1
102
RTVSPost2010Prop45
280
     0
102
RTVSPost2010PropOp45
 70
     1
102
RTVSPost2010Prop46
 90
       50
102
RTVSPost2010PropOp46
 70
     1
102
RTVSPost2010Prop47
 90
       50
102
RTVSPost2010PropOp47
 70
     1
102
RTVSPost2010Prop48
 90
       50
102
RTVSPost2010PropOp48
 70
     1
102
RTVSPost2010Prop49
280
     0
102
RTVSPost2010PropOp49
 70
     1
102
RTVSPost2010Prop50
 90
       50
102
RTVSPost2010PropOp50
 70
     1
102
RTVSPost2010Prop51ColorIndex
 90
      256
102
RTVSPost2010Prop51ColorRGB
 90
-16777216
102
RTVSPost2010PropOp51
 70
     0
102
RTVSPost2010Prop52
140
1.0
102
RTVSPost2010PropOp52
 70
     0
102
RTVSPost2010Prop53
 90
        2
102
RTVSPost2010PropOp53
 70
     1
102
RTVSPost2010Prop54
  1
strokes_ogs.tif
102
RTVSPost2010PropOp54
 70
     1
102
RTVSPost2010Prop55
280
     0
102
RTVSPost2010PropOp55
 70
     1
102
RTVSPost2010Prop56
140
1.0
102
RTVSPost2010PropOp56
 70
     1
102
RTVSPost2010Prop57
140
1.0
102
RTVSPost2010PropOp57
 70
     1
102
RTVSPropertyOp0
 70
     1
102
RTVSPropertyOp1
 70
     1
102
RTVSPropertyOp2
 70
     1
102
RTVSPropertyOp3
 70
     1
102
RTVSPropertyOp4
 70
     1
102
RTVSPropertyOp5
 70
     1
102
RTVSPropertyOp6
 70
     1
102
RTVSPropertyOp7
 70
     1
102
RTVSPropertyOp8
 70
     1
102
RTVSPropertyOp9
 70
     1
102
RTVSPropertyOp10
 70
     1
102
RTVSPropertyOp11
 70
     1
102
RTVSPropertyOp12
 70
     1
102
RTVSPropertyOp13
 70
     1
102
RTVSPropertyOp14
 70
     1
102
RTVSPropertyOp15
 70
     1
102
RTVSPropertyOp16
 70
     1
102
RTVSPropertyOp17
 70
     1
102
RTVSPropertyOp18
 70
     1
102
RTVSPropertyOp19
 70
     1
102
RTVSPropertyOp20
 70
     1
102
RTVSPropertyOp21
 70
     1
102
RTVSPropertyOp22
 70
     1
102
RTVSPropertyOp23
 70
     1
102
RTVSPropertyOp24
 70
     1
102
RTVSPropertyOp25
 70
     1
102
RTVSPropertyOp26
 70
     1
102
RTVSPropertyOp27
 70
     1
102
RTVSPropertyOp28
 70
     1
102
RTVSPropertyOp29
 70
     1
102
RTVSPropertyOp30
 70
     1
102
RTVSPropertyOp31
 70
     1
102
RTVSPropertyOp32
 70
     1
102
RTVSPropertyOp33
 70
     1
102
RTVSPropertyOp34
 70
     1
102
RTVSPropertyOp35
 70
     1
102
RTVSPropertyOp36
 70
     1
102
RTVSPropertyOp37
 70
     1
102
RTVSPropertyOp38
 70
     1
102
RTVSPropertyOp39
 70
     1
102
RTVSPropertyOp40
 70
     1
102
RTVSPropertyOp41
 70
     1
102
RTVSPropertyOp42
 70
     1
102
RTVSPropertyOp43
 70
     1
102
RTVSPropertyOp44
 70
     1
102
RTVSPropertyOp45
 70
     1
102
RTVSPropertyOp46
 70
     1
102
RTVSPropertyOp47
 70
     1
102
RTVSPropertyOp48
 70
     1
102
RTVSPropertyOp49
 70
     1
102
RTVSPropertyOp50
 70
     1
102
RTVSPropertyOp51
 70
     0
102
RTVSPropertyOp52
 70
     0
102
RTVSPropertyOp53
 70
     1
102
RTVSPropertyOp54
 70
     1
102
RTVSPropertyOp55
 70
     1
102
RTVSPropertyOp56
 70
     1
102
RTVSPropertyOp57
 70
     1
102
RTVSPropertyOp58
 70
     1
102
RTVSPropertyOp59
 70
     1
102
RTVSPropertyOp60
 70
     1
102
RTVSPropertyOp61
 70
     1
102
RTVSPropertyOp62
 70
     1
  0
XRECORD
  5
B9F9
102
{ACAD_REACTORS
330
B9F8
102
}
330
B9F8
100
AcDbXrecord
280
     1
102
RTVSPost2010Prop28
280
     0
102
RTVSPost2010PropOp28
 70
     1
102
RTVSPost2010Prop29
280
     1
102
RTVSPost2010PropOp29
 70
     1
102
RTVSPost2010Prop30
280
     1
102
RTVSPost2010PropOp30
 70
     1
102
RTVSPost2010Prop31
280
     0
102
RTVSPost2010PropOp31
 70
     1
102
RTVSPost2010Prop32
280
     0
102
RTVSPost2010PropOp32
 70
     1
102
RTVSPost2010Prop33
280
     0
102
RTVSPost2010PropOp33
 70
     1
102
RTVSPost2010Prop34
280
     0
102
RTVSPost2010PropOp34
 70
     1
102
RTVSPost2010Prop35
280
     0
102
RTVSPost2010PropOp35
 70
     1
102
RTVSPost2010Prop36
280
     0
102
RTVSPost2010PropOp36
 70
     1
102
RTVSPost2010Prop37
 90
       50
102
RTVSPost2010PropOp37
 70
     1
102
RTVSPost2010Prop38
140
0.0
102
RTVSPost2010PropOp38
 70
     1
102
RTVSPost2010Prop39
140
1.0
102
RTVSPost2010PropOp39
 70
     1
102
RTVSPost2010Prop40
 90
        0
102
RTVSPost2010PropOp40
 70
     1
102
RTVSPost2010Prop41ColorIndex
 90
       18
102
RTVSPost2010Prop41ColorRGB
 90
        0
102
RTVSPost2010PropOp41
 70
     1
102
RTVSPost2010Prop42
 90
       50
102
RTVSPost2010PropOp42
 70
     1
102
RTVSPost2010Prop43
 90
        3
102
RTVSPost2010PropOp43
 70
     1
102
RTVSPost2010Prop44ColorIndex
 90
        5
102
RTVSPost2010Prop44ColorRGB
 90
      255
102
RTVSPost2010PropOp44
 70
     1
102
RTVSPost2010Prop45
280
     0
102
RTVSPost2010PropOp45
 70
     1
102
RTVSPost2010Prop46
 90
       50
102
RTVSPost2010PropOp46
 70
     1
102
RTVSPost2010Prop47
 90
       50
102
RTVSPost2010PropOp47
 70
     1
102
RTVSPost2010Prop48
 90
       50
102
RTVSPost2010PropOp48
 70
     1
102
RTVSPost2010Prop49
280
     0
102
RTVSPost2010PropOp49
 70
     1
102
RTVSPost2010Prop50
 90
       50
102
RTVSPost2010PropOp50
 70
     1
102
RTVSPost2010Prop51ColorIndex
 90
      256
102
RTVSPost2010Prop51ColorRGB
 90
-16777216
102
RTVSPost2010PropOp51
 70
     0
102
RTVSPost2010Prop52
140
1.0
102
RTVSPost2010PropOp52
 70
     0
102
RTVSPost2010Prop53
 90
        2
102
RTVSPost2010PropOp53
 70
     1
102
RTVSPost2010Prop54
  1
strokes_ogs.tif
102
RTVSPost2010PropOp54
 70
     1
102
RTVSPost2010Prop55
280
     0
102
RTVSPost2010PropOp55
 70
     1
102
RTVSPost2010Prop56
140
1.0
102
RTVSPost2010PropOp56
 70
     1
102
RTVSPost2010Prop57
140
1.0
102
RTVSPost2010PropOp57
 70
     1
102
RTVSPropertyOp0
 70
     1
102
RTVSPropertyOp1
 70
     1
102
RTVSPropertyOp2
 70
     1
102
RTVSPropertyOp3
 70
     1
102
RTVSPropertyOp4
 70
     1
102
RTVSPropertyOp5
 70
     1
102
RTVSPropertyOp6
 70
     1
102
RTVSPropertyOp7
 70
     1
102
RTVSPropertyOp8
 70
     1
102
RTVSPropertyOp9
 70
     1
102
RTVSPropertyOp10
 70
     1
102
RTVSPropertyOp11
 70
     1
102
RTVSPropertyOp12
 70
     1
102
RTVSPropertyOp13
 70
     1
102
RTVSPropertyOp14
 70
     1
102
RTVSPropertyOp15
 70
     1
102
RTVSPropertyOp16
 70
     1
102
RTVSPropertyOp17
 70
     1
102
RTVSPropertyOp18
 70
     1
102
RTVSPropertyOp19
 70
     1
102
RTVSPropertyOp20
 70
     1
102
RTVSPropertyOp21
 70
     1
102
RTVSPropertyOp22
 70
     1
102
RTVSPropertyOp23
 70
     1
102
RTVSPropertyOp24
 70
     1
102
RTVSPropertyOp25
 70
     1
102
RTVSPropertyOp26
 70
     1
102
RTVSPropertyOp27
 70
     1
102
RTVSPropertyOp28
 70
     1
102
RTVSPropertyOp29
 70
     1
102
RTVSPropertyOp30
 70
     1
102
RTVSPropertyOp31
 70
     1
102
RTVSPropertyOp32
 70
     1
102
RTVSPropertyOp33
 70
     1
102
RTVSPropertyOp34
 70
     1
102
RTVSPropertyOp35
 70
     1
102
RTVSPropertyOp36
 70
     1
102
RTVSPropertyOp37
 70
     1
102
RTVSPropertyOp38
 70
     1
102
RTVSPropertyOp39
 70
     1
102
RTVSPropertyOp40
 70
     1
102
RTVSPropertyOp41
 70
     1
102
RTVSPropertyOp42
 70
     1
102
RTVSPropertyOp43
 70
     1
102
RTVSPropertyOp44
 70
     1
102
RTVSPropertyOp45
 70
     1
102
RTVSPropertyOp46
 70
     1
102
RTVSPropertyOp47
 70
     1
102
RTVSPropertyOp48
 70
     1
102
RTVSPropertyOp49
 70
     1
102
RTVSPropertyOp50
 70
     1
102
RTVSPropertyOp51
 70
     0
102
RTVSPropertyOp52
 70
     0
102
RTVSPropertyOp53
 70
     1
102
RTVSPropertyOp54
 70
     1
102
RTVSPropertyOp55
 70
     1
102
RTVSPropertyOp56
 70
     1
102
RTVSPropertyOp57
 70
     1
102
RTVSPropertyOp58
 70
     1
102
RTVSPropertyOp59
 70
     1
102
RTVSPropertyOp60
 70
     1
102
RTVSPropertyOp61
 70
     1
102
RTVSPropertyOp62
 70
     1
  0
XRECORD
  5
B9FB
102
{ACAD_REACTORS
330
B9FA
102
}
330
B9FA
100
AcDbXrecord
280
     1
102
RTVSPost2010Prop28
280
     0
102
RTVSPost2010PropOp28
 70
     1
102
RTVSPost2010Prop29
280
     1
102
RTVSPost2010PropOp29
 70
     1
102
RTVSPost2010Prop30
280
     1
102
RTVSPost2010PropOp30
 70
     1
102
RTVSPost2010Prop31
280
     0
102
RTVSPost2010PropOp31
 70
     1
102
RTVSPost2010Prop32
280
     0
102
RTVSPost2010PropOp32
 70
     1
102
RTVSPost2010Prop33
280
     0
102
RTVSPost2010PropOp33
 70
     1
102
RTVSPost2010Prop34
280
     0
102
RTVSPost2010PropOp34
 70
     1
102
RTVSPost2010Prop35
280
     0
102
RTVSPost2010PropOp35
 70
     1
102
RTVSPost2010Prop36
280
     0
102
RTVSPost2010PropOp36
 70
     1
102
RTVSPost2010Prop37
 90
       50
102
RTVSPost2010PropOp37
 70
     1
102
RTVSPost2010Prop38
140
0.0
102
RTVSPost2010PropOp38
 70
     1
102
RTVSPost2010Prop39
140
1.0
102
RTVSPost2010PropOp39
 70
     1
102
RTVSPost2010Prop40
 90
        0
102
RTVSPost2010PropOp40
 70
     1
102
RTVSPost2010Prop41ColorIndex
 90
       18
102
RTVSPost2010Prop41ColorRGB
 90
        0
102
RTVSPost2010PropOp41
 70
     1
102
RTVSPost2010Prop42
 90
       50
102
RTVSPost2010PropOp42
 70
     1
102
RTVSPost2010Prop43
 90
        3
102
RTVSPost2010PropOp43
 70
     1
102
RTVSPost2010Prop44ColorIndex
 90
        5
102
RTVSPost2010Prop44ColorRGB
 90
      255
102
RTVSPost2010PropOp44
 70
     1
102
RTVSPost2010Prop45
280
     0
102
RTVSPost2010PropOp45
 70
     1
102
RTVSPost2010Prop46
 90
       50
102
RTVSPost2010PropOp46
 70
     1
102
RTVSPost2010Prop47
 90
       50
102
RTVSPost2010PropOp47
 70
     1
102
RTVSPost2010Prop48
 90
       50
102
RTVSPost2010PropOp48
 70
     1
102
RTVSPost2010Prop49
280
     0
102
RTVSPost2010PropOp49
 70
     1
102
RTVSPost2010Prop50
 90
       50
102
RTVSPost2010PropOp50
 70
     1
102
RTVSPost2010Prop51ColorIndex
 90
      256
102
RTVSPost2010Prop51ColorRGB
 90
-16777216
102
RTVSPost2010PropOp51
 70
     0
102
RTVSPost2010Prop52
140
1.0
102
RTVSPost2010PropOp52
 70
     0
102
RTVSPost2010Prop53
 90
        2
102
RTVSPost2010PropOp53
 70
     1
102
RTVSPost2010Prop54
  1
strokes_ogs.tif
102
RTVSPost2010PropOp54
 70
     1
102
RTVSPost2010Prop55
280
     0
102
RTVSPost2010PropOp55
 70
     1
102
RTVSPost2010Prop56
140
1.0
102
RTVSPost2010PropOp56
 70
     1
102
RTVSPost2010Prop57
140
1.0
102
RTVSPost2010PropOp57
 70
     1
102
RTVSPropertyOp0
 70
     1
102
RTVSPropertyOp1
 70
     1
102
RTVSPropertyOp2
 70
     1
102
RTVSPropertyOp3
 70
     1
102
RTVSPropertyOp4
 70
     1
102
RTVSPropertyOp5
 70
     1
102
RTVSPropertyOp6
 70
     1
102
RTVSPropertyOp7
 70
     1
102
RTVSPropertyOp8
 70
     1
102
RTVSPropertyOp9
 70
     1
102
RTVSPropertyOp10
 70
     1
102
RTVSPropertyOp11
 70
     1
102
RTVSPropertyOp12
 70
     1
102
RTVSPropertyOp13
 70
     1
102
RTVSPropertyOp14
 70
     1
102
RTVSPropertyOp15
 70
     1
102
RTVSPropertyOp16
 70
     1
102
RTVSPropertyOp17
 70
     1
102
RTVSPropertyOp18
 70
     1
102
RTVSPropertyOp19
 70
     1
102
RTVSPropertyOp20
 70
     1
102
RTVSPropertyOp21
 70
     1
102
RTVSPropertyOp22
 70
     1
102
RTVSPropertyOp23
 70
     1
102
RTVSPropertyOp24
 70
     1
102
RTVSPropertyOp25
 70
     1
102
RTVSPropertyOp26
 70
     1
102
RTVSPropertyOp27
 70
     1
102
RTVSPropertyOp28
 70
     1
102
RTVSPropertyOp29
 70
     1
102
RTVSPropertyOp30
 70
     1
102
RTVSPropertyOp31
 70
     1
102
RTVSPropertyOp32
 70
     1
102
RTVSPropertyOp33
 70
     1
102
RTVSPropertyOp34
 70
     1
102
RTVSPropertyOp35
 70
     1
102
RTVSPropertyOp36
 70
     1
102
RTVSPropertyOp37
 70
     1
102
RTVSPropertyOp38
 70
     1
102
RTVSPropertyOp39
 70
     1
102
RTVSPropertyOp40
 70
     1
102
RTVSPropertyOp41
 70
     1
102
RTVSPropertyOp42
 70
     1
102
RTVSPropertyOp43
 70
     1
102
RTVSPropertyOp44
 70
     1
102
RTVSPropertyOp45
 70
     1
102
RTVSPropertyOp46
 70
     1
102
RTVSPropertyOp47
 70
     1
102
RTVSPropertyOp48
 70
     1
102
RTVSPropertyOp49
 70
     1
102
RTVSPropertyOp50
 70
     1
102
RTVSPropertyOp51
 70
     0
102
RTVSPropertyOp52
 70
     0
102
RTVSPropertyOp53
 70
     1
102
RTVSPropertyOp54
 70
     1
102
RTVSPropertyOp55
 70
     1
102
RTVSPropertyOp56
 70
     1
102
RTVSPropertyOp57
 70
     1
102
RTVSPropertyOp58
 70
     1
102
RTVSPropertyOp59
 70
     1
102
RTVSPropertyOp60
 70
     1
102
RTVSPropertyOp61
 70
     1
102
RTVSPropertyOp62
 70
     1
  0
XRECORD
  5
BA03
102
{ACAD_REACTORS
330
BA02
102
}
330
BA02
100
AcDbXrecord
280
     1
102
RTVSPost2010Prop28
280
     0
102
RTVSPost2010PropOp28
 70
     1
102
RTVSPost2010Prop29
280
     1
102
RTVSPost2010PropOp29
 70
     1
102
RTVSPost2010Prop30
280
     1
102
RTVSPost2010PropOp30
 70
     1
102
RTVSPost2010Prop31
280
     0
102
RTVSPost2010PropOp31
 70
     1
102
RTVSPost2010Prop32
280
     0
102
RTVSPost2010PropOp32
 70
     1
102
RTVSPost2010Prop33
280
     0
102
RTVSPost2010PropOp33
 70
     1
102
RTVSPost2010Prop34
280
     0
102
RTVSPost2010PropOp34
 70
     1
102
RTVSPost2010Prop35
280
     0
102
RTVSPost2010PropOp35
 70
     1
102
RTVSPost2010Prop36
280
     0
102
RTVSPost2010PropOp36
 70
     1
102
RTVSPost2010Prop37
 90
       50
102
RTVSPost2010PropOp37
 70
     1
102
RTVSPost2010Prop38
140
0.0
102
RTVSPost2010PropOp38
 70
     1
102
RTVSPost2010Prop39
140
1.0
102
RTVSPost2010PropOp39
 70
     1
102
RTVSPost2010Prop40
 90
        0
102
RTVSPost2010PropOp40
 70
     1
102
RTVSPost2010Prop41ColorIndex
 90
       18
102
RTVSPost2010Prop41ColorRGB
 90
        0
102
RTVSPost2010PropOp41
 70
     1
102
RTVSPost2010Prop42
 90
       50
102
RTVSPost2010PropOp42
 70
     1
102
RTVSPost2010Prop43
 90
        3
102
RTVSPost2010PropOp43
 70
     1
102
RTVSPost2010Prop44ColorIndex
 90
        5
102
RTVSPost2010Prop44ColorRGB
 90
      255
102
RTVSPost2010PropOp44
 70
     1
102
RTVSPost2010Prop45
280
     0
102
RTVSPost2010PropOp45
 70
     1
102
RTVSPost2010Prop46
 90
       50
102
RTVSPost2010PropOp46
 70
     1
102
RTVSPost2010Prop47
 90
       50
102
RTVSPost2010PropOp47
 70
     1
102
RTVSPost2010Prop48
 90
       50
102
RTVSPost2010PropOp48
 70
     1
102
RTVSPost2010Prop49
280
     0
102
RTVSPost2010PropOp49
 70
     1
102
RTVSPost2010Prop50
 90
       50
102
RTVSPost2010PropOp50
 70
     1
102
RTVSPost2010Prop51ColorIndex
 90
      256
102
RTVSPost2010Prop51ColorRGB
 90
-16777216
102
RTVSPost2010PropOp51
 70
     0
102
RTVSPost2010Prop52
140
1.0
102
RTVSPost2010PropOp52
 70
     0
102
RTVSPost2010Prop53
 90
        2
102
RTVSPost2010PropOp53
 70
     1
102
RTVSPost2010Prop54
  1
strokes_ogs.tif
102
RTVSPost2010PropOp54
 70
     1
102
RTVSPost2010Prop55
280
     0
102
RTVSPost2010PropOp55
 70
     1
102
RTVSPost2010Prop56
140
1.0
102
RTVSPost2010PropOp56
 70
     1
102
RTVSPost2010Prop57
140
1.0
102
RTVSPost2010PropOp57
 70
     1
102
RTVSPropertyOp0
 70
     1
102
RTVSPropertyOp1
 70
     1
102
RTVSPropertyOp2
 70
     1
102
RTVSPropertyOp3
 70
     1
102
RTVSPropertyOp4
 70
     1
102
RTVSPropertyOp5
 70
     1
102
RTVSPropertyOp6
 70
     1
102
RTVSPropertyOp7
 70
     1
102
RTVSPropertyOp8
 70
     1
102
RTVSPropertyOp9
 70
     1
102
RTVSPropertyOp10
 70
     1
102
RTVSPropertyOp11
 70
     1
102
RTVSPropertyOp12
 70
     1
102
RTVSPropertyOp13
 70
     1
102
RTVSPropertyOp14
 70
     1
102
RTVSPropertyOp15
 70
     1
102
RTVSPropertyOp16
 70
     1
102
RTVSPropertyOp17
 70
     1
102
RTVSPropertyOp18
 70
     1
102
RTVSPropertyOp19
 70
     1
102
RTVSPropertyOp20
 70
     1
102
RTVSPropertyOp21
 70
     1
102
RTVSPropertyOp22
 70
     1
102
RTVSPropertyOp23
 70
     1
102
RTVSPropertyOp24
 70
     1
102
RTVSPropertyOp25
 70
     1
102
RTVSPropertyOp26
 70
     1
102
RTVSPropertyOp27
 70
     1
102
RTVSPropertyOp28
 70
     1
102
RTVSPropertyOp29
 70
     1
102
RTVSPropertyOp30
 70
     1
102
RTVSPropertyOp31
 70
     1
102
RTVSPropertyOp32
 70
     1
102
RTVSPropertyOp33
 70
     1
102
RTVSPropertyOp34
 70
     1
102
RTVSPropertyOp35
 70
     1
102
RTVSPropertyOp36
 70
     1
102
RTVSPropertyOp37
 70
     1
102
RTVSPropertyOp38
 70
     1
102
RTVSPropertyOp39
 70
     1
102
RTVSPropertyOp40
 70
     1
102
RTVSPropertyOp41
 70
     1
102
RTVSPropertyOp42
 70
     1
102
RTVSPropertyOp43
 70
     1
102
RTVSPropertyOp44
 70
     1
102
RTVSPropertyOp45
 70
     1
102
RTVSPropertyOp46
 70
     1
102
RTVSPropertyOp47
 70
     1
102
RTVSPropertyOp48
 70
     1
102
RTVSPropertyOp49
 70
     1
102
RTVSPropertyOp50
 70
     1
102
RTVSPropertyOp51
 70
     0
102
RTVSPropertyOp52
 70
     0
102
RTVSPropertyOp53
 70
     1
102
RTVSPropertyOp54
 70
     1
102
RTVSPropertyOp55
 70
     1
102
RTVSPropertyOp56
 70
     1
102
RTVSPropertyOp57
 70
     1
102
RTVSPropertyOp58
 70
     1
102
RTVSPropertyOp59
 70
     1
102
RTVSPropertyOp60
 70
     1
102
RTVSPropertyOp61
 70
     1
102
RTVSPropertyOp62
 70
     1
  0
XRECORD
  5
BA1F
102
{ACAD_REACTORS
330
BA1E
102
}
330
BA1E
100
AcDbXrecord
280
     1
102
RTVSPost2010Prop28
280
     0
102
RTVSPost2010PropOp28
 70
     1
102
RTVSPost2010Prop29
280
     1
102
RTVSPost2010PropOp29
 70
     1
102
RTVSPost2010Prop30
280
     1
102
RTVSPost2010PropOp30
 70
     1
102
RTVSPost2010Prop31
280
     0
102
RTVSPost2010PropOp31
 70
     1
102
RTVSPost2010Prop32
280
     0
102
RTVSPost2010PropOp32
 70
     1
102
RTVSPost2010Prop33
280
     0
102
RTVSPost2010PropOp33
 70
     1
102
RTVSPost2010Prop34
280
     0
102
RTVSPost2010PropOp34
 70
     1
102
RTVSPost2010Prop35
280
     0
102
RTVSPost2010PropOp35
 70
     1
102
RTVSPost2010Prop36
280
     0
102
RTVSPost2010PropOp36
 70
     1
102
RTVSPost2010Prop37
 90
       50
102
RTVSPost2010PropOp37
 70
     0
102
RTVSPost2010Prop38
140
0.0
102
RTVSPost2010PropOp38
 70
     0
102
RTVSPost2010Prop39
140
1.0
102
RTVSPost2010PropOp39
 70
     0
102
RTVSPost2010Prop40
 90
        0
102
RTVSPost2010PropOp40
 70
     0
102
RTVSPost2010Prop41ColorIndex
 90
       18
102
RTVSPost2010Prop41ColorRGB
 90
        0
102
RTVSPost2010PropOp41
 70
     0
102
RTVSPost2010Prop42
 90
       50
102
RTVSPost2010PropOp42
 70
     0
102
RTVSPost2010Prop43
 90
        3
102
RTVSPost2010PropOp43
 70
     0
102
RTVSPost2010Prop44ColorIndex
 90
        5
102
RTVSPost2010Prop44ColorRGB
 90
      255
102
RTVSPost2010PropOp44
 70
     0
102
RTVSPost2010Prop45
280
     0
102
RTVSPost2010PropOp45
 70
     1
102
RTVSPost2010Prop46
 90
       50
102
RTVSPost2010PropOp46
 70
     0
102
RTVSPost2010Prop47
 90
       50
102
RTVSPost2010PropOp47
 70
     0
102
RTVSPost2010Prop48
 90
       50
102
RTVSPost2010PropOp48
 70
     0
102
RTVSPost2010Prop49
280
     0
102
RTVSPost2010PropOp49
 70
     1
102
RTVSPost2010Prop50
 90
       50
102
RTVSPost2010PropOp50
 70
     0
102
RTVSPost2010Prop51ColorIndex
 90
      256
102
RTVSPost2010Prop51ColorRGB
 90
-16777216
102
RTVSPost2010PropOp51
 70
     0
102
RTVSPost2010Prop52
140
1.0
102
RTVSPost2010PropOp52
 70
     0
102
RTVSPost2010Prop53
 90
        2
102
RTVSPost2010PropOp53
 70
     0
102
RTVSPost2010Prop54
  1
strokes_ogs.tif
102
RTVSPost2010PropOp54
 70
     0
102
RTVSPost2010Prop55
280
     0
102
RTVSPost2010PropOp55
 70
     1
102
RTVSPost2010Prop56
140
1.0
102
RTVSPost2010PropOp56
 70
     0
102
RTVSPost2010Prop57
140
1.0
102
RTVSPost2010PropOp57
 70
     0
102
RTVSPropertyOp0
 70
     0
102
RTVSPropertyOp1
 70
     0
102
RTVSPropertyOp2
 70
     0
102
RTVSPropertyOp3
 70
     0
102
RTVSPropertyOp4
 70
     0
102
RTVSPropertyOp5
 70
     0
102
RTVSPropertyOp6
 70
     0
102
RTVSPropertyOp7
 70
     0
102
RTVSPropertyOp8
 70
     0
102
RTVSPropertyOp9
 70
     0
102
RTVSPropertyOp10
 70
     0
102
RTVSPropertyOp11
 70
     0
102
RTVSPropertyOp12
 70
     0
102
RTVSPropertyOp13
 70
     0
102
RTVSPropertyOp14
 70
     2
102
RTVSPropertyOp15
 70
     0
102
RTVSPropertyOp16
 70
     0
102
RTVSPropertyOp17
 70
     0
102
RTVSPropertyOp18
 70
     0
102
RTVSPropertyOp19
 70
     0
102
RTVSPropertyOp20
 70
     0
102
RTVSPropertyOp21
 70
     0
102
RTVSPropertyOp22
 70
     0
102
RTVSPropertyOp23
 70
     0
102
RTVSPropertyOp24
 70
     0
102
RTVSPropertyOp25
 70
     0
102
RTVSPropertyOp26
 70
     0
102
RTVSPropertyOp27
 70
     0
102
RTVSPropertyOp28
 70
     1
102
RTVSPropertyOp29
 70
     1
102
RTVSPropertyOp30
 70
     1
102
RTVSPropertyOp31
 70
     1
102
RTVSPropertyOp32
 70
     1
102
RTVSPropertyOp33
 70
     1
102
RTVSPropertyOp34
 70
     1
102
RTVSPropertyOp35
 70
     1
102
RTVSPropertyOp36
 70
     1
102
RTVSPropertyOp37
 70
     0
102
RTVSPropertyOp38
 70
     0
102
RTVSPropertyOp39
 70
     0
102
RTVSPropertyOp40
 70
     0
102
RTVSPropertyOp41
 70
     0
102
RTVSPropertyOp42
 70
     0
102
RTVSPropertyOp43
 70
     0
102
RTVSPropertyOp44
 70
     0
102
RTVSPropertyOp45
 70
     1
102
RTVSPropertyOp46
 70
     0
102
RTVSPropertyOp47
 70
     0
102
RTVSPropertyOp48
 70
     0
102
RTVSPropertyOp49
 70
     1
102
RTVSPropertyOp50
 70
     0
102
RTVSPropertyOp51
 70
     0
102
RTVSPropertyOp52
 70
     0
102
RTVSPropertyOp53
 70
     0
102
RTVSPropertyOp54
 70
     0
102
RTVSPropertyOp55
 70
     1
102
RTVSPropertyOp56
 70
     0
102
RTVSPropertyOp57
 70
     0
102
RTVSPropertyOp58
 70
     0
102
RTVSPropertyOp59
 70
     0
102
RTVSPropertyOp60
 70
     0
102
RTVSPropertyOp61
 70
     0
102
RTVSPropertyOp62
 70
     0
  0
XRECORD
  5
BA0F
102
{ACAD_REACTORS
330
BA0E
102
}
330
BA0E
100
AcDbXrecord
280
     1
102
RTVSPost2010Prop28
280
     0
102
RTVSPost2010PropOp28
 70
     1
102
RTVSPost2010Prop29
280
     1
102
RTVSPost2010PropOp29
 70
     1
102
RTVSPost2010Prop30
280
     1
102
RTVSPost2010PropOp30
 70
     1
102
RTVSPost2010Prop31
280
     0
102
RTVSPost2010PropOp31
 70
     1
102
RTVSPost2010Prop32
280
     0
102
RTVSPost2010PropOp32
 70
     1
102
RTVSPost2010Prop33
280
     0
102
RTVSPost2010PropOp33
 70
     1
102
RTVSPost2010Prop34
280
     0
102
RTVSPost2010PropOp34
 70
     1
102
RTVSPost2010Prop35
280
     0
102
RTVSPost2010PropOp35
 70
     1
102
RTVSPost2010Prop36
280
     0
102
RTVSPost2010PropOp36
 70
     1
102
RTVSPost2010Prop37
 90
       50
102
RTVSPost2010PropOp37
 70
     1
102
RTVSPost2010Prop38
140
0.0
102
RTVSPost2010PropOp38
 70
     1
102
RTVSPost2010Prop39
140
1.0
102
RTVSPost2010PropOp39
 70
     1
102
RTVSPost2010Prop40
 90
        0
102
RTVSPost2010PropOp40
 70
     1
102
RTVSPost2010Prop41ColorIndex
 90
       18
102
RTVSPost2010Prop41ColorRGB
 90
        0
102
RTVSPost2010PropOp41
 70
     1
102
RTVSPost2010Prop42
 90
       50
102
RTVSPost2010PropOp42
 70
     1
102
RTVSPost2010Prop43
 90
        3
102
RTVSPost2010PropOp43
 70
     1
102
RTVSPost2010Prop44ColorIndex
 90
        5
102
RTVSPost2010Prop44ColorRGB
 90
      255
102
RTVSPost2010PropOp44
 70
     1
102
RTVSPost2010Prop45
280
     0
102
RTVSPost2010PropOp45
 70
     1
102
RTVSPost2010Prop46
 90
       50
102
RTVSPost2010PropOp46
 70
     1
102
RTVSPost2010Prop47
 90
       50
102
RTVSPost2010PropOp47
 70
     1
102
RTVSPost2010Prop48
 90
       50
102
RTVSPost2010PropOp48
 70
     1
102
RTVSPost2010Prop49
280
     0
102
RTVSPost2010PropOp49
 70
     1
102
RTVSPost2010Prop50
 90
       50
102
RTVSPost2010PropOp50
 70
     1
102
RTVSPost2010Prop51ColorIndex
 90
      256
102
RTVSPost2010Prop51ColorRGB
 90
-16777216
102
RTVSPost2010PropOp51
 70
     0
102
RTVSPost2010Prop52
140
1.0
102
RTVSPost2010PropOp52
 70
     0
102
RTVSPost2010Prop53
 90
        2
102
RTVSPost2010PropOp53
 70
     1
102
RTVSPost2010Prop54
  1
strokes_ogs.tif
102
RTVSPost2010PropOp54
 70
     1
102
RTVSPost2010Prop55
280
     0
102
RTVSPost2010PropOp55
 70
     1
102
RTVSPost2010Prop56
140
1.0
102
RTVSPost2010PropOp56
 70
     1
102
RTVSPost2010Prop57
140
1.0
102
RTVSPost2010PropOp57
 70
     1
102
RTVSPropertyOp0
 70
     1
102
RTVSPropertyOp1
 70
     1
102
RTVSPropertyOp2
 70
     1
102
RTVSPropertyOp3
 70
     1
102
RTVSPropertyOp4
 70
     1
102
RTVSPropertyOp5
 70
     1
102
RTVSPropertyOp6
 70
     1
102
RTVSPropertyOp7
 70
     1
102
RTVSPropertyOp8
 70
     1
102
RTVSPropertyOp9
 70
     1
102
RTVSPropertyOp10
 70
     1
102
RTVSPropertyOp11
 70
     1
102
RTVSPropertyOp12
 70
     1
102
RTVSPropertyOp13
 70
     1
102
RTVSPropertyOp14
 70
     1
102
RTVSPropertyOp15
 70
     1
102
RTVSPropertyOp16
 70
     1
102
RTVSPropertyOp17
 70
     1
102
RTVSPropertyOp18
 70
     1
102
RTVSPropertyOp19
 70
     1
102
RTVSPropertyOp20
 70
     1
102
RTVSPropertyOp21
 70
     1
102
RTVSPropertyOp22
 70
     1
102
RTVSPropertyOp23
 70
     1
102
RTVSPropertyOp24
 70
     1
102
RTVSPropertyOp25
 70
     1
102
RTVSPropertyOp26
 70
     1
102
RTVSPropertyOp27
 70
     1
102
RTVSPropertyOp28
 70
     1
102
RTVSPropertyOp29
 70
     1
102
RTVSPropertyOp30
 70
     1
102
RTVSPropertyOp31
 70
     1
102
RTVSPropertyOp32
 70
     1
102
RTVSPropertyOp33
 70
     1
102
RTVSPropertyOp34
 70
     1
102
RTVSPropertyOp35
 70
     1
102
RTVSPropertyOp36
 70
     1
102
RTVSPropertyOp37
 70
     1
102
RTVSPropertyOp38
 70
     1
102
RTVSPropertyOp39
 70
     1
102
RTVSPropertyOp40
 70
     1
102
RTVSPropertyOp41
 70
     1
102
RTVSPropertyOp42
 70
     1
102
RTVSPropertyOp43
 70
     1
102
RTVSPropertyOp44
 70
     1
102
RTVSPropertyOp45
 70
     1
102
RTVSPropertyOp46
 70
     1
102
RTVSPropertyOp47
 70
     1
102
RTVSPropertyOp48
 70
     1
102
RTVSPropertyOp49
 70
     1
102
RTVSPropertyOp50
 70
     1
102
RTVSPropertyOp51
 70
     0
102
RTVSPropertyOp52
 70
     0
102
RTVSPropertyOp53
 70
     1
102
RTVSPropertyOp54
 70
     1
102
RTVSPropertyOp55
 70
     1
102
RTVSPropertyOp56
 70
     1
102
RTVSPropertyOp57
 70
     1
102
RTVSPropertyOp58
 70
     1
102
RTVSPropertyOp59
 70
     1
102
RTVSPropertyOp60
 70
     1
102
RTVSPropertyOp61
 70
     1
102
RTVSPropertyOp62
 70
     1
  0
XRECORD
  5
BA21
102
{ACAD_REACTORS
330
BA20
102
}
330
BA20
100
AcDbXrecord
280
     1
102
RTVSPost2010Prop28
280
     0
102
RTVSPost2010PropOp28
 70
     1
102
RTVSPost2010Prop29
280
     1
102
RTVSPost2010PropOp29
 70
     1
102
RTVSPost2010Prop30
280
     1
102
RTVSPost2010PropOp30
 70
     1
102
RTVSPost2010Prop31
280
     0
102
RTVSPost2010PropOp31
 70
     1
102
RTVSPost2010Prop32
280
     0
102
RTVSPost2010PropOp32
 70
     1
102
RTVSPost2010Prop33
280
     0
102
RTVSPost2010PropOp33
 70
     1
102
RTVSPost2010Prop34
280
     0
102
RTVSPost2010PropOp34
 70
     1
102
RTVSPost2010Prop35
280
     0
102
RTVSPost2010PropOp35
 70
     1
102
RTVSPost2010Prop36
280
     0
102
RTVSPost2010PropOp36
 70
     1
102
RTVSPost2010Prop37
 90
       50
102
RTVSPost2010PropOp37
 70
     0
102
RTVSPost2010Prop38
140
0.0
102
RTVSPost2010PropOp38
 70
     0
102
RTVSPost2010Prop39
140
1.0
102
RTVSPost2010PropOp39
 70
     0
102
RTVSPost2010Prop40
 90
        0
102
RTVSPost2010PropOp40
 70
     0
102
RTVSPost2010Prop41ColorIndex
 90
       18
102
RTVSPost2010Prop41ColorRGB
 90
        0
102
RTVSPost2010PropOp41
 70
     0
102
RTVSPost2010Prop42
 90
       50
102
RTVSPost2010PropOp42
 70
     0
102
RTVSPost2010Prop43
 90
        3
102
RTVSPost2010PropOp43
 70
     0
102
RTVSPost2010Prop44ColorIndex
 90
        5
102
RTVSPost2010Prop44ColorRGB
 90
      255
102
RTVSPost2010PropOp44
 70
     0
102
RTVSPost2010Prop45
280
     0
102
RTVSPost2010PropOp45
 70
     1
102
RTVSPost2010Prop46
 90
       50
102
RTVSPost2010PropOp46
 70
     0
102
RTVSPost2010Prop47
 90
       50
102
RTVSPost2010PropOp47
 70
     0
102
RTVSPost2010Prop48
 90
       50
102
RTVSPost2010PropOp48
 70
     0
102
RTVSPost2010Prop49
280
     0
102
RTVSPost2010PropOp49
 70
     1
102
RTVSPost2010Prop50
 90
       50
102
RTVSPost2010PropOp50
 70
     0
102
RTVSPost2010Prop51ColorIndex
 90
      256
102
RTVSPost2010Prop51ColorRGB
 90
-16777216
102
RTVSPost2010PropOp51
 70
     0
102
RTVSPost2010Prop52
140
1.0
102
RTVSPost2010PropOp52
 70
     0
102
RTVSPost2010Prop53
 90
        2
102
RTVSPost2010PropOp53
 70
     0
102
RTVSPost2010Prop54
  1
strokes_ogs.tif
102
RTVSPost2010PropOp54
 70
     0
102
RTVSPost2010Prop55
280
     0
102
RTVSPost2010PropOp55
 70
     1
102
RTVSPost2010Prop56
140
1.0
102
RTVSPost2010PropOp56
 70
     0
102
RTVSPost2010Prop57
140
1.0
102
RTVSPost2010PropOp57
 70
     0
102
RTVSPropertyOp0
 70
     0
102
RTVSPropertyOp1
 70
     0
102
RTVSPropertyOp2
 70
     0
102
RTVSPropertyOp3
 70
     0
102
RTVSPropertyOp4
 70
     0
102
RTVSPropertyOp5
 70
     0
102
RTVSPropertyOp6
 70
     0
102
RTVSPropertyOp7
 70
     0
102
RTVSPropertyOp8
 70
     0
102
RTVSPropertyOp9
 70
     0
102
RTVSPropertyOp10
 70
     0
102
RTVSPropertyOp11
 70
     0
102
RTVSPropertyOp12
 70
     0
102
RTVSPropertyOp13
 70
     0
102
RTVSPropertyOp14
 70
     2
102
RTVSPropertyOp15
 70
     0
102
RTVSPropertyOp16
 70
     0
102
RTVSPropertyOp17
 70
     0
102
RTVSPropertyOp18
 70
     0
102
RTVSPropertyOp19
 70
     0
102
RTVSPropertyOp20
 70
     0
102
RTVSPropertyOp21
 70
     0
102
RTVSPropertyOp22
 70
     0
102
RTVSPropertyOp23
 70
     0
102
RTVSPropertyOp24
 70
     0
102
RTVSPropertyOp25
 70
     0
102
RTVSPropertyOp26
 70
     0
102
RTVSPropertyOp27
 70
     0
102
RTVSPropertyOp28
 70
     1
102
RTVSPropertyOp29
 70
     1
102
RTVSPropertyOp30
 70
     1
102
RTVSPropertyOp31
 70
     1
102
RTVSPropertyOp32
 70
     1
102
RTVSPropertyOp33
 70
     1
102
RTVSPropertyOp34
 70
     1
102
RTVSPropertyOp35
 70
     1
102
RTVSPropertyOp36
 70
     1
102
RTVSPropertyOp37
 70
     0
102
RTVSPropertyOp38
 70
     0
102
RTVSPropertyOp39
 70
     0
102
RTVSPropertyOp40
 70
     0
102
RTVSPropertyOp41
 70
     0
102
RTVSPropertyOp42
 70
     0
102
RTVSPropertyOp43
 70
     0
102
RTVSPropertyOp44
 70
     0
102
RTVSPropertyOp45
 70
     1
102
RTVSPropertyOp46
 70
     0
102
RTVSPropertyOp47
 70
     0
102
RTVSPropertyOp48
 70
     0
102
RTVSPropertyOp49
 70
     1
102
RTVSPropertyOp50
 70
     0
102
RTVSPropertyOp51
 70
     0
102
RTVSPropertyOp52
 70
     0
102
RTVSPropertyOp53
 70
     0
102
RTVSPropertyOp54
 70
     0
102
RTVSPropertyOp55
 70
     1
102
RTVSPropertyOp56
 70
     0
102
RTVSPropertyOp57
 70
     0
102
RTVSPropertyOp58
 70
     0
102
RTVSPropertyOp59
 70
     0
102
RTVSPropertyOp60
 70
     0
102
RTVSPropertyOp61
 70
     0
102
RTVSPropertyOp62
 70
     0
  0
XRECORD
  5
BA07
102
{ACAD_REACTORS
330
BA06
102
}
330
BA06
100
AcDbXrecord
280
     1
102
RTVSPost2010Prop28
280
     0
102
RTVSPost2010PropOp28
 70
     1
102
RTVSPost2010Prop29
280
     1
102
RTVSPost2010PropOp29
 70
     1
102
RTVSPost2010Prop30
280
     1
102
RTVSPost2010PropOp30
 70
     1
102
RTVSPost2010Prop31
280
     0
102
RTVSPost2010PropOp31
 70
     1
102
RTVSPost2010Prop32
280
     0
102
RTVSPost2010PropOp32
 70
     1
102
RTVSPost2010Prop33
280
     0
102
RTVSPost2010PropOp33
 70
     1
102
RTVSPost2010Prop34
280
     0
102
RTVSPost2010PropOp34
 70
     1
102
RTVSPost2010Prop35
280
     0
102
RTVSPost2010PropOp35
 70
     1
102
RTVSPost2010Prop36
280
     0
102
RTVSPost2010PropOp36
 70
     1
102
RTVSPost2010Prop37
 90
       50
102
RTVSPost2010PropOp37
 70
     1
102
RTVSPost2010Prop38
140
0.0
102
RTVSPost2010PropOp38
 70
     1
102
RTVSPost2010Prop39
140
1.0
102
RTVSPost2010PropOp39
 70
     1
102
RTVSPost2010Prop40
 90
        0
102
RTVSPost2010PropOp40
 70
     1
102
RTVSPost2010Prop41ColorIndex
 90
       18
102
RTVSPost2010Prop41ColorRGB
 90
        0
102
RTVSPost2010PropOp41
 70
     1
102
RTVSPost2010Prop42
 90
       50
102
RTVSPost2010PropOp42
 70
     1
102
RTVSPost2010Prop43
 90
        3
102
RTVSPost2010PropOp43
 70
     1
102
RTVSPost2010Prop44ColorIndex
 90
        5
102
RTVSPost2010Prop44ColorRGB
 90
      255
102
RTVSPost2010PropOp44
 70
     1
102
RTVSPost2010Prop45
280
     0
102
RTVSPost2010PropOp45
 70
     1
102
RTVSPost2010Prop46
 90
       50
102
RTVSPost2010PropOp46
 70
     1
102
RTVSPost2010Prop47
 90
       50
102
RTVSPost2010PropOp47
 70
     1
102
RTVSPost2010Prop48
 90
       50
102
RTVSPost2010PropOp48
 70
     1
102
RTVSPost2010Prop49
280
     0
102
RTVSPost2010PropOp49
 70
     1
102
RTVSPost2010Prop50
 90
       50
102
RTVSPost2010PropOp50
 70
     1
102
RTVSPost2010Prop51ColorIndex
 90
      256
102
RTVSPost2010Prop51ColorRGB
 90
-16777216
102
RTVSPost2010PropOp51
 70
     0
102
RTVSPost2010Prop52
140
1.0
102
RTVSPost2010PropOp52
 70
     0
102
RTVSPost2010Prop53
 90
        2
102
RTVSPost2010PropOp53
 70
     1
102
RTVSPost2010Prop54
  1
strokes_ogs.tif
102
RTVSPost2010PropOp54
 70
     1
102
RTVSPost2010Prop55
280
     0
102
RTVSPost2010PropOp55
 70
     1
102
RTVSPost2010Prop56
140
1.0
102
RTVSPost2010PropOp56
 70
     1
102
RTVSPost2010Prop57
140
1.0
102
RTVSPost2010PropOp57
 70
     1
102
RTVSPropertyOp0
 70
     1
102
RTVSPropertyOp1
 70
     1
102
RTVSPropertyOp2
 70
     1
102
RTVSPropertyOp3
 70
     1
102
RTVSPropertyOp4
 70
     1
102
RTVSPropertyOp5
 70
     1
102
RTVSPropertyOp6
 70
     1
102
RTVSPropertyOp7
 70
     1
102
RTVSPropertyOp8
 70
     1
102
RTVSPropertyOp9
 70
     1
102
RTVSPropertyOp10
 70
     1
102
RTVSPropertyOp11
 70
     1
102
RTVSPropertyOp12
 70
     1
102
RTVSPropertyOp13
 70
     1
102
RTVSPropertyOp14
 70
     1
102
RTVSPropertyOp15
 70
     1
102
RTVSPropertyOp16
 70
     1
102
RTVSPropertyOp17
 70
     1
102
RTVSPropertyOp18
 70
     1
102
RTVSPropertyOp19
 70
     1
102
RTVSPropertyOp20
 70
     1
102
RTVSPropertyOp21
 70
     1
102
RTVSPropertyOp22
 70
     1
102
RTVSPropertyOp23
 70
     1
102
RTVSPropertyOp24
 70
     1
102
RTVSPropertyOp25
 70
     1
102
RTVSPropertyOp26
 70
     1
102
RTVSPropertyOp27
 70
     1
102
RTVSPropertyOp28
 70
     1
102
RTVSPropertyOp29
 70
     1
102
RTVSPropertyOp30
 70
     1
102
RTVSPropertyOp31
 70
     1
102
RTVSPropertyOp32
 70
     1
102
RTVSPropertyOp33
 70
     1
102
RTVSPropertyOp34
 70
     1
102
RTVSPropertyOp35
 70
     1
102
RTVSPropertyOp36
 70
     1
102
RTVSPropertyOp37
 70
     1
102
RTVSPropertyOp38
 70
     1
102
RTVSPropertyOp39
 70
     1
102
RTVSPropertyOp40
 70
     1
102
RTVSPropertyOp41
 70
     1
102
RTVSPropertyOp42
 70
     1
102
RTVSPropertyOp43
 70
     1
102
RTVSPropertyOp44
 70
     1
102
RTVSPropertyOp45
 70
     1
102
RTVSPropertyOp46
 70
     1
102
RTVSPropertyOp47
 70
     1
102
RTVSPropertyOp48
 70
     1
102
RTVSPropertyOp49
 70
     1
102
RTVSPropertyOp50
 70
     1
102
RTVSPropertyOp51
 70
     0
102
RTVSPropertyOp52
 70
     0
102
RTVSPropertyOp53
 70
     1
102
RTVSPropertyOp54
 70
     1
102
RTVSPropertyOp55
 70
     1
102
RTVSPropertyOp56
 70
     1
102
RTVSPropertyOp57
 70
     1
102
RTVSPropertyOp58
 70
     1
102
RTVSPropertyOp59
 70
     1
102
RTVSPropertyOp60
 70
     1
102
RTVSPropertyOp61
 70
     1
102
RTVSPropertyOp62
 70
     1
  0
XRECORD
  5
BA1D
102
{ACAD_REACTORS
330
BA1C
102
}
330
BA1C
100
AcDbXrecord
280
     1
102
RTVSPost2010Prop28
280
     0
102
RTVSPost2010PropOp28
 70
     1
102
RTVSPost2010Prop29
280
     1
102
RTVSPost2010PropOp29
 70
     1
102
RTVSPost2010Prop30
280
     1
102
RTVSPost2010PropOp30
 70
     1
102
RTVSPost2010Prop31
280
     0
102
RTVSPost2010PropOp31
 70
     1
102
RTVSPost2010Prop32
280
     0
102
RTVSPost2010PropOp32
 70
     1
102
RTVSPost2010Prop33
280
     0
102
RTVSPost2010PropOp33
 70
     1
102
RTVSPost2010Prop34
280
     0
102
RTVSPost2010PropOp34
 70
     1
102
RTVSPost2010Prop35
280
     0
102
RTVSPost2010PropOp35
 70
     1
102
RTVSPost2010Prop36
280
     0
102
RTVSPost2010PropOp36
 70
     1
102
RTVSPost2010Prop37
 90
       50
102
RTVSPost2010PropOp37
 70
     1
102
RTVSPost2010Prop38
140
0.0
102
RTVSPost2010PropOp38
 70
     1
102
RTVSPost2010Prop39
140
1.0
102
RTVSPost2010PropOp39
 70
     1
102
RTVSPost2010Prop40
 90
        0
102
RTVSPost2010PropOp40
 70
     1
102
RTVSPost2010Prop41ColorIndex
 90
       18
102
RTVSPost2010Prop41ColorRGB
 90
        0
102
RTVSPost2010PropOp41
 70
     1
102
RTVSPost2010Prop42
 90
       50
102
RTVSPost2010PropOp42
 70
     1
102
RTVSPost2010Prop43
 90
        3
102
RTVSPost2010PropOp43
 70
     1
102
RTVSPost2010Prop44ColorIndex
 90
        5
102
RTVSPost2010Prop44ColorRGB
 90
      255
102
RTVSPost2010PropOp44
 70
     1
102
RTVSPost2010Prop45
280
     0
102
RTVSPost2010PropOp45
 70
     1
102
RTVSPost2010Prop46
 90
       50
102
RTVSPost2010PropOp46
 70
     1
102
RTVSPost2010Prop47
 90
       50
102
RTVSPost2010PropOp47
 70
     1
102
RTVSPost2010Prop48
 90
       50
102
RTVSPost2010PropOp48
 70
     1
102
RTVSPost2010Prop49
280
     0
102
RTVSPost2010PropOp49
 70
     1
102
RTVSPost2010Prop50
 90
       50
102
RTVSPost2010PropOp50
 70
     1
102
RTVSPost2010Prop51ColorIndex
 90
      256
102
RTVSPost2010Prop51ColorRGB
 90
-16777216
102
RTVSPost2010PropOp51
 70
     0
102
RTVSPost2010Prop52
140
1.0
102
RTVSPost2010PropOp52
 70
     0
102
RTVSPost2010Prop53
 90
        2
102
RTVSPost2010PropOp53
 70
     1
102
RTVSPost2010Prop54
  1
strokes_ogs.tif
102
RTVSPost2010PropOp54
 70
     1
102
RTVSPost2010Prop55
280
     0
102
RTVSPost2010PropOp55
 70
     1
102
RTVSPost2010Prop56
140
1.0
102
RTVSPost2010PropOp56
 70
     1
102
RTVSPost2010Prop57
140
1.0
102
RTVSPost2010PropOp57
 70
     1
102
RTVSPropertyOp0
 70
     1
102
RTVSPropertyOp1
 70
     1
102
RTVSPropertyOp2
 70
     1
102
RTVSPropertyOp3
 70
     1
102
RTVSPropertyOp4
 70
     1
102
RTVSPropertyOp5
 70
     1
102
RTVSPropertyOp6
 70
     1
102
RTVSPropertyOp7
 70
     1
102
RTVSPropertyOp8
 70
     1
102
RTVSPropertyOp9
 70
     1
102
RTVSPropertyOp10
 70
     1
102
RTVSPropertyOp11
 70
     1
102
RTVSPropertyOp12
 70
     1
102
RTVSPropertyOp13
 70
     1
102
RTVSPropertyOp14
 70
     1
102
RTVSPropertyOp15
 70
     1
102
RTVSPropertyOp16
 70
     1
102
RTVSPropertyOp17
 70
     1
102
RTVSPropertyOp18
 70
     1
102
RTVSPropertyOp19
 70
     1
102
RTVSPropertyOp20
 70
     1
102
RTVSPropertyOp21
 70
     1
102
RTVSPropertyOp22
 70
     1
102
RTVSPropertyOp23
 70
     1
102
RTVSPropertyOp24
 70
     1
102
RTVSPropertyOp25
 70
     1
102
RTVSPropertyOp26
 70
     1
102
RTVSPropertyOp27
 70
     1
102
RTVSPropertyOp28
 70
     1
102
RTVSPropertyOp29
 70
     1
102
RTVSPropertyOp30
 70
     1
102
RTVSPropertyOp31
 70
     1
102
RTVSPropertyOp32
 70
     1
102
RTVSPropertyOp33
 70
     1
102
RTVSPropertyOp34
 70
     1
102
RTVSPropertyOp35
 70
     1
102
RTVSPropertyOp36
 70
     1
102
RTVSPropertyOp37
 70
     1
102
RTVSPropertyOp38
 70
     1
102
RTVSPropertyOp39
 70
     1
102
RTVSPropertyOp40
 70
     1
102
RTVSPropertyOp41
 70
     1
102
RTVSPropertyOp42
 70
     1
102
RTVSPropertyOp43
 70
     1
102
RTVSPropertyOp44
 70
     1
102
RTVSPropertyOp45
 70
     1
102
RTVSPropertyOp46
 70
     1
102
RTVSPropertyOp47
 70
     1
102
RTVSPropertyOp48
 70
     1
102
RTVSPropertyOp49
 70
     1
102
RTVSPropertyOp50
 70
     1
102
RTVSPropertyOp51
 70
     0
102
RTVSPropertyOp52
 70
     0
102
RTVSPropertyOp53
 70
     1
102
RTVSPropertyOp54
 70
     1
102
RTVSPropertyOp55
 70
     1
102
RTVSPropertyOp56
 70
     1
102
RTVSPropertyOp57
 70
     1
102
RTVSPropertyOp58
 70
     1
102
RTVSPropertyOp59
 70
     1
102
RTVSPropertyOp60
 70
     1
102
RTVSPropertyOp61
 70
     1
102
RTVSPropertyOp62
 70
     1
  0
XRECORD
  5
BA1B
102
{ACAD_REACTORS
330
BA1A
102
}
330
BA1A
100
AcDbXrecord
280
     1
102
RTVSPost2010Prop28
280
     0
102
RTVSPost2010PropOp28
 70
     1
102
RTVSPost2010Prop29
280
     1
102
RTVSPost2010PropOp29
 70
     1
102
RTVSPost2010Prop30
280
     1
102
RTVSPost2010PropOp30
 70
     1
102
RTVSPost2010Prop31
280
     0
102
RTVSPost2010PropOp31
 70
     1
102
RTVSPost2010Prop32
280
     0
102
RTVSPost2010PropOp32
 70
     1
102
RTVSPost2010Prop33
280
     0
102
RTVSPost2010PropOp33
 70
     1
102
RTVSPost2010Prop34
280
     0
102
RTVSPost2010PropOp34
 70
     1
102
RTVSPost2010Prop35
280
     0
102
RTVSPost2010PropOp35
 70
     1
102
RTVSPost2010Prop36
280
     0
102
RTVSPost2010PropOp36
 70
     1
102
RTVSPost2010Prop37
 90
       50
102
RTVSPost2010PropOp37
 70
     1
102
RTVSPost2010Prop38
140
0.0
102
RTVSPost2010PropOp38
 70
     1
102
RTVSPost2010Prop39
140
1.0
102
RTVSPost2010PropOp39
 70
     1
102
RTVSPost2010Prop40
 90
        0
102
RTVSPost2010PropOp40
 70
     1
102
RTVSPost2010Prop41ColorIndex
 90
       18
102
RTVSPost2010Prop41ColorRGB
 90
        0
102
RTVSPost2010PropOp41
 70
     1
102
RTVSPost2010Prop42
 90
       50
102
RTVSPost2010PropOp42
 70
     1
102
RTVSPost2010Prop43
 90
        3
102
RTVSPost2010PropOp43
 70
     1
102
RTVSPost2010Prop44ColorIndex
 90
        5
102
RTVSPost2010Prop44ColorRGB
 90
      255
102
RTVSPost2010PropOp44
 70
     1
102
RTVSPost2010Prop45
280
     0
102
RTVSPost2010PropOp45
 70
     1
102
RTVSPost2010Prop46
 90
       50
102
RTVSPost2010PropOp46
 70
     1
102
RTVSPost2010Prop47
 90
       50
102
RTVSPost2010PropOp47
 70
     1
102
RTVSPost2010Prop48
 90
       50
102
RTVSPost2010PropOp48
 70
     1
102
RTVSPost2010Prop49
280
     0
102
RTVSPost2010PropOp49
 70
     1
102
RTVSPost2010Prop50
 90
       50
102
RTVSPost2010PropOp50
 70
     1
102
RTVSPost2010Prop51ColorIndex
 90
      256
102
RTVSPost2010Prop51ColorRGB
 90
-16777216
102
RTVSPost2010PropOp51
 70
     0
102
RTVSPost2010Prop52
140
1.0
102
RTVSPost2010PropOp52
 70
     0
102
RTVSPost2010Prop53
 90
        2
102
RTVSPost2010PropOp53
 70
     1
102
RTVSPost2010Prop54
  1
strokes_ogs.tif
102
RTVSPost2010PropOp54
 70
     1
102
RTVSPost2010Prop55
280
     0
102
RTVSPost2010PropOp55
 70
     1
102
RTVSPost2010Prop56
140
1.0
102
RTVSPost2010PropOp56
 70
     1
102
RTVSPost2010Prop57
140
1.0
102
RTVSPost2010PropOp57
 70
     1
102
RTVSPropertyOp0
 70
     1
102
RTVSPropertyOp1
 70
     1
102
RTVSPropertyOp2
 70
     1
102
RTVSPropertyOp3
 70
     1
102
RTVSPropertyOp4
 70
     1
102
RTVSPropertyOp5
 70
     1
102
RTVSPropertyOp6
 70
     1
102
RTVSPropertyOp7
 70
     1
102
RTVSPropertyOp8
 70
     1
102
RTVSPropertyOp9
 70
     1
102
RTVSPropertyOp10
 70
     1
102
RTVSPropertyOp11
 70
     1
102
RTVSPropertyOp12
 70
     1
102
RTVSPropertyOp13
 70
     1
102
RTVSPropertyOp14
 70
     1
102
RTVSPropertyOp15
 70
     1
102
RTVSPropertyOp16
 70
     1
102
RTVSPropertyOp17
 70
     1
102
RTVSPropertyOp18
 70
     1
102
RTVSPropertyOp19
 70
     1
102
RTVSPropertyOp20
 70
     1
102
RTVSPropertyOp21
 70
     1
102
RTVSPropertyOp22
 70
     1
102
RTVSPropertyOp23
 70
     1
102
RTVSPropertyOp24
 70
     1
102
RTVSPropertyOp25
 70
     1
102
RTVSPropertyOp26
 70
     1
102
RTVSPropertyOp27
 70
     1
102
RTVSPropertyOp28
 70
     1
102
RTVSPropertyOp29
 70
     1
102
RTVSPropertyOp30
 70
     1
102
RTVSPropertyOp31
 70
     1
102
RTVSPropertyOp32
 70
     1
102
RTVSPropertyOp33
 70
     1
102
RTVSPropertyOp34
 70
     1
102
RTVSPropertyOp35
 70
     1
102
RTVSPropertyOp36
 70
     1
102
RTVSPropertyOp37
 70
     1
102
RTVSPropertyOp38
 70
     1
102
RTVSPropertyOp39
 70
     1
102
RTVSPropertyOp40
 70
     1
102
RTVSPropertyOp41
 70
     1
102
RTVSPropertyOp42
 70
     1
102
RTVSPropertyOp43
 70
     1
102
RTVSPropertyOp44
 70
     1
102
RTVSPropertyOp45
 70
     1
102
RTVSPropertyOp46
 70
     1
102
RTVSPropertyOp47
 70
     1
102
RTVSPropertyOp48
 70
     1
102
RTVSPropertyOp49
 70
     1
102
RTVSPropertyOp50
 70
     1
102
RTVSPropertyOp51
 70
     0
102
RTVSPropertyOp52
 70
     0
102
RTVSPropertyOp53
 70
     1
102
RTVSPropertyOp54
 70
     1
102
RTVSPropertyOp55
 70
     1
102
RTVSPropertyOp56
 70
     1
102
RTVSPropertyOp57
 70
     1
102
RTVSPropertyOp58
 70
     1
102
RTVSPropertyOp59
 70
     1
102
RTVSPropertyOp60
 70
     1
102
RTVSPropertyOp61
 70
     1
102
RTVSPropertyOp62
 70
     1
  0
XRECORD
  5
BA15
102
{ACAD_REACTORS
330
BA14
102
}
330
BA14
100
AcDbXrecord
280
     1
102
RTVSPost2010Prop28
280
     0
102
RTVSPost2010PropOp28
 70
     1
102
RTVSPost2010Prop29
280
     1
102
RTVSPost2010PropOp29
 70
     1
102
RTVSPost2010Prop30
280
     1
102
RTVSPost2010PropOp30
 70
     1
102
RTVSPost2010Prop31
280
     0
102
RTVSPost2010PropOp31
 70
     1
102
RTVSPost2010Prop32
280
     0
102
RTVSPost2010PropOp32
 70
     1
102
RTVSPost2010Prop33
280
     0
102
RTVSPost2010PropOp33
 70
     1
102
RTVSPost2010Prop34
280
     0
102
RTVSPost2010PropOp34
 70
     1
102
RTVSPost2010Prop35
280
     0
102
RTVSPost2010PropOp35
 70
     1
102
RTVSPost2010Prop36
280
     0
102
RTVSPost2010PropOp36
 70
     1
102
RTVSPost2010Prop37
 90
       50
102
RTVSPost2010PropOp37
 70
     1
102
RTVSPost2010Prop38
140
0.0
102
RTVSPost2010PropOp38
 70
     1
102
RTVSPost2010Prop39
140
1.0
102
RTVSPost2010PropOp39
 70
     1
102
RTVSPost2010Prop40
 90
        0
102
RTVSPost2010PropOp40
 70
     1
102
RTVSPost2010Prop41ColorIndex
 90
       18
102
RTVSPost2010Prop41ColorRGB
 90
        0
102
RTVSPost2010PropOp41
 70
     1
102
RTVSPost2010Prop42
 90
       50
102
RTVSPost2010PropOp42
 70
     1
102
RTVSPost2010Prop43
 90
        3
102
RTVSPost2010PropOp43
 70
     1
102
RTVSPost2010Prop44ColorIndex
 90
        5
102
RTVSPost2010Prop44ColorRGB
 90
      255
102
RTVSPost2010PropOp44
 70
     1
102
RTVSPost2010Prop45
280
     0
102
RTVSPost2010PropOp45
 70
     1
102
RTVSPost2010Prop46
 90
       50
102
RTVSPost2010PropOp46
 70
     1
102
RTVSPost2010Prop47
 90
       50
102
RTVSPost2010PropOp47
 70
     1
102
RTVSPost2010Prop48
 90
       50
102
RTVSPost2010PropOp48
 70
     1
102
RTVSPost2010Prop49
280
     0
102
RTVSPost2010PropOp49
 70
     1
102
RTVSPost2010Prop50
 90
       50
102
RTVSPost2010PropOp50
 70
     1
102
RTVSPost2010Prop51ColorIndex
 90
      256
102
RTVSPost2010Prop51ColorRGB
 90
-16777216
102
RTVSPost2010PropOp51
 70
     0
102
RTVSPost2010Prop52
140
1.0
102
RTVSPost2010PropOp52
 70
     0
102
RTVSPost2010Prop53
 90
        2
102
RTVSPost2010PropOp53
 70
     1
102
RTVSPost2010Prop54
  1
strokes_ogs.tif
102
RTVSPost2010PropOp54
 70
     1
102
RTVSPost2010Prop55
280
     0
102
RTVSPost2010PropOp55
 70
     1
102
RTVSPost2010Prop56
140
1.0
102
RTVSPost2010PropOp56
 70
     1
102
RTVSPost2010Prop57
140
1.0
102
RTVSPost2010PropOp57
 70
     1
102
RTVSPropertyOp0
 70
     1
102
RTVSPropertyOp1
 70
     1
102
RTVSPropertyOp2
 70
     1
102
RTVSPropertyOp3
 70
     1
102
RTVSPropertyOp4
 70
     1
102
RTVSPropertyOp5
 70
     1
102
RTVSPropertyOp6
 70
     1
102
RTVSPropertyOp7
 70
     1
102
RTVSPropertyOp8
 70
     1
102
RTVSPropertyOp9
 70
     1
102
RTVSPropertyOp10
 70
     1
102
RTVSPropertyOp11
 70
     1
102
RTVSPropertyOp12
 70
     1
102
RTVSPropertyOp13
 70
     1
102
RTVSPropertyOp14
 70
     1
102
RTVSPropertyOp15
 70
     1
102
RTVSPropertyOp16
 70
     1
102
RTVSPropertyOp17
 70
     1
102
RTVSPropertyOp18
 70
     1
102
RTVSPropertyOp19
 70
     1
102
RTVSPropertyOp20
 70
     1
102
RTVSPropertyOp21
 70
     1
102
RTVSPropertyOp22
 70
     1
102
RTVSPropertyOp23
 70
     1
102
RTVSPropertyOp24
 70
     1
102
RTVSPropertyOp25
 70
     1
102
RTVSPropertyOp26
 70
     1
102
RTVSPropertyOp27
 70
     1
102
RTVSPropertyOp28
 70
     1
102
RTVSPropertyOp29
 70
     1
102
RTVSPropertyOp30
 70
     1
102
RTVSPropertyOp31
 70
     1
102
RTVSPropertyOp32
 70
     1
102
RTVSPropertyOp33
 70
     1
102
RTVSPropertyOp34
 70
     1
102
RTVSPropertyOp35
 70
     1
102
RTVSPropertyOp36
 70
     1
102
RTVSPropertyOp37
 70
     1
102
RTVSPropertyOp38
 70
     1
102
RTVSPropertyOp39
 70
     1
102
RTVSPropertyOp40
 70
     1
102
RTVSPropertyOp41
 70
     1
102
RTVSPropertyOp42
 70
     1
102
RTVSPropertyOp43
 70
     1
102
RTVSPropertyOp44
 70
     1
102
RTVSPropertyOp45
 70
     1
102
RTVSPropertyOp46
 70
     1
102
RTVSPropertyOp47
 70
     1
102
RTVSPropertyOp48
 70
     1
102
RTVSPropertyOp49
 70
     1
102
RTVSPropertyOp50
 70
     1
102
RTVSPropertyOp51
 70
     0
102
RTVSPropertyOp52
 70
     0
102
RTVSPropertyOp53
 70
     1
102
RTVSPropertyOp54
 70
     1
102
RTVSPropertyOp55
 70
     1
102
RTVSPropertyOp56
 70
     1
102
RTVSPropertyOp57
 70
     1
102
RTVSPropertyOp58
 70
     1
102
RTVSPropertyOp59
 70
     1
102
RTVSPropertyOp60
 70
     1
102
RTVSPropertyOp61
 70
     1
102
RTVSPropertyOp62
 70
     1
  0
XRECORD
  5
BA17
102
{ACAD_REACTORS
330
BA16
102
}
330
BA16
100
AcDbXrecord
280
     1
102
RTVSPost2010Prop28
280
     0
102
RTVSPost2010PropOp28
 70
     1
102
RTVSPost2010Prop29
280
     1
102
RTVSPost2010PropOp29
 70
     1
102
RTVSPost2010Prop30
280
     1
102
RTVSPost2010PropOp30
 70
     1
102
RTVSPost2010Prop31
280
     0
102
RTVSPost2010PropOp31
 70
     1
102
RTVSPost2010Prop32
280
     0
102
RTVSPost2010PropOp32
 70
     1
102
RTVSPost2010Prop33
280
     0
102
RTVSPost2010PropOp33
 70
     1
102
RTVSPost2010Prop34
280
     0
102
RTVSPost2010PropOp34
 70
     1
102
RTVSPost2010Prop35
280
     0
102
RTVSPost2010PropOp35
 70
     1
102
RTVSPost2010Prop36
280
     0
102
RTVSPost2010PropOp36
 70
     1
102
RTVSPost2010Prop37
 90
       50
102
RTVSPost2010PropOp37
 70
     1
102
RTVSPost2010Prop38
140
0.0
102
RTVSPost2010PropOp38
 70
     1
102
RTVSPost2010Prop39
140
1.0
102
RTVSPost2010PropOp39
 70
     1
102
RTVSPost2010Prop40
 90
        0
102
RTVSPost2010PropOp40
 70
     1
102
RTVSPost2010Prop41ColorIndex
 90
       18
102
RTVSPost2010Prop41ColorRGB
 90
        0
102
RTVSPost2010PropOp41
 70
     1
102
RTVSPost2010Prop42
 90
       50
102
RTVSPost2010PropOp42
 70
     1
102
RTVSPost2010Prop43
 90
        3
102
RTVSPost2010PropOp43
 70
     1
102
RTVSPost2010Prop44ColorIndex
 90
        5
102
RTVSPost2010Prop44ColorRGB
 90
      255
102
RTVSPost2010PropOp44
 70
     1
102
RTVSPost2010Prop45
280
     0
102
RTVSPost2010PropOp45
 70
     1
102
RTVSPost2010Prop46
 90
       50
102
RTVSPost2010PropOp46
 70
     1
102
RTVSPost2010Prop47
 90
       50
102
RTVSPost2010PropOp47
 70
     1
102
RTVSPost2010Prop48
 90
       50
102
RTVSPost2010PropOp48
 70
     1
102
RTVSPost2010Prop49
280
     0
102
RTVSPost2010PropOp49
 70
     1
102
RTVSPost2010Prop50
 90
       50
102
RTVSPost2010PropOp50
 70
     1
102
RTVSPost2010Prop51ColorIndex
 90
      256
102
RTVSPost2010Prop51ColorRGB
 90
-16777216
102
RTVSPost2010PropOp51
 70
     0
102
RTVSPost2010Prop52
140
1.0
102
RTVSPost2010PropOp52
 70
     0
102
RTVSPost2010Prop53
 90
        2
102
RTVSPost2010PropOp53
 70
     1
102
RTVSPost2010Prop54
  1
strokes_ogs.tif
102
RTVSPost2010PropOp54
 70
     1
102
RTVSPost2010Prop55
280
     0
102
RTVSPost2010PropOp55
 70
     1
102
RTVSPost2010Prop56
140
1.0
102
RTVSPost2010PropOp56
 70
     1
102
RTVSPost2010Prop57
140
1.0
102
RTVSPost2010PropOp57
 70
     1
102
RTVSPropertyOp0
 70
     1
102
RTVSPropertyOp1
 70
     1
102
RTVSPropertyOp2
 70
     1
102
RTVSPropertyOp3
 70
     1
102
RTVSPropertyOp4
 70
     1
102
RTVSPropertyOp5
 70
     1
102
RTVSPropertyOp6
 70
     1
102
RTVSPropertyOp7
 70
     1
102
RTVSPropertyOp8
 70
     1
102
RTVSPropertyOp9
 70
     1
102
RTVSPropertyOp10
 70
     1
102
RTVSPropertyOp11
 70
     1
102
RTVSPropertyOp12
 70
     1
102
RTVSPropertyOp13
 70
     1
102
RTVSPropertyOp14
 70
     1
102
RTVSPropertyOp15
 70
     1
102
RTVSPropertyOp16
 70
     1
102
RTVSPropertyOp17
 70
     1
102
RTVSPropertyOp18
 70
     1
102
RTVSPropertyOp19
 70
     1
102
RTVSPropertyOp20
 70
     1
102
RTVSPropertyOp21
 70
     1
102
RTVSPropertyOp22
 70
     1
102
RTVSPropertyOp23
 70
     1
102
RTVSPropertyOp24
 70
     1
102
RTVSPropertyOp25
 70
     1
102
RTVSPropertyOp26
 70
     1
102
RTVSPropertyOp27
 70
     1
102
RTVSPropertyOp28
 70
     1
102
RTVSPropertyOp29
 70
     1
102
RTVSPropertyOp30
 70
     1
102
RTVSPropertyOp31
 70
     1
102
RTVSPropertyOp32
 70
     1
102
RTVSPropertyOp33
 70
     1
102
RTVSPropertyOp34
 70
     1
102
RTVSPropertyOp35
 70
     1
102
RTVSPropertyOp36
 70
     1
102
RTVSPropertyOp37
 70
     1
102
RTVSPropertyOp38
 70
     1
102
RTVSPropertyOp39
 70
     1
102
RTVSPropertyOp40
 70
     1
102
RTVSPropertyOp41
 70
     1
102
RTVSPropertyOp42
 70
     1
102
RTVSPropertyOp43
 70
     1
102
RTVSPropertyOp44
 70
     1
102
RTVSPropertyOp45
 70
     1
102
RTVSPropertyOp46
 70
     1
102
RTVSPropertyOp47
 70
     1
102
RTVSPropertyOp48
 70
     1
102
RTVSPropertyOp49
 70
     1
102
RTVSPropertyOp50
 70
     1
102
RTVSPropertyOp51
 70
     0
102
RTVSPropertyOp52
 70
     0
102
RTVSPropertyOp53
 70
     1
102
RTVSPropertyOp54
 70
     1
102
RTVSPropertyOp55
 70
     1
102
RTVSPropertyOp56
 70
     1
102
RTVSPropertyOp57
 70
     1
102
RTVSPropertyOp58
 70
     1
102
RTVSPropertyOp59
 70
     1
102
RTVSPropertyOp60
 70
     1
102
RTVSPropertyOp61
 70
     1
102
RTVSPropertyOp62
 70
     1
  0
XRECORD
  5
BA0D
102
{ACAD_REACTORS
330
BA0C
102
}
330
BA0C
100
AcDbXrecord
280
     1
102
RTVSPost2010Prop28
280
     0
102
RTVSPost2010PropOp28
 70
     1
102
RTVSPost2010Prop29
280
     1
102
RTVSPost2010PropOp29
 70
     1
102
RTVSPost2010Prop30
280
     1
102
RTVSPost2010PropOp30
 70
     1
102
RTVSPost2010Prop31
280
     0
102
RTVSPost2010PropOp31
 70
     1
102
RTVSPost2010Prop32
280
     0
102
RTVSPost2010PropOp32
 70
     1
102
RTVSPost2010Prop33
280
     0
102
RTVSPost2010PropOp33
 70
     1
102
RTVSPost2010Prop34
280
     0
102
RTVSPost2010PropOp34
 70
     1
102
RTVSPost2010Prop35
280
     0
102
RTVSPost2010PropOp35
 70
     1
102
RTVSPost2010Prop36
280
     0
102
RTVSPost2010PropOp36
 70
     1
102
RTVSPost2010Prop37
 90
       50
102
RTVSPost2010PropOp37
 70
     1
102
RTVSPost2010Prop38
140
0.0
102
RTVSPost2010PropOp38
 70
     1
102
RTVSPost2010Prop39
140
1.0
102
RTVSPost2010PropOp39
 70
     1
102
RTVSPost2010Prop40
 90
        0
102
RTVSPost2010PropOp40
 70
     1
102
RTVSPost2010Prop41ColorIndex
 90
       18
102
RTVSPost2010Prop41ColorRGB
 90
        0
102
RTVSPost2010PropOp41
 70
     1
102
RTVSPost2010Prop42
 90
       50
102
RTVSPost2010PropOp42
 70
     1
102
RTVSPost2010Prop43
 90
        3
102
RTVSPost2010PropOp43
 70
     1
102
RTVSPost2010Prop44ColorIndex
 90
        5
102
RTVSPost2010Prop44ColorRGB
 90
      255
102
RTVSPost2010PropOp44
 70
     1
102
RTVSPost2010Prop45
280
     0
102
RTVSPost2010PropOp45
 70
     1
102
RTVSPost2010Prop46
 90
       50
102
RTVSPost2010PropOp46
 70
     1
102
RTVSPost2010Prop47
 90
       50
102
RTVSPost2010PropOp47
 70
     1
102
RTVSPost2010Prop48
 90
       50
102
RTVSPost2010PropOp48
 70
     1
102
RTVSPost2010Prop49
280
     0
102
RTVSPost2010PropOp49
 70
     1
102
RTVSPost2010Prop50
 90
       50
102
RTVSPost2010PropOp50
 70
     1
102
RTVSPost2010Prop51ColorIndex
 90
      256
102
RTVSPost2010Prop51ColorRGB
 90
-16777216
102
RTVSPost2010PropOp51
 70
     0
102
RTVSPost2010Prop52
140
1.0
102
RTVSPost2010PropOp52
 70
     0
102
RTVSPost2010Prop53
 90
        2
102
RTVSPost2010PropOp53
 70
     1
102
RTVSPost2010Prop54
  1
strokes_ogs.tif
102
RTVSPost2010PropOp54
 70
     1
102
RTVSPost2010Prop55
280
     0
102
RTVSPost2010PropOp55
 70
     1
102
RTVSPost2010Prop56
140
1.0
102
RTVSPost2010PropOp56
 70
     1
102
RTVSPost2010Prop57
140
1.0
102
RTVSPost2010PropOp57
 70
     1
102
RTVSPropertyOp0
 70
     1
102
RTVSPropertyOp1
 70
     1
102
RTVSPropertyOp2
 70
     1
102
RTVSPropertyOp3
 70
     1
102
RTVSPropertyOp4
 70
     1
102
RTVSPropertyOp5
 70
     1
102
RTVSPropertyOp6
 70
     1
102
RTVSPropertyOp7
 70
     1
102
RTVSPropertyOp8
 70
     1
102
RTVSPropertyOp9
 70
     1
102
RTVSPropertyOp10
 70
     1
102
RTVSPropertyOp11
 70
     1
102
RTVSPropertyOp12
 70
     1
102
RTVSPropertyOp13
 70
     1
102
RTVSPropertyOp14
 70
     1
102
RTVSPropertyOp15
 70
     1
102
RTVSPropertyOp16
 70
     1
102
RTVSPropertyOp17
 70
     1
102
RTVSPropertyOp18
 70
     1
102
RTVSPropertyOp19
 70
     1
102
RTVSPropertyOp20
 70
     1
102
RTVSPropertyOp21
 70
     1
102
RTVSPropertyOp22
 70
     1
102
RTVSPropertyOp23
 70
     1
102
RTVSPropertyOp24
 70
     1
102
RTVSPropertyOp25
 70
     1
102
RTVSPropertyOp26
 70
     1
102
RTVSPropertyOp27
 70
     1
102
RTVSPropertyOp28
 70
     1
102
RTVSPropertyOp29
 70
     1
102
RTVSPropertyOp30
 70
     1
102
RTVSPropertyOp31
 70
     1
102
RTVSPropertyOp32
 70
     1
102
RTVSPropertyOp33
 70
     1
102
RTVSPropertyOp34
 70
     1
102
RTVSPropertyOp35
 70
     1
102
RTVSPropertyOp36
 70
     1
102
RTVSPropertyOp37
 70
     1
102
RTVSPropertyOp38
 70
     1
102
RTVSPropertyOp39
 70
     1
102
RTVSPropertyOp40
 70
     1
102
RTVSPropertyOp41
 70
     1
102
RTVSPropertyOp42
 70
     1
102
RTVSPropertyOp43
 70
     1
102
RTVSPropertyOp44
 70
     1
102
RTVSPropertyOp45
 70
     1
102
RTVSPropertyOp46
 70
     1
102
RTVSPropertyOp47
 70
     1
102
RTVSPropertyOp48
 70
     1
102
RTVSPropertyOp49
 70
     1
102
RTVSPropertyOp50
 70
     1
102
RTVSPropertyOp51
 70
     0
102
RTVSPropertyOp52
 70
     0
102
RTVSPropertyOp53
 70
     1
102
RTVSPropertyOp54
 70
     1
102
RTVSPropertyOp55
 70
     1
102
RTVSPropertyOp56
 70
     1
102
RTVSPropertyOp57
 70
     1
102
RTVSPropertyOp58
 70
     1
102
RTVSPropertyOp59
 70
     1
102
RTVSPropertyOp60
 70
     1
102
RTVSPropertyOp61
 70
     1
102
RTVSPropertyOp62
 70
     1
  0
XRECORD
  5
BA01
102
{ACAD_REACTORS
330
BA00
102
}
330
BA00
100
AcDbXrecord
280
     1
102
RTVSPost2010Prop28
280
     0
102
RTVSPost2010PropOp28
 70
     1
102
RTVSPost2010Prop29
280
     1
102
RTVSPost2010PropOp29
 70
     1
102
RTVSPost2010Prop30
280
     1
102
RTVSPost2010PropOp30
 70
     1
102
RTVSPost2010Prop31
280
     0
102
RTVSPost2010PropOp31
 70
     1
102
RTVSPost2010Prop32
280
     0
102
RTVSPost2010PropOp32
 70
     1
102
RTVSPost2010Prop33
280
     0
102
RTVSPost2010PropOp33
 70
     1
102
RTVSPost2010Prop34
280
     0
102
RTVSPost2010PropOp34
 70
     1
102
RTVSPost2010Prop35
280
     0
102
RTVSPost2010PropOp35
 70
     1
102
RTVSPost2010Prop36
280
     0
102
RTVSPost2010PropOp36
 70
     1
102
RTVSPost2010Prop37
 90
       50
102
RTVSPost2010PropOp37
 70
     1
102
RTVSPost2010Prop38
140
0.0
102
RTVSPost2010PropOp38
 70
     1
102
RTVSPost2010Prop39
140
1.0
102
RTVSPost2010PropOp39
 70
     1
102
RTVSPost2010Prop40
 90
        0
102
RTVSPost2010PropOp40
 70
     1
102
RTVSPost2010Prop41ColorIndex
 90
       18
102
RTVSPost2010Prop41ColorRGB
 90
        0
102
RTVSPost2010PropOp41
 70
     1
102
RTVSPost2010Prop42
 90
       50
102
RTVSPost2010PropOp42
 70
     1
102
RTVSPost2010Prop43
 90
        3
102
RTVSPost2010PropOp43
 70
     1
102
RTVSPost2010Prop44ColorIndex
 90
        5
102
RTVSPost2010Prop44ColorRGB
 90
      255
102
RTVSPost2010PropOp44
 70
     1
102
RTVSPost2010Prop45
280
     0
102
RTVSPost2010PropOp45
 70
     1
102
RTVSPost2010Prop46
 90
       50
102
RTVSPost2010PropOp46
 70
     1
102
RTVSPost2010Prop47
 90
       50
102
RTVSPost2010PropOp47
 70
     1
102
RTVSPost2010Prop48
 90
       50
102
RTVSPost2010PropOp48
 70
     1
102
RTVSPost2010Prop49
280
     0
102
RTVSPost2010PropOp49
 70
     1
102
RTVSPost2010Prop50
 90
       50
102
RTVSPost2010PropOp50
 70
     1
102
RTVSPost2010Prop51ColorIndex
 90
      256
102
RTVSPost2010Prop51ColorRGB
 90
-16777216
102
RTVSPost2010PropOp51
 70
     0
102
RTVSPost2010Prop52
140
1.0
102
RTVSPost2010PropOp52
 70
     0
102
RTVSPost2010Prop53
 90
        2
102
RTVSPost2010PropOp53
 70
     1
102
RTVSPost2010Prop54
  1
strokes_ogs.tif
102
RTVSPost2010PropOp54
 70
     1
102
RTVSPost2010Prop55
280
     0
102
RTVSPost2010PropOp55
 70
     1
102
RTVSPost2010Prop56
140
1.0
102
RTVSPost2010PropOp56
 70
     1
102
RTVSPost2010Prop57
140
1.0
102
RTVSPost2010PropOp57
 70
     1
102
RTVSPropertyOp0
 70
     1
102
RTVSPropertyOp1
 70
     1
102
RTVSPropertyOp2
 70
     1
102
RTVSPropertyOp3
 70
     1
102
RTVSPropertyOp4
 70
     1
102
RTVSPropertyOp5
 70
     1
102
RTVSPropertyOp6
 70
     1
102
RTVSPropertyOp7
 70
     1
102
RTVSPropertyOp8
 70
     1
102
RTVSPropertyOp9
 70
     1
102
RTVSPropertyOp10
 70
     1
102
RTVSPropertyOp11
 70
     1
102
RTVSPropertyOp12
 70
     1
102
RTVSPropertyOp13
 70
     1
102
RTVSPropertyOp14
 70
     1
102
RTVSPropertyOp15
 70
     1
102
RTVSPropertyOp16
 70
     1
102
RTVSPropertyOp17
 70
     1
102
RTVSPropertyOp18
 70
     1
102
RTVSPropertyOp19
 70
     1
102
RTVSPropertyOp20
 70
     1
102
RTVSPropertyOp21
 70
     1
102
RTVSPropertyOp22
 70
     1
102
RTVSPropertyOp23
 70
     1
102
RTVSPropertyOp24
 70
     1
102
RTVSPropertyOp25
 70
     1
102
RTVSPropertyOp26
 70
     1
102
RTVSPropertyOp27
 70
     1
102
RTVSPropertyOp28
 70
     1
102
RTVSPropertyOp29
 70
     1
102
RTVSPropertyOp30
 70
     1
102
RTVSPropertyOp31
 70
     1
102
RTVSPropertyOp32
 70
     1
102
RTVSPropertyOp33
 70
     1
102
RTVSPropertyOp34
 70
     1
102
RTVSPropertyOp35
 70
     1
102
RTVSPropertyOp36
 70
     1
102
RTVSPropertyOp37
 70
     1
102
RTVSPropertyOp38
 70
     1
102
RTVSPropertyOp39
 70
     1
102
RTVSPropertyOp40
 70
     1
102
RTVSPropertyOp41
 70
     1
102
RTVSPropertyOp42
 70
     1
102
RTVSPropertyOp43
 70
     1
102
RTVSPropertyOp44
 70
     1
102
RTVSPropertyOp45
 70
     1
102
RTVSPropertyOp46
 70
     1
102
RTVSPropertyOp47
 70
     1
102
RTVSPropertyOp48
 70
     1
102
RTVSPropertyOp49
 70
     1
102
RTVSPropertyOp50
 70
     1
102
RTVSPropertyOp51
 70
     0
102
RTVSPropertyOp52
 70
     0
102
RTVSPropertyOp53
 70
     1
102
RTVSPropertyOp54
 70
     1
102
RTVSPropertyOp55
 70
     1
102
RTVSPropertyOp56
 70
     1
102
RTVSPropertyOp57
 70
     1
102
RTVSPropertyOp58
 70
     1
102
RTVSPropertyOp59
 70
     1
102
RTVSPropertyOp60
 70
     1
102
RTVSPropertyOp61
 70
     1
102
RTVSPropertyOp62
 70
     1
  0
XRECORD
  5
BA19
102
{ACAD_REACTORS
330
BA18
102
}
330
BA18
100
AcDbXrecord
280
     1
102
RTVSPost2010Prop28
280
     0
102
RTVSPost2010PropOp28
 70
     1
102
RTVSPost2010Prop29
280
     1
102
RTVSPost2010PropOp29
 70
     1
102
RTVSPost2010Prop30
280
     1
102
RTVSPost2010PropOp30
 70
     1
102
RTVSPost2010Prop31
280
     0
102
RTVSPost2010PropOp31
 70
     1
102
RTVSPost2010Prop32
280
     0
102
RTVSPost2010PropOp32
 70
     1
102
RTVSPost2010Prop33
280
     0
102
RTVSPost2010PropOp33
 70
     1
102
RTVSPost2010Prop34
280
     0
102
RTVSPost2010PropOp34
 70
     1
102
RTVSPost2010Prop35
280
     0
102
RTVSPost2010PropOp35
 70
     1
102
RTVSPost2010Prop36
280
     0
102
RTVSPost2010PropOp36
 70
     1
102
RTVSPost2010Prop37
 90
       50
102
RTVSPost2010PropOp37
 70
     1
102
RTVSPost2010Prop38
140
0.0
102
RTVSPost2010PropOp38
 70
     1
102
RTVSPost2010Prop39
140
1.0
102
RTVSPost2010PropOp39
 70
     1
102
RTVSPost2010Prop40
 90
        0
102
RTVSPost2010PropOp40
 70
     1
102
RTVSPost2010Prop41ColorIndex
 90
       18
102
RTVSPost2010Prop41ColorRGB
 90
        0
102
RTVSPost2010PropOp41
 70
     1
102
RTVSPost2010Prop42
 90
       50
102
RTVSPost2010PropOp42
 70
     1
102
RTVSPost2010Prop43
 90
        3
102
RTVSPost2010PropOp43
 70
     1
102
RTVSPost2010Prop44ColorIndex
 90
        5
102
RTVSPost2010Prop44ColorRGB
 90
      255
102
RTVSPost2010PropOp44
 70
     1
102
RTVSPost2010Prop45
280
     0
102
RTVSPost2010PropOp45
 70
     1
102
RTVSPost2010Prop46
 90
       50
102
RTVSPost2010PropOp46
 70
     1
102
RTVSPost2010Prop47
 90
       50
102
RTVSPost2010PropOp47
 70
     1
102
RTVSPost2010Prop48
 90
       50
102
RTVSPost2010PropOp48
 70
     1
102
RTVSPost2010Prop49
280
     0
102
RTVSPost2010PropOp49
 70
     1
102
RTVSPost2010Prop50
 90
       50
102
RTVSPost2010PropOp50
 70
     1
102
RTVSPost2010Prop51ColorIndex
 90
      256
102
RTVSPost2010Prop51ColorRGB
 90
-16777216
102
RTVSPost2010PropOp51
 70
     0
102
RTVSPost2010Prop52
140
1.0
102
RTVSPost2010PropOp52
 70
     0
102
RTVSPost2010Prop53
 90
        2
102
RTVSPost2010PropOp53
 70
     1
102
RTVSPost2010Prop54
  1
strokes_ogs.tif
102
RTVSPost2010PropOp54
 70
     1
102
RTVSPost2010Prop55
280
     0
102
RTVSPost2010PropOp55
 70
     1
102
RTVSPost2010Prop56
140
1.0
102
RTVSPost2010PropOp56
 70
     1
102
RTVSPost2010Prop57
140
1.0
102
RTVSPost2010PropOp57
 70
     1
102
RTVSPropertyOp0
 70
     1
102
RTVSPropertyOp1
 70
     1
102
RTVSPropertyOp2
 70
     1
102
RTVSPropertyOp3
 70
     1
102
RTVSPropertyOp4
 70
     1
102
RTVSPropertyOp5
 70
     1
102
RTVSPropertyOp6
 70
     1
102
RTVSPropertyOp7
 70
     1
102
RTVSPropertyOp8
 70
     1
102
RTVSPropertyOp9
 70
     1
102
RTVSPropertyOp10
 70
     1
102
RTVSPropertyOp11
 70
     1
102
RTVSPropertyOp12
 70
     1
102
RTVSPropertyOp13
 70
     1
102
RTVSPropertyOp14
 70
     1
102
RTVSPropertyOp15
 70
     1
102
RTVSPropertyOp16
 70
     1
102
RTVSPropertyOp17
 70
     1
102
RTVSPropertyOp18
 70
     1
102
RTVSPropertyOp19
 70
     1
102
RTVSPropertyOp20
 70
     1
102
RTVSPropertyOp21
 70
     1
102
RTVSPropertyOp22
 70
     1
102
RTVSPropertyOp23
 70
     1
102
RTVSPropertyOp24
 70
     1
102
RTVSPropertyOp25
 70
     1
102
RTVSPropertyOp26
 70
     1
102
RTVSPropertyOp27
 70
     1
102
RTVSPropertyOp28
 70
     1
102
RTVSPropertyOp29
 70
     1
102
RTVSPropertyOp30
 70
     1
102
RTVSPropertyOp31
 70
     1
102
RTVSPropertyOp32
 70
     1
102
RTVSPropertyOp33
 70
     1
102
RTVSPropertyOp34
 70
     1
102
RTVSPropertyOp35
 70
     1
102
RTVSPropertyOp36
 70
     1
102
RTVSPropertyOp37
 70
     1
102
RTVSPropertyOp38
 70
     1
102
RTVSPropertyOp39
 70
     1
102
RTVSPropertyOp40
 70
     1
102
RTVSPropertyOp41
 70
     1
102
RTVSPropertyOp42
 70
     1
102
RTVSPropertyOp43
 70
     1
102
RTVSPropertyOp44
 70
     1
102
RTVSPropertyOp45
 70
     1
102
RTVSPropertyOp46
 70
     1
102
RTVSPropertyOp47
 70
     1
102
RTVSPropertyOp48
 70
     1
102
RTVSPropertyOp49
 70
     1
102
RTVSPropertyOp50
 70
     1
102
RTVSPropertyOp51
 70
     0
102
RTVSPropertyOp52
 70
     0
102
RTVSPropertyOp53
 70
     1
102
RTVSPropertyOp54
 70
     1
102
RTVSPropertyOp55
 70
     1
102
RTVSPropertyOp56
 70
     1
102
RTVSPropertyOp57
 70
     1
102
RTVSPropertyOp58
 70
     1
102
RTVSPropertyOp59
 70
     1
102
RTVSPropertyOp60
 70
     1
102
RTVSPropertyOp61
 70
     1
102
RTVSPropertyOp62
 70
     1
  0
ENDSEC
  0
EOF
