  0
SECTION
  2
HEADER
  9
$ACADVER
  1
AC1015
  9
$ACADMAINTVER
 70
    20
  9
$DWGCODEPAGE
  3
ANSI_932
  9
$INSBASE
 10
0.0
 20
0.0
 30
0.0
  9
$EXTMIN
 10
10.0
 20
9.999999999999998
 30
0.0
  9
$EXTMAX
 10
443.9947359999998
 20
371.6706459999999
 30
0.0
  9
$LIMMIN
 10
0.0
 20
0.0
  9
$LIMMAX
 10
565.3084730000001
 20
389.720235
  9
$ORTHOMODE
 70
     1
  9
$REGENMODE
 70
     1
  9
$FILLMODE
 70
     1
  9
$QTEXTMODE
 70
     0
  9
$MIRRTEXT
 70
     1
  9
$LTSCALE
 40
20.0
  9
$ATTMODE
 70
     1
  9
$TEXTSIZE
 40
5.0
  9
$TRACEWID
 40
1.0
  9
$TEXTSTYLE
  7
STANDARD
  9
$CLAYER
  8
0
  9
$CELTYPE
  6
BYLAYER
  9
$CECOLOR
 62
   256
  9
$CELTSCALE
 40
1.0
  9
$DISPSILH
 70
     0
  9
$DIMSCALE
 40
1.0
  9
$DIMASZ
 40
3.0
  9
$DIMEXO
 40
1.0
  9
$DIMDLI
 40
10.0
  9
$DIMRND
 40
0.0
  9
$DIMDLE
 40
0.0
  9
$DIMEXE
 40
1.0
  9
$DIMTP
 40
0.0
  9
$DIMTM
 40
0.0
  9
$DIMTXT
 40
3.2
  9
$DIMCEN
 40
0.0
  9
$DIMTSZ
 40
0.0
  9
$DIMTOL
 70
     0
  9
$DIMLIM
 70
     0
  9
$DIMTIH
 70
     0
  9
$DIMTOH
 70
     0
  9
$DIMSE1
 70
     0
  9
$DIMSE2
 70
     0
  9
$DIMTAD
 70
     3
  9
$DIMZIN
 70
     8
  9
$DIMBLK
  1

  9
$DIMASO
 70
     1
  9
$DIMSHO
 70
     1
  9
$DIMPOST
  1

  9
$DIMAPOST
  1

  9
$DIMALT
 70
     0
  9
$DIMALTD
 70
     2
  9
$DIMALTF
 40
25.4
  9
$DIMLFAC
 40
1.0
  9
$DIMTOFL
 70
     1
  9
$DIMTVP
 40
0.0
  9
$DIMTIX
 70
     0
  9
$DIMSOXD
 70
     0
  9
$DIMSAH
 70
     1
  9
$DIMBLK1
  1
OPEN
  9
$DIMBLK2
  1
OPEN
  9
$DIMSTYLE
  2
STANDARD
  9
$DIMCLRD
 70
     0
  9
$DIMCLRE
 70
     0
  9
$DIMCLRT
 70
     0
  9
$DIMTFAC
 40
1.0
  9
$DIMGAP
 40
1.0
  9
$DIMJUST
 70
     0
  9
$DIMSD1
 70
     0
  9
$DIMSD2
 70
     0
  9
$DIMTOLJ
 70
     1
  9
$DIMTZIN
 70
     0
  9
$DIMALTZ
 70
     0
  9
$DIMALTTZ
 70
     0
  9
$DIMUPT
 70
     0
  9
$DIMDEC
 70
     4
  9
$DIMTDEC
 70
     4
  9
$DIMALTU
 70
     2
  9
$DIMALTTD
 70
     2
  9
$DIMTXSTY
  7
STANDARD
  9
$DIMAUNIT
 70
     0
  9
$DIMADEC
 70
     0
  9
$DIMALTRND
 40
0.0
  9
$DIMAZIN
 70
     0
  9
$DIMDSEP
 70
    46
  9
$DIMATFIT
 70
     3
  9
$DIMFRAC
 70
     0
  9
$DIMLDRBLK
  1
OPEN
  9
$DIMLUNIT
 70
     2
  9
$DIMLWD
 70
    -2
  9
$DIMLWE
 70
    -2
  9
$DIMTMOVE
 70
     0
  9
$LUNITS
 70
     2
  9
$LUPREC
 70
     4
  9
$SKETCHINC
 40
1.0
  9
$FILLETRAD
 40
18.0
  9
$AUNITS
 70
     0
  9
$AUPREC
 70
     2
  9
$MENU
  1
.
  9
$ELEVATION
 40
0.0
  9
$PELEVATION
 40
0.0
  9
$THICKNESS
 40
0.0
  9
$LIMCHECK
 70
     0
  9
$CHAMFERA
 40
10.0
  9
$CHAMFERB
 40
10.0
  9
$CHAMFERC
 40
0.0
  9
$CHAMFERD
 40
0.0
  9
$SKPOLY
 70
     0
  9
$TDCREATE
 40
2451301.561374074
  9
$TDUCREATE
 40
2451301.186374074
  9
$TDUPDATE
 40
2457192.687730567
  9
$TDUUPDATE
 40
2457192.312730567
  9
$TDINDWG
 40
0.0000113310
  9
$TDUSRTIMER
 40
0.0000110185
  9
$USRTIMER
 70
     1
  9
$ANGBASE
 50
0.0
  9
$ANGDIR
 70
     0
  9
$PDMODE
 70
     0
  9
$PDSIZE
 40
0.0
  9
$PLINEWID
 40
0.0
  9
$SPLFRAME
 70
     0
  9
$SPLINETYPE
 70
     6
  9
$SPLINESEGS
 70
     8
  9
$HANDSEED
  5
AAB5
  9
$SURFTAB1
 70
     6
  9
$SURFTAB2
 70
     6
  9
$SURFTYPE
 70
     6
  9
$SURFU
 70
     6
  9
$SURFV
 70
     6
  9
$UCSBASE
  2

  9
$UCSNAME
  2

  9
$UCSORG
 10
0.0
 20
0.0
 30
0.0
  9
$UCSXDIR
 10
1.0
 20
0.0
 30
0.0
  9
$UCSYDIR
 10
0.0
 20
1.0
 30
0.0
  9
$UCSORTHOREF
  2

  9
$UCSORTHOVIEW
 70
     0
  9
$UCSORGTOP
 10
0.0
 20
0.0
 30
0.0
  9
$UCSORGBOTTOM
 10
0.0
 20
0.0
 30
0.0
  9
$UCSORGLEFT
 10
0.0
 20
0.0
 30
0.0
  9
$UCSORGRIGHT
 10
0.0
 20
0.0
 30
0.0
  9
$UCSORGFRONT
 10
0.0
 20
0.0
 30
0.0
  9
$UCSORGBACK
 10
0.0
 20
0.0
 30
0.0
  9
$PUCSBASE
  2

  9
$PUCSNAME
  2

  9
$PUCSORG
 10
0.0
 20
0.0
 30
0.0
  9
$PUCSXDIR
 10
1.0
 20
0.0
 30
0.0
  9
$PUCSYDIR
 10
0.0
 20
1.0
 30
0.0
  9
$PUCSORTHOREF
  2

  9
$PUCSORTHOVIEW
 70
     0
  9
$PUCSORGTOP
 10
0.0
 20
0.0
 30
0.0
  9
$PUCSORGBOTTOM
 10
0.0
 20
0.0
 30
0.0
  9
$PUCSORGLEFT
 10
0.0
 20
0.0
 30
0.0
  9
$PUCSORGRIGHT
 10
0.0
 20
0.0
 30
0.0
  9
$PUCSORGFRONT
 10
0.0
 20
0.0
 30
0.0
  9
$PUCSORGBACK
 10
0.0
 20
0.0
 30
0.0
  9
$USERI1
 70
     0
  9
$USERI2
 70
     0
  9
$USERI3
 70
     0
  9
$USERI4
 70
     0
  9
$USERI5
 70
     0
  9
$USERR1
 40
0.0
  9
$USERR2
 40
0.0
  9
$USERR3
 40
0.0
  9
$USERR4
 40
0.0
  9
$USERR5
 40
0.0
  9
$WORLDVIEW
 70
     1
  9
$SHADEDGE
 70
     3
  9
$SHADEDIF
 70
    70
  9
$TILEMODE
 70
     1
  9
$MAXACTVP
 70
    16
  9
$PINSBASE
 10
0.0
 20
0.0
 30
0.0
  9
$PLIMCHECK
 70
     0
  9
$PEXTMIN
 10
1.000000000000000E+20
 20
1.000000000000000E+20
 30
1.000000000000000E+20
  9
$PEXTMAX
 10
-1.000000000000000E+20
 20
-1.000000000000000E+20
 30
-1.000000000000000E+20
  9
$PLIMMIN
 10
0.0
 20
0.0
  9
$PLIMMAX
 10
420.0
 20
297.0
  9
$UNITMODE
 70
     0
  9
$VISRETAIN
 70
     0
  9
$PLINEGEN
 70
     0
  9
$PSLTSCALE
 70
     0
  9
$TREEDEPTH
 70
  3020
  9
$CMLSTYLE
  2
STANDARD
  9
$CMLJUST
 70
     0
  9
$CMLSCALE
 40
1.0
  9
$PROXYGRAPHICS
 70
     1
  9
$MEASUREMENT
 70
     0
  9
$CELWEIGHT
370
    -1
  9
$ENDCAPS
280
     0
  9
$JOINSTYLE
280
     0
  9
$LWDISPLAY
290
     0
  9
$INSUNITS
 70
     0
  9
$HYPERLINKBASE
  1

  9
$STYLESHEET
  1

  9
$XEDIT
290
     1
  9
$CEPSNTYPE
380
     0
  9
$PSTYLEMODE
290
     1
  9
$FINGERPRINTGUID
  2
{85F1D3BF-4F6B-46E4-A8FC-510D32645DA4}
  9
$VERSIONGUID
  2
{383646B3-AFA7-49F7-965E-70E7DA318C45}
  9
$EXTNAMES
290
     1
  9
$PSVPSCALE
 40
0.0
  9
$OLESTARTUP
290
     0
  0
ENDSEC
  0
SECTION
  2
CLASSES
  0
CLASS
  1
ACDBDICTIONARYWDFLT
  2
AcDbDictionaryWithDefault
  3
ObjectDBX Classes
 90
        0
280
     0
281
     0
  0
CLASS
  1
ACDBPLACEHOLDER
  2
AcDbPlaceHolder
  3
ObjectDBX Classes
 90
        0
280
     0
281
     0
  0
CLASS
  1
LAYOUT
  2
AcDbLayout
  3
ObjectDBX Classes
 90
        0
280
     0
281
     0
  0
CLASS
  1
DICTIONARYVAR
  2
AcDbDictionaryVar
  3
ObjectDBX Classes
 90
        0
280
     0
281
     0
  0
CLASS
  1
MATERIAL
  2
AcDbMaterial
  3
ObjectDBX Classes
 90
     1153
280
     0
281
     0
  0
CLASS
  1
VISUALSTYLE
  2
AcDbVisualStyle
  3
ObjectDBX Classes
 90
     4095
280
     0
281
     0
  0
CLASS
  1
TABLESTYLE
  2
AcDbTableStyle
  3
ObjectDBX Classes
 90
     4095
280
     0
281
     0
  0
CLASS
  1
SCALE
  2
AcDbScale
  3
ObjectDBX Classes
 90
     1153
280
     0
281
     0
  0
CLASS
  1
MLEADERSTYLE
  2
AcDbMLeaderStyle
  3
ACDB_MLEADERSTYLE_CLASS
 90
     4095
280
     0
281
     0
  0
CLASS
  1
ACDBSECTIONVIEWSTYLE
  2
AcDbSectionViewStyle
  3
ObjectDBX Classes
 90
     1025
280
     0
281
     0
  0
CLASS
  1
ACDBDETAILVIEWSTYLE
  2
AcDbDetailViewStyle
  3
ObjectDBX Classes
 90
     1025
280
     0
281
     0
  0
CLASS
  1
CELLSTYLEMAP
  2
AcDbCellStyleMap
  3
ObjectDBX Classes
 90
     1152
280
     0
281
     0
  0
ENDSEC
  0
SECTION
  2
TABLES
  0
TABLE
  2
VPORT
  5
A739
330
0
100
AcDbSymbolTable
 70
     1
  0
VPORT
  5
A9FE
330
A739
100
AcDbSymbolTableRecord
100
AcDbViewportTableRecord
  2
*ACTIVE
 70
     0
 10
0.0
 20
0.0
 11
1.0
 21
1.0
 12
336.5495480997157
 22
190.8312570255539
 13
0.0
 23
0.0
 14
10.0
 24
10.0
 15
10.0
 25
10.0
 16
0.0
 26
0.0
 36
1.0
 17
0.0
 27
0.0
 37
0.0
 40
365.7022712149426
 41
2.35006605019815
 42
50.0
 43
0.0
 44
0.0
 50
0.0
 51
0.0
 71
     0
 72
   100
 73
     1
 74
     0
 75
     0
 76
     0
 77
     0
 78
     0
281
     0
 65
     1
110
0.0
120
0.0
130
0.0
111
1.0
121
0.0
131
0.0
112
0.0
122
1.0
132
0.0
 79
     0
146
0.0
1001
ACAD_NAV_VCDISPLAY
1070
     3
  0
ENDTAB
  0
TABLE
  2
LTYPE
  5
A736
330
0
100
AcDbSymbolTable
 70
     4
  0
LTYPE
  5
A744
330
A736
100
AcDbSymbolTableRecord
100
AcDbLinetypeTableRecord
  2
BYBLOCK
 70
     0
  3

 72
    65
 73
     0
 40
0.0
  0
LTYPE
  5
A745
330
A736
100
AcDbSymbolTableRecord
100
AcDbLinetypeTableRecord
  2
BYLAYER
 70
     0
  3

 72
    65
 73
     0
 40
0.0
  0
LTYPE
  5
A746
330
A736
100
AcDbSymbolTableRecord
100
AcDbLinetypeTableRecord
  2
CONTINUOUS
 70
     0
  3
Solid line
 72
    65
 73
     0
 40
0.0
  0
LTYPE
  5
A754
330
A736
100
AcDbSymbolTableRecord
100
AcDbLinetypeTableRecord
  2
DASHED
 70
     0
  3
__ __ __ __ __ __ __ __ __ __ __ __ __ __ __ __
 72
    65
 73
     2
 40
0.75
 49
0.5
 74
     0
 49
-0.25
 74
     0
  0
LTYPE
  5
A755
330
A736
100
AcDbSymbolTableRecord
100
AcDbLinetypeTableRecord
  2
CENTER
 70
     0
  3
____ _ ____ _ ____ _ ____ _ ____ _ ____ _ ____ 
 72
    65
 73
     4
 40
2.0
 49
1.25
 74
     0
 49
-0.25
 74
     0
 49
0.25
 74
     0
 49
-0.25
 74
     0
  0
LTYPE
  5
A756
330
A736
100
AcDbSymbolTableRecord
100
AcDbLinetypeTableRecord
  2
PHANTOM
 70
     0
  3
______  __  __  ______  __  __  ______  __  __ 
 72
    65
 73
     6
 40
2.5
 49
1.25
 74
     0
 49
-0.25
 74
     0
 49
0.25
 74
     0
 49
-0.25
 74
     0
 49
0.25
 74
     0
 49
-0.25
 74
     0
  0
ENDTAB
  0
TABLE
  2
LAYER
  5
A733
330
0
100
AcDbSymbolTable
 70
     8
  0
LAYER
  5
A741
102
{ACAD_XDICTIONARY
360
AA59
102
}
330
A733
100
AcDbSymbolTableRecord
100
AcDbLayerTableRecord
  2
0
 70
     0
 62
     7
  6
CONTINUOUS
370
    -3
390
AA07
  0
LAYER
  5
A757
102
{ACAD_XDICTIONARY
360
AA5B
102
}
330
A733
100
AcDbSymbolTableRecord
100
AcDbLayerTableRecord
  2
4
 70
     0
 62
     1
  6
CENTER
370
    -3
390
AA07
  0
LAYER
  5
A758
102
{ACAD_XDICTIONARY
360
AA5D
102
}
330
A733
100
AcDbSymbolTableRecord
100
AcDbLayerTableRecord
  2
5
 70
     0
 62
     6
  6
PHANTOM
370
    -3
390
AA07
  0
LAYER
  5
A759
102
{ACAD_XDICTIONARY
360
AA5F
102
}
330
A733
100
AcDbSymbolTableRecord
100
AcDbLayerTableRecord
  2
1
 70
     0
 62
     7
  6
CONTINUOUS
370
    -3
390
AA07
  0
LAYER
  5
A75A
102
{ACAD_XDICTIONARY
360
AA61
102
}
330
A733
100
AcDbSymbolTableRecord
100
AcDbLayerTableRecord
  2
2
 70
     0
 62
     4
  6
CONTINUOUS
370
    -3
390
AA07
  0
LAYER
  5
A75B
102
{ACAD_XDICTIONARY
360
AA63
102
}
330
A733
100
AcDbSymbolTableRecord
100
AcDbLayerTableRecord
  2
3
 70
     0
 62
     2
  6
DASHED
370
    -3
390
AA07
  0
LAYER
  5
A75C
102
{ACAD_XDICTIONARY
360
AA65
102
}
330
A733
100
AcDbSymbolTableRecord
100
AcDbLayerTableRecord
  2
6
 70
     0
 62
     5
  6
CONTINUOUS
370
    -3
390
AA07
  0
LAYER
  5
A75D
102
{ACAD_XDICTIONARY
360
AA67
102
}
330
A733
100
AcDbSymbolTableRecord
100
AcDbLayerTableRecord
  2
7
 70
     0
 62
     3
  6
CONTINUOUS
370
    -3
390
AA07
  0
ENDTAB
  0
TABLE
  2
STYLE
  5
A734
330
0
100
AcDbSymbolTable
 70
     1
  0
STYLE
  5
A742
330
A734
100
AcDbSymbolTableRecord
100
AcDbTextStyleTableRecord
  2
STANDARD
 70
     0
 40
0.0
 41
1.0
 50
0.0
 71
     0
 42
5.0
  3
txt
  4

  0
ENDTAB
  0
TABLE
  2
VIEW
  5
A737
330
0
100
AcDbSymbolTable
 70
     0
  0
ENDTAB
  0
TABLE
  2
UCS
  5
A738
330
0
100
AcDbSymbolTable
 70
     0
  0
ENDTAB
  0
TABLE
  2
APPID
  5
A73A
330
0
100
AcDbSymbolTable
 70
     3
  0
APPID
  5
A743
330
A73A
100
AcDbSymbolTableRecord
100
AcDbRegAppTableRecord
  2
ACAD
 70
     0
  0
APPID
  5
AA73
330
A73A
100
AcDbSymbolTableRecord
100
AcDbRegAppTableRecord
  2
ACAD_NAV_VCDISPLAY
 70
     0
  0
APPID
  5
AAAC
330
A73A
100
AcDbSymbolTableRecord
100
AcDbRegAppTableRecord
  2
ACAD_MLEADERVER
 70
     0
  0
ENDTAB
  0
TABLE
  2
DIMSTYLE
  5
A73B
330
0
100
AcDbSymbolTable
 70
     1
100
AcDbDimStyleTable
 71
     0
  0
DIMSTYLE
105
A75F
330
A73B
100
AcDbSymbolTableRecord
100
AcDbDimStyleTableRecord
  2
STANDARD
 70
     0
 41
3.0
 42
1.0
 43
10.0
 44
1.0
 73
     0
 74
     0
 77
     3
 78
     8
140
3.2
141
0.0
147
1.0
172
     1
173
     1
284
     8
285
     8
286
     8
340
A742
  0
ENDTAB
  0
TABLE
  2
BLOCK_RECORD
  5
A732
330
0
100
AcDbSymbolTable
 70
     1
  0
BLOCK_RECORD
  5
A74F
102
{ACAD_XDICTIONARY
360
AA01
102
}
330
A732
100
AcDbSymbolTableRecord
100
AcDbBlockTableRecord
  2
*MODEL_SPACE
340
AA55
  0
BLOCK_RECORD
  5
A74B
102
{ACAD_XDICTIONARY
360
A9FF
102
}
330
A732
100
AcDbSymbolTableRecord
100
AcDbBlockTableRecord
  2
*PAPER_SPACE
340
AA56
  0
BLOCK_RECORD
  5
A767
330
A732
100
AcDbSymbolTableRecord
100
AcDbBlockTableRecord
  2
_OPEN
340
0
  0
ENDTAB
  0
ENDSEC
  0
SECTION
  2
BLOCKS
  0
BLOCK
  5
A750
330
A74F
100
AcDbEntity
  8
0
100
AcDbBlockBegin
  2
*MODEL_SPACE
 70
     0
 10
0.0
 20
0.0
 30
0.0
  3
*MODEL_SPACE
  1

  0
ENDBLK
  5
A751
330
A74F
100
AcDbEntity
  8
0
100
AcDbBlockEnd
  0
BLOCK
  5
A74C
330
A74B
100
AcDbEntity
 67
     1
  8
0
100
AcDbBlockBegin
  2
*PAPER_SPACE
 70
     0
 10
0.0
 20
0.0
 30
0.0
  3
*PAPER_SPACE
  1

  0
ENDBLK
  5
A74D
330
A74B
100
AcDbEntity
 67
     1
  8
0
100
AcDbBlockEnd
  0
BLOCK
  5
A768
330
A767
100
AcDbEntity
  8
0
100
AcDbBlockBegin
  2
_OPEN
 70
     0
 10
0.0
 20
0.0
 30
0.0
  3
_OPEN
  1

  0
LINE
  5
A769
330
A767
100
AcDbEntity
  8
0
  6
ByBlock
 62
     0
100
AcDbLine
 10
-1.0
 20
0.166667
 30
0.0
 11
0.0
 21
0.0
 31
0.0
  0
LINE
  5
A76A
330
A767
100
AcDbEntity
  8
0
  6
ByBlock
 62
     0
100
AcDbLine
 10
0.0
 20
0.0
 30
0.0
 11
-1.0
 21
-0.166667
 31
0.0
  0
LINE
  5
A76B
330
A767
100
AcDbEntity
  8
0
  6
ByBlock
 62
     0
100
AcDbLine
 10
0.0
 20
0.0
 30
0.0
 11
-1.0
 21
0.0
 31
0.0
  0
ENDBLK
  5
A76C
330
A767
100
AcDbEntity
  8
0
100
AcDbBlockEnd
  0
ENDSEC
  0
SECTION
  2
ENTITIES
  0
TEXT
  5
A76D
330
A74F
100
AcDbEntity
  8
7
  6
Continuous
100
AcDbText
 10
10.0
 20
18.0
 30
0.0
 40
3.0
  1
TYPE No.205 d=19
100
AcDbText
  0
TEXT
  5
A76E
330
A74F
100
AcDbEntity
  8
7
  6
Continuous
100
AcDbText
 10
10.0
 20
26.0
 30
0.0
 40
3.0
  1
CODE No.9163
100
AcDbText
  0
TEXT
  5
A76F
330
A74F
100
AcDbEntity
  8
1
  6
Continuous
100
AcDbText
 10
10.0
 20
10.0
 30
0.0
 40
1.399999999999999
  1
LAYER
100
AcDbText
  0
TEXT
  5
A770
330
A74F
100
AcDbEntity
  8
1
  6
Continuous
100
AcDbText
 10
17.97951099999998
 20
10.04873699999998
 30
0.0
 40
1.399999999999999
  1
1
100
AcDbText
  0
TEXT
  5
A771
330
A74F
100
AcDbEntity
  8
7
  6
Continuous
100
AcDbText
 10
29.97951099999999
 20
10.04873699999998
 30
0.0
 40
1.399999999999999
  1
7
100
AcDbText
  0
TEXT
  5
A772
330
A74F
100
AcDbEntity
  8
4
  6
CENTER
100
AcDbText
 10
23.97951099999999
 20
10.04873699999998
 30
0.0
 40
1.399999999999999
  1
4
100
AcDbText
  0
TEXT
  5
A773
330
A74F
100
AcDbEntity
  8
3
  6
DASHED
100
AcDbText
 10
21.979511
 20
10.04873699999998
 30
0.0
 40
1.399999999999999
  1
3
100
AcDbText
  0
TEXT
  5
A774
330
A74F
100
AcDbEntity
  8
2
  6
Continuous
100
AcDbText
 10
19.97951099999999
 20
10.04873699999998
 30
0.0
 40
1.399999999999999
  1
2
100
AcDbText
  0
TEXT
  5
A775
330
A74F
100
AcDbEntity
  8
6
  6
Continuous
100
AcDbText
 10
27.979511
 20
10.04873699999998
 30
0.0
 40
1.399999999999999
  1
6
100
AcDbText
  0
TEXT
  5
A776
330
A74F
100
AcDbEntity
  8
5
  6
PHANTOM
100
AcDbText
 10
25.97951099999999
 20
10.04873699999998
 30
0.0
 40
1.399999999999999
  1
5
100
AcDbText
  0
ARC
  5
A777
330
A74F
100
AcDbEntity
  8
1
  6
Continuous
100
AcDbCircle
 10
205.427976
 20
211.132781
 30
0.0
 40
4.377608
100
AcDbArc
 50
8.294477
 51
67.581971
  0
ARC
  5
A778
330
A74F
100
AcDbEntity
  8
1
  6
Continuous
100
AcDbCircle
 10
80.27936399999999
 20
191.216185
 30
0.0
 40
131.100749
100
AcDbArc
 50
7.561295
 51
9.017450999999999
  0
ARC
  5
A779
330
A74F
100
AcDbEntity
  8
1
  6
Continuous
100
AcDbCircle
 10
160.854892
 20
214.858092
 30
0.0
 40
1.997709
100
AcDbArc
 50
270.1599779999999
 51
299.197035
  0
ARC
  5
A77A
330
A74F
100
AcDbEntity
  8
1
  6
Continuous
100
AcDbCircle
 10
165.5953659999999
 20
211.2232759999999
 30
0.0
 40
4.224822999999998
100
AcDbArc
 50
110.5384659999999
 51
148.632099
  0
ARC
  5
A77B
330
A74F
100
AcDbEntity
  8
1
  6
Continuous
100
AcDbCircle
 10
161.6764959999999
 20
213.3878249999999
 30
0.0
 40
0.313453
100
AcDbArc
 50
299.197035
 51
6.338015999999998
  0
LINE
  5
A77C
330
A74F
100
AcDbEntity
  8
1
  6
Continuous
100
AcDbLine
 10
210.240147
 20
208.4673099999998
 30
0.0
 11
202.222361
 21
208.4673099999998
 31
0.0
  0
ARC
  5
A77D
330
A74F
100
AcDbEntity
  8
1
  6
Continuous
100
AcDbCircle
 10
160.490146
 20
175.717882
 30
0.0
 40
31.5
100
AcDbArc
 50
96.61782700000001
 51
36.19536999999999
  0
LINE
  5
A77E
330
A74F
100
AcDbEntity
  8
1
  6
Continuous
100
AcDbLine
 10
259.242441
 20
211.191224
 30
0.0
 11
259.242441
 21
189.4850059999999
 31
0.0
  0
LINE
  5
A77F
330
A74F
100
AcDbEntity
  8
1
  6
Continuous
100
AcDbLine
 10
308.7424410000001
 20
211.191224
 30
0.0
 11
308.7424410000001
 21
189.4850059999999
 31
0.0
  0
ARC
  5
A780
330
A74F
100
AcDbEntity
  8
1
  6
Continuous
100
AcDbCircle
 10
263.242441
 20
211.191224
 30
0.0
 40
4.0
100
AcDbArc
 50
94.384039
 51
180.0
  0
ARC
  5
A781
330
A74F
100
AcDbEntity
  8
1
  6
Continuous
100
AcDbCircle
 10
304.742441
 20
211.191224
 30
0.0
 40
4.0
100
AcDbArc
 50
0.0
 51
85.615961
  0
ARC
  5
A782
330
A74F
100
AcDbEntity
  8
1
  6
Continuous
100
AcDbCircle
 10
280.5841909999999
 20
189.4850059999999
 30
0.0
 40
28.15825
100
AcDbArc
 50
323.663991
 51
0.0
  0
ARC
  5
A783
330
A74F
100
AcDbEntity
  8
1
  6
Continuous
100
AcDbCircle
 10
287.4006909999998
 20
189.4850059999999
 30
0.0
 40
28.15825
100
AcDbArc
 50
180.0
 51
182.984359
  0
LINE
  5
A784
330
A74F
100
AcDbEntity
  8
1
  6
Continuous
100
AcDbLine
 10
263.0637259999999
 20
208.46721
 30
0.0
 11
304.9211559999998
 21
208.46721
 31
0.0
  0
ARC
  5
A785
330
A74F
100
AcDbEntity
  8
1
  6
Continuous
100
AcDbCircle
 10
341.326634
 20
189.4850059999999
 30
0.0
 40
82.084193
100
AcDbArc
 50
167.757229
 51
180.0
  0
ARC
  5
A786
330
A74F
100
AcDbEntity
  8
1
  6
Continuous
100
AcDbCircle
 10
341.326634
 20
189.4850059999999
 30
0.0
 40
79.784193
100
AcDbArc
 50
167.389352
 51
180.0
  0
ARC
  5
A787
330
A74F
100
AcDbEntity
  8
1
  6
Continuous
100
AcDbCircle
 10
263.0637259999999
 20
206.46721
 30
0.0
 40
2.0
100
AcDbArc
 50
90.0
 51
167.757229
  0
ARC
  5
A788
330
A74F
100
AcDbEntity
  8
1
  6
Continuous
100
AcDbCircle
 10
265.4188909999999
 20
206.46721
 30
0.0
 40
2.0
100
AcDbArc
 50
90.0
 51
167.389352
  0
ARC
  5
A789
330
A74F
100
AcDbEntity
  8
1
  6
Continuous
100
AcDbCircle
 10
280.5841909999999
 20
189.4850059999999
 30
0.0
 40
25.85825
100
AcDbArc
 50
322.428066
 51
0.0
  0
ARC
  5
A78A
330
A74F
100
AcDbEntity
  8
1
  6
Continuous
100
AcDbCircle
 10
226.6582479999999
 20
189.4850059999999
 30
0.0
 40
82.084193
100
AcDbArc
 50
0.0
 51
12.242771
  0
ARC
  5
A78B
330
A74F
100
AcDbEntity
  8
1
  6
Continuous
100
AcDbCircle
 10
226.6582479999999
 20
189.4850059999999
 30
0.0
 40
79.784193
100
AcDbArc
 50
0.0
 51
12.61064799999999
  0
ARC
  5
A78C
330
A74F
100
AcDbEntity
  8
1
  6
Continuous
100
AcDbCircle
 10
304.9211559999998
 20
206.46721
 30
0.0
 40
2.0
100
AcDbArc
 50
12.242771
 51
90.0
  0
ARC
  5
A78D
330
A74F
100
AcDbEntity
  8
1
  6
Continuous
100
AcDbCircle
 10
302.5659909999999
 20
206.46721
 30
0.0
 40
2.0
100
AcDbArc
 50
12.61064799999999
 51
90.0
  0
ARC
  5
A78E
330
A74F
100
AcDbEntity
  8
1
  6
Continuous
100
AcDbCircle
 10
292.9924409999999
 20
204.651056
 30
0.0
 40
1.5
100
AcDbArc
 50
0.0
 51
36.98973999999999
  0
ARC
  5
A78F
330
A74F
100
AcDbEntity
  8
1
  6
Continuous
100
AcDbCircle
 10
274.9924409999999
 20
204.651056
 30
0.0
 40
1.5
100
AcDbArc
 50
143.0102599999999
 51
180.0
  0
LINE
  5
A790
330
A74F
100
AcDbEntity
  8
1
  6
Continuous
100
AcDbLine
 10
270.9924409999999
 20
188.2192639999999
 30
0.0
 11
270.9924409999999
 21
163.2163
 31
0.0
  0
LINE
  5
A791
330
A74F
100
AcDbEntity
  8
1
  6
Continuous
100
AcDbLine
 10
296.9924409999999
 20
185.2177819999998
 30
0.0
 11
298.4924409999999
 21
183.7177819999998
 31
0.0
  0
LINE
  5
A792
330
A74F
100
AcDbEntity
  8
1
  6
Continuous
100
AcDbLine
 10
270.9924409999999
 20
185.2177819999998
 30
0.0
 11
269.492441
 21
183.7177819999998
 31
0.0
  0
LINE
  5
A793
330
A74F
100
AcDbEntity
  8
1
  6
Continuous
100
AcDbLine
 10
294.492441
 20
191.789634
 30
0.0
 11
296.9924409999999
 21
188.2192639999999
 31
0.0
  0
LINE
  5
A794
330
A74F
100
AcDbEntity
  8
1
  6
Continuous
100
AcDbLine
 10
273.492441
 20
191.789634
 30
0.0
 11
270.9924409999999
 21
188.2192639999999
 31
0.0
  0
LINE
  5
A795
330
A74F
100
AcDbEntity
  8
1
  6
Continuous
100
AcDbLine
 10
269.492441
 20
167.7177819999998
 30
0.0
 11
269.492441
 21
183.7177819999998
 31
0.0
  0
LINE
  5
A796
330
A74F
100
AcDbEntity
  8
1
  6
Continuous
100
AcDbLine
 10
294.492441
 20
146.7845079999999
 30
0.0
 11
294.492441
 21
204.651056
 31
0.0
  0
LINE
  5
A797
330
A74F
100
AcDbEntity
  8
1
  6
Continuous
100
AcDbLine
 10
273.492441
 20
146.7845079999999
 30
0.0
 11
273.492441
 21
204.651056
 31
0.0
  0
ARC
  5
A798
330
A74F
100
AcDbEntity
  8
1
  6
Continuous
100
AcDbCircle
 10
283.992441
 20
184.217782
 30
0.0
 40
40.0
100
AcDbArc
 50
256.4810919999998
 51
283.518908
  0
ARC
  5
A799
330
A74F
100
AcDbEntity
  8
1
  6
Continuous
100
AcDbCircle
 10
292.9924409999999
 20
146.7845079999999
 30
0.0
 40
1.5
100
AcDbArc
 50
283.518908
 51
0.0
  0
ARC
  5
A79A
330
A74F
100
AcDbEntity
  8
1
  6
Continuous
100
AcDbCircle
 10
274.9924409999999
 20
146.7845079999999
 30
0.0
 40
1.5
100
AcDbArc
 50
180.0
 51
256.4810919999998
  0
LINE
  5
A79B
330
A74F
100
AcDbEntity
  8
1
  6
Continuous
100
AcDbLine
 10
296.9924409999999
 20
163.2163
 30
0.0
 11
296.9924409999999
 21
188.2192639999999
 31
0.0
  0
LINE
  5
A79C
330
A74F
100
AcDbEntity
  8
1
  6
Continuous
100
AcDbLine
 10
296.9924409999999
 20
166.217782
 30
0.0
 11
298.4924409999999
 21
167.7177819999998
 31
0.0
  0
LINE
  5
A79D
330
A74F
100
AcDbEntity
  8
1
  6
Continuous
100
AcDbLine
 10
270.9924409999999
 20
166.217782
 30
0.0
 11
269.492441
 21
167.7177819999998
 31
0.0
  0
LINE
  5
A79E
330
A74F
100
AcDbEntity
  8
1
  6
Continuous
100
AcDbLine
 10
294.492441
 20
159.64593
 30
0.0
 11
296.9924409999999
 21
163.2163
 31
0.0
  0
LINE
  5
A79F
330
A74F
100
AcDbEntity
  8
1
  6
Continuous
100
AcDbLine
 10
273.492441
 20
159.64593
 30
0.0
 11
270.9924409999999
 21
163.2163
 31
0.0
  0
LINE
  5
A7A0
330
A74F
100
AcDbEntity
  8
1
  6
Continuous
100
AcDbLine
 10
298.4924409999999
 20
167.7177819999998
 30
0.0
 11
298.4924409999999
 21
183.7177819999998
 31
0.0
  0
LINE
  5
A7A1
330
A74F
100
AcDbEntity
  8
1
  6
Continuous
100
AcDbLine
 10
268.5886899999998
 20
165.1057189999999
 30
0.0
 11
266.2757859999999
 21
165.1057189999999
 31
0.0
  0
LINE
  5
A7A2
330
A74F
100
AcDbEntity
  8
1
  6
Continuous
100
AcDbLine
 10
268.4497519999998
 20
179.7177819999998
 30
0.0
 11
269.492441
 21
179.7177819999998
 31
0.0
  0
LINE
  5
A7A3
330
A74F
100
AcDbEntity
  8
1
  6
Continuous
100
AcDbLine
 10
298.4924409999999
 20
179.7177819999998
 30
0.0
 11
299.5351309999999
 21
179.7177819999998
 31
0.0
  0
LINE
  5
A7A4
330
A74F
100
AcDbEntity
  8
1
  6
Continuous
100
AcDbLine
 10
268.534866
 20
171.717782
 30
0.0
 11
269.492441
 21
171.717782
 31
0.0
  0
LINE
  5
A7A5
330
A74F
100
AcDbEntity
  8
1
  6
Continuous
100
AcDbLine
 10
298.4924409999999
 20
171.717782
 30
0.0
 11
299.450016
 21
171.717782
 31
0.0
  0
LINE
  5
A7A6
330
A74F
100
AcDbEntity
  8
1
  6
Continuous
100
AcDbLine
 10
162.490146
 20
215.179556
 30
0.0
 11
208.490146
 21
215.179556
 31
0.0
  0
LINE
  5
A7A7
330
A74F
100
AcDbEntity
  8
1
  6
Continuous
100
AcDbLine
 10
306.992441
 20
215.17952
 30
0.0
 11
260.992441
 21
215.17952
 31
0.0
  0
ARC
  5
A7A8
330
A74F
100
AcDbEntity
  8
1
  6
Continuous
100
AcDbCircle
 10
160.490146
 20
175.717882
 30
0.0
 40
24.0
100
AcDbArc
 50
102.730931
 51
28.80990399999999
  0
LINE
  5
A7A9
330
A74F
100
AcDbEntity
  8
4
  6
CENTER
100
AcDbLine
 10
215.240146
 20
341.9206459999998
 30
0.0
 11
123.990146
 21
341.9206459999998
 31
0.0
  0
LINE
  5
A7AA
330
A74F
100
AcDbEntity
  8
4
  6
CENTER
100
AcDbLine
 10
185.490146
 20
312.1706459999999
 30
0.0
 11
185.490146
 21
371.6706459999999
 31
0.0
  0
LINE
  5
A7AB
330
A74F
100
AcDbEntity
  8
4
  6
CENTER
100
AcDbLine
 10
185.490146
 20
202.215713
 30
0.0
 11
185.490146
 21
271.2178819999999
 31
0.0
  0
LINE
  5
A7AC
330
A74F
100
AcDbEntity
  8
4
  6
CENTER
100
AcDbLine
 10
196.990146
 20
175.717882
 30
0.0
 11
123.990146
 21
175.717882
 31
0.0
  0
LINE
  5
A7AD
330
A74F
100
AcDbEntity
  8
4
  6
CENTER
100
AcDbLine
 10
160.490146
 20
139.217882
 30
0.0
 11
160.490146
 21
207.891468
 31
0.0
  0
LINE
  5
A7AE
330
A74F
100
AcDbEntity
  8
4
  6
CENTER
100
AcDbLine
 10
258.6925519999999
 20
175.717782
 30
0.0
 11
310.792299
 21
175.717782
 31
0.0
  0
LINE
  5
A7AF
330
A74F
100
AcDbEntity
  8
4
  6
CENTER
100
AcDbLine
 10
283.992441
 20
271.2177819999999
 30
0.0
 11
283.992441
 21
139.217782
 31
0.0
  0
ARC
  5
A7B0
330
A74F
100
AcDbEntity
  8
1
  6
Continuous
100
AcDbCircle
 10
161.590146
 20
176.117882
 30
0.0
 40
11.0
100
AcDbArc
 50
165.8563979999998
 51
326.3274589999999
  0
LINE
  5
A7B1
330
A74F
100
AcDbEntity
  8
1
  6
Continuous
100
AcDbLine
 10
166.8243219999999
 20
212.8770429999999
 30
0.0
 11
155.702287
 21
212.845989
 31
0.0
  0
ARC
  5
A7B2
330
A74F
100
AcDbEntity
  8
1
  6
Continuous
100
AcDbCircle
 10
202.222361
 20
194.23831
 30
0.0
 40
14.229
100
AcDbArc
 50
90.0
 51
133.500573
  0
ARC
  5
A7B3
330
A74F
100
AcDbEntity
  8
1
  6
Continuous
100
AcDbCircle
 10
200.835986
 20
197.46731
 30
0.0
 40
11.0
100
AcDbArc
 50
139.8530389999999
 51
146.327459
  0
ARC
  5
A7B4
330
A74F
100
AcDbEntity
  8
1
  6
Continuous
100
AcDbCircle
 10
156.646199
 20
294.757624
 30
0.0
 40
84.15427099999998
100
AcDbArc
 50
268.6251529999998
 51
270.661561
  0
ARC
  5
A7B5
330
A74F
100
AcDbEntity
  8
1
  6
Continuous
100
AcDbCircle
 10
155.716879
 20
207.620059
 30
0.0
 40
5.22595
100
AcDbArc
 50
90.15997800000002
 51
100.38805
  0
ARC
  5
A7B6
330
A74F
100
AcDbEntity
  8
1
  6
Continuous
100
AcDbCircle
 10
154.9009879999998
 20
212.0707279999999
 30
0.0
 40
0.7011149999999999
100
AcDbArc
 50
100.38805
 51
140.399055
  0
ARC
  5
A7B7
330
A74F
100
AcDbEntity
  8
1
  6
Continuous
100
AcDbCircle
 10
154.63379
 20
210.907969
 30
0.0
 40
0.28047
100
AcDbArc
 50
216.5458509999999
 51
268.6251529999998
  0
ARC
  5
A7B8
330
A74F
100
AcDbEntity
  8
1
  6
Continuous
100
AcDbCircle
 10
141.337801
 20
209.431971
 30
0.0
 40
13.13604599999999
100
AcDbArc
 50
5.718930999999998
 51
8.653186999999999
  0
ARC
  5
A7B9
330
A74F
100
AcDbEntity
  8
1
  6
Continuous
100
AcDbCircle
 10
122.542776
 20
213.0080229999999
 30
0.0
 40
31.82178
100
AcDbArc
 50
357.118506
 51
359.117028
  0
LINE
  5
A7BA
330
A74F
100
AcDbEntity
  8
1
  6
Continuous
100
AcDbLine
 10
158.090134
 20
212.852656
 30
0.0
 11
150.9235969999998
 21
178.8057659999998
 31
0.0
  0
LINE
  5
A7BB
330
A74F
100
AcDbEntity
  8
1
  6
Continuous
100
AcDbLine
 10
191.681567
 20
203.5662129999999
 30
0.0
 11
170.7445659999999
 21
170.0189799999999
 31
0.0
  0
ARC
  5
A7BC
330
A74F
100
AcDbEntity
  8
1
  6
Continuous
100
AcDbCircle
 10
160.490146
 20
175.717882
 30
0.0
 40
17.5
100
AcDbArc
 50
112.953035
 51
16.00178999999998
  0
LINE
  5
A7BD
330
A74F
100
AcDbEntity
  8
1
  6
Continuous
100
AcDbLine
 10
43.48785099999999
 20
146.7845079999999
 30
0.0
 11
43.48785099999999
 21
204.651056
 31
0.0
  0
LINE
  5
A7BE
330
A74F
100
AcDbEntity
  8
1
  6
Continuous
100
AcDbLine
 10
64.48785100000001
 20
146.7845079999999
 30
0.0
 11
64.48785100000001
 21
204.651056
 31
0.0
  0
LINE
  5
A7BF
330
A74F
100
AcDbEntity
  8
1
  6
Continuous
100
AcDbLine
 10
64.48785100000001
 20
191.789634
 30
0.0
 11
66.98785100000001
 21
188.2192639999999
 31
0.0
  0
LINE
  5
A7C0
330
A74F
100
AcDbEntity
  8
1
  6
Continuous
100
AcDbLine
 10
43.48785099999999
 20
191.789634
 30
0.0
 11
40.98785099999999
 21
188.2192639999999
 31
0.0
  0
LINE
  5
A7C1
330
A74F
100
AcDbEntity
  8
4
  6
CENTER
100
AcDbLine
 10
53.987851
 20
271.2177819999999
 30
0.0
 11
53.987851
 21
139.217782
 31
0.0
  0
LINE
  5
A7C2
330
A74F
100
AcDbEntity
  8
4
  6
CENTER
100
AcDbLine
 10
79.28774
 20
175.717782
 30
0.0
 11
27.18796199999999
 21
175.717782
 31
0.0
  0
ARC
  5
A7C3
330
A74F
100
AcDbEntity
  8
1
  6
Continuous
100
AcDbCircle
 10
53.987851
 20
184.217782
 30
0.0
 40
40.0
100
AcDbArc
 50
256.4810919999998
 51
283.518908
  0
LINE
  5
A7C4
330
A74F
100
AcDbEntity
  8
1
  6
Continuous
100
AcDbLine
 10
66.98785100000001
 20
188.2192639999999
 30
0.0
 11
66.98785100000001
 21
163.2163
 31
0.0
  0
LINE
  5
A7C5
330
A74F
100
AcDbEntity
  8
1
  6
Continuous
100
AcDbLine
 10
66.98785100000001
 20
166.217782
 30
0.0
 11
68.487851
 21
167.7177819999998
 31
0.0
  0
LINE
  5
A7C6
330
A74F
100
AcDbEntity
  8
1
  6
Continuous
100
AcDbLine
 10
64.48785100000001
 20
159.64593
 30
0.0
 11
66.98785100000001
 21
163.2163
 31
0.0
  0
ARC
  5
A7C7
330
A74F
100
AcDbEntity
  8
1
  6
Continuous
100
AcDbCircle
 10
62.98785099999999
 20
146.7845079999999
 30
0.0
 40
1.5
100
AcDbArc
 50
283.518908
 51
0.0
  0
LINE
  5
A7C8
330
A74F
100
AcDbEntity
  8
1
  6
Continuous
100
AcDbLine
 10
69.445426
 20
171.717782
 30
0.0
 11
68.487851
 21
171.717782
 31
0.0
  0
LINE
  5
A7C9
330
A74F
100
AcDbEntity
  8
1
  6
Continuous
100
AcDbLine
 10
69.530541
 20
179.7177819999998
 30
0.0
 11
68.487851
 21
179.7177819999998
 31
0.0
  0
LINE
  5
A7CA
330
A74F
100
AcDbEntity
  8
1
  6
Continuous
100
AcDbLine
 10
66.98785100000001
 20
185.2177819999998
 30
0.0
 11
68.487851
 21
183.7177819999998
 31
0.0
  0
LINE
  5
A7CB
330
A74F
100
AcDbEntity
  8
1
  6
Continuous
100
AcDbLine
 10
68.487851
 20
167.7177819999998
 30
0.0
 11
68.487851
 21
183.7177819999998
 31
0.0
  0
LINE
  5
A7CC
330
A74F
100
AcDbEntity
  8
1
  6
Continuous
100
AcDbLine
 10
40.98785099999999
 20
163.2163
 30
0.0
 11
40.98785099999999
 21
188.2192639999999
 31
0.0
  0
LINE
  5
A7CD
330
A74F
100
AcDbEntity
  8
1
  6
Continuous
100
AcDbLine
 10
40.98785099999999
 20
166.217782
 30
0.0
 11
39.487851
 21
167.7177819999998
 31
0.0
  0
ARC
  5
A7CE
330
A74F
100
AcDbEntity
  8
1
  6
Continuous
100
AcDbCircle
 10
44.987851
 20
146.7845079999999
 30
0.0
 40
1.5
100
AcDbArc
 50
180.0
 51
256.4810919999998
  0
LINE
  5
A7CF
330
A74F
100
AcDbEntity
  8
1
  6
Continuous
100
AcDbLine
 10
43.48785099999999
 20
159.64593
 30
0.0
 11
40.98785099999999
 21
163.2163
 31
0.0
  0
LINE
  5
A7D0
330
A74F
100
AcDbEntity
  8
1
  6
Continuous
100
AcDbLine
 10
39.487851
 20
171.717782
 30
0.0
 11
38.530276
 21
171.717782
 31
0.0
  0
LINE
  5
A7D1
330
A74F
100
AcDbEntity
  8
1
  6
Continuous
100
AcDbLine
 10
39.487851
 20
179.7177819999998
 30
0.0
 11
38.44516199999999
 21
179.7177819999998
 31
0.0
  0
LINE
  5
A7D2
330
A74F
100
AcDbEntity
  8
1
  6
Continuous
100
AcDbLine
 10
40.98785099999999
 20
185.2177819999998
 30
0.0
 11
39.487851
 21
183.7177819999998
 31
0.0
  0
LINE
  5
A7D3
330
A74F
100
AcDbEntity
  8
1
  6
Continuous
100
AcDbLine
 10
39.487851
 20
167.7177819999998
 30
0.0
 11
39.487851
 21
183.7177819999998
 31
0.0
  0
ARC
  5
A7D4
330
A74F
100
AcDbEntity
  8
1
  6
Continuous
100
AcDbCircle
 10
53.987851
 20
167.2177819999998
 30
0.0
 40
40.0
100
AcDbArc
 50
76.481092
 51
103.5189079999999
  0
LINE
  5
A7D5
330
A74F
100
AcDbEntity
  8
1
  6
Continuous
100
AcDbLine
 10
30.98785100000001
 20
215.17952
 30
0.0
 11
76.98785100000002
 21
215.17952
 31
0.0
  0
ARC
  5
A7D6
330
A74F
100
AcDbEntity
  8
1
  6
Continuous
100
AcDbCircle
 10
74.737851
 20
211.191224
 30
0.0
 40
4.0
100
AcDbArc
 50
0.0
 51
85.615961
  0
LINE
  5
A7D7
330
A74F
100
AcDbEntity
  8
1
  6
Continuous
100
AcDbLine
 10
78.737851
 20
211.191224
 30
0.0
 11
78.737851
 21
189.4850059999999
 31
0.0
  0
ARC
  5
A7D8
330
A74F
100
AcDbEntity
  8
1
  6
Continuous
100
AcDbCircle
 10
62.98785099999999
 20
204.651056
 30
0.0
 40
1.5
100
AcDbArc
 50
0.0
 51
76.481092
  0
ARC
  5
A7D9
330
A74F
100
AcDbEntity
  8
1
  6
Continuous
100
AcDbCircle
 10
33.237851
 20
211.191224
 30
0.0
 40
4.0
100
AcDbArc
 50
94.384039
 51
180.0
  0
ARC
  5
A7DA
330
A74F
100
AcDbEntity
  8
1
  6
Continuous
100
AcDbCircle
 10
44.987851
 20
204.651056
 30
0.0
 40
1.5
100
AcDbArc
 50
103.5189079999999
 51
180.0
  0
LINE
  5
A7DB
330
A74F
100
AcDbEntity
  8
1
  6
Continuous
100
AcDbLine
 10
29.23785099999999
 20
211.191224
 30
0.0
 11
29.23785099999999
 21
189.4850059999999
 31
0.0
  0
LINE
  5
A7DC
330
A74F
100
AcDbEntity
  8
1
  6
Continuous
100
AcDbLine
 10
39.087182
 20
210.5764409999999
 30
0.0
 11
68.88851999999999
 21
210.5764409999999
 31
0.0
  0
LINE
  5
A7DD
330
A74F
100
AcDbEntity
  8
1
  6
Continuous
100
AcDbLine
 10
38.98785099999999
 20
212.80205
 30
0.0
 11
68.98785100000001
 21
212.80205
 31
0.0
  0
ARC
  5
A7DE
330
A74F
100
AcDbEntity
  8
1
  6
Continuous
100
AcDbCircle
 10
67.63674399999999
 20
208.509672
 30
0.0
 40
4.5
100
AcDbArc
 50
359.391148
 51
72.527617
  0
ARC
  5
A7DF
330
A74F
100
AcDbEntity
  8
1
  6
Continuous
100
AcDbCircle
 10
67.337851
 20
208.615465
 30
0.0
 40
2.5
100
AcDbArc
 50
0.0
 51
51.66432999999999
  0
LINE
  5
A7E0
330
A74F
100
AcDbEntity
  8
1
  6
Continuous
100
AcDbLine
 10
69.83771
 20
208.5888989999999
 30
0.0
 11
69.375078
 21
165.1057189999999
 31
0.0
  0
LINE
  5
A7E1
330
A74F
100
AcDbEntity
  8
1
  6
Continuous
100
AcDbLine
 10
72.13649000000002
 20
208.461854
 30
0.0
 11
71.675208
 21
165.1057189999999
 31
0.0
  0
LINE
  5
A7E2
330
A74F
100
AcDbEntity
  8
1
  6
Continuous
100
AcDbLine
 10
69.375078
 20
165.1057189999999
 30
0.0
 11
71.675208
 21
165.1057189999999
 31
0.0
  0
LINE
  5
A7E3
330
A74F
100
AcDbEntity
  8
1
  6
Continuous
100
AcDbLine
 10
35.83921199999998
 20
208.461854
 30
0.0
 11
36.300494
 21
165.1057189999999
 31
0.0
  0
LINE
  5
A7E4
330
A74F
100
AcDbEntity
  8
1
  6
Continuous
100
AcDbLine
 10
38.60062399999998
 20
165.1057189999999
 30
0.0
 11
36.300494
 21
165.1057189999999
 31
0.0
  0
LINE
  5
A7E5
330
A74F
100
AcDbEntity
  8
1
  6
Continuous
100
AcDbLine
 10
38.137992
 20
208.5888989999999
 30
0.0
 11
38.60062399999998
 21
165.1057189999999
 31
0.0
  0
ARC
  5
A7E6
330
A74F
100
AcDbEntity
  8
1
  6
Continuous
100
AcDbCircle
 10
40.33895799999998
 20
208.509672
 30
0.0
 40
4.5
100
AcDbArc
 50
107.4723829999999
 51
180.608852
  0
ARC
  5
A7E7
330
A74F
100
AcDbEntity
  8
1
  6
Continuous
100
AcDbCircle
 10
40.63785099999999
 20
208.615465
 30
0.0
 40
2.5
100
AcDbArc
 50
128.3356699999999
 51
180.608852
  0
ARC
  5
A7E8
330
A74F
100
AcDbEntity
  8
1
  6
Continuous
100
AcDbCircle
 10
57.396101
 20
189.4850059999999
 30
0.0
 40
28.15825
100
AcDbArc
 50
180.0
 51
206.726255
  0
ARC
  5
A7E9
330
A74F
100
AcDbEntity
  8
1
  6
Continuous
100
AcDbCircle
 10
50.57960099999998
 20
189.4850059999999
 30
0.0
 40
28.15825
100
AcDbArc
 50
326.9891059999999
 51
0.0
  0
ARC
  5
A7EA
330
A74F
100
AcDbEntity
  8
1
  6
Continuous
100
AcDbCircle
 10
42.68796199999999
 20
175.717782
 30
0.0
 40
10.5
100
AcDbArc
 50
146.796177
 51
213.203823
  0
LINE
  5
A7EB
330
A74F
100
AcDbEntity
  8
1
  6
Continuous
100
AcDbLine
 10
33.90232000000001
 20
181.4677819999998
 30
0.0
 11
36.12661699999998
 21
181.4677819999998
 31
0.0
  0
LINE
  5
A7EC
330
A74F
100
AcDbEntity
  8
1
  6
Continuous
100
AcDbLine
 10
36.248826
 20
169.9677819999998
 30
0.0
 11
33.90232000000001
 21
169.9677819999998
 31
0.0
  0
LINE
  5
A7ED
330
A74F
100
AcDbEntity
  8
1
  6
Continuous
100
AcDbLine
 10
33.90232000000001
 20
181.4677819999998
 30
0.0
 11
33.90232000000001
 21
169.9677819999998
 31
0.0
  0
LINE
  5
A7EE
330
A74F
100
AcDbEntity
  8
1
  6
Continuous
100
AcDbLine
 10
73.28774
 20
180.7177819999998
 30
0.0
 11
71.841115
 21
180.7177819999998
 31
0.0
  0
LINE
  5
A7EF
330
A74F
100
AcDbEntity
  8
1
  6
Continuous
100
AcDbLine
 10
73.28774
 20
170.717782
 30
0.0
 11
71.734847
 21
170.717782
 31
0.0
  0
ARC
  5
A7F0
330
A74F
100
AcDbEntity
  8
1
  6
Continuous
100
AcDbCircle
 10
61.28773999999999
 20
175.717782
 30
0.0
 40
13.0
100
AcDbArc
 50
337.3801349999999
 51
22.619865
  0
LINE
  5
A7F1
330
A74F
100
AcDbEntity
  8
1
  6
Continuous
100
AcDbLine
 10
73.28774
 20
170.717782
 30
0.0
 11
73.28774
 21
180.7177819999998
 31
0.0
  0
LINE
  5
A7F2
330
A74F
100
AcDbEntity
  8
1
  6
Continuous
100
AcDbLine
 10
268.1438769999999
 20
208.46721
 30
0.0
 11
268.605214
 21
165.1057189999999
 31
0.0
  0
LINE
  5
A7F3
330
A74F
100
AcDbEntity
  8
1
  6
Continuous
100
AcDbLine
 10
299.8410059999999
 20
208.46721
 30
0.0
 11
299.3796679999999
 21
165.1057189999999
 31
0.0
  0
LINE
  5
A7F4
330
A74F
100
AcDbEntity
  8
1
  6
Continuous
100
AcDbLine
 10
299.3961929999999
 20
165.1057189999999
 30
0.0
 11
301.679798
 21
165.1057189999999
 31
0.0
  0
LINE
  5
A7F5
330
A74F
100
AcDbEntity
  8
4
  6
CENTER
100
AcDbLine
 10
185.490146
 20
98.56031800000003
 30
0.0
 11
185.490146
 21
39.060318
 31
0.0
  0
LINE
  5
A7F6
330
A74F
100
AcDbEntity
  8
4
  6
CENTER
100
AcDbLine
 10
215.240146
 20
68.81031800000001
 30
0.0
 11
123.990146
 21
68.81031800000001
 31
0.0
  0
ARC
  5
A7F7
330
A74F
100
AcDbEntity
  8
1
  6
Continuous
100
AcDbCircle
 10
131.5568719999999
 20
59.810318
 30
0.0
 40
1.5
100
AcDbArc
 50
193.518908
 51
270.0
  0
LINE
  5
A7F8
330
A74F
100
AcDbEntity
  8
1
  6
Continuous
100
AcDbLine
 10
189.4234199999999
 20
58.310318
 30
0.0
 11
131.5568719999999
 21
58.310318
 31
0.0
  0
ARC
  5
A7F9
330
A74F
100
AcDbEntity
  8
1
  6
Continuous
100
AcDbCircle
 10
168.990146
 20
68.81031800000001
 30
0.0
 40
40.0
100
AcDbArc
 50
166.4810919999998
 51
193.518908
  0
ARC
  5
A7FA
330
A74F
100
AcDbEntity
  8
1
  6
Continuous
100
AcDbCircle
 10
131.5568719999999
 20
77.81031799999998
 30
0.0
 40
1.5
100
AcDbArc
 50
90.0
 51
166.4810919999998
  0
LINE
  5
A7FB
330
A74F
100
AcDbEntity
  8
1
  6
Continuous
100
AcDbLine
 10
189.4234199999999
 20
79.31031800000003
 30
0.0
 11
131.5568719999999
 21
79.31031800000003
 31
0.0
  0
LINE
  5
A7FC
330
A74F
100
AcDbEntity
  8
1
  6
Continuous
100
AcDbLine
 10
168.490146
 20
83.31031800000003
 30
0.0
 11
152.490146
 21
83.31031800000003
 31
0.0
  0
LINE
  5
A7FD
330
A74F
100
AcDbEntity
  8
1
  6
Continuous
100
AcDbLine
 10
147.9886639999998
 20
81.81031800000003
 30
0.0
 11
172.9916279999999
 21
81.81031800000003
 31
0.0
  0
LINE
  5
A7FE
330
A74F
100
AcDbEntity
  8
1
  6
Continuous
100
AcDbLine
 10
156.490146
 20
84.353008
 30
0.0
 11
156.490146
 21
83.31031800000003
 31
0.0
  0
LINE
  5
A7FF
330
A74F
100
AcDbEntity
  8
1
  6
Continuous
100
AcDbLine
 10
164.4901459999998
 20
84.464144
 30
0.0
 11
164.4901459999998
 21
83.31031800000003
 31
0.0
  0
LINE
  5
A800
330
A74F
100
AcDbEntity
  8
1
  6
Continuous
100
AcDbLine
 10
176.5619979999999
 20
79.31031800000003
 30
0.0
 11
172.9916279999999
 21
81.81031800000003
 31
0.0
  0
LINE
  5
A801
330
A74F
100
AcDbEntity
  8
1
  6
Continuous
100
AcDbLine
 10
169.990146
 20
81.81031800000003
 30
0.0
 11
168.490146
 21
83.31031800000003
 31
0.0
  0
LINE
  5
A802
330
A74F
100
AcDbEntity
  8
1
  6
Continuous
100
AcDbLine
 10
150.990146
 20
81.81031800000003
 30
0.0
 11
152.490146
 21
83.31031800000003
 31
0.0
  0
LINE
  5
A803
330
A74F
100
AcDbEntity
  8
1
  6
Continuous
100
AcDbLine
 10
144.418294
 20
79.31031800000003
 30
0.0
 11
147.9886639999998
 21
81.81031800000003
 31
0.0
  0
ARC
  5
A804
330
A74F
100
AcDbEntity
  8
1
  6
Continuous
100
AcDbCircle
 10
189.4234199999999
 20
77.81031799999998
 30
0.0
 40
1.5
100
AcDbArc
 50
13.51890799999999
 51
90.0
  0
ARC
  5
A805
330
A74F
100
AcDbEntity
  8
1
  6
Continuous
100
AcDbCircle
 10
151.9901459999998
 20
68.81031800000001
 30
0.0
 40
40.0
100
AcDbArc
 50
346.481092
 51
13.51890799999999
  0
ARC
  5
A806
330
A74F
100
AcDbEntity
  8
1
  6
Continuous
100
AcDbCircle
 10
189.4234199999999
 20
59.810318
 30
0.0
 40
1.5
100
AcDbArc
 50
270.0
 51
346.481092
  0
LINE
  5
A807
330
A74F
100
AcDbEntity
  8
1
  6
Continuous
100
AcDbLine
 10
168.490146
 20
54.310318
 30
0.0
 11
152.490146
 21
54.310318
 31
0.0
  0
LINE
  5
A808
330
A74F
100
AcDbEntity
  8
1
  6
Continuous
100
AcDbLine
 10
172.9916279999999
 20
55.810318
 30
0.0
 11
147.9886639999998
 21
55.810318
 31
0.0
  0
LINE
  5
A809
330
A74F
100
AcDbEntity
  8
1
  6
Continuous
100
AcDbLine
 10
176.5619979999999
 20
58.310318
 30
0.0
 11
172.9916279999999
 21
55.810318
 31
0.0
  0
LINE
  5
A80A
330
A74F
100
AcDbEntity
  8
1
  6
Continuous
100
AcDbLine
 10
169.990146
 20
55.810318
 30
0.0
 11
168.490146
 21
54.310318
 31
0.0
  0
LINE
  5
A80B
330
A74F
100
AcDbEntity
  8
1
  6
Continuous
100
AcDbLine
 10
150.990146
 20
55.810318
 30
0.0
 11
152.490146
 21
54.310318
 31
0.0
  0
LINE
  5
A80C
330
A74F
100
AcDbEntity
  8
1
  6
Continuous
100
AcDbLine
 10
144.418294
 20
58.310318
 30
0.0
 11
147.9886639999998
 21
55.810318
 31
0.0
  0
LINE
  5
A80D
330
A74F
100
AcDbEntity
  8
1
  6
Continuous
100
AcDbLine
 10
156.490146
 20
54.310318
 30
0.0
 11
156.490146
 21
53.26762900000001
 31
0.0
  0
LINE
  5
A80E
330
A74F
100
AcDbEntity
  8
1
  6
Continuous
100
AcDbLine
 10
164.4901459999998
 20
54.310318
 30
0.0
 11
164.4901459999998
 21
53.156493
 31
0.0
  0
ARC
  5
A80F
330
A74F
100
AcDbEntity
  8
1
  6
Continuous
100
AcDbCircle
 10
160.490146
 20
57.510429
 30
0.0
 40
10.5
100
AcDbArc
 50
236.7961769999999
 51
303.2038229999999
  0
LINE
  5
A810
330
A74F
100
AcDbEntity
  8
1
  6
Continuous
100
AcDbLine
 10
154.740146
 20
48.724787
 30
0.0
 11
154.740146
 21
51.071232
 31
0.0
  0
LINE
  5
A811
330
A74F
100
AcDbEntity
  8
1
  6
Continuous
100
AcDbLine
 10
166.240146
 20
50.521468
 30
0.0
 11
166.240146
 21
48.724787
 31
0.0
  0
LINE
  5
A812
330
A74F
100
AcDbEntity
  8
1
  6
Continuous
100
AcDbLine
 10
154.740146
 20
48.724787
 30
0.0
 11
166.240146
 21
48.724787
 31
0.0
  0
LINE
  5
A813
330
A74F
100
AcDbEntity
  8
1
  6
Continuous
100
AcDbLine
 10
155.490146
 20
88.11020699999996
 30
0.0
 11
155.490146
 21
86.66358199999995
 31
0.0
  0
LINE
  5
A814
330
A74F
100
AcDbEntity
  8
1
  6
Continuous
100
AcDbLine
 10
165.490146
 20
88.11020699999996
 30
0.0
 11
165.490146
 21
86.941117
 31
0.0
  0
ARC
  5
A815
330
A74F
100
AcDbEntity
  8
1
  6
Continuous
100
AcDbCircle
 10
160.490146
 20
76.11020699999999
 30
0.0
 40
13.0
100
AcDbArc
 50
67.380135
 51
112.6198649999998
  0
LINE
  5
A816
330
A74F
100
AcDbEntity
  8
1
  6
Continuous
100
AcDbLine
 10
165.490146
 20
88.11020699999996
 30
0.0
 11
155.490146
 21
88.11020699999996
 31
0.0
  0
LINE
  5
A817
330
A74F
100
AcDbEntity
  8
1
  6
Continuous
100
AcDbLine
 10
162.3702449999998
 20
84.33045400000002
 30
0.0
 11
150.5974219999998
 21
84.20519899999998
 31
0.0
  0
LINE
  5
A818
330
A74F
100
AcDbEntity
  8
1
  6
Continuous
100
AcDbLine
 10
162.3457769999999
 20
86.630324
 30
0.0
 11
150.5974219999998
 21
86.50532899999998
 31
0.0
  0
LINE
  5
A819
330
A74F
100
AcDbEntity
  8
1
  6
Continuous
100
AcDbLine
 10
162.3457769999999
 20
50.990313
 30
0.0
 11
150.5974219999998
 21
51.115308
 31
0.0
  0
LINE
  5
A81A
330
A74F
100
AcDbEntity
  8
1
  6
Continuous
100
AcDbLine
 10
162.3702449999998
 20
53.290183
 30
0.0
 11
150.5974219999998
 21
53.415438
 31
0.0
  0
LINE
  5
A81B
330
A74F
100
AcDbEntity
  8
4
  6
CENTER
100
AcDbLine
 10
160.490146
 20
94.11020699999999
 30
0.0
 11
160.490146
 21
42.010429
 31
0.0
  0
LINE
  5
A81C
330
A74F
100
AcDbEntity
  8
1
  6
Continuous
100
AcDbLine
 10
150.5974219999998
 20
86.50532899999998
 30
0.0
 11
150.5974219999998
 21
84.20519899999998
 31
0.0
  0
LINE
  5
A81D
330
A74F
100
AcDbEntity
  8
1
  6
Continuous
100
AcDbLine
 10
150.5974219999998
 20
53.415438
 30
0.0
 11
150.5974219999998
 21
51.115308
 31
0.0
  0
ARC
  5
A81E
330
A74F
100
AcDbEntity
  8
1
  6
Continuous
100
AcDbCircle
 10
185.490146
 20
68.81031800000001
 30
0.0
 40
24.75
100
AcDbArc
 50
236.915984
 51
123.084016
  0
ARC
  5
A81F
330
A74F
100
AcDbEntity
  8
1
  6
Continuous
100
AcDbCircle
 10
185.490146
 20
68.81031800000001
 30
0.0
 40
22.45
100
AcDbArc
 50
236.915984
 51
123.084016
  0
ARC
  5
A820
330
A74F
100
AcDbEntity
  8
1
  6
Continuous
100
AcDbCircle
 10
185.490146
 20
68.81031800000001
 30
0.0
 40
20.44999999999999
100
AcDbArc
 50
219.4716859999998
 51
140.5283139999999
  0
ARC
  5
A821
330
A74F
100
AcDbEntity
  8
1
  6
Continuous
100
AcDbCircle
 10
185.490146
 20
68.81031800000001
 30
0.0
 40
18.44999999999998
100
AcDbArc
 50
224.7978069999998
 51
135.202193
  0
ARC
  5
A822
330
A74F
100
AcDbEntity
  8
1
  6
Continuous
100
AcDbCircle
 10
185.490146
 20
68.81031800000001
 30
0.0
 40
9.449999999999999
100
AcDbArc
 50
307.8441509999998
 51
52.15584899999999
  0
CIRCLE
  5
A823
330
A74F
100
AcDbEntity
  8
1
  6
Continuous
100
AcDbCircle
 10
160.490146
 20
175.717882
 30
0.0
 40
5.0
  0
LINE
  5
A824
330
A74F
100
AcDbEntity
  8
1
  6
Continuous
100
AcDbLine
 10
301.7121409999999
 20
168.1456459999999
 30
0.0
 11
301.679798
 21
165.1057189999999
 31
0.0
  0
ARC
  5
A825
330
A74F
100
AcDbEntity
  8
1
  6
Continuous
100
AcDbCircle
 10
309.7116889999999
 20
168.060536
 30
0.0
 40
8.0
100
AcDbArc
 50
143.6639909999998
 51
179.390432
  0
ARC
  5
A826
330
A74F
100
AcDbEntity
  8
1
  6
Continuous
100
AcDbCircle
 10
307.419848
 20
168.839702
 30
0.0
 40
8.0
100
AcDbArc
 50
142.4280659999998
 51
179.390434
  0
ARC
  5
A827
330
A74F
100
AcDbEntity
  8
1
  6
Continuous
100
AcDbCircle
 10
287.4006909999998
 20
189.4850059999999
 30
0.0
 40
28.15825
100
AcDbArc
 50
180.0
 51
216.3360089999999
  0
ARC
  5
A828
330
A74F
100
AcDbEntity
  8
1
  6
Continuous
100
AcDbCircle
 10
287.4006909999998
 20
189.4850059999999
 30
0.0
 40
25.85825
100
AcDbArc
 50
180.0
 51
217.571934
  0
ARC
  5
A829
330
A74F
100
AcDbEntity
  8
1
  6
Continuous
100
AcDbCircle
 10
258.2731939999998
 20
168.060536
 30
0.0
 40
8.0
100
AcDbArc
 50
0.609568
 51
36.33600899999999
  0
ARC
  5
A82A
330
A74F
100
AcDbEntity
  8
1
  6
Continuous
100
AcDbCircle
 10
260.565035
 20
168.839702
 30
0.0
 40
8.0
100
AcDbArc
 50
0.6095660000000001
 51
37.57193400000001
  0
LINE
  5
A82B
330
A74F
100
AcDbEntity
  8
1
  6
Continuous
100
AcDbLine
 10
266.2727419999999
 20
168.1456459999999
 30
0.0
 11
266.3050839999999
 21
165.1057189999999
 31
0.0
  0
LINE
  5
A82C
330
A74F
100
AcDbEntity
  8
1
  6
Continuous
100
AcDbLine
 10
264.6925519999999
 20
170.717782
 30
0.0
 11
264.6925519999999
 21
172.834857
 31
0.0
  0
ARC
  5
A82D
330
A74F
100
AcDbEntity
  8
1
  6
Continuous
100
AcDbCircle
 10
276.692552
 20
175.717782
 30
0.0
 40
13.0
100
AcDbArc
 50
186.951364
 51
202.6198649999999
  0
LINE
  5
A82E
330
A74F
100
AcDbEntity
  8
1
  6
Continuous
100
AcDbLine
 10
264.6925519999999
 20
170.717782
 30
0.0
 11
265.8189899999999
 21
170.717782
 31
0.0
  0
LINE
  5
A82F
330
A74F
100
AcDbEntity
  8
1
  6
Continuous
100
AcDbLine
 10
301.9423639999998
 20
169.9677819999998
 30
0.0
 11
304.077941
 21
169.9677819999998
 31
0.0
  0
LINE
  5
A830
330
A74F
100
AcDbEntity
  8
1
  6
Continuous
100
AcDbLine
 10
304.077941
 20
173.9630619999998
 30
0.0
 11
304.077941
 21
169.9677819999998
 31
0.0
  0
ARC
  5
A831
330
A74F
100
AcDbEntity
  8
1
  6
Continuous
100
AcDbCircle
 10
295.292299
 20
175.717782
 30
0.0
 40
10.5
100
AcDbArc
 50
326.7961769999998
 51
6.033259999999998
  0
LINE
  5
A832
330
A74F
100
AcDbEntity
  8
1
  6
Continuous
100
AcDbLine
 10
59.588285
 20
209.3610889999999
 30
0.0
 11
60.803637
 21
210.5764409999999
 31
0.0
  0
LINE
  5
A833
330
A74F
100
AcDbEntity
  8
1
  6
Continuous
100
AcDbLine
 10
69.38942
 20
209.3610889999999
 30
0.0
 11
38.586282
 21
209.3610889999999
 31
0.0
  0
LINE
  5
A834
330
A74F
100
AcDbEntity
  8
1
  6
Continuous
100
AcDbLine
 10
38.507466
 20
208.353936
 30
0.0
 11
69.468237
 21
208.353936
 31
0.0
  0
LINE
  5
A835
330
A74F
100
AcDbEntity
  8
1
  6
Continuous
100
AcDbLine
 10
44.031936
 20
209.3610889999999
 30
0.0
 11
45.24728699999999
 21
210.5764409999999
 31
0.0
  0
LINE
  5
A836
330
A74F
100
AcDbEntity
  8
1
  6
Continuous
100
AcDbLine
 10
45.150426
 20
209.3610889999999
 30
0.0
 11
43.93507399999999
 21
210.5764409999999
 31
0.0
  0
LINE
  5
A837
330
A74F
100
AcDbEntity
  8
1
  6
Continuous
100
AcDbLine
 10
42.72191999999999
 20
205.5535639999999
 30
0.0
 11
43.789737
 21
205.5535639999999
 31
0.0
  0
LINE
  5
A838
330
A74F
100
AcDbEntity
  8
1
  6
Continuous
100
AcDbLine
 10
43.736212
 20
209.3610889999999
 30
0.0
 11
42.52086
 21
210.5764409999999
 31
0.0
  0
LINE
  5
A839
330
A74F
100
AcDbEntity
  8
1
  6
Continuous
100
AcDbLine
 10
42.617722
 20
209.3610889999999
 30
0.0
 11
43.83307399999998
 21
210.5764409999999
 31
0.0
  0
LINE
  5
A83A
330
A74F
100
AcDbEntity
  8
1
  6
Continuous
100
AcDbLine
 10
38.866056
 20
209.988604
 30
0.0
 11
39.493571
 21
209.3610889999999
 31
0.0
  0
ARC
  5
A83B
330
A74F
100
AcDbEntity
  8
1
  6
Continuous
100
AcDbCircle
 10
42.227783
 20
210.0128329999999
 30
0.0
 40
4.217937
100
AcDbArc
 50
212.9024809999999
 51
227.0719179999999
  0
ARC
  5
A83C
330
A74F
100
AcDbEntity
  8
1
  6
Continuous
100
AcDbCircle
 10
43.003175
 20
210.846435
 30
0.0
 40
5.356411999999998
100
AcDbArc
 50
227.0719179999999
 51
260.59491
  0
ARC
  5
A83D
330
A74F
100
AcDbEntity
  8
1
  6
Continuous
100
AcDbCircle
 10
37.49265799999999
 20
210.1638349999999
 30
0.0
 40
2.088299
100
AcDbArc
 50
319.8145149999998
 51
335.385289
  0
LINE
  5
A83E
330
A74F
100
AcDbEntity
  8
1
  6
Continuous
100
AcDbLine
 10
38.709404
 20
209.6954119999999
 30
0.0
 11
39.59043299999999
 21
210.5764409999999
 31
0.0
  0
ARC
  5
A83F
330
A74F
100
AcDbEntity
  8
1
  6
Continuous
100
AcDbCircle
 10
40.98785099999999
 20
208.6664889999999
 30
0.0
 40
2.5
100
AcDbArc
 50
130.183595
 51
187.18198
  0
ARC
  5
A840
330
A74F
100
AcDbEntity
  8
1
  6
Continuous
100
AcDbCircle
 10
38.82010499999999
 20
209.042632
 30
0.0
 40
0.3507099999999999
100
AcDbArc
 50
305.759494
 51
319.8145149999998
  0
LINE
  5
A841
330
A74F
100
AcDbEntity
  8
1
  6
Continuous
100
AcDbLine
 10
39.025055
 20
208.7580389999998
 30
0.0
 11
38.806344
 21
208.353936
 31
0.0
  0
LINE
  5
A842
330
A74F
100
AcDbEntity
  8
1
  6
Continuous
100
AcDbLine
 10
38.730922
 20
208.353936
 30
0.0
 11
38.62296699999999
 21
208.3471679999999
 31
0.0
  0
ARC
  5
A843
330
A74F
100
AcDbEntity
  8
1
  6
Continuous
100
AcDbCircle
 10
38.78015299999999
 20
208.2492709999999
 30
0.0
 40
0.18518
100
AcDbArc
 50
148.0847599999999
 51
201.017471
  0
ARC
  5
A844
330
A74F
100
AcDbEntity
  8
1
  6
Continuous
100
AcDbCircle
 10
37.490958
 20
207.7539439999999
 30
0.0
 40
1.195896999999998
100
AcDbArc
 50
358.4503999999999
 51
21.017471
  0
ARC
  5
A845
330
A74F
100
AcDbEntity
  8
1
  6
Continuous
100
AcDbCircle
 10
39.527945
 20
209.231376
 30
0.0
 40
0.150422
100
AcDbArc
 50
120.421811
 51
155.3852889999998
  0
LINE
  5
A846
330
A74F
100
AcDbEntity
  8
1
  6
Continuous
100
AcDbLine
 10
41.20350799999999
 20
209.3610889999999
 30
0.0
 11
42.41886
 21
210.5764409999999
 31
0.0
  0
LINE
  5
A847
330
A74F
100
AcDbEntity
  8
1
  6
Continuous
100
AcDbLine
 10
39.789295
 20
209.3610889999999
 30
0.0
 11
41.00464699999998
 21
210.5764409999999
 31
0.0
  0
LINE
  5
A848
330
A74F
100
AcDbEntity
  8
1
  6
Continuous
100
AcDbLine
 10
42.321999
 20
209.3610889999999
 30
0.0
 11
41.106647
 21
210.5764409999999
 31
0.0
  0
LINE
  5
A849
330
A74F
100
AcDbEntity
  8
1
  6
Continuous
100
AcDbLine
 10
40.90778499999998
 20
209.3610889999999
 30
0.0
 11
39.692433
 21
210.5764409999999
 31
0.0
  0
ARC
  5
A84A
330
A74F
100
AcDbEntity
  8
1
  6
Continuous
100
AcDbCircle
 10
42.72191999999999
 20
226.412562
 30
0.0
 40
20.85899799999999
100
AcDbArc
 50
268.368019
 51
270.0
  0
LINE
  5
A84B
330
A74F
100
AcDbEntity
  8
1
  6
Continuous
100
AcDbLine
 10
56.464134
 20
209.3610889999999
 30
0.0
 11
55.24878199999999
 21
210.5764409999999
 31
0.0
  0
LINE
  5
A84C
330
A74F
100
AcDbEntity
  8
1
  6
Continuous
100
AcDbLine
 10
49.393066
 20
209.3610889999999
 30
0.0
 11
48.177715
 21
210.5764409999999
 31
0.0
  0
LINE
  5
A84D
330
A74F
100
AcDbEntity
  8
1
  6
Continuous
100
AcDbLine
 10
50.80728
 20
209.3610889999999
 30
0.0
 11
49.591928
 21
210.5764409999999
 31
0.0
  0
LINE
  5
A84E
330
A74F
100
AcDbEntity
  8
1
  6
Continuous
100
AcDbLine
 10
48.274576
 20
209.3610889999999
 30
0.0
 11
49.489928
 21
210.5764409999999
 31
0.0
  0
LINE
  5
A84F
330
A74F
100
AcDbEntity
  8
1
  6
Continuous
100
AcDbLine
 10
49.68879000000001
 20
209.3610889999999
 30
0.0
 11
50.904142
 21
210.5764409999999
 31
0.0
  0
LINE
  5
A850
330
A74F
100
AcDbEntity
  8
1
  6
Continuous
100
AcDbLine
 10
52.221494
 20
209.3610889999999
 30
0.0
 11
51.00614199999998
 21
210.5764409999999
 31
0.0
  0
LINE
  5
A851
330
A74F
100
AcDbEntity
  8
1
  6
Continuous
100
AcDbLine
 10
51.103003
 20
209.3610889999999
 30
0.0
 11
52.31835499999998
 21
210.5764409999999
 31
0.0
  0
LINE
  5
A852
330
A74F
100
AcDbEntity
  8
1
  6
Continuous
100
AcDbLine
 10
55.04992099999999
 20
209.3610889999999
 30
0.0
 11
53.83456899999998
 21
210.5764409999999
 31
0.0
  0
LINE
  5
A853
330
A74F
100
AcDbEntity
  8
1
  6
Continuous
100
AcDbLine
 10
52.517217
 20
209.3610889999999
 30
0.0
 11
53.73256899999999
 21
210.5764409999999
 31
0.0
  0
LINE
  5
A854
330
A74F
100
AcDbEntity
  8
1
  6
Continuous
100
AcDbLine
 10
53.93143000000002
 20
209.3610889999999
 30
0.0
 11
55.14678199999998
 21
210.5764409999999
 31
0.0
  0
LINE
  5
A855
330
A74F
100
AcDbEntity
  8
1
  6
Continuous
100
AcDbLine
 10
53.635707
 20
209.3610889999999
 30
0.0
 11
52.420355
 21
210.5764409999999
 31
0.0
  0
LINE
  5
A856
330
A74F
100
AcDbEntity
  8
1
  6
Continuous
100
AcDbLine
 10
46.564639
 20
209.3610889999999
 30
0.0
 11
45.349287
 21
210.5764409999999
 31
0.0
  0
LINE
  5
A857
330
A74F
100
AcDbEntity
  8
1
  6
Continuous
100
AcDbLine
 10
45.446149
 20
209.3610889999999
 30
0.0
 11
46.661501
 21
210.5764409999999
 31
0.0
  0
LINE
  5
A858
330
A74F
100
AcDbEntity
  8
1
  6
Continuous
100
AcDbLine
 10
47.97885299999999
 20
209.3610889999999
 30
0.0
 11
46.76350099999999
 21
210.5764409999999
 31
0.0
  0
LINE
  5
A859
330
A74F
100
AcDbEntity
  8
1
  6
Continuous
100
AcDbLine
 10
46.860363
 20
209.3610889999999
 30
0.0
 11
48.075715
 21
210.5764409999999
 31
0.0
  0
LINE
  5
A85A
330
A74F
100
AcDbEntity
  8
1
  6
Continuous
100
AcDbLine
 10
55.34564399999999
 20
209.3610889999999
 30
0.0
 11
56.56099600000001
 21
210.5764409999999
 31
0.0
  0
LINE
  5
A85B
330
A74F
100
AcDbEntity
  8
1
  6
Continuous
100
AcDbLine
 10
57.87834799999998
 20
209.3610889999999
 30
0.0
 11
56.662996
 21
210.5764409999999
 31
0.0
  0
LINE
  5
A85C
330
A74F
100
AcDbEntity
  8
1
  6
Continuous
100
AcDbLine
 10
56.75985799999999
 20
209.3610889999999
 30
0.0
 11
57.975209
 21
210.5764409999999
 31
0.0
  0
LINE
  5
A85D
330
A74F
100
AcDbEntity
  8
1
  6
Continuous
100
AcDbLine
 10
59.29256099999999
 20
209.3610889999999
 30
0.0
 11
58.07720899999999
 21
210.5764409999999
 31
0.0
  0
LINE
  5
A85E
330
A74F
100
AcDbEntity
  8
1
  6
Continuous
100
AcDbLine
 10
68.073566
 20
209.3610889999999
 30
0.0
 11
68.940326
 21
210.2278479999999
 31
0.0
  0
ARC
  5
A85F
330
A74F
100
AcDbEntity
  8
1
  6
Continuous
100
AcDbCircle
 10
68.44775699999999
 20
209.231376
 30
0.0
 40
0.150422
100
AcDbArc
 50
24.614711
 51
59.57818899999999
  0
ARC
  5
A860
330
A74F
100
AcDbEntity
  8
1
  6
Continuous
100
AcDbCircle
 10
65.747919
 20
210.0128329999999
 30
0.0
 40
4.217937
100
AcDbArc
 50
312.9280819999999
 51
327.0975189999999
  0
ARC
  5
A861
330
A74F
100
AcDbEntity
  8
1
  6
Continuous
100
AcDbCircle
 10
70.48304399999998
 20
210.1638349999999
 30
0.0
 40
2.088299
100
AcDbArc
 50
204.614711
 51
220.185485
  0
ARC
  5
A862
330
A74F
100
AcDbEntity
  8
1
  6
Continuous
100
AcDbCircle
 10
69.155597
 20
209.042632
 30
0.0
 40
0.3507099999999999
100
AcDbArc
 50
220.185485
 51
234.240506
  0
LINE
  5
A863
330
A74F
100
AcDbEntity
  8
1
  6
Continuous
100
AcDbLine
 10
68.950647
 20
208.7580389999998
 30
0.0
 11
69.169358
 21
208.353936
 31
0.0
  0
LINE
  5
A864
330
A74F
100
AcDbEntity
  8
1
  6
Continuous
100
AcDbLine
 10
69.24478
 20
208.353936
 30
0.0
 11
69.352735
 21
208.3471679999999
 31
0.0
  0
ARC
  5
A865
330
A74F
100
AcDbEntity
  8
1
  6
Continuous
100
AcDbCircle
 10
69.195549
 20
208.2492709999999
 30
0.0
 40
0.18518
100
AcDbArc
 50
338.982529
 51
31.91524
  0
ARC
  5
A866
330
A74F
100
AcDbEntity
  8
1
  6
Continuous
100
AcDbCircle
 10
70.48474399999998
 20
207.7539439999999
 30
0.0
 40
1.195896999999998
100
AcDbArc
 50
158.982529
 51
181.5495999999999
  0
LINE
  5
A867
330
A74F
100
AcDbEntity
  8
1
  6
Continuous
100
AcDbLine
 10
64.18596599999999
 20
205.5535639999999
 30
0.0
 11
65.253782
 21
205.5535639999999
 31
0.0
  0
ARC
  5
A868
330
A74F
100
AcDbEntity
  8
1
  6
Continuous
100
AcDbCircle
 10
65.253782
 20
226.412562
 30
0.0
 40
20.85899799999999
100
AcDbArc
 50
270.0
 51
271.6319809999999
  0
ARC
  5
A869
330
A74F
100
AcDbEntity
  8
1
  6
Continuous
100
AcDbCircle
 10
64.972527
 20
210.846435
 30
0.0
 40
5.356411999999998
100
AcDbArc
 50
279.4050899999999
 51
312.9280819999999
  0
LINE
  5
A86A
330
A74F
100
AcDbEntity
  8
1
  6
Continuous
100
AcDbLine
 10
66.363629
 20
209.3610889999999
 30
0.0
 11
65.14827700000001
 21
210.5764409999999
 31
0.0
  0
LINE
  5
A86B
330
A74F
100
AcDbEntity
  8
1
  6
Continuous
100
AcDbLine
 10
63.830925
 20
209.3610889999999
 30
0.0
 11
65.046277
 21
210.5764409999999
 31
0.0
  0
LINE
  5
A86C
330
A74F
100
AcDbEntity
  8
1
  6
Continuous
100
AcDbLine
 10
65.24513899999999
 20
209.3610889999999
 30
0.0
 11
66.460491
 21
210.5764409999999
 31
0.0
  0
LINE
  5
A86D
330
A74F
100
AcDbEntity
  8
1
  6
Continuous
100
AcDbLine
 10
67.777843
 20
209.3610889999999
 30
0.0
 11
66.56249100000001
 21
210.5764409999999
 31
0.0
  0
LINE
  5
A86E
330
A74F
100
AcDbEntity
  8
1
  6
Continuous
100
AcDbLine
 10
66.659353
 20
209.3610889999999
 30
0.0
 11
67.87470400000001
 21
210.5764409999999
 31
0.0
  0
LINE
  5
A86F
330
A74F
100
AcDbEntity
  8
1
  6
Continuous
100
AcDbLine
 10
69.19205600000001
 20
209.3610889999999
 30
0.0
 11
67.976704
 21
210.5764409999999
 31
0.0
  0
ARC
  5
A870
330
A74F
100
AcDbEntity
  8
1
  6
Continuous
100
AcDbCircle
 10
66.98785100000001
 20
208.6664889999999
 30
0.0
 40
2.5
100
AcDbArc
 50
352.8180199999998
 51
49.81640500000001
  0
LINE
  5
A871
330
A74F
100
AcDbEntity
  8
1
  6
Continuous
100
AcDbLine
 10
61.002498
 20
209.3610889999999
 30
0.0
 11
62.21785
 21
210.5764409999999
 31
0.0
  0
LINE
  5
A872
330
A74F
100
AcDbEntity
  8
1
  6
Continuous
100
AcDbLine
 10
63.53520200000001
 20
209.3610889999999
 30
0.0
 11
62.31985
 21
210.5764409999999
 31
0.0
  0
LINE
  5
A873
330
A74F
100
AcDbEntity
  8
1
  6
Continuous
100
AcDbLine
 10
62.12098799999999
 20
209.3610889999999
 30
0.0
 11
60.905637
 21
210.5764409999999
 31
0.0
  0
LINE
  5
A874
330
A74F
100
AcDbEntity
  8
1
  6
Continuous
100
AcDbLine
 10
62.41671199999998
 20
209.3610889999999
 30
0.0
 11
63.632064
 21
210.5764409999999
 31
0.0
  0
LINE
  5
A875
330
A74F
100
AcDbEntity
  8
1
  6
Continuous
100
AcDbLine
 10
64.949416
 20
209.3610889999999
 30
0.0
 11
63.734064
 21
210.5764409999999
 31
0.0
  0
ARC
  5
A876
330
A74F
100
AcDbEntity
  8
1
  6
Continuous
100
AcDbCircle
 10
294.9771169999999
 20
210.846435
 30
0.0
 40
5.356411999999998
100
AcDbArc
 50
279.4050899999999
 51
333.628947
  0
ARC
  5
A877
330
A74F
100
AcDbEntity
  8
1
  6
Continuous
100
AcDbCircle
 10
295.258372
 20
226.412562
 30
0.0
 40
20.85899799999999
100
AcDbArc
 50
270.0
 51
271.6319809999999
  0
LINE
  5
A878
330
A74F
100
AcDbEntity
  8
1
  6
Continuous
100
AcDbLine
 10
272.72651
 20
205.5535639999999
 30
0.0
 11
295.258372
 21
205.5535639999999
 31
0.0
  0
ARC
  5
A879
330
A74F
100
AcDbEntity
  8
1
  6
Continuous
100
AcDbCircle
 10
273.007765
 20
210.846435
 30
0.0
 40
5.356411999999998
100
AcDbArc
 50
206.371053
 51
260.59491
  0
ARC
  5
A87A
330
A74F
100
AcDbEntity
  8
1
  6
Continuous
100
AcDbCircle
 10
272.72651
 20
226.412562
 30
0.0
 40
20.85899799999999
100
AcDbArc
 50
268.368019
 51
270.0
  0
ARC
  5
A87B
330
A74F
100
AcDbEntity
  8
1
  6
Continuous
100
AcDbCircle
 10
196.4748219999999
 20
210.84647
 30
0.0
 40
5.356411999999998
100
AcDbArc
 50
279.4050899999999
 51
333.2380249999999
  0
ARC
  5
A87C
330
A74F
100
AcDbEntity
  8
1
  6
Continuous
100
AcDbCircle
 10
196.756077
 20
226.412597
 30
0.0
 40
20.85899799999999
100
AcDbArc
 50
270.0
 51
271.6319809999999
  0
LINE
  5
A87D
330
A74F
100
AcDbEntity
  8
1
  6
Continuous
100
AcDbLine
 10
193.595156
 20
205.553599
 30
0.0
 11
196.756077
 21
205.553599
 31
0.0
  0
ARC
  5
A87E
330
A74F
100
AcDbEntity
  8
1
  6
Continuous
100
AcDbCircle
 10
185.490146
 20
68.81031800000001
 30
0.0
 40
15.0
100
AcDbArc
 50
228.415325
 51
131.584675
  0
LINE
  5
A87F
330
A74F
100
AcDbEntity
  8
1
  6
Continuous
100
AcDbLine
 10
260.992441
 20
217.2325199999999
 30
0.0
 11
306.992441
 21
217.2325199999999
 31
0.0
  0
LINE
  5
A880
330
A74F
100
AcDbEntity
  8
1
  6
Continuous
100
AcDbLine
 10
261.0023569999999
 20
218.7147819999999
 30
0.0
 11
261.8173569999999
 21
218.7147819999999
 31
0.0
  0
LINE
  5
A881
330
A74F
100
AcDbEntity
  8
1
  6
Continuous
100
AcDbLine
 10
306.992441
 20
215.17952
 30
0.0
 11
260.992441
 21
215.17952
 31
0.0
  0
LINE
  5
A882
330
A74F
100
AcDbEntity
  8
1
  6
Continuous
100
AcDbLine
 10
260.992441
 20
216.8599369999999
 30
0.0
 11
261.365024
 21
217.2325199999999
 31
0.0
  0
ARC
  5
A883
330
A74F
100
AcDbEntity
  8
1
  6
Continuous
100
AcDbCircle
 10
261.266327
 20
217.7949289999999
 30
0.0
 40
0.9569799999999998
100
AcDbArc
 50
106.011913
 51
155.9597349999999
  0
ARC
  5
A884
330
A74F
100
AcDbEntity
  8
1
  6
Continuous
100
AcDbCircle
 10
264.603839
 20
220.265009
 30
0.0
 40
4.697225
100
AcDbArc
 50
206.286695
 51
220.210037
  0
LINE
  5
A885
330
A74F
100
AcDbEntity
  8
1
  6
Continuous
100
AcDbLine
 10
260.992441
 20
217.2325199999999
 30
0.0
 11
260.992441
 21
215.17952
 31
0.0
  0
CIRCLE
  5
A886
330
A74F
100
AcDbEntity
  8
1
  6
Continuous
100
AcDbCircle
 10
185.490146
 20
341.9206459999998
 30
0.0
 40
22.17508399999999
  0
CIRCLE
  5
A887
330
A74F
100
AcDbEntity
  8
1
  6
Continuous
100
AcDbCircle
 10
185.490146
 20
341.9206459999998
 30
0.0
 40
23.60008399999999
  0
LINE
  5
A888
330
A74F
100
AcDbEntity
  8
1
  6
Continuous
100
AcDbLine
 10
192.9957
 20
328.9206459999999
 30
0.0
 11
200.501253
 21
341.9206459999998
 31
0.0
  0
LINE
  5
A889
330
A74F
100
AcDbEntity
  8
1
  6
Continuous
100
AcDbLine
 10
192.9957
 20
354.9206459999999
 30
0.0
 11
200.501253
 21
341.9206459999998
 31
0.0
  0
LINE
  5
A88A
330
A74F
100
AcDbEntity
  8
4
  6
CENTER
100
AcDbLine
 10
160.490146
 20
316.4655649999999
 30
0.0
 11
160.490146
 21
368.5653419999999
 31
0.0
  0
ARC
  5
A88B
330
A74F
100
AcDbEntity
  8
1
  6
Continuous
100
AcDbCircle
 10
185.824322
 20
341.9206459999998
 30
0.0
 40
25.5
100
AcDbArc
 50
131.8398469999999
 51
228.1601529999999
  0
ARC
  5
A88C
330
A74F
100
AcDbEntity
  8
1
  6
Continuous
100
AcDbCircle
 10
154.565974
 20
298.8905389999998
 30
0.0
 40
27.938726
100
AcDbArc
 50
59.33664000000001
 51
82.30457099999998
  0
ARC
  5
A88D
330
A74F
100
AcDbEntity
  8
1
  6
Continuous
100
AcDbCircle
 10
154.565974
 20
384.9507529999998
 30
0.0
 40
27.938726
100
AcDbArc
 50
277.6954289999998
 51
300.66336
  0
CIRCLE
  5
A88E
330
A74F
100
AcDbEntity
  8
1
  6
Continuous
100
AcDbCircle
 10
185.490146
 20
341.9206459999998
 30
0.0
 40
9.5
  0
ARC
  5
A88F
330
A74F
100
AcDbEntity
  8
1
  6
Continuous
100
AcDbCircle
 10
185.490146
 20
341.9206459999998
 30
0.0
 40
9.25
100
AcDbArc
 50
115.4843689999999
 51
244.515631
  0
ARC
  5
A890
330
A74F
100
AcDbEntity
  8
1
  6
Continuous
100
AcDbCircle
 10
185.490146
 20
341.9206459999998
 30
0.0
 40
9.25
100
AcDbArc
 50
295.484369
 51
64.515631
  0
CIRCLE
  5
A891
330
A74F
100
AcDbEntity
  8
1
  6
Continuous
100
AcDbCircle
 10
185.490146
 20
341.9206459999998
 30
0.0
 40
6.0
  0
LINE
  5
A892
330
A74F
100
AcDbEntity
  8
1
  6
Continuous
100
AcDbLine
 10
170.479039
 20
341.9206459999998
 30
0.0
 11
177.984593
 21
354.9206459999999
 31
0.0
  0
LINE
  5
A893
330
A74F
100
AcDbEntity
  8
1
  6
Continuous
100
AcDbLine
 10
189.4700959999999
 20
333.570646
 30
0.0
 11
181.5101959999998
 21
333.570646
 31
0.0
  0
LINE
  5
A894
330
A74F
100
AcDbEntity
  8
1
  6
Continuous
100
AcDbLine
 10
177.984593
 20
328.9206459999999
 30
0.0
 11
192.9957
 21
328.9206459999999
 31
0.0
  0
LINE
  5
A895
330
A74F
100
AcDbEntity
  8
1
  6
Continuous
100
AcDbLine
 10
170.479039
 20
341.9206459999998
 30
0.0
 11
177.984593
 21
328.9206459999999
 31
0.0
  0
LINE
  5
A896
330
A74F
100
AcDbEntity
  8
1
  6
Continuous
100
AcDbLine
 10
189.4700959999999
 20
350.270646
 30
0.0
 11
181.5101959999998
 21
350.270646
 31
0.0
  0
LINE
  5
A897
330
A74F
100
AcDbEntity
  8
1
  6
Continuous
100
AcDbLine
 10
177.984593
 20
354.9206459999999
 30
0.0
 11
192.9957
 21
354.9206459999999
 31
0.0
  0
ARC
  5
A898
330
A74F
100
AcDbEntity
  8
1
  6
Continuous
100
AcDbCircle
 10
185.824322
 20
341.9206459999998
 30
0.0
 40
31.5
100
AcDbArc
 50
151.146925
 51
209.1507419999998
  0
ARC
  5
A899
330
A74F
100
AcDbEntity
  8
1
  6
Continuous
100
AcDbCircle
 10
156.0788389999999
 20
325.5320279999999
 30
0.0
 40
2.461456999999998
100
AcDbArc
 50
325.720974
 51
28.853075
  0
ARC
  5
A89A
330
A74F
100
AcDbEntity
  8
1
  6
Continuous
100
AcDbCircle
 10
156.0788389999999
 20
358.3092639999999
 30
0.0
 40
2.461456999999998
100
AcDbArc
 50
331.146925
 51
30.637837
  0
LINE
  5
A89B
330
A74F
100
AcDbEntity
  8
1
  6
Continuous
100
AcDbLine
 10
293.4924459999999
 20
227.9677819999998
 30
0.0
 11
293.4924459999999
 21
260.1177819999999
 31
0.0
  0
LINE
  5
A89C
330
A74F
100
AcDbEntity
  8
1
  6
Continuous
100
AcDbLine
 10
274.4924459999999
 20
227.9677819999998
 30
0.0
 11
274.4924459999999
 21
260.1177819999999
 31
0.0
  0
LINE
  5
A89D
330
A74F
100
AcDbEntity
  8
1
  6
Continuous
100
AcDbLine
 10
296.9924409999999
 20
226.2177819999998
 30
0.0
 11
270.9924409999999
 21
226.2177819999998
 31
0.0
  0
LINE
  5
A89E
330
A74F
100
AcDbEntity
  8
1
  6
Continuous
100
AcDbLine
 10
300.639299
 20
222.2177819999998
 30
0.0
 11
267.345593
 21
222.2177819999998
 31
0.0
  0
LINE
  5
A89F
330
A74F
100
AcDbEntity
  8
1
  6
Continuous
100
AcDbLine
 10
261.8173569999999
 20
218.7147819999999
 30
0.0
 11
306.167525
 21
218.7147819999999
 31
0.0
  0
LINE
  5
A8A0
330
A74F
100
AcDbEntity
  8
1
  6
Continuous
100
AcDbLine
 10
294.5307220000001
 20
215.17952
 30
0.0
 11
292.4777220000001
 21
217.2325199999999
 31
0.0
  0
LINE
  5
A8A1
330
A74F
100
AcDbEntity
  8
1
  6
Continuous
100
AcDbLine
 10
293.253149
 20
215.17952
 30
0.0
 11
295.3061489999999
 21
217.2325199999999
 31
0.0
  0
LINE
  5
A8A2
330
A74F
100
AcDbEntity
  8
1
  6
Continuous
100
AcDbLine
 10
274.4924459999999
 20
230.017782
 30
0.0
 11
293.4924459999999
 21
230.017782
 31
0.0
  0
LINE
  5
A8A3
330
A74F
100
AcDbEntity
  8
1
  6
Continuous
100
AcDbLine
 10
277.5601599999999
 20
215.17952
 30
0.0
 11
275.5071599999999
 21
217.2325199999999
 31
0.0
  0
LINE
  5
A8A4
330
A74F
100
AcDbEntity
  8
1
  6
Continuous
100
AcDbLine
 10
276.2825869999999
 20
215.17952
 30
0.0
 11
278.3355869999999
 21
217.2325199999999
 31
0.0
  0
LINE
  5
A8A5
330
A74F
100
AcDbEntity
  8
1
  6
Continuous
100
AcDbLine
 10
267.7973049999998
 20
215.17952
 30
0.0
 11
269.8503049999998
 21
217.2325199999999
 31
0.0
  0
LINE
  5
A8A6
330
A74F
100
AcDbEntity
  8
1
  6
Continuous
100
AcDbLine
 10
266.2464509999999
 20
215.17952
 30
0.0
 11
264.193451
 21
217.2325199999999
 31
0.0
  0
LINE
  5
A8A7
330
A74F
100
AcDbEntity
  8
1
  6
Continuous
100
AcDbLine
 10
264.9688779999999
 20
215.17952
 30
0.0
 11
267.0218779999999
 21
217.2325199999999
 31
0.0
  0
LINE
  5
A8A8
330
A74F
100
AcDbEntity
  8
1
  6
Continuous
100
AcDbLine
 10
263.418024
 20
215.17952
 30
0.0
 11
261.365024
 21
217.2325199999999
 31
0.0
  0
LINE
  5
A8A9
330
A74F
100
AcDbEntity
  8
1
  6
Continuous
100
AcDbLine
 10
262.140451
 20
215.17952
 30
0.0
 11
264.193451
 21
217.2325199999999
 31
0.0
  0
LINE
  5
A8AA
330
A74F
100
AcDbEntity
  8
1
  6
Continuous
100
AcDbLine
 10
269.0748779999998
 20
215.17952
 30
0.0
 11
267.0218779999999
 21
217.2325199999999
 31
0.0
  0
LINE
  5
A8AB
330
A74F
100
AcDbEntity
  8
1
  6
Continuous
100
AcDbLine
 10
274.7317319999999
 20
215.17952
 30
0.0
 11
272.6787319999999
 21
217.2325199999999
 31
0.0
  0
LINE
  5
A8AC
330
A74F
100
AcDbEntity
  8
1
  6
Continuous
100
AcDbLine
 10
271.9033049999998
 20
215.17952
 30
0.0
 11
269.8503049999998
 21
217.2325199999999
 31
0.0
  0
LINE
  5
A8AD
330
A74F
100
AcDbEntity
  8
1
  6
Continuous
100
AcDbLine
 10
270.6257319999999
 20
215.17952
 30
0.0
 11
272.6787319999999
 21
217.2325199999999
 31
0.0
  0
LINE
  5
A8AE
330
A74F
100
AcDbEntity
  8
1
  6
Continuous
100
AcDbLine
 10
273.45416
 20
215.17952
 30
0.0
 11
275.5071599999999
 21
217.2325199999999
 31
0.0
  0
ARC
  5
A8AF
330
A74F
100
AcDbEntity
  8
1
  6
Continuous
100
AcDbCircle
 10
267.345593
 20
216.104164
 30
0.0
 40
6.113617999999997
100
AcDbArc
 50
90.0
 51
154.721609
  0
LINE
  5
A8B0
330
A74F
100
AcDbEntity
  8
1
  6
Continuous
100
AcDbLine
 10
270.9924409999999
 20
226.2177819999998
 30
0.0
 11
270.9924409999999
 21
222.2177819999998
 31
0.0
  0
ARC
  5
A8B1
330
A74F
100
AcDbEntity
  8
1
  6
Continuous
100
AcDbCircle
 10
276.2424459999999
 20
227.9677819999998
 30
0.0
 40
1.75
100
AcDbArc
 50
180.0
 51
270.0
  0
LINE
  5
A8B2
330
A74F
100
AcDbEntity
  8
1
  6
Continuous
100
AcDbLine
 10
286.045441
 20
215.17952
 30
0.0
 11
283.992441
 21
217.2325199999999
 31
0.0
  0
LINE
  5
A8B3
330
A74F
100
AcDbEntity
  8
1
  6
Continuous
100
AcDbLine
 10
284.767868
 20
215.17952
 30
0.0
 11
286.820868
 21
217.2325199999999
 31
0.0
  0
LINE
  5
A8B4
330
A74F
100
AcDbEntity
  8
1
  6
Continuous
100
AcDbLine
 10
283.217014
 20
215.17952
 30
0.0
 11
281.164014
 21
217.2325199999999
 31
0.0
  0
LINE
  5
A8B5
330
A74F
100
AcDbEntity
  8
1
  6
Continuous
100
AcDbLine
 10
280.3885869999999
 20
215.17952
 30
0.0
 11
278.3355869999999
 21
217.2325199999999
 31
0.0
  0
LINE
  5
A8B6
330
A74F
100
AcDbEntity
  8
1
  6
Continuous
100
AcDbLine
 10
279.111014
 20
215.17952
 30
0.0
 11
281.164014
 21
217.2325199999999
 31
0.0
  0
LINE
  5
A8B7
330
A74F
100
AcDbEntity
  8
1
  6
Continuous
100
AcDbLine
 10
281.939441
 20
215.17952
 30
0.0
 11
283.992441
 21
217.2325199999999
 31
0.0
  0
LINE
  5
A8B8
330
A74F
100
AcDbEntity
  8
1
  6
Continuous
100
AcDbLine
 10
291.7022949999998
 20
215.17952
 30
0.0
 11
289.6492949999998
 21
217.2325199999999
 31
0.0
  0
LINE
  5
A8B9
330
A74F
100
AcDbEntity
  8
1
  6
Continuous
100
AcDbLine
 10
288.873868
 20
215.17952
 30
0.0
 11
286.820868
 21
217.2325199999999
 31
0.0
  0
LINE
  5
A8BA
330
A74F
100
AcDbEntity
  8
1
  6
Continuous
100
AcDbLine
 10
287.5962949999999
 20
215.17952
 30
0.0
 11
289.6492949999998
 21
217.2325199999999
 31
0.0
  0
LINE
  5
A8BB
330
A74F
100
AcDbEntity
  8
1
  6
Continuous
100
AcDbLine
 10
290.4247219999998
 20
215.17952
 30
0.0
 11
292.4777220000001
 21
217.2325199999999
 31
0.0
  0
LINE
  5
A8BC
330
A74F
100
AcDbEntity
  8
1
  6
Continuous
100
AcDbLine
 10
283.992441
 20
226.2177819999998
 30
0.0
 11
283.992441
 21
222.2177819999998
 31
0.0
  0
ARC
  5
A8BD
330
A74F
100
AcDbEntity
  8
1
  6
Continuous
100
AcDbCircle
 10
291.7424459999999
 20
227.9677819999998
 30
0.0
 40
1.75
100
AcDbArc
 50
270.0
 51
0.0
  0
ARC
  5
A8BE
330
A74F
100
AcDbEntity
  8
1
  6
Continuous
100
AcDbCircle
 10
306.718555
 20
217.7949289999999
 30
0.0
 40
0.9569799999999998
100
AcDbArc
 50
24.04026499999999
 51
73.98808699999998
  0
LINE
  5
A8BF
330
A74F
100
AcDbEntity
  8
1
  6
Continuous
100
AcDbLine
 10
303.016004
 20
215.17952
 30
0.0
 11
300.963004
 21
217.2325199999999
 31
0.0
  0
LINE
  5
A8C0
330
A74F
100
AcDbEntity
  8
1
  6
Continuous
100
AcDbLine
 10
301.738431
 20
215.17952
 30
0.0
 11
303.791431
 21
217.2325199999999
 31
0.0
  0
LINE
  5
A8C1
330
A74F
100
AcDbEntity
  8
1
  6
Continuous
100
AcDbLine
 10
296.0815769999999
 20
215.17952
 30
0.0
 11
298.1345769999999
 21
217.2325199999999
 31
0.0
  0
LINE
  5
A8C2
330
A74F
100
AcDbEntity
  8
1
  6
Continuous
100
AcDbLine
 10
297.359149
 20
215.17952
 30
0.0
 11
295.3061489999999
 21
217.2325199999999
 31
0.0
  0
LINE
  5
A8C3
330
A74F
100
AcDbEntity
  8
1
  6
Continuous
100
AcDbLine
 10
300.1875769999998
 20
215.17952
 30
0.0
 11
298.1345769999999
 21
217.2325199999999
 31
0.0
  0
LINE
  5
A8C4
330
A74F
100
AcDbEntity
  8
1
  6
Continuous
100
AcDbLine
 10
298.910004
 20
215.17952
 30
0.0
 11
300.963004
 21
217.2325199999999
 31
0.0
  0
LINE
  5
A8C5
330
A74F
100
AcDbEntity
  8
1
  6
Continuous
100
AcDbLine
 10
304.566858
 20
215.17952
 30
0.0
 11
306.619858
 21
217.2325199999999
 31
0.0
  0
LINE
  5
A8C6
330
A74F
100
AcDbEntity
  8
1
  6
Continuous
100
AcDbLine
 10
305.844431
 20
215.17952
 30
0.0
 11
303.791431
 21
217.2325199999999
 31
0.0
  0
ARC
  5
A8C7
330
A74F
100
AcDbEntity
  8
1
  6
Continuous
100
AcDbCircle
 10
303.3810429999999
 20
220.265009
 30
0.0
 40
4.697225
100
AcDbArc
 50
319.789963
 51
333.713305
  0
LINE
  5
A8C8
330
A74F
100
AcDbEntity
  8
1
  6
Continuous
100
AcDbLine
 10
306.992441
 20
217.2325199999999
 30
0.0
 11
306.992441
 21
215.17952
 31
0.0
  0
LINE
  5
A8C9
330
A74F
100
AcDbEntity
  8
1
  6
Continuous
100
AcDbLine
 10
306.992441
 20
216.8599369999999
 30
0.0
 11
306.619858
 21
217.2325199999999
 31
0.0
  0
ARC
  5
A8CA
330
A74F
100
AcDbEntity
  8
1
  6
Continuous
100
AcDbCircle
 10
300.639299
 20
216.104164
 30
0.0
 40
6.113617999999997
100
AcDbArc
 50
25.278391
 51
90.0
  0
LINE
  5
A8CB
330
A74F
100
AcDbEntity
  8
1
  6
Continuous
100
AcDbLine
 10
296.9924409999999
 20
226.2177819999998
 30
0.0
 11
296.9924409999999
 21
222.2177819999998
 31
0.0
  0
LINE
  5
A8CC
330
A74F
100
AcDbEntity
  8
1
  6
Continuous
100
AcDbLine
 10
306.982525
 20
218.7147819999999
 30
0.0
 11
306.167525
 21
218.7147819999999
 31
0.0
  0
LINE
  5
A8CD
330
A74F
100
AcDbEntity
  8
1
  6
Continuous
100
AcDbLine
 10
275.642441
 20
264.3177819999999
 30
0.0
 11
292.3424409999999
 21
264.3177819999999
 31
0.0
  0
LINE
  5
A8CE
330
A74F
100
AcDbEntity
  8
1
  6
Continuous
100
AcDbLine
 10
275.4924459999999
 20
261.1177819999999
 30
0.0
 11
292.4924459999999
 21
261.1177819999999
 31
0.0
  0
LINE
  5
A8CF
330
A74F
100
AcDbEntity
  8
1
  6
Continuous
100
AcDbLine
 10
275.642441
 20
264.3177819999999
 30
0.0
 11
275.642441
 21
261.1177819999999
 31
0.0
  0
ARC
  5
A8D0
330
A74F
100
AcDbEntity
  8
1
  6
Continuous
100
AcDbCircle
 10
275.4924459999999
 20
260.1177819999999
 30
0.0
 40
1.0
100
AcDbArc
 50
90.0
 51
180.0
  0
LINE
  5
A8D1
330
A74F
100
AcDbEntity
  8
1
  6
Continuous
100
AcDbLine
 10
289.9924459999999
 20
264.3177819999999
 30
0.0
 11
289.9924459999999
 21
265.2177819999999
 31
0.0
  0
LINE
  5
A8D2
330
A74F
100
AcDbEntity
  8
1
  6
Continuous
100
AcDbLine
 10
277.9924459999999
 20
264.3177819999999
 30
0.0
 11
277.9924459999999
 21
265.2177819999999
 31
0.0
  0
LINE
  5
A8D3
330
A74F
100
AcDbEntity
  8
1
  6
Continuous
100
AcDbLine
 10
292.3424409999999
 20
264.3177819999999
 30
0.0
 11
292.3424409999999
 21
261.1177819999999
 31
0.0
  0
ARC
  5
A8D4
330
A74F
100
AcDbEntity
  8
1
  6
Continuous
100
AcDbCircle
 10
292.4924459999999
 20
260.1177819999999
 30
0.0
 40
1.0
100
AcDbArc
 50
0.0
 51
90.0
  0
LINE
  5
A8D5
330
A74F
100
AcDbEntity
  8
1
  6
Continuous
100
AcDbLine
 10
277.9924459999999
 20
265.2177819999999
 30
0.0
 11
289.9924459999999
 21
265.2177819999999
 31
0.0
  0
LINE
  5
A8D6
330
A74F
100
AcDbEntity
  8
1
  6
Continuous
100
AcDbLine
 10
288.9924459999999
 20
266.217782
 30
0.0
 11
278.9924459999999
 21
266.217782
 31
0.0
  0
LINE
  5
A8D7
330
A74F
100
AcDbEntity
  8
1
  6
Continuous
100
AcDbLine
 10
277.9924459999999
 20
265.2177819999999
 30
0.0
 11
278.9924459999999
 21
266.217782
 31
0.0
  0
LINE
  5
A8D8
330
A74F
100
AcDbEntity
  8
1
  6
Continuous
100
AcDbLine
 10
289.9924459999999
 20
265.2177819999999
 30
0.0
 11
288.9924459999999
 21
266.217782
 31
0.0
  0
LINE
  5
A8D9
330
A74F
100
AcDbEntity
  8
2
  6
Continuous
100
AcDbLine
 10
278.9394409999998
 20
266.164777
 30
0.0
 11
278.9394409999998
 21
264.3177819999999
 31
0.0
  0
LINE
  5
A8DA
330
A74F
100
AcDbEntity
  8
2
  6
Continuous
100
AcDbLine
 10
289.0454409999999
 20
266.1647869999999
 30
0.0
 11
289.0454409999999
 21
264.3177819999999
 31
0.0
  0
CIRCLE
  5
A8DB
330
A74F
100
AcDbEntity
  8
2
  6
Continuous
100
AcDbCircle
 10
185.490146
 20
341.9206459999998
 30
0.0
 40
5.052999999999999
  0
ARC
  5
A8DC
330
A74F
100
AcDbEntity
  8
1
  6
Continuous
100
AcDbCircle
 10
62.48785600000001
 20
260.1177819999999
 30
0.0
 40
1.0
100
AcDbArc
 50
0.0
 51
90.0
  0
ARC
  5
A8DD
330
A74F
100
AcDbEntity
  8
1
  6
Continuous
100
AcDbCircle
 10
45.487856
 20
260.1177819999999
 30
0.0
 40
1.0
100
AcDbArc
 50
90.0
 51
180.0
  0
LINE
  5
A8DE
330
A74F
100
AcDbEntity
  8
1
  6
Continuous
100
AcDbLine
 10
76.98785100000002
 20
216.8599369999999
 30
0.0
 11
76.615268
 21
217.2325199999999
 31
0.0
  0
LINE
  5
A8DF
330
A74F
100
AcDbEntity
  8
1
  6
Continuous
100
AcDbLine
 10
76.98785100000002
 20
217.2325199999999
 30
0.0
 11
76.98785100000002
 21
215.17952
 31
0.0
  0
LINE
  5
A8E0
330
A74F
100
AcDbEntity
  8
1
  6
Continuous
100
AcDbLine
 10
75.83984100000002
 20
215.17952
 30
0.0
 11
73.78684099999998
 21
217.2325199999999
 31
0.0
  0
LINE
  5
A8E1
330
A74F
100
AcDbEntity
  8
1
  6
Continuous
100
AcDbLine
 10
74.562268
 20
215.17952
 30
0.0
 11
76.615268
 21
217.2325199999999
 31
0.0
  0
LINE
  5
A8E2
330
A74F
100
AcDbEntity
  8
1
  6
Continuous
100
AcDbLine
 10
68.905414
 20
215.17952
 30
0.0
 11
70.95841400000002
 21
217.2325199999999
 31
0.0
  0
LINE
  5
A8E3
330
A74F
100
AcDbEntity
  8
1
  6
Continuous
100
AcDbLine
 10
70.18298699999999
 20
215.17952
 30
0.0
 11
68.129987
 21
217.2325199999999
 31
0.0
  0
LINE
  5
A8E4
330
A74F
100
AcDbEntity
  8
1
  6
Continuous
100
AcDbLine
 10
67.35455899999999
 20
215.17952
 30
0.0
 11
65.301559
 21
217.2325199999999
 31
0.0
  0
LINE
  5
A8E5
330
A74F
100
AcDbEntity
  8
1
  6
Continuous
100
AcDbLine
 10
66.076987
 20
215.17952
 30
0.0
 11
68.129987
 21
217.2325199999999
 31
0.0
  0
LINE
  5
A8E6
330
A74F
100
AcDbEntity
  8
1
  6
Continuous
100
AcDbLine
 10
71.73384099999998
 20
215.17952
 30
0.0
 11
73.78684099999998
 21
217.2325199999999
 31
0.0
  0
LINE
  5
A8E7
330
A74F
100
AcDbEntity
  8
1
  6
Continuous
100
AcDbLine
 10
73.011414
 20
215.17952
 30
0.0
 11
70.95841400000002
 21
217.2325199999999
 31
0.0
  0
LINE
  5
A8E8
330
A74F
100
AcDbEntity
  8
1
  6
Continuous
100
AcDbLine
 10
60.42013199999999
 20
215.17952
 30
0.0
 11
62.47313199999999
 21
217.2325199999999
 31
0.0
  0
LINE
  5
A8E9
330
A74F
100
AcDbEntity
  8
1
  6
Continuous
100
AcDbLine
 10
57.59170499999999
 20
215.17952
 30
0.0
 11
59.644705
 21
217.2325199999999
 31
0.0
  0
LINE
  5
A8EA
330
A74F
100
AcDbEntity
  8
1
  6
Continuous
100
AcDbLine
 10
58.869278
 20
215.17952
 30
0.0
 11
56.81627800000001
 21
217.2325199999999
 31
0.0
  0
LINE
  5
A8EB
330
A74F
100
AcDbEntity
  8
1
  6
Continuous
100
AcDbLine
 10
61.69770500000001
 20
215.17952
 30
0.0
 11
59.644705
 21
217.2325199999999
 31
0.0
  0
LINE
  5
A8EC
330
A74F
100
AcDbEntity
  8
1
  6
Continuous
100
AcDbLine
 10
51.934851
 20
215.17952
 30
0.0
 11
53.987851
 21
217.2325199999999
 31
0.0
  0
LINE
  5
A8ED
330
A74F
100
AcDbEntity
  8
1
  6
Continuous
100
AcDbLine
 10
53.212424
 20
215.17952
 30
0.0
 11
51.159424
 21
217.2325199999999
 31
0.0
  0
LINE
  5
A8EE
330
A74F
100
AcDbEntity
  8
1
  6
Continuous
100
AcDbLine
 10
54.76327799999999
 20
215.17952
 30
0.0
 11
56.81627800000001
 21
217.2325199999999
 31
0.0
  0
LINE
  5
A8EF
330
A74F
100
AcDbEntity
  8
1
  6
Continuous
100
AcDbLine
 10
56.040851
 20
215.17952
 30
0.0
 11
53.987851
 21
217.2325199999999
 31
0.0
  0
LINE
  5
A8F0
330
A74F
100
AcDbEntity
  8
1
  6
Continuous
100
AcDbLine
 10
64.52613199999999
 20
215.17952
 30
0.0
 11
62.47313199999999
 21
217.2325199999999
 31
0.0
  0
LINE
  5
A8F1
330
A74F
100
AcDbEntity
  8
1
  6
Continuous
100
AcDbLine
 10
63.248559
 20
215.17952
 30
0.0
 11
65.301559
 21
217.2325199999999
 31
0.0
  0
LINE
  5
A8F2
330
A74F
100
AcDbEntity
  8
1
  6
Continuous
100
AcDbLine
 10
43.44956999999999
 20
215.17952
 30
0.0
 11
45.50257
 21
217.2325199999999
 31
0.0
  0
LINE
  5
A8F3
330
A74F
100
AcDbEntity
  8
1
  6
Continuous
100
AcDbLine
 10
40.62114199999999
 20
215.17952
 30
0.0
 11
42.674142
 21
217.2325199999999
 31
0.0
  0
LINE
  5
A8F4
330
A74F
100
AcDbEntity
  8
1
  6
Continuous
100
AcDbLine
 10
41.898715
 20
215.17952
 30
0.0
 11
39.84571499999999
 21
217.2325199999999
 31
0.0
  0
LINE
  5
A8F5
330
A74F
100
AcDbEntity
  8
1
  6
Continuous
100
AcDbLine
 10
44.727142
 20
215.17952
 30
0.0
 11
42.674142
 21
217.2325199999999
 31
0.0
  0
LINE
  5
A8F6
330
A74F
100
AcDbEntity
  8
1
  6
Continuous
100
AcDbLine
 10
39.07028799999999
 20
215.17952
 30
0.0
 11
37.017288
 21
217.2325199999999
 31
0.0
  0
LINE
  5
A8F7
330
A74F
100
AcDbEntity
  8
1
  6
Continuous
100
AcDbLine
 10
34.964288
 20
215.17952
 30
0.0
 11
37.017288
 21
217.2325199999999
 31
0.0
  0
LINE
  5
A8F8
330
A74F
100
AcDbEntity
  8
1
  6
Continuous
100
AcDbLine
 10
36.241861
 20
215.17952
 30
0.0
 11
34.18886099999999
 21
217.2325199999999
 31
0.0
  0
LINE
  5
A8F9
330
A74F
100
AcDbEntity
  8
1
  6
Continuous
100
AcDbLine
 10
37.792715
 20
215.17952
 30
0.0
 11
39.84571499999999
 21
217.2325199999999
 31
0.0
  0
LINE
  5
A8FA
330
A74F
100
AcDbEntity
  8
1
  6
Continuous
100
AcDbLine
 10
46.27799699999999
 20
215.17952
 30
0.0
 11
48.33099699999999
 21
217.2325199999999
 31
0.0
  0
LINE
  5
A8FB
330
A74F
100
AcDbEntity
  8
1
  6
Continuous
100
AcDbLine
 10
47.55557
 20
215.17952
 30
0.0
 11
45.50257
 21
217.2325199999999
 31
0.0
  0
LINE
  5
A8FC
330
A74F
100
AcDbEntity
  8
1
  6
Continuous
100
AcDbLine
 10
30.98785100000001
 20
217.2325199999999
 30
0.0
 11
30.98785100000001
 21
215.17952
 31
0.0
  0
LINE
  5
A8FD
330
A74F
100
AcDbEntity
  8
1
  6
Continuous
100
AcDbLine
 10
30.98785100000001
 20
216.8599369999999
 30
0.0
 11
31.360434
 21
217.2325199999999
 31
0.0
  0
LINE
  5
A8FE
330
A74F
100
AcDbEntity
  8
1
  6
Continuous
100
AcDbLine
 10
32.135861
 20
215.17952
 30
0.0
 11
34.18886099999999
 21
217.2325199999999
 31
0.0
  0
LINE
  5
A8FF
330
A74F
100
AcDbEntity
  8
1
  6
Continuous
100
AcDbLine
 10
33.413434
 20
215.17952
 30
0.0
 11
31.360434
 21
217.2325199999999
 31
0.0
  0
LINE
  5
A900
330
A74F
100
AcDbEntity
  8
1
  6
Continuous
100
AcDbLine
 10
49.106424
 20
215.17952
 30
0.0
 11
51.159424
 21
217.2325199999999
 31
0.0
  0
LINE
  5
A901
330
A74F
100
AcDbEntity
  8
1
  6
Continuous
100
AcDbLine
 10
50.38399699999999
 20
215.17952
 30
0.0
 11
48.33099699999999
 21
217.2325199999999
 31
0.0
  0
LINE
  5
A902
330
A74F
100
AcDbEntity
  8
1
  6
Continuous
100
AcDbLine
 10
44.48785599999999
 20
230.017782
 30
0.0
 11
63.48785600000001
 21
230.017782
 31
0.0
  0
LINE
  5
A903
330
A74F
100
AcDbEntity
  8
1
  6
Continuous
100
AcDbLine
 10
31.81276699999999
 20
218.7147819999999
 30
0.0
 11
76.16293500000002
 21
218.7147819999999
 31
0.0
  0
LINE
  5
A904
330
A74F
100
AcDbEntity
  8
1
  6
Continuous
100
AcDbLine
 10
70.634709
 20
222.2177819999998
 30
0.0
 11
37.341003
 21
222.2177819999998
 31
0.0
  0
LINE
  5
A905
330
A74F
100
AcDbEntity
  8
1
  6
Continuous
100
AcDbLine
 10
66.98785100000001
 20
226.2177819999998
 30
0.0
 11
40.98785099999999
 21
226.2177819999998
 31
0.0
  0
LINE
  5
A906
330
A74F
100
AcDbEntity
  8
1
  6
Continuous
100
AcDbLine
 10
30.98785100000001
 20
217.2325199999999
 30
0.0
 11
76.98785100000002
 21
217.2325199999999
 31
0.0
  0
LINE
  5
A907
330
A74F
100
AcDbEntity
  8
1
  6
Continuous
100
AcDbLine
 10
44.48785599999999
 20
227.9677819999998
 30
0.0
 11
44.48785599999999
 21
260.1177819999999
 31
0.0
  0
LINE
  5
A908
330
A74F
100
AcDbEntity
  8
1
  6
Continuous
100
AcDbLine
 10
40.98785099999999
 20
226.2177819999998
 30
0.0
 11
40.98785099999999
 21
222.2177819999998
 31
0.0
  0
ARC
  5
A909
330
A74F
100
AcDbEntity
  8
1
  6
Continuous
100
AcDbCircle
 10
34.599249
 20
220.265009
 30
0.0
 40
4.697225
100
AcDbArc
 50
206.286695
 51
220.210037
  0
ARC
  5
A90A
330
A74F
100
AcDbEntity
  8
1
  6
Continuous
100
AcDbCircle
 10
31.261737
 20
217.7949289999999
 30
0.0
 40
0.9569799999999998
100
AcDbArc
 50
106.011913
 51
155.9597349999999
  0
LINE
  5
A90B
330
A74F
100
AcDbEntity
  8
1
  6
Continuous
100
AcDbLine
 10
30.997767
 20
218.7147819999999
 30
0.0
 11
31.81276699999999
 21
218.7147819999999
 31
0.0
  0
ARC
  5
A90C
330
A74F
100
AcDbEntity
  8
1
  6
Continuous
100
AcDbCircle
 10
37.341003
 20
216.104164
 30
0.0
 40
6.113617999999997
100
AcDbArc
 50
90.0
 51
154.721609
  0
LINE
  5
A90D
330
A74F
100
AcDbEntity
  8
1
  6
Continuous
100
AcDbLine
 10
53.987851
 20
226.2177819999998
 30
0.0
 11
53.987851
 21
222.2177819999998
 31
0.0
  0
ARC
  5
A90E
330
A74F
100
AcDbEntity
  8
1
  6
Continuous
100
AcDbCircle
 10
46.237856
 20
227.9677819999998
 30
0.0
 40
1.75
100
AcDbArc
 50
180.0
 51
270.0
  0
LINE
  5
A90F
330
A74F
100
AcDbEntity
  8
1
  6
Continuous
100
AcDbLine
 10
63.48785600000001
 20
227.9677819999998
 30
0.0
 11
63.48785600000001
 21
260.1177819999999
 31
0.0
  0
ARC
  5
A910
330
A74F
100
AcDbEntity
  8
1
  6
Continuous
100
AcDbCircle
 10
70.634709
 20
216.104164
 30
0.0
 40
6.113617999999997
100
AcDbArc
 50
25.278391
 51
90.0
  0
LINE
  5
A911
330
A74F
100
AcDbEntity
  8
1
  6
Continuous
100
AcDbLine
 10
66.98785100000001
 20
226.2177819999998
 30
0.0
 11
66.98785100000001
 21
222.2177819999998
 31
0.0
  0
ARC
  5
A912
330
A74F
100
AcDbEntity
  8
1
  6
Continuous
100
AcDbCircle
 10
61.73785600000001
 20
227.9677819999998
 30
0.0
 40
1.75
100
AcDbArc
 50
270.0
 51
0.0
  0
LINE
  5
A913
330
A74F
100
AcDbEntity
  8
1
  6
Continuous
100
AcDbLine
 10
76.977935
 20
218.7147819999999
 30
0.0
 11
76.16293500000002
 21
218.7147819999999
 31
0.0
  0
ARC
  5
A914
330
A74F
100
AcDbEntity
  8
1
  6
Continuous
100
AcDbCircle
 10
73.376453
 20
220.265009
 30
0.0
 40
4.697225
100
AcDbArc
 50
319.789963
 51
333.713305
  0
ARC
  5
A915
330
A74F
100
AcDbEntity
  8
1
  6
Continuous
100
AcDbCircle
 10
76.713965
 20
217.7949289999999
 30
0.0
 40
0.9569799999999998
100
AcDbArc
 50
24.04026499999999
 51
73.98808699999998
  0
LINE
  5
A916
330
A74F
100
AcDbEntity
  8
1
  6
Continuous
100
AcDbLine
 10
45.487856
 20
261.1177819999999
 30
0.0
 11
62.48785600000001
 21
261.1177819999999
 31
0.0
  0
LINE
  5
A917
330
A74F
100
AcDbEntity
  8
1
  6
Continuous
100
AcDbLine
 10
45.63785099999999
 20
264.3177819999999
 30
0.0
 11
62.337851
 21
264.3177819999999
 31
0.0
  0
LINE
  5
A918
330
A74F
100
AcDbEntity
  8
1
  6
Continuous
100
AcDbLine
 10
47.987856
 20
265.2177819999999
 30
0.0
 11
59.98785600000001
 21
265.2177819999999
 31
0.0
  0
LINE
  5
A919
330
A74F
100
AcDbEntity
  8
1
  6
Continuous
100
AcDbLine
 10
58.987856
 20
266.217782
 30
0.0
 11
48.987856
 21
266.217782
 31
0.0
  0
LINE
  5
A91A
330
A74F
100
AcDbEntity
  8
1
  6
Continuous
100
AcDbLine
 10
47.987856
 20
265.2177819999999
 30
0.0
 11
48.987856
 21
266.217782
 31
0.0
  0
LINE
  5
A91B
330
A74F
100
AcDbEntity
  8
1
  6
Continuous
100
AcDbLine
 10
47.987856
 20
264.3177819999999
 30
0.0
 11
47.987856
 21
265.2177819999999
 31
0.0
  0
LINE
  5
A91C
330
A74F
100
AcDbEntity
  8
1
  6
Continuous
100
AcDbLine
 10
45.63785099999999
 20
264.3177819999999
 30
0.0
 11
45.63785099999999
 21
261.1177819999999
 31
0.0
  0
LINE
  5
A91D
330
A74F
100
AcDbEntity
  8
2
  6
Continuous
100
AcDbLine
 10
48.934851
 20
266.164777
 30
0.0
 11
48.934851
 21
264.3177819999999
 31
0.0
  0
LINE
  5
A91E
330
A74F
100
AcDbEntity
  8
1
  6
Continuous
100
AcDbLine
 10
59.98785600000001
 20
265.2177819999999
 30
0.0
 11
58.987856
 21
266.217782
 31
0.0
  0
LINE
  5
A91F
330
A74F
100
AcDbEntity
  8
1
  6
Continuous
100
AcDbLine
 10
62.337851
 20
264.3177819999999
 30
0.0
 11
62.337851
 21
261.1177819999999
 31
0.0
  0
LINE
  5
A920
330
A74F
100
AcDbEntity
  8
1
  6
Continuous
100
AcDbLine
 10
59.98785600000001
 20
264.3177819999999
 30
0.0
 11
59.98785600000001
 21
265.2177819999999
 31
0.0
  0
LINE
  5
A921
330
A74F
100
AcDbEntity
  8
2
  6
Continuous
100
AcDbLine
 10
59.040851
 20
266.1647869999999
 30
0.0
 11
59.040851
 21
264.3177819999999
 31
0.0
  0
LINE
  5
A922
330
A74F
100
AcDbEntity
  8
1
  6
Continuous
100
AcDbLine
 10
190.4901459999999
 20
266.2178819999999
 30
0.0
 11
180.490146
 21
266.2178819999999
 31
0.0
  0
LINE
  5
A923
330
A74F
100
AcDbEntity
  8
1
  6
Continuous
100
AcDbLine
 10
179.490146
 20
265.2178819999999
 30
0.0
 11
191.490146
 21
265.2178819999999
 31
0.0
  0
LINE
  5
A924
330
A74F
100
AcDbEntity
  8
1
  6
Continuous
100
AcDbLine
 10
183.4371459999999
 20
215.179556
 30
0.0
 11
185.490146
 21
217.2325559999999
 31
0.0
  0
LINE
  5
A925
330
A74F
100
AcDbEntity
  8
1
  6
Continuous
100
AcDbLine
 10
176.240146
 20
261.117882
 30
0.0
 11
194.740146
 21
261.117882
 31
0.0
  0
LINE
  5
A926
330
A74F
100
AcDbEntity
  8
1
  6
Continuous
100
AcDbLine
 10
176.240146
 20
264.317882
 30
0.0
 11
194.740146
 21
264.317882
 31
0.0
  0
LINE
  5
A927
330
A74F
100
AcDbEntity
  8
1
  6
Continuous
100
AcDbLine
 10
194.990146
 20
230.117882
 30
0.0
 11
175.990146
 21
230.117882
 31
0.0
  0
LINE
  5
A928
330
A74F
100
AcDbEntity
  8
1
  6
Continuous
100
AcDbLine
 10
163.315062
 20
218.7148169999999
 30
0.0
 11
207.66523
 21
218.7148169999999
 31
0.0
  0
LINE
  5
A929
330
A74F
100
AcDbEntity
  8
1
  6
Continuous
100
AcDbLine
 10
162.490146
 20
217.2325559999999
 30
0.0
 11
208.490146
 21
217.2325559999999
 31
0.0
  0
LINE
  5
A92A
330
A74F
100
AcDbEntity
  8
1
  6
Continuous
100
AcDbLine
 10
202.136999
 20
222.2178819999998
 30
0.0
 11
168.8432929999999
 21
222.2178819999998
 31
0.0
  0
LINE
  5
A92B
330
A74F
100
AcDbEntity
  8
1
  6
Continuous
100
AcDbLine
 10
200.501253
 20
226.2178819999999
 30
0.0
 11
170.479039
 21
226.2178819999999
 31
0.0
  0
ARC
  5
A92C
330
A74F
100
AcDbEntity
  8
1
  6
Continuous
100
AcDbCircle
 10
176.9901459999999
 20
260.117882
 30
0.0
 40
1.0
100
AcDbArc
 50
90.0
 51
180.0
  0
LINE
  5
A92D
330
A74F
100
AcDbEntity
  8
1
  6
Continuous
100
AcDbLine
 10
180.608719
 20
215.179556
 30
0.0
 11
182.661719
 21
217.2325559999999
 31
0.0
  0
LINE
  5
A92E
330
A74F
100
AcDbEntity
  8
1
  6
Continuous
100
AcDbLine
 10
181.8862919999999
 20
215.179556
 30
0.0
 11
179.833292
 21
217.2325559999999
 31
0.0
  0
LINE
  5
A92F
330
A74F
100
AcDbEntity
  8
1
  6
Continuous
100
AcDbLine
 10
184.714719
 20
215.179556
 30
0.0
 11
182.661719
 21
217.2325559999999
 31
0.0
  0
LINE
  5
A930
330
A74F
100
AcDbEntity
  8
1
  6
Continuous
100
AcDbLine
 10
177.780292
 20
215.179556
 30
0.0
 11
179.833292
 21
217.2325559999999
 31
0.0
  0
LINE
  5
A931
330
A74F
100
AcDbEntity
  8
1
  6
Continuous
100
AcDbLine
 10
179.057865
 20
215.179556
 30
0.0
 11
177.0048649999999
 21
217.2325559999999
 31
0.0
  0
LINE
  5
A932
330
A74F
100
AcDbEntity
  8
1
  6
Continuous
100
AcDbLine
 10
172.123437
 20
215.179556
 30
0.0
 11
174.176437
 21
217.2325559999999
 31
0.0
  0
LINE
  5
A933
330
A74F
100
AcDbEntity
  8
1
  6
Continuous
100
AcDbLine
 10
173.40101
 20
215.179556
 30
0.0
 11
171.3480099999999
 21
217.2325559999999
 31
0.0
  0
LINE
  5
A934
330
A74F
100
AcDbEntity
  8
1
  6
Continuous
100
AcDbLine
 10
166.466583
 20
215.179556
 30
0.0
 11
168.519583
 21
217.2325559999999
 31
0.0
  0
LINE
  5
A935
330
A74F
100
AcDbEntity
  8
1
  6
Continuous
100
AcDbLine
 10
163.638156
 20
215.179556
 30
0.0
 11
165.691156
 21
217.2325559999999
 31
0.0
  0
LINE
  5
A936
330
A74F
100
AcDbEntity
  8
1
  6
Continuous
100
AcDbLine
 10
162.490146
 20
216.8599729999999
 30
0.0
 11
162.862729
 21
217.2325559999999
 31
0.0
  0
LINE
  5
A937
330
A74F
100
AcDbEntity
  8
1
  6
Continuous
100
AcDbLine
 10
164.9157289999999
 20
215.179556
 30
0.0
 11
162.862729
 21
217.2325559999999
 31
0.0
  0
LINE
  5
A938
330
A74F
100
AcDbEntity
  8
1
  6
Continuous
100
AcDbLine
 10
162.490146
 20
217.2325559999999
 30
0.0
 11
162.490146
 21
215.179556
 31
0.0
  0
LINE
  5
A939
330
A74F
100
AcDbEntity
  8
1
  6
Continuous
100
AcDbLine
 10
167.744156
 20
215.179556
 30
0.0
 11
165.691156
 21
217.2325559999999
 31
0.0
  0
LINE
  5
A93A
330
A74F
100
AcDbEntity
  8
1
  6
Continuous
100
AcDbLine
 10
169.29501
 20
215.179556
 30
0.0
 11
171.3480099999999
 21
217.2325559999999
 31
0.0
  0
LINE
  5
A93B
330
A74F
100
AcDbEntity
  8
1
  6
Continuous
100
AcDbLine
 10
170.572583
 20
215.179556
 30
0.0
 11
168.519583
 21
217.2325559999999
 31
0.0
  0
LINE
  5
A93C
330
A74F
100
AcDbEntity
  8
1
  6
Continuous
100
AcDbLine
 10
174.9518649999999
 20
215.179556
 30
0.0
 11
177.0048649999999
 21
217.2325559999999
 31
0.0
  0
LINE
  5
A93D
330
A74F
100
AcDbEntity
  8
1
  6
Continuous
100
AcDbLine
 10
176.229437
 20
215.179556
 30
0.0
 11
174.176437
 21
217.2325559999999
 31
0.0
  0
LINE
  5
A93E
330
A74F
100
AcDbEntity
  8
1
  6
Continuous
100
AcDbLine
 10
175.990146
 20
227.9678819999999
 30
0.0
 11
175.990146
 21
260.117882
 31
0.0
  0
LINE
  5
A93F
330
A74F
100
AcDbEntity
  8
1
  6
Continuous
100
AcDbLine
 10
162.500062
 20
218.7148169999999
 30
0.0
 11
163.315062
 21
218.7148169999999
 31
0.0
  0
ARC
  5
A940
330
A74F
100
AcDbEntity
  8
1
  6
Continuous
100
AcDbCircle
 10
168.8432929999999
 20
216.104264
 30
0.0
 40
6.113617999999997
100
AcDbArc
 50
90.0
 51
154.722278
  0
ARC
  5
A941
330
A74F
100
AcDbEntity
  8
1
  6
Continuous
100
AcDbCircle
 10
166.1015439999999
 20
220.2650439999999
 30
0.0
 40
4.697225
100
AcDbArc
 50
206.286695
 51
220.210037
  0
ARC
  5
A942
330
A74F
100
AcDbEntity
  8
1
  6
Continuous
100
AcDbCircle
 10
162.7640319999999
 20
217.794964
 30
0.0
 40
0.9569799999999998
100
AcDbArc
 50
106.011913
 51
155.9597349999999
  0
LINE
  5
A943
330
A74F
100
AcDbEntity
  8
1
  6
Continuous
100
AcDbLine
 10
177.9845919999999
 20
226.2178819999999
 30
0.0
 11
177.9845919999999
 21
222.2178819999998
 31
0.0
  0
LINE
  5
A944
330
A74F
100
AcDbEntity
  8
1
  6
Continuous
100
AcDbLine
 10
170.479039
 20
226.2178819999999
 30
0.0
 11
170.479039
 21
222.2178819999998
 31
0.0
  0
ARC
  5
A945
330
A74F
100
AcDbEntity
  8
1
  6
Continuous
100
AcDbCircle
 10
177.740146
 20
227.9678819999999
 30
0.0
 40
1.75
100
AcDbArc
 50
180.0
 51
270.0
  0
LINE
  5
A946
330
A74F
100
AcDbEntity
  8
1
  6
Continuous
100
AcDbLine
 10
179.490146
 20
265.2178819999999
 30
0.0
 11
180.490146
 21
266.2178819999999
 31
0.0
  0
LINE
  5
A947
330
A74F
100
AcDbEntity
  8
1
  6
Continuous
100
AcDbLine
 10
181.5101959999998
 20
264.317882
 30
0.0
 11
181.5101959999998
 21
261.117882
 31
0.0
  0
LINE
  5
A948
330
A74F
100
AcDbEntity
  8
1
  6
Continuous
100
AcDbLine
 10
176.240146
 20
264.317882
 30
0.0
 11
176.240146
 21
261.117882
 31
0.0
  0
LINE
  5
A949
330
A74F
100
AcDbEntity
  8
1
  6
Continuous
100
AcDbLine
 10
179.490146
 20
264.317882
 30
0.0
 11
179.490146
 21
265.2178819999999
 31
0.0
  0
LINE
  5
A94A
330
A74F
100
AcDbEntity
  8
2
  6
Continuous
100
AcDbLine
 10
180.4371459999999
 20
264.317882
 30
0.0
 11
180.4371459999999
 21
266.1648819999999
 31
0.0
  0
ARC
  5
A94B
330
A74F
100
AcDbEntity
  8
1
  6
Continuous
100
AcDbCircle
 10
193.990146
 20
260.117882
 30
0.0
 40
1.0
100
AcDbArc
 50
0.0
 51
90.0
  0
LINE
  5
A94C
330
A74F
100
AcDbEntity
  8
1
  6
Continuous
100
AcDbLine
 10
208.490146
 20
216.8599729999999
 30
0.0
 11
208.1175629999999
 21
217.2325559999999
 31
0.0
  0
LINE
  5
A94D
330
A74F
100
AcDbEntity
  8
1
  6
Continuous
100
AcDbLine
 10
208.490146
 20
217.2325559999999
 30
0.0
 11
208.490146
 21
215.179556
 31
0.0
  0
LINE
  5
A94E
330
A74F
100
AcDbEntity
  8
1
  6
Continuous
100
AcDbLine
 10
207.342136
 20
215.179556
 30
0.0
 11
205.289136
 21
217.2325559999999
 31
0.0
  0
LINE
  5
A94F
330
A74F
100
AcDbEntity
  8
1
  6
Continuous
100
AcDbLine
 10
200.407709
 20
215.179556
 30
0.0
 11
202.4607089999999
 21
217.2325559999999
 31
0.0
  0
LINE
  5
A950
330
A74F
100
AcDbEntity
  8
1
  6
Continuous
100
AcDbLine
 10
201.6852819999999
 20
215.179556
 30
0.0
 11
199.6322819999998
 21
217.2325559999999
 31
0.0
  0
LINE
  5
A951
330
A74F
100
AcDbEntity
  8
1
  6
Continuous
100
AcDbLine
 10
198.8568539999999
 20
215.179556
 30
0.0
 11
196.803854
 21
217.2325559999999
 31
0.0
  0
LINE
  5
A952
330
A74F
100
AcDbEntity
  8
1
  6
Continuous
100
AcDbLine
 10
197.579282
 20
215.179556
 30
0.0
 11
199.6322819999998
 21
217.2325559999999
 31
0.0
  0
LINE
  5
A953
330
A74F
100
AcDbEntity
  8
1
  6
Continuous
100
AcDbLine
 10
194.750854
 20
215.179556
 30
0.0
 11
196.803854
 21
217.2325559999999
 31
0.0
  0
LINE
  5
A954
330
A74F
100
AcDbEntity
  8
1
  6
Continuous
100
AcDbLine
 10
196.028427
 20
215.179556
 30
0.0
 11
193.975427
 21
217.2325559999999
 31
0.0
  0
LINE
  5
A955
330
A74F
100
AcDbEntity
  8
1
  6
Continuous
100
AcDbLine
 10
203.2361359999999
 20
215.179556
 30
0.0
 11
205.289136
 21
217.2325559999999
 31
0.0
  0
LINE
  5
A956
330
A74F
100
AcDbEntity
  8
1
  6
Continuous
100
AcDbLine
 10
204.5137089999998
 20
215.179556
 30
0.0
 11
202.4607089999999
 21
217.2325559999999
 31
0.0
  0
LINE
  5
A957
330
A74F
100
AcDbEntity
  8
1
  6
Continuous
100
AcDbLine
 10
206.0645629999999
 20
215.179556
 30
0.0
 11
208.1175629999999
 21
217.2325559999999
 31
0.0
  0
LINE
  5
A958
330
A74F
100
AcDbEntity
  8
1
  6
Continuous
100
AcDbLine
 10
190.371573
 20
215.179556
 30
0.0
 11
188.3185729999999
 21
217.2325559999999
 31
0.0
  0
LINE
  5
A959
330
A74F
100
AcDbEntity
  8
1
  6
Continuous
100
AcDbLine
 10
189.094
 20
215.179556
 30
0.0
 11
191.1469999999999
 21
217.2325559999999
 31
0.0
  0
LINE
  5
A95A
330
A74F
100
AcDbEntity
  8
1
  6
Continuous
100
AcDbLine
 10
186.2655729999999
 20
215.179556
 30
0.0
 11
188.3185729999999
 21
217.2325559999999
 31
0.0
  0
LINE
  5
A95B
330
A74F
100
AcDbEntity
  8
1
  6
Continuous
100
AcDbLine
 10
187.543146
 20
215.179556
 30
0.0
 11
185.490146
 21
217.2325559999999
 31
0.0
  0
LINE
  5
A95C
330
A74F
100
AcDbEntity
  8
1
  6
Continuous
100
AcDbLine
 10
191.9224269999999
 20
215.179556
 30
0.0
 11
193.975427
 21
217.2325559999999
 31
0.0
  0
LINE
  5
A95D
330
A74F
100
AcDbEntity
  8
1
  6
Continuous
100
AcDbLine
 10
193.2
 20
215.179556
 30
0.0
 11
191.1469999999999
 21
217.2325559999999
 31
0.0
  0
LINE
  5
A95E
330
A74F
100
AcDbEntity
  8
1
  6
Continuous
100
AcDbLine
 10
194.990146
 20
227.9678819999999
 30
0.0
 11
194.990146
 21
260.117882
 31
0.0
  0
LINE
  5
A95F
330
A74F
100
AcDbEntity
  8
1
  6
Continuous
100
AcDbLine
 10
200.501253
 20
226.2178819999999
 30
0.0
 11
200.501253
 21
222.2178819999998
 31
0.0
  0
LINE
  5
A960
330
A74F
100
AcDbEntity
  8
1
  6
Continuous
100
AcDbLine
 10
192.9956989999998
 20
226.2178819999999
 30
0.0
 11
192.9956989999998
 21
222.2178819999998
 31
0.0
  0
ARC
  5
A961
330
A74F
100
AcDbEntity
  8
1
  6
Continuous
100
AcDbCircle
 10
193.240146
 20
227.9678819999999
 30
0.0
 40
1.75
100
AcDbArc
 50
270.0
 51
0.0
  0
ARC
  5
A962
330
A74F
100
AcDbEntity
  8
1
  6
Continuous
100
AcDbCircle
 10
204.878748
 20
220.2650439999999
 30
0.0
 40
4.697225
100
AcDbArc
 50
319.789963
 51
333.713305
  0
ARC
  5
A963
330
A74F
100
AcDbEntity
  8
1
  6
Continuous
100
AcDbCircle
 10
208.216259
 20
217.794964
 30
0.0
 40
0.9569799999999998
100
AcDbArc
 50
24.04026499999999
 51
73.98808699999998
  0
LINE
  5
A964
330
A74F
100
AcDbEntity
  8
1
  6
Continuous
100
AcDbLine
 10
208.48023
 20
218.7148169999999
 30
0.0
 11
207.66523
 21
218.7148169999999
 31
0.0
  0
ARC
  5
A965
330
A74F
100
AcDbEntity
  8
1
  6
Continuous
100
AcDbCircle
 10
202.136999
 20
216.104264
 30
0.0
 40
6.113617999999997
100
AcDbArc
 50
25.277722
 51
90.0
  0
LINE
  5
A966
330
A74F
100
AcDbEntity
  8
1
  6
Continuous
100
AcDbLine
 10
194.740146
 20
264.317882
 30
0.0
 11
194.740146
 21
261.117882
 31
0.0
  0
LINE
  5
A967
330
A74F
100
AcDbEntity
  8
1
  6
Continuous
100
AcDbLine
 10
191.490146
 20
265.2178819999999
 30
0.0
 11
190.4901459999999
 21
266.2178819999999
 31
0.0
  0
LINE
  5
A968
330
A74F
100
AcDbEntity
  8
1
  6
Continuous
100
AcDbLine
 10
189.4700959999999
 20
264.317882
 30
0.0
 11
189.4700959999999
 21
261.117882
 31
0.0
  0
LINE
  5
A969
330
A74F
100
AcDbEntity
  8
1
  6
Continuous
100
AcDbLine
 10
191.490146
 20
264.317882
 30
0.0
 11
191.490146
 21
265.2178819999999
 31
0.0
  0
LINE
  5
A96A
330
A74F
100
AcDbEntity
  8
2
  6
Continuous
100
AcDbLine
 10
190.543146
 20
264.317882
 30
0.0
 11
190.543146
 21
266.1648819999999
 31
0.0
  0
ARC
  5
A96B
330
A74F
100
AcDbEntity
  8
1
  6
Continuous
100
AcDbCircle
 10
407.494736
 20
175.717882
 30
0.0
 40
17.5
100
AcDbArc
 50
163.99821
 51
67.046965
  0
LINE
  5
A96C
330
A74F
100
AcDbEntity
  8
1
  6
Continuous
100
AcDbLine
 10
376.3033159999998
 20
203.5662129999999
 30
0.0
 11
397.240317
 21
170.0189799999999
 31
0.0
  0
ARC
  5
A96D
330
A74F
100
AcDbEntity
  8
1
  6
Continuous
100
AcDbCircle
 10
406.3947359999998
 20
176.117882
 30
0.0
 40
11.0
100
AcDbArc
 50
213.672541
 51
14.14360199999999
  0
LINE
  5
A96E
330
A74F
100
AcDbEntity
  8
4
  6
CENTER
100
AcDbLine
 10
407.494736
 20
139.217882
 30
0.0
 11
407.494736
 21
207.891468
 31
0.0
  0
ARC
  5
A96F
330
A74F
100
AcDbEntity
  8
1
  6
Continuous
100
AcDbCircle
 10
407.494736
 20
175.717882
 30
0.0
 40
24.0
100
AcDbArc
 50
151.190096
 51
77.26906899999999
  0
ARC
  5
A970
330
A74F
100
AcDbEntity
  8
1
  6
Continuous
100
AcDbCircle
 10
407.494736
 20
175.717882
 30
0.0
 40
31.5
100
AcDbArc
 50
143.80463
 51
83.38217299999998
  0
LINE
  5
A971
330
A74F
100
AcDbEntity
  8
4
  6
CENTER
100
AcDbLine
 10
370.994736
 20
175.717882
 30
0.0
 11
443.9947359999998
 21
175.717882
 31
0.0
  0
LINE
  5
A972
330
A74F
100
AcDbEntity
  8
4
  6
CENTER
100
AcDbLine
 10
382.4947359999999
 20
202.215713
 30
0.0
 11
382.4947359999999
 21
271.2178819999999
 31
0.0
  0
LINE
  5
A973
330
A74F
100
AcDbEntity
  8
1
  6
Continuous
100
AcDbLine
 10
378.514786
 20
264.317882
 30
0.0
 11
378.514786
 21
261.117882
 31
0.0
  0
LINE
  5
A974
330
A74F
100
AcDbEntity
  8
1
  6
Continuous
100
AcDbLine
 10
373.244736
 20
264.317882
 30
0.0
 11
373.244736
 21
261.117882
 31
0.0
  0
LINE
  5
A975
330
A74F
100
AcDbEntity
  8
1
  6
Continuous
100
AcDbLine
 10
391.744736
 20
264.317882
 30
0.0
 11
391.744736
 21
261.117882
 31
0.0
  0
LINE
  5
A976
330
A74F
100
AcDbEntity
  8
1
  6
Continuous
100
AcDbLine
 10
386.4746859999998
 20
264.317882
 30
0.0
 11
386.4746859999998
 21
261.117882
 31
0.0
  0
LINE
  5
A977
330
A74F
100
AcDbEntity
  8
1
  6
Continuous
100
AcDbLine
 10
374.7848819999999
 20
215.179556
 30
0.0
 11
376.8378819999999
 21
217.2325559999999
 31
0.0
  0
LINE
  5
A978
330
A74F
100
AcDbEntity
  8
1
  6
Continuous
100
AcDbLine
 10
367.483629
 20
226.2178819999999
 30
0.0
 11
397.505843
 21
226.2178819999999
 31
0.0
  0
LINE
  5
A979
330
A74F
100
AcDbEntity
  8
1
  6
Continuous
100
AcDbLine
 10
365.847883
 20
222.2178819999998
 30
0.0
 11
399.141589
 21
222.2178819999998
 31
0.0
  0
LINE
  5
A97A
330
A74F
100
AcDbEntity
  8
1
  6
Continuous
100
AcDbLine
 10
405.4947359999999
 20
217.2325559999999
 30
0.0
 11
359.4947359999999
 21
217.2325559999999
 31
0.0
  0
LINE
  5
A97B
330
A74F
100
AcDbEntity
  8
1
  6
Continuous
100
AcDbLine
 10
404.6698199999998
 20
218.7148169999999
 30
0.0
 11
360.319652
 21
218.7148169999999
 31
0.0
  0
LINE
  5
A97C
330
A74F
100
AcDbEntity
  8
1
  6
Continuous
100
AcDbLine
 10
372.994736
 20
230.117882
 30
0.0
 11
391.994736
 21
230.117882
 31
0.0
  0
LINE
  5
A97D
330
A74F
100
AcDbEntity
  8
1
  6
Continuous
100
AcDbLine
 10
391.744736
 20
261.117882
 30
0.0
 11
373.244736
 21
261.117882
 31
0.0
  0
LINE
  5
A97E
330
A74F
100
AcDbEntity
  8
1
  6
Continuous
100
AcDbLine
 10
405.4947359999999
 20
215.179556
 30
0.0
 11
359.4947359999999
 21
215.179556
 31
0.0
  0
ARC
  5
A97F
330
A74F
100
AcDbEntity
  8
1
  6
Continuous
100
AcDbCircle
 10
399.141589
 20
216.104264
 30
0.0
 40
6.113617999999997
100
AcDbArc
 50
25.277722
 51
90.0
  0
LINE
  5
A980
330
A74F
100
AcDbEntity
  8
1
  6
Continuous
100
AcDbLine
 10
401.16056
 20
212.8770429999999
 30
0.0
 11
412.282595
 21
212.845989
 31
0.0
  0
LINE
  5
A981
330
A74F
100
AcDbEntity
  8
1
  6
Continuous
100
AcDbLine
 10
409.8947479999997
 20
212.852656
 30
0.0
 11
417.061286
 21
178.8057659999998
 31
0.0
  0
ARC
  5
A982
330
A74F
100
AcDbEntity
  8
1
  6
Continuous
100
AcDbCircle
 10
445.4421059999998
 20
213.0080229999999
 30
0.0
 40
31.82178
100
AcDbArc
 50
180.882972
 51
182.8814939999999
  0
ARC
  5
A983
330
A74F
100
AcDbEntity
  8
1
  6
Continuous
100
AcDbCircle
 10
426.6470809999998
 20
209.431971
 30
0.0
 40
13.13604599999999
100
AcDbArc
 50
171.346813
 51
174.2810689999998
  0
ARC
  5
A984
330
A74F
100
AcDbEntity
  8
1
  6
Continuous
100
AcDbCircle
 10
413.3510919999998
 20
210.907969
 30
0.0
 40
0.28047
100
AcDbArc
 50
271.374847
 51
323.4541489999998
  0
ARC
  5
A985
330
A74F
100
AcDbEntity
  8
1
  6
Continuous
100
AcDbCircle
 10
413.083894
 20
212.0707279999999
 30
0.0
 40
0.7011149999999999
100
AcDbArc
 50
39.600945
 51
79.61194999999998
  0
ARC
  5
A986
330
A74F
100
AcDbEntity
  8
1
  6
Continuous
100
AcDbCircle
 10
412.2680029999998
 20
207.620059
 30
0.0
 40
5.22595
100
AcDbArc
 50
79.61194999999998
 51
89.84002199999997
  0
ARC
  5
A987
330
A74F
100
AcDbEntity
  8
1
  6
Continuous
100
AcDbCircle
 10
411.338683
 20
294.757624
 30
0.0
 40
84.15427099999998
100
AcDbArc
 50
269.3384389999998
 51
271.374847
  0
LINE
  5
A988
330
A74F
100
AcDbEntity
  8
1
  6
Continuous
100
AcDbLine
 10
391.755445
 20
215.179556
 30
0.0
 11
393.808445
 21
217.2325559999999
 31
0.0
  0
LINE
  5
A989
330
A74F
100
AcDbEntity
  8
1
  6
Continuous
100
AcDbLine
 10
393.0330169999999
 20
215.179556
 30
0.0
 11
390.980017
 21
217.2325559999999
 31
0.0
  0
ARC
  5
A98A
330
A74F
100
AcDbEntity
  8
1
  6
Continuous
100
AcDbCircle
 10
405.2208499999998
 20
217.794964
 30
0.0
 40
0.9569799999999998
100
AcDbArc
 50
24.04026499999999
 51
73.98808699999998
  0
ARC
  5
A98B
330
A74F
100
AcDbEntity
  8
1
  6
Continuous
100
AcDbCircle
 10
401.883338
 20
220.2650439999999
 30
0.0
 40
4.697225
100
AcDbArc
 50
319.789963
 51
333.713305
  0
LINE
  5
A98C
330
A74F
100
AcDbEntity
  8
1
  6
Continuous
100
AcDbLine
 10
405.48482
 20
218.7148169999999
 30
0.0
 11
404.6698199999998
 21
218.7148169999999
 31
0.0
  0
LINE
  5
A98D
330
A74F
100
AcDbEntity
  8
1
  6
Continuous
100
AcDbLine
 10
397.412299
 20
215.179556
 30
0.0
 11
399.465299
 21
217.2325559999999
 31
0.0
  0
LINE
  5
A98E
330
A74F
100
AcDbEntity
  8
1
  6
Continuous
100
AcDbLine
 10
398.6898719999999
 20
215.179556
 30
0.0
 11
396.6368719999999
 21
217.2325559999999
 31
0.0
  0
LINE
  5
A98F
330
A74F
100
AcDbEntity
  8
1
  6
Continuous
100
AcDbLine
 10
400.240726
 20
215.179556
 30
0.0
 11
402.2937259999998
 21
217.2325559999999
 31
0.0
  0
LINE
  5
A990
330
A74F
100
AcDbEntity
  8
1
  6
Continuous
100
AcDbLine
 10
405.4947359999999
 20
217.2325559999999
 30
0.0
 11
405.4947359999999
 21
215.179556
 31
0.0
  0
LINE
  5
A991
330
A74F
100
AcDbEntity
  8
1
  6
Continuous
100
AcDbLine
 10
403.0691529999998
 20
215.179556
 30
0.0
 11
405.1221529999998
 21
217.2325559999999
 31
0.0
  0
LINE
  5
A992
330
A74F
100
AcDbEntity
  8
1
  6
Continuous
100
AcDbLine
 10
405.4947359999999
 20
216.8599729999999
 30
0.0
 11
405.1221529999998
 21
217.2325559999999
 31
0.0
  0
LINE
  5
A993
330
A74F
100
AcDbEntity
  8
1
  6
Continuous
100
AcDbLine
 10
404.3467259999998
 20
215.179556
 30
0.0
 11
402.2937259999998
 21
217.2325559999999
 31
0.0
  0
LINE
  5
A994
330
A74F
100
AcDbEntity
  8
1
  6
Continuous
100
AcDbLine
 10
401.518299
 20
215.179556
 30
0.0
 11
399.465299
 21
217.2325559999999
 31
0.0
  0
LINE
  5
A995
330
A74F
100
AcDbEntity
  8
1
  6
Continuous
100
AcDbLine
 10
394.5838719999999
 20
215.179556
 30
0.0
 11
396.6368719999999
 21
217.2325559999999
 31
0.0
  0
LINE
  5
A996
330
A74F
100
AcDbEntity
  8
1
  6
Continuous
100
AcDbLine
 10
395.861445
 20
215.179556
 30
0.0
 11
393.808445
 21
217.2325559999999
 31
0.0
  0
ARC
  5
A997
330
A74F
100
AcDbEntity
  8
1
  6
Continuous
100
AcDbCircle
 10
402.389516
 20
211.2232759999999
 30
0.0
 40
4.224822999999998
100
AcDbArc
 50
31.367901
 51
69.461534
  0
ARC
  5
A998
330
A74F
100
AcDbEntity
  8
1
  6
Continuous
100
AcDbCircle
 10
406.3083859999998
 20
213.3878249999999
 30
0.0
 40
0.313453
100
AcDbArc
 50
173.6619839999999
 51
240.802965
  0
ARC
  5
A999
330
A74F
100
AcDbEntity
  8
1
  6
Continuous
100
AcDbCircle
 10
407.1299899999998
 20
214.858092
 30
0.0
 40
1.997709
100
AcDbArc
 50
240.802965
 51
269.8400219999999
  0
LINE
  5
A99A
330
A74F
100
AcDbEntity
  8
1
  6
Continuous
100
AcDbLine
 10
380.441736
 20
215.179556
 30
0.0
 11
382.4947359999999
 21
217.2325559999999
 31
0.0
  0
LINE
  5
A99B
330
A74F
100
AcDbEntity
  8
1
  6
Continuous
100
AcDbLine
 10
381.7193089999999
 20
215.179556
 30
0.0
 11
379.666309
 21
217.2325559999999
 31
0.0
  0
LINE
  5
A99C
330
A74F
100
AcDbEntity
  8
1
  6
Continuous
100
AcDbLine
 10
378.8908819999999
 20
215.179556
 30
0.0
 11
376.8378819999999
 21
217.2325559999999
 31
0.0
  0
LINE
  5
A99D
330
A74F
100
AcDbEntity
  8
1
  6
Continuous
100
AcDbLine
 10
377.6133089999998
 20
215.179556
 30
0.0
 11
379.666309
 21
217.2325559999999
 31
0.0
  0
LINE
  5
A99E
330
A74F
100
AcDbEntity
  8
1
  6
Continuous
100
AcDbLine
 10
388.9270169999999
 20
215.179556
 30
0.0
 11
390.980017
 21
217.2325559999999
 31
0.0
  0
LINE
  5
A99F
330
A74F
100
AcDbEntity
  8
1
  6
Continuous
100
AcDbLine
 10
390.20459
 20
215.179556
 30
0.0
 11
388.15159
 21
217.2325559999999
 31
0.0
  0
LINE
  5
A9A0
330
A74F
100
AcDbEntity
  8
1
  6
Continuous
100
AcDbLine
 10
383.2701629999998
 20
215.179556
 30
0.0
 11
385.3231629999998
 21
217.2325559999999
 31
0.0
  0
LINE
  5
A9A1
330
A74F
100
AcDbEntity
  8
1
  6
Continuous
100
AcDbLine
 10
386.09859
 20
215.179556
 30
0.0
 11
388.15159
 21
217.2325559999999
 31
0.0
  0
LINE
  5
A9A2
330
A74F
100
AcDbEntity
  8
1
  6
Continuous
100
AcDbLine
 10
387.3761629999998
 20
215.179556
 30
0.0
 11
385.3231629999998
 21
217.2325559999999
 31
0.0
  0
LINE
  5
A9A3
330
A74F
100
AcDbEntity
  8
1
  6
Continuous
100
AcDbLine
 10
384.5477359999999
 20
215.179556
 30
0.0
 11
382.4947359999999
 21
217.2325559999999
 31
0.0
  0
LINE
  5
A9A4
330
A74F
100
AcDbEntity
  8
1
  6
Continuous
100
AcDbLine
 10
391.994736
 20
227.9678819999999
 30
0.0
 11
391.994736
 21
260.117882
 31
0.0
  0
LINE
  5
A9A5
330
A74F
100
AcDbEntity
  8
1
  6
Continuous
100
AcDbLine
 10
397.505843
 20
226.2178819999999
 30
0.0
 11
397.505843
 21
222.2178819999998
 31
0.0
  0
ARC
  5
A9A6
330
A74F
100
AcDbEntity
  8
1
  6
Continuous
100
AcDbCircle
 10
390.244736
 20
227.9678819999999
 30
0.0
 40
1.75
100
AcDbArc
 50
270.0
 51
0.0
  0
LINE
  5
A9A7
330
A74F
100
AcDbEntity
  8
1
  6
Continuous
100
AcDbLine
 10
390.00029
 20
226.2178819999999
 30
0.0
 11
390.00029
 21
222.2178819999998
 31
0.0
  0
ARC
  5
A9A8
330
A74F
100
AcDbEntity
  8
1
  6
Continuous
100
AcDbCircle
 10
390.9947359999999
 20
260.117882
 30
0.0
 40
1.0
100
AcDbArc
 50
0.0
 51
90.0
  0
ARC
  5
A9A9
330
A74F
100
AcDbEntity
  8
1
  6
Continuous
100
AcDbCircle
 10
365.847883
 20
216.104264
 30
0.0
 40
6.113617999999997
100
AcDbArc
 50
90.0
 51
154.722278
  0
LINE
  5
A9AA
330
A74F
100
AcDbEntity
  8
1
  6
Continuous
100
AcDbLine
 10
361.920319
 20
215.179556
 30
0.0
 11
359.8673189999999
 21
217.2325559999999
 31
0.0
  0
LINE
  5
A9AB
330
A74F
100
AcDbEntity
  8
1
  6
Continuous
100
AcDbLine
 10
357.7447359999999
 20
208.4673099999998
 30
0.0
 11
365.7625209999998
 21
208.4673099999998
 31
0.0
  0
ARC
  5
A9AC
330
A74F
100
AcDbEntity
  8
1
  6
Continuous
100
AcDbCircle
 10
362.556906
 20
211.132781
 30
0.0
 40
4.377608
100
AcDbArc
 50
112.4180289999999
 51
171.7055229999999
  0
LINE
  5
A9AD
330
A74F
100
AcDbEntity
  8
1
  6
Continuous
100
AcDbLine
 10
376.062455
 20
215.179556
 30
0.0
 11
374.009455
 21
217.2325559999999
 31
0.0
  0
LINE
  5
A9AE
330
A74F
100
AcDbEntity
  8
1
  6
Continuous
100
AcDbLine
 10
363.471173
 20
215.179556
 30
0.0
 11
365.524173
 21
217.2325559999999
 31
0.0
  0
LINE
  5
A9AF
330
A74F
100
AcDbEntity
  8
1
  6
Continuous
100
AcDbLine
 10
364.7487459999999
 20
215.179556
 30
0.0
 11
362.6957459999999
 21
217.2325559999999
 31
0.0
  0
LINE
  5
A9B0
330
A74F
100
AcDbEntity
  8
1
  6
Continuous
100
AcDbLine
 10
371.956455
 20
215.179556
 30
0.0
 11
374.009455
 21
217.2325559999999
 31
0.0
  0
LINE
  5
A9B1
330
A74F
100
AcDbEntity
  8
1
  6
Continuous
100
AcDbLine
 10
373.2340279999998
 20
215.179556
 30
0.0
 11
371.1810279999999
 21
217.2325559999999
 31
0.0
  0
LINE
  5
A9B2
330
A74F
100
AcDbEntity
  8
1
  6
Continuous
100
AcDbLine
 10
370.4056
 20
215.179556
 30
0.0
 11
368.3526
 21
217.2325559999999
 31
0.0
  0
LINE
  5
A9B3
330
A74F
100
AcDbEntity
  8
1
  6
Continuous
100
AcDbLine
 10
369.1280279999999
 20
215.179556
 30
0.0
 11
371.1810279999999
 21
217.2325559999999
 31
0.0
  0
LINE
  5
A9B4
330
A74F
100
AcDbEntity
  8
1
  6
Continuous
100
AcDbLine
 10
366.2996
 20
215.179556
 30
0.0
 11
368.3526
 21
217.2325559999999
 31
0.0
  0
LINE
  5
A9B5
330
A74F
100
AcDbEntity
  8
1
  6
Continuous
100
AcDbLine
 10
367.577173
 20
215.179556
 30
0.0
 11
365.524173
 21
217.2325559999999
 31
0.0
  0
LINE
  5
A9B6
330
A74F
100
AcDbEntity
  8
1
  6
Continuous
100
AcDbLine
 10
360.6427459999999
 20
215.179556
 30
0.0
 11
362.6957459999999
 21
217.2325559999999
 31
0.0
  0
LINE
  5
A9B7
330
A74F
100
AcDbEntity
  8
1
  6
Continuous
100
AcDbLine
 10
374.389727
 20
205.553599
 30
0.0
 11
371.2288049999998
 21
205.553599
 31
0.0
  0
ARC
  5
A9B8
330
A74F
100
AcDbEntity
  8
1
  6
Continuous
100
AcDbCircle
 10
371.2288049999998
 20
226.412597
 30
0.0
 40
20.85899799999999
100
AcDbArc
 50
268.368019
 51
270.0
  0
ARC
  5
A9B9
330
A74F
100
AcDbEntity
  8
1
  6
Continuous
100
AcDbCircle
 10
371.5100599999999
 20
210.84647
 30
0.0
 40
5.356411999999998
100
AcDbArc
 50
206.7619749999999
 51
260.59491
  0
ARC
  5
A9BA
330
A74F
100
AcDbEntity
  8
1
  6
Continuous
100
AcDbCircle
 10
367.148896
 20
197.46731
 30
0.0
 40
11.0
100
AcDbArc
 50
33.67254099999998
 51
40.146961
  0
ARC
  5
A9BB
330
A74F
100
AcDbEntity
  8
1
  6
Continuous
100
AcDbCircle
 10
365.7625209999998
 20
194.23831
 30
0.0
 40
14.229
100
AcDbArc
 50
46.49942699999999
 51
90.0
  0
LINE
  5
A9BC
330
A74F
100
AcDbEntity
  8
1
  6
Continuous
100
AcDbLine
 10
359.504652
 20
218.7148169999999
 30
0.0
 11
360.319652
 21
218.7148169999999
 31
0.0
  0
ARC
  5
A9BD
330
A74F
100
AcDbEntity
  8
1
  6
Continuous
100
AcDbCircle
 10
359.7686229999998
 20
217.794964
 30
0.0
 40
0.9569799999999998
100
AcDbArc
 50
106.011913
 51
155.9597349999999
  0
ARC
  5
A9BE
330
A74F
100
AcDbEntity
  8
1
  6
Continuous
100
AcDbCircle
 10
363.106134
 20
220.2650439999999
 30
0.0
 40
4.697225
100
AcDbArc
 50
206.286695
 51
220.210037
  0
LINE
  5
A9BF
330
A74F
100
AcDbEntity
  8
1
  6
Continuous
100
AcDbLine
 10
359.4947359999999
 20
217.2325559999999
 30
0.0
 11
359.4947359999999
 21
215.179556
 31
0.0
  0
LINE
  5
A9C0
330
A74F
100
AcDbEntity
  8
1
  6
Continuous
100
AcDbLine
 10
359.4947359999999
 20
216.8599729999999
 30
0.0
 11
359.8673189999999
 21
217.2325559999999
 31
0.0
  0
ARC
  5
A9C1
330
A74F
100
AcDbEntity
  8
1
  6
Continuous
100
AcDbCircle
 10
487.705519
 20
191.216185
 30
0.0
 40
131.100749
100
AcDbArc
 50
170.982549
 51
172.4387049999999
  0
LINE
  5
A9C2
330
A74F
100
AcDbEntity
  8
1
  6
Continuous
100
AcDbLine
 10
372.994736
 20
227.9678819999999
 30
0.0
 11
372.994736
 21
260.117882
 31
0.0
  0
ARC
  5
A9C3
330
A74F
100
AcDbEntity
  8
1
  6
Continuous
100
AcDbCircle
 10
374.7447359999999
 20
227.9678819999999
 30
0.0
 40
1.75
100
AcDbArc
 50
180.0
 51
270.0
  0
LINE
  5
A9C4
330
A74F
100
AcDbEntity
  8
1
  6
Continuous
100
AcDbLine
 10
374.989183
 20
226.2178819999999
 30
0.0
 11
374.989183
 21
222.2178819999998
 31
0.0
  0
LINE
  5
A9C5
330
A74F
100
AcDbEntity
  8
1
  6
Continuous
100
AcDbLine
 10
367.483629
 20
226.2178819999999
 30
0.0
 11
367.483629
 21
222.2178819999998
 31
0.0
  0
ARC
  5
A9C6
330
A74F
100
AcDbEntity
  8
1
  6
Continuous
100
AcDbCircle
 10
373.9947359999999
 20
260.117882
 30
0.0
 40
1.0
100
AcDbArc
 50
90.0
 51
180.0
  0
LINE
  5
A9C7
330
A74F
100
AcDbEntity
  8
1
  6
Continuous
100
AcDbLine
 10
376.4947359999999
 20
265.2178819999999
 30
0.0
 11
377.494736
 21
266.2178819999999
 31
0.0
  0
LINE
  5
A9C8
330
A74F
100
AcDbEntity
  8
1
  6
Continuous
100
AcDbLine
 10
391.744736
 20
264.317882
 30
0.0
 11
373.244736
 21
264.317882
 31
0.0
  0
LINE
  5
A9C9
330
A74F
100
AcDbEntity
  8
1
  6
Continuous
100
AcDbLine
 10
388.4947359999999
 20
265.2178819999999
 30
0.0
 11
376.4947359999999
 21
265.2178819999999
 31
0.0
  0
LINE
  5
A9CA
330
A74F
100
AcDbEntity
  8
2
  6
Continuous
100
AcDbLine
 10
377.441736
 20
264.317882
 30
0.0
 11
377.441736
 21
266.1648819999999
 31
0.0
  0
LINE
  5
A9CB
330
A74F
100
AcDbEntity
  8
2
  6
Continuous
100
AcDbLine
 10
387.547736
 20
264.317882
 30
0.0
 11
387.547736
 21
266.1648819999999
 31
0.0
  0
LINE
  5
A9CC
330
A74F
100
AcDbEntity
  8
1
  6
Continuous
100
AcDbLine
 10
388.4947359999999
 20
264.317882
 30
0.0
 11
388.4947359999999
 21
265.2178819999999
 31
0.0
  0
LINE
  5
A9CD
330
A74F
100
AcDbEntity
  8
1
  6
Continuous
100
AcDbLine
 10
388.4947359999999
 20
265.2178819999999
 30
0.0
 11
387.494736
 21
266.2178819999999
 31
0.0
  0
LINE
  5
A9CE
330
A74F
100
AcDbEntity
  8
1
  6
Continuous
100
AcDbLine
 10
377.494736
 20
266.2178819999999
 30
0.0
 11
387.494736
 21
266.2178819999999
 31
0.0
  0
LINE
  5
A9CF
330
A74F
100
AcDbEntity
  8
1
  6
Continuous
100
AcDbLine
 10
376.4947359999999
 20
264.317882
 30
0.0
 11
376.4947359999999
 21
265.2178819999999
 31
0.0
  0
CIRCLE
  5
A9D0
330
A74F
100
AcDbEntity
  8
1
  6
Continuous
100
AcDbCircle
 10
407.494736
 20
175.717882
 30
0.0
 40
5.75
  0
ARC
  5
A9D1
330
A74F
100
AcDbEntity
  8
1
  6
Continuous
100
AcDbCircle
 10
185.490146
 20
341.9206459999998
 30
0.0
 40
24.75
100
AcDbArc
 50
236.915984
 51
123.084016
  0
ARC
  5
A9D2
330
A74F
100
AcDbEntity
  8
1
  6
Continuous
100
AcDbCircle
 10
162.154279
 20
104.629305
 30
0.0
 40
18.0
100
AcDbArc
 50
270.609568
 51
303.084016
  0
ARC
  5
A9D3
330
A74F
100
AcDbEntity
  8
1
  6
Continuous
100
AcDbCircle
 10
162.154279
 20
104.629305
 30
0.0
 40
20.3
100
AcDbArc
 50
270.6095659999999
 51
303.084016
  0
ARC
  5
A9D4
330
A74F
100
AcDbEntity
  8
1
  6
Continuous
100
AcDbCircle
 10
162.154279
 20
32.99133199999999
 30
0.0
 40
20.3
100
AcDbArc
 50
56.915984
 51
89.390434
  0
ARC
  5
A9D5
330
A74F
100
AcDbEntity
  8
1
  6
Continuous
100
AcDbCircle
 10
162.154279
 20
32.99133199999999
 30
0.0
 40
18.0
100
AcDbArc
 50
56.915984
 51
89.39043199999996
  0
LINE
  5
A9D6
330
A74F
100
AcDbEntity
  8
1
  6
Continuous
100
AcDbLine
 10
169.597422
 20
175.717882
 30
0.0
 11
169.597422
 21
209.884775
 31
0.0
  0
LINE
  5
A9D7
330
A74F
100
AcDbEntity
  8
1
  6
Continuous
100
AcDbLine
 10
398.3874609999999
 20
175.717882
 30
0.0
 11
398.3874609999999
 21
209.884775
 31
0.0
  0
LINE
  5
A9D8
330
A74F
100
AcDbEntity
  8
1
  6
Continuous
100
AcDbLine
 10
165.490146
 20
322.6207569999999
 30
0.0
 11
165.490146
 21
323.789848
 31
0.0
  0
LINE
  5
A9D9
330
A74F
100
AcDbEntity
  8
1
  6
Continuous
100
AcDbLine
 10
155.490146
 20
322.6207569999999
 30
0.0
 11
155.490146
 21
324.067382
 31
0.0
  0
LINE
  5
A9DA
330
A74F
100
AcDbEntity
  8
1
  6
Continuous
100
AcDbLine
 10
158.3654709999999
 20
326.4431189999999
 30
0.0
 11
150.5974219999998
 21
326.5257659999999
 31
0.0
  0
LINE
  5
A9DB
330
A74F
100
AcDbEntity
  8
1
  6
Continuous
100
AcDbLine
 10
162.3457769999999
 20
324.100641
 30
0.0
 11
150.5974219999998
 21
324.225636
 31
0.0
  0
LINE
  5
A9DC
330
A74F
100
AcDbEntity
  8
1
  6
Continuous
100
AcDbLine
 10
162.3457769999999
 20
359.740652
 30
0.0
 11
150.5974219999998
 21
359.615657
 31
0.0
  0
LINE
  5
A9DD
330
A74F
100
AcDbEntity
  8
1
  6
Continuous
100
AcDbLine
 10
158.3654709999999
 20
357.3981739999999
 30
0.0
 11
150.5974219999998
 21
357.3155269999999
 31
0.0
  0
LINE
  5
A9DE
330
A74F
100
AcDbEntity
  8
1
  6
Continuous
100
AcDbLine
 10
154.740146
 20
362.0061769999999
 30
0.0
 11
166.240146
 21
362.0061769999999
 31
0.0
  0
ARC
  5
A9DF
330
A74F
100
AcDbEntity
  8
1
  6
Continuous
100
AcDbCircle
 10
160.490146
 20
353.2205349999999
 30
0.0
 40
10.5
100
AcDbArc
 50
56.79617700000001
 51
123.203823
  0
LINE
  5
A9E0
330
A74F
100
AcDbEntity
  8
1
  6
Continuous
100
AcDbLine
 10
157.1319889999998
 20
328.9206459999999
 30
0.0
 11
147.9886639999998
 21
328.9206459999999
 31
0.0
  0
LINE
  5
A9E1
330
A74F
100
AcDbEntity
  8
1
  6
Continuous
100
AcDbLine
 10
157.860059
 20
327.4206459999998
 30
0.0
 11
152.490146
 21
327.4206459999998
 31
0.0
  0
LINE
  5
A9E2
330
A74F
100
AcDbEntity
  8
1
  6
Continuous
100
AcDbLine
 10
147.9886639999998
 20
354.9206459999999
 30
0.0
 11
157.1319889999998
 21
354.9206459999999
 31
0.0
  0
LINE
  5
A9E3
330
A74F
100
AcDbEntity
  8
1
  6
Continuous
100
AcDbLine
 10
157.860059
 20
356.4206459999998
 30
0.0
 11
152.490146
 21
356.4206459999998
 31
0.0
  0
LINE
  5
A9E4
330
A74F
100
AcDbEntity
  8
1
  6
Continuous
100
AcDbLine
 10
156.1258379999999
 20
352.4206459999998
 30
0.0
 11
131.5568719999999
 21
352.4206459999998
 31
0.0
  0
LINE
  5
A9E5
330
A74F
100
AcDbEntity
  8
1
  6
Continuous
100
AcDbLine
 10
156.1258379999999
 20
331.4206459999998
 30
0.0
 11
131.5568719999999
 21
331.4206459999998
 31
0.0
  0
ARC
  5
A9E6
330
A74F
100
AcDbEntity
  8
1
  6
Continuous
100
AcDbCircle
 10
168.990146
 20
341.9206459999998
 30
0.0
 40
40.0
100
AcDbArc
 50
166.4810919999998
 51
193.518908
  0
ARC
  5
A9E7
330
A74F
100
AcDbEntity
  8
1
  6
Continuous
100
AcDbCircle
 10
131.5568719999999
 20
332.9206459999999
 30
0.0
 40
1.5
100
AcDbArc
 50
193.518908
 51
270.0
  0
LINE
  5
A9E8
330
A74F
100
AcDbEntity
  8
1
  6
Continuous
100
AcDbLine
 10
150.5974219999998
 20
326.5257659999999
 30
0.0
 11
150.5974219999998
 21
324.225636
 31
0.0
  0
LINE
  5
A9E9
330
A74F
100
AcDbEntity
  8
1
  6
Continuous
100
AcDbLine
 10
154.740146
 20
362.0061769999999
 30
0.0
 11
154.740146
 21
359.659733
 31
0.0
  0
LINE
  5
A9EA
330
A74F
100
AcDbEntity
  8
1
  6
Continuous
100
AcDbLine
 10
156.490146
 20
327.4206459999998
 30
0.0
 11
156.490146
 21
326.377957
 31
0.0
  0
LINE
  5
A9EB
330
A74F
100
AcDbEntity
  8
1
  6
Continuous
100
AcDbLine
 10
144.418294
 20
331.4206459999998
 30
0.0
 11
147.9886639999998
 21
328.9206459999999
 31
0.0
  0
LINE
  5
A9EC
330
A74F
100
AcDbEntity
  8
1
  6
Continuous
100
AcDbLine
 10
150.990146
 20
328.9206459999999
 30
0.0
 11
152.490146
 21
327.4206459999998
 31
0.0
  0
ARC
  5
A9ED
330
A74F
100
AcDbEntity
  8
1
  6
Continuous
100
AcDbCircle
 10
131.5568719999999
 20
350.9206459999999
 30
0.0
 40
1.5
100
AcDbArc
 50
90.0
 51
166.4810919999998
  0
LINE
  5
A9EE
330
A74F
100
AcDbEntity
  8
1
  6
Continuous
100
AcDbLine
 10
150.5974219999998
 20
359.615657
 30
0.0
 11
150.5974219999998
 21
357.3155269999999
 31
0.0
  0
LINE
  5
A9EF
330
A74F
100
AcDbEntity
  8
1
  6
Continuous
100
AcDbLine
 10
144.418294
 20
352.4206459999998
 30
0.0
 11
147.9886639999998
 21
354.9206459999999
 31
0.0
  0
LINE
  5
A9F0
330
A74F
100
AcDbEntity
  8
1
  6
Continuous
100
AcDbLine
 10
150.990146
 20
354.9206459999999
 30
0.0
 11
152.490146
 21
356.4206459999998
 31
0.0
  0
LINE
  5
A9F1
330
A74F
100
AcDbEntity
  8
1
  6
Continuous
100
AcDbLine
 10
156.490146
 20
357.4633359999999
 30
0.0
 11
156.490146
 21
356.4206459999998
 31
0.0
  0
LINE
  5
A9F2
330
A74F
100
AcDbEntity
  8
1
  6
Continuous
100
AcDbLine
 10
166.240146
 20
360.209497
 30
0.0
 11
166.240146
 21
362.0061769999999
 31
0.0
  0
LINE
  5
A9F3
330
A74F
100
AcDbEntity
  8
1
  6
Continuous
100
AcDbLine
 10
165.490146
 20
322.6207569999999
 30
0.0
 11
155.490146
 21
322.6207569999999
 31
0.0
  0
ARC
  5
A9F4
330
A74F
100
AcDbEntity
  8
1
  6
Continuous
100
AcDbCircle
 10
160.490146
 20
334.6207569999999
 30
0.0
 40
13.0
100
AcDbArc
 50
247.380135
 51
292.6198649999999
  0
ARC
  5
A9F5
330
A74F
100
AcDbEntity
  8
1
  6
Continuous
100
AcDbCircle
 10
162.154279
 20
377.739633
 30
0.0
 40
18.0
100
AcDbArc
 50
270.609568
 51
303.084016
  0
ARC
  5
A9F6
330
A74F
100
AcDbEntity
  8
1
  6
Continuous
100
AcDbCircle
 10
162.154279
 20
306.1016599999998
 30
0.0
 40
18.0
100
AcDbArc
 50
56.915984
 51
89.39043199999996
  0
ENDSEC
  0
SECTION
  2
OBJECTS
  0
DICTIONARY
  5
A73D
330
0
100
AcDbDictionary
281
     1
  3
ACAD_CIP_PREVIOUS_PRODUCT_INFO
350
AA58
  3
ACAD_COLOR
350
AA3A
  3
ACAD_DETAILVIEWSTYLE
350
AA53
  3
ACAD_GROUP
350
A73E
  3
ACAD_LAYOUT
350
A74A
  3
ACAD_MATERIAL
350
AA08
  3
ACAD_MLEADERSTYLE
350
AA4F
  3
ACAD_MLINESTYLE
350
A747
  3
ACAD_PLOTSETTINGS
350
A749
  3
ACAD_PLOTSTYLENAME
350
AA06
  3
ACAD_SCALELIST
350
AA3D
  3
ACAD_SECTIONVIEWSTYLE
350
AA51
  3
ACAD_TABLESTYLE
350
AA3B
  3
ACAD_VISUALSTYLE
350
AA21
  3
ACDB_RECOMPOSE_DATA
350
AA76
  3
AcDbVariableDictionary
350
AA69
  3
DWGPROPS
350
AA77
  0
DICTIONARY
  5
AA59
330
A741
100
AcDbDictionary
280
     1
281
     1
  3
ADSK_XREC_LAYER_RECONCILED
360
AA5A
  0
DICTIONARY
  5
AA5B
330
A757
100
AcDbDictionary
280
     1
281
     1
  3
ADSK_XREC_LAYER_RECONCILED
360
AA5C
  0
DICTIONARY
  5
AA5D
330
A758
100
AcDbDictionary
280
     1
281
     1
  3
ADSK_XREC_LAYER_RECONCILED
360
AA5E
  0
DICTIONARY
  5
AA5F
330
A759
100
AcDbDictionary
280
     1
281
     1
  3
ADSK_XREC_LAYER_RECONCILED
360
AA60
  0
DICTIONARY
  5
AA61
330
A75A
100
AcDbDictionary
280
     1
281
     1
  3
ADSK_XREC_LAYER_RECONCILED
360
AA62
  0
DICTIONARY
  5
AA63
330
A75B
100
AcDbDictionary
280
     1
281
     1
  3
ADSK_XREC_LAYER_RECONCILED
360
AA64
  0
DICTIONARY
  5
AA65
330
A75C
100
AcDbDictionary
280
     1
281
     1
  3
ADSK_XREC_LAYER_RECONCILED
360
AA66
  0
DICTIONARY
  5
AA67
330
A75D
100
AcDbDictionary
280
     1
281
     1
  3
ADSK_XREC_LAYER_RECONCILED
360
AA68
  0
DICTIONARY
  5
AA01
330
A74F
100
AcDbDictionary
281
     1
  3
ACAD_LAYOUTSELFREF
350
AA02
  0
DICTIONARY
  5
A9FF
330
A74B
100
AcDbDictionary
281
     1
  3
ACAD_LAYOUTSELFREF
350
AA00
  0
XRECORD
  5
AA58
102
{ACAD_REACTORS
330
A73D
102
}
330
A73D
100
AcDbXrecord
280
     1
300
ACDLT
300
2014
300
ACDLT_F_S
  0
DICTIONARY
  5
AA3A
102
{ACAD_REACTORS
330
A73D
102
}
330
A73D
100
AcDbDictionary
281
     1
  0
DICTIONARY
  5
AA53
102
{ACAD_REACTORS
330
A73D
102
}
330
A73D
100
AcDbDictionary
281
     1
  3
Imperial24
350
AA54
  0
DICTIONARY
  5
A73E
102
{ACAD_REACTORS
330
A73D
102
}
330
A73D
100
AcDbDictionary
281
     1
  0
DICTIONARY
  5
A74A
102
{ACAD_REACTORS
330
A73D
102
}
330
A73D
100
AcDbDictionary
281
     1
  3
Model
350
AA55
  3
レイアウト1
350
AA56
  0
DICTIONARY
  5
AA08
102
{ACAD_REACTORS
330
A73D
102
}
330
A73D
100
AcDbDictionary
281
     1
  3
ByBlock
350
AA11
  3
ByLayer
350
AA09
  3
Global
350
AA19
  0
DICTIONARY
  5
AA4F
102
{ACAD_REACTORS
330
A73D
102
}
330
A73D
100
AcDbDictionary
281
     1
  3
Standard
350
AA50
  0
DICTIONARY
  5
A747
102
{ACAD_REACTORS
330
A73D
102
}
330
A73D
100
AcDbDictionary
281
     1
  3
STANDARD
350
A748
  0
DICTIONARY
  5
A749
102
{ACAD_REACTORS
330
A73D
102
}
330
A73D
100
AcDbDictionary
281
     1
  0
ACDBDICTIONARYWDFLT
  5
AA06
102
{ACAD_REACTORS
330
A73D
102
}
330
A73D
100
AcDbDictionary
281
     1
  3
Normal
350
AA07
100
AcDbDictionaryWithDefault
340
AA07
  0
DICTIONARY
  5
AA3D
102
{ACAD_REACTORS
330
A73D
102
}
330
A73D
100
AcDbDictionary
281
     1
  3
A0
350
AA3E
  3
A1
350
AA3F
  3
A2
350
AA40
  3
A3
350
AA41
  3
A4
350
AA42
  3
A5
350
AA43
  3
A6
350
AA44
  3
A7
350
AA45
  3
A8
350
AA46
  3
A9
350
AA47
  3
B0
350
AA48
  3
B1
350
AA49
  3
B2
350
AA4A
  3
B3
350
AA4B
  3
B4
350
AA4C
  3
B5
350
AA4D
  3
B6
350
AA4E
  0
DICTIONARY
  5
AA51
102
{ACAD_REACTORS
330
A73D
102
}
330
A73D
100
AcDbDictionary
281
     1
  3
Imperial24
350
AA52
  0
DICTIONARY
  5
AA3B
102
{ACAD_REACTORS
330
A73D
102
}
330
A73D
100
AcDbDictionary
281
     1
  3
Standard
350
AA3C
  0
DICTIONARY
  5
AA21
102
{ACAD_REACTORS
330
A73D
102
}
330
A73D
100
AcDbDictionary
281
     1
  3
2dWireframe
350
AA27
  3
Basic
350
AA26
  3
Brighten
350
AA2D
  3
ColorChange
350
AA31
  3
Conceptual
350
AA2A
  3
Dim
350
AA2C
  3
EdgeColorOff
350
AA39
  3
Facepattern
350
AA30
  3
Flat
350
AA22
  3
FlatWithEdges
350
AA23
  3
Gouraud
350
AA24
  3
GouraudWithEdges
350
AA25
  3
Hidden
350
AA29
  3
JitterOff
350
AA37
  3
Linepattern
350
AA2F
  3
OverhangOff
350
AA38
  3
Realistic
350
AA2B
  3
Shaded
350
AA36
  3
Shaded with edges
350
AA35
  3
Shades of Gray
350
AA32
  3
Sketchy
350
AA33
  3
Thicken
350
AA2E
  3
Wireframe
350
AA28
  3
X-Ray
350
AA34
  0
XRECORD
  5
AA76
102
{ACAD_REACTORS
330
A73D
102
}
330
A73D
100
AcDbXrecord
280
     1
 90
        1
330
AA3C
  0
DICTIONARY
  5
AA69
102
{ACAD_REACTORS
330
A73D
102
}
330
A73D
100
AcDbDictionary
281
     1
  3
CANNOSCALE
350
AA6E
  3
CMLEADERSTYLE
350
AA6B
  3
CTABLESTYLE
350
AA6A
  3
CVIEWDETAILSTYLE
350
AA6C
  3
CVIEWSECTIONSTYLE
350
AA6D
  3
DIMASSOC
350
AA71
  3
INDEXCTL
350
AA70
  3
SORTENTS
350
AA6F
  3
XCLIPFRAME
350
AA72
  0
XRECORD
  5
AA77
102
{ACAD_REACTORS
330
A73D
102
}
330
A73D
100
AcDbXrecord
280
     1
  1
DWGPROPS COOKIE
  2

  3

  4

  6

  7

  8
Yoshitsune
  9

300
=
301
=
302
=
303
=
304
=
305
=
306
=
307
=
308
=
309
=
 40
0.0000106597222222
 41
2451301.561374074
 42
2457192.687730567
  1

 90
        0
  0
XRECORD
  5
AA5A
102
{ACAD_REACTORS
330
AA59
102
}
330
AA59
100
AcDbXrecord
280
     1
290
     1
  0
XRECORD
  5
AA5C
102
{ACAD_REACTORS
330
AA5B
102
}
330
AA5B
100
AcDbXrecord
280
     1
290
     1
  0
XRECORD
  5
AA5E
102
{ACAD_REACTORS
330
AA5D
102
}
330
AA5D
100
AcDbXrecord
280
     1
290
     1
  0
XRECORD
  5
AA60
102
{ACAD_REACTORS
330
AA5F
102
}
330
AA5F
100
AcDbXrecord
280
     1
290
     1
  0
XRECORD
  5
AA62
102
{ACAD_REACTORS
330
AA61
102
}
330
AA61
100
AcDbXrecord
280
     1
290
     1
  0
XRECORD
  5
AA64
102
{ACAD_REACTORS
330
AA63
102
}
330
AA63
100
AcDbXrecord
280
     1
290
     1
  0
XRECORD
  5
AA66
102
{ACAD_REACTORS
330
AA65
102
}
330
AA65
100
AcDbXrecord
280
     1
290
     1
  0
XRECORD
  5
AA68
102
{ACAD_REACTORS
330
AA67
102
}
330
AA67
100
AcDbXrecord
280
     1
290
     1
  0
XRECORD
  5
AA02
102
{ACAD_REACTORS
330
AA01
102
}
330
AA01
100
AcDbXrecord
280
     1
340
A74F
  0
XRECORD
  5
AA00
102
{ACAD_REACTORS
330
A9FF
102
}
330
A9FF
100
AcDbXrecord
280
     1
340
A74B
  0
ACDBDETAILVIEWSTYLE
  5
AA54
102
{ACAD_XDICTIONARY
360
AAAF
102
}
102
{ACAD_REACTORS
330
AA53
102
}
330
AA53
100
AcDbModelDocViewStyle
 70
     0
  3
Imperial24
290
     0
100
AcDbDetailViewStyle
 70
     0
 71
     0
 90
        3
 71
     1
340
A742
 40
0.24
340
0
 40
0.24
300

 40
0.36
280
     3
 71
     2
340
A746
 90
       25
 71
     3
340
A742
 40
0.24
 90
        1
 40
0.75
 90
        1
300
%<\AcVar ViewType \f "%tc1">% %<\AcVar ViewDetailId>%\PSCALE %<\AcVar ViewScale \f "%sn">%
 71
     4
340
A746
 90
       25
340
A746
 90
       25
280
     0
  0
LAYOUT
  5
AA55
102
{ACAD_XDICTIONARY
360
AAB1
102
}
102
{ACAD_REACTORS
330
A74A
102
}
330
A74A
100
AcDbPlotSettings
  1

  2
Canon LBP9100C
  4

  6

 40
0.0
 41
0.0
 42
0.0
 43
0.0
 44
0.0
 45
0.0
 46
0.0
 47
0.0
 48
0.0
 49
0.0
140
0.0
141
0.0
142
1.0
143
1.0
 70
  1712
 72
     0
 73
     0
 74
     0
  7

 75
     0
147
1.0
148
0.0
149
0.0
100
AcDbLayout
  1
Model
 70
     1
 71
     0
 10
0.0
 20
0.0
 11
12.0
 21
9.0
 12
0.0
 22
0.0
 32
0.0
 14
0.0
 24
0.0
 34
0.0
 15
0.0
 25
0.0
 35
0.0
146
0.0
 13
0.0
 23
0.0
 33
0.0
 16
1.0
 26
0.0
 36
0.0
 17
0.0
 27
1.0
 37
0.0
 76
     0
330
A74F
331
A9FE
  0
LAYOUT
  5
AA56
102
{ACAD_XDICTIONARY
360
AAB3
102
}
102
{ACAD_REACTORS
330
A74A
102
}
330
A74A
100
AcDbPlotSettings
  1

  2
Canon LBP9100C
  4

  6

 40
0.0
 41
0.0
 42
0.0
 43
0.0
 44
0.0
 45
0.0
 46
0.0
 47
0.0
 48
0.0
 49
0.0
140
0.0
141
0.0
142
1.0
143
1.0
 70
   688
 72
     0
 73
     0
 74
     5
  7

 75
    16
147
1.0
148
0.0
149
0.0
100
AcDbLayout
  1
レイアウト1
 70
     0
 71
     1
 10
0.0
 20
0.0
 11
420.0
 21
297.0
 12
0.0
 22
0.0
 32
0.0
 14
1.000000000000000E+20
 24
1.000000000000000E+20
 34
1.000000000000000E+20
 15
-1.000000000000000E+20
 25
-1.000000000000000E+20
 35
-1.000000000000000E+20
146
0.0
 13
0.0
 23
0.0
 33
0.0
 16
1.0
 26
0.0
 36
0.0
 17
0.0
 27
1.0
 37
0.0
 76
     0
330
A74B
  0
MATERIAL
  5
AA11
102
{ACAD_XDICTIONARY
360
AA12
102
}
102
{ACAD_REACTORS
330
AA08
102
}
330
AA08
100
AcDbMaterial
  1
ByBlock
 72
     0
 43
0.0208333333333333
 43
0.0
 43
0.0
 43
0.0
 43
0.0
 43
0.0208333333333333
 43
0.0
 43
0.0
 43
0.0
 43
0.0
 43
1.0
 43
0.0
 43
0.0
 43
0.0
 43
0.0
 43
1.0
 77
     0
 47
0.0208333333333333
 47
0.0
 47
0.0
 47
0.0
 47
0.0
 47
0.0208333333333333
 47
0.0
 47
0.0
 47
0.0
 47
0.0
 47
1.0
 47
0.0
 47
0.0
 47
0.0
 47
0.0
 47
1.0
171
     0
 49
0.0208333333333333
 49
0.0
 49
0.0
 49
0.0
 49
0.0
 49
0.0208333333333333
 49
0.0
 49
0.0
 49
0.0
 49
0.0
 49
1.0
 49
0.0
 49
0.0
 49
0.0
 49
0.0
 49
1.0
175
     0
142
0.0208333333333333
142
0.0
142
0.0
142
0.0
142
0.0
142
0.0208333333333333
142
0.0
142
0.0
142
0.0
142
0.0
142
1.0
142
0.0
142
0.0
142
0.0
142
0.0
142
1.0
179
     0
144
0.0208333333333333
144
0.0
144
0.0
144
0.0
144
0.0
144
0.0208333333333333
144
0.0
144
0.0
144
0.0
144
0.0
144
1.0
144
0.0
144
0.0
144
0.0
144
0.0
144
1.0
147
0.0208333333333333
147
0.0
147
0.0
147
0.0
147
0.0
147
0.0208333333333333
147
0.0
147
0.0
147
0.0
147
0.0
147
1.0
147
0.0
147
0.0
147
0.0
147
0.0
147
1.0
  0
MATERIAL
  5
AA09
102
{ACAD_XDICTIONARY
360
AA0A
102
}
102
{ACAD_REACTORS
330
AA08
102
}
330
AA08
100
AcDbMaterial
  1
ByLayer
 72
     0
 43
0.0208333333333333
 43
0.0
 43
0.0
 43
0.0
 43
0.0
 43
0.0208333333333333
 43
0.0
 43
0.0
 43
0.0
 43
0.0
 43
1.0
 43
0.0
 43
0.0
 43
0.0
 43
0.0
 43
1.0
 77
     0
 47
0.0208333333333333
 47
0.0
 47
0.0
 47
0.0
 47
0.0
 47
0.0208333333333333
 47
0.0
 47
0.0
 47
0.0
 47
0.0
 47
1.0
 47
0.0
 47
0.0
 47
0.0
 47
0.0
 47
1.0
171
     0
 49
0.0208333333333333
 49
0.0
 49
0.0
 49
0.0
 49
0.0
 49
0.0208333333333333
 49
0.0
 49
0.0
 49
0.0
 49
0.0
 49
1.0
 49
0.0
 49
0.0
 49
0.0
 49
0.0
 49
1.0
175
     0
142
0.0208333333333333
142
0.0
142
0.0
142
0.0
142
0.0
142
0.0208333333333333
142
0.0
142
0.0
142
0.0
142
0.0
142
1.0
142
0.0
142
0.0
142
0.0
142
0.0
142
1.0
179
     0
144
0.0208333333333333
144
0.0
144
0.0
144
0.0
144
0.0
144
0.0208333333333333
144
0.0
144
0.0
144
0.0
144
0.0
144
1.0
144
0.0
144
0.0
144
0.0
144
0.0
144
1.0
147
0.0208333333333333
147
0.0
147
0.0
147
0.0
147
0.0
147
0.0208333333333333
147
0.0
147
0.0
147
0.0
147
0.0
147
1.0
147
0.0
147
0.0
147
0.0
147
0.0
147
1.0
  0
MATERIAL
  5
AA19
102
{ACAD_XDICTIONARY
360
AA1A
102
}
102
{ACAD_REACTORS
330
AA08
102
}
330
AA08
100
AcDbMaterial
  1
Global
 72
     0
 43
0.0208333333333333
 43
0.0
 43
0.0
 43
0.0
 43
0.0
 43
0.0208333333333333
 43
0.0
 43
0.0
 43
0.0
 43
0.0
 43
1.0
 43
0.0
 43
0.0
 43
0.0
 43
0.0
 43
1.0
 77
     0
 47
0.0208333333333333
 47
0.0
 47
0.0
 47
0.0
 47
0.0
 47
0.0208333333333333
 47
0.0
 47
0.0
 47
0.0
 47
0.0
 47
1.0
 47
0.0
 47
0.0
 47
0.0
 47
0.0
 47
1.0
171
     0
 49
0.0208333333333333
 49
0.0
 49
0.0
 49
0.0
 49
0.0
 49
0.0208333333333333
 49
0.0
 49
0.0
 49
0.0
 49
0.0
 49
1.0
 49
0.0
 49
0.0
 49
0.0
 49
0.0
 49
1.0
175
     0
142
0.0208333333333333
142
0.0
142
0.0
142
0.0
142
0.0
142
0.0208333333333333
142
0.0
142
0.0
142
0.0
142
0.0
142
1.0
142
0.0
142
0.0
142
0.0
142
0.0
142
1.0
179
     0
144
0.0208333333333333
144
0.0
144
0.0
144
0.0
144
0.0
144
0.0208333333333333
144
0.0
144
0.0
144
0.0
144
0.0
144
1.0
144
0.0
144
0.0
144
0.0
144
0.0
144
1.0
147
0.0208333333333333
147
0.0
147
0.0
147
0.0
147
0.0
147
0.0208333333333333
147
0.0
147
0.0
147
0.0
147
0.0
147
1.0
147
0.0
147
0.0
147
0.0
147
0.0
147
1.0
  0
MLEADERSTYLE
  5
AA50
102
{ACAD_REACTORS
330
AA4F
102
}
330
AA4F
100
AcDbMLeaderStyle
170
     2
171
     1
172
     0
 90
        2
 40
0.0
 41
0.0
173
     1
 91
-1056964608
340
A744
 92
       -2
290
     1
 42
0.09
291
     1
 43
0.36
  3
Standard
 44
0.18
300

342
A742
174
     1
178
     6
175
     1
176
     0
 93
-1056964608
 45
0.18
292
     0
297
     0
 46
0.18
 94
-1056964608
 47
1.0
 49
1.0
140
1.0
293
     1
141
0.0
294
     1
177
     0
142
1.0
295
     0
296
     0
143
0.125
1001
ACAD_MLEADERVER
1070
     2
  0
MLINESTYLE
  5
A748
102
{ACAD_REACTORS
330
A747
102
}
330
A747
100
AcDbMlineStyle
  2
STANDARD
 70
     0
  3

 62
   256
 51
90.0
 52
90.0
 71
     2
 49
0.5
 62
   256
  6
BYLAYER
 49
-0.5
 62
   256
  6
BYLAYER
  0
ACDBPLACEHOLDER
  5
AA07
102
{ACAD_REACTORS
330
AA06
102
}
330
AA06
  0
SCALE
  5
AA3E
102
{ACAD_REACTORS
330
AA3D
102
}
330
AA3D
100
AcDbScale
 70
     0
300
1:1
140
1.0
141
1.0
290
     1
  0
SCALE
  5
AA3F
102
{ACAD_REACTORS
330
AA3D
102
}
330
AA3D
100
AcDbScale
 70
     0
300
1/128" = 1'-0"
140
0.0078125
141
12.0
290
     0
  0
SCALE
  5
AA40
102
{ACAD_REACTORS
330
AA3D
102
}
330
AA3D
100
AcDbScale
 70
     0
300
1/64" = 1'-0"
140
0.015625
141
12.0
290
     0
  0
SCALE
  5
AA41
102
{ACAD_REACTORS
330
AA3D
102
}
330
AA3D
100
AcDbScale
 70
     0
300
1/32" = 1'-0"
140
0.03125
141
12.0
290
     0
  0
SCALE
  5
AA42
102
{ACAD_REACTORS
330
AA3D
102
}
330
AA3D
100
AcDbScale
 70
     0
300
1/16" = 1'-0"
140
0.0625
141
12.0
290
     0
  0
SCALE
  5
AA43
102
{ACAD_REACTORS
330
AA3D
102
}
330
AA3D
100
AcDbScale
 70
     0
300
3/32" = 1'-0"
140
0.09375
141
12.0
290
     0
  0
SCALE
  5
AA44
102
{ACAD_REACTORS
330
AA3D
102
}
330
AA3D
100
AcDbScale
 70
     0
300
1/8" = 1'-0"
140
0.125
141
12.0
290
     0
  0
SCALE
  5
AA45
102
{ACAD_REACTORS
330
AA3D
102
}
330
AA3D
100
AcDbScale
 70
     0
300
3/16" = 1'-0"
140
0.1875
141
12.0
290
     0
  0
SCALE
  5
AA46
102
{ACAD_REACTORS
330
AA3D
102
}
330
AA3D
100
AcDbScale
 70
     0
300
1/4" = 1'-0"
140
0.25
141
12.0
290
     0
  0
SCALE
  5
AA47
102
{ACAD_REACTORS
330
AA3D
102
}
330
AA3D
100
AcDbScale
 70
     0
300
3/8" = 1'-0"
140
0.375
141
12.0
290
     0
  0
SCALE
  5
AA48
102
{ACAD_REACTORS
330
AA3D
102
}
330
AA3D
100
AcDbScale
 70
     0
300
1/2" = 1'-0"
140
0.5
141
12.0
290
     0
  0
SCALE
  5
AA49
102
{ACAD_REACTORS
330
AA3D
102
}
330
AA3D
100
AcDbScale
 70
     0
300
3/4" = 1'-0"
140
0.75
141
12.0
290
     0
  0
SCALE
  5
AA4A
102
{ACAD_REACTORS
330
AA3D
102
}
330
AA3D
100
AcDbScale
 70
     0
300
1" = 1'-0"
140
1.0
141
12.0
290
     0
  0
SCALE
  5
AA4B
102
{ACAD_REACTORS
330
AA3D
102
}
330
AA3D
100
AcDbScale
 70
     0
300
1-1/2" = 1'-0"
140
1.5
141
12.0
290
     0
  0
SCALE
  5
AA4C
102
{ACAD_REACTORS
330
AA3D
102
}
330
AA3D
100
AcDbScale
 70
     0
300
3" = 1'-0"
140
3.0
141
12.0
290
     0
  0
SCALE
  5
AA4D
102
{ACAD_REACTORS
330
AA3D
102
}
330
AA3D
100
AcDbScale
 70
     0
300
6" = 1'-0"
140
6.0
141
12.0
290
     0
  0
SCALE
  5
AA4E
102
{ACAD_REACTORS
330
AA3D
102
}
330
AA3D
100
AcDbScale
 70
     0
300
1'-0" = 1'-0"
140
12.0
141
12.0
290
     0
  0
ACDBSECTIONVIEWSTYLE
  5
AA52
102
{ACAD_XDICTIONARY
360
AAAD
102
}
102
{ACAD_REACTORS
330
AA51
102
}
330
AA51
100
AcDbModelDocViewStyle
 70
     0
  3
Imperial24
290
     0
100
AcDbSectionViewStyle
 70
     0
 71
     0
 90
       78
 71
     1
340
A742
 40
0.24
340
0
340
0
 40
0.24
300
I, O, Q, S, X, Z
 40
0.48
 90
        3
 40
0.18
 90
        1
 71
     2
340
A746
 90
       25
340
A746
 90
       50
 40
0.24
 40
0.0
 40
0.24
 71
     3
340
A742
 40
0.24
 90
        1
 40
0.75
 90
        1
300
%<\AcVar ViewType \f "%tc1">% %<\AcVar ViewSectionStartId>%-%<\AcVar ViewSectionEndId>%\PSCALE %<\AcVar ViewScale \f "%sn">%
 71
     4
300
ANSI31
 40
1.0
 90
        0
290
     0
290
     0
 90
        6
 40
0.0
 40
1.570796326794896
 40
0.2617993877991494
 40
1.308996938995747
 40
-0.2617993877991494
 40
1.832595714594046
  0
TABLESTYLE
  5
AA3C
102
{ACAD_XDICTIONARY
360
AA74
102
}
102
{ACAD_REACTORS
330
AA3B
102
}
330
AA3B
100
AcDbTableStyle
  3
Standard
 70
     0
 71
     0
 40
0.06
 41
0.06
280
     0
281
     0
  7
STANDARD
140
0.18
170
     2
 62
     0
 63
     7
283
     0
274
    -2
284
     1
 64
     0
275
    -2
285
     1
 65
     0
276
    -2
286
     1
 66
     0
277
    -2
287
     1
 67
     0
278
    -2
288
     1
 68
     0
279
    -2
289
     1
 69
     0
  7
STANDARD
140
0.25
170
     5
 62
     0
 63
     7
283
     0
274
    -2
284
     1
 64
     0
275
    -2
285
     1
 65
     0
276
    -2
286
     1
 66
     0
277
    -2
287
     1
 67
     0
278
    -2
288
     1
 68
     0
279
    -2
289
     1
 69
     0
  7
STANDARD
140
0.18
170
     5
 62
     0
 63
     7
283
     0
274
    -2
284
     1
 64
     0
275
    -2
285
     1
 65
     0
276
    -2
286
     1
 66
     0
277
    -2
287
     1
 67
     0
278
    -2
288
     1
 68
     0
279
    -2
289
     1
 69
     0
  0
VISUALSTYLE
  5
AA27
102
{ACAD_XDICTIONARY
360
AA85
102
}
102
{ACAD_REACTORS
330
AA21
102
}
330
AA21
100
AcDbVisualStyle
  2
2dWireframe
 70
     4
 71
     0
 72
     2
 73
     0
 90
        0
 40
-0.6
 41
-30.0
 62
     5
 63
     7
 74
     1
 91
        4
 64
     7
 65
   257
 75
     1
175
     1
 42
1.0
 92
        0
 66
   257
 43
1.0
 76
     1
 77
     6
 78
     2
 67
     7
 79
     5
170
     0
171
     0
290
     0
174
     0
 93
        1
 44
0.0
173
     0
291
     0
 45
0.0
1001
ACAD
1000
AcDbSavedByObjectVersion
1070
     0
  0
VISUALSTYLE
  5
AA26
102
{ACAD_XDICTIONARY
360
AA83
102
}
102
{ACAD_REACTORS
330
AA21
102
}
330
AA21
100
AcDbVisualStyle
  2
Basic
 70
     7
 71
     1
 72
     0
 73
     1
 90
        0
 40
-0.6
 41
-30.0
 62
     5
 63
     7
 74
     0
 91
        4
 64
     7
 65
   257
 75
     1
175
     1
 42
1.0
 92
        8
 66
     7
 43
1.0
 76
     1
 77
     6
 78
     2
 67
     7
 79
     5
170
     0
171
     0
290
     0
174
     0
 93
        1
 44
0.0
173
     0
291
     1
 45
0.0
1001
ACAD
1000
AcDbSavedByObjectVersion
1070
     0
  0
VISUALSTYLE
  5
AA2D
102
{ACAD_XDICTIONARY
360
AA91
102
}
102
{ACAD_REACTORS
330
AA21
102
}
330
AA21
100
AcDbVisualStyle
  2
Brighten
 70
    12
 71
     2
 72
     2
 73
     0
 90
        0
 40
-0.6
 41
-30.0
 62
     5
 63
     7
 74
     1
 91
        4
 64
     7
 65
   257
 75
     1
175
     1
 42
1.0
 92
        8
 66
     7
 43
1.0
 76
     1
 77
     6
 78
     2
 67
     7
 79
     5
170
     0
171
     0
290
     0
174
     0
 93
        1
 44
50.0
173
     0
291
     1
 45
0.0
1001
ACAD
1000
AcDbSavedByObjectVersion
1070
     0
  0
VISUALSTYLE
  5
AA31
102
{ACAD_XDICTIONARY
360
AA99
102
}
102
{ACAD_REACTORS
330
AA21
102
}
330
AA21
100
AcDbVisualStyle
  2
ColorChange
 70
    16
 71
     2
 72
     2
 73
     3
 90
        0
 40
-0.6
 41
-30.0
 62
     5
 63
     8
 74
     1
 91
        4
 64
     7
 65
   257
 75
     1
175
     1
 42
1.0
 92
        8
 66
     8
 43
1.0
 76
     1
 77
     6
 78
     2
 67
     7
 79
     5
170
     0
171
     0
290
     0
174
     0
 93
        1
 44
0.0
173
     0
291
     1
 45
0.0
1001
ACAD
1000
AcDbSavedByObjectVersion
1070
     0
  0
VISUALSTYLE
  5
AA2A
102
{ACAD_XDICTIONARY
360
AA8B
102
}
102
{ACAD_REACTORS
330
AA21
102
}
330
AA21
100
AcDbVisualStyle
  2
Conceptual
 70
     9
 71
     3
 72
     2
 73
     0
 90
        0
 40
-0.6
 41
-30.0
 62
     5
 63
     7
 74
     2
 91
        2
 64
     7
 65
   257
 75
     1
175
     1
 42
179.0
 92
        8
 66
     7
 43
1.0
 76
     1
 77
     6
 78
     2
 67
     7
 79
     3
170
     0
171
     0
290
     0
174
     0
 93
        1
 44
0.0
173
     0
291
     0
 45
0.0
1001
ACAD
1000
AcDbSavedByObjectVersion
1070
     0
  0
VISUALSTYLE
  5
AA2C
102
{ACAD_XDICTIONARY
360
AA8F
102
}
102
{ACAD_REACTORS
330
AA21
102
}
330
AA21
100
AcDbVisualStyle
  2
Dim
 70
    11
 71
     2
 72
     2
 73
     0
 90
        0
 40
-0.6
 41
-30.0
 62
     5
 63
     7
 74
     1
 91
        4
 64
     7
 65
   257
 75
     1
175
     1
 42
1.0
 92
        8
 66
     7
 43
1.0
 76
     1
 77
     6
 78
     2
 67
     7
 79
     5
170
     0
171
     0
290
     0
174
     0
 93
        1
 44
-50.0
173
     0
291
     1
 45
0.0
1001
ACAD
1000
AcDbSavedByObjectVersion
1070
     0
  0
VISUALSTYLE
  5
AA39
102
{ACAD_XDICTIONARY
360
AAA9
102
}
102
{ACAD_REACTORS
330
AA21
102
}
330
AA21
100
AcDbVisualStyle
  2
EdgeColorOff
 70
    22
 71
     2
 72
     2
 73
     0
 90
        0
 40
-0.6
 41
-30.0
 62
     5
 63
     7
 74
     1
 91
        4
 64
     7
 65
   257
 75
     1
175
     1
 42
1.0
 92
        8
 66
     7
 43
1.0
 76
     1
 77
     6
 78
     2
 67
     7
 79
     5
170
     0
171
     0
290
     0
174
     0
 93
        1
 44
0.0
173
     0
291
     1
 45
0.0
1001
ACAD
1000
AcDbSavedByObjectVersion
1070
     0
  0
VISUALSTYLE
  5
AA30
102
{ACAD_XDICTIONARY
360
AA97
102
}
102
{ACAD_REACTORS
330
AA21
102
}
330
AA21
100
AcDbVisualStyle
  2
Facepattern
 70
    15
 71
     2
 72
     2
 73
     0
 90
        0
 40
-0.6
 41
-30.0
 62
     5
 63
     7
 74
     1
 91
        4
 64
     7
 65
   257
 75
     1
175
     1
 42
1.0
 92
        8
 66
     7
 43
1.0
 76
     1
 77
     6
 78
     2
 67
     7
 79
     5
170
     0
171
     0
290
     0
174
     0
 93
        1
 44
0.0
173
     0
291
     1
 45
0.0
1001
ACAD
1000
AcDbSavedByObjectVersion
1070
     0
  0
VISUALSTYLE
  5
AA22
102
{ACAD_XDICTIONARY
360
AA7B
102
}
102
{ACAD_REACTORS
330
AA21
102
}
330
AA21
100
AcDbVisualStyle
  2
Flat
 70
     0
 71
     2
 72
     1
 73
     1
 90
        2
 40
-0.6
 41
30.0
 62
     5
 63
     7
 74
     0
 91
        0
 64
     7
 65
   257
 75
     1
175
     1
 42
1.0
 92
        8
 66
     7
 43
1.0
 76
     1
 77
     6
 78
     2
 67
     7
 79
     5
170
     0
171
     0
290
     0
174
     0
 93
       13
 44
0.0
173
     0
291
     1
 45
0.0
1001
ACAD
1000
AcDbSavedByObjectVersion
1070
     0
  0
VISUALSTYLE
  5
AA23
102
{ACAD_XDICTIONARY
360
AA7D
102
}
102
{ACAD_REACTORS
330
AA21
102
}
330
AA21
100
AcDbVisualStyle
  2
FlatWithEdges
 70
     1
 71
     2
 72
     1
 73
     1
 90
        2
 40
-0.6
 41
30.0
 62
     5
 63
     7
 74
     1
 91
        0
 64
     7
 65
   257
 75
     1
175
     1
 42
1.0
 92
        0
 66
   257
 43
1.0
 76
     1
 77
     6
 78
     2
 67
     7
 79
     5
170
     0
171
     0
290
     0
174
     0
 93
       13
 44
0.0
173
     0
291
     1
 45
0.0
1001
ACAD
1000
AcDbSavedByObjectVersion
1070
     0
  0
VISUALSTYLE
  5
AA24
102
{ACAD_XDICTIONARY
360
AA7F
102
}
102
{ACAD_REACTORS
330
AA21
102
}
330
AA21
100
AcDbVisualStyle
  2
Gouraud
 70
     2
 71
     2
 72
     2
 73
     1
 90
        2
 40
-0.6
 41
30.0
 62
     5
 63
     7
 74
     0
 91
        0
 64
     7
 65
   257
 75
     1
175
     1
 42
1.0
 92
        0
 66
     7
 43
1.0
 76
     1
 77
     6
 78
     2
 67
     7
 79
     5
170
     0
171
     0
290
     0
174
     0
 93
       13
 44
0.0
173
     0
291
     1
 45
0.0
1001
ACAD
1000
AcDbSavedByObjectVersion
1070
     0
  0
VISUALSTYLE
  5
AA25
102
{ACAD_XDICTIONARY
360
AA81
102
}
102
{ACAD_REACTORS
330
AA21
102
}
330
AA21
100
AcDbVisualStyle
  2
GouraudWithEdges
 70
     3
 71
     2
 72
     2
 73
     1
 90
        2
 40
-0.6
 41
30.0
 62
     5
 63
     7
 74
     1
 91
        0
 64
     7
 65
   257
 75
     1
175
     1
 42
1.0
 92
        0
 66
   257
 43
1.0
 76
     1
 77
     6
 78
     2
 67
     7
 79
     5
170
     0
171
     0
290
     0
174
     0
 93
       13
 44
0.0
173
     0
291
     1
 45
0.0
1001
ACAD
1000
AcDbSavedByObjectVersion
1070
     0
  0
VISUALSTYLE
  5
AA29
102
{ACAD_XDICTIONARY
360
AA89
102
}
102
{ACAD_REACTORS
330
AA21
102
}
330
AA21
100
AcDbVisualStyle
  2
Hidden
 70
     6
 71
     1
 72
     2
 73
     2
 90
        0
 40
-0.6
 41
-30.0
 62
     5
 63
     7
 74
     2
 91
        2
 64
     7
 65
   257
 75
     2
175
     1
 42
40.0
 92
        0
 66
   257
 43
1.0
 76
     1
 77
     6
 78
     2
 67
     7
 79
     3
170
     0
171
     0
290
     0
174
     0
 93
        1
 44
0.0
173
     0
291
     0
 45
0.0
1001
ACAD
1000
AcDbSavedByObjectVersion
1070
     0
  0
VISUALSTYLE
  5
AA37
102
{ACAD_XDICTIONARY
360
AAA5
102
}
102
{ACAD_REACTORS
330
AA21
102
}
330
AA21
100
AcDbVisualStyle
  2
JitterOff
 70
    20
 71
     2
 72
     2
 73
     0
 90
        0
 40
-0.6
 41
-30.0
 62
     5
 63
     7
 74
     1
 91
        4
 64
     7
 65
   257
 75
     1
175
     1
 42
1.0
 92
       10
 66
     7
 43
1.0
 76
     1
 77
     6
 78
     2
 67
     7
 79
     5
170
     0
171
     0
290
     0
174
     0
 93
        1
 44
0.0
173
     0
291
     1
 45
0.0
1001
ACAD
1000
AcDbSavedByObjectVersion
1070
     0
  0
VISUALSTYLE
  5
AA2F
102
{ACAD_XDICTIONARY
360
AA95
102
}
102
{ACAD_REACTORS
330
AA21
102
}
330
AA21
100
AcDbVisualStyle
  2
Linepattern
 70
    14
 71
     2
 72
     2
 73
     0
 90
        0
 40
-0.6
 41
-30.0
 62
     5
 63
     7
 74
     1
 91
        4
 64
     7
 65
   257
 75
     7
175
     7
 42
1.0
 92
        8
 66
     7
 43
1.0
 76
     1
 77
     6
 78
     2
 67
     7
 79
     5
170
     0
171
     0
290
     0
174
     0
 93
        1
 44
0.0
173
     0
291
     1
 45
0.0
1001
ACAD
1000
AcDbSavedByObjectVersion
1070
     0
  0
VISUALSTYLE
  5
AA38
102
{ACAD_XDICTIONARY
360
AAA7
102
}
102
{ACAD_REACTORS
330
AA21
102
}
330
AA21
100
AcDbVisualStyle
  2
OverhangOff
 70
    21
 71
     2
 72
     2
 73
     0
 90
        0
 40
-0.6
 41
-30.0
 62
     5
 63
     7
 74
     1
 91
        4
 64
     7
 65
   257
 75
     1
175
     1
 42
1.0
 92
        9
 66
     7
 43
1.0
 76
     1
 77
     6
 78
     2
 67
     7
 79
     5
170
     0
171
     0
290
     0
174
     0
 93
        1
 44
0.0
173
     0
291
     1
 45
0.0
1001
ACAD
1000
AcDbSavedByObjectVersion
1070
     0
  0
VISUALSTYLE
  5
AA2B
102
{ACAD_XDICTIONARY
360
AA8D
102
}
102
{ACAD_REACTORS
330
AA21
102
}
330
AA21
100
AcDbVisualStyle
  2
Realistic
 70
     8
 71
     2
 72
     3
 73
     0
 90
        2
 40
-0.6
 41
30.0
 62
     5
 63
     7
 74
     0
 91
        0
 64
     7
 65
   257
 75
     1
175
     1
 42
1.0
 92
        8
 66
   257
 43
1.0
 76
     1
 77
     6
 78
     2
 67
     7
 79
     3
170
     0
171
     0
290
     0
174
     0
 93
       13
 44
0.0
173
     0
291
     0
 45
0.0
1001
ACAD
1000
AcDbSavedByObjectVersion
1070
     0
  0
VISUALSTYLE
  5
AA36
102
{ACAD_XDICTIONARY
360
AAA3
102
}
102
{ACAD_REACTORS
330
AA21
102
}
330
AA21
100
AcDbVisualStyle
  2
Shaded
 70
    27
 71
     2
 72
     2
 73
     1
 90
        2
 40
-0.6
 41
30.0
 62
     5
 63
     7
 74
     0
 91
        4
 64
     7
 65
   257
 75
     1
175
     1
 42
1.0
 92
        8
 66
   257
 43
1.0
 76
     1
 77
     6
 78
     2
 67
     8
 79
     3
170
     0
171
     0
290
     0
174
     0
 93
        5
 44
0.0
173
     0
291
     0
 45
0.0
1001
ACAD
1000
AcDbSavedByObjectVersion
1070
     0
  0
VISUALSTYLE
  5
AA35
102
{ACAD_XDICTIONARY
360
AAA1
102
}
102
{ACAD_REACTORS
330
AA21
102
}
330
AA21
100
AcDbVisualStyle
  2
Shaded with edges
 70
    26
 71
     2
 72
     2
 73
     1
 90
        2
 40
-0.6
 41
30.0
 62
     5
 63
     7
 74
     1
 91
       10
 64
     7
 65
   257
 75
     2
175
     1
 42
1.0
 92
        8
 66
   257
 43
1.0
 76
     1
 77
     6
 78
     2
 67
     7
 79
     3
170
     0
171
     0
290
     0
174
     0
 93
        5
 44
0.0
173
     0
291
     0
 45
0.0
1001
ACAD
1000
AcDbSavedByObjectVersion
1070
     0
  0
VISUALSTYLE
  5
AA32
102
{ACAD_XDICTIONARY
360
AA9B
102
}
102
{ACAD_REACTORS
330
AA21
102
}
330
AA21
100
AcDbVisualStyle
  2
Shades of Gray
 70
    23
 71
     2
 72
     2
 73
     3
 90
        0
 40
-0.6
 41
-30.0
 62
     5
 63
     7
 74
     2
 91
        2
 64
     7
 65
     7
 75
     1
175
     1
 42
40.0
 92
        8
 66
     7
 43
1.0
 76
     1
 77
     6
 78
     2
 67
     7
 79
     3
170
     0
171
     0
290
     0
174
     0
 93
        1
 44
0.0
173
     0
291
     0
 45
0.0
1001
ACAD
1000
AcDbSavedByObjectVersion
1070
     0
  0
VISUALSTYLE
  5
AA33
102
{ACAD_XDICTIONARY
360
AA9D
102
}
102
{ACAD_REACTORS
330
AA21
102
}
330
AA21
100
AcDbVisualStyle
  2
Sketchy
 70
    24
 71
     1
 72
     2
 73
     2
 90
        0
 40
-0.6
 41
-30.0
 62
     5
 63
     7
 74
     2
 91
        2
 64
     7
 65
     7
 75
     1
175
     1
 42
40.0
 92
       11
 66
     7
 43
1.0
 76
     1
 77
     6
 78
     2
 67
     7
 79
     6
170
     0
171
     0
290
     0
174
     0
 93
        1
 44
0.0
173
     0
291
     0
 45
0.0
1001
ACAD
1000
AcDbSavedByObjectVersion
1070
     0
  0
VISUALSTYLE
  5
AA2E
102
{ACAD_XDICTIONARY
360
AA93
102
}
102
{ACAD_REACTORS
330
AA21
102
}
330
AA21
100
AcDbVisualStyle
  2
Thicken
 70
    13
 71
     2
 72
     2
 73
     0
 90
        0
 40
-0.6
 41
-30.0
 62
     5
 63
     7
 74
     1
 91
        4
 64
     7
 65
   257
 75
     1
175
     1
 42
1.0
 92
       12
 66
     7
 43
1.0
 76
     1
 77
     6
 78
     2
 67
     7
 79
     5
170
     0
171
     0
290
     0
174
     0
 93
        1
 44
0.0
173
     0
291
     1
 45
0.0
1001
ACAD
1000
AcDbSavedByObjectVersion
1070
     0
  0
VISUALSTYLE
  5
AA28
102
{ACAD_XDICTIONARY
360
AA87
102
}
102
{ACAD_REACTORS
330
AA21
102
}
330
AA21
100
AcDbVisualStyle
  2
Wireframe
 70
     5
 71
     0
 72
     2
 73
     0
 90
        0
 40
-0.6
 41
-30.0
 62
     5
 63
     7
 74
     1
 91
        4
 64
     7
 65
   257
 75
     1
175
     1
 42
1.0
 92
        0
 66
   257
 43
1.0
 76
     1
 77
     6
 78
     2
 67
     7
 79
     3
170
     0
171
     0
290
     0
174
     0
 93
        1
 44
0.0
173
     0
291
     0
 45
0.0
1001
ACAD
1000
AcDbSavedByObjectVersion
1070
     0
  0
VISUALSTYLE
  5
AA34
102
{ACAD_XDICTIONARY
360
AA9F
102
}
102
{ACAD_REACTORS
330
AA21
102
}
330
AA21
100
AcDbVisualStyle
  2
X-Ray
 70
    25
 71
     2
 72
     2
 73
     1
 90
        1
 40
0.5
 41
-30.0
 62
     5
 63
     7
 74
     1
 91
        0
 64
     7
 65
   257
 75
     1
175
     1
 42
1.0
 92
        8
 66
     7
 43
1.0
 76
     1
 77
     6
 78
     2
 67
     7
 79
     3
170
     0
171
     0
290
     0
174
     0
 93
       13
 44
0.0
173
     0
291
     0
 45
0.0
1001
ACAD
1000
AcDbSavedByObjectVersion
1070
     0
  0
DICTIONARYVAR
  5
AA6E
102
{ACAD_REACTORS
330
AA69
102
}
330
AA69
100
DictionaryVariables
280
     0
  1
1:1
  0
DICTIONARYVAR
  5
AA6B
102
{ACAD_REACTORS
330
AA69
102
}
330
AA69
100
DictionaryVariables
280
     0
  1
STANDARD
  0
DICTIONARYVAR
  5
AA6A
102
{ACAD_REACTORS
330
AA69
102
}
330
AA69
100
DictionaryVariables
280
     0
  1
STANDARD
  0
DICTIONARYVAR
  5
AA6C
102
{ACAD_REACTORS
330
AA69
102
}
330
AA69
100
DictionaryVariables
280
     0
  1
Imperial24
  0
DICTIONARYVAR
  5
AA6D
102
{ACAD_REACTORS
330
AA69
102
}
330
AA69
100
DictionaryVariables
280
     0
  1
Imperial24
  0
DICTIONARYVAR
  5
AA71
102
{ACAD_REACTORS
330
AA69
102
}
330
AA69
100
DictionaryVariables
280
     0
  1
1
  0
DICTIONARYVAR
  5
AA70
102
{ACAD_REACTORS
330
AA69
102
}
330
AA69
100
DictionaryVariables
280
     0
  1
0
  0
DICTIONARYVAR
  5
AA6F
102
{ACAD_REACTORS
330
AA69
102
}
330
AA69
100
DictionaryVariables
280
     0
  1
127
  0
DICTIONARYVAR
  5
AA72
102
{ACAD_REACTORS
330
AA69
102
}
330
AA69
100
DictionaryVariables
280
     0
  1
2
  0
DICTIONARY
  5
AAAF
330
AA54
100
AcDbDictionary
280
     1
281
     1
  3
ACAD_XREC_ROUNDTRIP
360
AAB0
  0
DICTIONARY
  5
AAB1
330
AA55
100
AcDbDictionary
280
     1
281
     1
  3
ACAD_XREC_ROUNDTRIP
360
AAB2
  0
DICTIONARY
  5
AAB3
330
AA56
100
AcDbDictionary
280
     1
281
     1
  3
ACAD_XREC_ROUNDTRIP
360
AAB4
  0
DICTIONARY
  5
AA12
330
AA11
100
AcDbDictionary
280
     1
281
     1
  3
ACAD_XREC_ROUNDTRIP
360
AA79
  3
BUMPTILE
360
AA14
  3
DIFFUSETILE
360
AA13
  3
OPACITYTILE
360
AA17
  3
REFLECTIONTILE
360
AA16
  3
REFRACTIONTILE
360
AA18
  3
SPECULARTILE
360
AA15
  0
DICTIONARY
  5
AA0A
330
AA09
100
AcDbDictionary
280
     1
281
     1
  3
ACAD_XREC_ROUNDTRIP
360
AA78
  3
BUMPTILE
360
AA0C
  3
DIFFUSETILE
360
AA0B
  3
OPACITYTILE
360
AA0F
  3
REFLECTIONTILE
360
AA0E
  3
REFRACTIONTILE
360
AA10
  3
SPECULARTILE
360
AA0D
  0
DICTIONARY
  5
AA1A
330
AA19
100
AcDbDictionary
280
     1
281
     1
  3
ACAD_XREC_ROUNDTRIP
360
AA7A
  3
BUMPTILE
360
AA1C
  3
DIFFUSETILE
360
AA1B
  3
OPACITYTILE
360
AA1F
  3
REFLECTIONTILE
360
AA1E
  3
REFRACTIONTILE
360
AA20
  3
SPECULARTILE
360
AA1D
  0
DICTIONARY
  5
AAAD
330
AA52
100
AcDbDictionary
280
     1
281
     1
  3
ACAD_XREC_ROUNDTRIP
360
AAAE
  0
DICTIONARY
  5
AA74
330
AA3C
100
AcDbDictionary
280
     1
281
     1
  3
ACAD_ROUNDTRIP_2008_TABLESTYLE_CELLSTYLEMAP
360
AA75
  3
ACAD_XREC_ROUNDTRIP
360
AAAB
  0
DICTIONARY
  5
AA85
330
AA27
100
AcDbDictionary
280
     1
281
     1
  3
ACAD_XREC_ROUNDTRIP
360
AA86
  0
DICTIONARY
  5
AA83
330
AA26
100
AcDbDictionary
280
     1
281
     1
  3
ACAD_XREC_ROUNDTRIP
360
AA84
  0
DICTIONARY
  5
AA91
330
AA2D
100
AcDbDictionary
280
     1
281
     1
  3
ACAD_XREC_ROUNDTRIP
360
AA92
  0
DICTIONARY
  5
AA99
330
AA31
100
AcDbDictionary
280
     1
281
     1
  3
ACAD_XREC_ROUNDTRIP
360
AA9A
  0
DICTIONARY
  5
AA8B
330
AA2A
100
AcDbDictionary
280
     1
281
     1
  3
ACAD_XREC_ROUNDTRIP
360
AA8C
  0
DICTIONARY
  5
AA8F
330
AA2C
100
AcDbDictionary
280
     1
281
     1
  3
ACAD_XREC_ROUNDTRIP
360
AA90
  0
DICTIONARY
  5
AAA9
330
AA39
100
AcDbDictionary
280
     1
281
     1
  3
ACAD_XREC_ROUNDTRIP
360
AAAA
  0
DICTIONARY
  5
AA97
330
AA30
100
AcDbDictionary
280
     1
281
     1
  3
ACAD_XREC_ROUNDTRIP
360
AA98
  0
DICTIONARY
  5
AA7B
330
AA22
100
AcDbDictionary
280
     1
281
     1
  3
ACAD_XREC_ROUNDTRIP
360
AA7C
  0
DICTIONARY
  5
AA7D
330
AA23
100
AcDbDictionary
280
     1
281
     1
  3
ACAD_XREC_ROUNDTRIP
360
AA7E
  0
DICTIONARY
  5
AA7F
330
AA24
100
AcDbDictionary
280
     1
281
     1
  3
ACAD_XREC_ROUNDTRIP
360
AA80
  0
DICTIONARY
  5
AA81
330
AA25
100
AcDbDictionary
280
     1
281
     1
  3
ACAD_XREC_ROUNDTRIP
360
AA82
  0
DICTIONARY
  5
AA89
330
AA29
100
AcDbDictionary
280
     1
281
     1
  3
ACAD_XREC_ROUNDTRIP
360
AA8A
  0
DICTIONARY
  5
AAA5
330
AA37
100
AcDbDictionary
280
     1
281
     1
  3
ACAD_XREC_ROUNDTRIP
360
AAA6
  0
DICTIONARY
  5
AA95
330
AA2F
100
AcDbDictionary
280
     1
281
     1
  3
ACAD_XREC_ROUNDTRIP
360
AA96
  0
DICTIONARY
  5
AAA7
330
AA38
100
AcDbDictionary
280
     1
281
     1
  3
ACAD_XREC_ROUNDTRIP
360
AAA8
  0
DICTIONARY
  5
AA8D
330
AA2B
100
AcDbDictionary
280
     1
281
     1
  3
ACAD_XREC_ROUNDTRIP
360
AA8E
  0
DICTIONARY
  5
AAA3
330
AA36
100
AcDbDictionary
280
     1
281
     1
  3
ACAD_XREC_ROUNDTRIP
360
AAA4
  0
DICTIONARY
  5
AAA1
330
AA35
100
AcDbDictionary
280
     1
281
     1
  3
ACAD_XREC_ROUNDTRIP
360
AAA2
  0
DICTIONARY
  5
AA9B
330
AA32
100
AcDbDictionary
280
     1
281
     1
  3
ACAD_XREC_ROUNDTRIP
360
AA9C
  0
DICTIONARY
  5
AA9D
330
AA33
100
AcDbDictionary
280
     1
281
     1
  3
ACAD_XREC_ROUNDTRIP
360
AA9E
  0
DICTIONARY
  5
AA93
330
AA2E
100
AcDbDictionary
280
     1
281
     1
  3
ACAD_XREC_ROUNDTRIP
360
AA94
  0
DICTIONARY
  5
AA87
330
AA28
100
AcDbDictionary
280
     1
281
     1
  3
ACAD_XREC_ROUNDTRIP
360
AA88
  0
DICTIONARY
  5
AA9F
330
AA34
100
AcDbDictionary
280
     1
281
     1
  3
ACAD_XREC_ROUNDTRIP
360
AAA0
  0
XRECORD
  5
AAB0
102
{ACAD_REACTORS
330
AAAF
102
}
330
AAAF
100
AcDbXrecord
280
     1
102
DISPLAYNAME
  1
Imperial24
102
FLAGS
 90
        0
  0
XRECORD
  5
AAB2
102
{ACAD_REACTORS
330
AAB1
102
}
330
AAB1
100
AcDbXrecord
280
     1
102
SHADEPLOT
 70
     0
102
SHADEPLOTRESLEVEL
 70
     2
102
SHADEPLOTCUSTOMDPI
 70
   300
  0
XRECORD
  5
AAB4
102
{ACAD_REACTORS
330
AAB3
102
}
330
AAB3
100
AcDbXrecord
280
     1
102
SHADEPLOT
 70
     0
102
SHADEPLOTRESLEVEL
 70
     2
102
SHADEPLOTCUSTOMDPI
 70
   300
  0
XRECORD
  5
AA79
102
{ACAD_REACTORS
330
AA12
102
}
330
AA12
100
AcDbXrecord
280
     1
102
MATERIAL
148
0.0
149
0.0
149
0.0
 93
        0
 94
      127
282
     0
 72
     0
 77
     0
171
     0
175
     0
179
     0
273
     0
  0
XRECORD
  5
AA14
102
{ACAD_REACTORS
330
AA12
102
}
330
AA12
100
AcDbXrecord
280
     1
270
     1
271
     1
  0
XRECORD
  5
AA13
102
{ACAD_REACTORS
330
AA12
102
}
330
AA12
100
AcDbXrecord
280
     1
270
     1
271
     1
  0
XRECORD
  5
AA17
102
{ACAD_REACTORS
330
AA12
102
}
330
AA12
100
AcDbXrecord
280
     1
270
     1
271
     1
  0
XRECORD
  5
AA16
102
{ACAD_REACTORS
330
AA12
102
}
330
AA12
100
AcDbXrecord
280
     1
270
     1
271
     1
  0
XRECORD
  5
AA18
102
{ACAD_REACTORS
330
AA12
102
}
330
AA12
100
AcDbXrecord
280
     1
270
     1
271
     1
  0
XRECORD
  5
AA15
102
{ACAD_REACTORS
330
AA12
102
}
330
AA12
100
AcDbXrecord
280
     1
270
     1
271
     1
  0
XRECORD
  5
AA78
102
{ACAD_REACTORS
330
AA0A
102
}
330
AA0A
100
AcDbXrecord
280
     1
102
MATERIAL
148
0.0
149
0.0
149
0.0
 93
        0
 94
      127
282
     0
 72
     0
 77
     0
171
     0
175
     0
179
     0
273
     0
  0
XRECORD
  5
AA0C
102
{ACAD_REACTORS
330
AA0A
102
}
330
AA0A
100
AcDbXrecord
280
     1
270
     1
271
     1
  0
XRECORD
  5
AA0B
102
{ACAD_REACTORS
330
AA0A
102
}
330
AA0A
100
AcDbXrecord
280
     1
270
     1
271
     1
  0
XRECORD
  5
AA0F
102
{ACAD_REACTORS
330
AA0A
102
}
330
AA0A
100
AcDbXrecord
280
     1
270
     1
271
     1
  0
XRECORD
  5
AA0E
102
{ACAD_REACTORS
330
AA0A
102
}
330
AA0A
100
AcDbXrecord
280
     1
270
     1
271
     1
  0
XRECORD
  5
AA10
102
{ACAD_REACTORS
330
AA0A
102
}
330
AA0A
100
AcDbXrecord
280
     1
270
     1
271
     1
  0
XRECORD
  5
AA0D
102
{ACAD_REACTORS
330
AA0A
102
}
330
AA0A
100
AcDbXrecord
280
     1
270
     1
271
     1
  0
XRECORD
  5
AA7A
102
{ACAD_REACTORS
330
AA1A
102
}
330
AA1A
100
AcDbXrecord
280
     1
102
MATERIAL
148
0.0
149
0.0
149
0.0
 93
        0
 94
      127
282
     0
 72
     0
 77
     0
171
     0
175
     0
179
     0
273
     0
  0
XRECORD
  5
AA1C
102
{ACAD_REACTORS
330
AA1A
102
}
330
AA1A
100
AcDbXrecord
280
     1
270
     1
271
     1
  0
XRECORD
  5
AA1B
102
{ACAD_REACTORS
330
AA1A
102
}
330
AA1A
100
AcDbXrecord
280
     1
270
     1
271
     1
  0
XRECORD
  5
AA1F
102
{ACAD_REACTORS
330
AA1A
102
}
330
AA1A
100
AcDbXrecord
280
     1
270
     1
271
     1
  0
XRECORD
  5
AA1E
102
{ACAD_REACTORS
330
AA1A
102
}
330
AA1A
100
AcDbXrecord
280
     1
270
     1
271
     1
  0
XRECORD
  5
AA20
102
{ACAD_REACTORS
330
AA1A
102
}
330
AA1A
100
AcDbXrecord
280
     1
270
     1
271
     1
  0
XRECORD
  5
AA1D
102
{ACAD_REACTORS
330
AA1A
102
}
330
AA1A
100
AcDbXrecord
280
     1
270
     1
271
     1
  0
XRECORD
  5
AAAE
102
{ACAD_REACTORS
330
AAAD
102
}
330
AAAD
100
AcDbXrecord
280
     1
102
DISPLAYNAME
  1
Imperial24
102
FLAGS
 90
        0
  0
CELLSTYLEMAP
  5
AA75
102
{ACAD_REACTORS
330
AA74
102
}
330
AA74
100
AcDbCellStyleMap
 90
        3
300
CELLSTYLE
  1
TABLEFORMAT_BEGIN
 90
        5
170
     1
 91
        0
 92
    32768
 62
   257
 93
        1
300
CONTENTFORMAT
  1
CONTENTFORMAT_BEGIN
 90
        0
 91
        0
 92
      512
 93
        0
300

 40
0.0
140
1.0
 94
        5
 62
     0
340
A742
144
0.25
309
CONTENTFORMAT_END
171
     0
 94
        0
309
TABLEFORMAT_END
  1
CELLSTYLE_BEGIN
 90
        1
 91
        1
300
_TITLE
309
CELLSTYLE_END
300
CELLSTYLE
  1
TABLEFORMAT_BEGIN
 90
        5
170
     1
 91
        0
 92
        0
 62
   257
 93
        1
300
CONTENTFORMAT
  1
CONTENTFORMAT_BEGIN
 90
        0
 91
        0
 92
      512
 93
        0
300

 40
0.0
140
1.0
 94
        5
 62
     0
340
A742
144
0.18
309
CONTENTFORMAT_END
171
     0
 94
        0
309
TABLEFORMAT_END
  1
CELLSTYLE_BEGIN
 90
        2
 91
        1
300
_HEADER
309
CELLSTYLE_END
300
CELLSTYLE
  1
TABLEFORMAT_BEGIN
 90
        5
170
     1
 91
        0
 92
        0
 62
   257
 93
        1
300
CONTENTFORMAT
  1
CONTENTFORMAT_BEGIN
 90
        0
 91
        0
 92
      512
 93
        0
300

 40
0.0
140
1.0
 94
        2
 62
     0
340
A742
144
0.18
309
CONTENTFORMAT_END
171
     0
 94
        0
309
TABLEFORMAT_END
  1
CELLSTYLE_BEGIN
 90
        3
 91
        2
300
_DATA
309
CELLSTYLE_END
  0
XRECORD
  5
AAAB
102
{ACAD_REACTORS
330
AA74
102
}
330
AA74
100
AcDbXrecord
280
     1
102
ACAD_ROUNDTRIP_PRE2007_TABLESTYLE
 90
      512
 91
        0
  1

 92
      512
 93
        0
  2

 94
      512
 95
        0
  3

  0
XRECORD
  5
AA86
102
{ACAD_REACTORS
330
AA85
102
}
330
AA85
100
AcDbXrecord
280
     1
102
RTVSPost2010Prop28
280
     1
102
RTVSPost2010PropOp28
 70
     1
102
RTVSPost2010Prop29
280
     1
102
RTVSPost2010PropOp29
 70
     1
102
RTVSPost2010Prop30
280
     0
102
RTVSPost2010PropOp30
 70
     1
102
RTVSPost2010Prop31
280
     0
102
RTVSPost2010PropOp31
 70
     1
102
RTVSPost2010Prop32
280
     0
102
RTVSPost2010PropOp32
 70
     1
102
RTVSPost2010Prop33
280
     0
102
RTVSPost2010PropOp33
 70
     1
102
RTVSPost2010Prop34
280
     0
102
RTVSPost2010PropOp34
 70
     1
102
RTVSPost2010Prop35
280
     0
102
RTVSPost2010PropOp35
 70
     1
102
RTVSPost2010Prop36
280
     0
102
RTVSPost2010PropOp36
 70
     1
102
RTVSPost2010Prop37
 90
       50
102
RTVSPost2010PropOp37
 70
     1
102
RTVSPost2010Prop38
140
0.0
102
RTVSPost2010PropOp38
 70
     1
102
RTVSPost2010Prop39
140
1.0
102
RTVSPost2010PropOp39
 70
     1
102
RTVSPost2010Prop40
 90
        0
102
RTVSPost2010PropOp40
 70
     1
102
RTVSPost2010Prop41ColorIndex
 90
       18
102
RTVSPost2010Prop41ColorRGB
 90
        0
102
RTVSPost2010PropOp41
 70
     1
102
RTVSPost2010Prop42
 90
       50
102
RTVSPost2010PropOp42
 70
     1
102
RTVSPost2010Prop43
 90
        3
102
RTVSPost2010PropOp43
 70
     1
102
RTVSPost2010Prop44ColorIndex
 90
        5
102
RTVSPost2010Prop44ColorRGB
 90
      255
102
RTVSPost2010PropOp44
 70
     1
102
RTVSPost2010Prop45
280
     0
102
RTVSPost2010PropOp45
 70
     1
102
RTVSPost2010Prop46
 90
       50
102
RTVSPost2010PropOp46
 70
     1
102
RTVSPost2010Prop47
 90
       50
102
RTVSPost2010PropOp47
 70
     1
102
RTVSPost2010Prop48
 90
       50
102
RTVSPost2010PropOp48
 70
     1
102
RTVSPost2010Prop49
280
     0
102
RTVSPost2010PropOp49
 70
     1
102
RTVSPost2010Prop50
 90
       50
102
RTVSPost2010PropOp50
 70
     1
102
RTVSPost2010Prop51ColorIndex
 90
      256
102
RTVSPost2010Prop51ColorRGB
 90
-16777216
102
RTVSPost2010PropOp51
 70
     0
102
RTVSPost2010Prop52
140
1.0
102
RTVSPost2010PropOp52
 70
     0
102
RTVSPost2010Prop53
 90
        2
102
RTVSPost2010PropOp53
 70
     1
102
RTVSPost2010Prop54
  1
strokes_ogs.tif
102
RTVSPost2010PropOp54
 70
     1
102
RTVSPost2010Prop55
280
     0
102
RTVSPost2010PropOp55
 70
     1
102
RTVSPost2010Prop56
140
1.0
102
RTVSPost2010PropOp56
 70
     1
102
RTVSPost2010Prop57
140
1.0
102
RTVSPost2010PropOp57
 70
     1
102
RTVSPropertyOp0
 70
     1
102
RTVSPropertyOp1
 70
     1
102
RTVSPropertyOp2
 70
     1
102
RTVSPropertyOp3
 70
     1
102
RTVSPropertyOp4
 70
     1
102
RTVSPropertyOp5
 70
     1
102
RTVSPropertyOp6
 70
     1
102
RTVSPropertyOp7
 70
     1
102
RTVSPropertyOp8
 70
     1
102
RTVSPropertyOp9
 70
     1
102
RTVSPropertyOp10
 70
     1
102
RTVSPropertyOp11
 70
     1
102
RTVSPropertyOp12
 70
     1
102
RTVSPropertyOp13
 70
     1
102
RTVSPropertyOp14
 70
     1
102
RTVSPropertyOp15
 70
     1
102
RTVSPropertyOp16
 70
     1
102
RTVSPropertyOp17
 70
     1
102
RTVSPropertyOp18
 70
     1
102
RTVSPropertyOp19
 70
     1
102
RTVSPropertyOp20
 70
     1
102
RTVSPropertyOp21
 70
     1
102
RTVSPropertyOp22
 70
     1
102
RTVSPropertyOp23
 70
     1
102
RTVSPropertyOp24
 70
     1
102
RTVSPropertyOp25
 70
     1
102
RTVSPropertyOp26
 70
     1
102
RTVSPropertyOp27
 70
     1
102
RTVSPropertyOp28
 70
     1
102
RTVSPropertyOp29
 70
     1
102
RTVSPropertyOp30
 70
     1
102
RTVSPropertyOp31
 70
     1
102
RTVSPropertyOp32
 70
     1
102
RTVSPropertyOp33
 70
     1
102
RTVSPropertyOp34
 70
     1
102
RTVSPropertyOp35
 70
     1
102
RTVSPropertyOp36
 70
     1
102
RTVSPropertyOp37
 70
     1
102
RTVSPropertyOp38
 70
     1
102
RTVSPropertyOp39
 70
     1
102
RTVSPropertyOp40
 70
     1
102
RTVSPropertyOp41
 70
     1
102
RTVSPropertyOp42
 70
     1
102
RTVSPropertyOp43
 70
     1
102
RTVSPropertyOp44
 70
     1
102
RTVSPropertyOp45
 70
     1
102
RTVSPropertyOp46
 70
     1
102
RTVSPropertyOp47
 70
     1
102
RTVSPropertyOp48
 70
     1
102
RTVSPropertyOp49
 70
     1
102
RTVSPropertyOp50
 70
     1
102
RTVSPropertyOp51
 70
     0
102
RTVSPropertyOp52
 70
     0
102
RTVSPropertyOp53
 70
     1
102
RTVSPropertyOp54
 70
     1
102
RTVSPropertyOp55
 70
     1
102
RTVSPropertyOp56
 70
     1
102
RTVSPropertyOp57
 70
     1
102
RTVSPropertyOp58
 70
     1
102
RTVSPropertyOp59
 70
     1
102
RTVSPropertyOp60
 70
     1
102
RTVSPropertyOp61
 70
     1
102
RTVSPropertyOp62
 70
     1
  0
XRECORD
  5
AA84
102
{ACAD_REACTORS
330
AA83
102
}
330
AA83
100
AcDbXrecord
280
     1
102
RTVSPost2010Prop28
280
     0
102
RTVSPost2010PropOp28
 70
     1
102
RTVSPost2010Prop29
280
     1
102
RTVSPost2010PropOp29
 70
     1
102
RTVSPost2010Prop30
280
     1
102
RTVSPost2010PropOp30
 70
     1
102
RTVSPost2010Prop31
280
     0
102
RTVSPost2010PropOp31
 70
     1
102
RTVSPost2010Prop32
280
     0
102
RTVSPost2010PropOp32
 70
     1
102
RTVSPost2010Prop33
280
     0
102
RTVSPost2010PropOp33
 70
     1
102
RTVSPost2010Prop34
280
     0
102
RTVSPost2010PropOp34
 70
     1
102
RTVSPost2010Prop35
280
     0
102
RTVSPost2010PropOp35
 70
     1
102
RTVSPost2010Prop36
280
     0
102
RTVSPost2010PropOp36
 70
     1
102
RTVSPost2010Prop37
 90
       50
102
RTVSPost2010PropOp37
 70
     1
102
RTVSPost2010Prop38
140
0.0
102
RTVSPost2010PropOp38
 70
     1
102
RTVSPost2010Prop39
140
1.0
102
RTVSPost2010PropOp39
 70
     1
102
RTVSPost2010Prop40
 90
        0
102
RTVSPost2010PropOp40
 70
     1
102
RTVSPost2010Prop41ColorIndex
 90
       18
102
RTVSPost2010Prop41ColorRGB
 90
        0
102
RTVSPost2010PropOp41
 70
     1
102
RTVSPost2010Prop42
 90
       50
102
RTVSPost2010PropOp42
 70
     1
102
RTVSPost2010Prop43
 90
        3
102
RTVSPost2010PropOp43
 70
     1
102
RTVSPost2010Prop44ColorIndex
 90
        5
102
RTVSPost2010Prop44ColorRGB
 90
      255
102
RTVSPost2010PropOp44
 70
     1
102
RTVSPost2010Prop45
280
     0
102
RTVSPost2010PropOp45
 70
     1
102
RTVSPost2010Prop46
 90
       50
102
RTVSPost2010PropOp46
 70
     1
102
RTVSPost2010Prop47
 90
       50
102
RTVSPost2010PropOp47
 70
     1
102
RTVSPost2010Prop48
 90
       50
102
RTVSPost2010PropOp48
 70
     1
102
RTVSPost2010Prop49
280
     0
102
RTVSPost2010PropOp49
 70
     1
102
RTVSPost2010Prop50
 90
       50
102
RTVSPost2010PropOp50
 70
     1
102
RTVSPost2010Prop51ColorIndex
 90
      256
102
RTVSPost2010Prop51ColorRGB
 90
-16777216
102
RTVSPost2010PropOp51
 70
     0
102
RTVSPost2010Prop52
140
1.0
102
RTVSPost2010PropOp52
 70
     0
102
RTVSPost2010Prop53
 90
        2
102
RTVSPost2010PropOp53
 70
     1
102
RTVSPost2010Prop54
  1
strokes_ogs.tif
102
RTVSPost2010PropOp54
 70
     1
102
RTVSPost2010Prop55
280
     0
102
RTVSPost2010PropOp55
 70
     1
102
RTVSPost2010Prop56
140
1.0
102
RTVSPost2010PropOp56
 70
     1
102
RTVSPost2010Prop57
140
1.0
102
RTVSPost2010PropOp57
 70
     1
102
RTVSPropertyOp0
 70
     1
102
RTVSPropertyOp1
 70
     1
102
RTVSPropertyOp2
 70
     1
102
RTVSPropertyOp3
 70
     1
102
RTVSPropertyOp4
 70
     1
102
RTVSPropertyOp5
 70
     1
102
RTVSPropertyOp6
 70
     1
102
RTVSPropertyOp7
 70
     1
102
RTVSPropertyOp8
 70
     1
102
RTVSPropertyOp9
 70
     1
102
RTVSPropertyOp10
 70
     1
102
RTVSPropertyOp11
 70
     1
102
RTVSPropertyOp12
 70
     1
102
RTVSPropertyOp13
 70
     1
102
RTVSPropertyOp14
 70
     1
102
RTVSPropertyOp15
 70
     1
102
RTVSPropertyOp16
 70
     1
102
RTVSPropertyOp17
 70
     1
102
RTVSPropertyOp18
 70
     1
102
RTVSPropertyOp19
 70
     1
102
RTVSPropertyOp20
 70
     1
102
RTVSPropertyOp21
 70
     1
102
RTVSPropertyOp22
 70
     1
102
RTVSPropertyOp23
 70
     1
102
RTVSPropertyOp24
 70
     1
102
RTVSPropertyOp25
 70
     1
102
RTVSPropertyOp26
 70
     1
102
RTVSPropertyOp27
 70
     1
102
RTVSPropertyOp28
 70
     1
102
RTVSPropertyOp29
 70
     1
102
RTVSPropertyOp30
 70
     1
102
RTVSPropertyOp31
 70
     1
102
RTVSPropertyOp32
 70
     1
102
RTVSPropertyOp33
 70
     1
102
RTVSPropertyOp34
 70
     1
102
RTVSPropertyOp35
 70
     1
102
RTVSPropertyOp36
 70
     1
102
RTVSPropertyOp37
 70
     1
102
RTVSPropertyOp38
 70
     1
102
RTVSPropertyOp39
 70
     1
102
RTVSPropertyOp40
 70
     1
102
RTVSPropertyOp41
 70
     1
102
RTVSPropertyOp42
 70
     1
102
RTVSPropertyOp43
 70
     1
102
RTVSPropertyOp44
 70
     1
102
RTVSPropertyOp45
 70
     1
102
RTVSPropertyOp46
 70
     1
102
RTVSPropertyOp47
 70
     1
102
RTVSPropertyOp48
 70
     1
102
RTVSPropertyOp49
 70
     1
102
RTVSPropertyOp50
 70
     1
102
RTVSPropertyOp51
 70
     0
102
RTVSPropertyOp52
 70
     0
102
RTVSPropertyOp53
 70
     1
102
RTVSPropertyOp54
 70
     1
102
RTVSPropertyOp55
 70
     1
102
RTVSPropertyOp56
 70
     1
102
RTVSPropertyOp57
 70
     1
102
RTVSPropertyOp58
 70
     1
102
RTVSPropertyOp59
 70
     1
102
RTVSPropertyOp60
 70
     1
102
RTVSPropertyOp61
 70
     1
102
RTVSPropertyOp62
 70
     1
  0
XRECORD
  5
AA92
102
{ACAD_REACTORS
330
AA91
102
}
330
AA91
100
AcDbXrecord
280
     1
102
RTVSPost2010Prop28
280
     0
102
RTVSPost2010PropOp28
 70
     1
102
RTVSPost2010Prop29
280
     1
102
RTVSPost2010PropOp29
 70
     1
102
RTVSPost2010Prop30
280
     1
102
RTVSPost2010PropOp30
 70
     1
102
RTVSPost2010Prop31
280
     0
102
RTVSPost2010PropOp31
 70
     1
102
RTVSPost2010Prop32
280
     0
102
RTVSPost2010PropOp32
 70
     1
102
RTVSPost2010Prop33
280
     0
102
RTVSPost2010PropOp33
 70
     1
102
RTVSPost2010Prop34
280
     0
102
RTVSPost2010PropOp34
 70
     1
102
RTVSPost2010Prop35
280
     0
102
RTVSPost2010PropOp35
 70
     1
102
RTVSPost2010Prop36
280
     0
102
RTVSPost2010PropOp36
 70
     1
102
RTVSPost2010Prop37
 90
       50
102
RTVSPost2010PropOp37
 70
     1
102
RTVSPost2010Prop38
140
0.0
102
RTVSPost2010PropOp38
 70
     1
102
RTVSPost2010Prop39
140
1.0
102
RTVSPost2010PropOp39
 70
     1
102
RTVSPost2010Prop40
 90
        0
102
RTVSPost2010PropOp40
 70
     1
102
RTVSPost2010Prop41ColorIndex
 90
       18
102
RTVSPost2010Prop41ColorRGB
 90
        0
102
RTVSPost2010PropOp41
 70
     1
102
RTVSPost2010Prop42
 90
       50
102
RTVSPost2010PropOp42
 70
     1
102
RTVSPost2010Prop43
 90
        3
102
RTVSPost2010PropOp43
 70
     1
102
RTVSPost2010Prop44ColorIndex
 90
        5
102
RTVSPost2010Prop44ColorRGB
 90
      255
102
RTVSPost2010PropOp44
 70
     1
102
RTVSPost2010Prop45
280
     0
102
RTVSPost2010PropOp45
 70
     1
102
RTVSPost2010Prop46
 90
       50
102
RTVSPost2010PropOp46
 70
     1
102
RTVSPost2010Prop47
 90
       50
102
RTVSPost2010PropOp47
 70
     1
102
RTVSPost2010Prop48
 90
       50
102
RTVSPost2010PropOp48
 70
     1
102
RTVSPost2010Prop49
280
     0
102
RTVSPost2010PropOp49
 70
     1
102
RTVSPost2010Prop50
 90
       50
102
RTVSPost2010PropOp50
 70
     1
102
RTVSPost2010Prop51ColorIndex
 90
      256
102
RTVSPost2010Prop51ColorRGB
 90
-16777216
102
RTVSPost2010PropOp51
 70
     0
102
RTVSPost2010Prop52
140
1.0
102
RTVSPost2010PropOp52
 70
     0
102
RTVSPost2010Prop53
 90
        2
102
RTVSPost2010PropOp53
 70
     1
102
RTVSPost2010Prop54
  1
strokes_ogs.tif
102
RTVSPost2010PropOp54
 70
     1
102
RTVSPost2010Prop55
280
     0
102
RTVSPost2010PropOp55
 70
     1
102
RTVSPost2010Prop56
140
1.0
102
RTVSPost2010PropOp56
 70
     1
102
RTVSPost2010Prop57
140
1.0
102
RTVSPost2010PropOp57
 70
     1
102
RTVSPropertyOp0
 70
     1
102
RTVSPropertyOp1
 70
     1
102
RTVSPropertyOp2
 70
     1
102
RTVSPropertyOp3
 70
     1
102
RTVSPropertyOp4
 70
     1
102
RTVSPropertyOp5
 70
     1
102
RTVSPropertyOp6
 70
     1
102
RTVSPropertyOp7
 70
     1
102
RTVSPropertyOp8
 70
     1
102
RTVSPropertyOp9
 70
     1
102
RTVSPropertyOp10
 70
     1
102
RTVSPropertyOp11
 70
     1
102
RTVSPropertyOp12
 70
     1
102
RTVSPropertyOp13
 70
     1
102
RTVSPropertyOp14
 70
     1
102
RTVSPropertyOp15
 70
     1
102
RTVSPropertyOp16
 70
     1
102
RTVSPropertyOp17
 70
     1
102
RTVSPropertyOp18
 70
     1
102
RTVSPropertyOp19
 70
     1
102
RTVSPropertyOp20
 70
     1
102
RTVSPropertyOp21
 70
     1
102
RTVSPropertyOp22
 70
     1
102
RTVSPropertyOp23
 70
     1
102
RTVSPropertyOp24
 70
     1
102
RTVSPropertyOp25
 70
     1
102
RTVSPropertyOp26
 70
     1
102
RTVSPropertyOp27
 70
     1
102
RTVSPropertyOp28
 70
     1
102
RTVSPropertyOp29
 70
     1
102
RTVSPropertyOp30
 70
     1
102
RTVSPropertyOp31
 70
     1
102
RTVSPropertyOp32
 70
     1
102
RTVSPropertyOp33
 70
     1
102
RTVSPropertyOp34
 70
     1
102
RTVSPropertyOp35
 70
     1
102
RTVSPropertyOp36
 70
     1
102
RTVSPropertyOp37
 70
     1
102
RTVSPropertyOp38
 70
     1
102
RTVSPropertyOp39
 70
     1
102
RTVSPropertyOp40
 70
     1
102
RTVSPropertyOp41
 70
     1
102
RTVSPropertyOp42
 70
     1
102
RTVSPropertyOp43
 70
     1
102
RTVSPropertyOp44
 70
     1
102
RTVSPropertyOp45
 70
     1
102
RTVSPropertyOp46
 70
     1
102
RTVSPropertyOp47
 70
     1
102
RTVSPropertyOp48
 70
     1
102
RTVSPropertyOp49
 70
     1
102
RTVSPropertyOp50
 70
     1
102
RTVSPropertyOp51
 70
     0
102
RTVSPropertyOp52
 70
     0
102
RTVSPropertyOp53
 70
     1
102
RTVSPropertyOp54
 70
     1
102
RTVSPropertyOp55
 70
     1
102
RTVSPropertyOp56
 70
     1
102
RTVSPropertyOp57
 70
     1
102
RTVSPropertyOp58
 70
     1
102
RTVSPropertyOp59
 70
     1
102
RTVSPropertyOp60
 70
     1
102
RTVSPropertyOp61
 70
     1
102
RTVSPropertyOp62
 70
     1
  0
XRECORD
  5
AA9A
102
{ACAD_REACTORS
330
AA99
102
}
330
AA99
100
AcDbXrecord
280
     1
102
RTVSPost2010Prop28
280
     0
102
RTVSPost2010PropOp28
 70
     1
102
RTVSPost2010Prop29
280
     1
102
RTVSPost2010PropOp29
 70
     1
102
RTVSPost2010Prop30
280
     1
102
RTVSPost2010PropOp30
 70
     1
102
RTVSPost2010Prop31
280
     0
102
RTVSPost2010PropOp31
 70
     1
102
RTVSPost2010Prop32
280
     0
102
RTVSPost2010PropOp32
 70
     1
102
RTVSPost2010Prop33
280
     0
102
RTVSPost2010PropOp33
 70
     1
102
RTVSPost2010Prop34
280
     0
102
RTVSPost2010PropOp34
 70
     1
102
RTVSPost2010Prop35
280
     0
102
RTVSPost2010PropOp35
 70
     1
102
RTVSPost2010Prop36
280
     0
102
RTVSPost2010PropOp36
 70
     1
102
RTVSPost2010Prop37
 90
       50
102
RTVSPost2010PropOp37
 70
     1
102
RTVSPost2010Prop38
140
0.0
102
RTVSPost2010PropOp38
 70
     1
102
RTVSPost2010Prop39
140
1.0
102
RTVSPost2010PropOp39
 70
     1
102
RTVSPost2010Prop40
 90
        0
102
RTVSPost2010PropOp40
 70
     1
102
RTVSPost2010Prop41ColorIndex
 90
       18
102
RTVSPost2010Prop41ColorRGB
 90
        0
102
RTVSPost2010PropOp41
 70
     1
102
RTVSPost2010Prop42
 90
       50
102
RTVSPost2010PropOp42
 70
     1
102
RTVSPost2010Prop43
 90
        3
102
RTVSPost2010PropOp43
 70
     1
102
RTVSPost2010Prop44ColorIndex
 90
        5
102
RTVSPost2010Prop44ColorRGB
 90
      255
102
RTVSPost2010PropOp44
 70
     1
102
RTVSPost2010Prop45
280
     0
102
RTVSPost2010PropOp45
 70
     1
102
RTVSPost2010Prop46
 90
       50
102
RTVSPost2010PropOp46
 70
     1
102
RTVSPost2010Prop47
 90
       50
102
RTVSPost2010PropOp47
 70
     1
102
RTVSPost2010Prop48
 90
       50
102
RTVSPost2010PropOp48
 70
     1
102
RTVSPost2010Prop49
280
     0
102
RTVSPost2010PropOp49
 70
     1
102
RTVSPost2010Prop50
 90
       50
102
RTVSPost2010PropOp50
 70
     1
102
RTVSPost2010Prop51ColorIndex
 90
      256
102
RTVSPost2010Prop51ColorRGB
 90
-16777216
102
RTVSPost2010PropOp51
 70
     0
102
RTVSPost2010Prop52
140
1.0
102
RTVSPost2010PropOp52
 70
     0
102
RTVSPost2010Prop53
 90
        2
102
RTVSPost2010PropOp53
 70
     1
102
RTVSPost2010Prop54
  1
strokes_ogs.tif
102
RTVSPost2010PropOp54
 70
     1
102
RTVSPost2010Prop55
280
     0
102
RTVSPost2010PropOp55
 70
     1
102
RTVSPost2010Prop56
140
1.0
102
RTVSPost2010PropOp56
 70
     1
102
RTVSPost2010Prop57
140
1.0
102
RTVSPost2010PropOp57
 70
     1
102
RTVSPropertyOp0
 70
     1
102
RTVSPropertyOp1
 70
     1
102
RTVSPropertyOp2
 70
     1
102
RTVSPropertyOp3
 70
     1
102
RTVSPropertyOp4
 70
     1
102
RTVSPropertyOp5
 70
     1
102
RTVSPropertyOp6
 70
     1
102
RTVSPropertyOp7
 70
     1
102
RTVSPropertyOp8
 70
     1
102
RTVSPropertyOp9
 70
     1
102
RTVSPropertyOp10
 70
     1
102
RTVSPropertyOp11
 70
     1
102
RTVSPropertyOp12
 70
     1
102
RTVSPropertyOp13
 70
     1
102
RTVSPropertyOp14
 70
     1
102
RTVSPropertyOp15
 70
     1
102
RTVSPropertyOp16
 70
     1
102
RTVSPropertyOp17
 70
     1
102
RTVSPropertyOp18
 70
     1
102
RTVSPropertyOp19
 70
     1
102
RTVSPropertyOp20
 70
     1
102
RTVSPropertyOp21
 70
     1
102
RTVSPropertyOp22
 70
     1
102
RTVSPropertyOp23
 70
     1
102
RTVSPropertyOp24
 70
     1
102
RTVSPropertyOp25
 70
     1
102
RTVSPropertyOp26
 70
     1
102
RTVSPropertyOp27
 70
     1
102
RTVSPropertyOp28
 70
     1
102
RTVSPropertyOp29
 70
     1
102
RTVSPropertyOp30
 70
     1
102
RTVSPropertyOp31
 70
     1
102
RTVSPropertyOp32
 70
     1
102
RTVSPropertyOp33
 70
     1
102
RTVSPropertyOp34
 70
     1
102
RTVSPropertyOp35
 70
     1
102
RTVSPropertyOp36
 70
     1
102
RTVSPropertyOp37
 70
     1
102
RTVSPropertyOp38
 70
     1
102
RTVSPropertyOp39
 70
     1
102
RTVSPropertyOp40
 70
     1
102
RTVSPropertyOp41
 70
     1
102
RTVSPropertyOp42
 70
     1
102
RTVSPropertyOp43
 70
     1
102
RTVSPropertyOp44
 70
     1
102
RTVSPropertyOp45
 70
     1
102
RTVSPropertyOp46
 70
     1
102
RTVSPropertyOp47
 70
     1
102
RTVSPropertyOp48
 70
     1
102
RTVSPropertyOp49
 70
     1
102
RTVSPropertyOp50
 70
     1
102
RTVSPropertyOp51
 70
     0
102
RTVSPropertyOp52
 70
     0
102
RTVSPropertyOp53
 70
     1
102
RTVSPropertyOp54
 70
     1
102
RTVSPropertyOp55
 70
     1
102
RTVSPropertyOp56
 70
     1
102
RTVSPropertyOp57
 70
     1
102
RTVSPropertyOp58
 70
     1
102
RTVSPropertyOp59
 70
     1
102
RTVSPropertyOp60
 70
     1
102
RTVSPropertyOp61
 70
     1
102
RTVSPropertyOp62
 70
     1
  0
XRECORD
  5
AA8C
102
{ACAD_REACTORS
330
AA8B
102
}
330
AA8B
100
AcDbXrecord
280
     1
102
RTVSPost2010Prop28
280
     0
102
RTVSPost2010PropOp28
 70
     1
102
RTVSPost2010Prop29
280
     1
102
RTVSPost2010PropOp29
 70
     1
102
RTVSPost2010Prop30
280
     1
102
RTVSPost2010PropOp30
 70
     1
102
RTVSPost2010Prop31
280
     0
102
RTVSPost2010PropOp31
 70
     1
102
RTVSPost2010Prop32
280
     0
102
RTVSPost2010PropOp32
 70
     1
102
RTVSPost2010Prop33
280
     0
102
RTVSPost2010PropOp33
 70
     1
102
RTVSPost2010Prop34
280
     0
102
RTVSPost2010PropOp34
 70
     1
102
RTVSPost2010Prop35
280
     0
102
RTVSPost2010PropOp35
 70
     1
102
RTVSPost2010Prop36
280
     0
102
RTVSPost2010PropOp36
 70
     1
102
RTVSPost2010Prop37
 90
       50
102
RTVSPost2010PropOp37
 70
     1
102
RTVSPost2010Prop38
140
0.0
102
RTVSPost2010PropOp38
 70
     1
102
RTVSPost2010Prop39
140
1.0
102
RTVSPost2010PropOp39
 70
     1
102
RTVSPost2010Prop40
 90
        0
102
RTVSPost2010PropOp40
 70
     1
102
RTVSPost2010Prop41ColorIndex
 90
       18
102
RTVSPost2010Prop41ColorRGB
 90
        0
102
RTVSPost2010PropOp41
 70
     1
102
RTVSPost2010Prop42
 90
       50
102
RTVSPost2010PropOp42
 70
     1
102
RTVSPost2010Prop43
 90
        3
102
RTVSPost2010PropOp43
 70
     1
102
RTVSPost2010Prop44ColorIndex
 90
        5
102
RTVSPost2010Prop44ColorRGB
 90
      255
102
RTVSPost2010PropOp44
 70
     1
102
RTVSPost2010Prop45
280
     0
102
RTVSPost2010PropOp45
 70
     1
102
RTVSPost2010Prop46
 90
       50
102
RTVSPost2010PropOp46
 70
     1
102
RTVSPost2010Prop47
 90
       50
102
RTVSPost2010PropOp47
 70
     1
102
RTVSPost2010Prop48
 90
       50
102
RTVSPost2010PropOp48
 70
     1
102
RTVSPost2010Prop49
280
     0
102
RTVSPost2010PropOp49
 70
     1
102
RTVSPost2010Prop50
 90
       50
102
RTVSPost2010PropOp50
 70
     1
102
RTVSPost2010Prop51ColorIndex
 90
      256
102
RTVSPost2010Prop51ColorRGB
 90
-16777216
102
RTVSPost2010PropOp51
 70
     0
102
RTVSPost2010Prop52
140
1.0
102
RTVSPost2010PropOp52
 70
     0
102
RTVSPost2010Prop53
 90
        2
102
RTVSPost2010PropOp53
 70
     1
102
RTVSPost2010Prop54
  1
strokes_ogs.tif
102
RTVSPost2010PropOp54
 70
     1
102
RTVSPost2010Prop55
280
     0
102
RTVSPost2010PropOp55
 70
     1
102
RTVSPost2010Prop56
140
1.0
102
RTVSPost2010PropOp56
 70
     1
102
RTVSPost2010Prop57
140
1.0
102
RTVSPost2010PropOp57
 70
     1
102
RTVSPropertyOp0
 70
     1
102
RTVSPropertyOp1
 70
     1
102
RTVSPropertyOp2
 70
     1
102
RTVSPropertyOp3
 70
     1
102
RTVSPropertyOp4
 70
     1
102
RTVSPropertyOp5
 70
     1
102
RTVSPropertyOp6
 70
     1
102
RTVSPropertyOp7
 70
     1
102
RTVSPropertyOp8
 70
     1
102
RTVSPropertyOp9
 70
     1
102
RTVSPropertyOp10
 70
     1
102
RTVSPropertyOp11
 70
     1
102
RTVSPropertyOp12
 70
     1
102
RTVSPropertyOp13
 70
     1
102
RTVSPropertyOp14
 70
     1
102
RTVSPropertyOp15
 70
     1
102
RTVSPropertyOp16
 70
     1
102
RTVSPropertyOp17
 70
     1
102
RTVSPropertyOp18
 70
     1
102
RTVSPropertyOp19
 70
     1
102
RTVSPropertyOp20
 70
     1
102
RTVSPropertyOp21
 70
     1
102
RTVSPropertyOp22
 70
     1
102
RTVSPropertyOp23
 70
     1
102
RTVSPropertyOp24
 70
     1
102
RTVSPropertyOp25
 70
     1
102
RTVSPropertyOp26
 70
     1
102
RTVSPropertyOp27
 70
     1
102
RTVSPropertyOp28
 70
     1
102
RTVSPropertyOp29
 70
     1
102
RTVSPropertyOp30
 70
     1
102
RTVSPropertyOp31
 70
     1
102
RTVSPropertyOp32
 70
     1
102
RTVSPropertyOp33
 70
     1
102
RTVSPropertyOp34
 70
     1
102
RTVSPropertyOp35
 70
     1
102
RTVSPropertyOp36
 70
     1
102
RTVSPropertyOp37
 70
     1
102
RTVSPropertyOp38
 70
     1
102
RTVSPropertyOp39
 70
     1
102
RTVSPropertyOp40
 70
     1
102
RTVSPropertyOp41
 70
     1
102
RTVSPropertyOp42
 70
     1
102
RTVSPropertyOp43
 70
     1
102
RTVSPropertyOp44
 70
     1
102
RTVSPropertyOp45
 70
     1
102
RTVSPropertyOp46
 70
     1
102
RTVSPropertyOp47
 70
     1
102
RTVSPropertyOp48
 70
     1
102
RTVSPropertyOp49
 70
     1
102
RTVSPropertyOp50
 70
     1
102
RTVSPropertyOp51
 70
     0
102
RTVSPropertyOp52
 70
     0
102
RTVSPropertyOp53
 70
     1
102
RTVSPropertyOp54
 70
     1
102
RTVSPropertyOp55
 70
     1
102
RTVSPropertyOp56
 70
     1
102
RTVSPropertyOp57
 70
     1
102
RTVSPropertyOp58
 70
     1
102
RTVSPropertyOp59
 70
     1
102
RTVSPropertyOp60
 70
     1
102
RTVSPropertyOp61
 70
     1
102
RTVSPropertyOp62
 70
     1
  0
XRECORD
  5
AA90
102
{ACAD_REACTORS
330
AA8F
102
}
330
AA8F
100
AcDbXrecord
280
     1
102
RTVSPost2010Prop28
280
     0
102
RTVSPost2010PropOp28
 70
     1
102
RTVSPost2010Prop29
280
     1
102
RTVSPost2010PropOp29
 70
     1
102
RTVSPost2010Prop30
280
     1
102
RTVSPost2010PropOp30
 70
     1
102
RTVSPost2010Prop31
280
     0
102
RTVSPost2010PropOp31
 70
     1
102
RTVSPost2010Prop32
280
     0
102
RTVSPost2010PropOp32
 70
     1
102
RTVSPost2010Prop33
280
     0
102
RTVSPost2010PropOp33
 70
     1
102
RTVSPost2010Prop34
280
     0
102
RTVSPost2010PropOp34
 70
     1
102
RTVSPost2010Prop35
280
     0
102
RTVSPost2010PropOp35
 70
     1
102
RTVSPost2010Prop36
280
     0
102
RTVSPost2010PropOp36
 70
     1
102
RTVSPost2010Prop37
 90
       50
102
RTVSPost2010PropOp37
 70
     1
102
RTVSPost2010Prop38
140
0.0
102
RTVSPost2010PropOp38
 70
     1
102
RTVSPost2010Prop39
140
1.0
102
RTVSPost2010PropOp39
 70
     1
102
RTVSPost2010Prop40
 90
        0
102
RTVSPost2010PropOp40
 70
     1
102
RTVSPost2010Prop41ColorIndex
 90
       18
102
RTVSPost2010Prop41ColorRGB
 90
        0
102
RTVSPost2010PropOp41
 70
     1
102
RTVSPost2010Prop42
 90
       50
102
RTVSPost2010PropOp42
 70
     1
102
RTVSPost2010Prop43
 90
        3
102
RTVSPost2010PropOp43
 70
     1
102
RTVSPost2010Prop44ColorIndex
 90
        5
102
RTVSPost2010Prop44ColorRGB
 90
      255
102
RTVSPost2010PropOp44
 70
     1
102
RTVSPost2010Prop45
280
     0
102
RTVSPost2010PropOp45
 70
     1
102
RTVSPost2010Prop46
 90
       50
102
RTVSPost2010PropOp46
 70
     1
102
RTVSPost2010Prop47
 90
       50
102
RTVSPost2010PropOp47
 70
     1
102
RTVSPost2010Prop48
 90
       50
102
RTVSPost2010PropOp48
 70
     1
102
RTVSPost2010Prop49
280
     0
102
RTVSPost2010PropOp49
 70
     1
102
RTVSPost2010Prop50
 90
       50
102
RTVSPost2010PropOp50
 70
     1
102
RTVSPost2010Prop51ColorIndex
 90
      256
102
RTVSPost2010Prop51ColorRGB
 90
-16777216
102
RTVSPost2010PropOp51
 70
     0
102
RTVSPost2010Prop52
140
1.0
102
RTVSPost2010PropOp52
 70
     0
102
RTVSPost2010Prop53
 90
        2
102
RTVSPost2010PropOp53
 70
     1
102
RTVSPost2010Prop54
  1
strokes_ogs.tif
102
RTVSPost2010PropOp54
 70
     1
102
RTVSPost2010Prop55
280
     0
102
RTVSPost2010PropOp55
 70
     1
102
RTVSPost2010Prop56
140
1.0
102
RTVSPost2010PropOp56
 70
     1
102
RTVSPost2010Prop57
140
1.0
102
RTVSPost2010PropOp57
 70
     1
102
RTVSPropertyOp0
 70
     1
102
RTVSPropertyOp1
 70
     1
102
RTVSPropertyOp2
 70
     1
102
RTVSPropertyOp3
 70
     1
102
RTVSPropertyOp4
 70
     1
102
RTVSPropertyOp5
 70
     1
102
RTVSPropertyOp6
 70
     1
102
RTVSPropertyOp7
 70
     1
102
RTVSPropertyOp8
 70
     1
102
RTVSPropertyOp9
 70
     1
102
RTVSPropertyOp10
 70
     1
102
RTVSPropertyOp11
 70
     1
102
RTVSPropertyOp12
 70
     1
102
RTVSPropertyOp13
 70
     1
102
RTVSPropertyOp14
 70
     1
102
RTVSPropertyOp15
 70
     1
102
RTVSPropertyOp16
 70
     1
102
RTVSPropertyOp17
 70
     1
102
RTVSPropertyOp18
 70
     1
102
RTVSPropertyOp19
 70
     1
102
RTVSPropertyOp20
 70
     1
102
RTVSPropertyOp21
 70
     1
102
RTVSPropertyOp22
 70
     1
102
RTVSPropertyOp23
 70
     1
102
RTVSPropertyOp24
 70
     1
102
RTVSPropertyOp25
 70
     1
102
RTVSPropertyOp26
 70
     1
102
RTVSPropertyOp27
 70
     1
102
RTVSPropertyOp28
 70
     1
102
RTVSPropertyOp29
 70
     1
102
RTVSPropertyOp30
 70
     1
102
RTVSPropertyOp31
 70
     1
102
RTVSPropertyOp32
 70
     1
102
RTVSPropertyOp33
 70
     1
102
RTVSPropertyOp34
 70
     1
102
RTVSPropertyOp35
 70
     1
102
RTVSPropertyOp36
 70
     1
102
RTVSPropertyOp37
 70
     1
102
RTVSPropertyOp38
 70
     1
102
RTVSPropertyOp39
 70
     1
102
RTVSPropertyOp40
 70
     1
102
RTVSPropertyOp41
 70
     1
102
RTVSPropertyOp42
 70
     1
102
RTVSPropertyOp43
 70
     1
102
RTVSPropertyOp44
 70
     1
102
RTVSPropertyOp45
 70
     1
102
RTVSPropertyOp46
 70
     1
102
RTVSPropertyOp47
 70
     1
102
RTVSPropertyOp48
 70
     1
102
RTVSPropertyOp49
 70
     1
102
RTVSPropertyOp50
 70
     1
102
RTVSPropertyOp51
 70
     0
102
RTVSPropertyOp52
 70
     0
102
RTVSPropertyOp53
 70
     1
102
RTVSPropertyOp54
 70
     1
102
RTVSPropertyOp55
 70
     1
102
RTVSPropertyOp56
 70
     1
102
RTVSPropertyOp57
 70
     1
102
RTVSPropertyOp58
 70
     1
102
RTVSPropertyOp59
 70
     1
102
RTVSPropertyOp60
 70
     1
102
RTVSPropertyOp61
 70
     1
102
RTVSPropertyOp62
 70
     1
  0
XRECORD
  5
AAAA
102
{ACAD_REACTORS
330
AAA9
102
}
330
AAA9
100
AcDbXrecord
280
     1
102
RTVSPost2010Prop28
280
     0
102
RTVSPost2010PropOp28
 70
     1
102
RTVSPost2010Prop29
280
     1
102
RTVSPost2010PropOp29
 70
     1
102
RTVSPost2010Prop30
280
     1
102
RTVSPost2010PropOp30
 70
     1
102
RTVSPost2010Prop31
280
     0
102
RTVSPost2010PropOp31
 70
     1
102
RTVSPost2010Prop32
280
     0
102
RTVSPost2010PropOp32
 70
     1
102
RTVSPost2010Prop33
280
     0
102
RTVSPost2010PropOp33
 70
     1
102
RTVSPost2010Prop34
280
     0
102
RTVSPost2010PropOp34
 70
     1
102
RTVSPost2010Prop35
280
     0
102
RTVSPost2010PropOp35
 70
     1
102
RTVSPost2010Prop36
280
     0
102
RTVSPost2010PropOp36
 70
     1
102
RTVSPost2010Prop37
 90
       50
102
RTVSPost2010PropOp37
 70
     0
102
RTVSPost2010Prop38
140
0.0
102
RTVSPost2010PropOp38
 70
     0
102
RTVSPost2010Prop39
140
1.0
102
RTVSPost2010PropOp39
 70
     0
102
RTVSPost2010Prop40
 90
        0
102
RTVSPost2010PropOp40
 70
     0
102
RTVSPost2010Prop41ColorIndex
 90
       18
102
RTVSPost2010Prop41ColorRGB
 90
        0
102
RTVSPost2010PropOp41
 70
     0
102
RTVSPost2010Prop42
 90
       50
102
RTVSPost2010PropOp42
 70
     0
102
RTVSPost2010Prop43
 90
        3
102
RTVSPost2010PropOp43
 70
     0
102
RTVSPost2010Prop44ColorIndex
 90
        5
102
RTVSPost2010Prop44ColorRGB
 90
      255
102
RTVSPost2010PropOp44
 70
     0
102
RTVSPost2010Prop45
280
     0
102
RTVSPost2010PropOp45
 70
     1
102
RTVSPost2010Prop46
 90
       50
102
RTVSPost2010PropOp46
 70
     0
102
RTVSPost2010Prop47
 90
       50
102
RTVSPost2010PropOp47
 70
     0
102
RTVSPost2010Prop48
 90
       50
102
RTVSPost2010PropOp48
 70
     0
102
RTVSPost2010Prop49
280
     0
102
RTVSPost2010PropOp49
 70
     1
102
RTVSPost2010Prop50
 90
       50
102
RTVSPost2010PropOp50
 70
     0
102
RTVSPost2010Prop51ColorIndex
 90
      256
102
RTVSPost2010Prop51ColorRGB
 90
-16777216
102
RTVSPost2010PropOp51
 70
     0
102
RTVSPost2010Prop52
140
1.0
102
RTVSPost2010PropOp52
 70
     0
102
RTVSPost2010Prop53
 90
        2
102
RTVSPost2010PropOp53
 70
     0
102
RTVSPost2010Prop54
  1
strokes_ogs.tif
102
RTVSPost2010PropOp54
 70
     0
102
RTVSPost2010Prop55
280
     0
102
RTVSPost2010PropOp55
 70
     1
102
RTVSPost2010Prop56
140
1.0
102
RTVSPost2010PropOp56
 70
     0
102
RTVSPost2010Prop57
140
1.0
102
RTVSPost2010PropOp57
 70
     0
102
RTVSPropertyOp0
 70
     0
102
RTVSPropertyOp1
 70
     0
102
RTVSPropertyOp2
 70
     0
102
RTVSPropertyOp3
 70
     0
102
RTVSPropertyOp4
 70
     0
102
RTVSPropertyOp5
 70
     0
102
RTVSPropertyOp6
 70
     0
102
RTVSPropertyOp7
 70
     0
102
RTVSPropertyOp8
 70
     0
102
RTVSPropertyOp9
 70
     0
102
RTVSPropertyOp10
 70
     0
102
RTVSPropertyOp11
 70
     0
102
RTVSPropertyOp12
 70
     0
102
RTVSPropertyOp13
 70
     0
102
RTVSPropertyOp14
 70
     2
102
RTVSPropertyOp15
 70
     0
102
RTVSPropertyOp16
 70
     0
102
RTVSPropertyOp17
 70
     0
102
RTVSPropertyOp18
 70
     0
102
RTVSPropertyOp19
 70
     0
102
RTVSPropertyOp20
 70
     0
102
RTVSPropertyOp21
 70
     0
102
RTVSPropertyOp22
 70
     0
102
RTVSPropertyOp23
 70
     0
102
RTVSPropertyOp24
 70
     0
102
RTVSPropertyOp25
 70
     0
102
RTVSPropertyOp26
 70
     0
102
RTVSPropertyOp27
 70
     0
102
RTVSPropertyOp28
 70
     1
102
RTVSPropertyOp29
 70
     1
102
RTVSPropertyOp30
 70
     1
102
RTVSPropertyOp31
 70
     1
102
RTVSPropertyOp32
 70
     1
102
RTVSPropertyOp33
 70
     1
102
RTVSPropertyOp34
 70
     1
102
RTVSPropertyOp35
 70
     1
102
RTVSPropertyOp36
 70
     1
102
RTVSPropertyOp37
 70
     0
102
RTVSPropertyOp38
 70
     0
102
RTVSPropertyOp39
 70
     0
102
RTVSPropertyOp40
 70
     0
102
RTVSPropertyOp41
 70
     0
102
RTVSPropertyOp42
 70
     0
102
RTVSPropertyOp43
 70
     0
102
RTVSPropertyOp44
 70
     0
102
RTVSPropertyOp45
 70
     1
102
RTVSPropertyOp46
 70
     0
102
RTVSPropertyOp47
 70
     0
102
RTVSPropertyOp48
 70
     0
102
RTVSPropertyOp49
 70
     1
102
RTVSPropertyOp50
 70
     0
102
RTVSPropertyOp51
 70
     0
102
RTVSPropertyOp52
 70
     0
102
RTVSPropertyOp53
 70
     0
102
RTVSPropertyOp54
 70
     0
102
RTVSPropertyOp55
 70
     1
102
RTVSPropertyOp56
 70
     0
102
RTVSPropertyOp57
 70
     0
102
RTVSPropertyOp58
 70
     0
102
RTVSPropertyOp59
 70
     0
102
RTVSPropertyOp60
 70
     0
102
RTVSPropertyOp61
 70
     0
102
RTVSPropertyOp62
 70
     0
  0
XRECORD
  5
AA98
102
{ACAD_REACTORS
330
AA97
102
}
330
AA97
100
AcDbXrecord
280
     1
102
RTVSPost2010Prop28
280
     0
102
RTVSPost2010PropOp28
 70
     1
102
RTVSPost2010Prop29
280
     1
102
RTVSPost2010PropOp29
 70
     1
102
RTVSPost2010Prop30
280
     1
102
RTVSPost2010PropOp30
 70
     1
102
RTVSPost2010Prop31
280
     0
102
RTVSPost2010PropOp31
 70
     1
102
RTVSPost2010Prop32
280
     0
102
RTVSPost2010PropOp32
 70
     1
102
RTVSPost2010Prop33
280
     0
102
RTVSPost2010PropOp33
 70
     1
102
RTVSPost2010Prop34
280
     0
102
RTVSPost2010PropOp34
 70
     1
102
RTVSPost2010Prop35
280
     0
102
RTVSPost2010PropOp35
 70
     1
102
RTVSPost2010Prop36
280
     0
102
RTVSPost2010PropOp36
 70
     1
102
RTVSPost2010Prop37
 90
       50
102
RTVSPost2010PropOp37
 70
     1
102
RTVSPost2010Prop38
140
0.0
102
RTVSPost2010PropOp38
 70
     1
102
RTVSPost2010Prop39
140
1.0
102
RTVSPost2010PropOp39
 70
     1
102
RTVSPost2010Prop40
 90
        0
102
RTVSPost2010PropOp40
 70
     1
102
RTVSPost2010Prop41ColorIndex
 90
       18
102
RTVSPost2010Prop41ColorRGB
 90
        0
102
RTVSPost2010PropOp41
 70
     1
102
RTVSPost2010Prop42
 90
       50
102
RTVSPost2010PropOp42
 70
     1
102
RTVSPost2010Prop43
 90
        3
102
RTVSPost2010PropOp43
 70
     1
102
RTVSPost2010Prop44ColorIndex
 90
        5
102
RTVSPost2010Prop44ColorRGB
 90
      255
102
RTVSPost2010PropOp44
 70
     1
102
RTVSPost2010Prop45
280
     0
102
RTVSPost2010PropOp45
 70
     1
102
RTVSPost2010Prop46
 90
       50
102
RTVSPost2010PropOp46
 70
     1
102
RTVSPost2010Prop47
 90
       50
102
RTVSPost2010PropOp47
 70
     1
102
RTVSPost2010Prop48
 90
       50
102
RTVSPost2010PropOp48
 70
     1
102
RTVSPost2010Prop49
280
     0
102
RTVSPost2010PropOp49
 70
     1
102
RTVSPost2010Prop50
 90
       50
102
RTVSPost2010PropOp50
 70
     1
102
RTVSPost2010Prop51ColorIndex
 90
      256
102
RTVSPost2010Prop51ColorRGB
 90
-16777216
102
RTVSPost2010PropOp51
 70
     0
102
RTVSPost2010Prop52
140
1.0
102
RTVSPost2010PropOp52
 70
     0
102
RTVSPost2010Prop53
 90
        2
102
RTVSPost2010PropOp53
 70
     1
102
RTVSPost2010Prop54
  1
strokes_ogs.tif
102
RTVSPost2010PropOp54
 70
     1
102
RTVSPost2010Prop55
280
     0
102
RTVSPost2010PropOp55
 70
     1
102
RTVSPost2010Prop56
140
1.0
102
RTVSPost2010PropOp56
 70
     1
102
RTVSPost2010Prop57
140
1.0
102
RTVSPost2010PropOp57
 70
     1
102
RTVSPropertyOp0
 70
     1
102
RTVSPropertyOp1
 70
     1
102
RTVSPropertyOp2
 70
     1
102
RTVSPropertyOp3
 70
     1
102
RTVSPropertyOp4
 70
     1
102
RTVSPropertyOp5
 70
     1
102
RTVSPropertyOp6
 70
     1
102
RTVSPropertyOp7
 70
     1
102
RTVSPropertyOp8
 70
     1
102
RTVSPropertyOp9
 70
     1
102
RTVSPropertyOp10
 70
     1
102
RTVSPropertyOp11
 70
     1
102
RTVSPropertyOp12
 70
     1
102
RTVSPropertyOp13
 70
     1
102
RTVSPropertyOp14
 70
     1
102
RTVSPropertyOp15
 70
     1
102
RTVSPropertyOp16
 70
     1
102
RTVSPropertyOp17
 70
     1
102
RTVSPropertyOp18
 70
     1
102
RTVSPropertyOp19
 70
     1
102
RTVSPropertyOp20
 70
     1
102
RTVSPropertyOp21
 70
     1
102
RTVSPropertyOp22
 70
     1
102
RTVSPropertyOp23
 70
     1
102
RTVSPropertyOp24
 70
     1
102
RTVSPropertyOp25
 70
     1
102
RTVSPropertyOp26
 70
     1
102
RTVSPropertyOp27
 70
     1
102
RTVSPropertyOp28
 70
     1
102
RTVSPropertyOp29
 70
     1
102
RTVSPropertyOp30
 70
     1
102
RTVSPropertyOp31
 70
     1
102
RTVSPropertyOp32
 70
     1
102
RTVSPropertyOp33
 70
     1
102
RTVSPropertyOp34
 70
     1
102
RTVSPropertyOp35
 70
     1
102
RTVSPropertyOp36
 70
     1
102
RTVSPropertyOp37
 70
     1
102
RTVSPropertyOp38
 70
     1
102
RTVSPropertyOp39
 70
     1
102
RTVSPropertyOp40
 70
     1
102
RTVSPropertyOp41
 70
     1
102
RTVSPropertyOp42
 70
     1
102
RTVSPropertyOp43
 70
     1
102
RTVSPropertyOp44
 70
     1
102
RTVSPropertyOp45
 70
     1
102
RTVSPropertyOp46
 70
     1
102
RTVSPropertyOp47
 70
     1
102
RTVSPropertyOp48
 70
     1
102
RTVSPropertyOp49
 70
     1
102
RTVSPropertyOp50
 70
     1
102
RTVSPropertyOp51
 70
     0
102
RTVSPropertyOp52
 70
     0
102
RTVSPropertyOp53
 70
     1
102
RTVSPropertyOp54
 70
     1
102
RTVSPropertyOp55
 70
     1
102
RTVSPropertyOp56
 70
     1
102
RTVSPropertyOp57
 70
     1
102
RTVSPropertyOp58
 70
     1
102
RTVSPropertyOp59
 70
     1
102
RTVSPropertyOp60
 70
     1
102
RTVSPropertyOp61
 70
     1
102
RTVSPropertyOp62
 70
     1
  0
XRECORD
  5
AA7C
102
{ACAD_REACTORS
330
AA7B
102
}
330
AA7B
100
AcDbXrecord
280
     1
102
RTVSPost2010Prop28
280
     0
102
RTVSPost2010PropOp28
 70
     1
102
RTVSPost2010Prop29
280
     1
102
RTVSPost2010PropOp29
 70
     1
102
RTVSPost2010Prop30
280
     1
102
RTVSPost2010PropOp30
 70
     1
102
RTVSPost2010Prop31
280
     0
102
RTVSPost2010PropOp31
 70
     1
102
RTVSPost2010Prop32
280
     0
102
RTVSPost2010PropOp32
 70
     1
102
RTVSPost2010Prop33
280
     0
102
RTVSPost2010PropOp33
 70
     1
102
RTVSPost2010Prop34
280
     0
102
RTVSPost2010PropOp34
 70
     1
102
RTVSPost2010Prop35
280
     0
102
RTVSPost2010PropOp35
 70
     1
102
RTVSPost2010Prop36
280
     0
102
RTVSPost2010PropOp36
 70
     1
102
RTVSPost2010Prop37
 90
       50
102
RTVSPost2010PropOp37
 70
     1
102
RTVSPost2010Prop38
140
0.0
102
RTVSPost2010PropOp38
 70
     1
102
RTVSPost2010Prop39
140
1.0
102
RTVSPost2010PropOp39
 70
     1
102
RTVSPost2010Prop40
 90
        0
102
RTVSPost2010PropOp40
 70
     1
102
RTVSPost2010Prop41ColorIndex
 90
       18
102
RTVSPost2010Prop41ColorRGB
 90
        0
102
RTVSPost2010PropOp41
 70
     1
102
RTVSPost2010Prop42
 90
       50
102
RTVSPost2010PropOp42
 70
     1
102
RTVSPost2010Prop43
 90
        3
102
RTVSPost2010PropOp43
 70
     1
102
RTVSPost2010Prop44ColorIndex
 90
        5
102
RTVSPost2010Prop44ColorRGB
 90
      255
102
RTVSPost2010PropOp44
 70
     1
102
RTVSPost2010Prop45
280
     0
102
RTVSPost2010PropOp45
 70
     1
102
RTVSPost2010Prop46
 90
       50
102
RTVSPost2010PropOp46
 70
     1
102
RTVSPost2010Prop47
 90
       50
102
RTVSPost2010PropOp47
 70
     1
102
RTVSPost2010Prop48
 90
       50
102
RTVSPost2010PropOp48
 70
     1
102
RTVSPost2010Prop49
280
     0
102
RTVSPost2010PropOp49
 70
     1
102
RTVSPost2010Prop50
 90
       50
102
RTVSPost2010PropOp50
 70
     1
102
RTVSPost2010Prop51ColorIndex
 90
      256
102
RTVSPost2010Prop51ColorRGB
 90
-16777216
102
RTVSPost2010PropOp51
 70
     0
102
RTVSPost2010Prop52
140
1.0
102
RTVSPost2010PropOp52
 70
     0
102
RTVSPost2010Prop53
 90
        2
102
RTVSPost2010PropOp53
 70
     1
102
RTVSPost2010Prop54
  1
strokes_ogs.tif
102
RTVSPost2010PropOp54
 70
     1
102
RTVSPost2010Prop55
280
     0
102
RTVSPost2010PropOp55
 70
     1
102
RTVSPost2010Prop56
140
1.0
102
RTVSPost2010PropOp56
 70
     1
102
RTVSPost2010Prop57
140
1.0
102
RTVSPost2010PropOp57
 70
     1
102
RTVSPropertyOp0
 70
     1
102
RTVSPropertyOp1
 70
     1
102
RTVSPropertyOp2
 70
     1
102
RTVSPropertyOp3
 70
     1
102
RTVSPropertyOp4
 70
     1
102
RTVSPropertyOp5
 70
     1
102
RTVSPropertyOp6
 70
     1
102
RTVSPropertyOp7
 70
     1
102
RTVSPropertyOp8
 70
     1
102
RTVSPropertyOp9
 70
     1
102
RTVSPropertyOp10
 70
     1
102
RTVSPropertyOp11
 70
     1
102
RTVSPropertyOp12
 70
     1
102
RTVSPropertyOp13
 70
     1
102
RTVSPropertyOp14
 70
     1
102
RTVSPropertyOp15
 70
     1
102
RTVSPropertyOp16
 70
     1
102
RTVSPropertyOp17
 70
     1
102
RTVSPropertyOp18
 70
     1
102
RTVSPropertyOp19
 70
     1
102
RTVSPropertyOp20
 70
     1
102
RTVSPropertyOp21
 70
     1
102
RTVSPropertyOp22
 70
     1
102
RTVSPropertyOp23
 70
     1
102
RTVSPropertyOp24
 70
     1
102
RTVSPropertyOp25
 70
     1
102
RTVSPropertyOp26
 70
     1
102
RTVSPropertyOp27
 70
     1
102
RTVSPropertyOp28
 70
     1
102
RTVSPropertyOp29
 70
     1
102
RTVSPropertyOp30
 70
     1
102
RTVSPropertyOp31
 70
     1
102
RTVSPropertyOp32
 70
     1
102
RTVSPropertyOp33
 70
     1
102
RTVSPropertyOp34
 70
     1
102
RTVSPropertyOp35
 70
     1
102
RTVSPropertyOp36
 70
     1
102
RTVSPropertyOp37
 70
     1
102
RTVSPropertyOp38
 70
     1
102
RTVSPropertyOp39
 70
     1
102
RTVSPropertyOp40
 70
     1
102
RTVSPropertyOp41
 70
     1
102
RTVSPropertyOp42
 70
     1
102
RTVSPropertyOp43
 70
     1
102
RTVSPropertyOp44
 70
     1
102
RTVSPropertyOp45
 70
     1
102
RTVSPropertyOp46
 70
     1
102
RTVSPropertyOp47
 70
     1
102
RTVSPropertyOp48
 70
     1
102
RTVSPropertyOp49
 70
     1
102
RTVSPropertyOp50
 70
     1
102
RTVSPropertyOp51
 70
     0
102
RTVSPropertyOp52
 70
     0
102
RTVSPropertyOp53
 70
     1
102
RTVSPropertyOp54
 70
     1
102
RTVSPropertyOp55
 70
     1
102
RTVSPropertyOp56
 70
     1
102
RTVSPropertyOp57
 70
     1
102
RTVSPropertyOp58
 70
     1
102
RTVSPropertyOp59
 70
     1
102
RTVSPropertyOp60
 70
     1
102
RTVSPropertyOp61
 70
     1
102
RTVSPropertyOp62
 70
     1
  0
XRECORD
  5
AA7E
102
{ACAD_REACTORS
330
AA7D
102
}
330
AA7D
100
AcDbXrecord
280
     1
102
RTVSPost2010Prop28
280
     0
102
RTVSPost2010PropOp28
 70
     1
102
RTVSPost2010Prop29
280
     1
102
RTVSPost2010PropOp29
 70
     1
102
RTVSPost2010Prop30
280
     1
102
RTVSPost2010PropOp30
 70
     1
102
RTVSPost2010Prop31
280
     0
102
RTVSPost2010PropOp31
 70
     1
102
RTVSPost2010Prop32
280
     0
102
RTVSPost2010PropOp32
 70
     1
102
RTVSPost2010Prop33
280
     0
102
RTVSPost2010PropOp33
 70
     1
102
RTVSPost2010Prop34
280
     0
102
RTVSPost2010PropOp34
 70
     1
102
RTVSPost2010Prop35
280
     0
102
RTVSPost2010PropOp35
 70
     1
102
RTVSPost2010Prop36
280
     0
102
RTVSPost2010PropOp36
 70
     1
102
RTVSPost2010Prop37
 90
       50
102
RTVSPost2010PropOp37
 70
     1
102
RTVSPost2010Prop38
140
0.0
102
RTVSPost2010PropOp38
 70
     1
102
RTVSPost2010Prop39
140
1.0
102
RTVSPost2010PropOp39
 70
     1
102
RTVSPost2010Prop40
 90
        0
102
RTVSPost2010PropOp40
 70
     1
102
RTVSPost2010Prop41ColorIndex
 90
       18
102
RTVSPost2010Prop41ColorRGB
 90
        0
102
RTVSPost2010PropOp41
 70
     1
102
RTVSPost2010Prop42
 90
       50
102
RTVSPost2010PropOp42
 70
     1
102
RTVSPost2010Prop43
 90
        3
102
RTVSPost2010PropOp43
 70
     1
102
RTVSPost2010Prop44ColorIndex
 90
        5
102
RTVSPost2010Prop44ColorRGB
 90
      255
102
RTVSPost2010PropOp44
 70
     1
102
RTVSPost2010Prop45
280
     0
102
RTVSPost2010PropOp45
 70
     1
102
RTVSPost2010Prop46
 90
       50
102
RTVSPost2010PropOp46
 70
     1
102
RTVSPost2010Prop47
 90
       50
102
RTVSPost2010PropOp47
 70
     1
102
RTVSPost2010Prop48
 90
       50
102
RTVSPost2010PropOp48
 70
     1
102
RTVSPost2010Prop49
280
     0
102
RTVSPost2010PropOp49
 70
     1
102
RTVSPost2010Prop50
 90
       50
102
RTVSPost2010PropOp50
 70
     1
102
RTVSPost2010Prop51ColorIndex
 90
      256
102
RTVSPost2010Prop51ColorRGB
 90
-16777216
102
RTVSPost2010PropOp51
 70
     0
102
RTVSPost2010Prop52
140
1.0
102
RTVSPost2010PropOp52
 70
     0
102
RTVSPost2010Prop53
 90
        2
102
RTVSPost2010PropOp53
 70
     1
102
RTVSPost2010Prop54
  1
strokes_ogs.tif
102
RTVSPost2010PropOp54
 70
     1
102
RTVSPost2010Prop55
280
     0
102
RTVSPost2010PropOp55
 70
     1
102
RTVSPost2010Prop56
140
1.0
102
RTVSPost2010PropOp56
 70
     1
102
RTVSPost2010Prop57
140
1.0
102
RTVSPost2010PropOp57
 70
     1
102
RTVSPropertyOp0
 70
     1
102
RTVSPropertyOp1
 70
     1
102
RTVSPropertyOp2
 70
     1
102
RTVSPropertyOp3
 70
     1
102
RTVSPropertyOp4
 70
     1
102
RTVSPropertyOp5
 70
     1
102
RTVSPropertyOp6
 70
     1
102
RTVSPropertyOp7
 70
     1
102
RTVSPropertyOp8
 70
     1
102
RTVSPropertyOp9
 70
     1
102
RTVSPropertyOp10
 70
     1
102
RTVSPropertyOp11
 70
     1
102
RTVSPropertyOp12
 70
     1
102
RTVSPropertyOp13
 70
     1
102
RTVSPropertyOp14
 70
     1
102
RTVSPropertyOp15
 70
     1
102
RTVSPropertyOp16
 70
     1
102
RTVSPropertyOp17
 70
     1
102
RTVSPropertyOp18
 70
     1
102
RTVSPropertyOp19
 70
     1
102
RTVSPropertyOp20
 70
     1
102
RTVSPropertyOp21
 70
     1
102
RTVSPropertyOp22
 70
     1
102
RTVSPropertyOp23
 70
     1
102
RTVSPropertyOp24
 70
     1
102
RTVSPropertyOp25
 70
     1
102
RTVSPropertyOp26
 70
     1
102
RTVSPropertyOp27
 70
     1
102
RTVSPropertyOp28
 70
     1
102
RTVSPropertyOp29
 70
     1
102
RTVSPropertyOp30
 70
     1
102
RTVSPropertyOp31
 70
     1
102
RTVSPropertyOp32
 70
     1
102
RTVSPropertyOp33
 70
     1
102
RTVSPropertyOp34
 70
     1
102
RTVSPropertyOp35
 70
     1
102
RTVSPropertyOp36
 70
     1
102
RTVSPropertyOp37
 70
     1
102
RTVSPropertyOp38
 70
     1
102
RTVSPropertyOp39
 70
     1
102
RTVSPropertyOp40
 70
     1
102
RTVSPropertyOp41
 70
     1
102
RTVSPropertyOp42
 70
     1
102
RTVSPropertyOp43
 70
     1
102
RTVSPropertyOp44
 70
     1
102
RTVSPropertyOp45
 70
     1
102
RTVSPropertyOp46
 70
     1
102
RTVSPropertyOp47
 70
     1
102
RTVSPropertyOp48
 70
     1
102
RTVSPropertyOp49
 70
     1
102
RTVSPropertyOp50
 70
     1
102
RTVSPropertyOp51
 70
     0
102
RTVSPropertyOp52
 70
     0
102
RTVSPropertyOp53
 70
     1
102
RTVSPropertyOp54
 70
     1
102
RTVSPropertyOp55
 70
     1
102
RTVSPropertyOp56
 70
     1
102
RTVSPropertyOp57
 70
     1
102
RTVSPropertyOp58
 70
     1
102
RTVSPropertyOp59
 70
     1
102
RTVSPropertyOp60
 70
     1
102
RTVSPropertyOp61
 70
     1
102
RTVSPropertyOp62
 70
     1
  0
XRECORD
  5
AA80
102
{ACAD_REACTORS
330
AA7F
102
}
330
AA7F
100
AcDbXrecord
280
     1
102
RTVSPost2010Prop28
280
     0
102
RTVSPost2010PropOp28
 70
     1
102
RTVSPost2010Prop29
280
     1
102
RTVSPost2010PropOp29
 70
     1
102
RTVSPost2010Prop30
280
     1
102
RTVSPost2010PropOp30
 70
     1
102
RTVSPost2010Prop31
280
     0
102
RTVSPost2010PropOp31
 70
     1
102
RTVSPost2010Prop32
280
     0
102
RTVSPost2010PropOp32
 70
     1
102
RTVSPost2010Prop33
280
     0
102
RTVSPost2010PropOp33
 70
     1
102
RTVSPost2010Prop34
280
     0
102
RTVSPost2010PropOp34
 70
     1
102
RTVSPost2010Prop35
280
     0
102
RTVSPost2010PropOp35
 70
     1
102
RTVSPost2010Prop36
280
     0
102
RTVSPost2010PropOp36
 70
     1
102
RTVSPost2010Prop37
 90
       50
102
RTVSPost2010PropOp37
 70
     1
102
RTVSPost2010Prop38
140
0.0
102
RTVSPost2010PropOp38
 70
     1
102
RTVSPost2010Prop39
140
1.0
102
RTVSPost2010PropOp39
 70
     1
102
RTVSPost2010Prop40
 90
        0
102
RTVSPost2010PropOp40
 70
     1
102
RTVSPost2010Prop41ColorIndex
 90
       18
102
RTVSPost2010Prop41ColorRGB
 90
        0
102
RTVSPost2010PropOp41
 70
     1
102
RTVSPost2010Prop42
 90
       50
102
RTVSPost2010PropOp42
 70
     1
102
RTVSPost2010Prop43
 90
        3
102
RTVSPost2010PropOp43
 70
     1
102
RTVSPost2010Prop44ColorIndex
 90
        5
102
RTVSPost2010Prop44ColorRGB
 90
      255
102
RTVSPost2010PropOp44
 70
     1
102
RTVSPost2010Prop45
280
     0
102
RTVSPost2010PropOp45
 70
     1
102
RTVSPost2010Prop46
 90
       50
102
RTVSPost2010PropOp46
 70
     1
102
RTVSPost2010Prop47
 90
       50
102
RTVSPost2010PropOp47
 70
     1
102
RTVSPost2010Prop48
 90
       50
102
RTVSPost2010PropOp48
 70
     1
102
RTVSPost2010Prop49
280
     0
102
RTVSPost2010PropOp49
 70
     1
102
RTVSPost2010Prop50
 90
       50
102
RTVSPost2010PropOp50
 70
     1
102
RTVSPost2010Prop51ColorIndex
 90
      256
102
RTVSPost2010Prop51ColorRGB
 90
-16777216
102
RTVSPost2010PropOp51
 70
     0
102
RTVSPost2010Prop52
140
1.0
102
RTVSPost2010PropOp52
 70
     0
102
RTVSPost2010Prop53
 90
        2
102
RTVSPost2010PropOp53
 70
     1
102
RTVSPost2010Prop54
  1
strokes_ogs.tif
102
RTVSPost2010PropOp54
 70
     1
102
RTVSPost2010Prop55
280
     0
102
RTVSPost2010PropOp55
 70
     1
102
RTVSPost2010Prop56
140
1.0
102
RTVSPost2010PropOp56
 70
     1
102
RTVSPost2010Prop57
140
1.0
102
RTVSPost2010PropOp57
 70
     1
102
RTVSPropertyOp0
 70
     1
102
RTVSPropertyOp1
 70
     1
102
RTVSPropertyOp2
 70
     1
102
RTVSPropertyOp3
 70
     1
102
RTVSPropertyOp4
 70
     1
102
RTVSPropertyOp5
 70
     1
102
RTVSPropertyOp6
 70
     1
102
RTVSPropertyOp7
 70
     1
102
RTVSPropertyOp8
 70
     1
102
RTVSPropertyOp9
 70
     1
102
RTVSPropertyOp10
 70
     1
102
RTVSPropertyOp11
 70
     1
102
RTVSPropertyOp12
 70
     1
102
RTVSPropertyOp13
 70
     1
102
RTVSPropertyOp14
 70
     1
102
RTVSPropertyOp15
 70
     1
102
RTVSPropertyOp16
 70
     1
102
RTVSPropertyOp17
 70
     1
102
RTVSPropertyOp18
 70
     1
102
RTVSPropertyOp19
 70
     1
102
RTVSPropertyOp20
 70
     1
102
RTVSPropertyOp21
 70
     1
102
RTVSPropertyOp22
 70
     1
102
RTVSPropertyOp23
 70
     1
102
RTVSPropertyOp24
 70
     1
102
RTVSPropertyOp25
 70
     1
102
RTVSPropertyOp26
 70
     1
102
RTVSPropertyOp27
 70
     1
102
RTVSPropertyOp28
 70
     1
102
RTVSPropertyOp29
 70
     1
102
RTVSPropertyOp30
 70
     1
102
RTVSPropertyOp31
 70
     1
102
RTVSPropertyOp32
 70
     1
102
RTVSPropertyOp33
 70
     1
102
RTVSPropertyOp34
 70
     1
102
RTVSPropertyOp35
 70
     1
102
RTVSPropertyOp36
 70
     1
102
RTVSPropertyOp37
 70
     1
102
RTVSPropertyOp38
 70
     1
102
RTVSPropertyOp39
 70
     1
102
RTVSPropertyOp40
 70
     1
102
RTVSPropertyOp41
 70
     1
102
RTVSPropertyOp42
 70
     1
102
RTVSPropertyOp43
 70
     1
102
RTVSPropertyOp44
 70
     1
102
RTVSPropertyOp45
 70
     1
102
RTVSPropertyOp46
 70
     1
102
RTVSPropertyOp47
 70
     1
102
RTVSPropertyOp48
 70
     1
102
RTVSPropertyOp49
 70
     1
102
RTVSPropertyOp50
 70
     1
102
RTVSPropertyOp51
 70
     0
102
RTVSPropertyOp52
 70
     0
102
RTVSPropertyOp53
 70
     1
102
RTVSPropertyOp54
 70
     1
102
RTVSPropertyOp55
 70
     1
102
RTVSPropertyOp56
 70
     1
102
RTVSPropertyOp57
 70
     1
102
RTVSPropertyOp58
 70
     1
102
RTVSPropertyOp59
 70
     1
102
RTVSPropertyOp60
 70
     1
102
RTVSPropertyOp61
 70
     1
102
RTVSPropertyOp62
 70
     1
  0
XRECORD
  5
AA82
102
{ACAD_REACTORS
330
AA81
102
}
330
AA81
100
AcDbXrecord
280
     1
102
RTVSPost2010Prop28
280
     0
102
RTVSPost2010PropOp28
 70
     1
102
RTVSPost2010Prop29
280
     1
102
RTVSPost2010PropOp29
 70
     1
102
RTVSPost2010Prop30
280
     1
102
RTVSPost2010PropOp30
 70
     1
102
RTVSPost2010Prop31
280
     0
102
RTVSPost2010PropOp31
 70
     1
102
RTVSPost2010Prop32
280
     0
102
RTVSPost2010PropOp32
 70
     1
102
RTVSPost2010Prop33
280
     0
102
RTVSPost2010PropOp33
 70
     1
102
RTVSPost2010Prop34
280
     0
102
RTVSPost2010PropOp34
 70
     1
102
RTVSPost2010Prop35
280
     0
102
RTVSPost2010PropOp35
 70
     1
102
RTVSPost2010Prop36
280
     0
102
RTVSPost2010PropOp36
 70
     1
102
RTVSPost2010Prop37
 90
       50
102
RTVSPost2010PropOp37
 70
     1
102
RTVSPost2010Prop38
140
0.0
102
RTVSPost2010PropOp38
 70
     1
102
RTVSPost2010Prop39
140
1.0
102
RTVSPost2010PropOp39
 70
     1
102
RTVSPost2010Prop40
 90
        0
102
RTVSPost2010PropOp40
 70
     1
102
RTVSPost2010Prop41ColorIndex
 90
       18
102
RTVSPost2010Prop41ColorRGB
 90
        0
102
RTVSPost2010PropOp41
 70
     1
102
RTVSPost2010Prop42
 90
       50
102
RTVSPost2010PropOp42
 70
     1
102
RTVSPost2010Prop43
 90
        3
102
RTVSPost2010PropOp43
 70
     1
102
RTVSPost2010Prop44ColorIndex
 90
        5
102
RTVSPost2010Prop44ColorRGB
 90
      255
102
RTVSPost2010PropOp44
 70
     1
102
RTVSPost2010Prop45
280
     0
102
RTVSPost2010PropOp45
 70
     1
102
RTVSPost2010Prop46
 90
       50
102
RTVSPost2010PropOp46
 70
     1
102
RTVSPost2010Prop47
 90
       50
102
RTVSPost2010PropOp47
 70
     1
102
RTVSPost2010Prop48
 90
       50
102
RTVSPost2010PropOp48
 70
     1
102
RTVSPost2010Prop49
280
     0
102
RTVSPost2010PropOp49
 70
     1
102
RTVSPost2010Prop50
 90
       50
102
RTVSPost2010PropOp50
 70
     1
102
RTVSPost2010Prop51ColorIndex
 90
      256
102
RTVSPost2010Prop51ColorRGB
 90
-16777216
102
RTVSPost2010PropOp51
 70
     0
102
RTVSPost2010Prop52
140
1.0
102
RTVSPost2010PropOp52
 70
     0
102
RTVSPost2010Prop53
 90
        2
102
RTVSPost2010PropOp53
 70
     1
102
RTVSPost2010Prop54
  1
strokes_ogs.tif
102
RTVSPost2010PropOp54
 70
     1
102
RTVSPost2010Prop55
280
     0
102
RTVSPost2010PropOp55
 70
     1
102
RTVSPost2010Prop56
140
1.0
102
RTVSPost2010PropOp56
 70
     1
102
RTVSPost2010Prop57
140
1.0
102
RTVSPost2010PropOp57
 70
     1
102
RTVSPropertyOp0
 70
     1
102
RTVSPropertyOp1
 70
     1
102
RTVSPropertyOp2
 70
     1
102
RTVSPropertyOp3
 70
     1
102
RTVSPropertyOp4
 70
     1
102
RTVSPropertyOp5
 70
     1
102
RTVSPropertyOp6
 70
     1
102
RTVSPropertyOp7
 70
     1
102
RTVSPropertyOp8
 70
     1
102
RTVSPropertyOp9
 70
     1
102
RTVSPropertyOp10
 70
     1
102
RTVSPropertyOp11
 70
     1
102
RTVSPropertyOp12
 70
     1
102
RTVSPropertyOp13
 70
     1
102
RTVSPropertyOp14
 70
     1
102
RTVSPropertyOp15
 70
     1
102
RTVSPropertyOp16
 70
     1
102
RTVSPropertyOp17
 70
     1
102
RTVSPropertyOp18
 70
     1
102
RTVSPropertyOp19
 70
     1
102
RTVSPropertyOp20
 70
     1
102
RTVSPropertyOp21
 70
     1
102
RTVSPropertyOp22
 70
     1
102
RTVSPropertyOp23
 70
     1
102
RTVSPropertyOp24
 70
     1
102
RTVSPropertyOp25
 70
     1
102
RTVSPropertyOp26
 70
     1
102
RTVSPropertyOp27
 70
     1
102
RTVSPropertyOp28
 70
     1
102
RTVSPropertyOp29
 70
     1
102
RTVSPropertyOp30
 70
     1
102
RTVSPropertyOp31
 70
     1
102
RTVSPropertyOp32
 70
     1
102
RTVSPropertyOp33
 70
     1
102
RTVSPropertyOp34
 70
     1
102
RTVSPropertyOp35
 70
     1
102
RTVSPropertyOp36
 70
     1
102
RTVSPropertyOp37
 70
     1
102
RTVSPropertyOp38
 70
     1
102
RTVSPropertyOp39
 70
     1
102
RTVSPropertyOp40
 70
     1
102
RTVSPropertyOp41
 70
     1
102
RTVSPropertyOp42
 70
     1
102
RTVSPropertyOp43
 70
     1
102
RTVSPropertyOp44
 70
     1
102
RTVSPropertyOp45
 70
     1
102
RTVSPropertyOp46
 70
     1
102
RTVSPropertyOp47
 70
     1
102
RTVSPropertyOp48
 70
     1
102
RTVSPropertyOp49
 70
     1
102
RTVSPropertyOp50
 70
     1
102
RTVSPropertyOp51
 70
     0
102
RTVSPropertyOp52
 70
     0
102
RTVSPropertyOp53
 70
     1
102
RTVSPropertyOp54
 70
     1
102
RTVSPropertyOp55
 70
     1
102
RTVSPropertyOp56
 70
     1
102
RTVSPropertyOp57
 70
     1
102
RTVSPropertyOp58
 70
     1
102
RTVSPropertyOp59
 70
     1
102
RTVSPropertyOp60
 70
     1
102
RTVSPropertyOp61
 70
     1
102
RTVSPropertyOp62
 70
     1
  0
XRECORD
  5
AA8A
102
{ACAD_REACTORS
330
AA89
102
}
330
AA89
100
AcDbXrecord
280
     1
102
RTVSPost2010Prop28
280
     0
102
RTVSPost2010PropOp28
 70
     1
102
RTVSPost2010Prop29
280
     1
102
RTVSPost2010PropOp29
 70
     1
102
RTVSPost2010Prop30
280
     1
102
RTVSPost2010PropOp30
 70
     1
102
RTVSPost2010Prop31
280
     0
102
RTVSPost2010PropOp31
 70
     1
102
RTVSPost2010Prop32
280
     0
102
RTVSPost2010PropOp32
 70
     1
102
RTVSPost2010Prop33
280
     0
102
RTVSPost2010PropOp33
 70
     1
102
RTVSPost2010Prop34
280
     0
102
RTVSPost2010PropOp34
 70
     1
102
RTVSPost2010Prop35
280
     0
102
RTVSPost2010PropOp35
 70
     1
102
RTVSPost2010Prop36
280
     0
102
RTVSPost2010PropOp36
 70
     1
102
RTVSPost2010Prop37
 90
       50
102
RTVSPost2010PropOp37
 70
     1
102
RTVSPost2010Prop38
140
0.0
102
RTVSPost2010PropOp38
 70
     1
102
RTVSPost2010Prop39
140
1.0
102
RTVSPost2010PropOp39
 70
     1
102
RTVSPost2010Prop40
 90
        0
102
RTVSPost2010PropOp40
 70
     1
102
RTVSPost2010Prop41ColorIndex
 90
       18
102
RTVSPost2010Prop41ColorRGB
 90
        0
102
RTVSPost2010PropOp41
 70
     1
102
RTVSPost2010Prop42
 90
       50
102
RTVSPost2010PropOp42
 70
     1
102
RTVSPost2010Prop43
 90
        3
102
RTVSPost2010PropOp43
 70
     1
102
RTVSPost2010Prop44ColorIndex
 90
        5
102
RTVSPost2010Prop44ColorRGB
 90
      255
102
RTVSPost2010PropOp44
 70
     1
102
RTVSPost2010Prop45
280
     0
102
RTVSPost2010PropOp45
 70
     1
102
RTVSPost2010Prop46
 90
       50
102
RTVSPost2010PropOp46
 70
     1
102
RTVSPost2010Prop47
 90
       50
102
RTVSPost2010PropOp47
 70
     1
102
RTVSPost2010Prop48
 90
       50
102
RTVSPost2010PropOp48
 70
     1
102
RTVSPost2010Prop49
280
     0
102
RTVSPost2010PropOp49
 70
     1
102
RTVSPost2010Prop50
 90
       50
102
RTVSPost2010PropOp50
 70
     1
102
RTVSPost2010Prop51ColorIndex
 90
      256
102
RTVSPost2010Prop51ColorRGB
 90
-16777216
102
RTVSPost2010PropOp51
 70
     0
102
RTVSPost2010Prop52
140
1.0
102
RTVSPost2010PropOp52
 70
     0
102
RTVSPost2010Prop53
 90
        2
102
RTVSPost2010PropOp53
 70
     1
102
RTVSPost2010Prop54
  1
strokes_ogs.tif
102
RTVSPost2010PropOp54
 70
     1
102
RTVSPost2010Prop55
280
     0
102
RTVSPost2010PropOp55
 70
     1
102
RTVSPost2010Prop56
140
1.0
102
RTVSPost2010PropOp56
 70
     1
102
RTVSPost2010Prop57
140
1.0
102
RTVSPost2010PropOp57
 70
     1
102
RTVSPropertyOp0
 70
     1
102
RTVSPropertyOp1
 70
     1
102
RTVSPropertyOp2
 70
     1
102
RTVSPropertyOp3
 70
     1
102
RTVSPropertyOp4
 70
     1
102
RTVSPropertyOp5
 70
     1
102
RTVSPropertyOp6
 70
     1
102
RTVSPropertyOp7
 70
     1
102
RTVSPropertyOp8
 70
     1
102
RTVSPropertyOp9
 70
     1
102
RTVSPropertyOp10
 70
     1
102
RTVSPropertyOp11
 70
     1
102
RTVSPropertyOp12
 70
     1
102
RTVSPropertyOp13
 70
     1
102
RTVSPropertyOp14
 70
     1
102
RTVSPropertyOp15
 70
     1
102
RTVSPropertyOp16
 70
     1
102
RTVSPropertyOp17
 70
     1
102
RTVSPropertyOp18
 70
     1
102
RTVSPropertyOp19
 70
     1
102
RTVSPropertyOp20
 70
     1
102
RTVSPropertyOp21
 70
     1
102
RTVSPropertyOp22
 70
     1
102
RTVSPropertyOp23
 70
     1
102
RTVSPropertyOp24
 70
     1
102
RTVSPropertyOp25
 70
     1
102
RTVSPropertyOp26
 70
     1
102
RTVSPropertyOp27
 70
     1
102
RTVSPropertyOp28
 70
     1
102
RTVSPropertyOp29
 70
     1
102
RTVSPropertyOp30
 70
     1
102
RTVSPropertyOp31
 70
     1
102
RTVSPropertyOp32
 70
     1
102
RTVSPropertyOp33
 70
     1
102
RTVSPropertyOp34
 70
     1
102
RTVSPropertyOp35
 70
     1
102
RTVSPropertyOp36
 70
     1
102
RTVSPropertyOp37
 70
     1
102
RTVSPropertyOp38
 70
     1
102
RTVSPropertyOp39
 70
     1
102
RTVSPropertyOp40
 70
     1
102
RTVSPropertyOp41
 70
     1
102
RTVSPropertyOp42
 70
     1
102
RTVSPropertyOp43
 70
     1
102
RTVSPropertyOp44
 70
     1
102
RTVSPropertyOp45
 70
     1
102
RTVSPropertyOp46
 70
     1
102
RTVSPropertyOp47
 70
     1
102
RTVSPropertyOp48
 70
     1
102
RTVSPropertyOp49
 70
     1
102
RTVSPropertyOp50
 70
     1
102
RTVSPropertyOp51
 70
     0
102
RTVSPropertyOp52
 70
     0
102
RTVSPropertyOp53
 70
     1
102
RTVSPropertyOp54
 70
     1
102
RTVSPropertyOp55
 70
     1
102
RTVSPropertyOp56
 70
     1
102
RTVSPropertyOp57
 70
     1
102
RTVSPropertyOp58
 70
     1
102
RTVSPropertyOp59
 70
     1
102
RTVSPropertyOp60
 70
     1
102
RTVSPropertyOp61
 70
     1
102
RTVSPropertyOp62
 70
     1
  0
XRECORD
  5
AAA6
102
{ACAD_REACTORS
330
AAA5
102
}
330
AAA5
100
AcDbXrecord
280
     1
102
RTVSPost2010Prop28
280
     0
102
RTVSPost2010PropOp28
 70
     1
102
RTVSPost2010Prop29
280
     1
102
RTVSPost2010PropOp29
 70
     1
102
RTVSPost2010Prop30
280
     1
102
RTVSPost2010PropOp30
 70
     1
102
RTVSPost2010Prop31
280
     0
102
RTVSPost2010PropOp31
 70
     1
102
RTVSPost2010Prop32
280
     0
102
RTVSPost2010PropOp32
 70
     1
102
RTVSPost2010Prop33
280
     0
102
RTVSPost2010PropOp33
 70
     1
102
RTVSPost2010Prop34
280
     0
102
RTVSPost2010PropOp34
 70
     1
102
RTVSPost2010Prop35
280
     0
102
RTVSPost2010PropOp35
 70
     1
102
RTVSPost2010Prop36
280
     0
102
RTVSPost2010PropOp36
 70
     1
102
RTVSPost2010Prop37
 90
       50
102
RTVSPost2010PropOp37
 70
     0
102
RTVSPost2010Prop38
140
0.0
102
RTVSPost2010PropOp38
 70
     0
102
RTVSPost2010Prop39
140
1.0
102
RTVSPost2010PropOp39
 70
     0
102
RTVSPost2010Prop40
 90
        0
102
RTVSPost2010PropOp40
 70
     0
102
RTVSPost2010Prop41ColorIndex
 90
       18
102
RTVSPost2010Prop41ColorRGB
 90
        0
102
RTVSPost2010PropOp41
 70
     0
102
RTVSPost2010Prop42
 90
       50
102
RTVSPost2010PropOp42
 70
     0
102
RTVSPost2010Prop43
 90
        3
102
RTVSPost2010PropOp43
 70
     0
102
RTVSPost2010Prop44ColorIndex
 90
        5
102
RTVSPost2010Prop44ColorRGB
 90
      255
102
RTVSPost2010PropOp44
 70
     0
102
RTVSPost2010Prop45
280
     0
102
RTVSPost2010PropOp45
 70
     1
102
RTVSPost2010Prop46
 90
       50
102
RTVSPost2010PropOp46
 70
     0
102
RTVSPost2010Prop47
 90
       50
102
RTVSPost2010PropOp47
 70
     0
102
RTVSPost2010Prop48
 90
       50
102
RTVSPost2010PropOp48
 70
     0
102
RTVSPost2010Prop49
280
     0
102
RTVSPost2010PropOp49
 70
     1
102
RTVSPost2010Prop50
 90
       50
102
RTVSPost2010PropOp50
 70
     0
102
RTVSPost2010Prop51ColorIndex
 90
      256
102
RTVSPost2010Prop51ColorRGB
 90
-16777216
102
RTVSPost2010PropOp51
 70
     0
102
RTVSPost2010Prop52
140
1.0
102
RTVSPost2010PropOp52
 70
     0
102
RTVSPost2010Prop53
 90
        2
102
RTVSPost2010PropOp53
 70
     0
102
RTVSPost2010Prop54
  1
strokes_ogs.tif
102
RTVSPost2010PropOp54
 70
     0
102
RTVSPost2010Prop55
280
     0
102
RTVSPost2010PropOp55
 70
     1
102
RTVSPost2010Prop56
140
1.0
102
RTVSPost2010PropOp56
 70
     0
102
RTVSPost2010Prop57
140
1.0
102
RTVSPost2010PropOp57
 70
     0
102
RTVSPropertyOp0
 70
     0
102
RTVSPropertyOp1
 70
     0
102
RTVSPropertyOp2
 70
     0
102
RTVSPropertyOp3
 70
     0
102
RTVSPropertyOp4
 70
     0
102
RTVSPropertyOp5
 70
     0
102
RTVSPropertyOp6
 70
     0
102
RTVSPropertyOp7
 70
     0
102
RTVSPropertyOp8
 70
     0
102
RTVSPropertyOp9
 70
     0
102
RTVSPropertyOp10
 70
     0
102
RTVSPropertyOp11
 70
     0
102
RTVSPropertyOp12
 70
     0
102
RTVSPropertyOp13
 70
     0
102
RTVSPropertyOp14
 70
     2
102
RTVSPropertyOp15
 70
     0
102
RTVSPropertyOp16
 70
     0
102
RTVSPropertyOp17
 70
     0
102
RTVSPropertyOp18
 70
     0
102
RTVSPropertyOp19
 70
     0
102
RTVSPropertyOp20
 70
     0
102
RTVSPropertyOp21
 70
     0
102
RTVSPropertyOp22
 70
     0
102
RTVSPropertyOp23
 70
     0
102
RTVSPropertyOp24
 70
     0
102
RTVSPropertyOp25
 70
     0
102
RTVSPropertyOp26
 70
     0
102
RTVSPropertyOp27
 70
     0
102
RTVSPropertyOp28
 70
     1
102
RTVSPropertyOp29
 70
     1
102
RTVSPropertyOp30
 70
     1
102
RTVSPropertyOp31
 70
     1
102
RTVSPropertyOp32
 70
     1
102
RTVSPropertyOp33
 70
     1
102
RTVSPropertyOp34
 70
     1
102
RTVSPropertyOp35
 70
     1
102
RTVSPropertyOp36
 70
     1
102
RTVSPropertyOp37
 70
     0
102
RTVSPropertyOp38
 70
     0
102
RTVSPropertyOp39
 70
     0
102
RTVSPropertyOp40
 70
     0
102
RTVSPropertyOp41
 70
     0
102
RTVSPropertyOp42
 70
     0
102
RTVSPropertyOp43
 70
     0
102
RTVSPropertyOp44
 70
     0
102
RTVSPropertyOp45
 70
     1
102
RTVSPropertyOp46
 70
     0
102
RTVSPropertyOp47
 70
     0
102
RTVSPropertyOp48
 70
     0
102
RTVSPropertyOp49
 70
     1
102
RTVSPropertyOp50
 70
     0
102
RTVSPropertyOp51
 70
     0
102
RTVSPropertyOp52
 70
     0
102
RTVSPropertyOp53
 70
     0
102
RTVSPropertyOp54
 70
     0
102
RTVSPropertyOp55
 70
     1
102
RTVSPropertyOp56
 70
     0
102
RTVSPropertyOp57
 70
     0
102
RTVSPropertyOp58
 70
     0
102
RTVSPropertyOp59
 70
     0
102
RTVSPropertyOp60
 70
     0
102
RTVSPropertyOp61
 70
     0
102
RTVSPropertyOp62
 70
     0
  0
XRECORD
  5
AA96
102
{ACAD_REACTORS
330
AA95
102
}
330
AA95
100
AcDbXrecord
280
     1
102
RTVSPost2010Prop28
280
     0
102
RTVSPost2010PropOp28
 70
     1
102
RTVSPost2010Prop29
280
     1
102
RTVSPost2010PropOp29
 70
     1
102
RTVSPost2010Prop30
280
     1
102
RTVSPost2010PropOp30
 70
     1
102
RTVSPost2010Prop31
280
     0
102
RTVSPost2010PropOp31
 70
     1
102
RTVSPost2010Prop32
280
     0
102
RTVSPost2010PropOp32
 70
     1
102
RTVSPost2010Prop33
280
     0
102
RTVSPost2010PropOp33
 70
     1
102
RTVSPost2010Prop34
280
     0
102
RTVSPost2010PropOp34
 70
     1
102
RTVSPost2010Prop35
280
     0
102
RTVSPost2010PropOp35
 70
     1
102
RTVSPost2010Prop36
280
     0
102
RTVSPost2010PropOp36
 70
     1
102
RTVSPost2010Prop37
 90
       50
102
RTVSPost2010PropOp37
 70
     1
102
RTVSPost2010Prop38
140
0.0
102
RTVSPost2010PropOp38
 70
     1
102
RTVSPost2010Prop39
140
1.0
102
RTVSPost2010PropOp39
 70
     1
102
RTVSPost2010Prop40
 90
        0
102
RTVSPost2010PropOp40
 70
     1
102
RTVSPost2010Prop41ColorIndex
 90
       18
102
RTVSPost2010Prop41ColorRGB
 90
        0
102
RTVSPost2010PropOp41
 70
     1
102
RTVSPost2010Prop42
 90
       50
102
RTVSPost2010PropOp42
 70
     1
102
RTVSPost2010Prop43
 90
        3
102
RTVSPost2010PropOp43
 70
     1
102
RTVSPost2010Prop44ColorIndex
 90
        5
102
RTVSPost2010Prop44ColorRGB
 90
      255
102
RTVSPost2010PropOp44
 70
     1
102
RTVSPost2010Prop45
280
     0
102
RTVSPost2010PropOp45
 70
     1
102
RTVSPost2010Prop46
 90
       50
102
RTVSPost2010PropOp46
 70
     1
102
RTVSPost2010Prop47
 90
       50
102
RTVSPost2010PropOp47
 70
     1
102
RTVSPost2010Prop48
 90
       50
102
RTVSPost2010PropOp48
 70
     1
102
RTVSPost2010Prop49
280
     0
102
RTVSPost2010PropOp49
 70
     1
102
RTVSPost2010Prop50
 90
       50
102
RTVSPost2010PropOp50
 70
     1
102
RTVSPost2010Prop51ColorIndex
 90
      256
102
RTVSPost2010Prop51ColorRGB
 90
-16777216
102
RTVSPost2010PropOp51
 70
     0
102
RTVSPost2010Prop52
140
1.0
102
RTVSPost2010PropOp52
 70
     0
102
RTVSPost2010Prop53
 90
        2
102
RTVSPost2010PropOp53
 70
     1
102
RTVSPost2010Prop54
  1
strokes_ogs.tif
102
RTVSPost2010PropOp54
 70
     1
102
RTVSPost2010Prop55
280
     0
102
RTVSPost2010PropOp55
 70
     1
102
RTVSPost2010Prop56
140
1.0
102
RTVSPost2010PropOp56
 70
     1
102
RTVSPost2010Prop57
140
1.0
102
RTVSPost2010PropOp57
 70
     1
102
RTVSPropertyOp0
 70
     1
102
RTVSPropertyOp1
 70
     1
102
RTVSPropertyOp2
 70
     1
102
RTVSPropertyOp3
 70
     1
102
RTVSPropertyOp4
 70
     1
102
RTVSPropertyOp5
 70
     1
102
RTVSPropertyOp6
 70
     1
102
RTVSPropertyOp7
 70
     1
102
RTVSPropertyOp8
 70
     1
102
RTVSPropertyOp9
 70
     1
102
RTVSPropertyOp10
 70
     1
102
RTVSPropertyOp11
 70
     1
102
RTVSPropertyOp12
 70
     1
102
RTVSPropertyOp13
 70
     1
102
RTVSPropertyOp14
 70
     1
102
RTVSPropertyOp15
 70
     1
102
RTVSPropertyOp16
 70
     1
102
RTVSPropertyOp17
 70
     1
102
RTVSPropertyOp18
 70
     1
102
RTVSPropertyOp19
 70
     1
102
RTVSPropertyOp20
 70
     1
102
RTVSPropertyOp21
 70
     1
102
RTVSPropertyOp22
 70
     1
102
RTVSPropertyOp23
 70
     1
102
RTVSPropertyOp24
 70
     1
102
RTVSPropertyOp25
 70
     1
102
RTVSPropertyOp26
 70
     1
102
RTVSPropertyOp27
 70
     1
102
RTVSPropertyOp28
 70
     1
102
RTVSPropertyOp29
 70
     1
102
RTVSPropertyOp30
 70
     1
102
RTVSPropertyOp31
 70
     1
102
RTVSPropertyOp32
 70
     1
102
RTVSPropertyOp33
 70
     1
102
RTVSPropertyOp34
 70
     1
102
RTVSPropertyOp35
 70
     1
102
RTVSPropertyOp36
 70
     1
102
RTVSPropertyOp37
 70
     1
102
RTVSPropertyOp38
 70
     1
102
RTVSPropertyOp39
 70
     1
102
RTVSPropertyOp40
 70
     1
102
RTVSPropertyOp41
 70
     1
102
RTVSPropertyOp42
 70
     1
102
RTVSPropertyOp43
 70
     1
102
RTVSPropertyOp44
 70
     1
102
RTVSPropertyOp45
 70
     1
102
RTVSPropertyOp46
 70
     1
102
RTVSPropertyOp47
 70
     1
102
RTVSPropertyOp48
 70
     1
102
RTVSPropertyOp49
 70
     1
102
RTVSPropertyOp50
 70
     1
102
RTVSPropertyOp51
 70
     0
102
RTVSPropertyOp52
 70
     0
102
RTVSPropertyOp53
 70
     1
102
RTVSPropertyOp54
 70
     1
102
RTVSPropertyOp55
 70
     1
102
RTVSPropertyOp56
 70
     1
102
RTVSPropertyOp57
 70
     1
102
RTVSPropertyOp58
 70
     1
102
RTVSPropertyOp59
 70
     1
102
RTVSPropertyOp60
 70
     1
102
RTVSPropertyOp61
 70
     1
102
RTVSPropertyOp62
 70
     1
  0
XRECORD
  5
AAA8
102
{ACAD_REACTORS
330
AAA7
102
}
330
AAA7
100
AcDbXrecord
280
     1
102
RTVSPost2010Prop28
280
     0
102
RTVSPost2010PropOp28
 70
     1
102
RTVSPost2010Prop29
280
     1
102
RTVSPost2010PropOp29
 70
     1
102
RTVSPost2010Prop30
280
     1
102
RTVSPost2010PropOp30
 70
     1
102
RTVSPost2010Prop31
280
     0
102
RTVSPost2010PropOp31
 70
     1
102
RTVSPost2010Prop32
280
     0
102
RTVSPost2010PropOp32
 70
     1
102
RTVSPost2010Prop33
280
     0
102
RTVSPost2010PropOp33
 70
     1
102
RTVSPost2010Prop34
280
     0
102
RTVSPost2010PropOp34
 70
     1
102
RTVSPost2010Prop35
280
     0
102
RTVSPost2010PropOp35
 70
     1
102
RTVSPost2010Prop36
280
     0
102
RTVSPost2010PropOp36
 70
     1
102
RTVSPost2010Prop37
 90
       50
102
RTVSPost2010PropOp37
 70
     0
102
RTVSPost2010Prop38
140
0.0
102
RTVSPost2010PropOp38
 70
     0
102
RTVSPost2010Prop39
140
1.0
102
RTVSPost2010PropOp39
 70
     0
102
RTVSPost2010Prop40
 90
        0
102
RTVSPost2010PropOp40
 70
     0
102
RTVSPost2010Prop41ColorIndex
 90
       18
102
RTVSPost2010Prop41ColorRGB
 90
        0
102
RTVSPost2010PropOp41
 70
     0
102
RTVSPost2010Prop42
 90
       50
102
RTVSPost2010PropOp42
 70
     0
102
RTVSPost2010Prop43
 90
        3
102
RTVSPost2010PropOp43
 70
     0
102
RTVSPost2010Prop44ColorIndex
 90
        5
102
RTVSPost2010Prop44ColorRGB
 90
      255
102
RTVSPost2010PropOp44
 70
     0
102
RTVSPost2010Prop45
280
     0
102
RTVSPost2010PropOp45
 70
     1
102
RTVSPost2010Prop46
 90
       50
102
RTVSPost2010PropOp46
 70
     0
102
RTVSPost2010Prop47
 90
       50
102
RTVSPost2010PropOp47
 70
     0
102
RTVSPost2010Prop48
 90
       50
102
RTVSPost2010PropOp48
 70
     0
102
RTVSPost2010Prop49
280
     0
102
RTVSPost2010PropOp49
 70
     1
102
RTVSPost2010Prop50
 90
       50
102
RTVSPost2010PropOp50
 70
     0
102
RTVSPost2010Prop51ColorIndex
 90
      256
102
RTVSPost2010Prop51ColorRGB
 90
-16777216
102
RTVSPost2010PropOp51
 70
     0
102
RTVSPost2010Prop52
140
1.0
102
RTVSPost2010PropOp52
 70
     0
102
RTVSPost2010Prop53
 90
        2
102
RTVSPost2010PropOp53
 70
     0
102
RTVSPost2010Prop54
  1
strokes_ogs.tif
102
RTVSPost2010PropOp54
 70
     0
102
RTVSPost2010Prop55
280
     0
102
RTVSPost2010PropOp55
 70
     1
102
RTVSPost2010Prop56
140
1.0
102
RTVSPost2010PropOp56
 70
     0
102
RTVSPost2010Prop57
140
1.0
102
RTVSPost2010PropOp57
 70
     0
102
RTVSPropertyOp0
 70
     0
102
RTVSPropertyOp1
 70
     0
102
RTVSPropertyOp2
 70
     0
102
RTVSPropertyOp3
 70
     0
102
RTVSPropertyOp4
 70
     0
102
RTVSPropertyOp5
 70
     0
102
RTVSPropertyOp6
 70
     0
102
RTVSPropertyOp7
 70
     0
102
RTVSPropertyOp8
 70
     0
102
RTVSPropertyOp9
 70
     0
102
RTVSPropertyOp10
 70
     0
102
RTVSPropertyOp11
 70
     0
102
RTVSPropertyOp12
 70
     0
102
RTVSPropertyOp13
 70
     0
102
RTVSPropertyOp14
 70
     2
102
RTVSPropertyOp15
 70
     0
102
RTVSPropertyOp16
 70
     0
102
RTVSPropertyOp17
 70
     0
102
RTVSPropertyOp18
 70
     0
102
RTVSPropertyOp19
 70
     0
102
RTVSPropertyOp20
 70
     0
102
RTVSPropertyOp21
 70
     0
102
RTVSPropertyOp22
 70
     0
102
RTVSPropertyOp23
 70
     0
102
RTVSPropertyOp24
 70
     0
102
RTVSPropertyOp25
 70
     0
102
RTVSPropertyOp26
 70
     0
102
RTVSPropertyOp27
 70
     0
102
RTVSPropertyOp28
 70
     1
102
RTVSPropertyOp29
 70
     1
102
RTVSPropertyOp30
 70
     1
102
RTVSPropertyOp31
 70
     1
102
RTVSPropertyOp32
 70
     1
102
RTVSPropertyOp33
 70
     1
102
RTVSPropertyOp34
 70
     1
102
RTVSPropertyOp35
 70
     1
102
RTVSPropertyOp36
 70
     1
102
RTVSPropertyOp37
 70
     0
102
RTVSPropertyOp38
 70
     0
102
RTVSPropertyOp39
 70
     0
102
RTVSPropertyOp40
 70
     0
102
RTVSPropertyOp41
 70
     0
102
RTVSPropertyOp42
 70
     0
102
RTVSPropertyOp43
 70
     0
102
RTVSPropertyOp44
 70
     0
102
RTVSPropertyOp45
 70
     1
102
RTVSPropertyOp46
 70
     0
102
RTVSPropertyOp47
 70
     0
102
RTVSPropertyOp48
 70
     0
102
RTVSPropertyOp49
 70
     1
102
RTVSPropertyOp50
 70
     0
102
RTVSPropertyOp51
 70
     0
102
RTVSPropertyOp52
 70
     0
102
RTVSPropertyOp53
 70
     0
102
RTVSPropertyOp54
 70
     0
102
RTVSPropertyOp55
 70
     1
102
RTVSPropertyOp56
 70
     0
102
RTVSPropertyOp57
 70
     0
102
RTVSPropertyOp58
 70
     0
102
RTVSPropertyOp59
 70
     0
102
RTVSPropertyOp60
 70
     0
102
RTVSPropertyOp61
 70
     0
102
RTVSPropertyOp62
 70
     0
  0
XRECORD
  5
AA8E
102
{ACAD_REACTORS
330
AA8D
102
}
330
AA8D
100
AcDbXrecord
280
     1
102
RTVSPost2010Prop28
280
     0
102
RTVSPost2010PropOp28
 70
     1
102
RTVSPost2010Prop29
280
     1
102
RTVSPost2010PropOp29
 70
     1
102
RTVSPost2010Prop30
280
     1
102
RTVSPost2010PropOp30
 70
     1
102
RTVSPost2010Prop31
280
     0
102
RTVSPost2010PropOp31
 70
     1
102
RTVSPost2010Prop32
280
     0
102
RTVSPost2010PropOp32
 70
     1
102
RTVSPost2010Prop33
280
     0
102
RTVSPost2010PropOp33
 70
     1
102
RTVSPost2010Prop34
280
     0
102
RTVSPost2010PropOp34
 70
     1
102
RTVSPost2010Prop35
280
     0
102
RTVSPost2010PropOp35
 70
     1
102
RTVSPost2010Prop36
280
     0
102
RTVSPost2010PropOp36
 70
     1
102
RTVSPost2010Prop37
 90
       50
102
RTVSPost2010PropOp37
 70
     1
102
RTVSPost2010Prop38
140
0.0
102
RTVSPost2010PropOp38
 70
     1
102
RTVSPost2010Prop39
140
1.0
102
RTVSPost2010PropOp39
 70
     1
102
RTVSPost2010Prop40
 90
        0
102
RTVSPost2010PropOp40
 70
     1
102
RTVSPost2010Prop41ColorIndex
 90
       18
102
RTVSPost2010Prop41ColorRGB
 90
        0
102
RTVSPost2010PropOp41
 70
     1
102
RTVSPost2010Prop42
 90
       50
102
RTVSPost2010PropOp42
 70
     1
102
RTVSPost2010Prop43
 90
        3
102
RTVSPost2010PropOp43
 70
     1
102
RTVSPost2010Prop44ColorIndex
 90
        5
102
RTVSPost2010Prop44ColorRGB
 90
      255
102
RTVSPost2010PropOp44
 70
     1
102
RTVSPost2010Prop45
280
     0
102
RTVSPost2010PropOp45
 70
     1
102
RTVSPost2010Prop46
 90
       50
102
RTVSPost2010PropOp46
 70
     1
102
RTVSPost2010Prop47
 90
       50
102
RTVSPost2010PropOp47
 70
     1
102
RTVSPost2010Prop48
 90
       50
102
RTVSPost2010PropOp48
 70
     1
102
RTVSPost2010Prop49
280
     0
102
RTVSPost2010PropOp49
 70
     1
102
RTVSPost2010Prop50
 90
       50
102
RTVSPost2010PropOp50
 70
     1
102
RTVSPost2010Prop51ColorIndex
 90
      256
102
RTVSPost2010Prop51ColorRGB
 90
-16777216
102
RTVSPost2010PropOp51
 70
     0
102
RTVSPost2010Prop52
140
1.0
102
RTVSPost2010PropOp52
 70
     0
102
RTVSPost2010Prop53
 90
        2
102
RTVSPost2010PropOp53
 70
     1
102
RTVSPost2010Prop54
  1
strokes_ogs.tif
102
RTVSPost2010PropOp54
 70
     1
102
RTVSPost2010Prop55
280
     0
102
RTVSPost2010PropOp55
 70
     1
102
RTVSPost2010Prop56
140
1.0
102
RTVSPost2010PropOp56
 70
     1
102
RTVSPost2010Prop57
140
1.0
102
RTVSPost2010PropOp57
 70
     1
102
RTVSPropertyOp0
 70
     1
102
RTVSPropertyOp1
 70
     1
102
RTVSPropertyOp2
 70
     1
102
RTVSPropertyOp3
 70
     1
102
RTVSPropertyOp4
 70
     1
102
RTVSPropertyOp5
 70
     1
102
RTVSPropertyOp6
 70
     1
102
RTVSPropertyOp7
 70
     1
102
RTVSPropertyOp8
 70
     1
102
RTVSPropertyOp9
 70
     1
102
RTVSPropertyOp10
 70
     1
102
RTVSPropertyOp11
 70
     1
102
RTVSPropertyOp12
 70
     1
102
RTVSPropertyOp13
 70
     1
102
RTVSPropertyOp14
 70
     1
102
RTVSPropertyOp15
 70
     1
102
RTVSPropertyOp16
 70
     1
102
RTVSPropertyOp17
 70
     1
102
RTVSPropertyOp18
 70
     1
102
RTVSPropertyOp19
 70
     1
102
RTVSPropertyOp20
 70
     1
102
RTVSPropertyOp21
 70
     1
102
RTVSPropertyOp22
 70
     1
102
RTVSPropertyOp23
 70
     1
102
RTVSPropertyOp24
 70
     1
102
RTVSPropertyOp25
 70
     1
102
RTVSPropertyOp26
 70
     1
102
RTVSPropertyOp27
 70
     1
102
RTVSPropertyOp28
 70
     1
102
RTVSPropertyOp29
 70
     1
102
RTVSPropertyOp30
 70
     1
102
RTVSPropertyOp31
 70
     1
102
RTVSPropertyOp32
 70
     1
102
RTVSPropertyOp33
 70
     1
102
RTVSPropertyOp34
 70
     1
102
RTVSPropertyOp35
 70
     1
102
RTVSPropertyOp36
 70
     1
102
RTVSPropertyOp37
 70
     1
102
RTVSPropertyOp38
 70
     1
102
RTVSPropertyOp39
 70
     1
102
RTVSPropertyOp40
 70
     1
102
RTVSPropertyOp41
 70
     1
102
RTVSPropertyOp42
 70
     1
102
RTVSPropertyOp43
 70
     1
102
RTVSPropertyOp44
 70
     1
102
RTVSPropertyOp45
 70
     1
102
RTVSPropertyOp46
 70
     1
102
RTVSPropertyOp47
 70
     1
102
RTVSPropertyOp48
 70
     1
102
RTVSPropertyOp49
 70
     1
102
RTVSPropertyOp50
 70
     1
102
RTVSPropertyOp51
 70
     0
102
RTVSPropertyOp52
 70
     0
102
RTVSPropertyOp53
 70
     1
102
RTVSPropertyOp54
 70
     1
102
RTVSPropertyOp55
 70
     1
102
RTVSPropertyOp56
 70
     1
102
RTVSPropertyOp57
 70
     1
102
RTVSPropertyOp58
 70
     1
102
RTVSPropertyOp59
 70
     1
102
RTVSPropertyOp60
 70
     1
102
RTVSPropertyOp61
 70
     1
102
RTVSPropertyOp62
 70
     1
  0
XRECORD
  5
AAA4
102
{ACAD_REACTORS
330
AAA3
102
}
330
AAA3
100
AcDbXrecord
280
     1
102
RTVSPost2010Prop28
280
     0
102
RTVSPost2010PropOp28
 70
     1
102
RTVSPost2010Prop29
280
     1
102
RTVSPost2010PropOp29
 70
     1
102
RTVSPost2010Prop30
280
     1
102
RTVSPost2010PropOp30
 70
     1
102
RTVSPost2010Prop31
280
     0
102
RTVSPost2010PropOp31
 70
     1
102
RTVSPost2010Prop32
280
     0
102
RTVSPost2010PropOp32
 70
     1
102
RTVSPost2010Prop33
280
     0
102
RTVSPost2010PropOp33
 70
     1
102
RTVSPost2010Prop34
280
     0
102
RTVSPost2010PropOp34
 70
     1
102
RTVSPost2010Prop35
280
     0
102
RTVSPost2010PropOp35
 70
     1
102
RTVSPost2010Prop36
280
     0
102
RTVSPost2010PropOp36
 70
     1
102
RTVSPost2010Prop37
 90
       50
102
RTVSPost2010PropOp37
 70
     1
102
RTVSPost2010Prop38
140
0.0
102
RTVSPost2010PropOp38
 70
     1
102
RTVSPost2010Prop39
140
1.0
102
RTVSPost2010PropOp39
 70
     1
102
RTVSPost2010Prop40
 90
        0
102
RTVSPost2010PropOp40
 70
     1
102
RTVSPost2010Prop41ColorIndex
 90
       18
102
RTVSPost2010Prop41ColorRGB
 90
        0
102
RTVSPost2010PropOp41
 70
     1
102
RTVSPost2010Prop42
 90
       50
102
RTVSPost2010PropOp42
 70
     1
102
RTVSPost2010Prop43
 90
        3
102
RTVSPost2010PropOp43
 70
     1
102
RTVSPost2010Prop44ColorIndex
 90
        5
102
RTVSPost2010Prop44ColorRGB
 90
      255
102
RTVSPost2010PropOp44
 70
     1
102
RTVSPost2010Prop45
280
     0
102
RTVSPost2010PropOp45
 70
     1
102
RTVSPost2010Prop46
 90
       50
102
RTVSPost2010PropOp46
 70
     1
102
RTVSPost2010Prop47
 90
       50
102
RTVSPost2010PropOp47
 70
     1
102
RTVSPost2010Prop48
 90
       50
102
RTVSPost2010PropOp48
 70
     1
102
RTVSPost2010Prop49
280
     0
102
RTVSPost2010PropOp49
 70
     1
102
RTVSPost2010Prop50
 90
       50
102
RTVSPost2010PropOp50
 70
     1
102
RTVSPost2010Prop51ColorIndex
 90
      256
102
RTVSPost2010Prop51ColorRGB
 90
-16777216
102
RTVSPost2010PropOp51
 70
     0
102
RTVSPost2010Prop52
140
1.0
102
RTVSPost2010PropOp52
 70
     0
102
RTVSPost2010Prop53
 90
        2
102
RTVSPost2010PropOp53
 70
     1
102
RTVSPost2010Prop54
  1
strokes_ogs.tif
102
RTVSPost2010PropOp54
 70
     1
102
RTVSPost2010Prop55
280
     0
102
RTVSPost2010PropOp55
 70
     1
102
RTVSPost2010Prop56
140
1.0
102
RTVSPost2010PropOp56
 70
     1
102
RTVSPost2010Prop57
140
1.0
102
RTVSPost2010PropOp57
 70
     1
102
RTVSPropertyOp0
 70
     1
102
RTVSPropertyOp1
 70
     1
102
RTVSPropertyOp2
 70
     1
102
RTVSPropertyOp3
 70
     1
102
RTVSPropertyOp4
 70
     1
102
RTVSPropertyOp5
 70
     1
102
RTVSPropertyOp6
 70
     1
102
RTVSPropertyOp7
 70
     1
102
RTVSPropertyOp8
 70
     1
102
RTVSPropertyOp9
 70
     1
102
RTVSPropertyOp10
 70
     1
102
RTVSPropertyOp11
 70
     1
102
RTVSPropertyOp12
 70
     1
102
RTVSPropertyOp13
 70
     1
102
RTVSPropertyOp14
 70
     1
102
RTVSPropertyOp15
 70
     1
102
RTVSPropertyOp16
 70
     1
102
RTVSPropertyOp17
 70
     1
102
RTVSPropertyOp18
 70
     1
102
RTVSPropertyOp19
 70
     1
102
RTVSPropertyOp20
 70
     1
102
RTVSPropertyOp21
 70
     1
102
RTVSPropertyOp22
 70
     1
102
RTVSPropertyOp23
 70
     1
102
RTVSPropertyOp24
 70
     1
102
RTVSPropertyOp25
 70
     1
102
RTVSPropertyOp26
 70
     1
102
RTVSPropertyOp27
 70
     1
102
RTVSPropertyOp28
 70
     1
102
RTVSPropertyOp29
 70
     1
102
RTVSPropertyOp30
 70
     1
102
RTVSPropertyOp31
 70
     1
102
RTVSPropertyOp32
 70
     1
102
RTVSPropertyOp33
 70
     1
102
RTVSPropertyOp34
 70
     1
102
RTVSPropertyOp35
 70
     1
102
RTVSPropertyOp36
 70
     1
102
RTVSPropertyOp37
 70
     1
102
RTVSPropertyOp38
 70
     1
102
RTVSPropertyOp39
 70
     1
102
RTVSPropertyOp40
 70
     1
102
RTVSPropertyOp41
 70
     1
102
RTVSPropertyOp42
 70
     1
102
RTVSPropertyOp43
 70
     1
102
RTVSPropertyOp44
 70
     1
102
RTVSPropertyOp45
 70
     1
102
RTVSPropertyOp46
 70
     1
102
RTVSPropertyOp47
 70
     1
102
RTVSPropertyOp48
 70
     1
102
RTVSPropertyOp49
 70
     1
102
RTVSPropertyOp50
 70
     1
102
RTVSPropertyOp51
 70
     0
102
RTVSPropertyOp52
 70
     0
102
RTVSPropertyOp53
 70
     1
102
RTVSPropertyOp54
 70
     1
102
RTVSPropertyOp55
 70
     1
102
RTVSPropertyOp56
 70
     1
102
RTVSPropertyOp57
 70
     1
102
RTVSPropertyOp58
 70
     1
102
RTVSPropertyOp59
 70
     1
102
RTVSPropertyOp60
 70
     1
102
RTVSPropertyOp61
 70
     1
102
RTVSPropertyOp62
 70
     1
  0
XRECORD
  5
AAA2
102
{ACAD_REACTORS
330
AAA1
102
}
330
AAA1
100
AcDbXrecord
280
     1
102
RTVSPost2010Prop28
280
     0
102
RTVSPost2010PropOp28
 70
     1
102
RTVSPost2010Prop29
280
     1
102
RTVSPost2010PropOp29
 70
     1
102
RTVSPost2010Prop30
280
     1
102
RTVSPost2010PropOp30
 70
     1
102
RTVSPost2010Prop31
280
     0
102
RTVSPost2010PropOp31
 70
     1
102
RTVSPost2010Prop32
280
     0
102
RTVSPost2010PropOp32
 70
     1
102
RTVSPost2010Prop33
280
     0
102
RTVSPost2010PropOp33
 70
     1
102
RTVSPost2010Prop34
280
     0
102
RTVSPost2010PropOp34
 70
     1
102
RTVSPost2010Prop35
280
     0
102
RTVSPost2010PropOp35
 70
     1
102
RTVSPost2010Prop36
280
     0
102
RTVSPost2010PropOp36
 70
     1
102
RTVSPost2010Prop37
 90
       50
102
RTVSPost2010PropOp37
 70
     1
102
RTVSPost2010Prop38
140
0.0
102
RTVSPost2010PropOp38
 70
     1
102
RTVSPost2010Prop39
140
1.0
102
RTVSPost2010PropOp39
 70
     1
102
RTVSPost2010Prop40
 90
        0
102
RTVSPost2010PropOp40
 70
     1
102
RTVSPost2010Prop41ColorIndex
 90
       18
102
RTVSPost2010Prop41ColorRGB
 90
        0
102
RTVSPost2010PropOp41
 70
     1
102
RTVSPost2010Prop42
 90
       50
102
RTVSPost2010PropOp42
 70
     1
102
RTVSPost2010Prop43
 90
        3
102
RTVSPost2010PropOp43
 70
     1
102
RTVSPost2010Prop44ColorIndex
 90
        5
102
RTVSPost2010Prop44ColorRGB
 90
      255
102
RTVSPost2010PropOp44
 70
     1
102
RTVSPost2010Prop45
280
     0
102
RTVSPost2010PropOp45
 70
     1
102
RTVSPost2010Prop46
 90
       50
102
RTVSPost2010PropOp46
 70
     1
102
RTVSPost2010Prop47
 90
       50
102
RTVSPost2010PropOp47
 70
     1
102
RTVSPost2010Prop48
 90
       50
102
RTVSPost2010PropOp48
 70
     1
102
RTVSPost2010Prop49
280
     0
102
RTVSPost2010PropOp49
 70
     1
102
RTVSPost2010Prop50
 90
       50
102
RTVSPost2010PropOp50
 70
     1
102
RTVSPost2010Prop51ColorIndex
 90
      256
102
RTVSPost2010Prop51ColorRGB
 90
-16777216
102
RTVSPost2010PropOp51
 70
     0
102
RTVSPost2010Prop52
140
1.0
102
RTVSPost2010PropOp52
 70
     0
102
RTVSPost2010Prop53
 90
        2
102
RTVSPost2010PropOp53
 70
     1
102
RTVSPost2010Prop54
  1
strokes_ogs.tif
102
RTVSPost2010PropOp54
 70
     1
102
RTVSPost2010Prop55
280
     0
102
RTVSPost2010PropOp55
 70
     1
102
RTVSPost2010Prop56
140
1.0
102
RTVSPost2010PropOp56
 70
     1
102
RTVSPost2010Prop57
140
1.0
102
RTVSPost2010PropOp57
 70
     1
102
RTVSPropertyOp0
 70
     1
102
RTVSPropertyOp1
 70
     1
102
RTVSPropertyOp2
 70
     1
102
RTVSPropertyOp3
 70
     1
102
RTVSPropertyOp4
 70
     1
102
RTVSPropertyOp5
 70
     1
102
RTVSPropertyOp6
 70
     1
102
RTVSPropertyOp7
 70
     1
102
RTVSPropertyOp8
 70
     1
102
RTVSPropertyOp9
 70
     1
102
RTVSPropertyOp10
 70
     1
102
RTVSPropertyOp11
 70
     1
102
RTVSPropertyOp12
 70
     1
102
RTVSPropertyOp13
 70
     1
102
RTVSPropertyOp14
 70
     1
102
RTVSPropertyOp15
 70
     1
102
RTVSPropertyOp16
 70
     1
102
RTVSPropertyOp17
 70
     1
102
RTVSPropertyOp18
 70
     1
102
RTVSPropertyOp19
 70
     1
102
RTVSPropertyOp20
 70
     1
102
RTVSPropertyOp21
 70
     1
102
RTVSPropertyOp22
 70
     1
102
RTVSPropertyOp23
 70
     1
102
RTVSPropertyOp24
 70
     1
102
RTVSPropertyOp25
 70
     1
102
RTVSPropertyOp26
 70
     1
102
RTVSPropertyOp27
 70
     1
102
RTVSPropertyOp28
 70
     1
102
RTVSPropertyOp29
 70
     1
102
RTVSPropertyOp30
 70
     1
102
RTVSPropertyOp31
 70
     1
102
RTVSPropertyOp32
 70
     1
102
RTVSPropertyOp33
 70
     1
102
RTVSPropertyOp34
 70
     1
102
RTVSPropertyOp35
 70
     1
102
RTVSPropertyOp36
 70
     1
102
RTVSPropertyOp37
 70
     1
102
RTVSPropertyOp38
 70
     1
102
RTVSPropertyOp39
 70
     1
102
RTVSPropertyOp40
 70
     1
102
RTVSPropertyOp41
 70
     1
102
RTVSPropertyOp42
 70
     1
102
RTVSPropertyOp43
 70
     1
102
RTVSPropertyOp44
 70
     1
102
RTVSPropertyOp45
 70
     1
102
RTVSPropertyOp46
 70
     1
102
RTVSPropertyOp47
 70
     1
102
RTVSPropertyOp48
 70
     1
102
RTVSPropertyOp49
 70
     1
102
RTVSPropertyOp50
 70
     1
102
RTVSPropertyOp51
 70
     0
102
RTVSPropertyOp52
 70
     0
102
RTVSPropertyOp53
 70
     1
102
RTVSPropertyOp54
 70
     1
102
RTVSPropertyOp55
 70
     1
102
RTVSPropertyOp56
 70
     1
102
RTVSPropertyOp57
 70
     1
102
RTVSPropertyOp58
 70
     1
102
RTVSPropertyOp59
 70
     1
102
RTVSPropertyOp60
 70
     1
102
RTVSPropertyOp61
 70
     1
102
RTVSPropertyOp62
 70
     1
  0
XRECORD
  5
AA9C
102
{ACAD_REACTORS
330
AA9B
102
}
330
AA9B
100
AcDbXrecord
280
     1
102
RTVSPost2010Prop28
280
     0
102
RTVSPost2010PropOp28
 70
     1
102
RTVSPost2010Prop29
280
     1
102
RTVSPost2010PropOp29
 70
     1
102
RTVSPost2010Prop30
280
     1
102
RTVSPost2010PropOp30
 70
     1
102
RTVSPost2010Prop31
280
     0
102
RTVSPost2010PropOp31
 70
     1
102
RTVSPost2010Prop32
280
     0
102
RTVSPost2010PropOp32
 70
     1
102
RTVSPost2010Prop33
280
     0
102
RTVSPost2010PropOp33
 70
     1
102
RTVSPost2010Prop34
280
     0
102
RTVSPost2010PropOp34
 70
     1
102
RTVSPost2010Prop35
280
     0
102
RTVSPost2010PropOp35
 70
     1
102
RTVSPost2010Prop36
280
     0
102
RTVSPost2010PropOp36
 70
     1
102
RTVSPost2010Prop37
 90
       50
102
RTVSPost2010PropOp37
 70
     1
102
RTVSPost2010Prop38
140
0.0
102
RTVSPost2010PropOp38
 70
     1
102
RTVSPost2010Prop39
140
1.0
102
RTVSPost2010PropOp39
 70
     1
102
RTVSPost2010Prop40
 90
        0
102
RTVSPost2010PropOp40
 70
     1
102
RTVSPost2010Prop41ColorIndex
 90
       18
102
RTVSPost2010Prop41ColorRGB
 90
        0
102
RTVSPost2010PropOp41
 70
     1
102
RTVSPost2010Prop42
 90
       50
102
RTVSPost2010PropOp42
 70
     1
102
RTVSPost2010Prop43
 90
        3
102
RTVSPost2010PropOp43
 70
     1
102
RTVSPost2010Prop44ColorIndex
 90
        5
102
RTVSPost2010Prop44ColorRGB
 90
      255
102
RTVSPost2010PropOp44
 70
     1
102
RTVSPost2010Prop45
280
     0
102
RTVSPost2010PropOp45
 70
     1
102
RTVSPost2010Prop46
 90
       50
102
RTVSPost2010PropOp46
 70
     1
102
RTVSPost2010Prop47
 90
       50
102
RTVSPost2010PropOp47
 70
     1
102
RTVSPost2010Prop48
 90
       50
102
RTVSPost2010PropOp48
 70
     1
102
RTVSPost2010Prop49
280
     0
102
RTVSPost2010PropOp49
 70
     1
102
RTVSPost2010Prop50
 90
       50
102
RTVSPost2010PropOp50
 70
     1
102
RTVSPost2010Prop51ColorIndex
 90
      256
102
RTVSPost2010Prop51ColorRGB
 90
-16777216
102
RTVSPost2010PropOp51
 70
     0
102
RTVSPost2010Prop52
140
1.0
102
RTVSPost2010PropOp52
 70
     0
102
RTVSPost2010Prop53
 90
        2
102
RTVSPost2010PropOp53
 70
     1
102
RTVSPost2010Prop54
  1
strokes_ogs.tif
102
RTVSPost2010PropOp54
 70
     1
102
RTVSPost2010Prop55
280
     0
102
RTVSPost2010PropOp55
 70
     1
102
RTVSPost2010Prop56
140
1.0
102
RTVSPost2010PropOp56
 70
     1
102
RTVSPost2010Prop57
140
1.0
102
RTVSPost2010PropOp57
 70
     1
102
RTVSPropertyOp0
 70
     1
102
RTVSPropertyOp1
 70
     1
102
RTVSPropertyOp2
 70
     1
102
RTVSPropertyOp3
 70
     1
102
RTVSPropertyOp4
 70
     1
102
RTVSPropertyOp5
 70
     1
102
RTVSPropertyOp6
 70
     1
102
RTVSPropertyOp7
 70
     1
102
RTVSPropertyOp8
 70
     1
102
RTVSPropertyOp9
 70
     1
102
RTVSPropertyOp10
 70
     1
102
RTVSPropertyOp11
 70
     1
102
RTVSPropertyOp12
 70
     1
102
RTVSPropertyOp13
 70
     1
102
RTVSPropertyOp14
 70
     1
102
RTVSPropertyOp15
 70
     1
102
RTVSPropertyOp16
 70
     1
102
RTVSPropertyOp17
 70
     1
102
RTVSPropertyOp18
 70
     1
102
RTVSPropertyOp19
 70
     1
102
RTVSPropertyOp20
 70
     1
102
RTVSPropertyOp21
 70
     1
102
RTVSPropertyOp22
 70
     1
102
RTVSPropertyOp23
 70
     1
102
RTVSPropertyOp24
 70
     1
102
RTVSPropertyOp25
 70
     1
102
RTVSPropertyOp26
 70
     1
102
RTVSPropertyOp27
 70
     1
102
RTVSPropertyOp28
 70
     1
102
RTVSPropertyOp29
 70
     1
102
RTVSPropertyOp30
 70
     1
102
RTVSPropertyOp31
 70
     1
102
RTVSPropertyOp32
 70
     1
102
RTVSPropertyOp33
 70
     1
102
RTVSPropertyOp34
 70
     1
102
RTVSPropertyOp35
 70
     1
102
RTVSPropertyOp36
 70
     1
102
RTVSPropertyOp37
 70
     1
102
RTVSPropertyOp38
 70
     1
102
RTVSPropertyOp39
 70
     1
102
RTVSPropertyOp40
 70
     1
102
RTVSPropertyOp41
 70
     1
102
RTVSPropertyOp42
 70
     1
102
RTVSPropertyOp43
 70
     1
102
RTVSPropertyOp44
 70
     1
102
RTVSPropertyOp45
 70
     1
102
RTVSPropertyOp46
 70
     1
102
RTVSPropertyOp47
 70
     1
102
RTVSPropertyOp48
 70
     1
102
RTVSPropertyOp49
 70
     1
102
RTVSPropertyOp50
 70
     1
102
RTVSPropertyOp51
 70
     0
102
RTVSPropertyOp52
 70
     0
102
RTVSPropertyOp53
 70
     1
102
RTVSPropertyOp54
 70
     1
102
RTVSPropertyOp55
 70
     1
102
RTVSPropertyOp56
 70
     1
102
RTVSPropertyOp57
 70
     1
102
RTVSPropertyOp58
 70
     1
102
RTVSPropertyOp59
 70
     1
102
RTVSPropertyOp60
 70
     1
102
RTVSPropertyOp61
 70
     1
102
RTVSPropertyOp62
 70
     1
  0
XRECORD
  5
AA9E
102
{ACAD_REACTORS
330
AA9D
102
}
330
AA9D
100
AcDbXrecord
280
     1
102
RTVSPost2010Prop28
280
     0
102
RTVSPost2010PropOp28
 70
     1
102
RTVSPost2010Prop29
280
     1
102
RTVSPost2010PropOp29
 70
     1
102
RTVSPost2010Prop30
280
     1
102
RTVSPost2010PropOp30
 70
     1
102
RTVSPost2010Prop31
280
     0
102
RTVSPost2010PropOp31
 70
     1
102
RTVSPost2010Prop32
280
     0
102
RTVSPost2010PropOp32
 70
     1
102
RTVSPost2010Prop33
280
     0
102
RTVSPost2010PropOp33
 70
     1
102
RTVSPost2010Prop34
280
     0
102
RTVSPost2010PropOp34
 70
     1
102
RTVSPost2010Prop35
280
     0
102
RTVSPost2010PropOp35
 70
     1
102
RTVSPost2010Prop36
280
     0
102
RTVSPost2010PropOp36
 70
     1
102
RTVSPost2010Prop37
 90
       50
102
RTVSPost2010PropOp37
 70
     1
102
RTVSPost2010Prop38
140
0.0
102
RTVSPost2010PropOp38
 70
     1
102
RTVSPost2010Prop39
140
1.0
102
RTVSPost2010PropOp39
 70
     1
102
RTVSPost2010Prop40
 90
        0
102
RTVSPost2010PropOp40
 70
     1
102
RTVSPost2010Prop41ColorIndex
 90
       18
102
RTVSPost2010Prop41ColorRGB
 90
        0
102
RTVSPost2010PropOp41
 70
     1
102
RTVSPost2010Prop42
 90
       50
102
RTVSPost2010PropOp42
 70
     1
102
RTVSPost2010Prop43
 90
        3
102
RTVSPost2010PropOp43
 70
     1
102
RTVSPost2010Prop44ColorIndex
 90
        5
102
RTVSPost2010Prop44ColorRGB
 90
      255
102
RTVSPost2010PropOp44
 70
     1
102
RTVSPost2010Prop45
280
     0
102
RTVSPost2010PropOp45
 70
     1
102
RTVSPost2010Prop46
 90
       50
102
RTVSPost2010PropOp46
 70
     1
102
RTVSPost2010Prop47
 90
       50
102
RTVSPost2010PropOp47
 70
     1
102
RTVSPost2010Prop48
 90
       50
102
RTVSPost2010PropOp48
 70
     1
102
RTVSPost2010Prop49
280
     0
102
RTVSPost2010PropOp49
 70
     1
102
RTVSPost2010Prop50
 90
       50
102
RTVSPost2010PropOp50
 70
     1
102
RTVSPost2010Prop51ColorIndex
 90
      256
102
RTVSPost2010Prop51ColorRGB
 90
-16777216
102
RTVSPost2010PropOp51
 70
     0
102
RTVSPost2010Prop52
140
1.0
102
RTVSPost2010PropOp52
 70
     0
102
RTVSPost2010Prop53
 90
        2
102
RTVSPost2010PropOp53
 70
     1
102
RTVSPost2010Prop54
  1
strokes_ogs.tif
102
RTVSPost2010PropOp54
 70
     1
102
RTVSPost2010Prop55
280
     0
102
RTVSPost2010PropOp55
 70
     1
102
RTVSPost2010Prop56
140
1.0
102
RTVSPost2010PropOp56
 70
     1
102
RTVSPost2010Prop57
140
1.0
102
RTVSPost2010PropOp57
 70
     1
102
RTVSPropertyOp0
 70
     1
102
RTVSPropertyOp1
 70
     1
102
RTVSPropertyOp2
 70
     1
102
RTVSPropertyOp3
 70
     1
102
RTVSPropertyOp4
 70
     1
102
RTVSPropertyOp5
 70
     1
102
RTVSPropertyOp6
 70
     1
102
RTVSPropertyOp7
 70
     1
102
RTVSPropertyOp8
 70
     1
102
RTVSPropertyOp9
 70
     1
102
RTVSPropertyOp10
 70
     1
102
RTVSPropertyOp11
 70
     1
102
RTVSPropertyOp12
 70
     1
102
RTVSPropertyOp13
 70
     1
102
RTVSPropertyOp14
 70
     1
102
RTVSPropertyOp15
 70
     1
102
RTVSPropertyOp16
 70
     1
102
RTVSPropertyOp17
 70
     1
102
RTVSPropertyOp18
 70
     1
102
RTVSPropertyOp19
 70
     1
102
RTVSPropertyOp20
 70
     1
102
RTVSPropertyOp21
 70
     1
102
RTVSPropertyOp22
 70
     1
102
RTVSPropertyOp23
 70
     1
102
RTVSPropertyOp24
 70
     1
102
RTVSPropertyOp25
 70
     1
102
RTVSPropertyOp26
 70
     1
102
RTVSPropertyOp27
 70
     1
102
RTVSPropertyOp28
 70
     1
102
RTVSPropertyOp29
 70
     1
102
RTVSPropertyOp30
 70
     1
102
RTVSPropertyOp31
 70
     1
102
RTVSPropertyOp32
 70
     1
102
RTVSPropertyOp33
 70
     1
102
RTVSPropertyOp34
 70
     1
102
RTVSPropertyOp35
 70
     1
102
RTVSPropertyOp36
 70
     1
102
RTVSPropertyOp37
 70
     1
102
RTVSPropertyOp38
 70
     1
102
RTVSPropertyOp39
 70
     1
102
RTVSPropertyOp40
 70
     1
102
RTVSPropertyOp41
 70
     1
102
RTVSPropertyOp42
 70
     1
102
RTVSPropertyOp43
 70
     1
102
RTVSPropertyOp44
 70
     1
102
RTVSPropertyOp45
 70
     1
102
RTVSPropertyOp46
 70
     1
102
RTVSPropertyOp47
 70
     1
102
RTVSPropertyOp48
 70
     1
102
RTVSPropertyOp49
 70
     1
102
RTVSPropertyOp50
 70
     1
102
RTVSPropertyOp51
 70
     0
102
RTVSPropertyOp52
 70
     0
102
RTVSPropertyOp53
 70
     1
102
RTVSPropertyOp54
 70
     1
102
RTVSPropertyOp55
 70
     1
102
RTVSPropertyOp56
 70
     1
102
RTVSPropertyOp57
 70
     1
102
RTVSPropertyOp58
 70
     1
102
RTVSPropertyOp59
 70
     1
102
RTVSPropertyOp60
 70
     1
102
RTVSPropertyOp61
 70
     1
102
RTVSPropertyOp62
 70
     1
  0
XRECORD
  5
AA94
102
{ACAD_REACTORS
330
AA93
102
}
330
AA93
100
AcDbXrecord
280
     1
102
RTVSPost2010Prop28
280
     0
102
RTVSPost2010PropOp28
 70
     1
102
RTVSPost2010Prop29
280
     1
102
RTVSPost2010PropOp29
 70
     1
102
RTVSPost2010Prop30
280
     1
102
RTVSPost2010PropOp30
 70
     1
102
RTVSPost2010Prop31
280
     0
102
RTVSPost2010PropOp31
 70
     1
102
RTVSPost2010Prop32
280
     0
102
RTVSPost2010PropOp32
 70
     1
102
RTVSPost2010Prop33
280
     0
102
RTVSPost2010PropOp33
 70
     1
102
RTVSPost2010Prop34
280
     0
102
RTVSPost2010PropOp34
 70
     1
102
RTVSPost2010Prop35
280
     0
102
RTVSPost2010PropOp35
 70
     1
102
RTVSPost2010Prop36
280
     0
102
RTVSPost2010PropOp36
 70
     1
102
RTVSPost2010Prop37
 90
       50
102
RTVSPost2010PropOp37
 70
     1
102
RTVSPost2010Prop38
140
0.0
102
RTVSPost2010PropOp38
 70
     1
102
RTVSPost2010Prop39
140
1.0
102
RTVSPost2010PropOp39
 70
     1
102
RTVSPost2010Prop40
 90
        0
102
RTVSPost2010PropOp40
 70
     1
102
RTVSPost2010Prop41ColorIndex
 90
       18
102
RTVSPost2010Prop41ColorRGB
 90
        0
102
RTVSPost2010PropOp41
 70
     1
102
RTVSPost2010Prop42
 90
       50
102
RTVSPost2010PropOp42
 70
     1
102
RTVSPost2010Prop43
 90
        3
102
RTVSPost2010PropOp43
 70
     1
102
RTVSPost2010Prop44ColorIndex
 90
        5
102
RTVSPost2010Prop44ColorRGB
 90
      255
102
RTVSPost2010PropOp44
 70
     1
102
RTVSPost2010Prop45
280
     0
102
RTVSPost2010PropOp45
 70
     1
102
RTVSPost2010Prop46
 90
       50
102
RTVSPost2010PropOp46
 70
     1
102
RTVSPost2010Prop47
 90
       50
102
RTVSPost2010PropOp47
 70
     1
102
RTVSPost2010Prop48
 90
       50
102
RTVSPost2010PropOp48
 70
     1
102
RTVSPost2010Prop49
280
     0
102
RTVSPost2010PropOp49
 70
     1
102
RTVSPost2010Prop50
 90
       50
102
RTVSPost2010PropOp50
 70
     1
102
RTVSPost2010Prop51ColorIndex
 90
      256
102
RTVSPost2010Prop51ColorRGB
 90
-16777216
102
RTVSPost2010PropOp51
 70
     0
102
RTVSPost2010Prop52
140
1.0
102
RTVSPost2010PropOp52
 70
     0
102
RTVSPost2010Prop53
 90
        2
102
RTVSPost2010PropOp53
 70
     1
102
RTVSPost2010Prop54
  1
strokes_ogs.tif
102
RTVSPost2010PropOp54
 70
     1
102
RTVSPost2010Prop55
280
     0
102
RTVSPost2010PropOp55
 70
     1
102
RTVSPost2010Prop56
140
1.0
102
RTVSPost2010PropOp56
 70
     1
102
RTVSPost2010Prop57
140
1.0
102
RTVSPost2010PropOp57
 70
     1
102
RTVSPropertyOp0
 70
     1
102
RTVSPropertyOp1
 70
     1
102
RTVSPropertyOp2
 70
     1
102
RTVSPropertyOp3
 70
     1
102
RTVSPropertyOp4
 70
     1
102
RTVSPropertyOp5
 70
     1
102
RTVSPropertyOp6
 70
     1
102
RTVSPropertyOp7
 70
     1
102
RTVSPropertyOp8
 70
     1
102
RTVSPropertyOp9
 70
     1
102
RTVSPropertyOp10
 70
     1
102
RTVSPropertyOp11
 70
     1
102
RTVSPropertyOp12
 70
     1
102
RTVSPropertyOp13
 70
     1
102
RTVSPropertyOp14
 70
     1
102
RTVSPropertyOp15
 70
     1
102
RTVSPropertyOp16
 70
     1
102
RTVSPropertyOp17
 70
     1
102
RTVSPropertyOp18
 70
     1
102
RTVSPropertyOp19
 70
     1
102
RTVSPropertyOp20
 70
     1
102
RTVSPropertyOp21
 70
     1
102
RTVSPropertyOp22
 70
     1
102
RTVSPropertyOp23
 70
     1
102
RTVSPropertyOp24
 70
     1
102
RTVSPropertyOp25
 70
     1
102
RTVSPropertyOp26
 70
     1
102
RTVSPropertyOp27
 70
     1
102
RTVSPropertyOp28
 70
     1
102
RTVSPropertyOp29
 70
     1
102
RTVSPropertyOp30
 70
     1
102
RTVSPropertyOp31
 70
     1
102
RTVSPropertyOp32
 70
     1
102
RTVSPropertyOp33
 70
     1
102
RTVSPropertyOp34
 70
     1
102
RTVSPropertyOp35
 70
     1
102
RTVSPropertyOp36
 70
     1
102
RTVSPropertyOp37
 70
     1
102
RTVSPropertyOp38
 70
     1
102
RTVSPropertyOp39
 70
     1
102
RTVSPropertyOp40
 70
     1
102
RTVSPropertyOp41
 70
     1
102
RTVSPropertyOp42
 70
     1
102
RTVSPropertyOp43
 70
     1
102
RTVSPropertyOp44
 70
     1
102
RTVSPropertyOp45
 70
     1
102
RTVSPropertyOp46
 70
     1
102
RTVSPropertyOp47
 70
     1
102
RTVSPropertyOp48
 70
     1
102
RTVSPropertyOp49
 70
     1
102
RTVSPropertyOp50
 70
     1
102
RTVSPropertyOp51
 70
     0
102
RTVSPropertyOp52
 70
     0
102
RTVSPropertyOp53
 70
     1
102
RTVSPropertyOp54
 70
     1
102
RTVSPropertyOp55
 70
     1
102
RTVSPropertyOp56
 70
     1
102
RTVSPropertyOp57
 70
     1
102
RTVSPropertyOp58
 70
     1
102
RTVSPropertyOp59
 70
     1
102
RTVSPropertyOp60
 70
     1
102
RTVSPropertyOp61
 70
     1
102
RTVSPropertyOp62
 70
     1
  0
XRECORD
  5
AA88
102
{ACAD_REACTORS
330
AA87
102
}
330
AA87
100
AcDbXrecord
280
     1
102
RTVSPost2010Prop28
280
     0
102
RTVSPost2010PropOp28
 70
     1
102
RTVSPost2010Prop29
280
     1
102
RTVSPost2010PropOp29
 70
     1
102
RTVSPost2010Prop30
280
     1
102
RTVSPost2010PropOp30
 70
     1
102
RTVSPost2010Prop31
280
     0
102
RTVSPost2010PropOp31
 70
     1
102
RTVSPost2010Prop32
280
     0
102
RTVSPost2010PropOp32
 70
     1
102
RTVSPost2010Prop33
280
     0
102
RTVSPost2010PropOp33
 70
     1
102
RTVSPost2010Prop34
280
     0
102
RTVSPost2010PropOp34
 70
     1
102
RTVSPost2010Prop35
280
     0
102
RTVSPost2010PropOp35
 70
     1
102
RTVSPost2010Prop36
280
     0
102
RTVSPost2010PropOp36
 70
     1
102
RTVSPost2010Prop37
 90
       50
102
RTVSPost2010PropOp37
 70
     1
102
RTVSPost2010Prop38
140
0.0
102
RTVSPost2010PropOp38
 70
     1
102
RTVSPost2010Prop39
140
1.0
102
RTVSPost2010PropOp39
 70
     1
102
RTVSPost2010Prop40
 90
        0
102
RTVSPost2010PropOp40
 70
     1
102
RTVSPost2010Prop41ColorIndex
 90
       18
102
RTVSPost2010Prop41ColorRGB
 90
        0
102
RTVSPost2010PropOp41
 70
     1
102
RTVSPost2010Prop42
 90
       50
102
RTVSPost2010PropOp42
 70
     1
102
RTVSPost2010Prop43
 90
        3
102
RTVSPost2010PropOp43
 70
     1
102
RTVSPost2010Prop44ColorIndex
 90
        5
102
RTVSPost2010Prop44ColorRGB
 90
      255
102
RTVSPost2010PropOp44
 70
     1
102
RTVSPost2010Prop45
280
     0
102
RTVSPost2010PropOp45
 70
     1
102
RTVSPost2010Prop46
 90
       50
102
RTVSPost2010PropOp46
 70
     1
102
RTVSPost2010Prop47
 90
       50
102
RTVSPost2010PropOp47
 70
     1
102
RTVSPost2010Prop48
 90
       50
102
RTVSPost2010PropOp48
 70
     1
102
RTVSPost2010Prop49
280
     0
102
RTVSPost2010PropOp49
 70
     1
102
RTVSPost2010Prop50
 90
       50
102
RTVSPost2010PropOp50
 70
     1
102
RTVSPost2010Prop51ColorIndex
 90
      256
102
RTVSPost2010Prop51ColorRGB
 90
-16777216
102
RTVSPost2010PropOp51
 70
     0
102
RTVSPost2010Prop52
140
1.0
102
RTVSPost2010PropOp52
 70
     0
102
RTVSPost2010Prop53
 90
        2
102
RTVSPost2010PropOp53
 70
     1
102
RTVSPost2010Prop54
  1
strokes_ogs.tif
102
RTVSPost2010PropOp54
 70
     1
102
RTVSPost2010Prop55
280
     0
102
RTVSPost2010PropOp55
 70
     1
102
RTVSPost2010Prop56
140
1.0
102
RTVSPost2010PropOp56
 70
     1
102
RTVSPost2010Prop57
140
1.0
102
RTVSPost2010PropOp57
 70
     1
102
RTVSPropertyOp0
 70
     1
102
RTVSPropertyOp1
 70
     1
102
RTVSPropertyOp2
 70
     1
102
RTVSPropertyOp3
 70
     1
102
RTVSPropertyOp4
 70
     1
102
RTVSPropertyOp5
 70
     1
102
RTVSPropertyOp6
 70
     1
102
RTVSPropertyOp7
 70
     1
102
RTVSPropertyOp8
 70
     1
102
RTVSPropertyOp9
 70
     1
102
RTVSPropertyOp10
 70
     1
102
RTVSPropertyOp11
 70
     1
102
RTVSPropertyOp12
 70
     1
102
RTVSPropertyOp13
 70
     1
102
RTVSPropertyOp14
 70
     1
102
RTVSPropertyOp15
 70
     1
102
RTVSPropertyOp16
 70
     1
102
RTVSPropertyOp17
 70
     1
102
RTVSPropertyOp18
 70
     1
102
RTVSPropertyOp19
 70
     1
102
RTVSPropertyOp20
 70
     1
102
RTVSPropertyOp21
 70
     1
102
RTVSPropertyOp22
 70
     1
102
RTVSPropertyOp23
 70
     1
102
RTVSPropertyOp24
 70
     1
102
RTVSPropertyOp25
 70
     1
102
RTVSPropertyOp26
 70
     1
102
RTVSPropertyOp27
 70
     1
102
RTVSPropertyOp28
 70
     1
102
RTVSPropertyOp29
 70
     1
102
RTVSPropertyOp30
 70
     1
102
RTVSPropertyOp31
 70
     1
102
RTVSPropertyOp32
 70
     1
102
RTVSPropertyOp33
 70
     1
102
RTVSPropertyOp34
 70
     1
102
RTVSPropertyOp35
 70
     1
102
RTVSPropertyOp36
 70
     1
102
RTVSPropertyOp37
 70
     1
102
RTVSPropertyOp38
 70
     1
102
RTVSPropertyOp39
 70
     1
102
RTVSPropertyOp40
 70
     1
102
RTVSPropertyOp41
 70
     1
102
RTVSPropertyOp42
 70
     1
102
RTVSPropertyOp43
 70
     1
102
RTVSPropertyOp44
 70
     1
102
RTVSPropertyOp45
 70
     1
102
RTVSPropertyOp46
 70
     1
102
RTVSPropertyOp47
 70
     1
102
RTVSPropertyOp48
 70
     1
102
RTVSPropertyOp49
 70
     1
102
RTVSPropertyOp50
 70
     1
102
RTVSPropertyOp51
 70
     0
102
RTVSPropertyOp52
 70
     0
102
RTVSPropertyOp53
 70
     1
102
RTVSPropertyOp54
 70
     1
102
RTVSPropertyOp55
 70
     1
102
RTVSPropertyOp56
 70
     1
102
RTVSPropertyOp57
 70
     1
102
RTVSPropertyOp58
 70
     1
102
RTVSPropertyOp59
 70
     1
102
RTVSPropertyOp60
 70
     1
102
RTVSPropertyOp61
 70
     1
102
RTVSPropertyOp62
 70
     1
  0
XRECORD
  5
AAA0
102
{ACAD_REACTORS
330
AA9F
102
}
330
AA9F
100
AcDbXrecord
280
     1
102
RTVSPost2010Prop28
280
     0
102
RTVSPost2010PropOp28
 70
     1
102
RTVSPost2010Prop29
280
     1
102
RTVSPost2010PropOp29
 70
     1
102
RTVSPost2010Prop30
280
     1
102
RTVSPost2010PropOp30
 70
     1
102
RTVSPost2010Prop31
280
     0
102
RTVSPost2010PropOp31
 70
     1
102
RTVSPost2010Prop32
280
     0
102
RTVSPost2010PropOp32
 70
     1
102
RTVSPost2010Prop33
280
     0
102
RTVSPost2010PropOp33
 70
     1
102
RTVSPost2010Prop34
280
     0
102
RTVSPost2010PropOp34
 70
     1
102
RTVSPost2010Prop35
280
     0
102
RTVSPost2010PropOp35
 70
     1
102
RTVSPost2010Prop36
280
     0
102
RTVSPost2010PropOp36
 70
     1
102
RTVSPost2010Prop37
 90
       50
102
RTVSPost2010PropOp37
 70
     1
102
RTVSPost2010Prop38
140
0.0
102
RTVSPost2010PropOp38
 70
     1
102
RTVSPost2010Prop39
140
1.0
102
RTVSPost2010PropOp39
 70
     1
102
RTVSPost2010Prop40
 90
        0
102
RTVSPost2010PropOp40
 70
     1
102
RTVSPost2010Prop41ColorIndex
 90
       18
102
RTVSPost2010Prop41ColorRGB
 90
        0
102
RTVSPost2010PropOp41
 70
     1
102
RTVSPost2010Prop42
 90
       50
102
RTVSPost2010PropOp42
 70
     1
102
RTVSPost2010Prop43
 90
        3
102
RTVSPost2010PropOp43
 70
     1
102
RTVSPost2010Prop44ColorIndex
 90
        5
102
RTVSPost2010Prop44ColorRGB
 90
      255
102
RTVSPost2010PropOp44
 70
     1
102
RTVSPost2010Prop45
280
     0
102
RTVSPost2010PropOp45
 70
     1
102
RTVSPost2010Prop46
 90
       50
102
RTVSPost2010PropOp46
 70
     1
102
RTVSPost2010Prop47
 90
       50
102
RTVSPost2010PropOp47
 70
     1
102
RTVSPost2010Prop48
 90
       50
102
RTVSPost2010PropOp48
 70
     1
102
RTVSPost2010Prop49
280
     0
102
RTVSPost2010PropOp49
 70
     1
102
RTVSPost2010Prop50
 90
       50
102
RTVSPost2010PropOp50
 70
     1
102
RTVSPost2010Prop51ColorIndex
 90
      256
102
RTVSPost2010Prop51ColorRGB
 90
-16777216
102
RTVSPost2010PropOp51
 70
     0
102
RTVSPost2010Prop52
140
1.0
102
RTVSPost2010PropOp52
 70
     0
102
RTVSPost2010Prop53
 90
        2
102
RTVSPost2010PropOp53
 70
     1
102
RTVSPost2010Prop54
  1
strokes_ogs.tif
102
RTVSPost2010PropOp54
 70
     1
102
RTVSPost2010Prop55
280
     0
102
RTVSPost2010PropOp55
 70
     1
102
RTVSPost2010Prop56
140
1.0
102
RTVSPost2010PropOp56
 70
     1
102
RTVSPost2010Prop57
140
1.0
102
RTVSPost2010PropOp57
 70
     1
102
RTVSPropertyOp0
 70
     1
102
RTVSPropertyOp1
 70
     1
102
RTVSPropertyOp2
 70
     1
102
RTVSPropertyOp3
 70
     1
102
RTVSPropertyOp4
 70
     1
102
RTVSPropertyOp5
 70
     1
102
RTVSPropertyOp6
 70
     1
102
RTVSPropertyOp7
 70
     1
102
RTVSPropertyOp8
 70
     1
102
RTVSPropertyOp9
 70
     1
102
RTVSPropertyOp10
 70
     1
102
RTVSPropertyOp11
 70
     1
102
RTVSPropertyOp12
 70
     1
102
RTVSPropertyOp13
 70
     1
102
RTVSPropertyOp14
 70
     1
102
RTVSPropertyOp15
 70
     1
102
RTVSPropertyOp16
 70
     1
102
RTVSPropertyOp17
 70
     1
102
RTVSPropertyOp18
 70
     1
102
RTVSPropertyOp19
 70
     1
102
RTVSPropertyOp20
 70
     1
102
RTVSPropertyOp21
 70
     1
102
RTVSPropertyOp22
 70
     1
102
RTVSPropertyOp23
 70
     1
102
RTVSPropertyOp24
 70
     1
102
RTVSPropertyOp25
 70
     1
102
RTVSPropertyOp26
 70
     1
102
RTVSPropertyOp27
 70
     1
102
RTVSPropertyOp28
 70
     1
102
RTVSPropertyOp29
 70
     1
102
RTVSPropertyOp30
 70
     1
102
RTVSPropertyOp31
 70
     1
102
RTVSPropertyOp32
 70
     1
102
RTVSPropertyOp33
 70
     1
102
RTVSPropertyOp34
 70
     1
102
RTVSPropertyOp35
 70
     1
102
RTVSPropertyOp36
 70
     1
102
RTVSPropertyOp37
 70
     1
102
RTVSPropertyOp38
 70
     1
102
RTVSPropertyOp39
 70
     1
102
RTVSPropertyOp40
 70
     1
102
RTVSPropertyOp41
 70
     1
102
RTVSPropertyOp42
 70
     1
102
RTVSPropertyOp43
 70
     1
102
RTVSPropertyOp44
 70
     1
102
RTVSPropertyOp45
 70
     1
102
RTVSPropertyOp46
 70
     1
102
RTVSPropertyOp47
 70
     1
102
RTVSPropertyOp48
 70
     1
102
RTVSPropertyOp49
 70
     1
102
RTVSPropertyOp50
 70
     1
102
RTVSPropertyOp51
 70
     0
102
RTVSPropertyOp52
 70
     0
102
RTVSPropertyOp53
 70
     1
102
RTVSPropertyOp54
 70
     1
102
RTVSPropertyOp55
 70
     1
102
RTVSPropertyOp56
 70
     1
102
RTVSPropertyOp57
 70
     1
102
RTVSPropertyOp58
 70
     1
102
RTVSPropertyOp59
 70
     1
102
RTVSPropertyOp60
 70
     1
102
RTVSPropertyOp61
 70
     1
102
RTVSPropertyOp62
 70
     1
  0
ENDSEC
  0
EOF
