  0
SECTION
  2
HEADER
  9
$ACADVER
  1
AC1015
  9
$ACADMAINTVER
 70
    20
  9
$DWGCODEPAGE
  3
ANSI_932
  9
$INSBASE
 10
0.0
 20
0.0
 30
0.0
  9
$EXTMIN
 10
10.0
 20
9.999999999999998
 30
0.0
  9
$EXTMAX
 10
443.9947359999998
 20
371.6706459999999
 30
0.0
  9
$LIMMIN
 10
0.0
 20
0.0
  9
$LIMMAX
 10
565.3084730000001
 20
389.720235
  9
$ORTHOMODE
 70
     1
  9
$REGENMODE
 70
     1
  9
$FILLMODE
 70
     1
  9
$QTEXTMODE
 70
     0
  9
$MIRRTEXT
 70
     1
  9
$LTSCALE
 40
20.0
  9
$ATTMODE
 70
     1
  9
$TEXTSIZE
 40
5.0
  9
$TRACEWID
 40
1.0
  9
$TEXTSTYLE
  7
STANDARD
  9
$CLAYER
  8
0
  9
$CELTYPE
  6
BYLAYER
  9
$CECOLOR
 62
   256
  9
$CELTSCALE
 40
1.0
  9
$DISPSILH
 70
     0
  9
$DIMSCALE
 40
1.0
  9
$DIMASZ
 40
3.0
  9
$DIMEXO
 40
1.0
  9
$DIMDLI
 40
10.0
  9
$DIMRND
 40
0.0
  9
$DIMDLE
 40
0.0
  9
$DIMEXE
 40
1.0
  9
$DIMTP
 40
0.0
  9
$DIMTM
 40
0.0
  9
$DIMTXT
 40
3.2
  9
$DIMCEN
 40
0.0
  9
$DIMTSZ
 40
0.0
  9
$DIMTOL
 70
     0
  9
$DIMLIM
 70
     0
  9
$DIMTIH
 70
     0
  9
$DIMTOH
 70
     0
  9
$DIMSE1
 70
     0
  9
$DIMSE2
 70
     0
  9
$DIMTAD
 70
     3
  9
$DIMZIN
 70
     8
  9
$DIMBLK
  1

  9
$DIMASO
 70
     1
  9
$DIMSHO
 70
     1
  9
$DIMPOST
  1

  9
$DIMAPOST
  1

  9
$DIMALT
 70
     0
  9
$DIMALTD
 70
     2
  9
$DIMALTF
 40
25.4
  9
$DIMLFAC
 40
1.0
  9
$DIMTOFL
 70
     1
  9
$DIMTVP
 40
0.0
  9
$DIMTIX
 70
     0
  9
$DIMSOXD
 70
     0
  9
$DIMSAH
 70
     1
  9
$DIMBLK1
  1
OPEN
  9
$DIMBLK2
  1
OPEN
  9
$DIMSTYLE
  2
STANDARD
  9
$DIMCLRD
 70
     0
  9
$DIMCLRE
 70
     0
  9
$DIMCLRT
 70
     0
  9
$DIMTFAC
 40
1.0
  9
$DIMGAP
 40
1.0
  9
$DIMJUST
 70
     0
  9
$DIMSD1
 70
     0
  9
$DIMSD2
 70
     0
  9
$DIMTOLJ
 70
     1
  9
$DIMTZIN
 70
     0
  9
$DIMALTZ
 70
     0
  9
$DIMALTTZ
 70
     0
  9
$DIMUPT
 70
     0
  9
$DIMDEC
 70
     4
  9
$DIMTDEC
 70
     4
  9
$DIMALTU
 70
     2
  9
$DIMALTTD
 70
     2
  9
$DIMTXSTY
  7
STANDARD
  9
$DIMAUNIT
 70
     0
  9
$DIMADEC
 70
     0
  9
$DIMALTRND
 40
0.0
  9
$DIMAZIN
 70
     0
  9
$DIMDSEP
 70
    46
  9
$DIMATFIT
 70
     3
  9
$DIMFRAC
 70
     0
  9
$DIMLDRBLK
  1
OPEN
  9
$DIMLUNIT
 70
     2
  9
$DIMLWD
 70
    -2
  9
$DIMLWE
 70
    -2
  9
$DIMTMOVE
 70
     0
  9
$LUNITS
 70
     2
  9
$LUPREC
 70
     4
  9
$SKETCHINC
 40
1.0
  9
$FILLETRAD
 40
18.0
  9
$AUNITS
 70
     0
  9
$AUPREC
 70
     2
  9
$MENU
  1
.
  9
$ELEVATION
 40
0.0
  9
$PELEVATION
 40
0.0
  9
$THICKNESS
 40
0.0
  9
$LIMCHECK
 70
     0
  9
$CHAMFERA
 40
10.0
  9
$CHAMFERB
 40
10.0
  9
$CHAMFERC
 40
0.0
  9
$CHAMFERD
 40
0.0
  9
$SKPOLY
 70
     0
  9
$TDCREATE
 40
2451301.562140162
  9
$TDUCREATE
 40
2451301.187140162
  9
$TDUPDATE
 40
2457192.687739097
  9
$TDUUPDATE
 40
2457192.312739097
  9
$TDINDWG
 40
0.0000103009
  9
$TDUSRTIMER
 40
0.0000098148
  9
$USRTIMER
 70
     1
  9
$ANGBASE
 50
0.0
  9
$ANGDIR
 70
     0
  9
$PDMODE
 70
     0
  9
$PDSIZE
 40
0.0
  9
$PLINEWID
 40
0.0
  9
$SPLFRAME
 70
     0
  9
$SPLINETYPE
 70
     6
  9
$SPLINESEGS
 70
     8
  9
$HANDSEED
  5
AD96
  9
$SURFTAB1
 70
     6
  9
$SURFTAB2
 70
     6
  9
$SURFTYPE
 70
     6
  9
$SURFU
 70
     6
  9
$SURFV
 70
     6
  9
$UCSBASE
  2

  9
$UCSNAME
  2

  9
$UCSORG
 10
0.0
 20
0.0
 30
0.0
  9
$UCSXDIR
 10
1.0
 20
0.0
 30
0.0
  9
$UCSYDIR
 10
0.0
 20
1.0
 30
0.0
  9
$UCSORTHOREF
  2

  9
$UCSORTHOVIEW
 70
     0
  9
$UCSORGTOP
 10
0.0
 20
0.0
 30
0.0
  9
$UCSORGBOTTOM
 10
0.0
 20
0.0
 30
0.0
  9
$UCSORGLEFT
 10
0.0
 20
0.0
 30
0.0
  9
$UCSORGRIGHT
 10
0.0
 20
0.0
 30
0.0
  9
$UCSORGFRONT
 10
0.0
 20
0.0
 30
0.0
  9
$UCSORGBACK
 10
0.0
 20
0.0
 30
0.0
  9
$PUCSBASE
  2

  9
$PUCSNAME
  2

  9
$PUCSORG
 10
0.0
 20
0.0
 30
0.0
  9
$PUCSXDIR
 10
1.0
 20
0.0
 30
0.0
  9
$PUCSYDIR
 10
0.0
 20
1.0
 30
0.0
  9
$PUCSORTHOREF
  2

  9
$PUCSORTHOVIEW
 70
     0
  9
$PUCSORGTOP
 10
0.0
 20
0.0
 30
0.0
  9
$PUCSORGBOTTOM
 10
0.0
 20
0.0
 30
0.0
  9
$PUCSORGLEFT
 10
0.0
 20
0.0
 30
0.0
  9
$PUCSORGRIGHT
 10
0.0
 20
0.0
 30
0.0
  9
$PUCSORGFRONT
 10
0.0
 20
0.0
 30
0.0
  9
$PUCSORGBACK
 10
0.0
 20
0.0
 30
0.0
  9
$USERI1
 70
     0
  9
$USERI2
 70
     0
  9
$USERI3
 70
     0
  9
$USERI4
 70
     0
  9
$USERI5
 70
     0
  9
$USERR1
 40
0.0
  9
$USERR2
 40
0.0
  9
$USERR3
 40
0.0
  9
$USERR4
 40
0.0
  9
$USERR5
 40
0.0
  9
$WORLDVIEW
 70
     1
  9
$SHADEDGE
 70
     3
  9
$SHADEDIF
 70
    70
  9
$TILEMODE
 70
     1
  9
$MAXACTVP
 70
    16
  9
$PINSBASE
 10
0.0
 20
0.0
 30
0.0
  9
$PLIMCHECK
 70
     0
  9
$PEXTMIN
 10
1.000000000000000E+20
 20
1.000000000000000E+20
 30
1.000000000000000E+20
  9
$PEXTMAX
 10
-1.000000000000000E+20
 20
-1.000000000000000E+20
 30
-1.000000000000000E+20
  9
$PLIMMIN
 10
0.0
 20
0.0
  9
$PLIMMAX
 10
420.0
 20
297.0
  9
$UNITMODE
 70
     0
  9
$VISRETAIN
 70
     0
  9
$PLINEGEN
 70
     0
  9
$PSLTSCALE
 70
     0
  9
$TREEDEPTH
 70
  3020
  9
$CMLSTYLE
  2
STANDARD
  9
$CMLJUST
 70
     0
  9
$CMLSCALE
 40
1.0
  9
$PROXYGRAPHICS
 70
     1
  9
$MEASUREMENT
 70
     0
  9
$CELWEIGHT
370
    -1
  9
$ENDCAPS
280
     0
  9
$JOINSTYLE
280
     0
  9
$LWDISPLAY
290
     0
  9
$INSUNITS
 70
     0
  9
$HYPERLINKBASE
  1

  9
$STYLESHEET
  1

  9
$XEDIT
290
     1
  9
$CEPSNTYPE
380
     0
  9
$PSTYLEMODE
290
     1
  9
$FINGERPRINTGUID
  2
{C6DA4550-D7C9-4F03-B397-2C4363F63568}
  9
$VERSIONGUID
  2
{DB869906-D3AD-419D-AE77-4693C43C3909}
  9
$EXTNAMES
290
     1
  9
$PSVPSCALE
 40
0.0
  9
$OLESTARTUP
290
     0
  0
ENDSEC
  0
SECTION
  2
CLASSES
  0
CLASS
  1
ACDBDICTIONARYWDFLT
  2
AcDbDictionaryWithDefault
  3
ObjectDBX Classes
 90
        0
280
     0
281
     0
  0
CLASS
  1
ACDBPLACEHOLDER
  2
AcDbPlaceHolder
  3
ObjectDBX Classes
 90
        0
280
     0
281
     0
  0
CLASS
  1
LAYOUT
  2
AcDbLayout
  3
ObjectDBX Classes
 90
        0
280
     0
281
     0
  0
CLASS
  1
DICTIONARYVAR
  2
AcDbDictionaryVar
  3
ObjectDBX Classes
 90
        0
280
     0
281
     0
  0
CLASS
  1
MATERIAL
  2
AcDbMaterial
  3
ObjectDBX Classes
 90
     1153
280
     0
281
     0
  0
CLASS
  1
VISUALSTYLE
  2
AcDbVisualStyle
  3
ObjectDBX Classes
 90
     4095
280
     0
281
     0
  0
CLASS
  1
TABLESTYLE
  2
AcDbTableStyle
  3
ObjectDBX Classes
 90
     4095
280
     0
281
     0
  0
CLASS
  1
SCALE
  2
AcDbScale
  3
ObjectDBX Classes
 90
     1153
280
     0
281
     0
  0
CLASS
  1
MLEADERSTYLE
  2
AcDbMLeaderStyle
  3
ACDB_MLEADERSTYLE_CLASS
 90
     4095
280
     0
281
     0
  0
CLASS
  1
ACDBSECTIONVIEWSTYLE
  2
AcDbSectionViewStyle
  3
ObjectDBX Classes
 90
     1025
280
     0
281
     0
  0
CLASS
  1
ACDBDETAILVIEWSTYLE
  2
AcDbDetailViewStyle
  3
ObjectDBX Classes
 90
     1025
280
     0
281
     0
  0
CLASS
  1
CELLSTYLEMAP
  2
AcDbCellStyleMap
  3
ObjectDBX Classes
 90
     1152
280
     0
281
     0
  0
ENDSEC
  0
SECTION
  2
TABLES
  0
TABLE
  2
VPORT
  5
AA19
330
0
100
AcDbSymbolTable
 70
     1
  0
VPORT
  5
ACDF
330
AA19
100
AcDbSymbolTableRecord
100
AcDbViewportTableRecord
  2
*ACTIVE
 70
     0
 10
0.0
 20
0.0
 11
1.0
 21
1.0
 12
336.5495480997157
 22
190.8312570255539
 13
0.0
 23
0.0
 14
10.0
 24
10.0
 15
10.0
 25
10.0
 16
0.0
 26
0.0
 36
1.0
 17
0.0
 27
0.0
 37
0.0
 40
365.7022712149426
 41
2.35006605019815
 42
50.0
 43
0.0
 44
0.0
 50
0.0
 51
0.0
 71
     0
 72
   100
 73
     1
 74
     0
 75
     0
 76
     0
 77
     0
 78
     0
281
     0
 65
     1
110
0.0
120
0.0
130
0.0
111
1.0
121
0.0
131
0.0
112
0.0
122
1.0
132
0.0
 79
     0
146
0.0
1001
ACAD_NAV_VCDISPLAY
1070
     3
  0
ENDTAB
  0
TABLE
  2
LTYPE
  5
AA16
330
0
100
AcDbSymbolTable
 70
     4
  0
LTYPE
  5
AA24
330
AA16
100
AcDbSymbolTableRecord
100
AcDbLinetypeTableRecord
  2
BYBLOCK
 70
     0
  3

 72
    65
 73
     0
 40
0.0
  0
LTYPE
  5
AA25
330
AA16
100
AcDbSymbolTableRecord
100
AcDbLinetypeTableRecord
  2
BYLAYER
 70
     0
  3

 72
    65
 73
     0
 40
0.0
  0
LTYPE
  5
AA26
330
AA16
100
AcDbSymbolTableRecord
100
AcDbLinetypeTableRecord
  2
CONTINUOUS
 70
     0
  3
Solid line
 72
    65
 73
     0
 40
0.0
  0
LTYPE
  5
AA34
330
AA16
100
AcDbSymbolTableRecord
100
AcDbLinetypeTableRecord
  2
DASHED
 70
     0
  3
__ __ __ __ __ __ __ __ __ __ __ __ __ __ __ __
 72
    65
 73
     2
 40
0.75
 49
0.5
 74
     0
 49
-0.25
 74
     0
  0
LTYPE
  5
AA35
330
AA16
100
AcDbSymbolTableRecord
100
AcDbLinetypeTableRecord
  2
CENTER
 70
     0
  3
____ _ ____ _ ____ _ ____ _ ____ _ ____ _ ____ 
 72
    65
 73
     4
 40
2.0
 49
1.25
 74
     0
 49
-0.25
 74
     0
 49
0.25
 74
     0
 49
-0.25
 74
     0
  0
LTYPE
  5
AA36
330
AA16
100
AcDbSymbolTableRecord
100
AcDbLinetypeTableRecord
  2
PHANTOM
 70
     0
  3
______  __  __  ______  __  __  ______  __  __ 
 72
    65
 73
     6
 40
2.5
 49
1.25
 74
     0
 49
-0.25
 74
     0
 49
0.25
 74
     0
 49
-0.25
 74
     0
 49
0.25
 74
     0
 49
-0.25
 74
     0
  0
ENDTAB
  0
TABLE
  2
LAYER
  5
AA13
330
0
100
AcDbSymbolTable
 70
     8
  0
LAYER
  5
AA21
102
{ACAD_XDICTIONARY
360
AD3A
102
}
330
AA13
100
AcDbSymbolTableRecord
100
AcDbLayerTableRecord
  2
0
 70
     0
 62
     7
  6
CONTINUOUS
370
    -3
390
ACE8
  0
LAYER
  5
AA37
102
{ACAD_XDICTIONARY
360
AD3C
102
}
330
AA13
100
AcDbSymbolTableRecord
100
AcDbLayerTableRecord
  2
4
 70
     0
 62
     1
  6
CENTER
370
    -3
390
ACE8
  0
LAYER
  5
AA38
102
{ACAD_XDICTIONARY
360
AD3E
102
}
330
AA13
100
AcDbSymbolTableRecord
100
AcDbLayerTableRecord
  2
5
 70
     0
 62
     6
  6
PHANTOM
370
    -3
390
ACE8
  0
LAYER
  5
AA39
102
{ACAD_XDICTIONARY
360
AD40
102
}
330
AA13
100
AcDbSymbolTableRecord
100
AcDbLayerTableRecord
  2
1
 70
     0
 62
     7
  6
CONTINUOUS
370
    -3
390
ACE8
  0
LAYER
  5
AA3A
102
{ACAD_XDICTIONARY
360
AD42
102
}
330
AA13
100
AcDbSymbolTableRecord
100
AcDbLayerTableRecord
  2
2
 70
     0
 62
     4
  6
CONTINUOUS
370
    -3
390
ACE8
  0
LAYER
  5
AA3B
102
{ACAD_XDICTIONARY
360
AD44
102
}
330
AA13
100
AcDbSymbolTableRecord
100
AcDbLayerTableRecord
  2
3
 70
     0
 62
     2
  6
DASHED
370
    -3
390
ACE8
  0
LAYER
  5
AA3C
102
{ACAD_XDICTIONARY
360
AD46
102
}
330
AA13
100
AcDbSymbolTableRecord
100
AcDbLayerTableRecord
  2
6
 70
     0
 62
     5
  6
CONTINUOUS
370
    -3
390
ACE8
  0
LAYER
  5
AA3D
102
{ACAD_XDICTIONARY
360
AD48
102
}
330
AA13
100
AcDbSymbolTableRecord
100
AcDbLayerTableRecord
  2
7
 70
     0
 62
     3
  6
CONTINUOUS
370
    -3
390
ACE8
  0
ENDTAB
  0
TABLE
  2
STYLE
  5
AA14
330
0
100
AcDbSymbolTable
 70
     1
  0
STYLE
  5
AA22
330
AA14
100
AcDbSymbolTableRecord
100
AcDbTextStyleTableRecord
  2
STANDARD
 70
     0
 40
0.0
 41
1.0
 50
0.0
 71
     0
 42
5.0
  3
txt
  4

  0
ENDTAB
  0
TABLE
  2
VIEW
  5
AA17
330
0
100
AcDbSymbolTable
 70
     0
  0
ENDTAB
  0
TABLE
  2
UCS
  5
AA18
330
0
100
AcDbSymbolTable
 70
     0
  0
ENDTAB
  0
TABLE
  2
APPID
  5
AA1A
330
0
100
AcDbSymbolTable
 70
     3
  0
APPID
  5
AA23
330
AA1A
100
AcDbSymbolTableRecord
100
AcDbRegAppTableRecord
  2
ACAD
 70
     0
  0
APPID
  5
AD54
330
AA1A
100
AcDbSymbolTableRecord
100
AcDbRegAppTableRecord
  2
ACAD_NAV_VCDISPLAY
 70
     0
  0
APPID
  5
AD8D
330
AA1A
100
AcDbSymbolTableRecord
100
AcDbRegAppTableRecord
  2
ACAD_MLEADERVER
 70
     0
  0
ENDTAB
  0
TABLE
  2
DIMSTYLE
  5
AA1B
330
0
100
AcDbSymbolTable
 70
     1
100
AcDbDimStyleTable
 71
     0
  0
DIMSTYLE
105
AA3F
330
AA1B
100
AcDbSymbolTableRecord
100
AcDbDimStyleTableRecord
  2
STANDARD
 70
     0
 41
3.0
 42
1.0
 43
10.0
 44
1.0
 73
     0
 74
     0
 77
     3
 78
     8
140
3.2
141
0.0
147
1.0
172
     1
173
     1
284
     8
285
     8
286
     8
340
AA22
  0
ENDTAB
  0
TABLE
  2
BLOCK_RECORD
  5
AA12
330
0
100
AcDbSymbolTable
 70
     1
  0
BLOCK_RECORD
  5
AA2F
102
{ACAD_XDICTIONARY
360
ACE2
102
}
330
AA12
100
AcDbSymbolTableRecord
100
AcDbBlockTableRecord
  2
*MODEL_SPACE
340
AD36
  0
BLOCK_RECORD
  5
AA2B
102
{ACAD_XDICTIONARY
360
ACE0
102
}
330
AA12
100
AcDbSymbolTableRecord
100
AcDbBlockTableRecord
  2
*PAPER_SPACE
340
AD37
  0
BLOCK_RECORD
  5
AA47
330
AA12
100
AcDbSymbolTableRecord
100
AcDbBlockTableRecord
  2
_OPEN
340
0
  0
ENDTAB
  0
ENDSEC
  0
SECTION
  2
BLOCKS
  0
BLOCK
  5
AA30
330
AA2F
100
AcDbEntity
  8
0
100
AcDbBlockBegin
  2
*MODEL_SPACE
 70
     0
 10
0.0
 20
0.0
 30
0.0
  3
*MODEL_SPACE
  1

  0
ENDBLK
  5
AA31
330
AA2F
100
AcDbEntity
  8
0
100
AcDbBlockEnd
  0
BLOCK
  5
AA2C
330
AA2B
100
AcDbEntity
 67
     1
  8
0
100
AcDbBlockBegin
  2
*PAPER_SPACE
 70
     0
 10
0.0
 20
0.0
 30
0.0
  3
*PAPER_SPACE
  1

  0
ENDBLK
  5
AA2D
330
AA2B
100
AcDbEntity
 67
     1
  8
0
100
AcDbBlockEnd
  0
BLOCK
  5
AA48
330
AA47
100
AcDbEntity
  8
0
100
AcDbBlockBegin
  2
_OPEN
 70
     0
 10
0.0
 20
0.0
 30
0.0
  3
_OPEN
  1

  0
LINE
  5
AA49
330
AA47
100
AcDbEntity
  8
0
  6
ByBlock
 62
     0
100
AcDbLine
 10
-1.0
 20
0.166667
 30
0.0
 11
0.0
 21
0.0
 31
0.0
  0
LINE
  5
AA4A
330
AA47
100
AcDbEntity
  8
0
  6
ByBlock
 62
     0
100
AcDbLine
 10
0.0
 20
0.0
 30
0.0
 11
-1.0
 21
-0.166667
 31
0.0
  0
LINE
  5
AA4B
330
AA47
100
AcDbEntity
  8
0
  6
ByBlock
 62
     0
100
AcDbLine
 10
0.0
 20
0.0
 30
0.0
 11
-1.0
 21
0.0
 31
0.0
  0
ENDBLK
  5
AA4C
330
AA47
100
AcDbEntity
  8
0
100
AcDbBlockEnd
  0
ENDSEC
  0
SECTION
  2
ENTITIES
  0
TEXT
  5
AA4D
330
AA2F
100
AcDbEntity
  8
7
  6
Continuous
100
AcDbText
 10
10.0
 20
18.0
 30
0.0
 40
3.0
  1
TYPE No.205 d=21
100
AcDbText
  0
TEXT
  5
AA4E
330
AA2F
100
AcDbEntity
  8
7
  6
Continuous
100
AcDbText
 10
10.0
 20
26.0
 30
0.0
 40
3.0
  1
CODE No.9164
100
AcDbText
  0
TEXT
  5
AA4F
330
AA2F
100
AcDbEntity
  8
1
  6
Continuous
100
AcDbText
 10
10.0
 20
10.0
 30
0.0
 40
1.399999999999999
  1
LAYER
100
AcDbText
  0
TEXT
  5
AA50
330
AA2F
100
AcDbEntity
  8
1
  6
Continuous
100
AcDbText
 10
17.97951099999998
 20
10.04873699999998
 30
0.0
 40
1.399999999999999
  1
1
100
AcDbText
  0
TEXT
  5
AA51
330
AA2F
100
AcDbEntity
  8
7
  6
Continuous
100
AcDbText
 10
29.97951099999999
 20
10.04873699999998
 30
0.0
 40
1.399999999999999
  1
7
100
AcDbText
  0
TEXT
  5
AA52
330
AA2F
100
AcDbEntity
  8
4
  6
CENTER
100
AcDbText
 10
23.97951099999999
 20
10.04873699999998
 30
0.0
 40
1.399999999999999
  1
4
100
AcDbText
  0
TEXT
  5
AA53
330
AA2F
100
AcDbEntity
  8
3
  6
DASHED
100
AcDbText
 10
21.979511
 20
10.04873699999998
 30
0.0
 40
1.399999999999999
  1
3
100
AcDbText
  0
TEXT
  5
AA54
330
AA2F
100
AcDbEntity
  8
2
  6
Continuous
100
AcDbText
 10
19.97951099999999
 20
10.04873699999998
 30
0.0
 40
1.399999999999999
  1
2
100
AcDbText
  0
TEXT
  5
AA55
330
AA2F
100
AcDbEntity
  8
6
  6
Continuous
100
AcDbText
 10
27.979511
 20
10.04873699999998
 30
0.0
 40
1.399999999999999
  1
6
100
AcDbText
  0
TEXT
  5
AA56
330
AA2F
100
AcDbEntity
  8
5
  6
PHANTOM
100
AcDbText
 10
25.97951099999999
 20
10.04873699999998
 30
0.0
 40
1.399999999999999
  1
5
100
AcDbText
  0
ARC
  5
AA57
330
AA2F
100
AcDbEntity
  8
1
  6
Continuous
100
AcDbCircle
 10
205.427976
 20
211.132781
 30
0.0
 40
4.377608
100
AcDbArc
 50
8.294477
 51
67.581971
  0
ARC
  5
AA58
330
AA2F
100
AcDbEntity
  8
1
  6
Continuous
100
AcDbCircle
 10
80.27936399999999
 20
191.216185
 30
0.0
 40
131.100749
100
AcDbArc
 50
7.561295
 51
9.017450999999999
  0
ARC
  5
AA59
330
AA2F
100
AcDbEntity
  8
1
  6
Continuous
100
AcDbCircle
 10
160.854892
 20
214.858092
 30
0.0
 40
1.997709
100
AcDbArc
 50
270.1599779999999
 51
299.197035
  0
ARC
  5
AA5A
330
AA2F
100
AcDbEntity
  8
1
  6
Continuous
100
AcDbCircle
 10
165.5953659999999
 20
211.2232759999999
 30
0.0
 40
4.224822999999998
100
AcDbArc
 50
110.5384659999999
 51
148.632099
  0
ARC
  5
AA5B
330
AA2F
100
AcDbEntity
  8
1
  6
Continuous
100
AcDbCircle
 10
161.6764959999999
 20
213.3878249999999
 30
0.0
 40
0.313453
100
AcDbArc
 50
299.197035
 51
6.338015999999998
  0
LINE
  5
AA5C
330
AA2F
100
AcDbEntity
  8
1
  6
Continuous
100
AcDbLine
 10
210.240147
 20
208.4673099999998
 30
0.0
 11
202.222361
 21
208.4673099999998
 31
0.0
  0
ARC
  5
AA5D
330
AA2F
100
AcDbEntity
  8
1
  6
Continuous
100
AcDbCircle
 10
160.490146
 20
175.717882
 30
0.0
 40
31.5
100
AcDbArc
 50
96.61782700000001
 51
36.19536999999999
  0
LINE
  5
AA5E
330
AA2F
100
AcDbEntity
  8
1
  6
Continuous
100
AcDbLine
 10
259.242441
 20
211.191224
 30
0.0
 11
259.242441
 21
189.4850059999999
 31
0.0
  0
LINE
  5
AA5F
330
AA2F
100
AcDbEntity
  8
1
  6
Continuous
100
AcDbLine
 10
308.7424410000001
 20
211.191224
 30
0.0
 11
308.7424410000001
 21
189.4850059999999
 31
0.0
  0
ARC
  5
AA60
330
AA2F
100
AcDbEntity
  8
1
  6
Continuous
100
AcDbCircle
 10
263.242441
 20
211.191224
 30
0.0
 40
4.0
100
AcDbArc
 50
94.384039
 51
180.0
  0
ARC
  5
AA61
330
AA2F
100
AcDbEntity
  8
1
  6
Continuous
100
AcDbCircle
 10
304.742441
 20
211.191224
 30
0.0
 40
4.0
100
AcDbArc
 50
0.0
 51
85.615961
  0
ARC
  5
AA62
330
AA2F
100
AcDbEntity
  8
1
  6
Continuous
100
AcDbCircle
 10
280.5841909999999
 20
189.4850059999999
 30
0.0
 40
28.15825
100
AcDbArc
 50
323.663991
 51
0.0
  0
ARC
  5
AA63
330
AA2F
100
AcDbEntity
  8
1
  6
Continuous
100
AcDbCircle
 10
287.4006909999998
 20
189.4850059999999
 30
0.0
 40
28.15825
100
AcDbArc
 50
180.0
 51
182.984359
  0
LINE
  5
AA64
330
AA2F
100
AcDbEntity
  8
1
  6
Continuous
100
AcDbLine
 10
263.0637259999999
 20
208.46721
 30
0.0
 11
304.9211559999998
 21
208.46721
 31
0.0
  0
ARC
  5
AA65
330
AA2F
100
AcDbEntity
  8
1
  6
Continuous
100
AcDbCircle
 10
341.326634
 20
189.4850059999999
 30
0.0
 40
82.084193
100
AcDbArc
 50
167.757229
 51
180.0
  0
ARC
  5
AA66
330
AA2F
100
AcDbEntity
  8
1
  6
Continuous
100
AcDbCircle
 10
341.326634
 20
189.4850059999999
 30
0.0
 40
79.784193
100
AcDbArc
 50
167.389352
 51
180.0
  0
ARC
  5
AA67
330
AA2F
100
AcDbEntity
  8
1
  6
Continuous
100
AcDbCircle
 10
263.0637259999999
 20
206.46721
 30
0.0
 40
2.0
100
AcDbArc
 50
90.0
 51
167.757229
  0
ARC
  5
AA68
330
AA2F
100
AcDbEntity
  8
1
  6
Continuous
100
AcDbCircle
 10
265.4188909999999
 20
206.46721
 30
0.0
 40
2.0
100
AcDbArc
 50
90.0
 51
167.389352
  0
ARC
  5
AA69
330
AA2F
100
AcDbEntity
  8
1
  6
Continuous
100
AcDbCircle
 10
280.5841909999999
 20
189.4850059999999
 30
0.0
 40
25.85825
100
AcDbArc
 50
322.428066
 51
0.0
  0
ARC
  5
AA6A
330
AA2F
100
AcDbEntity
  8
1
  6
Continuous
100
AcDbCircle
 10
226.6582479999999
 20
189.4850059999999
 30
0.0
 40
82.084193
100
AcDbArc
 50
0.0
 51
12.242771
  0
ARC
  5
AA6B
330
AA2F
100
AcDbEntity
  8
1
  6
Continuous
100
AcDbCircle
 10
226.6582479999999
 20
189.4850059999999
 30
0.0
 40
79.784193
100
AcDbArc
 50
0.0
 51
12.61064799999999
  0
ARC
  5
AA6C
330
AA2F
100
AcDbEntity
  8
1
  6
Continuous
100
AcDbCircle
 10
304.9211559999998
 20
206.46721
 30
0.0
 40
2.0
100
AcDbArc
 50
12.242771
 51
90.0
  0
ARC
  5
AA6D
330
AA2F
100
AcDbEntity
  8
1
  6
Continuous
100
AcDbCircle
 10
302.5659909999999
 20
206.46721
 30
0.0
 40
2.0
100
AcDbArc
 50
12.61064799999999
 51
90.0
  0
ARC
  5
AA6E
330
AA2F
100
AcDbEntity
  8
1
  6
Continuous
100
AcDbCircle
 10
292.9924409999999
 20
204.651056
 30
0.0
 40
1.5
100
AcDbArc
 50
0.0
 51
36.98973999999999
  0
ARC
  5
AA6F
330
AA2F
100
AcDbEntity
  8
1
  6
Continuous
100
AcDbCircle
 10
274.9924409999999
 20
204.651056
 30
0.0
 40
1.5
100
AcDbArc
 50
143.0102599999999
 51
180.0
  0
LINE
  5
AA70
330
AA2F
100
AcDbEntity
  8
1
  6
Continuous
100
AcDbLine
 10
270.9924409999999
 20
188.2192639999999
 30
0.0
 11
270.9924409999999
 21
163.2163
 31
0.0
  0
LINE
  5
AA71
330
AA2F
100
AcDbEntity
  8
1
  6
Continuous
100
AcDbLine
 10
296.9924409999999
 20
185.2177819999998
 30
0.0
 11
298.4924409999999
 21
183.7177819999998
 31
0.0
  0
LINE
  5
AA72
330
AA2F
100
AcDbEntity
  8
1
  6
Continuous
100
AcDbLine
 10
270.9924409999999
 20
185.2177819999998
 30
0.0
 11
269.492441
 21
183.7177819999998
 31
0.0
  0
LINE
  5
AA73
330
AA2F
100
AcDbEntity
  8
1
  6
Continuous
100
AcDbLine
 10
294.492441
 20
191.789634
 30
0.0
 11
296.9924409999999
 21
188.2192639999999
 31
0.0
  0
LINE
  5
AA74
330
AA2F
100
AcDbEntity
  8
1
  6
Continuous
100
AcDbLine
 10
273.492441
 20
191.789634
 30
0.0
 11
270.9924409999999
 21
188.2192639999999
 31
0.0
  0
LINE
  5
AA75
330
AA2F
100
AcDbEntity
  8
1
  6
Continuous
100
AcDbLine
 10
269.492441
 20
167.7177819999998
 30
0.0
 11
269.492441
 21
183.7177819999998
 31
0.0
  0
LINE
  5
AA76
330
AA2F
100
AcDbEntity
  8
1
  6
Continuous
100
AcDbLine
 10
294.492441
 20
146.7845079999999
 30
0.0
 11
294.492441
 21
204.651056
 31
0.0
  0
LINE
  5
AA77
330
AA2F
100
AcDbEntity
  8
1
  6
Continuous
100
AcDbLine
 10
273.492441
 20
146.7845079999999
 30
0.0
 11
273.492441
 21
204.651056
 31
0.0
  0
ARC
  5
AA78
330
AA2F
100
AcDbEntity
  8
1
  6
Continuous
100
AcDbCircle
 10
283.992441
 20
184.217782
 30
0.0
 40
40.0
100
AcDbArc
 50
256.4810919999998
 51
283.518908
  0
ARC
  5
AA79
330
AA2F
100
AcDbEntity
  8
1
  6
Continuous
100
AcDbCircle
 10
292.9924409999999
 20
146.7845079999999
 30
0.0
 40
1.5
100
AcDbArc
 50
283.518908
 51
0.0
  0
ARC
  5
AA7A
330
AA2F
100
AcDbEntity
  8
1
  6
Continuous
100
AcDbCircle
 10
274.9924409999999
 20
146.7845079999999
 30
0.0
 40
1.5
100
AcDbArc
 50
180.0
 51
256.4810919999998
  0
LINE
  5
AA7B
330
AA2F
100
AcDbEntity
  8
1
  6
Continuous
100
AcDbLine
 10
296.9924409999999
 20
163.2163
 30
0.0
 11
296.9924409999999
 21
188.2192639999999
 31
0.0
  0
LINE
  5
AA7C
330
AA2F
100
AcDbEntity
  8
1
  6
Continuous
100
AcDbLine
 10
296.9924409999999
 20
166.217782
 30
0.0
 11
298.4924409999999
 21
167.7177819999998
 31
0.0
  0
LINE
  5
AA7D
330
AA2F
100
AcDbEntity
  8
1
  6
Continuous
100
AcDbLine
 10
270.9924409999999
 20
166.217782
 30
0.0
 11
269.492441
 21
167.7177819999998
 31
0.0
  0
LINE
  5
AA7E
330
AA2F
100
AcDbEntity
  8
1
  6
Continuous
100
AcDbLine
 10
294.492441
 20
159.64593
 30
0.0
 11
296.9924409999999
 21
163.2163
 31
0.0
  0
LINE
  5
AA7F
330
AA2F
100
AcDbEntity
  8
1
  6
Continuous
100
AcDbLine
 10
273.492441
 20
159.64593
 30
0.0
 11
270.9924409999999
 21
163.2163
 31
0.0
  0
LINE
  5
AA80
330
AA2F
100
AcDbEntity
  8
1
  6
Continuous
100
AcDbLine
 10
298.4924409999999
 20
167.7177819999998
 30
0.0
 11
298.4924409999999
 21
183.7177819999998
 31
0.0
  0
LINE
  5
AA81
330
AA2F
100
AcDbEntity
  8
1
  6
Continuous
100
AcDbLine
 10
268.5886899999998
 20
165.1057189999999
 30
0.0
 11
266.2757859999999
 21
165.1057189999999
 31
0.0
  0
LINE
  5
AA82
330
AA2F
100
AcDbEntity
  8
1
  6
Continuous
100
AcDbLine
 10
268.4497519999998
 20
179.7177819999998
 30
0.0
 11
269.492441
 21
179.7177819999998
 31
0.0
  0
LINE
  5
AA83
330
AA2F
100
AcDbEntity
  8
1
  6
Continuous
100
AcDbLine
 10
298.4924409999999
 20
179.7177819999998
 30
0.0
 11
299.5351309999999
 21
179.7177819999998
 31
0.0
  0
LINE
  5
AA84
330
AA2F
100
AcDbEntity
  8
1
  6
Continuous
100
AcDbLine
 10
268.534866
 20
171.717782
 30
0.0
 11
269.492441
 21
171.717782
 31
0.0
  0
LINE
  5
AA85
330
AA2F
100
AcDbEntity
  8
1
  6
Continuous
100
AcDbLine
 10
298.4924409999999
 20
171.717782
 30
0.0
 11
299.450016
 21
171.717782
 31
0.0
  0
LINE
  5
AA86
330
AA2F
100
AcDbEntity
  8
1
  6
Continuous
100
AcDbLine
 10
162.490146
 20
215.179556
 30
0.0
 11
208.490146
 21
215.179556
 31
0.0
  0
LINE
  5
AA87
330
AA2F
100
AcDbEntity
  8
1
  6
Continuous
100
AcDbLine
 10
306.992441
 20
215.17952
 30
0.0
 11
260.992441
 21
215.17952
 31
0.0
  0
ARC
  5
AA88
330
AA2F
100
AcDbEntity
  8
1
  6
Continuous
100
AcDbCircle
 10
160.490146
 20
175.717882
 30
0.0
 40
24.0
100
AcDbArc
 50
102.730931
 51
28.80990399999999
  0
LINE
  5
AA89
330
AA2F
100
AcDbEntity
  8
4
  6
CENTER
100
AcDbLine
 10
215.240146
 20
341.9206459999998
 30
0.0
 11
123.990146
 21
341.9206459999998
 31
0.0
  0
LINE
  5
AA8A
330
AA2F
100
AcDbEntity
  8
4
  6
CENTER
100
AcDbLine
 10
185.490146
 20
312.1706459999999
 30
0.0
 11
185.490146
 21
371.6706459999999
 31
0.0
  0
LINE
  5
AA8B
330
AA2F
100
AcDbEntity
  8
4
  6
CENTER
100
AcDbLine
 10
185.490146
 20
202.215713
 30
0.0
 11
185.490146
 21
271.2178819999999
 31
0.0
  0
LINE
  5
AA8C
330
AA2F
100
AcDbEntity
  8
4
  6
CENTER
100
AcDbLine
 10
196.990146
 20
175.717882
 30
0.0
 11
123.990146
 21
175.717882
 31
0.0
  0
LINE
  5
AA8D
330
AA2F
100
AcDbEntity
  8
4
  6
CENTER
100
AcDbLine
 10
160.490146
 20
139.217882
 30
0.0
 11
160.490146
 21
207.891468
 31
0.0
  0
LINE
  5
AA8E
330
AA2F
100
AcDbEntity
  8
4
  6
CENTER
100
AcDbLine
 10
258.6925519999999
 20
175.717782
 30
0.0
 11
310.792299
 21
175.717782
 31
0.0
  0
LINE
  5
AA8F
330
AA2F
100
AcDbEntity
  8
4
  6
CENTER
100
AcDbLine
 10
283.992441
 20
271.2177819999999
 30
0.0
 11
283.992441
 21
139.217782
 31
0.0
  0
ARC
  5
AA90
330
AA2F
100
AcDbEntity
  8
1
  6
Continuous
100
AcDbCircle
 10
161.590146
 20
176.117882
 30
0.0
 40
11.0
100
AcDbArc
 50
165.8563979999998
 51
326.3274589999999
  0
LINE
  5
AA91
330
AA2F
100
AcDbEntity
  8
1
  6
Continuous
100
AcDbLine
 10
166.8243219999999
 20
212.8770429999999
 30
0.0
 11
155.702287
 21
212.845989
 31
0.0
  0
ARC
  5
AA92
330
AA2F
100
AcDbEntity
  8
1
  6
Continuous
100
AcDbCircle
 10
202.222361
 20
194.23831
 30
0.0
 40
14.229
100
AcDbArc
 50
90.0
 51
133.500573
  0
ARC
  5
AA93
330
AA2F
100
AcDbEntity
  8
1
  6
Continuous
100
AcDbCircle
 10
200.835986
 20
197.46731
 30
0.0
 40
11.0
100
AcDbArc
 50
139.8530389999999
 51
146.327459
  0
ARC
  5
AA94
330
AA2F
100
AcDbEntity
  8
1
  6
Continuous
100
AcDbCircle
 10
156.646199
 20
294.757624
 30
0.0
 40
84.15427099999998
100
AcDbArc
 50
268.6251529999998
 51
270.661561
  0
ARC
  5
AA95
330
AA2F
100
AcDbEntity
  8
1
  6
Continuous
100
AcDbCircle
 10
155.716879
 20
207.620059
 30
0.0
 40
5.22595
100
AcDbArc
 50
90.15997800000002
 51
100.38805
  0
ARC
  5
AA96
330
AA2F
100
AcDbEntity
  8
1
  6
Continuous
100
AcDbCircle
 10
154.9009879999998
 20
212.0707279999999
 30
0.0
 40
0.7011149999999999
100
AcDbArc
 50
100.38805
 51
140.399055
  0
ARC
  5
AA97
330
AA2F
100
AcDbEntity
  8
1
  6
Continuous
100
AcDbCircle
 10
154.63379
 20
210.907969
 30
0.0
 40
0.28047
100
AcDbArc
 50
216.5458509999999
 51
268.6251529999998
  0
ARC
  5
AA98
330
AA2F
100
AcDbEntity
  8
1
  6
Continuous
100
AcDbCircle
 10
141.337801
 20
209.431971
 30
0.0
 40
13.13604599999999
100
AcDbArc
 50
5.718930999999998
 51
8.653186999999999
  0
ARC
  5
AA99
330
AA2F
100
AcDbEntity
  8
1
  6
Continuous
100
AcDbCircle
 10
122.542776
 20
213.0080229999999
 30
0.0
 40
31.82178
100
AcDbArc
 50
357.118506
 51
359.117028
  0
LINE
  5
AA9A
330
AA2F
100
AcDbEntity
  8
1
  6
Continuous
100
AcDbLine
 10
158.090134
 20
212.852656
 30
0.0
 11
150.9235969999998
 21
178.8057659999998
 31
0.0
  0
LINE
  5
AA9B
330
AA2F
100
AcDbEntity
  8
1
  6
Continuous
100
AcDbLine
 10
191.681567
 20
203.5662129999999
 30
0.0
 11
170.7445659999999
 21
170.0189799999999
 31
0.0
  0
ARC
  5
AA9C
330
AA2F
100
AcDbEntity
  8
1
  6
Continuous
100
AcDbCircle
 10
160.490146
 20
175.717882
 30
0.0
 40
17.5
100
AcDbArc
 50
112.953035
 51
16.00178999999998
  0
LINE
  5
AA9D
330
AA2F
100
AcDbEntity
  8
1
  6
Continuous
100
AcDbLine
 10
43.48785099999999
 20
146.7845079999999
 30
0.0
 11
43.48785099999999
 21
204.651056
 31
0.0
  0
LINE
  5
AA9E
330
AA2F
100
AcDbEntity
  8
1
  6
Continuous
100
AcDbLine
 10
64.48785100000001
 20
146.7845079999999
 30
0.0
 11
64.48785100000001
 21
204.651056
 31
0.0
  0
LINE
  5
AA9F
330
AA2F
100
AcDbEntity
  8
1
  6
Continuous
100
AcDbLine
 10
64.48785100000001
 20
191.789634
 30
0.0
 11
66.98785100000001
 21
188.2192639999999
 31
0.0
  0
LINE
  5
AAA0
330
AA2F
100
AcDbEntity
  8
1
  6
Continuous
100
AcDbLine
 10
43.48785099999999
 20
191.789634
 30
0.0
 11
40.98785099999999
 21
188.2192639999999
 31
0.0
  0
LINE
  5
AAA1
330
AA2F
100
AcDbEntity
  8
4
  6
CENTER
100
AcDbLine
 10
53.987851
 20
271.2177819999999
 30
0.0
 11
53.987851
 21
139.217782
 31
0.0
  0
LINE
  5
AAA2
330
AA2F
100
AcDbEntity
  8
4
  6
CENTER
100
AcDbLine
 10
79.28774
 20
175.717782
 30
0.0
 11
27.18796199999999
 21
175.717782
 31
0.0
  0
ARC
  5
AAA3
330
AA2F
100
AcDbEntity
  8
1
  6
Continuous
100
AcDbCircle
 10
53.987851
 20
184.217782
 30
0.0
 40
40.0
100
AcDbArc
 50
256.4810919999998
 51
283.518908
  0
LINE
  5
AAA4
330
AA2F
100
AcDbEntity
  8
1
  6
Continuous
100
AcDbLine
 10
66.98785100000001
 20
188.2192639999999
 30
0.0
 11
66.98785100000001
 21
163.2163
 31
0.0
  0
LINE
  5
AAA5
330
AA2F
100
AcDbEntity
  8
1
  6
Continuous
100
AcDbLine
 10
66.98785100000001
 20
166.217782
 30
0.0
 11
68.487851
 21
167.7177819999998
 31
0.0
  0
LINE
  5
AAA6
330
AA2F
100
AcDbEntity
  8
1
  6
Continuous
100
AcDbLine
 10
64.48785100000001
 20
159.64593
 30
0.0
 11
66.98785100000001
 21
163.2163
 31
0.0
  0
ARC
  5
AAA7
330
AA2F
100
AcDbEntity
  8
1
  6
Continuous
100
AcDbCircle
 10
62.98785099999999
 20
146.7845079999999
 30
0.0
 40
1.5
100
AcDbArc
 50
283.518908
 51
0.0
  0
LINE
  5
AAA8
330
AA2F
100
AcDbEntity
  8
1
  6
Continuous
100
AcDbLine
 10
69.445426
 20
171.717782
 30
0.0
 11
68.487851
 21
171.717782
 31
0.0
  0
LINE
  5
AAA9
330
AA2F
100
AcDbEntity
  8
1
  6
Continuous
100
AcDbLine
 10
69.530541
 20
179.7177819999998
 30
0.0
 11
68.487851
 21
179.7177819999998
 31
0.0
  0
LINE
  5
AAAA
330
AA2F
100
AcDbEntity
  8
1
  6
Continuous
100
AcDbLine
 10
66.98785100000001
 20
185.2177819999998
 30
0.0
 11
68.487851
 21
183.7177819999998
 31
0.0
  0
LINE
  5
AAAB
330
AA2F
100
AcDbEntity
  8
1
  6
Continuous
100
AcDbLine
 10
68.487851
 20
167.7177819999998
 30
0.0
 11
68.487851
 21
183.7177819999998
 31
0.0
  0
LINE
  5
AAAC
330
AA2F
100
AcDbEntity
  8
1
  6
Continuous
100
AcDbLine
 10
40.98785099999999
 20
163.2163
 30
0.0
 11
40.98785099999999
 21
188.2192639999999
 31
0.0
  0
LINE
  5
AAAD
330
AA2F
100
AcDbEntity
  8
1
  6
Continuous
100
AcDbLine
 10
40.98785099999999
 20
166.217782
 30
0.0
 11
39.487851
 21
167.7177819999998
 31
0.0
  0
ARC
  5
AAAE
330
AA2F
100
AcDbEntity
  8
1
  6
Continuous
100
AcDbCircle
 10
44.987851
 20
146.7845079999999
 30
0.0
 40
1.5
100
AcDbArc
 50
180.0
 51
256.4810919999998
  0
LINE
  5
AAAF
330
AA2F
100
AcDbEntity
  8
1
  6
Continuous
100
AcDbLine
 10
43.48785099999999
 20
159.64593
 30
0.0
 11
40.98785099999999
 21
163.2163
 31
0.0
  0
LINE
  5
AAB0
330
AA2F
100
AcDbEntity
  8
1
  6
Continuous
100
AcDbLine
 10
39.487851
 20
171.717782
 30
0.0
 11
38.530276
 21
171.717782
 31
0.0
  0
LINE
  5
AAB1
330
AA2F
100
AcDbEntity
  8
1
  6
Continuous
100
AcDbLine
 10
39.487851
 20
179.7177819999998
 30
0.0
 11
38.44516199999999
 21
179.7177819999998
 31
0.0
  0
LINE
  5
AAB2
330
AA2F
100
AcDbEntity
  8
1
  6
Continuous
100
AcDbLine
 10
40.98785099999999
 20
185.2177819999998
 30
0.0
 11
39.487851
 21
183.7177819999998
 31
0.0
  0
LINE
  5
AAB3
330
AA2F
100
AcDbEntity
  8
1
  6
Continuous
100
AcDbLine
 10
39.487851
 20
167.7177819999998
 30
0.0
 11
39.487851
 21
183.7177819999998
 31
0.0
  0
ARC
  5
AAB4
330
AA2F
100
AcDbEntity
  8
1
  6
Continuous
100
AcDbCircle
 10
53.987851
 20
167.2177819999998
 30
0.0
 40
40.0
100
AcDbArc
 50
76.481092
 51
103.5189079999999
  0
LINE
  5
AAB5
330
AA2F
100
AcDbEntity
  8
1
  6
Continuous
100
AcDbLine
 10
30.98785100000001
 20
215.17952
 30
0.0
 11
76.98785100000002
 21
215.17952
 31
0.0
  0
ARC
  5
AAB6
330
AA2F
100
AcDbEntity
  8
1
  6
Continuous
100
AcDbCircle
 10
74.737851
 20
211.191224
 30
0.0
 40
4.0
100
AcDbArc
 50
0.0
 51
85.615961
  0
LINE
  5
AAB7
330
AA2F
100
AcDbEntity
  8
1
  6
Continuous
100
AcDbLine
 10
78.737851
 20
211.191224
 30
0.0
 11
78.737851
 21
189.4850059999999
 31
0.0
  0
ARC
  5
AAB8
330
AA2F
100
AcDbEntity
  8
1
  6
Continuous
100
AcDbCircle
 10
62.98785099999999
 20
204.651056
 30
0.0
 40
1.5
100
AcDbArc
 50
0.0
 51
76.481092
  0
ARC
  5
AAB9
330
AA2F
100
AcDbEntity
  8
1
  6
Continuous
100
AcDbCircle
 10
33.237851
 20
211.191224
 30
0.0
 40
4.0
100
AcDbArc
 50
94.384039
 51
180.0
  0
ARC
  5
AABA
330
AA2F
100
AcDbEntity
  8
1
  6
Continuous
100
AcDbCircle
 10
44.987851
 20
204.651056
 30
0.0
 40
1.5
100
AcDbArc
 50
103.5189079999999
 51
180.0
  0
LINE
  5
AABB
330
AA2F
100
AcDbEntity
  8
1
  6
Continuous
100
AcDbLine
 10
29.23785099999999
 20
211.191224
 30
0.0
 11
29.23785099999999
 21
189.4850059999999
 31
0.0
  0
LINE
  5
AABC
330
AA2F
100
AcDbEntity
  8
1
  6
Continuous
100
AcDbLine
 10
39.087182
 20
210.5764409999999
 30
0.0
 11
68.88851999999999
 21
210.5764409999999
 31
0.0
  0
LINE
  5
AABD
330
AA2F
100
AcDbEntity
  8
1
  6
Continuous
100
AcDbLine
 10
38.98785099999999
 20
212.80205
 30
0.0
 11
68.98785100000001
 21
212.80205
 31
0.0
  0
ARC
  5
AABE
330
AA2F
100
AcDbEntity
  8
1
  6
Continuous
100
AcDbCircle
 10
67.63674399999999
 20
208.509672
 30
0.0
 40
4.5
100
AcDbArc
 50
359.391148
 51
72.527617
  0
ARC
  5
AABF
330
AA2F
100
AcDbEntity
  8
1
  6
Continuous
100
AcDbCircle
 10
67.337851
 20
208.615465
 30
0.0
 40
2.5
100
AcDbArc
 50
0.0
 51
51.66432999999999
  0
LINE
  5
AAC0
330
AA2F
100
AcDbEntity
  8
1
  6
Continuous
100
AcDbLine
 10
69.83771
 20
208.5888989999999
 30
0.0
 11
69.375078
 21
165.1057189999999
 31
0.0
  0
LINE
  5
AAC1
330
AA2F
100
AcDbEntity
  8
1
  6
Continuous
100
AcDbLine
 10
72.13649000000002
 20
208.461854
 30
0.0
 11
71.675208
 21
165.1057189999999
 31
0.0
  0
LINE
  5
AAC2
330
AA2F
100
AcDbEntity
  8
1
  6
Continuous
100
AcDbLine
 10
69.375078
 20
165.1057189999999
 30
0.0
 11
71.675208
 21
165.1057189999999
 31
0.0
  0
LINE
  5
AAC3
330
AA2F
100
AcDbEntity
  8
1
  6
Continuous
100
AcDbLine
 10
35.83921199999998
 20
208.461854
 30
0.0
 11
36.300494
 21
165.1057189999999
 31
0.0
  0
LINE
  5
AAC4
330
AA2F
100
AcDbEntity
  8
1
  6
Continuous
100
AcDbLine
 10
38.60062399999998
 20
165.1057189999999
 30
0.0
 11
36.300494
 21
165.1057189999999
 31
0.0
  0
LINE
  5
AAC5
330
AA2F
100
AcDbEntity
  8
1
  6
Continuous
100
AcDbLine
 10
38.137992
 20
208.5888989999999
 30
0.0
 11
38.60062399999998
 21
165.1057189999999
 31
0.0
  0
ARC
  5
AAC6
330
AA2F
100
AcDbEntity
  8
1
  6
Continuous
100
AcDbCircle
 10
40.33895799999998
 20
208.509672
 30
0.0
 40
4.5
100
AcDbArc
 50
107.4723829999999
 51
180.608852
  0
ARC
  5
AAC7
330
AA2F
100
AcDbEntity
  8
1
  6
Continuous
100
AcDbCircle
 10
40.63785099999999
 20
208.615465
 30
0.0
 40
2.5
100
AcDbArc
 50
128.3356699999999
 51
180.608852
  0
ARC
  5
AAC8
330
AA2F
100
AcDbEntity
  8
1
  6
Continuous
100
AcDbCircle
 10
57.396101
 20
189.4850059999999
 30
0.0
 40
28.15825
100
AcDbArc
 50
180.0
 51
206.726255
  0
ARC
  5
AAC9
330
AA2F
100
AcDbEntity
  8
1
  6
Continuous
100
AcDbCircle
 10
50.57960099999998
 20
189.4850059999999
 30
0.0
 40
28.15825
100
AcDbArc
 50
326.9891059999999
 51
0.0
  0
ARC
  5
AACA
330
AA2F
100
AcDbEntity
  8
1
  6
Continuous
100
AcDbCircle
 10
42.68796199999999
 20
175.717782
 30
0.0
 40
10.5
100
AcDbArc
 50
146.796177
 51
213.203823
  0
LINE
  5
AACB
330
AA2F
100
AcDbEntity
  8
1
  6
Continuous
100
AcDbLine
 10
33.90232000000001
 20
181.4677819999998
 30
0.0
 11
36.12661699999998
 21
181.4677819999998
 31
0.0
  0
LINE
  5
AACC
330
AA2F
100
AcDbEntity
  8
1
  6
Continuous
100
AcDbLine
 10
36.248826
 20
169.9677819999998
 30
0.0
 11
33.90232000000001
 21
169.9677819999998
 31
0.0
  0
LINE
  5
AACD
330
AA2F
100
AcDbEntity
  8
1
  6
Continuous
100
AcDbLine
 10
33.90232000000001
 20
181.4677819999998
 30
0.0
 11
33.90232000000001
 21
169.9677819999998
 31
0.0
  0
LINE
  5
AACE
330
AA2F
100
AcDbEntity
  8
1
  6
Continuous
100
AcDbLine
 10
73.28774
 20
180.7177819999998
 30
0.0
 11
71.841115
 21
180.7177819999998
 31
0.0
  0
LINE
  5
AACF
330
AA2F
100
AcDbEntity
  8
1
  6
Continuous
100
AcDbLine
 10
73.28774
 20
170.717782
 30
0.0
 11
71.734847
 21
170.717782
 31
0.0
  0
ARC
  5
AAD0
330
AA2F
100
AcDbEntity
  8
1
  6
Continuous
100
AcDbCircle
 10
61.28773999999999
 20
175.717782
 30
0.0
 40
13.0
100
AcDbArc
 50
337.3801349999999
 51
22.619865
  0
LINE
  5
AAD1
330
AA2F
100
AcDbEntity
  8
1
  6
Continuous
100
AcDbLine
 10
73.28774
 20
170.717782
 30
0.0
 11
73.28774
 21
180.7177819999998
 31
0.0
  0
LINE
  5
AAD2
330
AA2F
100
AcDbEntity
  8
1
  6
Continuous
100
AcDbLine
 10
268.1438769999999
 20
208.46721
 30
0.0
 11
268.605214
 21
165.1057189999999
 31
0.0
  0
LINE
  5
AAD3
330
AA2F
100
AcDbEntity
  8
1
  6
Continuous
100
AcDbLine
 10
299.8410059999999
 20
208.46721
 30
0.0
 11
299.3796679999999
 21
165.1057189999999
 31
0.0
  0
LINE
  5
AAD4
330
AA2F
100
AcDbEntity
  8
1
  6
Continuous
100
AcDbLine
 10
299.3961929999999
 20
165.1057189999999
 30
0.0
 11
301.679798
 21
165.1057189999999
 31
0.0
  0
LINE
  5
AAD5
330
AA2F
100
AcDbEntity
  8
4
  6
CENTER
100
AcDbLine
 10
185.490146
 20
98.56031800000003
 30
0.0
 11
185.490146
 21
39.060318
 31
0.0
  0
LINE
  5
AAD6
330
AA2F
100
AcDbEntity
  8
4
  6
CENTER
100
AcDbLine
 10
215.240146
 20
68.81031800000001
 30
0.0
 11
123.990146
 21
68.81031800000001
 31
0.0
  0
ARC
  5
AAD7
330
AA2F
100
AcDbEntity
  8
1
  6
Continuous
100
AcDbCircle
 10
131.5568719999999
 20
59.810318
 30
0.0
 40
1.5
100
AcDbArc
 50
193.518908
 51
270.0
  0
LINE
  5
AAD8
330
AA2F
100
AcDbEntity
  8
1
  6
Continuous
100
AcDbLine
 10
189.4234199999999
 20
58.310318
 30
0.0
 11
131.5568719999999
 21
58.310318
 31
0.0
  0
ARC
  5
AAD9
330
AA2F
100
AcDbEntity
  8
1
  6
Continuous
100
AcDbCircle
 10
168.990146
 20
68.81031800000001
 30
0.0
 40
40.0
100
AcDbArc
 50
166.4810919999998
 51
193.518908
  0
ARC
  5
AADA
330
AA2F
100
AcDbEntity
  8
1
  6
Continuous
100
AcDbCircle
 10
131.5568719999999
 20
77.81031799999998
 30
0.0
 40
1.5
100
AcDbArc
 50
90.0
 51
166.4810919999998
  0
LINE
  5
AADB
330
AA2F
100
AcDbEntity
  8
1
  6
Continuous
100
AcDbLine
 10
189.4234199999999
 20
79.31031800000003
 30
0.0
 11
131.5568719999999
 21
79.31031800000003
 31
0.0
  0
LINE
  5
AADC
330
AA2F
100
AcDbEntity
  8
1
  6
Continuous
100
AcDbLine
 10
168.490146
 20
83.31031800000003
 30
0.0
 11
152.490146
 21
83.31031800000003
 31
0.0
  0
LINE
  5
AADD
330
AA2F
100
AcDbEntity
  8
1
  6
Continuous
100
AcDbLine
 10
147.9886639999998
 20
81.81031800000003
 30
0.0
 11
172.9916279999999
 21
81.81031800000003
 31
0.0
  0
LINE
  5
AADE
330
AA2F
100
AcDbEntity
  8
1
  6
Continuous
100
AcDbLine
 10
156.490146
 20
84.353008
 30
0.0
 11
156.490146
 21
83.31031800000003
 31
0.0
  0
LINE
  5
AADF
330
AA2F
100
AcDbEntity
  8
1
  6
Continuous
100
AcDbLine
 10
164.4901459999998
 20
84.464144
 30
0.0
 11
164.4901459999998
 21
83.31031800000003
 31
0.0
  0
LINE
  5
AAE0
330
AA2F
100
AcDbEntity
  8
1
  6
Continuous
100
AcDbLine
 10
176.5619979999999
 20
79.31031800000003
 30
0.0
 11
172.9916279999999
 21
81.81031800000003
 31
0.0
  0
LINE
  5
AAE1
330
AA2F
100
AcDbEntity
  8
1
  6
Continuous
100
AcDbLine
 10
169.990146
 20
81.81031800000003
 30
0.0
 11
168.490146
 21
83.31031800000003
 31
0.0
  0
LINE
  5
AAE2
330
AA2F
100
AcDbEntity
  8
1
  6
Continuous
100
AcDbLine
 10
150.990146
 20
81.81031800000003
 30
0.0
 11
152.490146
 21
83.31031800000003
 31
0.0
  0
LINE
  5
AAE3
330
AA2F
100
AcDbEntity
  8
1
  6
Continuous
100
AcDbLine
 10
144.418294
 20
79.31031800000003
 30
0.0
 11
147.9886639999998
 21
81.81031800000003
 31
0.0
  0
ARC
  5
AAE4
330
AA2F
100
AcDbEntity
  8
1
  6
Continuous
100
AcDbCircle
 10
189.4234199999999
 20
77.81031799999998
 30
0.0
 40
1.5
100
AcDbArc
 50
13.51890799999999
 51
90.0
  0
ARC
  5
AAE5
330
AA2F
100
AcDbEntity
  8
1
  6
Continuous
100
AcDbCircle
 10
151.9901459999998
 20
68.81031800000001
 30
0.0
 40
40.0
100
AcDbArc
 50
346.481092
 51
13.51890799999999
  0
ARC
  5
AAE6
330
AA2F
100
AcDbEntity
  8
1
  6
Continuous
100
AcDbCircle
 10
189.4234199999999
 20
59.810318
 30
0.0
 40
1.5
100
AcDbArc
 50
270.0
 51
346.481092
  0
LINE
  5
AAE7
330
AA2F
100
AcDbEntity
  8
1
  6
Continuous
100
AcDbLine
 10
168.490146
 20
54.310318
 30
0.0
 11
152.490146
 21
54.310318
 31
0.0
  0
LINE
  5
AAE8
330
AA2F
100
AcDbEntity
  8
1
  6
Continuous
100
AcDbLine
 10
172.9916279999999
 20
55.810318
 30
0.0
 11
147.9886639999998
 21
55.810318
 31
0.0
  0
LINE
  5
AAE9
330
AA2F
100
AcDbEntity
  8
1
  6
Continuous
100
AcDbLine
 10
176.5619979999999
 20
58.310318
 30
0.0
 11
172.9916279999999
 21
55.810318
 31
0.0
  0
LINE
  5
AAEA
330
AA2F
100
AcDbEntity
  8
1
  6
Continuous
100
AcDbLine
 10
169.990146
 20
55.810318
 30
0.0
 11
168.490146
 21
54.310318
 31
0.0
  0
LINE
  5
AAEB
330
AA2F
100
AcDbEntity
  8
1
  6
Continuous
100
AcDbLine
 10
150.990146
 20
55.810318
 30
0.0
 11
152.490146
 21
54.310318
 31
0.0
  0
LINE
  5
AAEC
330
AA2F
100
AcDbEntity
  8
1
  6
Continuous
100
AcDbLine
 10
144.418294
 20
58.310318
 30
0.0
 11
147.9886639999998
 21
55.810318
 31
0.0
  0
LINE
  5
AAED
330
AA2F
100
AcDbEntity
  8
1
  6
Continuous
100
AcDbLine
 10
156.490146
 20
54.310318
 30
0.0
 11
156.490146
 21
53.26762900000001
 31
0.0
  0
LINE
  5
AAEE
330
AA2F
100
AcDbEntity
  8
1
  6
Continuous
100
AcDbLine
 10
164.4901459999998
 20
54.310318
 30
0.0
 11
164.4901459999998
 21
53.156493
 31
0.0
  0
ARC
  5
AAEF
330
AA2F
100
AcDbEntity
  8
1
  6
Continuous
100
AcDbCircle
 10
160.490146
 20
57.510429
 30
0.0
 40
10.5
100
AcDbArc
 50
236.7961769999999
 51
303.2038229999999
  0
LINE
  5
AAF0
330
AA2F
100
AcDbEntity
  8
1
  6
Continuous
100
AcDbLine
 10
154.740146
 20
48.724787
 30
0.0
 11
154.740146
 21
51.071232
 31
0.0
  0
LINE
  5
AAF1
330
AA2F
100
AcDbEntity
  8
1
  6
Continuous
100
AcDbLine
 10
166.240146
 20
50.521468
 30
0.0
 11
166.240146
 21
48.724787
 31
0.0
  0
LINE
  5
AAF2
330
AA2F
100
AcDbEntity
  8
1
  6
Continuous
100
AcDbLine
 10
154.740146
 20
48.724787
 30
0.0
 11
166.240146
 21
48.724787
 31
0.0
  0
LINE
  5
AAF3
330
AA2F
100
AcDbEntity
  8
1
  6
Continuous
100
AcDbLine
 10
155.490146
 20
88.11020699999996
 30
0.0
 11
155.490146
 21
86.66358199999995
 31
0.0
  0
LINE
  5
AAF4
330
AA2F
100
AcDbEntity
  8
1
  6
Continuous
100
AcDbLine
 10
165.490146
 20
88.11020699999996
 30
0.0
 11
165.490146
 21
86.941117
 31
0.0
  0
ARC
  5
AAF5
330
AA2F
100
AcDbEntity
  8
1
  6
Continuous
100
AcDbCircle
 10
160.490146
 20
76.11020699999999
 30
0.0
 40
13.0
100
AcDbArc
 50
67.380135
 51
112.6198649999998
  0
LINE
  5
AAF6
330
AA2F
100
AcDbEntity
  8
1
  6
Continuous
100
AcDbLine
 10
165.490146
 20
88.11020699999996
 30
0.0
 11
155.490146
 21
88.11020699999996
 31
0.0
  0
LINE
  5
AAF7
330
AA2F
100
AcDbEntity
  8
1
  6
Continuous
100
AcDbLine
 10
162.3702449999998
 20
84.33045400000002
 30
0.0
 11
150.5974219999998
 21
84.20519899999998
 31
0.0
  0
LINE
  5
AAF8
330
AA2F
100
AcDbEntity
  8
1
  6
Continuous
100
AcDbLine
 10
162.3457769999999
 20
86.630324
 30
0.0
 11
150.5974219999998
 21
86.50532899999998
 31
0.0
  0
LINE
  5
AAF9
330
AA2F
100
AcDbEntity
  8
1
  6
Continuous
100
AcDbLine
 10
162.3457769999999
 20
50.990313
 30
0.0
 11
150.5974219999998
 21
51.115308
 31
0.0
  0
LINE
  5
AAFA
330
AA2F
100
AcDbEntity
  8
1
  6
Continuous
100
AcDbLine
 10
162.3702449999998
 20
53.290183
 30
0.0
 11
150.5974219999998
 21
53.415438
 31
0.0
  0
LINE
  5
AAFB
330
AA2F
100
AcDbEntity
  8
4
  6
CENTER
100
AcDbLine
 10
160.490146
 20
94.11020699999999
 30
0.0
 11
160.490146
 21
42.010429
 31
0.0
  0
LINE
  5
AAFC
330
AA2F
100
AcDbEntity
  8
1
  6
Continuous
100
AcDbLine
 10
150.5974219999998
 20
86.50532899999998
 30
0.0
 11
150.5974219999998
 21
84.20519899999998
 31
0.0
  0
LINE
  5
AAFD
330
AA2F
100
AcDbEntity
  8
1
  6
Continuous
100
AcDbLine
 10
150.5974219999998
 20
53.415438
 30
0.0
 11
150.5974219999998
 21
51.115308
 31
0.0
  0
ARC
  5
AAFE
330
AA2F
100
AcDbEntity
  8
1
  6
Continuous
100
AcDbCircle
 10
185.490146
 20
68.81031800000001
 30
0.0
 40
24.75
100
AcDbArc
 50
236.915984
 51
123.084016
  0
ARC
  5
AAFF
330
AA2F
100
AcDbEntity
  8
1
  6
Continuous
100
AcDbCircle
 10
185.490146
 20
68.81031800000001
 30
0.0
 40
22.45
100
AcDbArc
 50
236.915984
 51
123.084016
  0
ARC
  5
AB00
330
AA2F
100
AcDbEntity
  8
1
  6
Continuous
100
AcDbCircle
 10
185.490146
 20
68.81031800000001
 30
0.0
 40
20.44999999999999
100
AcDbArc
 50
219.4716859999998
 51
140.5283139999999
  0
ARC
  5
AB01
330
AA2F
100
AcDbEntity
  8
1
  6
Continuous
100
AcDbCircle
 10
185.490146
 20
68.81031800000001
 30
0.0
 40
18.44999999999998
100
AcDbArc
 50
224.7978069999998
 51
135.202193
  0
ARC
  5
AB02
330
AA2F
100
AcDbEntity
  8
1
  6
Continuous
100
AcDbCircle
 10
185.490146
 20
68.81031800000001
 30
0.0
 40
9.449999999999999
100
AcDbArc
 50
307.8441509999998
 51
52.15584899999999
  0
CIRCLE
  5
AB03
330
AA2F
100
AcDbEntity
  8
1
  6
Continuous
100
AcDbCircle
 10
160.490146
 20
175.717882
 30
0.0
 40
5.0
  0
LINE
  5
AB04
330
AA2F
100
AcDbEntity
  8
1
  6
Continuous
100
AcDbLine
 10
301.7121409999999
 20
168.1456459999999
 30
0.0
 11
301.679798
 21
165.1057189999999
 31
0.0
  0
ARC
  5
AB05
330
AA2F
100
AcDbEntity
  8
1
  6
Continuous
100
AcDbCircle
 10
309.7116889999999
 20
168.060536
 30
0.0
 40
8.0
100
AcDbArc
 50
143.6639909999998
 51
179.390432
  0
ARC
  5
AB06
330
AA2F
100
AcDbEntity
  8
1
  6
Continuous
100
AcDbCircle
 10
307.419848
 20
168.839702
 30
0.0
 40
8.0
100
AcDbArc
 50
142.4280659999998
 51
179.390434
  0
ARC
  5
AB07
330
AA2F
100
AcDbEntity
  8
1
  6
Continuous
100
AcDbCircle
 10
287.4006909999998
 20
189.4850059999999
 30
0.0
 40
28.15825
100
AcDbArc
 50
180.0
 51
216.3360089999999
  0
ARC
  5
AB08
330
AA2F
100
AcDbEntity
  8
1
  6
Continuous
100
AcDbCircle
 10
287.4006909999998
 20
189.4850059999999
 30
0.0
 40
25.85825
100
AcDbArc
 50
180.0
 51
217.571934
  0
ARC
  5
AB09
330
AA2F
100
AcDbEntity
  8
1
  6
Continuous
100
AcDbCircle
 10
258.2731939999998
 20
168.060536
 30
0.0
 40
8.0
100
AcDbArc
 50
0.609568
 51
36.33600899999999
  0
ARC
  5
AB0A
330
AA2F
100
AcDbEntity
  8
1
  6
Continuous
100
AcDbCircle
 10
260.565035
 20
168.839702
 30
0.0
 40
8.0
100
AcDbArc
 50
0.6095660000000001
 51
37.57193400000001
  0
LINE
  5
AB0B
330
AA2F
100
AcDbEntity
  8
1
  6
Continuous
100
AcDbLine
 10
266.2727419999999
 20
168.1456459999999
 30
0.0
 11
266.3050839999999
 21
165.1057189999999
 31
0.0
  0
LINE
  5
AB0C
330
AA2F
100
AcDbEntity
  8
1
  6
Continuous
100
AcDbLine
 10
264.6925519999999
 20
170.717782
 30
0.0
 11
264.6925519999999
 21
172.834857
 31
0.0
  0
ARC
  5
AB0D
330
AA2F
100
AcDbEntity
  8
1
  6
Continuous
100
AcDbCircle
 10
276.692552
 20
175.717782
 30
0.0
 40
13.0
100
AcDbArc
 50
186.951364
 51
202.6198649999999
  0
LINE
  5
AB0E
330
AA2F
100
AcDbEntity
  8
1
  6
Continuous
100
AcDbLine
 10
264.6925519999999
 20
170.717782
 30
0.0
 11
265.8189899999999
 21
170.717782
 31
0.0
  0
LINE
  5
AB0F
330
AA2F
100
AcDbEntity
  8
1
  6
Continuous
100
AcDbLine
 10
301.9423639999998
 20
169.9677819999998
 30
0.0
 11
304.077941
 21
169.9677819999998
 31
0.0
  0
LINE
  5
AB10
330
AA2F
100
AcDbEntity
  8
1
  6
Continuous
100
AcDbLine
 10
304.077941
 20
173.9630619999998
 30
0.0
 11
304.077941
 21
169.9677819999998
 31
0.0
  0
ARC
  5
AB11
330
AA2F
100
AcDbEntity
  8
1
  6
Continuous
100
AcDbCircle
 10
295.292299
 20
175.717782
 30
0.0
 40
10.5
100
AcDbArc
 50
326.7961769999998
 51
6.033259999999998
  0
LINE
  5
AB12
330
AA2F
100
AcDbEntity
  8
1
  6
Continuous
100
AcDbLine
 10
59.588285
 20
209.3610889999999
 30
0.0
 11
60.803637
 21
210.5764409999999
 31
0.0
  0
LINE
  5
AB13
330
AA2F
100
AcDbEntity
  8
1
  6
Continuous
100
AcDbLine
 10
69.38942
 20
209.3610889999999
 30
0.0
 11
38.586282
 21
209.3610889999999
 31
0.0
  0
LINE
  5
AB14
330
AA2F
100
AcDbEntity
  8
1
  6
Continuous
100
AcDbLine
 10
38.507466
 20
208.353936
 30
0.0
 11
69.468237
 21
208.353936
 31
0.0
  0
LINE
  5
AB15
330
AA2F
100
AcDbEntity
  8
1
  6
Continuous
100
AcDbLine
 10
44.031936
 20
209.3610889999999
 30
0.0
 11
45.24728699999999
 21
210.5764409999999
 31
0.0
  0
LINE
  5
AB16
330
AA2F
100
AcDbEntity
  8
1
  6
Continuous
100
AcDbLine
 10
45.150426
 20
209.3610889999999
 30
0.0
 11
43.93507399999999
 21
210.5764409999999
 31
0.0
  0
LINE
  5
AB17
330
AA2F
100
AcDbEntity
  8
1
  6
Continuous
100
AcDbLine
 10
42.72191999999999
 20
205.5535639999999
 30
0.0
 11
43.789737
 21
205.5535639999999
 31
0.0
  0
LINE
  5
AB18
330
AA2F
100
AcDbEntity
  8
1
  6
Continuous
100
AcDbLine
 10
43.736212
 20
209.3610889999999
 30
0.0
 11
42.52086
 21
210.5764409999999
 31
0.0
  0
LINE
  5
AB19
330
AA2F
100
AcDbEntity
  8
1
  6
Continuous
100
AcDbLine
 10
42.617722
 20
209.3610889999999
 30
0.0
 11
43.83307399999998
 21
210.5764409999999
 31
0.0
  0
LINE
  5
AB1A
330
AA2F
100
AcDbEntity
  8
1
  6
Continuous
100
AcDbLine
 10
38.866056
 20
209.988604
 30
0.0
 11
39.493571
 21
209.3610889999999
 31
0.0
  0
ARC
  5
AB1B
330
AA2F
100
AcDbEntity
  8
1
  6
Continuous
100
AcDbCircle
 10
42.227783
 20
210.0128329999999
 30
0.0
 40
4.217937
100
AcDbArc
 50
212.9024809999999
 51
227.0719179999999
  0
ARC
  5
AB1C
330
AA2F
100
AcDbEntity
  8
1
  6
Continuous
100
AcDbCircle
 10
43.003175
 20
210.846435
 30
0.0
 40
5.356411999999998
100
AcDbArc
 50
227.0719179999999
 51
260.59491
  0
ARC
  5
AB1D
330
AA2F
100
AcDbEntity
  8
1
  6
Continuous
100
AcDbCircle
 10
37.49265799999999
 20
210.1638349999999
 30
0.0
 40
2.088299
100
AcDbArc
 50
319.8145149999998
 51
335.385289
  0
LINE
  5
AB1E
330
AA2F
100
AcDbEntity
  8
1
  6
Continuous
100
AcDbLine
 10
38.709404
 20
209.6954119999999
 30
0.0
 11
39.59043299999999
 21
210.5764409999999
 31
0.0
  0
ARC
  5
AB1F
330
AA2F
100
AcDbEntity
  8
1
  6
Continuous
100
AcDbCircle
 10
40.98785099999999
 20
208.6664889999999
 30
0.0
 40
2.5
100
AcDbArc
 50
130.183595
 51
187.18198
  0
ARC
  5
AB20
330
AA2F
100
AcDbEntity
  8
1
  6
Continuous
100
AcDbCircle
 10
38.82010499999999
 20
209.042632
 30
0.0
 40
0.3507099999999999
100
AcDbArc
 50
305.759494
 51
319.8145149999998
  0
LINE
  5
AB21
330
AA2F
100
AcDbEntity
  8
1
  6
Continuous
100
AcDbLine
 10
39.025055
 20
208.7580389999998
 30
0.0
 11
38.806344
 21
208.353936
 31
0.0
  0
LINE
  5
AB22
330
AA2F
100
AcDbEntity
  8
1
  6
Continuous
100
AcDbLine
 10
38.730922
 20
208.353936
 30
0.0
 11
38.62296699999999
 21
208.3471679999999
 31
0.0
  0
ARC
  5
AB23
330
AA2F
100
AcDbEntity
  8
1
  6
Continuous
100
AcDbCircle
 10
38.78015299999999
 20
208.2492709999999
 30
0.0
 40
0.18518
100
AcDbArc
 50
148.0847599999999
 51
201.017471
  0
ARC
  5
AB24
330
AA2F
100
AcDbEntity
  8
1
  6
Continuous
100
AcDbCircle
 10
37.490958
 20
207.7539439999999
 30
0.0
 40
1.195896999999998
100
AcDbArc
 50
358.4503999999999
 51
21.017471
  0
ARC
  5
AB25
330
AA2F
100
AcDbEntity
  8
1
  6
Continuous
100
AcDbCircle
 10
39.527945
 20
209.231376
 30
0.0
 40
0.150422
100
AcDbArc
 50
120.421811
 51
155.3852889999998
  0
LINE
  5
AB26
330
AA2F
100
AcDbEntity
  8
1
  6
Continuous
100
AcDbLine
 10
41.20350799999999
 20
209.3610889999999
 30
0.0
 11
42.41886
 21
210.5764409999999
 31
0.0
  0
LINE
  5
AB27
330
AA2F
100
AcDbEntity
  8
1
  6
Continuous
100
AcDbLine
 10
39.789295
 20
209.3610889999999
 30
0.0
 11
41.00464699999998
 21
210.5764409999999
 31
0.0
  0
LINE
  5
AB28
330
AA2F
100
AcDbEntity
  8
1
  6
Continuous
100
AcDbLine
 10
42.321999
 20
209.3610889999999
 30
0.0
 11
41.106647
 21
210.5764409999999
 31
0.0
  0
LINE
  5
AB29
330
AA2F
100
AcDbEntity
  8
1
  6
Continuous
100
AcDbLine
 10
40.90778499999998
 20
209.3610889999999
 30
0.0
 11
39.692433
 21
210.5764409999999
 31
0.0
  0
ARC
  5
AB2A
330
AA2F
100
AcDbEntity
  8
1
  6
Continuous
100
AcDbCircle
 10
42.72191999999999
 20
226.412562
 30
0.0
 40
20.85899799999999
100
AcDbArc
 50
268.368019
 51
270.0
  0
LINE
  5
AB2B
330
AA2F
100
AcDbEntity
  8
1
  6
Continuous
100
AcDbLine
 10
56.464134
 20
209.3610889999999
 30
0.0
 11
55.24878199999999
 21
210.5764409999999
 31
0.0
  0
LINE
  5
AB2C
330
AA2F
100
AcDbEntity
  8
1
  6
Continuous
100
AcDbLine
 10
49.393066
 20
209.3610889999999
 30
0.0
 11
48.177715
 21
210.5764409999999
 31
0.0
  0
LINE
  5
AB2D
330
AA2F
100
AcDbEntity
  8
1
  6
Continuous
100
AcDbLine
 10
50.80728
 20
209.3610889999999
 30
0.0
 11
49.591928
 21
210.5764409999999
 31
0.0
  0
LINE
  5
AB2E
330
AA2F
100
AcDbEntity
  8
1
  6
Continuous
100
AcDbLine
 10
48.274576
 20
209.3610889999999
 30
0.0
 11
49.489928
 21
210.5764409999999
 31
0.0
  0
LINE
  5
AB2F
330
AA2F
100
AcDbEntity
  8
1
  6
Continuous
100
AcDbLine
 10
49.68879000000001
 20
209.3610889999999
 30
0.0
 11
50.904142
 21
210.5764409999999
 31
0.0
  0
LINE
  5
AB30
330
AA2F
100
AcDbEntity
  8
1
  6
Continuous
100
AcDbLine
 10
52.221494
 20
209.3610889999999
 30
0.0
 11
51.00614199999998
 21
210.5764409999999
 31
0.0
  0
LINE
  5
AB31
330
AA2F
100
AcDbEntity
  8
1
  6
Continuous
100
AcDbLine
 10
51.103003
 20
209.3610889999999
 30
0.0
 11
52.31835499999998
 21
210.5764409999999
 31
0.0
  0
LINE
  5
AB32
330
AA2F
100
AcDbEntity
  8
1
  6
Continuous
100
AcDbLine
 10
55.04992099999999
 20
209.3610889999999
 30
0.0
 11
53.83456899999998
 21
210.5764409999999
 31
0.0
  0
LINE
  5
AB33
330
AA2F
100
AcDbEntity
  8
1
  6
Continuous
100
AcDbLine
 10
52.517217
 20
209.3610889999999
 30
0.0
 11
53.73256899999999
 21
210.5764409999999
 31
0.0
  0
LINE
  5
AB34
330
AA2F
100
AcDbEntity
  8
1
  6
Continuous
100
AcDbLine
 10
53.93143000000002
 20
209.3610889999999
 30
0.0
 11
55.14678199999998
 21
210.5764409999999
 31
0.0
  0
LINE
  5
AB35
330
AA2F
100
AcDbEntity
  8
1
  6
Continuous
100
AcDbLine
 10
53.635707
 20
209.3610889999999
 30
0.0
 11
52.420355
 21
210.5764409999999
 31
0.0
  0
LINE
  5
AB36
330
AA2F
100
AcDbEntity
  8
1
  6
Continuous
100
AcDbLine
 10
46.564639
 20
209.3610889999999
 30
0.0
 11
45.349287
 21
210.5764409999999
 31
0.0
  0
LINE
  5
AB37
330
AA2F
100
AcDbEntity
  8
1
  6
Continuous
100
AcDbLine
 10
45.446149
 20
209.3610889999999
 30
0.0
 11
46.661501
 21
210.5764409999999
 31
0.0
  0
LINE
  5
AB38
330
AA2F
100
AcDbEntity
  8
1
  6
Continuous
100
AcDbLine
 10
47.97885299999999
 20
209.3610889999999
 30
0.0
 11
46.76350099999999
 21
210.5764409999999
 31
0.0
  0
LINE
  5
AB39
330
AA2F
100
AcDbEntity
  8
1
  6
Continuous
100
AcDbLine
 10
46.860363
 20
209.3610889999999
 30
0.0
 11
48.075715
 21
210.5764409999999
 31
0.0
  0
LINE
  5
AB3A
330
AA2F
100
AcDbEntity
  8
1
  6
Continuous
100
AcDbLine
 10
55.34564399999999
 20
209.3610889999999
 30
0.0
 11
56.56099600000001
 21
210.5764409999999
 31
0.0
  0
LINE
  5
AB3B
330
AA2F
100
AcDbEntity
  8
1
  6
Continuous
100
AcDbLine
 10
57.87834799999998
 20
209.3610889999999
 30
0.0
 11
56.662996
 21
210.5764409999999
 31
0.0
  0
LINE
  5
AB3C
330
AA2F
100
AcDbEntity
  8
1
  6
Continuous
100
AcDbLine
 10
56.75985799999999
 20
209.3610889999999
 30
0.0
 11
57.975209
 21
210.5764409999999
 31
0.0
  0
LINE
  5
AB3D
330
AA2F
100
AcDbEntity
  8
1
  6
Continuous
100
AcDbLine
 10
59.29256099999999
 20
209.3610889999999
 30
0.0
 11
58.07720899999999
 21
210.5764409999999
 31
0.0
  0
LINE
  5
AB3E
330
AA2F
100
AcDbEntity
  8
1
  6
Continuous
100
AcDbLine
 10
68.073566
 20
209.3610889999999
 30
0.0
 11
68.940326
 21
210.2278479999999
 31
0.0
  0
ARC
  5
AB3F
330
AA2F
100
AcDbEntity
  8
1
  6
Continuous
100
AcDbCircle
 10
68.44775699999999
 20
209.231376
 30
0.0
 40
0.150422
100
AcDbArc
 50
24.614711
 51
59.57818899999999
  0
ARC
  5
AB40
330
AA2F
100
AcDbEntity
  8
1
  6
Continuous
100
AcDbCircle
 10
65.747919
 20
210.0128329999999
 30
0.0
 40
4.217937
100
AcDbArc
 50
312.9280819999999
 51
327.0975189999999
  0
ARC
  5
AB41
330
AA2F
100
AcDbEntity
  8
1
  6
Continuous
100
AcDbCircle
 10
70.48304399999998
 20
210.1638349999999
 30
0.0
 40
2.088299
100
AcDbArc
 50
204.614711
 51
220.185485
  0
ARC
  5
AB42
330
AA2F
100
AcDbEntity
  8
1
  6
Continuous
100
AcDbCircle
 10
69.155597
 20
209.042632
 30
0.0
 40
0.3507099999999999
100
AcDbArc
 50
220.185485
 51
234.240506
  0
LINE
  5
AB43
330
AA2F
100
AcDbEntity
  8
1
  6
Continuous
100
AcDbLine
 10
68.950647
 20
208.7580389999998
 30
0.0
 11
69.169358
 21
208.353936
 31
0.0
  0
LINE
  5
AB44
330
AA2F
100
AcDbEntity
  8
1
  6
Continuous
100
AcDbLine
 10
69.24478
 20
208.353936
 30
0.0
 11
69.352735
 21
208.3471679999999
 31
0.0
  0
ARC
  5
AB45
330
AA2F
100
AcDbEntity
  8
1
  6
Continuous
100
AcDbCircle
 10
69.195549
 20
208.2492709999999
 30
0.0
 40
0.18518
100
AcDbArc
 50
338.982529
 51
31.91524
  0
ARC
  5
AB46
330
AA2F
100
AcDbEntity
  8
1
  6
Continuous
100
AcDbCircle
 10
70.48474399999998
 20
207.7539439999999
 30
0.0
 40
1.195896999999998
100
AcDbArc
 50
158.982529
 51
181.5495999999999
  0
LINE
  5
AB47
330
AA2F
100
AcDbEntity
  8
1
  6
Continuous
100
AcDbLine
 10
64.18596599999999
 20
205.5535639999999
 30
0.0
 11
65.253782
 21
205.5535639999999
 31
0.0
  0
ARC
  5
AB48
330
AA2F
100
AcDbEntity
  8
1
  6
Continuous
100
AcDbCircle
 10
65.253782
 20
226.412562
 30
0.0
 40
20.85899799999999
100
AcDbArc
 50
270.0
 51
271.6319809999999
  0
ARC
  5
AB49
330
AA2F
100
AcDbEntity
  8
1
  6
Continuous
100
AcDbCircle
 10
64.972527
 20
210.846435
 30
0.0
 40
5.356411999999998
100
AcDbArc
 50
279.4050899999999
 51
312.9280819999999
  0
LINE
  5
AB4A
330
AA2F
100
AcDbEntity
  8
1
  6
Continuous
100
AcDbLine
 10
66.363629
 20
209.3610889999999
 30
0.0
 11
65.14827700000001
 21
210.5764409999999
 31
0.0
  0
LINE
  5
AB4B
330
AA2F
100
AcDbEntity
  8
1
  6
Continuous
100
AcDbLine
 10
63.830925
 20
209.3610889999999
 30
0.0
 11
65.046277
 21
210.5764409999999
 31
0.0
  0
LINE
  5
AB4C
330
AA2F
100
AcDbEntity
  8
1
  6
Continuous
100
AcDbLine
 10
65.24513899999999
 20
209.3610889999999
 30
0.0
 11
66.460491
 21
210.5764409999999
 31
0.0
  0
LINE
  5
AB4D
330
AA2F
100
AcDbEntity
  8
1
  6
Continuous
100
AcDbLine
 10
67.777843
 20
209.3610889999999
 30
0.0
 11
66.56249100000001
 21
210.5764409999999
 31
0.0
  0
LINE
  5
AB4E
330
AA2F
100
AcDbEntity
  8
1
  6
Continuous
100
AcDbLine
 10
66.659353
 20
209.3610889999999
 30
0.0
 11
67.87470400000001
 21
210.5764409999999
 31
0.0
  0
LINE
  5
AB4F
330
AA2F
100
AcDbEntity
  8
1
  6
Continuous
100
AcDbLine
 10
69.19205600000001
 20
209.3610889999999
 30
0.0
 11
67.976704
 21
210.5764409999999
 31
0.0
  0
ARC
  5
AB50
330
AA2F
100
AcDbEntity
  8
1
  6
Continuous
100
AcDbCircle
 10
66.98785100000001
 20
208.6664889999999
 30
0.0
 40
2.5
100
AcDbArc
 50
352.8180199999998
 51
49.81640500000001
  0
LINE
  5
AB51
330
AA2F
100
AcDbEntity
  8
1
  6
Continuous
100
AcDbLine
 10
61.002498
 20
209.3610889999999
 30
0.0
 11
62.21785
 21
210.5764409999999
 31
0.0
  0
LINE
  5
AB52
330
AA2F
100
AcDbEntity
  8
1
  6
Continuous
100
AcDbLine
 10
63.53520200000001
 20
209.3610889999999
 30
0.0
 11
62.31985
 21
210.5764409999999
 31
0.0
  0
LINE
  5
AB53
330
AA2F
100
AcDbEntity
  8
1
  6
Continuous
100
AcDbLine
 10
62.12098799999999
 20
209.3610889999999
 30
0.0
 11
60.905637
 21
210.5764409999999
 31
0.0
  0
LINE
  5
AB54
330
AA2F
100
AcDbEntity
  8
1
  6
Continuous
100
AcDbLine
 10
62.41671199999998
 20
209.3610889999999
 30
0.0
 11
63.632064
 21
210.5764409999999
 31
0.0
  0
LINE
  5
AB55
330
AA2F
100
AcDbEntity
  8
1
  6
Continuous
100
AcDbLine
 10
64.949416
 20
209.3610889999999
 30
0.0
 11
63.734064
 21
210.5764409999999
 31
0.0
  0
ARC
  5
AB56
330
AA2F
100
AcDbEntity
  8
1
  6
Continuous
100
AcDbCircle
 10
294.9771169999999
 20
210.846435
 30
0.0
 40
5.356411999999998
100
AcDbArc
 50
279.4050899999999
 51
333.628947
  0
ARC
  5
AB57
330
AA2F
100
AcDbEntity
  8
1
  6
Continuous
100
AcDbCircle
 10
295.258372
 20
226.412562
 30
0.0
 40
20.85899799999999
100
AcDbArc
 50
270.0
 51
271.6319809999999
  0
LINE
  5
AB58
330
AA2F
100
AcDbEntity
  8
1
  6
Continuous
100
AcDbLine
 10
272.72651
 20
205.5535639999999
 30
0.0
 11
295.258372
 21
205.5535639999999
 31
0.0
  0
ARC
  5
AB59
330
AA2F
100
AcDbEntity
  8
1
  6
Continuous
100
AcDbCircle
 10
273.007765
 20
210.846435
 30
0.0
 40
5.356411999999998
100
AcDbArc
 50
206.371053
 51
260.59491
  0
ARC
  5
AB5A
330
AA2F
100
AcDbEntity
  8
1
  6
Continuous
100
AcDbCircle
 10
272.72651
 20
226.412562
 30
0.0
 40
20.85899799999999
100
AcDbArc
 50
268.368019
 51
270.0
  0
ARC
  5
AB5B
330
AA2F
100
AcDbEntity
  8
1
  6
Continuous
100
AcDbCircle
 10
196.4748219999999
 20
210.84647
 30
0.0
 40
5.356411999999998
100
AcDbArc
 50
279.4050899999999
 51
333.2380249999999
  0
ARC
  5
AB5C
330
AA2F
100
AcDbEntity
  8
1
  6
Continuous
100
AcDbCircle
 10
196.756077
 20
226.412597
 30
0.0
 40
20.85899799999999
100
AcDbArc
 50
270.0
 51
271.6319809999999
  0
LINE
  5
AB5D
330
AA2F
100
AcDbEntity
  8
1
  6
Continuous
100
AcDbLine
 10
193.595156
 20
205.553599
 30
0.0
 11
196.756077
 21
205.553599
 31
0.0
  0
ARC
  5
AB5E
330
AA2F
100
AcDbEntity
  8
1
  6
Continuous
100
AcDbCircle
 10
185.490146
 20
68.81031800000001
 30
0.0
 40
15.0
100
AcDbArc
 50
228.415325
 51
131.584675
  0
LINE
  5
AB5F
330
AA2F
100
AcDbEntity
  8
1
  6
Continuous
100
AcDbLine
 10
260.992441
 20
217.2325199999999
 30
0.0
 11
306.992441
 21
217.2325199999999
 31
0.0
  0
LINE
  5
AB60
330
AA2F
100
AcDbEntity
  8
1
  6
Continuous
100
AcDbLine
 10
261.0023569999999
 20
218.7147819999999
 30
0.0
 11
261.8173569999999
 21
218.7147819999999
 31
0.0
  0
LINE
  5
AB61
330
AA2F
100
AcDbEntity
  8
1
  6
Continuous
100
AcDbLine
 10
306.992441
 20
215.17952
 30
0.0
 11
260.992441
 21
215.17952
 31
0.0
  0
LINE
  5
AB62
330
AA2F
100
AcDbEntity
  8
1
  6
Continuous
100
AcDbLine
 10
260.992441
 20
216.8599369999999
 30
0.0
 11
261.365024
 21
217.2325199999999
 31
0.0
  0
ARC
  5
AB63
330
AA2F
100
AcDbEntity
  8
1
  6
Continuous
100
AcDbCircle
 10
261.266327
 20
217.7949289999999
 30
0.0
 40
0.9569799999999998
100
AcDbArc
 50
106.011913
 51
155.9597349999999
  0
ARC
  5
AB64
330
AA2F
100
AcDbEntity
  8
1
  6
Continuous
100
AcDbCircle
 10
264.603839
 20
220.265009
 30
0.0
 40
4.697225
100
AcDbArc
 50
206.286695
 51
220.210037
  0
LINE
  5
AB65
330
AA2F
100
AcDbEntity
  8
1
  6
Continuous
100
AcDbLine
 10
260.992441
 20
217.2325199999999
 30
0.0
 11
260.992441
 21
215.17952
 31
0.0
  0
CIRCLE
  5
AB66
330
AA2F
100
AcDbEntity
  8
1
  6
Continuous
100
AcDbCircle
 10
185.490146
 20
341.9206459999998
 30
0.0
 40
22.17508399999999
  0
CIRCLE
  5
AB67
330
AA2F
100
AcDbEntity
  8
1
  6
Continuous
100
AcDbCircle
 10
185.490146
 20
341.9206459999998
 30
0.0
 40
23.60008399999999
  0
LINE
  5
AB68
330
AA2F
100
AcDbEntity
  8
1
  6
Continuous
100
AcDbLine
 10
192.9957
 20
328.9206459999999
 30
0.0
 11
200.501253
 21
341.9206459999998
 31
0.0
  0
LINE
  5
AB69
330
AA2F
100
AcDbEntity
  8
1
  6
Continuous
100
AcDbLine
 10
192.9957
 20
354.9206459999999
 30
0.0
 11
200.501253
 21
341.9206459999998
 31
0.0
  0
LINE
  5
AB6A
330
AA2F
100
AcDbEntity
  8
4
  6
CENTER
100
AcDbLine
 10
160.490146
 20
316.4655649999999
 30
0.0
 11
160.490146
 21
368.5653419999999
 31
0.0
  0
ARC
  5
AB6B
330
AA2F
100
AcDbEntity
  8
1
  6
Continuous
100
AcDbCircle
 10
185.824322
 20
341.9206459999998
 30
0.0
 40
25.5
100
AcDbArc
 50
131.8398469999999
 51
228.1601529999999
  0
ARC
  5
AB6C
330
AA2F
100
AcDbEntity
  8
1
  6
Continuous
100
AcDbCircle
 10
154.565974
 20
298.8905389999998
 30
0.0
 40
27.938726
100
AcDbArc
 50
59.33664000000001
 51
82.30457099999998
  0
ARC
  5
AB6D
330
AA2F
100
AcDbEntity
  8
1
  6
Continuous
100
AcDbCircle
 10
154.565974
 20
384.9507529999998
 30
0.0
 40
27.938726
100
AcDbArc
 50
277.6954289999998
 51
300.66336
  0
CIRCLE
  5
AB6E
330
AA2F
100
AcDbEntity
  8
1
  6
Continuous
100
AcDbCircle
 10
185.490146
 20
341.9206459999998
 30
0.0
 40
6.0
  0
LINE
  5
AB6F
330
AA2F
100
AcDbEntity
  8
1
  6
Continuous
100
AcDbLine
 10
170.479039
 20
341.9206459999998
 30
0.0
 11
177.984593
 21
354.9206459999999
 31
0.0
  0
LINE
  5
AB70
330
AA2F
100
AcDbEntity
  8
1
  6
Continuous
100
AcDbLine
 10
177.984593
 20
328.9206459999999
 30
0.0
 11
192.9957
 21
328.9206459999999
 31
0.0
  0
LINE
  5
AB71
330
AA2F
100
AcDbEntity
  8
1
  6
Continuous
100
AcDbLine
 10
170.479039
 20
341.9206459999998
 30
0.0
 11
177.984593
 21
328.9206459999999
 31
0.0
  0
LINE
  5
AB72
330
AA2F
100
AcDbEntity
  8
1
  6
Continuous
100
AcDbLine
 10
177.984593
 20
354.9206459999999
 30
0.0
 11
192.9957
 21
354.9206459999999
 31
0.0
  0
ARC
  5
AB73
330
AA2F
100
AcDbEntity
  8
1
  6
Continuous
100
AcDbCircle
 10
185.824322
 20
341.9206459999998
 30
0.0
 40
31.5
100
AcDbArc
 50
151.146925
 51
209.1507419999998
  0
ARC
  5
AB74
330
AA2F
100
AcDbEntity
  8
1
  6
Continuous
100
AcDbCircle
 10
156.0788389999999
 20
325.5320279999999
 30
0.0
 40
2.461456999999998
100
AcDbArc
 50
329.362163
 51
28.853075
  0
ARC
  5
AB75
330
AA2F
100
AcDbEntity
  8
1
  6
Continuous
100
AcDbCircle
 10
156.0788389999999
 20
358.3092639999999
 30
0.0
 40
2.461456999999998
100
AcDbArc
 50
331.146925
 51
30.637837
  0
LINE
  5
AB76
330
AA2F
100
AcDbEntity
  8
1
  6
Continuous
100
AcDbLine
 10
296.9924409999999
 20
226.2177819999998
 30
0.0
 11
270.9924409999999
 21
226.2177819999998
 31
0.0
  0
LINE
  5
AB77
330
AA2F
100
AcDbEntity
  8
1
  6
Continuous
100
AcDbLine
 10
300.639299
 20
222.2177819999998
 30
0.0
 11
267.345593
 21
222.2177819999998
 31
0.0
  0
LINE
  5
AB78
330
AA2F
100
AcDbEntity
  8
1
  6
Continuous
100
AcDbLine
 10
261.8173569999999
 20
218.7147819999999
 30
0.0
 11
306.167525
 21
218.7147819999999
 31
0.0
  0
LINE
  5
AB79
330
AA2F
100
AcDbEntity
  8
1
  6
Continuous
100
AcDbLine
 10
294.5307220000001
 20
215.17952
 30
0.0
 11
292.4777220000001
 21
217.2325199999999
 31
0.0
  0
LINE
  5
AB7A
330
AA2F
100
AcDbEntity
  8
1
  6
Continuous
100
AcDbLine
 10
293.253149
 20
215.17952
 30
0.0
 11
295.3061489999999
 21
217.2325199999999
 31
0.0
  0
LINE
  5
AB7B
330
AA2F
100
AcDbEntity
  8
1
  6
Continuous
100
AcDbLine
 10
277.5601599999999
 20
215.17952
 30
0.0
 11
275.5071599999999
 21
217.2325199999999
 31
0.0
  0
LINE
  5
AB7C
330
AA2F
100
AcDbEntity
  8
1
  6
Continuous
100
AcDbLine
 10
276.2825869999999
 20
215.17952
 30
0.0
 11
278.3355869999999
 21
217.2325199999999
 31
0.0
  0
LINE
  5
AB7D
330
AA2F
100
AcDbEntity
  8
1
  6
Continuous
100
AcDbLine
 10
267.7973049999998
 20
215.17952
 30
0.0
 11
269.8503049999998
 21
217.2325199999999
 31
0.0
  0
LINE
  5
AB7E
330
AA2F
100
AcDbEntity
  8
1
  6
Continuous
100
AcDbLine
 10
266.2464509999999
 20
215.17952
 30
0.0
 11
264.193451
 21
217.2325199999999
 31
0.0
  0
LINE
  5
AB7F
330
AA2F
100
AcDbEntity
  8
1
  6
Continuous
100
AcDbLine
 10
264.9688779999999
 20
215.17952
 30
0.0
 11
267.0218779999999
 21
217.2325199999999
 31
0.0
  0
LINE
  5
AB80
330
AA2F
100
AcDbEntity
  8
1
  6
Continuous
100
AcDbLine
 10
263.418024
 20
215.17952
 30
0.0
 11
261.365024
 21
217.2325199999999
 31
0.0
  0
LINE
  5
AB81
330
AA2F
100
AcDbEntity
  8
1
  6
Continuous
100
AcDbLine
 10
262.140451
 20
215.17952
 30
0.0
 11
264.193451
 21
217.2325199999999
 31
0.0
  0
LINE
  5
AB82
330
AA2F
100
AcDbEntity
  8
1
  6
Continuous
100
AcDbLine
 10
269.0748779999998
 20
215.17952
 30
0.0
 11
267.0218779999999
 21
217.2325199999999
 31
0.0
  0
LINE
  5
AB83
330
AA2F
100
AcDbEntity
  8
1
  6
Continuous
100
AcDbLine
 10
274.7317319999999
 20
215.17952
 30
0.0
 11
272.6787319999999
 21
217.2325199999999
 31
0.0
  0
LINE
  5
AB84
330
AA2F
100
AcDbEntity
  8
1
  6
Continuous
100
AcDbLine
 10
271.9033049999998
 20
215.17952
 30
0.0
 11
269.8503049999998
 21
217.2325199999999
 31
0.0
  0
LINE
  5
AB85
330
AA2F
100
AcDbEntity
  8
1
  6
Continuous
100
AcDbLine
 10
270.6257319999999
 20
215.17952
 30
0.0
 11
272.6787319999999
 21
217.2325199999999
 31
0.0
  0
LINE
  5
AB86
330
AA2F
100
AcDbEntity
  8
1
  6
Continuous
100
AcDbLine
 10
273.45416
 20
215.17952
 30
0.0
 11
275.5071599999999
 21
217.2325199999999
 31
0.0
  0
ARC
  5
AB87
330
AA2F
100
AcDbEntity
  8
1
  6
Continuous
100
AcDbCircle
 10
267.345593
 20
216.104164
 30
0.0
 40
6.113617999999997
100
AcDbArc
 50
90.0
 51
154.721609
  0
LINE
  5
AB88
330
AA2F
100
AcDbEntity
  8
1
  6
Continuous
100
AcDbLine
 10
270.9924409999999
 20
226.2177819999998
 30
0.0
 11
270.9924409999999
 21
222.2177819999998
 31
0.0
  0
LINE
  5
AB89
330
AA2F
100
AcDbEntity
  8
1
  6
Continuous
100
AcDbLine
 10
286.045441
 20
215.17952
 30
0.0
 11
283.992441
 21
217.2325199999999
 31
0.0
  0
LINE
  5
AB8A
330
AA2F
100
AcDbEntity
  8
1
  6
Continuous
100
AcDbLine
 10
284.767868
 20
215.17952
 30
0.0
 11
286.820868
 21
217.2325199999999
 31
0.0
  0
LINE
  5
AB8B
330
AA2F
100
AcDbEntity
  8
1
  6
Continuous
100
AcDbLine
 10
283.217014
 20
215.17952
 30
0.0
 11
281.164014
 21
217.2325199999999
 31
0.0
  0
LINE
  5
AB8C
330
AA2F
100
AcDbEntity
  8
1
  6
Continuous
100
AcDbLine
 10
280.3885869999999
 20
215.17952
 30
0.0
 11
278.3355869999999
 21
217.2325199999999
 31
0.0
  0
LINE
  5
AB8D
330
AA2F
100
AcDbEntity
  8
1
  6
Continuous
100
AcDbLine
 10
279.111014
 20
215.17952
 30
0.0
 11
281.164014
 21
217.2325199999999
 31
0.0
  0
LINE
  5
AB8E
330
AA2F
100
AcDbEntity
  8
1
  6
Continuous
100
AcDbLine
 10
281.939441
 20
215.17952
 30
0.0
 11
283.992441
 21
217.2325199999999
 31
0.0
  0
LINE
  5
AB8F
330
AA2F
100
AcDbEntity
  8
1
  6
Continuous
100
AcDbLine
 10
291.7022949999998
 20
215.17952
 30
0.0
 11
289.6492949999998
 21
217.2325199999999
 31
0.0
  0
LINE
  5
AB90
330
AA2F
100
AcDbEntity
  8
1
  6
Continuous
100
AcDbLine
 10
288.873868
 20
215.17952
 30
0.0
 11
286.820868
 21
217.2325199999999
 31
0.0
  0
LINE
  5
AB91
330
AA2F
100
AcDbEntity
  8
1
  6
Continuous
100
AcDbLine
 10
287.5962949999999
 20
215.17952
 30
0.0
 11
289.6492949999998
 21
217.2325199999999
 31
0.0
  0
LINE
  5
AB92
330
AA2F
100
AcDbEntity
  8
1
  6
Continuous
100
AcDbLine
 10
290.4247219999998
 20
215.17952
 30
0.0
 11
292.4777220000001
 21
217.2325199999999
 31
0.0
  0
LINE
  5
AB93
330
AA2F
100
AcDbEntity
  8
1
  6
Continuous
100
AcDbLine
 10
283.992441
 20
226.2177819999998
 30
0.0
 11
283.992441
 21
222.2177819999998
 31
0.0
  0
ARC
  5
AB94
330
AA2F
100
AcDbEntity
  8
1
  6
Continuous
100
AcDbCircle
 10
306.718555
 20
217.7949289999999
 30
0.0
 40
0.9569799999999998
100
AcDbArc
 50
24.04026499999999
 51
73.98808699999998
  0
LINE
  5
AB95
330
AA2F
100
AcDbEntity
  8
1
  6
Continuous
100
AcDbLine
 10
303.016004
 20
215.17952
 30
0.0
 11
300.963004
 21
217.2325199999999
 31
0.0
  0
LINE
  5
AB96
330
AA2F
100
AcDbEntity
  8
1
  6
Continuous
100
AcDbLine
 10
301.738431
 20
215.17952
 30
0.0
 11
303.791431
 21
217.2325199999999
 31
0.0
  0
LINE
  5
AB97
330
AA2F
100
AcDbEntity
  8
1
  6
Continuous
100
AcDbLine
 10
296.0815769999999
 20
215.17952
 30
0.0
 11
298.1345769999999
 21
217.2325199999999
 31
0.0
  0
LINE
  5
AB98
330
AA2F
100
AcDbEntity
  8
1
  6
Continuous
100
AcDbLine
 10
297.359149
 20
215.17952
 30
0.0
 11
295.3061489999999
 21
217.2325199999999
 31
0.0
  0
LINE
  5
AB99
330
AA2F
100
AcDbEntity
  8
1
  6
Continuous
100
AcDbLine
 10
300.1875769999998
 20
215.17952
 30
0.0
 11
298.1345769999999
 21
217.2325199999999
 31
0.0
  0
LINE
  5
AB9A
330
AA2F
100
AcDbEntity
  8
1
  6
Continuous
100
AcDbLine
 10
298.910004
 20
215.17952
 30
0.0
 11
300.963004
 21
217.2325199999999
 31
0.0
  0
LINE
  5
AB9B
330
AA2F
100
AcDbEntity
  8
1
  6
Continuous
100
AcDbLine
 10
304.566858
 20
215.17952
 30
0.0
 11
306.619858
 21
217.2325199999999
 31
0.0
  0
LINE
  5
AB9C
330
AA2F
100
AcDbEntity
  8
1
  6
Continuous
100
AcDbLine
 10
305.844431
 20
215.17952
 30
0.0
 11
303.791431
 21
217.2325199999999
 31
0.0
  0
ARC
  5
AB9D
330
AA2F
100
AcDbEntity
  8
1
  6
Continuous
100
AcDbCircle
 10
303.3810429999999
 20
220.265009
 30
0.0
 40
4.697225
100
AcDbArc
 50
319.789963
 51
333.713305
  0
LINE
  5
AB9E
330
AA2F
100
AcDbEntity
  8
1
  6
Continuous
100
AcDbLine
 10
306.992441
 20
217.2325199999999
 30
0.0
 11
306.992441
 21
215.17952
 31
0.0
  0
LINE
  5
AB9F
330
AA2F
100
AcDbEntity
  8
1
  6
Continuous
100
AcDbLine
 10
306.992441
 20
216.8599369999999
 30
0.0
 11
306.619858
 21
217.2325199999999
 31
0.0
  0
ARC
  5
ABA0
330
AA2F
100
AcDbEntity
  8
1
  6
Continuous
100
AcDbCircle
 10
300.639299
 20
216.104164
 30
0.0
 40
6.113617999999997
100
AcDbArc
 50
25.278391
 51
90.0
  0
LINE
  5
ABA1
330
AA2F
100
AcDbEntity
  8
1
  6
Continuous
100
AcDbLine
 10
296.9924409999999
 20
226.2177819999998
 30
0.0
 11
296.9924409999999
 21
222.2177819999998
 31
0.0
  0
LINE
  5
ABA2
330
AA2F
100
AcDbEntity
  8
1
  6
Continuous
100
AcDbLine
 10
306.982525
 20
218.7147819999999
 30
0.0
 11
306.167525
 21
218.7147819999999
 31
0.0
  0
LINE
  5
ABA3
330
AA2F
100
AcDbEntity
  8
1
  6
Continuous
100
AcDbLine
 10
274.2424409999999
 20
264.3177819999999
 30
0.0
 11
293.7424409999999
 21
264.3177819999999
 31
0.0
  0
LINE
  5
ABA4
330
AA2F
100
AcDbEntity
  8
1
  6
Continuous
100
AcDbLine
 10
289.9924459999999
 20
264.3177819999999
 30
0.0
 11
289.9924459999999
 21
265.2177819999999
 31
0.0
  0
LINE
  5
ABA5
330
AA2F
100
AcDbEntity
  8
1
  6
Continuous
100
AcDbLine
 10
277.9924459999999
 20
264.3177819999999
 30
0.0
 11
277.9924459999999
 21
265.2177819999999
 31
0.0
  0
LINE
  5
ABA6
330
AA2F
100
AcDbEntity
  8
1
  6
Continuous
100
AcDbLine
 10
277.9924459999999
 20
265.2177819999999
 30
0.0
 11
289.9924459999999
 21
265.2177819999999
 31
0.0
  0
LINE
  5
ABA7
330
AA2F
100
AcDbEntity
  8
1
  6
Continuous
100
AcDbLine
 10
288.9924459999999
 20
266.217782
 30
0.0
 11
278.9924459999999
 21
266.217782
 31
0.0
  0
LINE
  5
ABA8
330
AA2F
100
AcDbEntity
  8
1
  6
Continuous
100
AcDbLine
 10
277.9924459999999
 20
265.2177819999999
 30
0.0
 11
278.9924459999999
 21
266.217782
 31
0.0
  0
LINE
  5
ABA9
330
AA2F
100
AcDbEntity
  8
1
  6
Continuous
100
AcDbLine
 10
289.9924459999999
 20
265.2177819999999
 30
0.0
 11
288.9924459999999
 21
266.217782
 31
0.0
  0
LINE
  5
ABAA
330
AA2F
100
AcDbEntity
  8
2
  6
Continuous
100
AcDbLine
 10
278.9394409999998
 20
266.164777
 30
0.0
 11
278.9394409999998
 21
264.3177819999999
 31
0.0
  0
LINE
  5
ABAB
330
AA2F
100
AcDbEntity
  8
2
  6
Continuous
100
AcDbLine
 10
289.0454409999999
 20
266.1647869999999
 30
0.0
 11
289.0454409999999
 21
264.3177819999999
 31
0.0
  0
CIRCLE
  5
ABAC
330
AA2F
100
AcDbEntity
  8
2
  6
Continuous
100
AcDbCircle
 10
185.490146
 20
341.9206459999998
 30
0.0
 40
5.052999999999999
  0
LINE
  5
ABAD
330
AA2F
100
AcDbEntity
  8
1
  6
Continuous
100
AcDbLine
 10
76.98785100000002
 20
216.8599369999999
 30
0.0
 11
76.615268
 21
217.2325199999999
 31
0.0
  0
LINE
  5
ABAE
330
AA2F
100
AcDbEntity
  8
1
  6
Continuous
100
AcDbLine
 10
76.98785100000002
 20
217.2325199999999
 30
0.0
 11
76.98785100000002
 21
215.17952
 31
0.0
  0
LINE
  5
ABAF
330
AA2F
100
AcDbEntity
  8
1
  6
Continuous
100
AcDbLine
 10
75.83984100000002
 20
215.17952
 30
0.0
 11
73.78684099999998
 21
217.2325199999999
 31
0.0
  0
LINE
  5
ABB0
330
AA2F
100
AcDbEntity
  8
1
  6
Continuous
100
AcDbLine
 10
74.562268
 20
215.17952
 30
0.0
 11
76.615268
 21
217.2325199999999
 31
0.0
  0
LINE
  5
ABB1
330
AA2F
100
AcDbEntity
  8
1
  6
Continuous
100
AcDbLine
 10
68.905414
 20
215.17952
 30
0.0
 11
70.95841400000002
 21
217.2325199999999
 31
0.0
  0
LINE
  5
ABB2
330
AA2F
100
AcDbEntity
  8
1
  6
Continuous
100
AcDbLine
 10
70.18298699999999
 20
215.17952
 30
0.0
 11
68.129987
 21
217.2325199999999
 31
0.0
  0
LINE
  5
ABB3
330
AA2F
100
AcDbEntity
  8
1
  6
Continuous
100
AcDbLine
 10
67.35455899999999
 20
215.17952
 30
0.0
 11
65.301559
 21
217.2325199999999
 31
0.0
  0
LINE
  5
ABB4
330
AA2F
100
AcDbEntity
  8
1
  6
Continuous
100
AcDbLine
 10
66.076987
 20
215.17952
 30
0.0
 11
68.129987
 21
217.2325199999999
 31
0.0
  0
LINE
  5
ABB5
330
AA2F
100
AcDbEntity
  8
1
  6
Continuous
100
AcDbLine
 10
71.73384099999998
 20
215.17952
 30
0.0
 11
73.78684099999998
 21
217.2325199999999
 31
0.0
  0
LINE
  5
ABB6
330
AA2F
100
AcDbEntity
  8
1
  6
Continuous
100
AcDbLine
 10
73.011414
 20
215.17952
 30
0.0
 11
70.95841400000002
 21
217.2325199999999
 31
0.0
  0
LINE
  5
ABB7
330
AA2F
100
AcDbEntity
  8
1
  6
Continuous
100
AcDbLine
 10
60.42013199999999
 20
215.17952
 30
0.0
 11
62.47313199999999
 21
217.2325199999999
 31
0.0
  0
LINE
  5
ABB8
330
AA2F
100
AcDbEntity
  8
1
  6
Continuous
100
AcDbLine
 10
57.59170499999999
 20
215.17952
 30
0.0
 11
59.644705
 21
217.2325199999999
 31
0.0
  0
LINE
  5
ABB9
330
AA2F
100
AcDbEntity
  8
1
  6
Continuous
100
AcDbLine
 10
58.869278
 20
215.17952
 30
0.0
 11
56.81627800000001
 21
217.2325199999999
 31
0.0
  0
LINE
  5
ABBA
330
AA2F
100
AcDbEntity
  8
1
  6
Continuous
100
AcDbLine
 10
61.69770500000001
 20
215.17952
 30
0.0
 11
59.644705
 21
217.2325199999999
 31
0.0
  0
LINE
  5
ABBB
330
AA2F
100
AcDbEntity
  8
1
  6
Continuous
100
AcDbLine
 10
51.934851
 20
215.17952
 30
0.0
 11
53.987851
 21
217.2325199999999
 31
0.0
  0
LINE
  5
ABBC
330
AA2F
100
AcDbEntity
  8
1
  6
Continuous
100
AcDbLine
 10
53.212424
 20
215.17952
 30
0.0
 11
51.159424
 21
217.2325199999999
 31
0.0
  0
LINE
  5
ABBD
330
AA2F
100
AcDbEntity
  8
1
  6
Continuous
100
AcDbLine
 10
54.76327799999999
 20
215.17952
 30
0.0
 11
56.81627800000001
 21
217.2325199999999
 31
0.0
  0
LINE
  5
ABBE
330
AA2F
100
AcDbEntity
  8
1
  6
Continuous
100
AcDbLine
 10
56.040851
 20
215.17952
 30
0.0
 11
53.987851
 21
217.2325199999999
 31
0.0
  0
LINE
  5
ABBF
330
AA2F
100
AcDbEntity
  8
1
  6
Continuous
100
AcDbLine
 10
64.52613199999999
 20
215.17952
 30
0.0
 11
62.47313199999999
 21
217.2325199999999
 31
0.0
  0
LINE
  5
ABC0
330
AA2F
100
AcDbEntity
  8
1
  6
Continuous
100
AcDbLine
 10
63.248559
 20
215.17952
 30
0.0
 11
65.301559
 21
217.2325199999999
 31
0.0
  0
LINE
  5
ABC1
330
AA2F
100
AcDbEntity
  8
1
  6
Continuous
100
AcDbLine
 10
43.44956999999999
 20
215.17952
 30
0.0
 11
45.50257
 21
217.2325199999999
 31
0.0
  0
LINE
  5
ABC2
330
AA2F
100
AcDbEntity
  8
1
  6
Continuous
100
AcDbLine
 10
40.62114199999999
 20
215.17952
 30
0.0
 11
42.674142
 21
217.2325199999999
 31
0.0
  0
LINE
  5
ABC3
330
AA2F
100
AcDbEntity
  8
1
  6
Continuous
100
AcDbLine
 10
41.898715
 20
215.17952
 30
0.0
 11
39.84571499999999
 21
217.2325199999999
 31
0.0
  0
LINE
  5
ABC4
330
AA2F
100
AcDbEntity
  8
1
  6
Continuous
100
AcDbLine
 10
44.727142
 20
215.17952
 30
0.0
 11
42.674142
 21
217.2325199999999
 31
0.0
  0
LINE
  5
ABC5
330
AA2F
100
AcDbEntity
  8
1
  6
Continuous
100
AcDbLine
 10
39.07028799999999
 20
215.17952
 30
0.0
 11
37.017288
 21
217.2325199999999
 31
0.0
  0
LINE
  5
ABC6
330
AA2F
100
AcDbEntity
  8
1
  6
Continuous
100
AcDbLine
 10
34.964288
 20
215.17952
 30
0.0
 11
37.017288
 21
217.2325199999999
 31
0.0
  0
LINE
  5
ABC7
330
AA2F
100
AcDbEntity
  8
1
  6
Continuous
100
AcDbLine
 10
36.241861
 20
215.17952
 30
0.0
 11
34.18886099999999
 21
217.2325199999999
 31
0.0
  0
LINE
  5
ABC8
330
AA2F
100
AcDbEntity
  8
1
  6
Continuous
100
AcDbLine
 10
37.792715
 20
215.17952
 30
0.0
 11
39.84571499999999
 21
217.2325199999999
 31
0.0
  0
LINE
  5
ABC9
330
AA2F
100
AcDbEntity
  8
1
  6
Continuous
100
AcDbLine
 10
46.27799699999999
 20
215.17952
 30
0.0
 11
48.33099699999999
 21
217.2325199999999
 31
0.0
  0
LINE
  5
ABCA
330
AA2F
100
AcDbEntity
  8
1
  6
Continuous
100
AcDbLine
 10
47.55557
 20
215.17952
 30
0.0
 11
45.50257
 21
217.2325199999999
 31
0.0
  0
LINE
  5
ABCB
330
AA2F
100
AcDbEntity
  8
1
  6
Continuous
100
AcDbLine
 10
30.98785100000001
 20
217.2325199999999
 30
0.0
 11
30.98785100000001
 21
215.17952
 31
0.0
  0
LINE
  5
ABCC
330
AA2F
100
AcDbEntity
  8
1
  6
Continuous
100
AcDbLine
 10
30.98785100000001
 20
216.8599369999999
 30
0.0
 11
31.360434
 21
217.2325199999999
 31
0.0
  0
LINE
  5
ABCD
330
AA2F
100
AcDbEntity
  8
1
  6
Continuous
100
AcDbLine
 10
32.135861
 20
215.17952
 30
0.0
 11
34.18886099999999
 21
217.2325199999999
 31
0.0
  0
LINE
  5
ABCE
330
AA2F
100
AcDbEntity
  8
1
  6
Continuous
100
AcDbLine
 10
33.413434
 20
215.17952
 30
0.0
 11
31.360434
 21
217.2325199999999
 31
0.0
  0
LINE
  5
ABCF
330
AA2F
100
AcDbEntity
  8
1
  6
Continuous
100
AcDbLine
 10
49.106424
 20
215.17952
 30
0.0
 11
51.159424
 21
217.2325199999999
 31
0.0
  0
LINE
  5
ABD0
330
AA2F
100
AcDbEntity
  8
1
  6
Continuous
100
AcDbLine
 10
50.38399699999999
 20
215.17952
 30
0.0
 11
48.33099699999999
 21
217.2325199999999
 31
0.0
  0
LINE
  5
ABD1
330
AA2F
100
AcDbEntity
  8
1
  6
Continuous
100
AcDbLine
 10
31.81276699999999
 20
218.7147819999999
 30
0.0
 11
76.16293500000002
 21
218.7147819999999
 31
0.0
  0
LINE
  5
ABD2
330
AA2F
100
AcDbEntity
  8
1
  6
Continuous
100
AcDbLine
 10
70.634709
 20
222.2177819999998
 30
0.0
 11
37.341003
 21
222.2177819999998
 31
0.0
  0
LINE
  5
ABD3
330
AA2F
100
AcDbEntity
  8
1
  6
Continuous
100
AcDbLine
 10
66.98785100000001
 20
226.2177819999998
 30
0.0
 11
40.98785099999999
 21
226.2177819999998
 31
0.0
  0
LINE
  5
ABD4
330
AA2F
100
AcDbEntity
  8
1
  6
Continuous
100
AcDbLine
 10
30.98785100000001
 20
217.2325199999999
 30
0.0
 11
76.98785100000002
 21
217.2325199999999
 31
0.0
  0
LINE
  5
ABD5
330
AA2F
100
AcDbEntity
  8
1
  6
Continuous
100
AcDbLine
 10
40.98785099999999
 20
226.2177819999998
 30
0.0
 11
40.98785099999999
 21
222.2177819999998
 31
0.0
  0
ARC
  5
ABD6
330
AA2F
100
AcDbEntity
  8
1
  6
Continuous
100
AcDbCircle
 10
34.599249
 20
220.265009
 30
0.0
 40
4.697225
100
AcDbArc
 50
206.286695
 51
220.210037
  0
ARC
  5
ABD7
330
AA2F
100
AcDbEntity
  8
1
  6
Continuous
100
AcDbCircle
 10
31.261737
 20
217.7949289999999
 30
0.0
 40
0.9569799999999998
100
AcDbArc
 50
106.011913
 51
155.9597349999999
  0
LINE
  5
ABD8
330
AA2F
100
AcDbEntity
  8
1
  6
Continuous
100
AcDbLine
 10
30.997767
 20
218.7147819999999
 30
0.0
 11
31.81276699999999
 21
218.7147819999999
 31
0.0
  0
ARC
  5
ABD9
330
AA2F
100
AcDbEntity
  8
1
  6
Continuous
100
AcDbCircle
 10
37.341003
 20
216.104164
 30
0.0
 40
6.113617999999997
100
AcDbArc
 50
90.0
 51
154.721609
  0
LINE
  5
ABDA
330
AA2F
100
AcDbEntity
  8
1
  6
Continuous
100
AcDbLine
 10
53.987851
 20
226.2177819999998
 30
0.0
 11
53.987851
 21
222.2177819999998
 31
0.0
  0
ARC
  5
ABDB
330
AA2F
100
AcDbEntity
  8
1
  6
Continuous
100
AcDbCircle
 10
70.634709
 20
216.104164
 30
0.0
 40
6.113617999999997
100
AcDbArc
 50
25.278391
 51
90.0
  0
LINE
  5
ABDC
330
AA2F
100
AcDbEntity
  8
1
  6
Continuous
100
AcDbLine
 10
66.98785100000001
 20
226.2177819999998
 30
0.0
 11
66.98785100000001
 21
222.2177819999998
 31
0.0
  0
LINE
  5
ABDD
330
AA2F
100
AcDbEntity
  8
1
  6
Continuous
100
AcDbLine
 10
76.977935
 20
218.7147819999999
 30
0.0
 11
76.16293500000002
 21
218.7147819999999
 31
0.0
  0
ARC
  5
ABDE
330
AA2F
100
AcDbEntity
  8
1
  6
Continuous
100
AcDbCircle
 10
73.376453
 20
220.265009
 30
0.0
 40
4.697225
100
AcDbArc
 50
319.789963
 51
333.713305
  0
ARC
  5
ABDF
330
AA2F
100
AcDbEntity
  8
1
  6
Continuous
100
AcDbCircle
 10
76.713965
 20
217.7949289999999
 30
0.0
 40
0.9569799999999998
100
AcDbArc
 50
24.04026499999999
 51
73.98808699999998
  0
LINE
  5
ABE0
330
AA2F
100
AcDbEntity
  8
1
  6
Continuous
100
AcDbLine
 10
44.23785099999999
 20
264.3177819999999
 30
0.0
 11
63.737851
 21
264.3177819999999
 31
0.0
  0
LINE
  5
ABE1
330
AA2F
100
AcDbEntity
  8
1
  6
Continuous
100
AcDbLine
 10
47.987856
 20
265.2177819999999
 30
0.0
 11
59.98785600000001
 21
265.2177819999999
 31
0.0
  0
LINE
  5
ABE2
330
AA2F
100
AcDbEntity
  8
1
  6
Continuous
100
AcDbLine
 10
58.987856
 20
266.217782
 30
0.0
 11
48.987856
 21
266.217782
 31
0.0
  0
LINE
  5
ABE3
330
AA2F
100
AcDbEntity
  8
1
  6
Continuous
100
AcDbLine
 10
47.987856
 20
265.2177819999999
 30
0.0
 11
48.987856
 21
266.217782
 31
0.0
  0
LINE
  5
ABE4
330
AA2F
100
AcDbEntity
  8
1
  6
Continuous
100
AcDbLine
 10
47.987856
 20
264.3177819999999
 30
0.0
 11
47.987856
 21
265.2177819999999
 31
0.0
  0
LINE
  5
ABE5
330
AA2F
100
AcDbEntity
  8
2
  6
Continuous
100
AcDbLine
 10
48.934851
 20
266.164777
 30
0.0
 11
48.934851
 21
264.3177819999999
 31
0.0
  0
LINE
  5
ABE6
330
AA2F
100
AcDbEntity
  8
1
  6
Continuous
100
AcDbLine
 10
59.98785600000001
 20
265.2177819999999
 30
0.0
 11
58.987856
 21
266.217782
 31
0.0
  0
LINE
  5
ABE7
330
AA2F
100
AcDbEntity
  8
1
  6
Continuous
100
AcDbLine
 10
59.98785600000001
 20
264.3177819999999
 30
0.0
 11
59.98785600000001
 21
265.2177819999999
 31
0.0
  0
LINE
  5
ABE8
330
AA2F
100
AcDbEntity
  8
2
  6
Continuous
100
AcDbLine
 10
59.040851
 20
266.1647869999999
 30
0.0
 11
59.040851
 21
264.3177819999999
 31
0.0
  0
LINE
  5
ABE9
330
AA2F
100
AcDbEntity
  8
1
  6
Continuous
100
AcDbLine
 10
190.4901459999999
 20
266.2178819999999
 30
0.0
 11
180.490146
 21
266.2178819999999
 31
0.0
  0
LINE
  5
ABEA
330
AA2F
100
AcDbEntity
  8
1
  6
Continuous
100
AcDbLine
 10
179.490146
 20
265.2178819999999
 30
0.0
 11
191.490146
 21
265.2178819999999
 31
0.0
  0
LINE
  5
ABEB
330
AA2F
100
AcDbEntity
  8
1
  6
Continuous
100
AcDbLine
 10
183.4371459999999
 20
215.179556
 30
0.0
 11
185.490146
 21
217.2325559999999
 31
0.0
  0
LINE
  5
ABEC
330
AA2F
100
AcDbEntity
  8
1
  6
Continuous
100
AcDbLine
 10
174.790146
 20
264.317882
 30
0.0
 11
196.1901459999999
 21
264.317882
 31
0.0
  0
LINE
  5
ABED
330
AA2F
100
AcDbEntity
  8
1
  6
Continuous
100
AcDbLine
 10
163.315062
 20
218.7148169999999
 30
0.0
 11
207.66523
 21
218.7148169999999
 31
0.0
  0
LINE
  5
ABEE
330
AA2F
100
AcDbEntity
  8
1
  6
Continuous
100
AcDbLine
 10
162.490146
 20
217.2325559999999
 30
0.0
 11
208.490146
 21
217.2325559999999
 31
0.0
  0
LINE
  5
ABEF
330
AA2F
100
AcDbEntity
  8
1
  6
Continuous
100
AcDbLine
 10
202.136999
 20
222.2178819999998
 30
0.0
 11
168.8432929999999
 21
222.2178819999998
 31
0.0
  0
LINE
  5
ABF0
330
AA2F
100
AcDbEntity
  8
1
  6
Continuous
100
AcDbLine
 10
200.501253
 20
226.2178819999999
 30
0.0
 11
170.479039
 21
226.2178819999999
 31
0.0
  0
LINE
  5
ABF1
330
AA2F
100
AcDbEntity
  8
1
  6
Continuous
100
AcDbLine
 10
180.608719
 20
215.179556
 30
0.0
 11
182.661719
 21
217.2325559999999
 31
0.0
  0
LINE
  5
ABF2
330
AA2F
100
AcDbEntity
  8
1
  6
Continuous
100
AcDbLine
 10
181.8862919999999
 20
215.179556
 30
0.0
 11
179.833292
 21
217.2325559999999
 31
0.0
  0
LINE
  5
ABF3
330
AA2F
100
AcDbEntity
  8
1
  6
Continuous
100
AcDbLine
 10
184.714719
 20
215.179556
 30
0.0
 11
182.661719
 21
217.2325559999999
 31
0.0
  0
LINE
  5
ABF4
330
AA2F
100
AcDbEntity
  8
1
  6
Continuous
100
AcDbLine
 10
177.780292
 20
215.179556
 30
0.0
 11
179.833292
 21
217.2325559999999
 31
0.0
  0
LINE
  5
ABF5
330
AA2F
100
AcDbEntity
  8
1
  6
Continuous
100
AcDbLine
 10
179.057865
 20
215.179556
 30
0.0
 11
177.0048649999999
 21
217.2325559999999
 31
0.0
  0
LINE
  5
ABF6
330
AA2F
100
AcDbEntity
  8
1
  6
Continuous
100
AcDbLine
 10
172.123437
 20
215.179556
 30
0.0
 11
174.176437
 21
217.2325559999999
 31
0.0
  0
LINE
  5
ABF7
330
AA2F
100
AcDbEntity
  8
1
  6
Continuous
100
AcDbLine
 10
173.40101
 20
215.179556
 30
0.0
 11
171.3480099999999
 21
217.2325559999999
 31
0.0
  0
LINE
  5
ABF8
330
AA2F
100
AcDbEntity
  8
1
  6
Continuous
100
AcDbLine
 10
166.466583
 20
215.179556
 30
0.0
 11
168.519583
 21
217.2325559999999
 31
0.0
  0
LINE
  5
ABF9
330
AA2F
100
AcDbEntity
  8
1
  6
Continuous
100
AcDbLine
 10
163.638156
 20
215.179556
 30
0.0
 11
165.691156
 21
217.2325559999999
 31
0.0
  0
LINE
  5
ABFA
330
AA2F
100
AcDbEntity
  8
1
  6
Continuous
100
AcDbLine
 10
162.490146
 20
216.8599729999999
 30
0.0
 11
162.862729
 21
217.2325559999999
 31
0.0
  0
LINE
  5
ABFB
330
AA2F
100
AcDbEntity
  8
1
  6
Continuous
100
AcDbLine
 10
164.9157289999999
 20
215.179556
 30
0.0
 11
162.862729
 21
217.2325559999999
 31
0.0
  0
LINE
  5
ABFC
330
AA2F
100
AcDbEntity
  8
1
  6
Continuous
100
AcDbLine
 10
162.490146
 20
217.2325559999999
 30
0.0
 11
162.490146
 21
215.179556
 31
0.0
  0
LINE
  5
ABFD
330
AA2F
100
AcDbEntity
  8
1
  6
Continuous
100
AcDbLine
 10
167.744156
 20
215.179556
 30
0.0
 11
165.691156
 21
217.2325559999999
 31
0.0
  0
LINE
  5
ABFE
330
AA2F
100
AcDbEntity
  8
1
  6
Continuous
100
AcDbLine
 10
169.29501
 20
215.179556
 30
0.0
 11
171.3480099999999
 21
217.2325559999999
 31
0.0
  0
LINE
  5
ABFF
330
AA2F
100
AcDbEntity
  8
1
  6
Continuous
100
AcDbLine
 10
170.572583
 20
215.179556
 30
0.0
 11
168.519583
 21
217.2325559999999
 31
0.0
  0
LINE
  5
AC00
330
AA2F
100
AcDbEntity
  8
1
  6
Continuous
100
AcDbLine
 10
174.9518649999999
 20
215.179556
 30
0.0
 11
177.0048649999999
 21
217.2325559999999
 31
0.0
  0
LINE
  5
AC01
330
AA2F
100
AcDbEntity
  8
1
  6
Continuous
100
AcDbLine
 10
176.229437
 20
215.179556
 30
0.0
 11
174.176437
 21
217.2325559999999
 31
0.0
  0
LINE
  5
AC02
330
AA2F
100
AcDbEntity
  8
1
  6
Continuous
100
AcDbLine
 10
162.500062
 20
218.7148169999999
 30
0.0
 11
163.315062
 21
218.7148169999999
 31
0.0
  0
ARC
  5
AC03
330
AA2F
100
AcDbEntity
  8
1
  6
Continuous
100
AcDbCircle
 10
168.8432929999999
 20
216.104264
 30
0.0
 40
6.113617999999997
100
AcDbArc
 50
90.0
 51
154.722278
  0
ARC
  5
AC04
330
AA2F
100
AcDbEntity
  8
1
  6
Continuous
100
AcDbCircle
 10
166.1015439999999
 20
220.2650439999999
 30
0.0
 40
4.697225
100
AcDbArc
 50
206.286695
 51
220.210037
  0
ARC
  5
AC05
330
AA2F
100
AcDbEntity
  8
1
  6
Continuous
100
AcDbCircle
 10
162.7640319999999
 20
217.794964
 30
0.0
 40
0.9569799999999998
100
AcDbArc
 50
106.011913
 51
155.9597349999999
  0
LINE
  5
AC06
330
AA2F
100
AcDbEntity
  8
1
  6
Continuous
100
AcDbLine
 10
177.9845919999999
 20
226.2178819999999
 30
0.0
 11
177.9845919999999
 21
222.2178819999998
 31
0.0
  0
LINE
  5
AC07
330
AA2F
100
AcDbEntity
  8
1
  6
Continuous
100
AcDbLine
 10
170.479039
 20
226.2178819999999
 30
0.0
 11
170.479039
 21
222.2178819999998
 31
0.0
  0
LINE
  5
AC08
330
AA2F
100
AcDbEntity
  8
1
  6
Continuous
100
AcDbLine
 10
179.490146
 20
265.2178819999999
 30
0.0
 11
180.490146
 21
266.2178819999999
 31
0.0
  0
LINE
  5
AC09
330
AA2F
100
AcDbEntity
  8
1
  6
Continuous
100
AcDbLine
 10
179.490146
 20
264.317882
 30
0.0
 11
179.490146
 21
265.2178819999999
 31
0.0
  0
LINE
  5
AC0A
330
AA2F
100
AcDbEntity
  8
2
  6
Continuous
100
AcDbLine
 10
180.4371459999999
 20
264.317882
 30
0.0
 11
180.4371459999999
 21
266.1648819999999
 31
0.0
  0
LINE
  5
AC0B
330
AA2F
100
AcDbEntity
  8
1
  6
Continuous
100
AcDbLine
 10
208.490146
 20
216.8599729999999
 30
0.0
 11
208.1175629999999
 21
217.2325559999999
 31
0.0
  0
LINE
  5
AC0C
330
AA2F
100
AcDbEntity
  8
1
  6
Continuous
100
AcDbLine
 10
208.490146
 20
217.2325559999999
 30
0.0
 11
208.490146
 21
215.179556
 31
0.0
  0
LINE
  5
AC0D
330
AA2F
100
AcDbEntity
  8
1
  6
Continuous
100
AcDbLine
 10
207.342136
 20
215.179556
 30
0.0
 11
205.289136
 21
217.2325559999999
 31
0.0
  0
LINE
  5
AC0E
330
AA2F
100
AcDbEntity
  8
1
  6
Continuous
100
AcDbLine
 10
200.407709
 20
215.179556
 30
0.0
 11
202.4607089999999
 21
217.2325559999999
 31
0.0
  0
LINE
  5
AC0F
330
AA2F
100
AcDbEntity
  8
1
  6
Continuous
100
AcDbLine
 10
201.6852819999999
 20
215.179556
 30
0.0
 11
199.6322819999998
 21
217.2325559999999
 31
0.0
  0
LINE
  5
AC10
330
AA2F
100
AcDbEntity
  8
1
  6
Continuous
100
AcDbLine
 10
198.8568539999999
 20
215.179556
 30
0.0
 11
196.803854
 21
217.2325559999999
 31
0.0
  0
LINE
  5
AC11
330
AA2F
100
AcDbEntity
  8
1
  6
Continuous
100
AcDbLine
 10
197.579282
 20
215.179556
 30
0.0
 11
199.6322819999998
 21
217.2325559999999
 31
0.0
  0
LINE
  5
AC12
330
AA2F
100
AcDbEntity
  8
1
  6
Continuous
100
AcDbLine
 10
194.750854
 20
215.179556
 30
0.0
 11
196.803854
 21
217.2325559999999
 31
0.0
  0
LINE
  5
AC13
330
AA2F
100
AcDbEntity
  8
1
  6
Continuous
100
AcDbLine
 10
196.028427
 20
215.179556
 30
0.0
 11
193.975427
 21
217.2325559999999
 31
0.0
  0
LINE
  5
AC14
330
AA2F
100
AcDbEntity
  8
1
  6
Continuous
100
AcDbLine
 10
203.2361359999999
 20
215.179556
 30
0.0
 11
205.289136
 21
217.2325559999999
 31
0.0
  0
LINE
  5
AC15
330
AA2F
100
AcDbEntity
  8
1
  6
Continuous
100
AcDbLine
 10
204.5137089999998
 20
215.179556
 30
0.0
 11
202.4607089999999
 21
217.2325559999999
 31
0.0
  0
LINE
  5
AC16
330
AA2F
100
AcDbEntity
  8
1
  6
Continuous
100
AcDbLine
 10
206.0645629999999
 20
215.179556
 30
0.0
 11
208.1175629999999
 21
217.2325559999999
 31
0.0
  0
LINE
  5
AC17
330
AA2F
100
AcDbEntity
  8
1
  6
Continuous
100
AcDbLine
 10
190.371573
 20
215.179556
 30
0.0
 11
188.3185729999999
 21
217.2325559999999
 31
0.0
  0
LINE
  5
AC18
330
AA2F
100
AcDbEntity
  8
1
  6
Continuous
100
AcDbLine
 10
189.094
 20
215.179556
 30
0.0
 11
191.1469999999999
 21
217.2325559999999
 31
0.0
  0
LINE
  5
AC19
330
AA2F
100
AcDbEntity
  8
1
  6
Continuous
100
AcDbLine
 10
186.2655729999999
 20
215.179556
 30
0.0
 11
188.3185729999999
 21
217.2325559999999
 31
0.0
  0
LINE
  5
AC1A
330
AA2F
100
AcDbEntity
  8
1
  6
Continuous
100
AcDbLine
 10
187.543146
 20
215.179556
 30
0.0
 11
185.490146
 21
217.2325559999999
 31
0.0
  0
LINE
  5
AC1B
330
AA2F
100
AcDbEntity
  8
1
  6
Continuous
100
AcDbLine
 10
191.9224269999999
 20
215.179556
 30
0.0
 11
193.975427
 21
217.2325559999999
 31
0.0
  0
LINE
  5
AC1C
330
AA2F
100
AcDbEntity
  8
1
  6
Continuous
100
AcDbLine
 10
193.2
 20
215.179556
 30
0.0
 11
191.1469999999999
 21
217.2325559999999
 31
0.0
  0
LINE
  5
AC1D
330
AA2F
100
AcDbEntity
  8
1
  6
Continuous
100
AcDbLine
 10
200.501253
 20
226.2178819999999
 30
0.0
 11
200.501253
 21
222.2178819999998
 31
0.0
  0
LINE
  5
AC1E
330
AA2F
100
AcDbEntity
  8
1
  6
Continuous
100
AcDbLine
 10
192.9956989999998
 20
226.2178819999999
 30
0.0
 11
192.9956989999998
 21
222.2178819999998
 31
0.0
  0
ARC
  5
AC1F
330
AA2F
100
AcDbEntity
  8
1
  6
Continuous
100
AcDbCircle
 10
204.878748
 20
220.2650439999999
 30
0.0
 40
4.697225
100
AcDbArc
 50
319.789963
 51
333.713305
  0
ARC
  5
AC20
330
AA2F
100
AcDbEntity
  8
1
  6
Continuous
100
AcDbCircle
 10
208.216259
 20
217.794964
 30
0.0
 40
0.9569799999999998
100
AcDbArc
 50
24.04026499999999
 51
73.98808699999998
  0
LINE
  5
AC21
330
AA2F
100
AcDbEntity
  8
1
  6
Continuous
100
AcDbLine
 10
208.48023
 20
218.7148169999999
 30
0.0
 11
207.66523
 21
218.7148169999999
 31
0.0
  0
ARC
  5
AC22
330
AA2F
100
AcDbEntity
  8
1
  6
Continuous
100
AcDbCircle
 10
202.136999
 20
216.104264
 30
0.0
 40
6.113617999999997
100
AcDbArc
 50
25.277722
 51
90.0
  0
LINE
  5
AC23
330
AA2F
100
AcDbEntity
  8
1
  6
Continuous
100
AcDbLine
 10
191.490146
 20
265.2178819999999
 30
0.0
 11
190.4901459999999
 21
266.2178819999999
 31
0.0
  0
LINE
  5
AC24
330
AA2F
100
AcDbEntity
  8
1
  6
Continuous
100
AcDbLine
 10
191.490146
 20
264.317882
 30
0.0
 11
191.490146
 21
265.2178819999999
 31
0.0
  0
LINE
  5
AC25
330
AA2F
100
AcDbEntity
  8
2
  6
Continuous
100
AcDbLine
 10
190.543146
 20
264.317882
 30
0.0
 11
190.543146
 21
266.1648819999999
 31
0.0
  0
ARC
  5
AC26
330
AA2F
100
AcDbEntity
  8
1
  6
Continuous
100
AcDbCircle
 10
407.494736
 20
175.717882
 30
0.0
 40
17.5
100
AcDbArc
 50
163.99821
 51
67.046965
  0
LINE
  5
AC27
330
AA2F
100
AcDbEntity
  8
1
  6
Continuous
100
AcDbLine
 10
376.3033159999998
 20
203.5662129999999
 30
0.0
 11
397.240317
 21
170.0189799999999
 31
0.0
  0
ARC
  5
AC28
330
AA2F
100
AcDbEntity
  8
1
  6
Continuous
100
AcDbCircle
 10
406.3947359999998
 20
176.117882
 30
0.0
 40
11.0
100
AcDbArc
 50
213.672541
 51
14.14360199999999
  0
LINE
  5
AC29
330
AA2F
100
AcDbEntity
  8
4
  6
CENTER
100
AcDbLine
 10
407.494736
 20
139.217882
 30
0.0
 11
407.494736
 21
207.891468
 31
0.0
  0
ARC
  5
AC2A
330
AA2F
100
AcDbEntity
  8
1
  6
Continuous
100
AcDbCircle
 10
407.494736
 20
175.717882
 30
0.0
 40
24.0
100
AcDbArc
 50
151.190096
 51
77.26906899999999
  0
ARC
  5
AC2B
330
AA2F
100
AcDbEntity
  8
1
  6
Continuous
100
AcDbCircle
 10
407.494736
 20
175.717882
 30
0.0
 40
31.5
100
AcDbArc
 50
143.80463
 51
83.38217299999998
  0
LINE
  5
AC2C
330
AA2F
100
AcDbEntity
  8
4
  6
CENTER
100
AcDbLine
 10
370.994736
 20
175.717882
 30
0.0
 11
443.9947359999998
 21
175.717882
 31
0.0
  0
LINE
  5
AC2D
330
AA2F
100
AcDbEntity
  8
4
  6
CENTER
100
AcDbLine
 10
382.4947359999999
 20
202.215713
 30
0.0
 11
382.4947359999999
 21
271.2178819999999
 31
0.0
  0
LINE
  5
AC2E
330
AA2F
100
AcDbEntity
  8
1
  6
Continuous
100
AcDbLine
 10
374.7848819999999
 20
215.179556
 30
0.0
 11
376.8378819999999
 21
217.2325559999999
 31
0.0
  0
LINE
  5
AC2F
330
AA2F
100
AcDbEntity
  8
1
  6
Continuous
100
AcDbLine
 10
367.483629
 20
226.2178819999999
 30
0.0
 11
397.505843
 21
226.2178819999999
 31
0.0
  0
LINE
  5
AC30
330
AA2F
100
AcDbEntity
  8
1
  6
Continuous
100
AcDbLine
 10
365.847883
 20
222.2178819999998
 30
0.0
 11
399.141589
 21
222.2178819999998
 31
0.0
  0
LINE
  5
AC31
330
AA2F
100
AcDbEntity
  8
1
  6
Continuous
100
AcDbLine
 10
405.4947359999999
 20
217.2325559999999
 30
0.0
 11
359.4947359999999
 21
217.2325559999999
 31
0.0
  0
LINE
  5
AC32
330
AA2F
100
AcDbEntity
  8
1
  6
Continuous
100
AcDbLine
 10
404.6698199999998
 20
218.7148169999999
 30
0.0
 11
360.319652
 21
218.7148169999999
 31
0.0
  0
LINE
  5
AC33
330
AA2F
100
AcDbEntity
  8
1
  6
Continuous
100
AcDbLine
 10
405.4947359999999
 20
215.179556
 30
0.0
 11
359.4947359999999
 21
215.179556
 31
0.0
  0
ARC
  5
AC34
330
AA2F
100
AcDbEntity
  8
1
  6
Continuous
100
AcDbCircle
 10
399.141589
 20
216.104264
 30
0.0
 40
6.113617999999997
100
AcDbArc
 50
25.277722
 51
90.0
  0
LINE
  5
AC35
330
AA2F
100
AcDbEntity
  8
1
  6
Continuous
100
AcDbLine
 10
401.16056
 20
212.8770429999999
 30
0.0
 11
412.282595
 21
212.845989
 31
0.0
  0
LINE
  5
AC36
330
AA2F
100
AcDbEntity
  8
1
  6
Continuous
100
AcDbLine
 10
409.8947479999997
 20
212.852656
 30
0.0
 11
417.061286
 21
178.8057659999998
 31
0.0
  0
ARC
  5
AC37
330
AA2F
100
AcDbEntity
  8
1
  6
Continuous
100
AcDbCircle
 10
445.4421059999998
 20
213.0080229999999
 30
0.0
 40
31.82178
100
AcDbArc
 50
180.882972
 51
182.8814939999999
  0
ARC
  5
AC38
330
AA2F
100
AcDbEntity
  8
1
  6
Continuous
100
AcDbCircle
 10
426.6470809999998
 20
209.431971
 30
0.0
 40
13.13604599999999
100
AcDbArc
 50
171.346813
 51
174.2810689999998
  0
ARC
  5
AC39
330
AA2F
100
AcDbEntity
  8
1
  6
Continuous
100
AcDbCircle
 10
413.3510919999998
 20
210.907969
 30
0.0
 40
0.28047
100
AcDbArc
 50
271.374847
 51
323.4541489999998
  0
ARC
  5
AC3A
330
AA2F
100
AcDbEntity
  8
1
  6
Continuous
100
AcDbCircle
 10
413.083894
 20
212.0707279999999
 30
0.0
 40
0.7011149999999999
100
AcDbArc
 50
39.600945
 51
79.61194999999998
  0
ARC
  5
AC3B
330
AA2F
100
AcDbEntity
  8
1
  6
Continuous
100
AcDbCircle
 10
412.2680029999998
 20
207.620059
 30
0.0
 40
5.22595
100
AcDbArc
 50
79.61194999999998
 51
89.84002199999997
  0
ARC
  5
AC3C
330
AA2F
100
AcDbEntity
  8
1
  6
Continuous
100
AcDbCircle
 10
411.338683
 20
294.757624
 30
0.0
 40
84.15427099999998
100
AcDbArc
 50
269.3384389999998
 51
271.374847
  0
LINE
  5
AC3D
330
AA2F
100
AcDbEntity
  8
1
  6
Continuous
100
AcDbLine
 10
391.755445
 20
215.179556
 30
0.0
 11
393.808445
 21
217.2325559999999
 31
0.0
  0
LINE
  5
AC3E
330
AA2F
100
AcDbEntity
  8
1
  6
Continuous
100
AcDbLine
 10
393.0330169999999
 20
215.179556
 30
0.0
 11
390.980017
 21
217.2325559999999
 31
0.0
  0
ARC
  5
AC3F
330
AA2F
100
AcDbEntity
  8
1
  6
Continuous
100
AcDbCircle
 10
405.2208499999998
 20
217.794964
 30
0.0
 40
0.9569799999999998
100
AcDbArc
 50
24.04026499999999
 51
73.98808699999998
  0
ARC
  5
AC40
330
AA2F
100
AcDbEntity
  8
1
  6
Continuous
100
AcDbCircle
 10
401.883338
 20
220.2650439999999
 30
0.0
 40
4.697225
100
AcDbArc
 50
319.789963
 51
333.713305
  0
LINE
  5
AC41
330
AA2F
100
AcDbEntity
  8
1
  6
Continuous
100
AcDbLine
 10
405.48482
 20
218.7148169999999
 30
0.0
 11
404.6698199999998
 21
218.7148169999999
 31
0.0
  0
LINE
  5
AC42
330
AA2F
100
AcDbEntity
  8
1
  6
Continuous
100
AcDbLine
 10
397.412299
 20
215.179556
 30
0.0
 11
399.465299
 21
217.2325559999999
 31
0.0
  0
LINE
  5
AC43
330
AA2F
100
AcDbEntity
  8
1
  6
Continuous
100
AcDbLine
 10
398.6898719999999
 20
215.179556
 30
0.0
 11
396.6368719999999
 21
217.2325559999999
 31
0.0
  0
LINE
  5
AC44
330
AA2F
100
AcDbEntity
  8
1
  6
Continuous
100
AcDbLine
 10
400.240726
 20
215.179556
 30
0.0
 11
402.2937259999998
 21
217.2325559999999
 31
0.0
  0
LINE
  5
AC45
330
AA2F
100
AcDbEntity
  8
1
  6
Continuous
100
AcDbLine
 10
405.4947359999999
 20
217.2325559999999
 30
0.0
 11
405.4947359999999
 21
215.179556
 31
0.0
  0
LINE
  5
AC46
330
AA2F
100
AcDbEntity
  8
1
  6
Continuous
100
AcDbLine
 10
403.0691529999998
 20
215.179556
 30
0.0
 11
405.1221529999998
 21
217.2325559999999
 31
0.0
  0
LINE
  5
AC47
330
AA2F
100
AcDbEntity
  8
1
  6
Continuous
100
AcDbLine
 10
405.4947359999999
 20
216.8599729999999
 30
0.0
 11
405.1221529999998
 21
217.2325559999999
 31
0.0
  0
LINE
  5
AC48
330
AA2F
100
AcDbEntity
  8
1
  6
Continuous
100
AcDbLine
 10
404.3467259999998
 20
215.179556
 30
0.0
 11
402.2937259999998
 21
217.2325559999999
 31
0.0
  0
LINE
  5
AC49
330
AA2F
100
AcDbEntity
  8
1
  6
Continuous
100
AcDbLine
 10
401.518299
 20
215.179556
 30
0.0
 11
399.465299
 21
217.2325559999999
 31
0.0
  0
LINE
  5
AC4A
330
AA2F
100
AcDbEntity
  8
1
  6
Continuous
100
AcDbLine
 10
394.5838719999999
 20
215.179556
 30
0.0
 11
396.6368719999999
 21
217.2325559999999
 31
0.0
  0
LINE
  5
AC4B
330
AA2F
100
AcDbEntity
  8
1
  6
Continuous
100
AcDbLine
 10
395.861445
 20
215.179556
 30
0.0
 11
393.808445
 21
217.2325559999999
 31
0.0
  0
ARC
  5
AC4C
330
AA2F
100
AcDbEntity
  8
1
  6
Continuous
100
AcDbCircle
 10
402.389516
 20
211.2232759999999
 30
0.0
 40
4.224822999999998
100
AcDbArc
 50
31.367901
 51
69.461534
  0
ARC
  5
AC4D
330
AA2F
100
AcDbEntity
  8
1
  6
Continuous
100
AcDbCircle
 10
406.3083859999998
 20
213.3878249999999
 30
0.0
 40
0.313453
100
AcDbArc
 50
173.6619839999999
 51
240.802965
  0
ARC
  5
AC4E
330
AA2F
100
AcDbEntity
  8
1
  6
Continuous
100
AcDbCircle
 10
407.1299899999998
 20
214.858092
 30
0.0
 40
1.997709
100
AcDbArc
 50
240.802965
 51
269.8400219999999
  0
LINE
  5
AC4F
330
AA2F
100
AcDbEntity
  8
1
  6
Continuous
100
AcDbLine
 10
380.441736
 20
215.179556
 30
0.0
 11
382.4947359999999
 21
217.2325559999999
 31
0.0
  0
LINE
  5
AC50
330
AA2F
100
AcDbEntity
  8
1
  6
Continuous
100
AcDbLine
 10
381.7193089999999
 20
215.179556
 30
0.0
 11
379.666309
 21
217.2325559999999
 31
0.0
  0
LINE
  5
AC51
330
AA2F
100
AcDbEntity
  8
1
  6
Continuous
100
AcDbLine
 10
378.8908819999999
 20
215.179556
 30
0.0
 11
376.8378819999999
 21
217.2325559999999
 31
0.0
  0
LINE
  5
AC52
330
AA2F
100
AcDbEntity
  8
1
  6
Continuous
100
AcDbLine
 10
377.6133089999998
 20
215.179556
 30
0.0
 11
379.666309
 21
217.2325559999999
 31
0.0
  0
LINE
  5
AC53
330
AA2F
100
AcDbEntity
  8
1
  6
Continuous
100
AcDbLine
 10
388.9270169999999
 20
215.179556
 30
0.0
 11
390.980017
 21
217.2325559999999
 31
0.0
  0
LINE
  5
AC54
330
AA2F
100
AcDbEntity
  8
1
  6
Continuous
100
AcDbLine
 10
390.20459
 20
215.179556
 30
0.0
 11
388.15159
 21
217.2325559999999
 31
0.0
  0
LINE
  5
AC55
330
AA2F
100
AcDbEntity
  8
1
  6
Continuous
100
AcDbLine
 10
383.2701629999998
 20
215.179556
 30
0.0
 11
385.3231629999998
 21
217.2325559999999
 31
0.0
  0
LINE
  5
AC56
330
AA2F
100
AcDbEntity
  8
1
  6
Continuous
100
AcDbLine
 10
386.09859
 20
215.179556
 30
0.0
 11
388.15159
 21
217.2325559999999
 31
0.0
  0
LINE
  5
AC57
330
AA2F
100
AcDbEntity
  8
1
  6
Continuous
100
AcDbLine
 10
387.3761629999998
 20
215.179556
 30
0.0
 11
385.3231629999998
 21
217.2325559999999
 31
0.0
  0
LINE
  5
AC58
330
AA2F
100
AcDbEntity
  8
1
  6
Continuous
100
AcDbLine
 10
384.5477359999999
 20
215.179556
 30
0.0
 11
382.4947359999999
 21
217.2325559999999
 31
0.0
  0
LINE
  5
AC59
330
AA2F
100
AcDbEntity
  8
1
  6
Continuous
100
AcDbLine
 10
397.505843
 20
226.2178819999999
 30
0.0
 11
397.505843
 21
222.2178819999998
 31
0.0
  0
LINE
  5
AC5A
330
AA2F
100
AcDbEntity
  8
1
  6
Continuous
100
AcDbLine
 10
390.00029
 20
226.2178819999999
 30
0.0
 11
390.00029
 21
222.2178819999998
 31
0.0
  0
ARC
  5
AC5B
330
AA2F
100
AcDbEntity
  8
1
  6
Continuous
100
AcDbCircle
 10
365.847883
 20
216.104264
 30
0.0
 40
6.113617999999997
100
AcDbArc
 50
90.0
 51
154.722278
  0
LINE
  5
AC5C
330
AA2F
100
AcDbEntity
  8
1
  6
Continuous
100
AcDbLine
 10
361.920319
 20
215.179556
 30
0.0
 11
359.8673189999999
 21
217.2325559999999
 31
0.0
  0
LINE
  5
AC5D
330
AA2F
100
AcDbEntity
  8
1
  6
Continuous
100
AcDbLine
 10
357.7447359999999
 20
208.4673099999998
 30
0.0
 11
365.7625209999998
 21
208.4673099999998
 31
0.0
  0
ARC
  5
AC5E
330
AA2F
100
AcDbEntity
  8
1
  6
Continuous
100
AcDbCircle
 10
362.556906
 20
211.132781
 30
0.0
 40
4.377608
100
AcDbArc
 50
112.4180289999999
 51
171.7055229999999
  0
LINE
  5
AC5F
330
AA2F
100
AcDbEntity
  8
1
  6
Continuous
100
AcDbLine
 10
376.062455
 20
215.179556
 30
0.0
 11
374.009455
 21
217.2325559999999
 31
0.0
  0
LINE
  5
AC60
330
AA2F
100
AcDbEntity
  8
1
  6
Continuous
100
AcDbLine
 10
363.471173
 20
215.179556
 30
0.0
 11
365.524173
 21
217.2325559999999
 31
0.0
  0
LINE
  5
AC61
330
AA2F
100
AcDbEntity
  8
1
  6
Continuous
100
AcDbLine
 10
364.7487459999999
 20
215.179556
 30
0.0
 11
362.6957459999999
 21
217.2325559999999
 31
0.0
  0
LINE
  5
AC62
330
AA2F
100
AcDbEntity
  8
1
  6
Continuous
100
AcDbLine
 10
371.956455
 20
215.179556
 30
0.0
 11
374.009455
 21
217.2325559999999
 31
0.0
  0
LINE
  5
AC63
330
AA2F
100
AcDbEntity
  8
1
  6
Continuous
100
AcDbLine
 10
373.2340279999998
 20
215.179556
 30
0.0
 11
371.1810279999999
 21
217.2325559999999
 31
0.0
  0
LINE
  5
AC64
330
AA2F
100
AcDbEntity
  8
1
  6
Continuous
100
AcDbLine
 10
370.4056
 20
215.179556
 30
0.0
 11
368.3526
 21
217.2325559999999
 31
0.0
  0
LINE
  5
AC65
330
AA2F
100
AcDbEntity
  8
1
  6
Continuous
100
AcDbLine
 10
369.1280279999999
 20
215.179556
 30
0.0
 11
371.1810279999999
 21
217.2325559999999
 31
0.0
  0
LINE
  5
AC66
330
AA2F
100
AcDbEntity
  8
1
  6
Continuous
100
AcDbLine
 10
366.2996
 20
215.179556
 30
0.0
 11
368.3526
 21
217.2325559999999
 31
0.0
  0
LINE
  5
AC67
330
AA2F
100
AcDbEntity
  8
1
  6
Continuous
100
AcDbLine
 10
367.577173
 20
215.179556
 30
0.0
 11
365.524173
 21
217.2325559999999
 31
0.0
  0
LINE
  5
AC68
330
AA2F
100
AcDbEntity
  8
1
  6
Continuous
100
AcDbLine
 10
360.6427459999999
 20
215.179556
 30
0.0
 11
362.6957459999999
 21
217.2325559999999
 31
0.0
  0
LINE
  5
AC69
330
AA2F
100
AcDbEntity
  8
1
  6
Continuous
100
AcDbLine
 10
374.389727
 20
205.553599
 30
0.0
 11
371.2288049999998
 21
205.553599
 31
0.0
  0
ARC
  5
AC6A
330
AA2F
100
AcDbEntity
  8
1
  6
Continuous
100
AcDbCircle
 10
371.2288049999998
 20
226.412597
 30
0.0
 40
20.85899799999999
100
AcDbArc
 50
268.368019
 51
270.0
  0
ARC
  5
AC6B
330
AA2F
100
AcDbEntity
  8
1
  6
Continuous
100
AcDbCircle
 10
371.5100599999999
 20
210.84647
 30
0.0
 40
5.356411999999998
100
AcDbArc
 50
206.7619749999999
 51
260.59491
  0
ARC
  5
AC6C
330
AA2F
100
AcDbEntity
  8
1
  6
Continuous
100
AcDbCircle
 10
367.148896
 20
197.46731
 30
0.0
 40
11.0
100
AcDbArc
 50
33.67254099999998
 51
40.146961
  0
ARC
  5
AC6D
330
AA2F
100
AcDbEntity
  8
1
  6
Continuous
100
AcDbCircle
 10
365.7625209999998
 20
194.23831
 30
0.0
 40
14.229
100
AcDbArc
 50
46.49942699999999
 51
90.0
  0
LINE
  5
AC6E
330
AA2F
100
AcDbEntity
  8
1
  6
Continuous
100
AcDbLine
 10
359.504652
 20
218.7148169999999
 30
0.0
 11
360.319652
 21
218.7148169999999
 31
0.0
  0
ARC
  5
AC6F
330
AA2F
100
AcDbEntity
  8
1
  6
Continuous
100
AcDbCircle
 10
359.7686229999998
 20
217.794964
 30
0.0
 40
0.9569799999999998
100
AcDbArc
 50
106.011913
 51
155.9597349999999
  0
ARC
  5
AC70
330
AA2F
100
AcDbEntity
  8
1
  6
Continuous
100
AcDbCircle
 10
363.106134
 20
220.2650439999999
 30
0.0
 40
4.697225
100
AcDbArc
 50
206.286695
 51
220.210037
  0
LINE
  5
AC71
330
AA2F
100
AcDbEntity
  8
1
  6
Continuous
100
AcDbLine
 10
359.4947359999999
 20
217.2325559999999
 30
0.0
 11
359.4947359999999
 21
215.179556
 31
0.0
  0
LINE
  5
AC72
330
AA2F
100
AcDbEntity
  8
1
  6
Continuous
100
AcDbLine
 10
359.4947359999999
 20
216.8599729999999
 30
0.0
 11
359.8673189999999
 21
217.2325559999999
 31
0.0
  0
ARC
  5
AC73
330
AA2F
100
AcDbEntity
  8
1
  6
Continuous
100
AcDbCircle
 10
487.705519
 20
191.216185
 30
0.0
 40
131.100749
100
AcDbArc
 50
170.982549
 51
172.4387049999999
  0
LINE
  5
AC74
330
AA2F
100
AcDbEntity
  8
1
  6
Continuous
100
AcDbLine
 10
374.989183
 20
226.2178819999999
 30
0.0
 11
374.989183
 21
222.2178819999998
 31
0.0
  0
LINE
  5
AC75
330
AA2F
100
AcDbEntity
  8
1
  6
Continuous
100
AcDbLine
 10
367.483629
 20
226.2178819999999
 30
0.0
 11
367.483629
 21
222.2178819999998
 31
0.0
  0
LINE
  5
AC76
330
AA2F
100
AcDbEntity
  8
1
  6
Continuous
100
AcDbLine
 10
376.4947359999999
 20
265.2178819999999
 30
0.0
 11
377.494736
 21
266.2178819999999
 31
0.0
  0
LINE
  5
AC77
330
AA2F
100
AcDbEntity
  8
1
  6
Continuous
100
AcDbLine
 10
393.1947359999999
 20
264.317882
 30
0.0
 11
371.794736
 21
264.317882
 31
0.0
  0
LINE
  5
AC78
330
AA2F
100
AcDbEntity
  8
1
  6
Continuous
100
AcDbLine
 10
388.4947359999999
 20
265.2178819999999
 30
0.0
 11
376.4947359999999
 21
265.2178819999999
 31
0.0
  0
LINE
  5
AC79
330
AA2F
100
AcDbEntity
  8
2
  6
Continuous
100
AcDbLine
 10
377.441736
 20
264.317882
 30
0.0
 11
377.441736
 21
266.1648819999999
 31
0.0
  0
LINE
  5
AC7A
330
AA2F
100
AcDbEntity
  8
2
  6
Continuous
100
AcDbLine
 10
387.547736
 20
264.317882
 30
0.0
 11
387.547736
 21
266.1648819999999
 31
0.0
  0
LINE
  5
AC7B
330
AA2F
100
AcDbEntity
  8
1
  6
Continuous
100
AcDbLine
 10
388.4947359999999
 20
264.317882
 30
0.0
 11
388.4947359999999
 21
265.2178819999999
 31
0.0
  0
LINE
  5
AC7C
330
AA2F
100
AcDbEntity
  8
1
  6
Continuous
100
AcDbLine
 10
388.4947359999999
 20
265.2178819999999
 30
0.0
 11
387.494736
 21
266.2178819999999
 31
0.0
  0
LINE
  5
AC7D
330
AA2F
100
AcDbEntity
  8
1
  6
Continuous
100
AcDbLine
 10
377.494736
 20
266.2178819999999
 30
0.0
 11
387.494736
 21
266.2178819999999
 31
0.0
  0
LINE
  5
AC7E
330
AA2F
100
AcDbEntity
  8
1
  6
Continuous
100
AcDbLine
 10
376.4947359999999
 20
264.317882
 30
0.0
 11
376.4947359999999
 21
265.2178819999999
 31
0.0
  0
CIRCLE
  5
AC7F
330
AA2F
100
AcDbEntity
  8
1
  6
Continuous
100
AcDbCircle
 10
407.494736
 20
175.717882
 30
0.0
 40
5.75
  0
ARC
  5
AC80
330
AA2F
100
AcDbEntity
  8
1
  6
Continuous
100
AcDbCircle
 10
185.490146
 20
341.9206459999998
 30
0.0
 40
24.75
100
AcDbArc
 50
236.915984
 51
123.084016
  0
ARC
  5
AC81
330
AA2F
100
AcDbEntity
  8
1
  6
Continuous
100
AcDbCircle
 10
162.154279
 20
104.629305
 30
0.0
 40
18.0
100
AcDbArc
 50
270.609568
 51
303.084016
  0
ARC
  5
AC82
330
AA2F
100
AcDbEntity
  8
1
  6
Continuous
100
AcDbCircle
 10
162.154279
 20
104.629305
 30
0.0
 40
20.3
100
AcDbArc
 50
270.6095659999999
 51
303.084016
  0
ARC
  5
AC83
330
AA2F
100
AcDbEntity
  8
1
  6
Continuous
100
AcDbCircle
 10
162.154279
 20
32.99133199999999
 30
0.0
 40
20.3
100
AcDbArc
 50
56.915984
 51
89.390434
  0
ARC
  5
AC84
330
AA2F
100
AcDbEntity
  8
1
  6
Continuous
100
AcDbCircle
 10
162.154279
 20
32.99133199999999
 30
0.0
 40
18.0
100
AcDbArc
 50
56.915984
 51
89.39043199999996
  0
LINE
  5
AC85
330
AA2F
100
AcDbEntity
  8
1
  6
Continuous
100
AcDbLine
 10
169.597422
 20
175.717882
 30
0.0
 11
169.597422
 21
209.884775
 31
0.0
  0
LINE
  5
AC86
330
AA2F
100
AcDbEntity
  8
1
  6
Continuous
100
AcDbLine
 10
398.3874609999999
 20
175.717882
 30
0.0
 11
398.3874609999999
 21
209.884775
 31
0.0
  0
LINE
  5
AC87
330
AA2F
100
AcDbEntity
  8
1
  6
Continuous
100
AcDbLine
 10
181.082482
 20
332.1706459999999
 30
0.0
 11
189.8978099999999
 21
332.1706459999999
 31
0.0
  0
LINE
  5
AC88
330
AA2F
100
AcDbEntity
  8
1
  6
Continuous
100
AcDbLine
 10
189.8978099999999
 20
351.6706459999999
 30
0.0
 11
181.082482
 21
351.6706459999999
 31
0.0
  0
ARC
  5
AC89
330
AA2F
100
AcDbEntity
  8
1
  6
Continuous
100
AcDbCircle
 10
185.490146
 20
341.9206459999998
 30
0.0
 40
10.7
100
AcDbArc
 50
114.326207
 51
245.673793
  0
ARC
  5
AC8A
330
AA2F
100
AcDbEntity
  8
1
  6
Continuous
100
AcDbCircle
 10
185.490146
 20
341.9206459999998
 30
0.0
 40
10.7
100
AcDbArc
 50
294.326207
 51
65.673793
  0
LINE
  5
AC8B
330
AA2F
100
AcDbEntity
  8
1
  6
Continuous
100
AcDbLine
 10
393.1947359999999
 20
260.317882
 30
0.0
 11
371.794736
 21
260.317882
 31
0.0
  0
LINE
  5
AC8C
330
AA2F
100
AcDbEntity
  8
1
  6
Continuous
100
AcDbLine
 10
371.9947359999999
 20
230.6178819999999
 30
0.0
 11
392.9947359999999
 21
230.6178819999999
 31
0.0
  0
LINE
  5
AC8D
330
AA2F
100
AcDbEntity
  8
1
  6
Continuous
100
AcDbLine
 10
371.9947359999999
 20
227.7178819999999
 30
0.0
 11
371.9947359999999
 21
259.3178819999998
 31
0.0
  0
LINE
  5
AC8E
330
AA2F
100
AcDbEntity
  8
1
  6
Continuous
100
AcDbLine
 10
378.0870719999999
 20
264.317882
 30
0.0
 11
378.0870719999999
 21
260.317882
 31
0.0
  0
LINE
  5
AC8F
330
AA2F
100
AcDbEntity
  8
1
  6
Continuous
100
AcDbLine
 10
371.794736
 20
260.317882
 30
0.0
 11
371.794736
 21
264.317882
 31
0.0
  0
ARC
  5
AC90
330
AA2F
100
AcDbEntity
  8
1
  6
Continuous
100
AcDbCircle
 10
372.994736
 20
259.3178819999998
 30
0.0
 40
1.0
100
AcDbArc
 50
90.0
 51
180.0
  0
LINE
  5
AC91
330
AA2F
100
AcDbEntity
  8
1
  6
Continuous
100
AcDbLine
 10
392.9947359999999
 20
227.7178819999999
 30
0.0
 11
392.9947359999999
 21
259.3178819999998
 31
0.0
  0
LINE
  5
AC92
330
AA2F
100
AcDbEntity
  8
1
  6
Continuous
100
AcDbLine
 10
386.9023999999998
 20
264.317882
 30
0.0
 11
386.9023999999998
 21
260.317882
 31
0.0
  0
LINE
  5
AC93
330
AA2F
100
AcDbEntity
  8
1
  6
Continuous
100
AcDbLine
 10
393.1947359999999
 20
260.317882
 30
0.0
 11
393.1947359999999
 21
264.317882
 31
0.0
  0
ARC
  5
AC94
330
AA2F
100
AcDbEntity
  8
1
  6
Continuous
100
AcDbCircle
 10
391.994736
 20
259.3178819999998
 30
0.0
 40
1.0
100
AcDbArc
 50
0.0
 51
90.0
  0
LINE
  5
AC95
330
AA2F
100
AcDbEntity
  8
1
  6
Continuous
100
AcDbLine
 10
189.8978099999999
 20
264.317882
 30
0.0
 11
189.8978099999999
 21
260.317882
 31
0.0
  0
LINE
  5
AC96
330
AA2F
100
AcDbEntity
  8
1
  6
Continuous
100
AcDbLine
 10
196.1901459999999
 20
260.317882
 30
0.0
 11
196.1901459999999
 21
264.317882
 31
0.0
  0
LINE
  5
AC97
330
AA2F
100
AcDbEntity
  8
1
  6
Continuous
100
AcDbLine
 10
174.790146
 20
260.317882
 30
0.0
 11
174.790146
 21
264.317882
 31
0.0
  0
LINE
  5
AC98
330
AA2F
100
AcDbEntity
  8
1
  6
Continuous
100
AcDbLine
 10
181.082482
 20
264.317882
 30
0.0
 11
181.082482
 21
260.317882
 31
0.0
  0
LINE
  5
AC99
330
AA2F
100
AcDbEntity
  8
1
  6
Continuous
100
AcDbLine
 10
196.1901459999999
 20
260.317882
 30
0.0
 11
174.790146
 21
260.317882
 31
0.0
  0
LINE
  5
AC9A
330
AA2F
100
AcDbEntity
  8
1
  6
Continuous
100
AcDbLine
 10
195.990146
 20
227.7178819999999
 30
0.0
 11
195.990146
 21
259.3178819999998
 31
0.0
  0
ARC
  5
AC9B
330
AA2F
100
AcDbEntity
  8
1
  6
Continuous
100
AcDbCircle
 10
194.990146
 20
259.3178819999998
 30
0.0
 40
1.0
100
AcDbArc
 50
0.0
 51
90.0
  0
LINE
  5
AC9C
330
AA2F
100
AcDbEntity
  8
1
  6
Continuous
100
AcDbLine
 10
174.990146
 20
227.7178819999999
 30
0.0
 11
174.990146
 21
259.3178819999998
 31
0.0
  0
ARC
  5
AC9D
330
AA2F
100
AcDbEntity
  8
1
  6
Continuous
100
AcDbCircle
 10
175.990146
 20
259.3178819999998
 30
0.0
 40
1.0
100
AcDbArc
 50
90.0
 51
180.0
  0
LINE
  5
AC9E
330
AA2F
100
AcDbEntity
  8
1
  6
Continuous
100
AcDbLine
 10
174.990146
 20
230.6178819999999
 30
0.0
 11
195.990146
 21
230.6178819999999
 31
0.0
  0
ARC
  5
AC9F
330
AA2F
100
AcDbEntity
  8
1
  6
Continuous
100
AcDbCircle
 10
194.490146
 20
227.7178819999999
 30
0.0
 40
1.5
100
AcDbArc
 50
270.0
 51
0.0
  0
ARC
  5
ACA0
330
AA2F
100
AcDbEntity
  8
1
  6
Continuous
100
AcDbCircle
 10
176.490146
 20
227.7178819999999
 30
0.0
 40
1.5
100
AcDbArc
 50
180.0
 51
270.0
  0
ARC
  5
ACA1
330
AA2F
100
AcDbEntity
  8
1
  6
Continuous
100
AcDbCircle
 10
391.4947359999999
 20
227.7178819999999
 30
0.0
 40
1.5
100
AcDbArc
 50
270.0
 51
0.0
  0
ARC
  5
ACA2
330
AA2F
100
AcDbEntity
  8
1
  6
Continuous
100
AcDbCircle
 10
373.494736
 20
227.7178819999999
 30
0.0
 40
1.5
100
AcDbArc
 50
180.0
 51
270.0
  0
LINE
  5
ACA3
330
AA2F
100
AcDbEntity
  8
1
  6
Continuous
100
AcDbLine
 10
273.492441
 20
259.3177819999999
 30
0.0
 11
273.492441
 21
227.7177819999999
 31
0.0
  0
LINE
  5
ACA4
330
AA2F
100
AcDbEntity
  8
1
  6
Continuous
100
AcDbLine
 10
294.492441
 20
259.3177819999999
 30
0.0
 11
294.492441
 21
227.7177819999999
 31
0.0
  0
LINE
  5
ACA5
330
AA2F
100
AcDbEntity
  8
1
  6
Continuous
100
AcDbLine
 10
273.4924459999999
 20
230.6177819999998
 30
0.0
 11
294.4924459999999
 21
230.6177819999998
 31
0.0
  0
LINE
  5
ACA6
330
AA2F
100
AcDbEntity
  8
1
  6
Continuous
100
AcDbLine
 10
274.2424409999999
 20
260.3177819999999
 30
0.0
 11
274.2424409999999
 21
264.3177819999999
 31
0.0
  0
LINE
  5
ACA7
330
AA2F
100
AcDbEntity
  8
1
  6
Continuous
100
AcDbLine
 10
293.7424409999999
 20
260.3177819999999
 30
0.0
 11
293.7424409999999
 21
264.3177819999999
 31
0.0
  0
LINE
  5
ACA8
330
AA2F
100
AcDbEntity
  8
1
  6
Continuous
100
AcDbLine
 10
274.2424409999999
 20
260.3177819999999
 30
0.0
 11
293.7424409999999
 21
260.3177819999999
 31
0.0
  0
ARC
  5
ACA9
330
AA2F
100
AcDbEntity
  8
1
  6
Continuous
100
AcDbCircle
 10
274.4924409999999
 20
259.3177819999999
 30
0.0
 40
1.0
100
AcDbArc
 50
90.0
 51
180.0
  0
ARC
  5
ACAA
330
AA2F
100
AcDbEntity
  8
1
  6
Continuous
100
AcDbCircle
 10
293.4924409999999
 20
259.3177819999999
 30
0.0
 40
1.0
100
AcDbArc
 50
0.0
 51
90.0
  0
LINE
  5
ACAB
330
AA2F
100
AcDbEntity
  8
1
  6
Continuous
100
AcDbLine
 10
64.48785100000001
 20
259.3177819999999
 30
0.0
 11
64.48785100000001
 21
227.7177819999999
 31
0.0
  0
LINE
  5
ACAC
330
AA2F
100
AcDbEntity
  8
1
  6
Continuous
100
AcDbLine
 10
44.23785099999999
 20
260.3177819999999
 30
0.0
 11
63.737851
 21
260.3177819999999
 31
0.0
  0
ARC
  5
ACAD
330
AA2F
100
AcDbEntity
  8
1
  6
Continuous
100
AcDbCircle
 10
63.487851
 20
259.3177819999999
 30
0.0
 40
1.0
100
AcDbArc
 50
0.0
 51
90.0
  0
LINE
  5
ACAE
330
AA2F
100
AcDbEntity
  8
1
  6
Continuous
100
AcDbLine
 10
63.737851
 20
260.3177819999999
 30
0.0
 11
63.737851
 21
264.3177819999999
 31
0.0
  0
LINE
  5
ACAF
330
AA2F
100
AcDbEntity
  8
1
  6
Continuous
100
AcDbLine
 10
43.48785099999999
 20
259.3177819999999
 30
0.0
 11
43.48785099999999
 21
227.7177819999999
 31
0.0
  0
ARC
  5
ACB0
330
AA2F
100
AcDbEntity
  8
1
  6
Continuous
100
AcDbCircle
 10
44.487851
 20
259.3177819999999
 30
0.0
 40
1.0
100
AcDbArc
 50
90.0
 51
180.0
  0
LINE
  5
ACB1
330
AA2F
100
AcDbEntity
  8
1
  6
Continuous
100
AcDbLine
 10
44.23785099999999
 20
260.3177819999999
 30
0.0
 11
44.23785099999999
 21
264.3177819999999
 31
0.0
  0
LINE
  5
ACB2
330
AA2F
100
AcDbEntity
  8
1
  6
Continuous
100
AcDbLine
 10
43.487856
 20
230.6177819999998
 30
0.0
 11
64.48785599999999
 21
230.6177819999998
 31
0.0
  0
ARC
  5
ACB3
330
AA2F
100
AcDbEntity
  8
1
  6
Continuous
100
AcDbCircle
 10
62.98785600000001
 20
227.7177819999999
 30
0.0
 40
1.5
100
AcDbArc
 50
270.0
 51
0.0
  0
ARC
  5
ACB4
330
AA2F
100
AcDbEntity
  8
1
  6
Continuous
100
AcDbCircle
 10
44.987856
 20
227.7177819999999
 30
0.0
 40
1.5
100
AcDbArc
 50
180.0
 51
270.0
  0
ARC
  5
ACB5
330
AA2F
100
AcDbEntity
  8
1
  6
Continuous
100
AcDbCircle
 10
292.9924459999999
 20
227.7177819999999
 30
0.0
 40
1.5
100
AcDbArc
 50
270.0
 51
0.0
  0
ARC
  5
ACB6
330
AA2F
100
AcDbEntity
  8
1
  6
Continuous
100
AcDbCircle
 10
274.9924409999999
 20
227.7177819999999
 30
0.0
 40
1.5
100
AcDbArc
 50
180.0
 51
270.0
  0
ARC
  5
ACB7
330
AA2F
100
AcDbEntity
  8
1
  6
Continuous
100
AcDbCircle
 10
185.490146
 20
341.9206459999998
 30
0.0
 40
10.5
100
AcDbArc
 50
248.213211
 51
291.786789
  0
ARC
  5
ACB8
330
AA2F
100
AcDbEntity
  8
1
  6
Continuous
100
AcDbCircle
 10
185.490146
 20
341.9206459999998
 30
0.0
 40
10.5
100
AcDbArc
 50
68.213211
 51
111.7867889999999
  0
LINE
  5
ACB9
330
AA2F
100
AcDbEntity
  8
1
  6
Continuous
100
AcDbLine
 10
165.490146
 20
322.6207569999999
 30
0.0
 11
165.490146
 21
323.789848
 31
0.0
  0
LINE
  5
ACBA
330
AA2F
100
AcDbEntity
  8
1
  6
Continuous
100
AcDbLine
 10
155.490146
 20
322.6207569999999
 30
0.0
 11
155.490146
 21
324.067382
 31
0.0
  0
LINE
  5
ACBB
330
AA2F
100
AcDbEntity
  8
1
  6
Continuous
100
AcDbLine
 10
158.3654709999999
 20
326.4431189999999
 30
0.0
 11
150.5974219999998
 21
326.5257659999999
 31
0.0
  0
LINE
  5
ACBC
330
AA2F
100
AcDbEntity
  8
1
  6
Continuous
100
AcDbLine
 10
162.3457769999999
 20
324.100641
 30
0.0
 11
150.5974219999998
 21
324.225636
 31
0.0
  0
LINE
  5
ACBD
330
AA2F
100
AcDbEntity
  8
1
  6
Continuous
100
AcDbLine
 10
162.3457769999999
 20
359.740652
 30
0.0
 11
150.5974219999998
 21
359.615657
 31
0.0
  0
LINE
  5
ACBE
330
AA2F
100
AcDbEntity
  8
1
  6
Continuous
100
AcDbLine
 10
158.3654709999999
 20
357.3981739999999
 30
0.0
 11
150.5974219999998
 21
357.3155269999999
 31
0.0
  0
LINE
  5
ACBF
330
AA2F
100
AcDbEntity
  8
1
  6
Continuous
100
AcDbLine
 10
154.740146
 20
362.0061769999999
 30
0.0
 11
166.240146
 21
362.0061769999999
 31
0.0
  0
ARC
  5
ACC0
330
AA2F
100
AcDbEntity
  8
1
  6
Continuous
100
AcDbCircle
 10
160.490146
 20
353.2205349999999
 30
0.0
 40
10.5
100
AcDbArc
 50
56.79617700000001
 51
123.203823
  0
LINE
  5
ACC1
330
AA2F
100
AcDbEntity
  8
1
  6
Continuous
100
AcDbLine
 10
157.1319889999998
 20
328.9206459999999
 30
0.0
 11
147.9886639999998
 21
328.9206459999999
 31
0.0
  0
LINE
  5
ACC2
330
AA2F
100
AcDbEntity
  8
1
  6
Continuous
100
AcDbLine
 10
157.860059
 20
327.4206459999998
 30
0.0
 11
152.490146
 21
327.4206459999998
 31
0.0
  0
LINE
  5
ACC3
330
AA2F
100
AcDbEntity
  8
1
  6
Continuous
100
AcDbLine
 10
147.9886639999998
 20
354.9206459999999
 30
0.0
 11
157.1319889999998
 21
354.9206459999999
 31
0.0
  0
LINE
  5
ACC4
330
AA2F
100
AcDbEntity
  8
1
  6
Continuous
100
AcDbLine
 10
157.860059
 20
356.4206459999998
 30
0.0
 11
152.490146
 21
356.4206459999998
 31
0.0
  0
LINE
  5
ACC5
330
AA2F
100
AcDbEntity
  8
1
  6
Continuous
100
AcDbLine
 10
156.1258379999999
 20
352.4206459999998
 30
0.0
 11
131.5568719999999
 21
352.4206459999998
 31
0.0
  0
LINE
  5
ACC6
330
AA2F
100
AcDbEntity
  8
1
  6
Continuous
100
AcDbLine
 10
156.1258379999999
 20
331.4206459999998
 30
0.0
 11
131.5568719999999
 21
331.4206459999998
 31
0.0
  0
ARC
  5
ACC7
330
AA2F
100
AcDbEntity
  8
1
  6
Continuous
100
AcDbCircle
 10
168.990146
 20
341.9206459999998
 30
0.0
 40
40.0
100
AcDbArc
 50
166.4810919999998
 51
193.518908
  0
ARC
  5
ACC8
330
AA2F
100
AcDbEntity
  8
1
  6
Continuous
100
AcDbCircle
 10
131.5568719999999
 20
332.9206459999999
 30
0.0
 40
1.5
100
AcDbArc
 50
193.518908
 51
270.0
  0
LINE
  5
ACC9
330
AA2F
100
AcDbEntity
  8
1
  6
Continuous
100
AcDbLine
 10
150.5974219999998
 20
326.5257659999999
 30
0.0
 11
150.5974219999998
 21
324.225636
 31
0.0
  0
LINE
  5
ACCA
330
AA2F
100
AcDbEntity
  8
1
  6
Continuous
100
AcDbLine
 10
154.740146
 20
362.0061769999999
 30
0.0
 11
154.740146
 21
359.659733
 31
0.0
  0
LINE
  5
ACCB
330
AA2F
100
AcDbEntity
  8
1
  6
Continuous
100
AcDbLine
 10
156.490146
 20
327.4206459999998
 30
0.0
 11
156.490146
 21
326.377957
 31
0.0
  0
LINE
  5
ACCC
330
AA2F
100
AcDbEntity
  8
1
  6
Continuous
100
AcDbLine
 10
144.418294
 20
331.4206459999998
 30
0.0
 11
147.9886639999998
 21
328.9206459999999
 31
0.0
  0
LINE
  5
ACCD
330
AA2F
100
AcDbEntity
  8
1
  6
Continuous
100
AcDbLine
 10
150.990146
 20
328.9206459999999
 30
0.0
 11
152.490146
 21
327.4206459999998
 31
0.0
  0
ARC
  5
ACCE
330
AA2F
100
AcDbEntity
  8
1
  6
Continuous
100
AcDbCircle
 10
131.5568719999999
 20
350.9206459999999
 30
0.0
 40
1.5
100
AcDbArc
 50
90.0
 51
166.4810919999998
  0
LINE
  5
ACCF
330
AA2F
100
AcDbEntity
  8
1
  6
Continuous
100
AcDbLine
 10
150.5974219999998
 20
359.615657
 30
0.0
 11
150.5974219999998
 21
357.3155269999999
 31
0.0
  0
LINE
  5
ACD0
330
AA2F
100
AcDbEntity
  8
1
  6
Continuous
100
AcDbLine
 10
144.418294
 20
352.4206459999998
 30
0.0
 11
147.9886639999998
 21
354.9206459999999
 31
0.0
  0
LINE
  5
ACD1
330
AA2F
100
AcDbEntity
  8
1
  6
Continuous
100
AcDbLine
 10
150.990146
 20
354.9206459999999
 30
0.0
 11
152.490146
 21
356.4206459999998
 31
0.0
  0
LINE
  5
ACD2
330
AA2F
100
AcDbEntity
  8
1
  6
Continuous
100
AcDbLine
 10
156.490146
 20
357.4633359999999
 30
0.0
 11
156.490146
 21
356.4206459999998
 31
0.0
  0
LINE
  5
ACD3
330
AA2F
100
AcDbEntity
  8
1
  6
Continuous
100
AcDbLine
 10
166.240146
 20
360.209497
 30
0.0
 11
166.240146
 21
362.0061769999999
 31
0.0
  0
LINE
  5
ACD4
330
AA2F
100
AcDbEntity
  8
1
  6
Continuous
100
AcDbLine
 10
165.490146
 20
322.6207569999999
 30
0.0
 11
155.490146
 21
322.6207569999999
 31
0.0
  0
ARC
  5
ACD5
330
AA2F
100
AcDbEntity
  8
1
  6
Continuous
100
AcDbCircle
 10
160.490146
 20
334.6207569999999
 30
0.0
 40
13.0
100
AcDbArc
 50
247.380135
 51
292.6198649999999
  0
ARC
  5
ACD6
330
AA2F
100
AcDbEntity
  8
1
  6
Continuous
100
AcDbCircle
 10
162.154279
 20
377.739633
 30
0.0
 40
18.0
100
AcDbArc
 50
270.609568
 51
303.084016
  0
ARC
  5
ACD7
330
AA2F
100
AcDbEntity
  8
1
  6
Continuous
100
AcDbCircle
 10
162.154279
 20
306.1016599999998
 30
0.0
 40
18.0
100
AcDbArc
 50
56.915984
 51
89.39043199999996
  0
ENDSEC
  0
SECTION
  2
OBJECTS
  0
DICTIONARY
  5
AA1D
330
0
100
AcDbDictionary
281
     1
  3
ACAD_CIP_PREVIOUS_PRODUCT_INFO
350
AD39
  3
ACAD_COLOR
350
AD1B
  3
ACAD_DETAILVIEWSTYLE
350
AD34
  3
ACAD_GROUP
350
AA1E
  3
ACAD_LAYOUT
350
AA2A
  3
ACAD_MATERIAL
350
ACE9
  3
ACAD_MLEADERSTYLE
350
AD30
  3
ACAD_MLINESTYLE
350
AA27
  3
ACAD_PLOTSETTINGS
350
AA29
  3
ACAD_PLOTSTYLENAME
350
ACE7
  3
ACAD_SCALELIST
350
AD1E
  3
ACAD_SECTIONVIEWSTYLE
350
AD32
  3
ACAD_TABLESTYLE
350
AD1C
  3
ACAD_VISUALSTYLE
350
AD02
  3
ACDB_RECOMPOSE_DATA
350
AD57
  3
AcDbVariableDictionary
350
AD4A
  3
DWGPROPS
350
AD58
  0
DICTIONARY
  5
AD3A
330
AA21
100
AcDbDictionary
280
     1
281
     1
  3
ADSK_XREC_LAYER_RECONCILED
360
AD3B
  0
DICTIONARY
  5
AD3C
330
AA37
100
AcDbDictionary
280
     1
281
     1
  3
ADSK_XREC_LAYER_RECONCILED
360
AD3D
  0
DICTIONARY
  5
AD3E
330
AA38
100
AcDbDictionary
280
     1
281
     1
  3
ADSK_XREC_LAYER_RECONCILED
360
AD3F
  0
DICTIONARY
  5
AD40
330
AA39
100
AcDbDictionary
280
     1
281
     1
  3
ADSK_XREC_LAYER_RECONCILED
360
AD41
  0
DICTIONARY
  5
AD42
330
AA3A
100
AcDbDictionary
280
     1
281
     1
  3
ADSK_XREC_LAYER_RECONCILED
360
AD43
  0
DICTIONARY
  5
AD44
330
AA3B
100
AcDbDictionary
280
     1
281
     1
  3
ADSK_XREC_LAYER_RECONCILED
360
AD45
  0
DICTIONARY
  5
AD46
330
AA3C
100
AcDbDictionary
280
     1
281
     1
  3
ADSK_XREC_LAYER_RECONCILED
360
AD47
  0
DICTIONARY
  5
AD48
330
AA3D
100
AcDbDictionary
280
     1
281
     1
  3
ADSK_XREC_LAYER_RECONCILED
360
AD49
  0
DICTIONARY
  5
ACE2
330
AA2F
100
AcDbDictionary
281
     1
  3
ACAD_LAYOUTSELFREF
350
ACE3
  0
DICTIONARY
  5
ACE0
330
AA2B
100
AcDbDictionary
281
     1
  3
ACAD_LAYOUTSELFREF
350
ACE1
  0
XRECORD
  5
AD39
102
{ACAD_REACTORS
330
AA1D
102
}
330
AA1D
100
AcDbXrecord
280
     1
300
ACDLT
300
2014
300
ACDLT_F_S
  0
DICTIONARY
  5
AD1B
102
{ACAD_REACTORS
330
AA1D
102
}
330
AA1D
100
AcDbDictionary
281
     1
  0
DICTIONARY
  5
AD34
102
{ACAD_REACTORS
330
AA1D
102
}
330
AA1D
100
AcDbDictionary
281
     1
  3
Imperial24
350
AD35
  0
DICTIONARY
  5
AA1E
102
{ACAD_REACTORS
330
AA1D
102
}
330
AA1D
100
AcDbDictionary
281
     1
  0
DICTIONARY
  5
AA2A
102
{ACAD_REACTORS
330
AA1D
102
}
330
AA1D
100
AcDbDictionary
281
     1
  3
Model
350
AD36
  3
レイアウト1
350
AD37
  0
DICTIONARY
  5
ACE9
102
{ACAD_REACTORS
330
AA1D
102
}
330
AA1D
100
AcDbDictionary
281
     1
  3
ByBlock
350
ACF2
  3
ByLayer
350
ACEA
  3
Global
350
ACFA
  0
DICTIONARY
  5
AD30
102
{ACAD_REACTORS
330
AA1D
102
}
330
AA1D
100
AcDbDictionary
281
     1
  3
Standard
350
AD31
  0
DICTIONARY
  5
AA27
102
{ACAD_REACTORS
330
AA1D
102
}
330
AA1D
100
AcDbDictionary
281
     1
  3
STANDARD
350
AA28
  0
DICTIONARY
  5
AA29
102
{ACAD_REACTORS
330
AA1D
102
}
330
AA1D
100
AcDbDictionary
281
     1
  0
ACDBDICTIONARYWDFLT
  5
ACE7
102
{ACAD_REACTORS
330
AA1D
102
}
330
AA1D
100
AcDbDictionary
281
     1
  3
Normal
350
ACE8
100
AcDbDictionaryWithDefault
340
ACE8
  0
DICTIONARY
  5
AD1E
102
{ACAD_REACTORS
330
AA1D
102
}
330
AA1D
100
AcDbDictionary
281
     1
  3
A0
350
AD1F
  3
A1
350
AD20
  3
A2
350
AD21
  3
A3
350
AD22
  3
A4
350
AD23
  3
A5
350
AD24
  3
A6
350
AD25
  3
A7
350
AD26
  3
A8
350
AD27
  3
A9
350
AD28
  3
B0
350
AD29
  3
B1
350
AD2A
  3
B2
350
AD2B
  3
B3
350
AD2C
  3
B4
350
AD2D
  3
B5
350
AD2E
  3
B6
350
AD2F
  0
DICTIONARY
  5
AD32
102
{ACAD_REACTORS
330
AA1D
102
}
330
AA1D
100
AcDbDictionary
281
     1
  3
Imperial24
350
AD33
  0
DICTIONARY
  5
AD1C
102
{ACAD_REACTORS
330
AA1D
102
}
330
AA1D
100
AcDbDictionary
281
     1
  3
Standard
350
AD1D
  0
DICTIONARY
  5
AD02
102
{ACAD_REACTORS
330
AA1D
102
}
330
AA1D
100
AcDbDictionary
281
     1
  3
2dWireframe
350
AD08
  3
Basic
350
AD07
  3
Brighten
350
AD0E
  3
ColorChange
350
AD12
  3
Conceptual
350
AD0B
  3
Dim
350
AD0D
  3
EdgeColorOff
350
AD1A
  3
Facepattern
350
AD11
  3
Flat
350
AD03
  3
FlatWithEdges
350
AD04
  3
Gouraud
350
AD05
  3
GouraudWithEdges
350
AD06
  3
Hidden
350
AD0A
  3
JitterOff
350
AD18
  3
Linepattern
350
AD10
  3
OverhangOff
350
AD19
  3
Realistic
350
AD0C
  3
Shaded
350
AD17
  3
Shaded with edges
350
AD16
  3
Shades of Gray
350
AD13
  3
Sketchy
350
AD14
  3
Thicken
350
AD0F
  3
Wireframe
350
AD09
  3
X-Ray
350
AD15
  0
XRECORD
  5
AD57
102
{ACAD_REACTORS
330
AA1D
102
}
330
AA1D
100
AcDbXrecord
280
     1
 90
        1
330
AD1D
  0
DICTIONARY
  5
AD4A
102
{ACAD_REACTORS
330
AA1D
102
}
330
AA1D
100
AcDbDictionary
281
     1
  3
CANNOSCALE
350
AD4F
  3
CMLEADERSTYLE
350
AD4C
  3
CTABLESTYLE
350
AD4B
  3
CVIEWDETAILSTYLE
350
AD4D
  3
CVIEWSECTIONSTYLE
350
AD4E
  3
DIMASSOC
350
AD52
  3
INDEXCTL
350
AD51
  3
SORTENTS
350
AD50
  3
XCLIPFRAME
350
AD53
  0
XRECORD
  5
AD58
102
{ACAD_REACTORS
330
AA1D
102
}
330
AA1D
100
AcDbXrecord
280
     1
  1
DWGPROPS COOKIE
  2

  3

  4

  6

  7

  8
Yoshitsune
  9

300
=
301
=
302
=
303
=
304
=
305
=
306
=
307
=
308
=
309
=
 40
0.0000096412037037
 41
2451301.562140162
 42
2457192.687739097
  1

 90
        0
  0
XRECORD
  5
AD3B
102
{ACAD_REACTORS
330
AD3A
102
}
330
AD3A
100
AcDbXrecord
280
     1
290
     1
  0
XRECORD
  5
AD3D
102
{ACAD_REACTORS
330
AD3C
102
}
330
AD3C
100
AcDbXrecord
280
     1
290
     1
  0
XRECORD
  5
AD3F
102
{ACAD_REACTORS
330
AD3E
102
}
330
AD3E
100
AcDbXrecord
280
     1
290
     1
  0
XRECORD
  5
AD41
102
{ACAD_REACTORS
330
AD40
102
}
330
AD40
100
AcDbXrecord
280
     1
290
     1
  0
XRECORD
  5
AD43
102
{ACAD_REACTORS
330
AD42
102
}
330
AD42
100
AcDbXrecord
280
     1
290
     1
  0
XRECORD
  5
AD45
102
{ACAD_REACTORS
330
AD44
102
}
330
AD44
100
AcDbXrecord
280
     1
290
     1
  0
XRECORD
  5
AD47
102
{ACAD_REACTORS
330
AD46
102
}
330
AD46
100
AcDbXrecord
280
     1
290
     1
  0
XRECORD
  5
AD49
102
{ACAD_REACTORS
330
AD48
102
}
330
AD48
100
AcDbXrecord
280
     1
290
     1
  0
XRECORD
  5
ACE3
102
{ACAD_REACTORS
330
ACE2
102
}
330
ACE2
100
AcDbXrecord
280
     1
340
AA2F
  0
XRECORD
  5
ACE1
102
{ACAD_REACTORS
330
ACE0
102
}
330
ACE0
100
AcDbXrecord
280
     1
340
AA2B
  0
ACDBDETAILVIEWSTYLE
  5
AD35
102
{ACAD_XDICTIONARY
360
AD90
102
}
102
{ACAD_REACTORS
330
AD34
102
}
330
AD34
100
AcDbModelDocViewStyle
 70
     0
  3
Imperial24
290
     0
100
AcDbDetailViewStyle
 70
     0
 71
     0
 90
        3
 71
     1
340
AA22
 40
0.24
340
0
 40
0.24
300

 40
0.36
280
     3
 71
     2
340
AA26
 90
       25
 71
     3
340
AA22
 40
0.24
 90
        1
 40
0.75
 90
        1
300
%<\AcVar ViewType \f "%tc1">% %<\AcVar ViewDetailId>%\PSCALE %<\AcVar ViewScale \f "%sn">%
 71
     4
340
AA26
 90
       25
340
AA26
 90
       25
280
     0
  0
LAYOUT
  5
AD36
102
{ACAD_XDICTIONARY
360
AD92
102
}
102
{ACAD_REACTORS
330
AA2A
102
}
330
AA2A
100
AcDbPlotSettings
  1

  2
Canon LBP9100C
  4

  6

 40
0.0
 41
0.0
 42
0.0
 43
0.0
 44
0.0
 45
0.0
 46
0.0
 47
0.0
 48
0.0
 49
0.0
140
0.0
141
0.0
142
1.0
143
1.0
 70
  1712
 72
     0
 73
     0
 74
     0
  7

 75
     0
147
1.0
148
0.0
149
0.0
100
AcDbLayout
  1
Model
 70
     1
 71
     0
 10
0.0
 20
0.0
 11
12.0
 21
9.0
 12
0.0
 22
0.0
 32
0.0
 14
0.0
 24
0.0
 34
0.0
 15
0.0
 25
0.0
 35
0.0
146
0.0
 13
0.0
 23
0.0
 33
0.0
 16
1.0
 26
0.0
 36
0.0
 17
0.0
 27
1.0
 37
0.0
 76
     0
330
AA2F
331
ACDF
  0
LAYOUT
  5
AD37
102
{ACAD_XDICTIONARY
360
AD94
102
}
102
{ACAD_REACTORS
330
AA2A
102
}
330
AA2A
100
AcDbPlotSettings
  1

  2
Canon LBP9100C
  4

  6

 40
0.0
 41
0.0
 42
0.0
 43
0.0
 44
0.0
 45
0.0
 46
0.0
 47
0.0
 48
0.0
 49
0.0
140
0.0
141
0.0
142
1.0
143
1.0
 70
   688
 72
     0
 73
     0
 74
     5
  7

 75
    16
147
1.0
148
0.0
149
0.0
100
AcDbLayout
  1
レイアウト1
 70
     0
 71
     1
 10
0.0
 20
0.0
 11
420.0
 21
297.0
 12
0.0
 22
0.0
 32
0.0
 14
1.000000000000000E+20
 24
1.000000000000000E+20
 34
1.000000000000000E+20
 15
-1.000000000000000E+20
 25
-1.000000000000000E+20
 35
-1.000000000000000E+20
146
0.0
 13
0.0
 23
0.0
 33
0.0
 16
1.0
 26
0.0
 36
0.0
 17
0.0
 27
1.0
 37
0.0
 76
     0
330
AA2B
  0
MATERIAL
  5
ACF2
102
{ACAD_XDICTIONARY
360
ACF3
102
}
102
{ACAD_REACTORS
330
ACE9
102
}
330
ACE9
100
AcDbMaterial
  1
ByBlock
 72
     0
 43
0.0208333333333333
 43
0.0
 43
0.0
 43
0.0
 43
0.0
 43
0.0208333333333333
 43
0.0
 43
0.0
 43
0.0
 43
0.0
 43
1.0
 43
0.0
 43
0.0
 43
0.0
 43
0.0
 43
1.0
 77
     0
 47
0.0208333333333333
 47
0.0
 47
0.0
 47
0.0
 47
0.0
 47
0.0208333333333333
 47
0.0
 47
0.0
 47
0.0
 47
0.0
 47
1.0
 47
0.0
 47
0.0
 47
0.0
 47
0.0
 47
1.0
171
     0
 49
0.0208333333333333
 49
0.0
 49
0.0
 49
0.0
 49
0.0
 49
0.0208333333333333
 49
0.0
 49
0.0
 49
0.0
 49
0.0
 49
1.0
 49
0.0
 49
0.0
 49
0.0
 49
0.0
 49
1.0
175
     0
142
0.0208333333333333
142
0.0
142
0.0
142
0.0
142
0.0
142
0.0208333333333333
142
0.0
142
0.0
142
0.0
142
0.0
142
1.0
142
0.0
142
0.0
142
0.0
142
0.0
142
1.0
179
     0
144
0.0208333333333333
144
0.0
144
0.0
144
0.0
144
0.0
144
0.0208333333333333
144
0.0
144
0.0
144
0.0
144
0.0
144
1.0
144
0.0
144
0.0
144
0.0
144
0.0
144
1.0
147
0.0208333333333333
147
0.0
147
0.0
147
0.0
147
0.0
147
0.0208333333333333
147
0.0
147
0.0
147
0.0
147
0.0
147
1.0
147
0.0
147
0.0
147
0.0
147
0.0
147
1.0
  0
MATERIAL
  5
ACEA
102
{ACAD_XDICTIONARY
360
ACEB
102
}
102
{ACAD_REACTORS
330
ACE9
102
}
330
ACE9
100
AcDbMaterial
  1
ByLayer
 72
     0
 43
0.0208333333333333
 43
0.0
 43
0.0
 43
0.0
 43
0.0
 43
0.0208333333333333
 43
0.0
 43
0.0
 43
0.0
 43
0.0
 43
1.0
 43
0.0
 43
0.0
 43
0.0
 43
0.0
 43
1.0
 77
     0
 47
0.0208333333333333
 47
0.0
 47
0.0
 47
0.0
 47
0.0
 47
0.0208333333333333
 47
0.0
 47
0.0
 47
0.0
 47
0.0
 47
1.0
 47
0.0
 47
0.0
 47
0.0
 47
0.0
 47
1.0
171
     0
 49
0.0208333333333333
 49
0.0
 49
0.0
 49
0.0
 49
0.0
 49
0.0208333333333333
 49
0.0
 49
0.0
 49
0.0
 49
0.0
 49
1.0
 49
0.0
 49
0.0
 49
0.0
 49
0.0
 49
1.0
175
     0
142
0.0208333333333333
142
0.0
142
0.0
142
0.0
142
0.0
142
0.0208333333333333
142
0.0
142
0.0
142
0.0
142
0.0
142
1.0
142
0.0
142
0.0
142
0.0
142
0.0
142
1.0
179
     0
144
0.0208333333333333
144
0.0
144
0.0
144
0.0
144
0.0
144
0.0208333333333333
144
0.0
144
0.0
144
0.0
144
0.0
144
1.0
144
0.0
144
0.0
144
0.0
144
0.0
144
1.0
147
0.0208333333333333
147
0.0
147
0.0
147
0.0
147
0.0
147
0.0208333333333333
147
0.0
147
0.0
147
0.0
147
0.0
147
1.0
147
0.0
147
0.0
147
0.0
147
0.0
147
1.0
  0
MATERIAL
  5
ACFA
102
{ACAD_XDICTIONARY
360
ACFB
102
}
102
{ACAD_REACTORS
330
ACE9
102
}
330
ACE9
100
AcDbMaterial
  1
Global
 72
     0
 43
0.0208333333333333
 43
0.0
 43
0.0
 43
0.0
 43
0.0
 43
0.0208333333333333
 43
0.0
 43
0.0
 43
0.0
 43
0.0
 43
1.0
 43
0.0
 43
0.0
 43
0.0
 43
0.0
 43
1.0
 77
     0
 47
0.0208333333333333
 47
0.0
 47
0.0
 47
0.0
 47
0.0
 47
0.0208333333333333
 47
0.0
 47
0.0
 47
0.0
 47
0.0
 47
1.0
 47
0.0
 47
0.0
 47
0.0
 47
0.0
 47
1.0
171
     0
 49
0.0208333333333333
 49
0.0
 49
0.0
 49
0.0
 49
0.0
 49
0.0208333333333333
 49
0.0
 49
0.0
 49
0.0
 49
0.0
 49
1.0
 49
0.0
 49
0.0
 49
0.0
 49
0.0
 49
1.0
175
     0
142
0.0208333333333333
142
0.0
142
0.0
142
0.0
142
0.0
142
0.0208333333333333
142
0.0
142
0.0
142
0.0
142
0.0
142
1.0
142
0.0
142
0.0
142
0.0
142
0.0
142
1.0
179
     0
144
0.0208333333333333
144
0.0
144
0.0
144
0.0
144
0.0
144
0.0208333333333333
144
0.0
144
0.0
144
0.0
144
0.0
144
1.0
144
0.0
144
0.0
144
0.0
144
0.0
144
1.0
147
0.0208333333333333
147
0.0
147
0.0
147
0.0
147
0.0
147
0.0208333333333333
147
0.0
147
0.0
147
0.0
147
0.0
147
1.0
147
0.0
147
0.0
147
0.0
147
0.0
147
1.0
  0
MLEADERSTYLE
  5
AD31
102
{ACAD_REACTORS
330
AD30
102
}
330
AD30
100
AcDbMLeaderStyle
170
     2
171
     1
172
     0
 90
        2
 40
0.0
 41
0.0
173
     1
 91
-1056964608
340
AA24
 92
       -2
290
     1
 42
0.09
291
     1
 43
0.36
  3
Standard
 44
0.18
300

342
AA22
174
     1
178
     6
175
     1
176
     0
 93
-1056964608
 45
0.18
292
     0
297
     0
 46
0.18
 94
-1056964608
 47
1.0
 49
1.0
140
1.0
293
     1
141
0.0
294
     1
177
     0
142
1.0
295
     0
296
     0
143
0.125
1001
ACAD_MLEADERVER
1070
     2
  0
MLINESTYLE
  5
AA28
102
{ACAD_REACTORS
330
AA27
102
}
330
AA27
100
AcDbMlineStyle
  2
STANDARD
 70
     0
  3

 62
   256
 51
90.0
 52
90.0
 71
     2
 49
0.5
 62
   256
  6
BYLAYER
 49
-0.5
 62
   256
  6
BYLAYER
  0
ACDBPLACEHOLDER
  5
ACE8
102
{ACAD_REACTORS
330
ACE7
102
}
330
ACE7
  0
SCALE
  5
AD1F
102
{ACAD_REACTORS
330
AD1E
102
}
330
AD1E
100
AcDbScale
 70
     0
300
1:1
140
1.0
141
1.0
290
     1
  0
SCALE
  5
AD20
102
{ACAD_REACTORS
330
AD1E
102
}
330
AD1E
100
AcDbScale
 70
     0
300
1/128" = 1'-0"
140
0.0078125
141
12.0
290
     0
  0
SCALE
  5
AD21
102
{ACAD_REACTORS
330
AD1E
102
}
330
AD1E
100
AcDbScale
 70
     0
300
1/64" = 1'-0"
140
0.015625
141
12.0
290
     0
  0
SCALE
  5
AD22
102
{ACAD_REACTORS
330
AD1E
102
}
330
AD1E
100
AcDbScale
 70
     0
300
1/32" = 1'-0"
140
0.03125
141
12.0
290
     0
  0
SCALE
  5
AD23
102
{ACAD_REACTORS
330
AD1E
102
}
330
AD1E
100
AcDbScale
 70
     0
300
1/16" = 1'-0"
140
0.0625
141
12.0
290
     0
  0
SCALE
  5
AD24
102
{ACAD_REACTORS
330
AD1E
102
}
330
AD1E
100
AcDbScale
 70
     0
300
3/32" = 1'-0"
140
0.09375
141
12.0
290
     0
  0
SCALE
  5
AD25
102
{ACAD_REACTORS
330
AD1E
102
}
330
AD1E
100
AcDbScale
 70
     0
300
1/8" = 1'-0"
140
0.125
141
12.0
290
     0
  0
SCALE
  5
AD26
102
{ACAD_REACTORS
330
AD1E
102
}
330
AD1E
100
AcDbScale
 70
     0
300
3/16" = 1'-0"
140
0.1875
141
12.0
290
     0
  0
SCALE
  5
AD27
102
{ACAD_REACTORS
330
AD1E
102
}
330
AD1E
100
AcDbScale
 70
     0
300
1/4" = 1'-0"
140
0.25
141
12.0
290
     0
  0
SCALE
  5
AD28
102
{ACAD_REACTORS
330
AD1E
102
}
330
AD1E
100
AcDbScale
 70
     0
300
3/8" = 1'-0"
140
0.375
141
12.0
290
     0
  0
SCALE
  5
AD29
102
{ACAD_REACTORS
330
AD1E
102
}
330
AD1E
100
AcDbScale
 70
     0
300
1/2" = 1'-0"
140
0.5
141
12.0
290
     0
  0
SCALE
  5
AD2A
102
{ACAD_REACTORS
330
AD1E
102
}
330
AD1E
100
AcDbScale
 70
     0
300
3/4" = 1'-0"
140
0.75
141
12.0
290
     0
  0
SCALE
  5
AD2B
102
{ACAD_REACTORS
330
AD1E
102
}
330
AD1E
100
AcDbScale
 70
     0
300
1" = 1'-0"
140
1.0
141
12.0
290
     0
  0
SCALE
  5
AD2C
102
{ACAD_REACTORS
330
AD1E
102
}
330
AD1E
100
AcDbScale
 70
     0
300
1-1/2" = 1'-0"
140
1.5
141
12.0
290
     0
  0
SCALE
  5
AD2D
102
{ACAD_REACTORS
330
AD1E
102
}
330
AD1E
100
AcDbScale
 70
     0
300
3" = 1'-0"
140
3.0
141
12.0
290
     0
  0
SCALE
  5
AD2E
102
{ACAD_REACTORS
330
AD1E
102
}
330
AD1E
100
AcDbScale
 70
     0
300
6" = 1'-0"
140
6.0
141
12.0
290
     0
  0
SCALE
  5
AD2F
102
{ACAD_REACTORS
330
AD1E
102
}
330
AD1E
100
AcDbScale
 70
     0
300
1'-0" = 1'-0"
140
12.0
141
12.0
290
     0
  0
ACDBSECTIONVIEWSTYLE
  5
AD33
102
{ACAD_XDICTIONARY
360
AD8E
102
}
102
{ACAD_REACTORS
330
AD32
102
}
330
AD32
100
AcDbModelDocViewStyle
 70
     0
  3
Imperial24
290
     0
100
AcDbSectionViewStyle
 70
     0
 71
     0
 90
       78
 71
     1
340
AA22
 40
0.24
340
0
340
0
 40
0.24
300
I, O, Q, S, X, Z
 40
0.48
 90
        3
 40
0.18
 90
        1
 71
     2
340
AA26
 90
       25
340
AA26
 90
       50
 40
0.24
 40
0.0
 40
0.24
 71
     3
340
AA22
 40
0.24
 90
        1
 40
0.75
 90
        1
300
%<\AcVar ViewType \f "%tc1">% %<\AcVar ViewSectionStartId>%-%<\AcVar ViewSectionEndId>%\PSCALE %<\AcVar ViewScale \f "%sn">%
 71
     4
300
ANSI31
 40
1.0
 90
        0
290
     0
290
     0
 90
        6
 40
0.0
 40
1.570796326794896
 40
0.2617993877991494
 40
1.308996938995747
 40
-0.2617993877991494
 40
1.832595714594046
  0
TABLESTYLE
  5
AD1D
102
{ACAD_XDICTIONARY
360
AD55
102
}
102
{ACAD_REACTORS
330
AD1C
102
}
330
AD1C
100
AcDbTableStyle
  3
Standard
 70
     0
 71
     0
 40
0.06
 41
0.06
280
     0
281
     0
  7
STANDARD
140
0.18
170
     2
 62
     0
 63
     7
283
     0
274
    -2
284
     1
 64
     0
275
    -2
285
     1
 65
     0
276
    -2
286
     1
 66
     0
277
    -2
287
     1
 67
     0
278
    -2
288
     1
 68
     0
279
    -2
289
     1
 69
     0
  7
STANDARD
140
0.25
170
     5
 62
     0
 63
     7
283
     0
274
    -2
284
     1
 64
     0
275
    -2
285
     1
 65
     0
276
    -2
286
     1
 66
     0
277
    -2
287
     1
 67
     0
278
    -2
288
     1
 68
     0
279
    -2
289
     1
 69
     0
  7
STANDARD
140
0.18
170
     5
 62
     0
 63
     7
283
     0
274
    -2
284
     1
 64
     0
275
    -2
285
     1
 65
     0
276
    -2
286
     1
 66
     0
277
    -2
287
     1
 67
     0
278
    -2
288
     1
 68
     0
279
    -2
289
     1
 69
     0
  0
VISUALSTYLE
  5
AD08
102
{ACAD_XDICTIONARY
360
AD66
102
}
102
{ACAD_REACTORS
330
AD02
102
}
330
AD02
100
AcDbVisualStyle
  2
2dWireframe
 70
     4
 71
     0
 72
     2
 73
     0
 90
        0
 40
-0.6
 41
-30.0
 62
     5
 63
     7
 74
     1
 91
        4
 64
     7
 65
   257
 75
     1
175
     1
 42
1.0
 92
        0
 66
   257
 43
1.0
 76
     1
 77
     6
 78
     2
 67
     7
 79
     5
170
     0
171
     0
290
     0
174
     0
 93
        1
 44
0.0
173
     0
291
     0
 45
0.0
1001
ACAD
1000
AcDbSavedByObjectVersion
1070
     0
  0
VISUALSTYLE
  5
AD07
102
{ACAD_XDICTIONARY
360
AD64
102
}
102
{ACAD_REACTORS
330
AD02
102
}
330
AD02
100
AcDbVisualStyle
  2
Basic
 70
     7
 71
     1
 72
     0
 73
     1
 90
        0
 40
-0.6
 41
-30.0
 62
     5
 63
     7
 74
     0
 91
        4
 64
     7
 65
   257
 75
     1
175
     1
 42
1.0
 92
        8
 66
     7
 43
1.0
 76
     1
 77
     6
 78
     2
 67
     7
 79
     5
170
     0
171
     0
290
     0
174
     0
 93
        1
 44
0.0
173
     0
291
     1
 45
0.0
1001
ACAD
1000
AcDbSavedByObjectVersion
1070
     0
  0
VISUALSTYLE
  5
AD0E
102
{ACAD_XDICTIONARY
360
AD72
102
}
102
{ACAD_REACTORS
330
AD02
102
}
330
AD02
100
AcDbVisualStyle
  2
Brighten
 70
    12
 71
     2
 72
     2
 73
     0
 90
        0
 40
-0.6
 41
-30.0
 62
     5
 63
     7
 74
     1
 91
        4
 64
     7
 65
   257
 75
     1
175
     1
 42
1.0
 92
        8
 66
     7
 43
1.0
 76
     1
 77
     6
 78
     2
 67
     7
 79
     5
170
     0
171
     0
290
     0
174
     0
 93
        1
 44
50.0
173
     0
291
     1
 45
0.0
1001
ACAD
1000
AcDbSavedByObjectVersion
1070
     0
  0
VISUALSTYLE
  5
AD12
102
{ACAD_XDICTIONARY
360
AD7A
102
}
102
{ACAD_REACTORS
330
AD02
102
}
330
AD02
100
AcDbVisualStyle
  2
ColorChange
 70
    16
 71
     2
 72
     2
 73
     3
 90
        0
 40
-0.6
 41
-30.0
 62
     5
 63
     8
 74
     1
 91
        4
 64
     7
 65
   257
 75
     1
175
     1
 42
1.0
 92
        8
 66
     8
 43
1.0
 76
     1
 77
     6
 78
     2
 67
     7
 79
     5
170
     0
171
     0
290
     0
174
     0
 93
        1
 44
0.0
173
     0
291
     1
 45
0.0
1001
ACAD
1000
AcDbSavedByObjectVersion
1070
     0
  0
VISUALSTYLE
  5
AD0B
102
{ACAD_XDICTIONARY
360
AD6C
102
}
102
{ACAD_REACTORS
330
AD02
102
}
330
AD02
100
AcDbVisualStyle
  2
Conceptual
 70
     9
 71
     3
 72
     2
 73
     0
 90
        0
 40
-0.6
 41
-30.0
 62
     5
 63
     7
 74
     2
 91
        2
 64
     7
 65
   257
 75
     1
175
     1
 42
179.0
 92
        8
 66
     7
 43
1.0
 76
     1
 77
     6
 78
     2
 67
     7
 79
     3
170
     0
171
     0
290
     0
174
     0
 93
        1
 44
0.0
173
     0
291
     0
 45
0.0
1001
ACAD
1000
AcDbSavedByObjectVersion
1070
     0
  0
VISUALSTYLE
  5
AD0D
102
{ACAD_XDICTIONARY
360
AD70
102
}
102
{ACAD_REACTORS
330
AD02
102
}
330
AD02
100
AcDbVisualStyle
  2
Dim
 70
    11
 71
     2
 72
     2
 73
     0
 90
        0
 40
-0.6
 41
-30.0
 62
     5
 63
     7
 74
     1
 91
        4
 64
     7
 65
   257
 75
     1
175
     1
 42
1.0
 92
        8
 66
     7
 43
1.0
 76
     1
 77
     6
 78
     2
 67
     7
 79
     5
170
     0
171
     0
290
     0
174
     0
 93
        1
 44
-50.0
173
     0
291
     1
 45
0.0
1001
ACAD
1000
AcDbSavedByObjectVersion
1070
     0
  0
VISUALSTYLE
  5
AD1A
102
{ACAD_XDICTIONARY
360
AD8A
102
}
102
{ACAD_REACTORS
330
AD02
102
}
330
AD02
100
AcDbVisualStyle
  2
EdgeColorOff
 70
    22
 71
     2
 72
     2
 73
     0
 90
        0
 40
-0.6
 41
-30.0
 62
     5
 63
     7
 74
     1
 91
        4
 64
     7
 65
   257
 75
     1
175
     1
 42
1.0
 92
        8
 66
     7
 43
1.0
 76
     1
 77
     6
 78
     2
 67
     7
 79
     5
170
     0
171
     0
290
     0
174
     0
 93
        1
 44
0.0
173
     0
291
     1
 45
0.0
1001
ACAD
1000
AcDbSavedByObjectVersion
1070
     0
  0
VISUALSTYLE
  5
AD11
102
{ACAD_XDICTIONARY
360
AD78
102
}
102
{ACAD_REACTORS
330
AD02
102
}
330
AD02
100
AcDbVisualStyle
  2
Facepattern
 70
    15
 71
     2
 72
     2
 73
     0
 90
        0
 40
-0.6
 41
-30.0
 62
     5
 63
     7
 74
     1
 91
        4
 64
     7
 65
   257
 75
     1
175
     1
 42
1.0
 92
        8
 66
     7
 43
1.0
 76
     1
 77
     6
 78
     2
 67
     7
 79
     5
170
     0
171
     0
290
     0
174
     0
 93
        1
 44
0.0
173
     0
291
     1
 45
0.0
1001
ACAD
1000
AcDbSavedByObjectVersion
1070
     0
  0
VISUALSTYLE
  5
AD03
102
{ACAD_XDICTIONARY
360
AD5C
102
}
102
{ACAD_REACTORS
330
AD02
102
}
330
AD02
100
AcDbVisualStyle
  2
Flat
 70
     0
 71
     2
 72
     1
 73
     1
 90
        2
 40
-0.6
 41
30.0
 62
     5
 63
     7
 74
     0
 91
        0
 64
     7
 65
   257
 75
     1
175
     1
 42
1.0
 92
        8
 66
     7
 43
1.0
 76
     1
 77
     6
 78
     2
 67
     7
 79
     5
170
     0
171
     0
290
     0
174
     0
 93
       13
 44
0.0
173
     0
291
     1
 45
0.0
1001
ACAD
1000
AcDbSavedByObjectVersion
1070
     0
  0
VISUALSTYLE
  5
AD04
102
{ACAD_XDICTIONARY
360
AD5E
102
}
102
{ACAD_REACTORS
330
AD02
102
}
330
AD02
100
AcDbVisualStyle
  2
FlatWithEdges
 70
     1
 71
     2
 72
     1
 73
     1
 90
        2
 40
-0.6
 41
30.0
 62
     5
 63
     7
 74
     1
 91
        0
 64
     7
 65
   257
 75
     1
175
     1
 42
1.0
 92
        0
 66
   257
 43
1.0
 76
     1
 77
     6
 78
     2
 67
     7
 79
     5
170
     0
171
     0
290
     0
174
     0
 93
       13
 44
0.0
173
     0
291
     1
 45
0.0
1001
ACAD
1000
AcDbSavedByObjectVersion
1070
     0
  0
VISUALSTYLE
  5
AD05
102
{ACAD_XDICTIONARY
360
AD60
102
}
102
{ACAD_REACTORS
330
AD02
102
}
330
AD02
100
AcDbVisualStyle
  2
Gouraud
 70
     2
 71
     2
 72
     2
 73
     1
 90
        2
 40
-0.6
 41
30.0
 62
     5
 63
     7
 74
     0
 91
        0
 64
     7
 65
   257
 75
     1
175
     1
 42
1.0
 92
        0
 66
     7
 43
1.0
 76
     1
 77
     6
 78
     2
 67
     7
 79
     5
170
     0
171
     0
290
     0
174
     0
 93
       13
 44
0.0
173
     0
291
     1
 45
0.0
1001
ACAD
1000
AcDbSavedByObjectVersion
1070
     0
  0
VISUALSTYLE
  5
AD06
102
{ACAD_XDICTIONARY
360
AD62
102
}
102
{ACAD_REACTORS
330
AD02
102
}
330
AD02
100
AcDbVisualStyle
  2
GouraudWithEdges
 70
     3
 71
     2
 72
     2
 73
     1
 90
        2
 40
-0.6
 41
30.0
 62
     5
 63
     7
 74
     1
 91
        0
 64
     7
 65
   257
 75
     1
175
     1
 42
1.0
 92
        0
 66
   257
 43
1.0
 76
     1
 77
     6
 78
     2
 67
     7
 79
     5
170
     0
171
     0
290
     0
174
     0
 93
       13
 44
0.0
173
     0
291
     1
 45
0.0
1001
ACAD
1000
AcDbSavedByObjectVersion
1070
     0
  0
VISUALSTYLE
  5
AD0A
102
{ACAD_XDICTIONARY
360
AD6A
102
}
102
{ACAD_REACTORS
330
AD02
102
}
330
AD02
100
AcDbVisualStyle
  2
Hidden
 70
     6
 71
     1
 72
     2
 73
     2
 90
        0
 40
-0.6
 41
-30.0
 62
     5
 63
     7
 74
     2
 91
        2
 64
     7
 65
   257
 75
     2
175
     1
 42
40.0
 92
        0
 66
   257
 43
1.0
 76
     1
 77
     6
 78
     2
 67
     7
 79
     3
170
     0
171
     0
290
     0
174
     0
 93
        1
 44
0.0
173
     0
291
     0
 45
0.0
1001
ACAD
1000
AcDbSavedByObjectVersion
1070
     0
  0
VISUALSTYLE
  5
AD18
102
{ACAD_XDICTIONARY
360
AD86
102
}
102
{ACAD_REACTORS
330
AD02
102
}
330
AD02
100
AcDbVisualStyle
  2
JitterOff
 70
    20
 71
     2
 72
     2
 73
     0
 90
        0
 40
-0.6
 41
-30.0
 62
     5
 63
     7
 74
     1
 91
        4
 64
     7
 65
   257
 75
     1
175
     1
 42
1.0
 92
       10
 66
     7
 43
1.0
 76
     1
 77
     6
 78
     2
 67
     7
 79
     5
170
     0
171
     0
290
     0
174
     0
 93
        1
 44
0.0
173
     0
291
     1
 45
0.0
1001
ACAD
1000
AcDbSavedByObjectVersion
1070
     0
  0
VISUALSTYLE
  5
AD10
102
{ACAD_XDICTIONARY
360
AD76
102
}
102
{ACAD_REACTORS
330
AD02
102
}
330
AD02
100
AcDbVisualStyle
  2
Linepattern
 70
    14
 71
     2
 72
     2
 73
     0
 90
        0
 40
-0.6
 41
-30.0
 62
     5
 63
     7
 74
     1
 91
        4
 64
     7
 65
   257
 75
     7
175
     7
 42
1.0
 92
        8
 66
     7
 43
1.0
 76
     1
 77
     6
 78
     2
 67
     7
 79
     5
170
     0
171
     0
290
     0
174
     0
 93
        1
 44
0.0
173
     0
291
     1
 45
0.0
1001
ACAD
1000
AcDbSavedByObjectVersion
1070
     0
  0
VISUALSTYLE
  5
AD19
102
{ACAD_XDICTIONARY
360
AD88
102
}
102
{ACAD_REACTORS
330
AD02
102
}
330
AD02
100
AcDbVisualStyle
  2
OverhangOff
 70
    21
 71
     2
 72
     2
 73
     0
 90
        0
 40
-0.6
 41
-30.0
 62
     5
 63
     7
 74
     1
 91
        4
 64
     7
 65
   257
 75
     1
175
     1
 42
1.0
 92
        9
 66
     7
 43
1.0
 76
     1
 77
     6
 78
     2
 67
     7
 79
     5
170
     0
171
     0
290
     0
174
     0
 93
        1
 44
0.0
173
     0
291
     1
 45
0.0
1001
ACAD
1000
AcDbSavedByObjectVersion
1070
     0
  0
VISUALSTYLE
  5
AD0C
102
{ACAD_XDICTIONARY
360
AD6E
102
}
102
{ACAD_REACTORS
330
AD02
102
}
330
AD02
100
AcDbVisualStyle
  2
Realistic
 70
     8
 71
     2
 72
     3
 73
     0
 90
        2
 40
-0.6
 41
30.0
 62
     5
 63
     7
 74
     0
 91
        0
 64
     7
 65
   257
 75
     1
175
     1
 42
1.0
 92
        8
 66
   257
 43
1.0
 76
     1
 77
     6
 78
     2
 67
     7
 79
     3
170
     0
171
     0
290
     0
174
     0
 93
       13
 44
0.0
173
     0
291
     0
 45
0.0
1001
ACAD
1000
AcDbSavedByObjectVersion
1070
     0
  0
VISUALSTYLE
  5
AD17
102
{ACAD_XDICTIONARY
360
AD84
102
}
102
{ACAD_REACTORS
330
AD02
102
}
330
AD02
100
AcDbVisualStyle
  2
Shaded
 70
    27
 71
     2
 72
     2
 73
     1
 90
        2
 40
-0.6
 41
30.0
 62
     5
 63
     7
 74
     0
 91
        4
 64
     7
 65
   257
 75
     1
175
     1
 42
1.0
 92
        8
 66
   257
 43
1.0
 76
     1
 77
     6
 78
     2
 67
     8
 79
     3
170
     0
171
     0
290
     0
174
     0
 93
        5
 44
0.0
173
     0
291
     0
 45
0.0
1001
ACAD
1000
AcDbSavedByObjectVersion
1070
     0
  0
VISUALSTYLE
  5
AD16
102
{ACAD_XDICTIONARY
360
AD82
102
}
102
{ACAD_REACTORS
330
AD02
102
}
330
AD02
100
AcDbVisualStyle
  2
Shaded with edges
 70
    26
 71
     2
 72
     2
 73
     1
 90
        2
 40
-0.6
 41
30.0
 62
     5
 63
     7
 74
     1
 91
       10
 64
     7
 65
   257
 75
     2
175
     1
 42
1.0
 92
        8
 66
   257
 43
1.0
 76
     1
 77
     6
 78
     2
 67
     7
 79
     3
170
     0
171
     0
290
     0
174
     0
 93
        5
 44
0.0
173
     0
291
     0
 45
0.0
1001
ACAD
1000
AcDbSavedByObjectVersion
1070
     0
  0
VISUALSTYLE
  5
AD13
102
{ACAD_XDICTIONARY
360
AD7C
102
}
102
{ACAD_REACTORS
330
AD02
102
}
330
AD02
100
AcDbVisualStyle
  2
Shades of Gray
 70
    23
 71
     2
 72
     2
 73
     3
 90
        0
 40
-0.6
 41
-30.0
 62
     5
 63
     7
 74
     2
 91
        2
 64
     7
 65
     7
 75
     1
175
     1
 42
40.0
 92
        8
 66
     7
 43
1.0
 76
     1
 77
     6
 78
     2
 67
     7
 79
     3
170
     0
171
     0
290
     0
174
     0
 93
        1
 44
0.0
173
     0
291
     0
 45
0.0
1001
ACAD
1000
AcDbSavedByObjectVersion
1070
     0
  0
VISUALSTYLE
  5
AD14
102
{ACAD_XDICTIONARY
360
AD7E
102
}
102
{ACAD_REACTORS
330
AD02
102
}
330
AD02
100
AcDbVisualStyle
  2
Sketchy
 70
    24
 71
     1
 72
     2
 73
     2
 90
        0
 40
-0.6
 41
-30.0
 62
     5
 63
     7
 74
     2
 91
        2
 64
     7
 65
     7
 75
     1
175
     1
 42
40.0
 92
       11
 66
     7
 43
1.0
 76
     1
 77
     6
 78
     2
 67
     7
 79
     6
170
     0
171
     0
290
     0
174
     0
 93
        1
 44
0.0
173
     0
291
     0
 45
0.0
1001
ACAD
1000
AcDbSavedByObjectVersion
1070
     0
  0
VISUALSTYLE
  5
AD0F
102
{ACAD_XDICTIONARY
360
AD74
102
}
102
{ACAD_REACTORS
330
AD02
102
}
330
AD02
100
AcDbVisualStyle
  2
Thicken
 70
    13
 71
     2
 72
     2
 73
     0
 90
        0
 40
-0.6
 41
-30.0
 62
     5
 63
     7
 74
     1
 91
        4
 64
     7
 65
   257
 75
     1
175
     1
 42
1.0
 92
       12
 66
     7
 43
1.0
 76
     1
 77
     6
 78
     2
 67
     7
 79
     5
170
     0
171
     0
290
     0
174
     0
 93
        1
 44
0.0
173
     0
291
     1
 45
0.0
1001
ACAD
1000
AcDbSavedByObjectVersion
1070
     0
  0
VISUALSTYLE
  5
AD09
102
{ACAD_XDICTIONARY
360
AD68
102
}
102
{ACAD_REACTORS
330
AD02
102
}
330
AD02
100
AcDbVisualStyle
  2
Wireframe
 70
     5
 71
     0
 72
     2
 73
     0
 90
        0
 40
-0.6
 41
-30.0
 62
     5
 63
     7
 74
     1
 91
        4
 64
     7
 65
   257
 75
     1
175
     1
 42
1.0
 92
        0
 66
   257
 43
1.0
 76
     1
 77
     6
 78
     2
 67
     7
 79
     3
170
     0
171
     0
290
     0
174
     0
 93
        1
 44
0.0
173
     0
291
     0
 45
0.0
1001
ACAD
1000
AcDbSavedByObjectVersion
1070
     0
  0
VISUALSTYLE
  5
AD15
102
{ACAD_XDICTIONARY
360
AD80
102
}
102
{ACAD_REACTORS
330
AD02
102
}
330
AD02
100
AcDbVisualStyle
  2
X-Ray
 70
    25
 71
     2
 72
     2
 73
     1
 90
        1
 40
0.5
 41
-30.0
 62
     5
 63
     7
 74
     1
 91
        0
 64
     7
 65
   257
 75
     1
175
     1
 42
1.0
 92
        8
 66
     7
 43
1.0
 76
     1
 77
     6
 78
     2
 67
     7
 79
     3
170
     0
171
     0
290
     0
174
     0
 93
       13
 44
0.0
173
     0
291
     0
 45
0.0
1001
ACAD
1000
AcDbSavedByObjectVersion
1070
     0
  0
DICTIONARYVAR
  5
AD4F
102
{ACAD_REACTORS
330
AD4A
102
}
330
AD4A
100
DictionaryVariables
280
     0
  1
1:1
  0
DICTIONARYVAR
  5
AD4C
102
{ACAD_REACTORS
330
AD4A
102
}
330
AD4A
100
DictionaryVariables
280
     0
  1
STANDARD
  0
DICTIONARYVAR
  5
AD4B
102
{ACAD_REACTORS
330
AD4A
102
}
330
AD4A
100
DictionaryVariables
280
     0
  1
STANDARD
  0
DICTIONARYVAR
  5
AD4D
102
{ACAD_REACTORS
330
AD4A
102
}
330
AD4A
100
DictionaryVariables
280
     0
  1
Imperial24
  0
DICTIONARYVAR
  5
AD4E
102
{ACAD_REACTORS
330
AD4A
102
}
330
AD4A
100
DictionaryVariables
280
     0
  1
Imperial24
  0
DICTIONARYVAR
  5
AD52
102
{ACAD_REACTORS
330
AD4A
102
}
330
AD4A
100
DictionaryVariables
280
     0
  1
1
  0
DICTIONARYVAR
  5
AD51
102
{ACAD_REACTORS
330
AD4A
102
}
330
AD4A
100
DictionaryVariables
280
     0
  1
0
  0
DICTIONARYVAR
  5
AD50
102
{ACAD_REACTORS
330
AD4A
102
}
330
AD4A
100
DictionaryVariables
280
     0
  1
127
  0
DICTIONARYVAR
  5
AD53
102
{ACAD_REACTORS
330
AD4A
102
}
330
AD4A
100
DictionaryVariables
280
     0
  1
2
  0
DICTIONARY
  5
AD90
330
AD35
100
AcDbDictionary
280
     1
281
     1
  3
ACAD_XREC_ROUNDTRIP
360
AD91
  0
DICTIONARY
  5
AD92
330
AD36
100
AcDbDictionary
280
     1
281
     1
  3
ACAD_XREC_ROUNDTRIP
360
AD93
  0
DICTIONARY
  5
AD94
330
AD37
100
AcDbDictionary
280
     1
281
     1
  3
ACAD_XREC_ROUNDTRIP
360
AD95
  0
DICTIONARY
  5
ACF3
330
ACF2
100
AcDbDictionary
280
     1
281
     1
  3
ACAD_XREC_ROUNDTRIP
360
AD5A
  3
BUMPTILE
360
ACF5
  3
DIFFUSETILE
360
ACF4
  3
OPACITYTILE
360
ACF8
  3
REFLECTIONTILE
360
ACF7
  3
REFRACTIONTILE
360
ACF9
  3
SPECULARTILE
360
ACF6
  0
DICTIONARY
  5
ACEB
330
ACEA
100
AcDbDictionary
280
     1
281
     1
  3
ACAD_XREC_ROUNDTRIP
360
AD59
  3
BUMPTILE
360
ACED
  3
DIFFUSETILE
360
ACEC
  3
OPACITYTILE
360
ACF0
  3
REFLECTIONTILE
360
ACEF
  3
REFRACTIONTILE
360
ACF1
  3
SPECULARTILE
360
ACEE
  0
DICTIONARY
  5
ACFB
330
ACFA
100
AcDbDictionary
280
     1
281
     1
  3
ACAD_XREC_ROUNDTRIP
360
AD5B
  3
BUMPTILE
360
ACFD
  3
DIFFUSETILE
360
ACFC
  3
OPACITYTILE
360
AD00
  3
REFLECTIONTILE
360
ACFF
  3
REFRACTIONTILE
360
AD01
  3
SPECULARTILE
360
ACFE
  0
DICTIONARY
  5
AD8E
330
AD33
100
AcDbDictionary
280
     1
281
     1
  3
ACAD_XREC_ROUNDTRIP
360
AD8F
  0
DICTIONARY
  5
AD55
330
AD1D
100
AcDbDictionary
280
     1
281
     1
  3
ACAD_ROUNDTRIP_2008_TABLESTYLE_CELLSTYLEMAP
360
AD56
  3
ACAD_XREC_ROUNDTRIP
360
AD8C
  0
DICTIONARY
  5
AD66
330
AD08
100
AcDbDictionary
280
     1
281
     1
  3
ACAD_XREC_ROUNDTRIP
360
AD67
  0
DICTIONARY
  5
AD64
330
AD07
100
AcDbDictionary
280
     1
281
     1
  3
ACAD_XREC_ROUNDTRIP
360
AD65
  0
DICTIONARY
  5
AD72
330
AD0E
100
AcDbDictionary
280
     1
281
     1
  3
ACAD_XREC_ROUNDTRIP
360
AD73
  0
DICTIONARY
  5
AD7A
330
AD12
100
AcDbDictionary
280
     1
281
     1
  3
ACAD_XREC_ROUNDTRIP
360
AD7B
  0
DICTIONARY
  5
AD6C
330
AD0B
100
AcDbDictionary
280
     1
281
     1
  3
ACAD_XREC_ROUNDTRIP
360
AD6D
  0
DICTIONARY
  5
AD70
330
AD0D
100
AcDbDictionary
280
     1
281
     1
  3
ACAD_XREC_ROUNDTRIP
360
AD71
  0
DICTIONARY
  5
AD8A
330
AD1A
100
AcDbDictionary
280
     1
281
     1
  3
ACAD_XREC_ROUNDTRIP
360
AD8B
  0
DICTIONARY
  5
AD78
330
AD11
100
AcDbDictionary
280
     1
281
     1
  3
ACAD_XREC_ROUNDTRIP
360
AD79
  0
DICTIONARY
  5
AD5C
330
AD03
100
AcDbDictionary
280
     1
281
     1
  3
ACAD_XREC_ROUNDTRIP
360
AD5D
  0
DICTIONARY
  5
AD5E
330
AD04
100
AcDbDictionary
280
     1
281
     1
  3
ACAD_XREC_ROUNDTRIP
360
AD5F
  0
DICTIONARY
  5
AD60
330
AD05
100
AcDbDictionary
280
     1
281
     1
  3
ACAD_XREC_ROUNDTRIP
360
AD61
  0
DICTIONARY
  5
AD62
330
AD06
100
AcDbDictionary
280
     1
281
     1
  3
ACAD_XREC_ROUNDTRIP
360
AD63
  0
DICTIONARY
  5
AD6A
330
AD0A
100
AcDbDictionary
280
     1
281
     1
  3
ACAD_XREC_ROUNDTRIP
360
AD6B
  0
DICTIONARY
  5
AD86
330
AD18
100
AcDbDictionary
280
     1
281
     1
  3
ACAD_XREC_ROUNDTRIP
360
AD87
  0
DICTIONARY
  5
AD76
330
AD10
100
AcDbDictionary
280
     1
281
     1
  3
ACAD_XREC_ROUNDTRIP
360
AD77
  0
DICTIONARY
  5
AD88
330
AD19
100
AcDbDictionary
280
     1
281
     1
  3
ACAD_XREC_ROUNDTRIP
360
AD89
  0
DICTIONARY
  5
AD6E
330
AD0C
100
AcDbDictionary
280
     1
281
     1
  3
ACAD_XREC_ROUNDTRIP
360
AD6F
  0
DICTIONARY
  5
AD84
330
AD17
100
AcDbDictionary
280
     1
281
     1
  3
ACAD_XREC_ROUNDTRIP
360
AD85
  0
DICTIONARY
  5
AD82
330
AD16
100
AcDbDictionary
280
     1
281
     1
  3
ACAD_XREC_ROUNDTRIP
360
AD83
  0
DICTIONARY
  5
AD7C
330
AD13
100
AcDbDictionary
280
     1
281
     1
  3
ACAD_XREC_ROUNDTRIP
360
AD7D
  0
DICTIONARY
  5
AD7E
330
AD14
100
AcDbDictionary
280
     1
281
     1
  3
ACAD_XREC_ROUNDTRIP
360
AD7F
  0
DICTIONARY
  5
AD74
330
AD0F
100
AcDbDictionary
280
     1
281
     1
  3
ACAD_XREC_ROUNDTRIP
360
AD75
  0
DICTIONARY
  5
AD68
330
AD09
100
AcDbDictionary
280
     1
281
     1
  3
ACAD_XREC_ROUNDTRIP
360
AD69
  0
DICTIONARY
  5
AD80
330
AD15
100
AcDbDictionary
280
     1
281
     1
  3
ACAD_XREC_ROUNDTRIP
360
AD81
  0
XRECORD
  5
AD91
102
{ACAD_REACTORS
330
AD90
102
}
330
AD90
100
AcDbXrecord
280
     1
102
DISPLAYNAME
  1
Imperial24
102
FLAGS
 90
        0
  0
XRECORD
  5
AD93
102
{ACAD_REACTORS
330
AD92
102
}
330
AD92
100
AcDbXrecord
280
     1
102
SHADEPLOT
 70
     0
102
SHADEPLOTRESLEVEL
 70
     2
102
SHADEPLOTCUSTOMDPI
 70
   300
  0
XRECORD
  5
AD95
102
{ACAD_REACTORS
330
AD94
102
}
330
AD94
100
AcDbXrecord
280
     1
102
SHADEPLOT
 70
     0
102
SHADEPLOTRESLEVEL
 70
     2
102
SHADEPLOTCUSTOMDPI
 70
   300
  0
XRECORD
  5
AD5A
102
{ACAD_REACTORS
330
ACF3
102
}
330
ACF3
100
AcDbXrecord
280
     1
102
MATERIAL
148
0.0
149
0.0
149
0.0
 93
        0
 94
      127
282
     0
 72
     0
 77
     0
171
     0
175
     0
179
     0
273
     0
  0
XRECORD
  5
ACF5
102
{ACAD_REACTORS
330
ACF3
102
}
330
ACF3
100
AcDbXrecord
280
     1
270
     1
271
     1
  0
XRECORD
  5
ACF4
102
{ACAD_REACTORS
330
ACF3
102
}
330
ACF3
100
AcDbXrecord
280
     1
270
     1
271
     1
  0
XRECORD
  5
ACF8
102
{ACAD_REACTORS
330
ACF3
102
}
330
ACF3
100
AcDbXrecord
280
     1
270
     1
271
     1
  0
XRECORD
  5
ACF7
102
{ACAD_REACTORS
330
ACF3
102
}
330
ACF3
100
AcDbXrecord
280
     1
270
     1
271
     1
  0
XRECORD
  5
ACF9
102
{ACAD_REACTORS
330
ACF3
102
}
330
ACF3
100
AcDbXrecord
280
     1
270
     1
271
     1
  0
XRECORD
  5
ACF6
102
{ACAD_REACTORS
330
ACF3
102
}
330
ACF3
100
AcDbXrecord
280
     1
270
     1
271
     1
  0
XRECORD
  5
AD59
102
{ACAD_REACTORS
330
ACEB
102
}
330
ACEB
100
AcDbXrecord
280
     1
102
MATERIAL
148
0.0
149
0.0
149
0.0
 93
        0
 94
      127
282
     0
 72
     0
 77
     0
171
     0
175
     0
179
     0
273
     0
  0
XRECORD
  5
ACED
102
{ACAD_REACTORS
330
ACEB
102
}
330
ACEB
100
AcDbXrecord
280
     1
270
     1
271
     1
  0
XRECORD
  5
ACEC
102
{ACAD_REACTORS
330
ACEB
102
}
330
ACEB
100
AcDbXrecord
280
     1
270
     1
271
     1
  0
XRECORD
  5
ACF0
102
{ACAD_REACTORS
330
ACEB
102
}
330
ACEB
100
AcDbXrecord
280
     1
270
     1
271
     1
  0
XRECORD
  5
ACEF
102
{ACAD_REACTORS
330
ACEB
102
}
330
ACEB
100
AcDbXrecord
280
     1
270
     1
271
     1
  0
XRECORD
  5
ACF1
102
{ACAD_REACTORS
330
ACEB
102
}
330
ACEB
100
AcDbXrecord
280
     1
270
     1
271
     1
  0
XRECORD
  5
ACEE
102
{ACAD_REACTORS
330
ACEB
102
}
330
ACEB
100
AcDbXrecord
280
     1
270
     1
271
     1
  0
XRECORD
  5
AD5B
102
{ACAD_REACTORS
330
ACFB
102
}
330
ACFB
100
AcDbXrecord
280
     1
102
MATERIAL
148
0.0
149
0.0
149
0.0
 93
        0
 94
      127
282
     0
 72
     0
 77
     0
171
     0
175
     0
179
     0
273
     0
  0
XRECORD
  5
ACFD
102
{ACAD_REACTORS
330
ACFB
102
}
330
ACFB
100
AcDbXrecord
280
     1
270
     1
271
     1
  0
XRECORD
  5
ACFC
102
{ACAD_REACTORS
330
ACFB
102
}
330
ACFB
100
AcDbXrecord
280
     1
270
     1
271
     1
  0
XRECORD
  5
AD00
102
{ACAD_REACTORS
330
ACFB
102
}
330
ACFB
100
AcDbXrecord
280
     1
270
     1
271
     1
  0
XRECORD
  5
ACFF
102
{ACAD_REACTORS
330
ACFB
102
}
330
ACFB
100
AcDbXrecord
280
     1
270
     1
271
     1
  0
XRECORD
  5
AD01
102
{ACAD_REACTORS
330
ACFB
102
}
330
ACFB
100
AcDbXrecord
280
     1
270
     1
271
     1
  0
XRECORD
  5
ACFE
102
{ACAD_REACTORS
330
ACFB
102
}
330
ACFB
100
AcDbXrecord
280
     1
270
     1
271
     1
  0
XRECORD
  5
AD8F
102
{ACAD_REACTORS
330
AD8E
102
}
330
AD8E
100
AcDbXrecord
280
     1
102
DISPLAYNAME
  1
Imperial24
102
FLAGS
 90
        0
  0
CELLSTYLEMAP
  5
AD56
102
{ACAD_REACTORS
330
AD55
102
}
330
AD55
100
AcDbCellStyleMap
 90
        3
300
CELLSTYLE
  1
TABLEFORMAT_BEGIN
 90
        5
170
     1
 91
        0
 92
    32768
 62
   257
 93
        1
300
CONTENTFORMAT
  1
CONTENTFORMAT_BEGIN
 90
        0
 91
        0
 92
      512
 93
        0
300

 40
0.0
140
1.0
 94
        5
 62
     0
340
AA22
144
0.25
309
CONTENTFORMAT_END
171
     0
 94
        0
309
TABLEFORMAT_END
  1
CELLSTYLE_BEGIN
 90
        1
 91
        1
300
_TITLE
309
CELLSTYLE_END
300
CELLSTYLE
  1
TABLEFORMAT_BEGIN
 90
        5
170
     1
 91
        0
 92
        0
 62
   257
 93
        1
300
CONTENTFORMAT
  1
CONTENTFORMAT_BEGIN
 90
        0
 91
        0
 92
      512
 93
        0
300

 40
0.0
140
1.0
 94
        5
 62
     0
340
AA22
144
0.18
309
CONTENTFORMAT_END
171
     0
 94
        0
309
TABLEFORMAT_END
  1
CELLSTYLE_BEGIN
 90
        2
 91
        1
300
_HEADER
309
CELLSTYLE_END
300
CELLSTYLE
  1
TABLEFORMAT_BEGIN
 90
        5
170
     1
 91
        0
 92
        0
 62
   257
 93
        1
300
CONTENTFORMAT
  1
CONTENTFORMAT_BEGIN
 90
        0
 91
        0
 92
      512
 93
        0
300

 40
0.0
140
1.0
 94
        2
 62
     0
340
AA22
144
0.18
309
CONTENTFORMAT_END
171
     0
 94
        0
309
TABLEFORMAT_END
  1
CELLSTYLE_BEGIN
 90
        3
 91
        2
300
_DATA
309
CELLSTYLE_END
  0
XRECORD
  5
AD8C
102
{ACAD_REACTORS
330
AD55
102
}
330
AD55
100
AcDbXrecord
280
     1
102
ACAD_ROUNDTRIP_PRE2007_TABLESTYLE
 90
      512
 91
        0
  1

 92
      512
 93
        0
  2

 94
      512
 95
        0
  3

  0
XRECORD
  5
AD67
102
{ACAD_REACTORS
330
AD66
102
}
330
AD66
100
AcDbXrecord
280
     1
102
RTVSPost2010Prop28
280
     1
102
RTVSPost2010PropOp28
 70
     1
102
RTVSPost2010Prop29
280
     1
102
RTVSPost2010PropOp29
 70
     1
102
RTVSPost2010Prop30
280
     0
102
RTVSPost2010PropOp30
 70
     1
102
RTVSPost2010Prop31
280
     0
102
RTVSPost2010PropOp31
 70
     1
102
RTVSPost2010Prop32
280
     0
102
RTVSPost2010PropOp32
 70
     1
102
RTVSPost2010Prop33
280
     0
102
RTVSPost2010PropOp33
 70
     1
102
RTVSPost2010Prop34
280
     0
102
RTVSPost2010PropOp34
 70
     1
102
RTVSPost2010Prop35
280
     0
102
RTVSPost2010PropOp35
 70
     1
102
RTVSPost2010Prop36
280
     0
102
RTVSPost2010PropOp36
 70
     1
102
RTVSPost2010Prop37
 90
       50
102
RTVSPost2010PropOp37
 70
     1
102
RTVSPost2010Prop38
140
0.0
102
RTVSPost2010PropOp38
 70
     1
102
RTVSPost2010Prop39
140
1.0
102
RTVSPost2010PropOp39
 70
     1
102
RTVSPost2010Prop40
 90
        0
102
RTVSPost2010PropOp40
 70
     1
102
RTVSPost2010Prop41ColorIndex
 90
       18
102
RTVSPost2010Prop41ColorRGB
 90
        0
102
RTVSPost2010PropOp41
 70
     1
102
RTVSPost2010Prop42
 90
       50
102
RTVSPost2010PropOp42
 70
     1
102
RTVSPost2010Prop43
 90
        3
102
RTVSPost2010PropOp43
 70
     1
102
RTVSPost2010Prop44ColorIndex
 90
        5
102
RTVSPost2010Prop44ColorRGB
 90
      255
102
RTVSPost2010PropOp44
 70
     1
102
RTVSPost2010Prop45
280
     0
102
RTVSPost2010PropOp45
 70
     1
102
RTVSPost2010Prop46
 90
       50
102
RTVSPost2010PropOp46
 70
     1
102
RTVSPost2010Prop47
 90
       50
102
RTVSPost2010PropOp47
 70
     1
102
RTVSPost2010Prop48
 90
       50
102
RTVSPost2010PropOp48
 70
     1
102
RTVSPost2010Prop49
280
     0
102
RTVSPost2010PropOp49
 70
     1
102
RTVSPost2010Prop50
 90
       50
102
RTVSPost2010PropOp50
 70
     1
102
RTVSPost2010Prop51ColorIndex
 90
      256
102
RTVSPost2010Prop51ColorRGB
 90
-16777216
102
RTVSPost2010PropOp51
 70
     0
102
RTVSPost2010Prop52
140
1.0
102
RTVSPost2010PropOp52
 70
     0
102
RTVSPost2010Prop53
 90
        2
102
RTVSPost2010PropOp53
 70
     1
102
RTVSPost2010Prop54
  1
strokes_ogs.tif
102
RTVSPost2010PropOp54
 70
     1
102
RTVSPost2010Prop55
280
     0
102
RTVSPost2010PropOp55
 70
     1
102
RTVSPost2010Prop56
140
1.0
102
RTVSPost2010PropOp56
 70
     1
102
RTVSPost2010Prop57
140
1.0
102
RTVSPost2010PropOp57
 70
     1
102
RTVSPropertyOp0
 70
     1
102
RTVSPropertyOp1
 70
     1
102
RTVSPropertyOp2
 70
     1
102
RTVSPropertyOp3
 70
     1
102
RTVSPropertyOp4
 70
     1
102
RTVSPropertyOp5
 70
     1
102
RTVSPropertyOp6
 70
     1
102
RTVSPropertyOp7
 70
     1
102
RTVSPropertyOp8
 70
     1
102
RTVSPropertyOp9
 70
     1
102
RTVSPropertyOp10
 70
     1
102
RTVSPropertyOp11
 70
     1
102
RTVSPropertyOp12
 70
     1
102
RTVSPropertyOp13
 70
     1
102
RTVSPropertyOp14
 70
     1
102
RTVSPropertyOp15
 70
     1
102
RTVSPropertyOp16
 70
     1
102
RTVSPropertyOp17
 70
     1
102
RTVSPropertyOp18
 70
     1
102
RTVSPropertyOp19
 70
     1
102
RTVSPropertyOp20
 70
     1
102
RTVSPropertyOp21
 70
     1
102
RTVSPropertyOp22
 70
     1
102
RTVSPropertyOp23
 70
     1
102
RTVSPropertyOp24
 70
     1
102
RTVSPropertyOp25
 70
     1
102
RTVSPropertyOp26
 70
     1
102
RTVSPropertyOp27
 70
     1
102
RTVSPropertyOp28
 70
     1
102
RTVSPropertyOp29
 70
     1
102
RTVSPropertyOp30
 70
     1
102
RTVSPropertyOp31
 70
     1
102
RTVSPropertyOp32
 70
     1
102
RTVSPropertyOp33
 70
     1
102
RTVSPropertyOp34
 70
     1
102
RTVSPropertyOp35
 70
     1
102
RTVSPropertyOp36
 70
     1
102
RTVSPropertyOp37
 70
     1
102
RTVSPropertyOp38
 70
     1
102
RTVSPropertyOp39
 70
     1
102
RTVSPropertyOp40
 70
     1
102
RTVSPropertyOp41
 70
     1
102
RTVSPropertyOp42
 70
     1
102
RTVSPropertyOp43
 70
     1
102
RTVSPropertyOp44
 70
     1
102
RTVSPropertyOp45
 70
     1
102
RTVSPropertyOp46
 70
     1
102
RTVSPropertyOp47
 70
     1
102
RTVSPropertyOp48
 70
     1
102
RTVSPropertyOp49
 70
     1
102
RTVSPropertyOp50
 70
     1
102
RTVSPropertyOp51
 70
     0
102
RTVSPropertyOp52
 70
     0
102
RTVSPropertyOp53
 70
     1
102
RTVSPropertyOp54
 70
     1
102
RTVSPropertyOp55
 70
     1
102
RTVSPropertyOp56
 70
     1
102
RTVSPropertyOp57
 70
     1
102
RTVSPropertyOp58
 70
     1
102
RTVSPropertyOp59
 70
     1
102
RTVSPropertyOp60
 70
     1
102
RTVSPropertyOp61
 70
     1
102
RTVSPropertyOp62
 70
     1
  0
XRECORD
  5
AD65
102
{ACAD_REACTORS
330
AD64
102
}
330
AD64
100
AcDbXrecord
280
     1
102
RTVSPost2010Prop28
280
     0
102
RTVSPost2010PropOp28
 70
     1
102
RTVSPost2010Prop29
280
     1
102
RTVSPost2010PropOp29
 70
     1
102
RTVSPost2010Prop30
280
     1
102
RTVSPost2010PropOp30
 70
     1
102
RTVSPost2010Prop31
280
     0
102
RTVSPost2010PropOp31
 70
     1
102
RTVSPost2010Prop32
280
     0
102
RTVSPost2010PropOp32
 70
     1
102
RTVSPost2010Prop33
280
     0
102
RTVSPost2010PropOp33
 70
     1
102
RTVSPost2010Prop34
280
     0
102
RTVSPost2010PropOp34
 70
     1
102
RTVSPost2010Prop35
280
     0
102
RTVSPost2010PropOp35
 70
     1
102
RTVSPost2010Prop36
280
     0
102
RTVSPost2010PropOp36
 70
     1
102
RTVSPost2010Prop37
 90
       50
102
RTVSPost2010PropOp37
 70
     1
102
RTVSPost2010Prop38
140
0.0
102
RTVSPost2010PropOp38
 70
     1
102
RTVSPost2010Prop39
140
1.0
102
RTVSPost2010PropOp39
 70
     1
102
RTVSPost2010Prop40
 90
        0
102
RTVSPost2010PropOp40
 70
     1
102
RTVSPost2010Prop41ColorIndex
 90
       18
102
RTVSPost2010Prop41ColorRGB
 90
        0
102
RTVSPost2010PropOp41
 70
     1
102
RTVSPost2010Prop42
 90
       50
102
RTVSPost2010PropOp42
 70
     1
102
RTVSPost2010Prop43
 90
        3
102
RTVSPost2010PropOp43
 70
     1
102
RTVSPost2010Prop44ColorIndex
 90
        5
102
RTVSPost2010Prop44ColorRGB
 90
      255
102
RTVSPost2010PropOp44
 70
     1
102
RTVSPost2010Prop45
280
     0
102
RTVSPost2010PropOp45
 70
     1
102
RTVSPost2010Prop46
 90
       50
102
RTVSPost2010PropOp46
 70
     1
102
RTVSPost2010Prop47
 90
       50
102
RTVSPost2010PropOp47
 70
     1
102
RTVSPost2010Prop48
 90
       50
102
RTVSPost2010PropOp48
 70
     1
102
RTVSPost2010Prop49
280
     0
102
RTVSPost2010PropOp49
 70
     1
102
RTVSPost2010Prop50
 90
       50
102
RTVSPost2010PropOp50
 70
     1
102
RTVSPost2010Prop51ColorIndex
 90
      256
102
RTVSPost2010Prop51ColorRGB
 90
-16777216
102
RTVSPost2010PropOp51
 70
     0
102
RTVSPost2010Prop52
140
1.0
102
RTVSPost2010PropOp52
 70
     0
102
RTVSPost2010Prop53
 90
        2
102
RTVSPost2010PropOp53
 70
     1
102
RTVSPost2010Prop54
  1
strokes_ogs.tif
102
RTVSPost2010PropOp54
 70
     1
102
RTVSPost2010Prop55
280
     0
102
RTVSPost2010PropOp55
 70
     1
102
RTVSPost2010Prop56
140
1.0
102
RTVSPost2010PropOp56
 70
     1
102
RTVSPost2010Prop57
140
1.0
102
RTVSPost2010PropOp57
 70
     1
102
RTVSPropertyOp0
 70
     1
102
RTVSPropertyOp1
 70
     1
102
RTVSPropertyOp2
 70
     1
102
RTVSPropertyOp3
 70
     1
102
RTVSPropertyOp4
 70
     1
102
RTVSPropertyOp5
 70
     1
102
RTVSPropertyOp6
 70
     1
102
RTVSPropertyOp7
 70
     1
102
RTVSPropertyOp8
 70
     1
102
RTVSPropertyOp9
 70
     1
102
RTVSPropertyOp10
 70
     1
102
RTVSPropertyOp11
 70
     1
102
RTVSPropertyOp12
 70
     1
102
RTVSPropertyOp13
 70
     1
102
RTVSPropertyOp14
 70
     1
102
RTVSPropertyOp15
 70
     1
102
RTVSPropertyOp16
 70
     1
102
RTVSPropertyOp17
 70
     1
102
RTVSPropertyOp18
 70
     1
102
RTVSPropertyOp19
 70
     1
102
RTVSPropertyOp20
 70
     1
102
RTVSPropertyOp21
 70
     1
102
RTVSPropertyOp22
 70
     1
102
RTVSPropertyOp23
 70
     1
102
RTVSPropertyOp24
 70
     1
102
RTVSPropertyOp25
 70
     1
102
RTVSPropertyOp26
 70
     1
102
RTVSPropertyOp27
 70
     1
102
RTVSPropertyOp28
 70
     1
102
RTVSPropertyOp29
 70
     1
102
RTVSPropertyOp30
 70
     1
102
RTVSPropertyOp31
 70
     1
102
RTVSPropertyOp32
 70
     1
102
RTVSPropertyOp33
 70
     1
102
RTVSPropertyOp34
 70
     1
102
RTVSPropertyOp35
 70
     1
102
RTVSPropertyOp36
 70
     1
102
RTVSPropertyOp37
 70
     1
102
RTVSPropertyOp38
 70
     1
102
RTVSPropertyOp39
 70
     1
102
RTVSPropertyOp40
 70
     1
102
RTVSPropertyOp41
 70
     1
102
RTVSPropertyOp42
 70
     1
102
RTVSPropertyOp43
 70
     1
102
RTVSPropertyOp44
 70
     1
102
RTVSPropertyOp45
 70
     1
102
RTVSPropertyOp46
 70
     1
102
RTVSPropertyOp47
 70
     1
102
RTVSPropertyOp48
 70
     1
102
RTVSPropertyOp49
 70
     1
102
RTVSPropertyOp50
 70
     1
102
RTVSPropertyOp51
 70
     0
102
RTVSPropertyOp52
 70
     0
102
RTVSPropertyOp53
 70
     1
102
RTVSPropertyOp54
 70
     1
102
RTVSPropertyOp55
 70
     1
102
RTVSPropertyOp56
 70
     1
102
RTVSPropertyOp57
 70
     1
102
RTVSPropertyOp58
 70
     1
102
RTVSPropertyOp59
 70
     1
102
RTVSPropertyOp60
 70
     1
102
RTVSPropertyOp61
 70
     1
102
RTVSPropertyOp62
 70
     1
  0
XRECORD
  5
AD73
102
{ACAD_REACTORS
330
AD72
102
}
330
AD72
100
AcDbXrecord
280
     1
102
RTVSPost2010Prop28
280
     0
102
RTVSPost2010PropOp28
 70
     1
102
RTVSPost2010Prop29
280
     1
102
RTVSPost2010PropOp29
 70
     1
102
RTVSPost2010Prop30
280
     1
102
RTVSPost2010PropOp30
 70
     1
102
RTVSPost2010Prop31
280
     0
102
RTVSPost2010PropOp31
 70
     1
102
RTVSPost2010Prop32
280
     0
102
RTVSPost2010PropOp32
 70
     1
102
RTVSPost2010Prop33
280
     0
102
RTVSPost2010PropOp33
 70
     1
102
RTVSPost2010Prop34
280
     0
102
RTVSPost2010PropOp34
 70
     1
102
RTVSPost2010Prop35
280
     0
102
RTVSPost2010PropOp35
 70
     1
102
RTVSPost2010Prop36
280
     0
102
RTVSPost2010PropOp36
 70
     1
102
RTVSPost2010Prop37
 90
       50
102
RTVSPost2010PropOp37
 70
     1
102
RTVSPost2010Prop38
140
0.0
102
RTVSPost2010PropOp38
 70
     1
102
RTVSPost2010Prop39
140
1.0
102
RTVSPost2010PropOp39
 70
     1
102
RTVSPost2010Prop40
 90
        0
102
RTVSPost2010PropOp40
 70
     1
102
RTVSPost2010Prop41ColorIndex
 90
       18
102
RTVSPost2010Prop41ColorRGB
 90
        0
102
RTVSPost2010PropOp41
 70
     1
102
RTVSPost2010Prop42
 90
       50
102
RTVSPost2010PropOp42
 70
     1
102
RTVSPost2010Prop43
 90
        3
102
RTVSPost2010PropOp43
 70
     1
102
RTVSPost2010Prop44ColorIndex
 90
        5
102
RTVSPost2010Prop44ColorRGB
 90
      255
102
RTVSPost2010PropOp44
 70
     1
102
RTVSPost2010Prop45
280
     0
102
RTVSPost2010PropOp45
 70
     1
102
RTVSPost2010Prop46
 90
       50
102
RTVSPost2010PropOp46
 70
     1
102
RTVSPost2010Prop47
 90
       50
102
RTVSPost2010PropOp47
 70
     1
102
RTVSPost2010Prop48
 90
       50
102
RTVSPost2010PropOp48
 70
     1
102
RTVSPost2010Prop49
280
     0
102
RTVSPost2010PropOp49
 70
     1
102
RTVSPost2010Prop50
 90
       50
102
RTVSPost2010PropOp50
 70
     1
102
RTVSPost2010Prop51ColorIndex
 90
      256
102
RTVSPost2010Prop51ColorRGB
 90
-16777216
102
RTVSPost2010PropOp51
 70
     0
102
RTVSPost2010Prop52
140
1.0
102
RTVSPost2010PropOp52
 70
     0
102
RTVSPost2010Prop53
 90
        2
102
RTVSPost2010PropOp53
 70
     1
102
RTVSPost2010Prop54
  1
strokes_ogs.tif
102
RTVSPost2010PropOp54
 70
     1
102
RTVSPost2010Prop55
280
     0
102
RTVSPost2010PropOp55
 70
     1
102
RTVSPost2010Prop56
140
1.0
102
RTVSPost2010PropOp56
 70
     1
102
RTVSPost2010Prop57
140
1.0
102
RTVSPost2010PropOp57
 70
     1
102
RTVSPropertyOp0
 70
     1
102
RTVSPropertyOp1
 70
     1
102
RTVSPropertyOp2
 70
     1
102
RTVSPropertyOp3
 70
     1
102
RTVSPropertyOp4
 70
     1
102
RTVSPropertyOp5
 70
     1
102
RTVSPropertyOp6
 70
     1
102
RTVSPropertyOp7
 70
     1
102
RTVSPropertyOp8
 70
     1
102
RTVSPropertyOp9
 70
     1
102
RTVSPropertyOp10
 70
     1
102
RTVSPropertyOp11
 70
     1
102
RTVSPropertyOp12
 70
     1
102
RTVSPropertyOp13
 70
     1
102
RTVSPropertyOp14
 70
     1
102
RTVSPropertyOp15
 70
     1
102
RTVSPropertyOp16
 70
     1
102
RTVSPropertyOp17
 70
     1
102
RTVSPropertyOp18
 70
     1
102
RTVSPropertyOp19
 70
     1
102
RTVSPropertyOp20
 70
     1
102
RTVSPropertyOp21
 70
     1
102
RTVSPropertyOp22
 70
     1
102
RTVSPropertyOp23
 70
     1
102
RTVSPropertyOp24
 70
     1
102
RTVSPropertyOp25
 70
     1
102
RTVSPropertyOp26
 70
     1
102
RTVSPropertyOp27
 70
     1
102
RTVSPropertyOp28
 70
     1
102
RTVSPropertyOp29
 70
     1
102
RTVSPropertyOp30
 70
     1
102
RTVSPropertyOp31
 70
     1
102
RTVSPropertyOp32
 70
     1
102
RTVSPropertyOp33
 70
     1
102
RTVSPropertyOp34
 70
     1
102
RTVSPropertyOp35
 70
     1
102
RTVSPropertyOp36
 70
     1
102
RTVSPropertyOp37
 70
     1
102
RTVSPropertyOp38
 70
     1
102
RTVSPropertyOp39
 70
     1
102
RTVSPropertyOp40
 70
     1
102
RTVSPropertyOp41
 70
     1
102
RTVSPropertyOp42
 70
     1
102
RTVSPropertyOp43
 70
     1
102
RTVSPropertyOp44
 70
     1
102
RTVSPropertyOp45
 70
     1
102
RTVSPropertyOp46
 70
     1
102
RTVSPropertyOp47
 70
     1
102
RTVSPropertyOp48
 70
     1
102
RTVSPropertyOp49
 70
     1
102
RTVSPropertyOp50
 70
     1
102
RTVSPropertyOp51
 70
     0
102
RTVSPropertyOp52
 70
     0
102
RTVSPropertyOp53
 70
     1
102
RTVSPropertyOp54
 70
     1
102
RTVSPropertyOp55
 70
     1
102
RTVSPropertyOp56
 70
     1
102
RTVSPropertyOp57
 70
     1
102
RTVSPropertyOp58
 70
     1
102
RTVSPropertyOp59
 70
     1
102
RTVSPropertyOp60
 70
     1
102
RTVSPropertyOp61
 70
     1
102
RTVSPropertyOp62
 70
     1
  0
XRECORD
  5
AD7B
102
{ACAD_REACTORS
330
AD7A
102
}
330
AD7A
100
AcDbXrecord
280
     1
102
RTVSPost2010Prop28
280
     0
102
RTVSPost2010PropOp28
 70
     1
102
RTVSPost2010Prop29
280
     1
102
RTVSPost2010PropOp29
 70
     1
102
RTVSPost2010Prop30
280
     1
102
RTVSPost2010PropOp30
 70
     1
102
RTVSPost2010Prop31
280
     0
102
RTVSPost2010PropOp31
 70
     1
102
RTVSPost2010Prop32
280
     0
102
RTVSPost2010PropOp32
 70
     1
102
RTVSPost2010Prop33
280
     0
102
RTVSPost2010PropOp33
 70
     1
102
RTVSPost2010Prop34
280
     0
102
RTVSPost2010PropOp34
 70
     1
102
RTVSPost2010Prop35
280
     0
102
RTVSPost2010PropOp35
 70
     1
102
RTVSPost2010Prop36
280
     0
102
RTVSPost2010PropOp36
 70
     1
102
RTVSPost2010Prop37
 90
       50
102
RTVSPost2010PropOp37
 70
     1
102
RTVSPost2010Prop38
140
0.0
102
RTVSPost2010PropOp38
 70
     1
102
RTVSPost2010Prop39
140
1.0
102
RTVSPost2010PropOp39
 70
     1
102
RTVSPost2010Prop40
 90
        0
102
RTVSPost2010PropOp40
 70
     1
102
RTVSPost2010Prop41ColorIndex
 90
       18
102
RTVSPost2010Prop41ColorRGB
 90
        0
102
RTVSPost2010PropOp41
 70
     1
102
RTVSPost2010Prop42
 90
       50
102
RTVSPost2010PropOp42
 70
     1
102
RTVSPost2010Prop43
 90
        3
102
RTVSPost2010PropOp43
 70
     1
102
RTVSPost2010Prop44ColorIndex
 90
        5
102
RTVSPost2010Prop44ColorRGB
 90
      255
102
RTVSPost2010PropOp44
 70
     1
102
RTVSPost2010Prop45
280
     0
102
RTVSPost2010PropOp45
 70
     1
102
RTVSPost2010Prop46
 90
       50
102
RTVSPost2010PropOp46
 70
     1
102
RTVSPost2010Prop47
 90
       50
102
RTVSPost2010PropOp47
 70
     1
102
RTVSPost2010Prop48
 90
       50
102
RTVSPost2010PropOp48
 70
     1
102
RTVSPost2010Prop49
280
     0
102
RTVSPost2010PropOp49
 70
     1
102
RTVSPost2010Prop50
 90
       50
102
RTVSPost2010PropOp50
 70
     1
102
RTVSPost2010Prop51ColorIndex
 90
      256
102
RTVSPost2010Prop51ColorRGB
 90
-16777216
102
RTVSPost2010PropOp51
 70
     0
102
RTVSPost2010Prop52
140
1.0
102
RTVSPost2010PropOp52
 70
     0
102
RTVSPost2010Prop53
 90
        2
102
RTVSPost2010PropOp53
 70
     1
102
RTVSPost2010Prop54
  1
strokes_ogs.tif
102
RTVSPost2010PropOp54
 70
     1
102
RTVSPost2010Prop55
280
     0
102
RTVSPost2010PropOp55
 70
     1
102
RTVSPost2010Prop56
140
1.0
102
RTVSPost2010PropOp56
 70
     1
102
RTVSPost2010Prop57
140
1.0
102
RTVSPost2010PropOp57
 70
     1
102
RTVSPropertyOp0
 70
     1
102
RTVSPropertyOp1
 70
     1
102
RTVSPropertyOp2
 70
     1
102
RTVSPropertyOp3
 70
     1
102
RTVSPropertyOp4
 70
     1
102
RTVSPropertyOp5
 70
     1
102
RTVSPropertyOp6
 70
     1
102
RTVSPropertyOp7
 70
     1
102
RTVSPropertyOp8
 70
     1
102
RTVSPropertyOp9
 70
     1
102
RTVSPropertyOp10
 70
     1
102
RTVSPropertyOp11
 70
     1
102
RTVSPropertyOp12
 70
     1
102
RTVSPropertyOp13
 70
     1
102
RTVSPropertyOp14
 70
     1
102
RTVSPropertyOp15
 70
     1
102
RTVSPropertyOp16
 70
     1
102
RTVSPropertyOp17
 70
     1
102
RTVSPropertyOp18
 70
     1
102
RTVSPropertyOp19
 70
     1
102
RTVSPropertyOp20
 70
     1
102
RTVSPropertyOp21
 70
     1
102
RTVSPropertyOp22
 70
     1
102
RTVSPropertyOp23
 70
     1
102
RTVSPropertyOp24
 70
     1
102
RTVSPropertyOp25
 70
     1
102
RTVSPropertyOp26
 70
     1
102
RTVSPropertyOp27
 70
     1
102
RTVSPropertyOp28
 70
     1
102
RTVSPropertyOp29
 70
     1
102
RTVSPropertyOp30
 70
     1
102
RTVSPropertyOp31
 70
     1
102
RTVSPropertyOp32
 70
     1
102
RTVSPropertyOp33
 70
     1
102
RTVSPropertyOp34
 70
     1
102
RTVSPropertyOp35
 70
     1
102
RTVSPropertyOp36
 70
     1
102
RTVSPropertyOp37
 70
     1
102
RTVSPropertyOp38
 70
     1
102
RTVSPropertyOp39
 70
     1
102
RTVSPropertyOp40
 70
     1
102
RTVSPropertyOp41
 70
     1
102
RTVSPropertyOp42
 70
     1
102
RTVSPropertyOp43
 70
     1
102
RTVSPropertyOp44
 70
     1
102
RTVSPropertyOp45
 70
     1
102
RTVSPropertyOp46
 70
     1
102
RTVSPropertyOp47
 70
     1
102
RTVSPropertyOp48
 70
     1
102
RTVSPropertyOp49
 70
     1
102
RTVSPropertyOp50
 70
     1
102
RTVSPropertyOp51
 70
     0
102
RTVSPropertyOp52
 70
     0
102
RTVSPropertyOp53
 70
     1
102
RTVSPropertyOp54
 70
     1
102
RTVSPropertyOp55
 70
     1
102
RTVSPropertyOp56
 70
     1
102
RTVSPropertyOp57
 70
     1
102
RTVSPropertyOp58
 70
     1
102
RTVSPropertyOp59
 70
     1
102
RTVSPropertyOp60
 70
     1
102
RTVSPropertyOp61
 70
     1
102
RTVSPropertyOp62
 70
     1
  0
XRECORD
  5
AD6D
102
{ACAD_REACTORS
330
AD6C
102
}
330
AD6C
100
AcDbXrecord
280
     1
102
RTVSPost2010Prop28
280
     0
102
RTVSPost2010PropOp28
 70
     1
102
RTVSPost2010Prop29
280
     1
102
RTVSPost2010PropOp29
 70
     1
102
RTVSPost2010Prop30
280
     1
102
RTVSPost2010PropOp30
 70
     1
102
RTVSPost2010Prop31
280
     0
102
RTVSPost2010PropOp31
 70
     1
102
RTVSPost2010Prop32
280
     0
102
RTVSPost2010PropOp32
 70
     1
102
RTVSPost2010Prop33
280
     0
102
RTVSPost2010PropOp33
 70
     1
102
RTVSPost2010Prop34
280
     0
102
RTVSPost2010PropOp34
 70
     1
102
RTVSPost2010Prop35
280
     0
102
RTVSPost2010PropOp35
 70
     1
102
RTVSPost2010Prop36
280
     0
102
RTVSPost2010PropOp36
 70
     1
102
RTVSPost2010Prop37
 90
       50
102
RTVSPost2010PropOp37
 70
     1
102
RTVSPost2010Prop38
140
0.0
102
RTVSPost2010PropOp38
 70
     1
102
RTVSPost2010Prop39
140
1.0
102
RTVSPost2010PropOp39
 70
     1
102
RTVSPost2010Prop40
 90
        0
102
RTVSPost2010PropOp40
 70
     1
102
RTVSPost2010Prop41ColorIndex
 90
       18
102
RTVSPost2010Prop41ColorRGB
 90
        0
102
RTVSPost2010PropOp41
 70
     1
102
RTVSPost2010Prop42
 90
       50
102
RTVSPost2010PropOp42
 70
     1
102
RTVSPost2010Prop43
 90
        3
102
RTVSPost2010PropOp43
 70
     1
102
RTVSPost2010Prop44ColorIndex
 90
        5
102
RTVSPost2010Prop44ColorRGB
 90
      255
102
RTVSPost2010PropOp44
 70
     1
102
RTVSPost2010Prop45
280
     0
102
RTVSPost2010PropOp45
 70
     1
102
RTVSPost2010Prop46
 90
       50
102
RTVSPost2010PropOp46
 70
     1
102
RTVSPost2010Prop47
 90
       50
102
RTVSPost2010PropOp47
 70
     1
102
RTVSPost2010Prop48
 90
       50
102
RTVSPost2010PropOp48
 70
     1
102
RTVSPost2010Prop49
280
     0
102
RTVSPost2010PropOp49
 70
     1
102
RTVSPost2010Prop50
 90
       50
102
RTVSPost2010PropOp50
 70
     1
102
RTVSPost2010Prop51ColorIndex
 90
      256
102
RTVSPost2010Prop51ColorRGB
 90
-16777216
102
RTVSPost2010PropOp51
 70
     0
102
RTVSPost2010Prop52
140
1.0
102
RTVSPost2010PropOp52
 70
     0
102
RTVSPost2010Prop53
 90
        2
102
RTVSPost2010PropOp53
 70
     1
102
RTVSPost2010Prop54
  1
strokes_ogs.tif
102
RTVSPost2010PropOp54
 70
     1
102
RTVSPost2010Prop55
280
     0
102
RTVSPost2010PropOp55
 70
     1
102
RTVSPost2010Prop56
140
1.0
102
RTVSPost2010PropOp56
 70
     1
102
RTVSPost2010Prop57
140
1.0
102
RTVSPost2010PropOp57
 70
     1
102
RTVSPropertyOp0
 70
     1
102
RTVSPropertyOp1
 70
     1
102
RTVSPropertyOp2
 70
     1
102
RTVSPropertyOp3
 70
     1
102
RTVSPropertyOp4
 70
     1
102
RTVSPropertyOp5
 70
     1
102
RTVSPropertyOp6
 70
     1
102
RTVSPropertyOp7
 70
     1
102
RTVSPropertyOp8
 70
     1
102
RTVSPropertyOp9
 70
     1
102
RTVSPropertyOp10
 70
     1
102
RTVSPropertyOp11
 70
     1
102
RTVSPropertyOp12
 70
     1
102
RTVSPropertyOp13
 70
     1
102
RTVSPropertyOp14
 70
     1
102
RTVSPropertyOp15
 70
     1
102
RTVSPropertyOp16
 70
     1
102
RTVSPropertyOp17
 70
     1
102
RTVSPropertyOp18
 70
     1
102
RTVSPropertyOp19
 70
     1
102
RTVSPropertyOp20
 70
     1
102
RTVSPropertyOp21
 70
     1
102
RTVSPropertyOp22
 70
     1
102
RTVSPropertyOp23
 70
     1
102
RTVSPropertyOp24
 70
     1
102
RTVSPropertyOp25
 70
     1
102
RTVSPropertyOp26
 70
     1
102
RTVSPropertyOp27
 70
     1
102
RTVSPropertyOp28
 70
     1
102
RTVSPropertyOp29
 70
     1
102
RTVSPropertyOp30
 70
     1
102
RTVSPropertyOp31
 70
     1
102
RTVSPropertyOp32
 70
     1
102
RTVSPropertyOp33
 70
     1
102
RTVSPropertyOp34
 70
     1
102
RTVSPropertyOp35
 70
     1
102
RTVSPropertyOp36
 70
     1
102
RTVSPropertyOp37
 70
     1
102
RTVSPropertyOp38
 70
     1
102
RTVSPropertyOp39
 70
     1
102
RTVSPropertyOp40
 70
     1
102
RTVSPropertyOp41
 70
     1
102
RTVSPropertyOp42
 70
     1
102
RTVSPropertyOp43
 70
     1
102
RTVSPropertyOp44
 70
     1
102
RTVSPropertyOp45
 70
     1
102
RTVSPropertyOp46
 70
     1
102
RTVSPropertyOp47
 70
     1
102
RTVSPropertyOp48
 70
     1
102
RTVSPropertyOp49
 70
     1
102
RTVSPropertyOp50
 70
     1
102
RTVSPropertyOp51
 70
     0
102
RTVSPropertyOp52
 70
     0
102
RTVSPropertyOp53
 70
     1
102
RTVSPropertyOp54
 70
     1
102
RTVSPropertyOp55
 70
     1
102
RTVSPropertyOp56
 70
     1
102
RTVSPropertyOp57
 70
     1
102
RTVSPropertyOp58
 70
     1
102
RTVSPropertyOp59
 70
     1
102
RTVSPropertyOp60
 70
     1
102
RTVSPropertyOp61
 70
     1
102
RTVSPropertyOp62
 70
     1
  0
XRECORD
  5
AD71
102
{ACAD_REACTORS
330
AD70
102
}
330
AD70
100
AcDbXrecord
280
     1
102
RTVSPost2010Prop28
280
     0
102
RTVSPost2010PropOp28
 70
     1
102
RTVSPost2010Prop29
280
     1
102
RTVSPost2010PropOp29
 70
     1
102
RTVSPost2010Prop30
280
     1
102
RTVSPost2010PropOp30
 70
     1
102
RTVSPost2010Prop31
280
     0
102
RTVSPost2010PropOp31
 70
     1
102
RTVSPost2010Prop32
280
     0
102
RTVSPost2010PropOp32
 70
     1
102
RTVSPost2010Prop33
280
     0
102
RTVSPost2010PropOp33
 70
     1
102
RTVSPost2010Prop34
280
     0
102
RTVSPost2010PropOp34
 70
     1
102
RTVSPost2010Prop35
280
     0
102
RTVSPost2010PropOp35
 70
     1
102
RTVSPost2010Prop36
280
     0
102
RTVSPost2010PropOp36
 70
     1
102
RTVSPost2010Prop37
 90
       50
102
RTVSPost2010PropOp37
 70
     1
102
RTVSPost2010Prop38
140
0.0
102
RTVSPost2010PropOp38
 70
     1
102
RTVSPost2010Prop39
140
1.0
102
RTVSPost2010PropOp39
 70
     1
102
RTVSPost2010Prop40
 90
        0
102
RTVSPost2010PropOp40
 70
     1
102
RTVSPost2010Prop41ColorIndex
 90
       18
102
RTVSPost2010Prop41ColorRGB
 90
        0
102
RTVSPost2010PropOp41
 70
     1
102
RTVSPost2010Prop42
 90
       50
102
RTVSPost2010PropOp42
 70
     1
102
RTVSPost2010Prop43
 90
        3
102
RTVSPost2010PropOp43
 70
     1
102
RTVSPost2010Prop44ColorIndex
 90
        5
102
RTVSPost2010Prop44ColorRGB
 90
      255
102
RTVSPost2010PropOp44
 70
     1
102
RTVSPost2010Prop45
280
     0
102
RTVSPost2010PropOp45
 70
     1
102
RTVSPost2010Prop46
 90
       50
102
RTVSPost2010PropOp46
 70
     1
102
RTVSPost2010Prop47
 90
       50
102
RTVSPost2010PropOp47
 70
     1
102
RTVSPost2010Prop48
 90
       50
102
RTVSPost2010PropOp48
 70
     1
102
RTVSPost2010Prop49
280
     0
102
RTVSPost2010PropOp49
 70
     1
102
RTVSPost2010Prop50
 90
       50
102
RTVSPost2010PropOp50
 70
     1
102
RTVSPost2010Prop51ColorIndex
 90
      256
102
RTVSPost2010Prop51ColorRGB
 90
-16777216
102
RTVSPost2010PropOp51
 70
     0
102
RTVSPost2010Prop52
140
1.0
102
RTVSPost2010PropOp52
 70
     0
102
RTVSPost2010Prop53
 90
        2
102
RTVSPost2010PropOp53
 70
     1
102
RTVSPost2010Prop54
  1
strokes_ogs.tif
102
RTVSPost2010PropOp54
 70
     1
102
RTVSPost2010Prop55
280
     0
102
RTVSPost2010PropOp55
 70
     1
102
RTVSPost2010Prop56
140
1.0
102
RTVSPost2010PropOp56
 70
     1
102
RTVSPost2010Prop57
140
1.0
102
RTVSPost2010PropOp57
 70
     1
102
RTVSPropertyOp0
 70
     1
102
RTVSPropertyOp1
 70
     1
102
RTVSPropertyOp2
 70
     1
102
RTVSPropertyOp3
 70
     1
102
RTVSPropertyOp4
 70
     1
102
RTVSPropertyOp5
 70
     1
102
RTVSPropertyOp6
 70
     1
102
RTVSPropertyOp7
 70
     1
102
RTVSPropertyOp8
 70
     1
102
RTVSPropertyOp9
 70
     1
102
RTVSPropertyOp10
 70
     1
102
RTVSPropertyOp11
 70
     1
102
RTVSPropertyOp12
 70
     1
102
RTVSPropertyOp13
 70
     1
102
RTVSPropertyOp14
 70
     1
102
RTVSPropertyOp15
 70
     1
102
RTVSPropertyOp16
 70
     1
102
RTVSPropertyOp17
 70
     1
102
RTVSPropertyOp18
 70
     1
102
RTVSPropertyOp19
 70
     1
102
RTVSPropertyOp20
 70
     1
102
RTVSPropertyOp21
 70
     1
102
RTVSPropertyOp22
 70
     1
102
RTVSPropertyOp23
 70
     1
102
RTVSPropertyOp24
 70
     1
102
RTVSPropertyOp25
 70
     1
102
RTVSPropertyOp26
 70
     1
102
RTVSPropertyOp27
 70
     1
102
RTVSPropertyOp28
 70
     1
102
RTVSPropertyOp29
 70
     1
102
RTVSPropertyOp30
 70
     1
102
RTVSPropertyOp31
 70
     1
102
RTVSPropertyOp32
 70
     1
102
RTVSPropertyOp33
 70
     1
102
RTVSPropertyOp34
 70
     1
102
RTVSPropertyOp35
 70
     1
102
RTVSPropertyOp36
 70
     1
102
RTVSPropertyOp37
 70
     1
102
RTVSPropertyOp38
 70
     1
102
RTVSPropertyOp39
 70
     1
102
RTVSPropertyOp40
 70
     1
102
RTVSPropertyOp41
 70
     1
102
RTVSPropertyOp42
 70
     1
102
RTVSPropertyOp43
 70
     1
102
RTVSPropertyOp44
 70
     1
102
RTVSPropertyOp45
 70
     1
102
RTVSPropertyOp46
 70
     1
102
RTVSPropertyOp47
 70
     1
102
RTVSPropertyOp48
 70
     1
102
RTVSPropertyOp49
 70
     1
102
RTVSPropertyOp50
 70
     1
102
RTVSPropertyOp51
 70
     0
102
RTVSPropertyOp52
 70
     0
102
RTVSPropertyOp53
 70
     1
102
RTVSPropertyOp54
 70
     1
102
RTVSPropertyOp55
 70
     1
102
RTVSPropertyOp56
 70
     1
102
RTVSPropertyOp57
 70
     1
102
RTVSPropertyOp58
 70
     1
102
RTVSPropertyOp59
 70
     1
102
RTVSPropertyOp60
 70
     1
102
RTVSPropertyOp61
 70
     1
102
RTVSPropertyOp62
 70
     1
  0
XRECORD
  5
AD8B
102
{ACAD_REACTORS
330
AD8A
102
}
330
AD8A
100
AcDbXrecord
280
     1
102
RTVSPost2010Prop28
280
     0
102
RTVSPost2010PropOp28
 70
     1
102
RTVSPost2010Prop29
280
     1
102
RTVSPost2010PropOp29
 70
     1
102
RTVSPost2010Prop30
280
     1
102
RTVSPost2010PropOp30
 70
     1
102
RTVSPost2010Prop31
280
     0
102
RTVSPost2010PropOp31
 70
     1
102
RTVSPost2010Prop32
280
     0
102
RTVSPost2010PropOp32
 70
     1
102
RTVSPost2010Prop33
280
     0
102
RTVSPost2010PropOp33
 70
     1
102
RTVSPost2010Prop34
280
     0
102
RTVSPost2010PropOp34
 70
     1
102
RTVSPost2010Prop35
280
     0
102
RTVSPost2010PropOp35
 70
     1
102
RTVSPost2010Prop36
280
     0
102
RTVSPost2010PropOp36
 70
     1
102
RTVSPost2010Prop37
 90
       50
102
RTVSPost2010PropOp37
 70
     0
102
RTVSPost2010Prop38
140
0.0
102
RTVSPost2010PropOp38
 70
     0
102
RTVSPost2010Prop39
140
1.0
102
RTVSPost2010PropOp39
 70
     0
102
RTVSPost2010Prop40
 90
        0
102
RTVSPost2010PropOp40
 70
     0
102
RTVSPost2010Prop41ColorIndex
 90
       18
102
RTVSPost2010Prop41ColorRGB
 90
        0
102
RTVSPost2010PropOp41
 70
     0
102
RTVSPost2010Prop42
 90
       50
102
RTVSPost2010PropOp42
 70
     0
102
RTVSPost2010Prop43
 90
        3
102
RTVSPost2010PropOp43
 70
     0
102
RTVSPost2010Prop44ColorIndex
 90
        5
102
RTVSPost2010Prop44ColorRGB
 90
      255
102
RTVSPost2010PropOp44
 70
     0
102
RTVSPost2010Prop45
280
     0
102
RTVSPost2010PropOp45
 70
     1
102
RTVSPost2010Prop46
 90
       50
102
RTVSPost2010PropOp46
 70
     0
102
RTVSPost2010Prop47
 90
       50
102
RTVSPost2010PropOp47
 70
     0
102
RTVSPost2010Prop48
 90
       50
102
RTVSPost2010PropOp48
 70
     0
102
RTVSPost2010Prop49
280
     0
102
RTVSPost2010PropOp49
 70
     1
102
RTVSPost2010Prop50
 90
       50
102
RTVSPost2010PropOp50
 70
     0
102
RTVSPost2010Prop51ColorIndex
 90
      256
102
RTVSPost2010Prop51ColorRGB
 90
-16777216
102
RTVSPost2010PropOp51
 70
     0
102
RTVSPost2010Prop52
140
1.0
102
RTVSPost2010PropOp52
 70
     0
102
RTVSPost2010Prop53
 90
        2
102
RTVSPost2010PropOp53
 70
     0
102
RTVSPost2010Prop54
  1
strokes_ogs.tif
102
RTVSPost2010PropOp54
 70
     0
102
RTVSPost2010Prop55
280
     0
102
RTVSPost2010PropOp55
 70
     1
102
RTVSPost2010Prop56
140
1.0
102
RTVSPost2010PropOp56
 70
     0
102
RTVSPost2010Prop57
140
1.0
102
RTVSPost2010PropOp57
 70
     0
102
RTVSPropertyOp0
 70
     0
102
RTVSPropertyOp1
 70
     0
102
RTVSPropertyOp2
 70
     0
102
RTVSPropertyOp3
 70
     0
102
RTVSPropertyOp4
 70
     0
102
RTVSPropertyOp5
 70
     0
102
RTVSPropertyOp6
 70
     0
102
RTVSPropertyOp7
 70
     0
102
RTVSPropertyOp8
 70
     0
102
RTVSPropertyOp9
 70
     0
102
RTVSPropertyOp10
 70
     0
102
RTVSPropertyOp11
 70
     0
102
RTVSPropertyOp12
 70
     0
102
RTVSPropertyOp13
 70
     0
102
RTVSPropertyOp14
 70
     2
102
RTVSPropertyOp15
 70
     0
102
RTVSPropertyOp16
 70
     0
102
RTVSPropertyOp17
 70
     0
102
RTVSPropertyOp18
 70
     0
102
RTVSPropertyOp19
 70
     0
102
RTVSPropertyOp20
 70
     0
102
RTVSPropertyOp21
 70
     0
102
RTVSPropertyOp22
 70
     0
102
RTVSPropertyOp23
 70
     0
102
RTVSPropertyOp24
 70
     0
102
RTVSPropertyOp25
 70
     0
102
RTVSPropertyOp26
 70
     0
102
RTVSPropertyOp27
 70
     0
102
RTVSPropertyOp28
 70
     1
102
RTVSPropertyOp29
 70
     1
102
RTVSPropertyOp30
 70
     1
102
RTVSPropertyOp31
 70
     1
102
RTVSPropertyOp32
 70
     1
102
RTVSPropertyOp33
 70
     1
102
RTVSPropertyOp34
 70
     1
102
RTVSPropertyOp35
 70
     1
102
RTVSPropertyOp36
 70
     1
102
RTVSPropertyOp37
 70
     0
102
RTVSPropertyOp38
 70
     0
102
RTVSPropertyOp39
 70
     0
102
RTVSPropertyOp40
 70
     0
102
RTVSPropertyOp41
 70
     0
102
RTVSPropertyOp42
 70
     0
102
RTVSPropertyOp43
 70
     0
102
RTVSPropertyOp44
 70
     0
102
RTVSPropertyOp45
 70
     1
102
RTVSPropertyOp46
 70
     0
102
RTVSPropertyOp47
 70
     0
102
RTVSPropertyOp48
 70
     0
102
RTVSPropertyOp49
 70
     1
102
RTVSPropertyOp50
 70
     0
102
RTVSPropertyOp51
 70
     0
102
RTVSPropertyOp52
 70
     0
102
RTVSPropertyOp53
 70
     0
102
RTVSPropertyOp54
 70
     0
102
RTVSPropertyOp55
 70
     1
102
RTVSPropertyOp56
 70
     0
102
RTVSPropertyOp57
 70
     0
102
RTVSPropertyOp58
 70
     0
102
RTVSPropertyOp59
 70
     0
102
RTVSPropertyOp60
 70
     0
102
RTVSPropertyOp61
 70
     0
102
RTVSPropertyOp62
 70
     0
  0
XRECORD
  5
AD79
102
{ACAD_REACTORS
330
AD78
102
}
330
AD78
100
AcDbXrecord
280
     1
102
RTVSPost2010Prop28
280
     0
102
RTVSPost2010PropOp28
 70
     1
102
RTVSPost2010Prop29
280
     1
102
RTVSPost2010PropOp29
 70
     1
102
RTVSPost2010Prop30
280
     1
102
RTVSPost2010PropOp30
 70
     1
102
RTVSPost2010Prop31
280
     0
102
RTVSPost2010PropOp31
 70
     1
102
RTVSPost2010Prop32
280
     0
102
RTVSPost2010PropOp32
 70
     1
102
RTVSPost2010Prop33
280
     0
102
RTVSPost2010PropOp33
 70
     1
102
RTVSPost2010Prop34
280
     0
102
RTVSPost2010PropOp34
 70
     1
102
RTVSPost2010Prop35
280
     0
102
RTVSPost2010PropOp35
 70
     1
102
RTVSPost2010Prop36
280
     0
102
RTVSPost2010PropOp36
 70
     1
102
RTVSPost2010Prop37
 90
       50
102
RTVSPost2010PropOp37
 70
     1
102
RTVSPost2010Prop38
140
0.0
102
RTVSPost2010PropOp38
 70
     1
102
RTVSPost2010Prop39
140
1.0
102
RTVSPost2010PropOp39
 70
     1
102
RTVSPost2010Prop40
 90
        0
102
RTVSPost2010PropOp40
 70
     1
102
RTVSPost2010Prop41ColorIndex
 90
       18
102
RTVSPost2010Prop41ColorRGB
 90
        0
102
RTVSPost2010PropOp41
 70
     1
102
RTVSPost2010Prop42
 90
       50
102
RTVSPost2010PropOp42
 70
     1
102
RTVSPost2010Prop43
 90
        3
102
RTVSPost2010PropOp43
 70
     1
102
RTVSPost2010Prop44ColorIndex
 90
        5
102
RTVSPost2010Prop44ColorRGB
 90
      255
102
RTVSPost2010PropOp44
 70
     1
102
RTVSPost2010Prop45
280
     0
102
RTVSPost2010PropOp45
 70
     1
102
RTVSPost2010Prop46
 90
       50
102
RTVSPost2010PropOp46
 70
     1
102
RTVSPost2010Prop47
 90
       50
102
RTVSPost2010PropOp47
 70
     1
102
RTVSPost2010Prop48
 90
       50
102
RTVSPost2010PropOp48
 70
     1
102
RTVSPost2010Prop49
280
     0
102
RTVSPost2010PropOp49
 70
     1
102
RTVSPost2010Prop50
 90
       50
102
RTVSPost2010PropOp50
 70
     1
102
RTVSPost2010Prop51ColorIndex
 90
      256
102
RTVSPost2010Prop51ColorRGB
 90
-16777216
102
RTVSPost2010PropOp51
 70
     0
102
RTVSPost2010Prop52
140
1.0
102
RTVSPost2010PropOp52
 70
     0
102
RTVSPost2010Prop53
 90
        2
102
RTVSPost2010PropOp53
 70
     1
102
RTVSPost2010Prop54
  1
strokes_ogs.tif
102
RTVSPost2010PropOp54
 70
     1
102
RTVSPost2010Prop55
280
     0
102
RTVSPost2010PropOp55
 70
     1
102
RTVSPost2010Prop56
140
1.0
102
RTVSPost2010PropOp56
 70
     1
102
RTVSPost2010Prop57
140
1.0
102
RTVSPost2010PropOp57
 70
     1
102
RTVSPropertyOp0
 70
     1
102
RTVSPropertyOp1
 70
     1
102
RTVSPropertyOp2
 70
     1
102
RTVSPropertyOp3
 70
     1
102
RTVSPropertyOp4
 70
     1
102
RTVSPropertyOp5
 70
     1
102
RTVSPropertyOp6
 70
     1
102
RTVSPropertyOp7
 70
     1
102
RTVSPropertyOp8
 70
     1
102
RTVSPropertyOp9
 70
     1
102
RTVSPropertyOp10
 70
     1
102
RTVSPropertyOp11
 70
     1
102
RTVSPropertyOp12
 70
     1
102
RTVSPropertyOp13
 70
     1
102
RTVSPropertyOp14
 70
     1
102
RTVSPropertyOp15
 70
     1
102
RTVSPropertyOp16
 70
     1
102
RTVSPropertyOp17
 70
     1
102
RTVSPropertyOp18
 70
     1
102
RTVSPropertyOp19
 70
     1
102
RTVSPropertyOp20
 70
     1
102
RTVSPropertyOp21
 70
     1
102
RTVSPropertyOp22
 70
     1
102
RTVSPropertyOp23
 70
     1
102
RTVSPropertyOp24
 70
     1
102
RTVSPropertyOp25
 70
     1
102
RTVSPropertyOp26
 70
     1
102
RTVSPropertyOp27
 70
     1
102
RTVSPropertyOp28
 70
     1
102
RTVSPropertyOp29
 70
     1
102
RTVSPropertyOp30
 70
     1
102
RTVSPropertyOp31
 70
     1
102
RTVSPropertyOp32
 70
     1
102
RTVSPropertyOp33
 70
     1
102
RTVSPropertyOp34
 70
     1
102
RTVSPropertyOp35
 70
     1
102
RTVSPropertyOp36
 70
     1
102
RTVSPropertyOp37
 70
     1
102
RTVSPropertyOp38
 70
     1
102
RTVSPropertyOp39
 70
     1
102
RTVSPropertyOp40
 70
     1
102
RTVSPropertyOp41
 70
     1
102
RTVSPropertyOp42
 70
     1
102
RTVSPropertyOp43
 70
     1
102
RTVSPropertyOp44
 70
     1
102
RTVSPropertyOp45
 70
     1
102
RTVSPropertyOp46
 70
     1
102
RTVSPropertyOp47
 70
     1
102
RTVSPropertyOp48
 70
     1
102
RTVSPropertyOp49
 70
     1
102
RTVSPropertyOp50
 70
     1
102
RTVSPropertyOp51
 70
     0
102
RTVSPropertyOp52
 70
     0
102
RTVSPropertyOp53
 70
     1
102
RTVSPropertyOp54
 70
     1
102
RTVSPropertyOp55
 70
     1
102
RTVSPropertyOp56
 70
     1
102
RTVSPropertyOp57
 70
     1
102
RTVSPropertyOp58
 70
     1
102
RTVSPropertyOp59
 70
     1
102
RTVSPropertyOp60
 70
     1
102
RTVSPropertyOp61
 70
     1
102
RTVSPropertyOp62
 70
     1
  0
XRECORD
  5
AD5D
102
{ACAD_REACTORS
330
AD5C
102
}
330
AD5C
100
AcDbXrecord
280
     1
102
RTVSPost2010Prop28
280
     0
102
RTVSPost2010PropOp28
 70
     1
102
RTVSPost2010Prop29
280
     1
102
RTVSPost2010PropOp29
 70
     1
102
RTVSPost2010Prop30
280
     1
102
RTVSPost2010PropOp30
 70
     1
102
RTVSPost2010Prop31
280
     0
102
RTVSPost2010PropOp31
 70
     1
102
RTVSPost2010Prop32
280
     0
102
RTVSPost2010PropOp32
 70
     1
102
RTVSPost2010Prop33
280
     0
102
RTVSPost2010PropOp33
 70
     1
102
RTVSPost2010Prop34
280
     0
102
RTVSPost2010PropOp34
 70
     1
102
RTVSPost2010Prop35
280
     0
102
RTVSPost2010PropOp35
 70
     1
102
RTVSPost2010Prop36
280
     0
102
RTVSPost2010PropOp36
 70
     1
102
RTVSPost2010Prop37
 90
       50
102
RTVSPost2010PropOp37
 70
     1
102
RTVSPost2010Prop38
140
0.0
102
RTVSPost2010PropOp38
 70
     1
102
RTVSPost2010Prop39
140
1.0
102
RTVSPost2010PropOp39
 70
     1
102
RTVSPost2010Prop40
 90
        0
102
RTVSPost2010PropOp40
 70
     1
102
RTVSPost2010Prop41ColorIndex
 90
       18
102
RTVSPost2010Prop41ColorRGB
 90
        0
102
RTVSPost2010PropOp41
 70
     1
102
RTVSPost2010Prop42
 90
       50
102
RTVSPost2010PropOp42
 70
     1
102
RTVSPost2010Prop43
 90
        3
102
RTVSPost2010PropOp43
 70
     1
102
RTVSPost2010Prop44ColorIndex
 90
        5
102
RTVSPost2010Prop44ColorRGB
 90
      255
102
RTVSPost2010PropOp44
 70
     1
102
RTVSPost2010Prop45
280
     0
102
RTVSPost2010PropOp45
 70
     1
102
RTVSPost2010Prop46
 90
       50
102
RTVSPost2010PropOp46
 70
     1
102
RTVSPost2010Prop47
 90
       50
102
RTVSPost2010PropOp47
 70
     1
102
RTVSPost2010Prop48
 90
       50
102
RTVSPost2010PropOp48
 70
     1
102
RTVSPost2010Prop49
280
     0
102
RTVSPost2010PropOp49
 70
     1
102
RTVSPost2010Prop50
 90
       50
102
RTVSPost2010PropOp50
 70
     1
102
RTVSPost2010Prop51ColorIndex
 90
      256
102
RTVSPost2010Prop51ColorRGB
 90
-16777216
102
RTVSPost2010PropOp51
 70
     0
102
RTVSPost2010Prop52
140
1.0
102
RTVSPost2010PropOp52
 70
     0
102
RTVSPost2010Prop53
 90
        2
102
RTVSPost2010PropOp53
 70
     1
102
RTVSPost2010Prop54
  1
strokes_ogs.tif
102
RTVSPost2010PropOp54
 70
     1
102
RTVSPost2010Prop55
280
     0
102
RTVSPost2010PropOp55
 70
     1
102
RTVSPost2010Prop56
140
1.0
102
RTVSPost2010PropOp56
 70
     1
102
RTVSPost2010Prop57
140
1.0
102
RTVSPost2010PropOp57
 70
     1
102
RTVSPropertyOp0
 70
     1
102
RTVSPropertyOp1
 70
     1
102
RTVSPropertyOp2
 70
     1
102
RTVSPropertyOp3
 70
     1
102
RTVSPropertyOp4
 70
     1
102
RTVSPropertyOp5
 70
     1
102
RTVSPropertyOp6
 70
     1
102
RTVSPropertyOp7
 70
     1
102
RTVSPropertyOp8
 70
     1
102
RTVSPropertyOp9
 70
     1
102
RTVSPropertyOp10
 70
     1
102
RTVSPropertyOp11
 70
     1
102
RTVSPropertyOp12
 70
     1
102
RTVSPropertyOp13
 70
     1
102
RTVSPropertyOp14
 70
     1
102
RTVSPropertyOp15
 70
     1
102
RTVSPropertyOp16
 70
     1
102
RTVSPropertyOp17
 70
     1
102
RTVSPropertyOp18
 70
     1
102
RTVSPropertyOp19
 70
     1
102
RTVSPropertyOp20
 70
     1
102
RTVSPropertyOp21
 70
     1
102
RTVSPropertyOp22
 70
     1
102
RTVSPropertyOp23
 70
     1
102
RTVSPropertyOp24
 70
     1
102
RTVSPropertyOp25
 70
     1
102
RTVSPropertyOp26
 70
     1
102
RTVSPropertyOp27
 70
     1
102
RTVSPropertyOp28
 70
     1
102
RTVSPropertyOp29
 70
     1
102
RTVSPropertyOp30
 70
     1
102
RTVSPropertyOp31
 70
     1
102
RTVSPropertyOp32
 70
     1
102
RTVSPropertyOp33
 70
     1
102
RTVSPropertyOp34
 70
     1
102
RTVSPropertyOp35
 70
     1
102
RTVSPropertyOp36
 70
     1
102
RTVSPropertyOp37
 70
     1
102
RTVSPropertyOp38
 70
     1
102
RTVSPropertyOp39
 70
     1
102
RTVSPropertyOp40
 70
     1
102
RTVSPropertyOp41
 70
     1
102
RTVSPropertyOp42
 70
     1
102
RTVSPropertyOp43
 70
     1
102
RTVSPropertyOp44
 70
     1
102
RTVSPropertyOp45
 70
     1
102
RTVSPropertyOp46
 70
     1
102
RTVSPropertyOp47
 70
     1
102
RTVSPropertyOp48
 70
     1
102
RTVSPropertyOp49
 70
     1
102
RTVSPropertyOp50
 70
     1
102
RTVSPropertyOp51
 70
     0
102
RTVSPropertyOp52
 70
     0
102
RTVSPropertyOp53
 70
     1
102
RTVSPropertyOp54
 70
     1
102
RTVSPropertyOp55
 70
     1
102
RTVSPropertyOp56
 70
     1
102
RTVSPropertyOp57
 70
     1
102
RTVSPropertyOp58
 70
     1
102
RTVSPropertyOp59
 70
     1
102
RTVSPropertyOp60
 70
     1
102
RTVSPropertyOp61
 70
     1
102
RTVSPropertyOp62
 70
     1
  0
XRECORD
  5
AD5F
102
{ACAD_REACTORS
330
AD5E
102
}
330
AD5E
100
AcDbXrecord
280
     1
102
RTVSPost2010Prop28
280
     0
102
RTVSPost2010PropOp28
 70
     1
102
RTVSPost2010Prop29
280
     1
102
RTVSPost2010PropOp29
 70
     1
102
RTVSPost2010Prop30
280
     1
102
RTVSPost2010PropOp30
 70
     1
102
RTVSPost2010Prop31
280
     0
102
RTVSPost2010PropOp31
 70
     1
102
RTVSPost2010Prop32
280
     0
102
RTVSPost2010PropOp32
 70
     1
102
RTVSPost2010Prop33
280
     0
102
RTVSPost2010PropOp33
 70
     1
102
RTVSPost2010Prop34
280
     0
102
RTVSPost2010PropOp34
 70
     1
102
RTVSPost2010Prop35
280
     0
102
RTVSPost2010PropOp35
 70
     1
102
RTVSPost2010Prop36
280
     0
102
RTVSPost2010PropOp36
 70
     1
102
RTVSPost2010Prop37
 90
       50
102
RTVSPost2010PropOp37
 70
     1
102
RTVSPost2010Prop38
140
0.0
102
RTVSPost2010PropOp38
 70
     1
102
RTVSPost2010Prop39
140
1.0
102
RTVSPost2010PropOp39
 70
     1
102
RTVSPost2010Prop40
 90
        0
102
RTVSPost2010PropOp40
 70
     1
102
RTVSPost2010Prop41ColorIndex
 90
       18
102
RTVSPost2010Prop41ColorRGB
 90
        0
102
RTVSPost2010PropOp41
 70
     1
102
RTVSPost2010Prop42
 90
       50
102
RTVSPost2010PropOp42
 70
     1
102
RTVSPost2010Prop43
 90
        3
102
RTVSPost2010PropOp43
 70
     1
102
RTVSPost2010Prop44ColorIndex
 90
        5
102
RTVSPost2010Prop44ColorRGB
 90
      255
102
RTVSPost2010PropOp44
 70
     1
102
RTVSPost2010Prop45
280
     0
102
RTVSPost2010PropOp45
 70
     1
102
RTVSPost2010Prop46
 90
       50
102
RTVSPost2010PropOp46
 70
     1
102
RTVSPost2010Prop47
 90
       50
102
RTVSPost2010PropOp47
 70
     1
102
RTVSPost2010Prop48
 90
       50
102
RTVSPost2010PropOp48
 70
     1
102
RTVSPost2010Prop49
280
     0
102
RTVSPost2010PropOp49
 70
     1
102
RTVSPost2010Prop50
 90
       50
102
RTVSPost2010PropOp50
 70
     1
102
RTVSPost2010Prop51ColorIndex
 90
      256
102
RTVSPost2010Prop51ColorRGB
 90
-16777216
102
RTVSPost2010PropOp51
 70
     0
102
RTVSPost2010Prop52
140
1.0
102
RTVSPost2010PropOp52
 70
     0
102
RTVSPost2010Prop53
 90
        2
102
RTVSPost2010PropOp53
 70
     1
102
RTVSPost2010Prop54
  1
strokes_ogs.tif
102
RTVSPost2010PropOp54
 70
     1
102
RTVSPost2010Prop55
280
     0
102
RTVSPost2010PropOp55
 70
     1
102
RTVSPost2010Prop56
140
1.0
102
RTVSPost2010PropOp56
 70
     1
102
RTVSPost2010Prop57
140
1.0
102
RTVSPost2010PropOp57
 70
     1
102
RTVSPropertyOp0
 70
     1
102
RTVSPropertyOp1
 70
     1
102
RTVSPropertyOp2
 70
     1
102
RTVSPropertyOp3
 70
     1
102
RTVSPropertyOp4
 70
     1
102
RTVSPropertyOp5
 70
     1
102
RTVSPropertyOp6
 70
     1
102
RTVSPropertyOp7
 70
     1
102
RTVSPropertyOp8
 70
     1
102
RTVSPropertyOp9
 70
     1
102
RTVSPropertyOp10
 70
     1
102
RTVSPropertyOp11
 70
     1
102
RTVSPropertyOp12
 70
     1
102
RTVSPropertyOp13
 70
     1
102
RTVSPropertyOp14
 70
     1
102
RTVSPropertyOp15
 70
     1
102
RTVSPropertyOp16
 70
     1
102
RTVSPropertyOp17
 70
     1
102
RTVSPropertyOp18
 70
     1
102
RTVSPropertyOp19
 70
     1
102
RTVSPropertyOp20
 70
     1
102
RTVSPropertyOp21
 70
     1
102
RTVSPropertyOp22
 70
     1
102
RTVSPropertyOp23
 70
     1
102
RTVSPropertyOp24
 70
     1
102
RTVSPropertyOp25
 70
     1
102
RTVSPropertyOp26
 70
     1
102
RTVSPropertyOp27
 70
     1
102
RTVSPropertyOp28
 70
     1
102
RTVSPropertyOp29
 70
     1
102
RTVSPropertyOp30
 70
     1
102
RTVSPropertyOp31
 70
     1
102
RTVSPropertyOp32
 70
     1
102
RTVSPropertyOp33
 70
     1
102
RTVSPropertyOp34
 70
     1
102
RTVSPropertyOp35
 70
     1
102
RTVSPropertyOp36
 70
     1
102
RTVSPropertyOp37
 70
     1
102
RTVSPropertyOp38
 70
     1
102
RTVSPropertyOp39
 70
     1
102
RTVSPropertyOp40
 70
     1
102
RTVSPropertyOp41
 70
     1
102
RTVSPropertyOp42
 70
     1
102
RTVSPropertyOp43
 70
     1
102
RTVSPropertyOp44
 70
     1
102
RTVSPropertyOp45
 70
     1
102
RTVSPropertyOp46
 70
     1
102
RTVSPropertyOp47
 70
     1
102
RTVSPropertyOp48
 70
     1
102
RTVSPropertyOp49
 70
     1
102
RTVSPropertyOp50
 70
     1
102
RTVSPropertyOp51
 70
     0
102
RTVSPropertyOp52
 70
     0
102
RTVSPropertyOp53
 70
     1
102
RTVSPropertyOp54
 70
     1
102
RTVSPropertyOp55
 70
     1
102
RTVSPropertyOp56
 70
     1
102
RTVSPropertyOp57
 70
     1
102
RTVSPropertyOp58
 70
     1
102
RTVSPropertyOp59
 70
     1
102
RTVSPropertyOp60
 70
     1
102
RTVSPropertyOp61
 70
     1
102
RTVSPropertyOp62
 70
     1
  0
XRECORD
  5
AD61
102
{ACAD_REACTORS
330
AD60
102
}
330
AD60
100
AcDbXrecord
280
     1
102
RTVSPost2010Prop28
280
     0
102
RTVSPost2010PropOp28
 70
     1
102
RTVSPost2010Prop29
280
     1
102
RTVSPost2010PropOp29
 70
     1
102
RTVSPost2010Prop30
280
     1
102
RTVSPost2010PropOp30
 70
     1
102
RTVSPost2010Prop31
280
     0
102
RTVSPost2010PropOp31
 70
     1
102
RTVSPost2010Prop32
280
     0
102
RTVSPost2010PropOp32
 70
     1
102
RTVSPost2010Prop33
280
     0
102
RTVSPost2010PropOp33
 70
     1
102
RTVSPost2010Prop34
280
     0
102
RTVSPost2010PropOp34
 70
     1
102
RTVSPost2010Prop35
280
     0
102
RTVSPost2010PropOp35
 70
     1
102
RTVSPost2010Prop36
280
     0
102
RTVSPost2010PropOp36
 70
     1
102
RTVSPost2010Prop37
 90
       50
102
RTVSPost2010PropOp37
 70
     1
102
RTVSPost2010Prop38
140
0.0
102
RTVSPost2010PropOp38
 70
     1
102
RTVSPost2010Prop39
140
1.0
102
RTVSPost2010PropOp39
 70
     1
102
RTVSPost2010Prop40
 90
        0
102
RTVSPost2010PropOp40
 70
     1
102
RTVSPost2010Prop41ColorIndex
 90
       18
102
RTVSPost2010Prop41ColorRGB
 90
        0
102
RTVSPost2010PropOp41
 70
     1
102
RTVSPost2010Prop42
 90
       50
102
RTVSPost2010PropOp42
 70
     1
102
RTVSPost2010Prop43
 90
        3
102
RTVSPost2010PropOp43
 70
     1
102
RTVSPost2010Prop44ColorIndex
 90
        5
102
RTVSPost2010Prop44ColorRGB
 90
      255
102
RTVSPost2010PropOp44
 70
     1
102
RTVSPost2010Prop45
280
     0
102
RTVSPost2010PropOp45
 70
     1
102
RTVSPost2010Prop46
 90
       50
102
RTVSPost2010PropOp46
 70
     1
102
RTVSPost2010Prop47
 90
       50
102
RTVSPost2010PropOp47
 70
     1
102
RTVSPost2010Prop48
 90
       50
102
RTVSPost2010PropOp48
 70
     1
102
RTVSPost2010Prop49
280
     0
102
RTVSPost2010PropOp49
 70
     1
102
RTVSPost2010Prop50
 90
       50
102
RTVSPost2010PropOp50
 70
     1
102
RTVSPost2010Prop51ColorIndex
 90
      256
102
RTVSPost2010Prop51ColorRGB
 90
-16777216
102
RTVSPost2010PropOp51
 70
     0
102
RTVSPost2010Prop52
140
1.0
102
RTVSPost2010PropOp52
 70
     0
102
RTVSPost2010Prop53
 90
        2
102
RTVSPost2010PropOp53
 70
     1
102
RTVSPost2010Prop54
  1
strokes_ogs.tif
102
RTVSPost2010PropOp54
 70
     1
102
RTVSPost2010Prop55
280
     0
102
RTVSPost2010PropOp55
 70
     1
102
RTVSPost2010Prop56
140
1.0
102
RTVSPost2010PropOp56
 70
     1
102
RTVSPost2010Prop57
140
1.0
102
RTVSPost2010PropOp57
 70
     1
102
RTVSPropertyOp0
 70
     1
102
RTVSPropertyOp1
 70
     1
102
RTVSPropertyOp2
 70
     1
102
RTVSPropertyOp3
 70
     1
102
RTVSPropertyOp4
 70
     1
102
RTVSPropertyOp5
 70
     1
102
RTVSPropertyOp6
 70
     1
102
RTVSPropertyOp7
 70
     1
102
RTVSPropertyOp8
 70
     1
102
RTVSPropertyOp9
 70
     1
102
RTVSPropertyOp10
 70
     1
102
RTVSPropertyOp11
 70
     1
102
RTVSPropertyOp12
 70
     1
102
RTVSPropertyOp13
 70
     1
102
RTVSPropertyOp14
 70
     1
102
RTVSPropertyOp15
 70
     1
102
RTVSPropertyOp16
 70
     1
102
RTVSPropertyOp17
 70
     1
102
RTVSPropertyOp18
 70
     1
102
RTVSPropertyOp19
 70
     1
102
RTVSPropertyOp20
 70
     1
102
RTVSPropertyOp21
 70
     1
102
RTVSPropertyOp22
 70
     1
102
RTVSPropertyOp23
 70
     1
102
RTVSPropertyOp24
 70
     1
102
RTVSPropertyOp25
 70
     1
102
RTVSPropertyOp26
 70
     1
102
RTVSPropertyOp27
 70
     1
102
RTVSPropertyOp28
 70
     1
102
RTVSPropertyOp29
 70
     1
102
RTVSPropertyOp30
 70
     1
102
RTVSPropertyOp31
 70
     1
102
RTVSPropertyOp32
 70
     1
102
RTVSPropertyOp33
 70
     1
102
RTVSPropertyOp34
 70
     1
102
RTVSPropertyOp35
 70
     1
102
RTVSPropertyOp36
 70
     1
102
RTVSPropertyOp37
 70
     1
102
RTVSPropertyOp38
 70
     1
102
RTVSPropertyOp39
 70
     1
102
RTVSPropertyOp40
 70
     1
102
RTVSPropertyOp41
 70
     1
102
RTVSPropertyOp42
 70
     1
102
RTVSPropertyOp43
 70
     1
102
RTVSPropertyOp44
 70
     1
102
RTVSPropertyOp45
 70
     1
102
RTVSPropertyOp46
 70
     1
102
RTVSPropertyOp47
 70
     1
102
RTVSPropertyOp48
 70
     1
102
RTVSPropertyOp49
 70
     1
102
RTVSPropertyOp50
 70
     1
102
RTVSPropertyOp51
 70
     0
102
RTVSPropertyOp52
 70
     0
102
RTVSPropertyOp53
 70
     1
102
RTVSPropertyOp54
 70
     1
102
RTVSPropertyOp55
 70
     1
102
RTVSPropertyOp56
 70
     1
102
RTVSPropertyOp57
 70
     1
102
RTVSPropertyOp58
 70
     1
102
RTVSPropertyOp59
 70
     1
102
RTVSPropertyOp60
 70
     1
102
RTVSPropertyOp61
 70
     1
102
RTVSPropertyOp62
 70
     1
  0
XRECORD
  5
AD63
102
{ACAD_REACTORS
330
AD62
102
}
330
AD62
100
AcDbXrecord
280
     1
102
RTVSPost2010Prop28
280
     0
102
RTVSPost2010PropOp28
 70
     1
102
RTVSPost2010Prop29
280
     1
102
RTVSPost2010PropOp29
 70
     1
102
RTVSPost2010Prop30
280
     1
102
RTVSPost2010PropOp30
 70
     1
102
RTVSPost2010Prop31
280
     0
102
RTVSPost2010PropOp31
 70
     1
102
RTVSPost2010Prop32
280
     0
102
RTVSPost2010PropOp32
 70
     1
102
RTVSPost2010Prop33
280
     0
102
RTVSPost2010PropOp33
 70
     1
102
RTVSPost2010Prop34
280
     0
102
RTVSPost2010PropOp34
 70
     1
102
RTVSPost2010Prop35
280
     0
102
RTVSPost2010PropOp35
 70
     1
102
RTVSPost2010Prop36
280
     0
102
RTVSPost2010PropOp36
 70
     1
102
RTVSPost2010Prop37
 90
       50
102
RTVSPost2010PropOp37
 70
     1
102
RTVSPost2010Prop38
140
0.0
102
RTVSPost2010PropOp38
 70
     1
102
RTVSPost2010Prop39
140
1.0
102
RTVSPost2010PropOp39
 70
     1
102
RTVSPost2010Prop40
 90
        0
102
RTVSPost2010PropOp40
 70
     1
102
RTVSPost2010Prop41ColorIndex
 90
       18
102
RTVSPost2010Prop41ColorRGB
 90
        0
102
RTVSPost2010PropOp41
 70
     1
102
RTVSPost2010Prop42
 90
       50
102
RTVSPost2010PropOp42
 70
     1
102
RTVSPost2010Prop43
 90
        3
102
RTVSPost2010PropOp43
 70
     1
102
RTVSPost2010Prop44ColorIndex
 90
        5
102
RTVSPost2010Prop44ColorRGB
 90
      255
102
RTVSPost2010PropOp44
 70
     1
102
RTVSPost2010Prop45
280
     0
102
RTVSPost2010PropOp45
 70
     1
102
RTVSPost2010Prop46
 90
       50
102
RTVSPost2010PropOp46
 70
     1
102
RTVSPost2010Prop47
 90
       50
102
RTVSPost2010PropOp47
 70
     1
102
RTVSPost2010Prop48
 90
       50
102
RTVSPost2010PropOp48
 70
     1
102
RTVSPost2010Prop49
280
     0
102
RTVSPost2010PropOp49
 70
     1
102
RTVSPost2010Prop50
 90
       50
102
RTVSPost2010PropOp50
 70
     1
102
RTVSPost2010Prop51ColorIndex
 90
      256
102
RTVSPost2010Prop51ColorRGB
 90
-16777216
102
RTVSPost2010PropOp51
 70
     0
102
RTVSPost2010Prop52
140
1.0
102
RTVSPost2010PropOp52
 70
     0
102
RTVSPost2010Prop53
 90
        2
102
RTVSPost2010PropOp53
 70
     1
102
RTVSPost2010Prop54
  1
strokes_ogs.tif
102
RTVSPost2010PropOp54
 70
     1
102
RTVSPost2010Prop55
280
     0
102
RTVSPost2010PropOp55
 70
     1
102
RTVSPost2010Prop56
140
1.0
102
RTVSPost2010PropOp56
 70
     1
102
RTVSPost2010Prop57
140
1.0
102
RTVSPost2010PropOp57
 70
     1
102
RTVSPropertyOp0
 70
     1
102
RTVSPropertyOp1
 70
     1
102
RTVSPropertyOp2
 70
     1
102
RTVSPropertyOp3
 70
     1
102
RTVSPropertyOp4
 70
     1
102
RTVSPropertyOp5
 70
     1
102
RTVSPropertyOp6
 70
     1
102
RTVSPropertyOp7
 70
     1
102
RTVSPropertyOp8
 70
     1
102
RTVSPropertyOp9
 70
     1
102
RTVSPropertyOp10
 70
     1
102
RTVSPropertyOp11
 70
     1
102
RTVSPropertyOp12
 70
     1
102
RTVSPropertyOp13
 70
     1
102
RTVSPropertyOp14
 70
     1
102
RTVSPropertyOp15
 70
     1
102
RTVSPropertyOp16
 70
     1
102
RTVSPropertyOp17
 70
     1
102
RTVSPropertyOp18
 70
     1
102
RTVSPropertyOp19
 70
     1
102
RTVSPropertyOp20
 70
     1
102
RTVSPropertyOp21
 70
     1
102
RTVSPropertyOp22
 70
     1
102
RTVSPropertyOp23
 70
     1
102
RTVSPropertyOp24
 70
     1
102
RTVSPropertyOp25
 70
     1
102
RTVSPropertyOp26
 70
     1
102
RTVSPropertyOp27
 70
     1
102
RTVSPropertyOp28
 70
     1
102
RTVSPropertyOp29
 70
     1
102
RTVSPropertyOp30
 70
     1
102
RTVSPropertyOp31
 70
     1
102
RTVSPropertyOp32
 70
     1
102
RTVSPropertyOp33
 70
     1
102
RTVSPropertyOp34
 70
     1
102
RTVSPropertyOp35
 70
     1
102
RTVSPropertyOp36
 70
     1
102
RTVSPropertyOp37
 70
     1
102
RTVSPropertyOp38
 70
     1
102
RTVSPropertyOp39
 70
     1
102
RTVSPropertyOp40
 70
     1
102
RTVSPropertyOp41
 70
     1
102
RTVSPropertyOp42
 70
     1
102
RTVSPropertyOp43
 70
     1
102
RTVSPropertyOp44
 70
     1
102
RTVSPropertyOp45
 70
     1
102
RTVSPropertyOp46
 70
     1
102
RTVSPropertyOp47
 70
     1
102
RTVSPropertyOp48
 70
     1
102
RTVSPropertyOp49
 70
     1
102
RTVSPropertyOp50
 70
     1
102
RTVSPropertyOp51
 70
     0
102
RTVSPropertyOp52
 70
     0
102
RTVSPropertyOp53
 70
     1
102
RTVSPropertyOp54
 70
     1
102
RTVSPropertyOp55
 70
     1
102
RTVSPropertyOp56
 70
     1
102
RTVSPropertyOp57
 70
     1
102
RTVSPropertyOp58
 70
     1
102
RTVSPropertyOp59
 70
     1
102
RTVSPropertyOp60
 70
     1
102
RTVSPropertyOp61
 70
     1
102
RTVSPropertyOp62
 70
     1
  0
XRECORD
  5
AD6B
102
{ACAD_REACTORS
330
AD6A
102
}
330
AD6A
100
AcDbXrecord
280
     1
102
RTVSPost2010Prop28
280
     0
102
RTVSPost2010PropOp28
 70
     1
102
RTVSPost2010Prop29
280
     1
102
RTVSPost2010PropOp29
 70
     1
102
RTVSPost2010Prop30
280
     1
102
RTVSPost2010PropOp30
 70
     1
102
RTVSPost2010Prop31
280
     0
102
RTVSPost2010PropOp31
 70
     1
102
RTVSPost2010Prop32
280
     0
102
RTVSPost2010PropOp32
 70
     1
102
RTVSPost2010Prop33
280
     0
102
RTVSPost2010PropOp33
 70
     1
102
RTVSPost2010Prop34
280
     0
102
RTVSPost2010PropOp34
 70
     1
102
RTVSPost2010Prop35
280
     0
102
RTVSPost2010PropOp35
 70
     1
102
RTVSPost2010Prop36
280
     0
102
RTVSPost2010PropOp36
 70
     1
102
RTVSPost2010Prop37
 90
       50
102
RTVSPost2010PropOp37
 70
     1
102
RTVSPost2010Prop38
140
0.0
102
RTVSPost2010PropOp38
 70
     1
102
RTVSPost2010Prop39
140
1.0
102
RTVSPost2010PropOp39
 70
     1
102
RTVSPost2010Prop40
 90
        0
102
RTVSPost2010PropOp40
 70
     1
102
RTVSPost2010Prop41ColorIndex
 90
       18
102
RTVSPost2010Prop41ColorRGB
 90
        0
102
RTVSPost2010PropOp41
 70
     1
102
RTVSPost2010Prop42
 90
       50
102
RTVSPost2010PropOp42
 70
     1
102
RTVSPost2010Prop43
 90
        3
102
RTVSPost2010PropOp43
 70
     1
102
RTVSPost2010Prop44ColorIndex
 90
        5
102
RTVSPost2010Prop44ColorRGB
 90
      255
102
RTVSPost2010PropOp44
 70
     1
102
RTVSPost2010Prop45
280
     0
102
RTVSPost2010PropOp45
 70
     1
102
RTVSPost2010Prop46
 90
       50
102
RTVSPost2010PropOp46
 70
     1
102
RTVSPost2010Prop47
 90
       50
102
RTVSPost2010PropOp47
 70
     1
102
RTVSPost2010Prop48
 90
       50
102
RTVSPost2010PropOp48
 70
     1
102
RTVSPost2010Prop49
280
     0
102
RTVSPost2010PropOp49
 70
     1
102
RTVSPost2010Prop50
 90
       50
102
RTVSPost2010PropOp50
 70
     1
102
RTVSPost2010Prop51ColorIndex
 90
      256
102
RTVSPost2010Prop51ColorRGB
 90
-16777216
102
RTVSPost2010PropOp51
 70
     0
102
RTVSPost2010Prop52
140
1.0
102
RTVSPost2010PropOp52
 70
     0
102
RTVSPost2010Prop53
 90
        2
102
RTVSPost2010PropOp53
 70
     1
102
RTVSPost2010Prop54
  1
strokes_ogs.tif
102
RTVSPost2010PropOp54
 70
     1
102
RTVSPost2010Prop55
280
     0
102
RTVSPost2010PropOp55
 70
     1
102
RTVSPost2010Prop56
140
1.0
102
RTVSPost2010PropOp56
 70
     1
102
RTVSPost2010Prop57
140
1.0
102
RTVSPost2010PropOp57
 70
     1
102
RTVSPropertyOp0
 70
     1
102
RTVSPropertyOp1
 70
     1
102
RTVSPropertyOp2
 70
     1
102
RTVSPropertyOp3
 70
     1
102
RTVSPropertyOp4
 70
     1
102
RTVSPropertyOp5
 70
     1
102
RTVSPropertyOp6
 70
     1
102
RTVSPropertyOp7
 70
     1
102
RTVSPropertyOp8
 70
     1
102
RTVSPropertyOp9
 70
     1
102
RTVSPropertyOp10
 70
     1
102
RTVSPropertyOp11
 70
     1
102
RTVSPropertyOp12
 70
     1
102
RTVSPropertyOp13
 70
     1
102
RTVSPropertyOp14
 70
     1
102
RTVSPropertyOp15
 70
     1
102
RTVSPropertyOp16
 70
     1
102
RTVSPropertyOp17
 70
     1
102
RTVSPropertyOp18
 70
     1
102
RTVSPropertyOp19
 70
     1
102
RTVSPropertyOp20
 70
     1
102
RTVSPropertyOp21
 70
     1
102
RTVSPropertyOp22
 70
     1
102
RTVSPropertyOp23
 70
     1
102
RTVSPropertyOp24
 70
     1
102
RTVSPropertyOp25
 70
     1
102
RTVSPropertyOp26
 70
     1
102
RTVSPropertyOp27
 70
     1
102
RTVSPropertyOp28
 70
     1
102
RTVSPropertyOp29
 70
     1
102
RTVSPropertyOp30
 70
     1
102
RTVSPropertyOp31
 70
     1
102
RTVSPropertyOp32
 70
     1
102
RTVSPropertyOp33
 70
     1
102
RTVSPropertyOp34
 70
     1
102
RTVSPropertyOp35
 70
     1
102
RTVSPropertyOp36
 70
     1
102
RTVSPropertyOp37
 70
     1
102
RTVSPropertyOp38
 70
     1
102
RTVSPropertyOp39
 70
     1
102
RTVSPropertyOp40
 70
     1
102
RTVSPropertyOp41
 70
     1
102
RTVSPropertyOp42
 70
     1
102
RTVSPropertyOp43
 70
     1
102
RTVSPropertyOp44
 70
     1
102
RTVSPropertyOp45
 70
     1
102
RTVSPropertyOp46
 70
     1
102
RTVSPropertyOp47
 70
     1
102
RTVSPropertyOp48
 70
     1
102
RTVSPropertyOp49
 70
     1
102
RTVSPropertyOp50
 70
     1
102
RTVSPropertyOp51
 70
     0
102
RTVSPropertyOp52
 70
     0
102
RTVSPropertyOp53
 70
     1
102
RTVSPropertyOp54
 70
     1
102
RTVSPropertyOp55
 70
     1
102
RTVSPropertyOp56
 70
     1
102
RTVSPropertyOp57
 70
     1
102
RTVSPropertyOp58
 70
     1
102
RTVSPropertyOp59
 70
     1
102
RTVSPropertyOp60
 70
     1
102
RTVSPropertyOp61
 70
     1
102
RTVSPropertyOp62
 70
     1
  0
XRECORD
  5
AD87
102
{ACAD_REACTORS
330
AD86
102
}
330
AD86
100
AcDbXrecord
280
     1
102
RTVSPost2010Prop28
280
     0
102
RTVSPost2010PropOp28
 70
     1
102
RTVSPost2010Prop29
280
     1
102
RTVSPost2010PropOp29
 70
     1
102
RTVSPost2010Prop30
280
     1
102
RTVSPost2010PropOp30
 70
     1
102
RTVSPost2010Prop31
280
     0
102
RTVSPost2010PropOp31
 70
     1
102
RTVSPost2010Prop32
280
     0
102
RTVSPost2010PropOp32
 70
     1
102
RTVSPost2010Prop33
280
     0
102
RTVSPost2010PropOp33
 70
     1
102
RTVSPost2010Prop34
280
     0
102
RTVSPost2010PropOp34
 70
     1
102
RTVSPost2010Prop35
280
     0
102
RTVSPost2010PropOp35
 70
     1
102
RTVSPost2010Prop36
280
     0
102
RTVSPost2010PropOp36
 70
     1
102
RTVSPost2010Prop37
 90
       50
102
RTVSPost2010PropOp37
 70
     0
102
RTVSPost2010Prop38
140
0.0
102
RTVSPost2010PropOp38
 70
     0
102
RTVSPost2010Prop39
140
1.0
102
RTVSPost2010PropOp39
 70
     0
102
RTVSPost2010Prop40
 90
        0
102
RTVSPost2010PropOp40
 70
     0
102
RTVSPost2010Prop41ColorIndex
 90
       18
102
RTVSPost2010Prop41ColorRGB
 90
        0
102
RTVSPost2010PropOp41
 70
     0
102
RTVSPost2010Prop42
 90
       50
102
RTVSPost2010PropOp42
 70
     0
102
RTVSPost2010Prop43
 90
        3
102
RTVSPost2010PropOp43
 70
     0
102
RTVSPost2010Prop44ColorIndex
 90
        5
102
RTVSPost2010Prop44ColorRGB
 90
      255
102
RTVSPost2010PropOp44
 70
     0
102
RTVSPost2010Prop45
280
     0
102
RTVSPost2010PropOp45
 70
     1
102
RTVSPost2010Prop46
 90
       50
102
RTVSPost2010PropOp46
 70
     0
102
RTVSPost2010Prop47
 90
       50
102
RTVSPost2010PropOp47
 70
     0
102
RTVSPost2010Prop48
 90
       50
102
RTVSPost2010PropOp48
 70
     0
102
RTVSPost2010Prop49
280
     0
102
RTVSPost2010PropOp49
 70
     1
102
RTVSPost2010Prop50
 90
       50
102
RTVSPost2010PropOp50
 70
     0
102
RTVSPost2010Prop51ColorIndex
 90
      256
102
RTVSPost2010Prop51ColorRGB
 90
-16777216
102
RTVSPost2010PropOp51
 70
     0
102
RTVSPost2010Prop52
140
1.0
102
RTVSPost2010PropOp52
 70
     0
102
RTVSPost2010Prop53
 90
        2
102
RTVSPost2010PropOp53
 70
     0
102
RTVSPost2010Prop54
  1
strokes_ogs.tif
102
RTVSPost2010PropOp54
 70
     0
102
RTVSPost2010Prop55
280
     0
102
RTVSPost2010PropOp55
 70
     1
102
RTVSPost2010Prop56
140
1.0
102
RTVSPost2010PropOp56
 70
     0
102
RTVSPost2010Prop57
140
1.0
102
RTVSPost2010PropOp57
 70
     0
102
RTVSPropertyOp0
 70
     0
102
RTVSPropertyOp1
 70
     0
102
RTVSPropertyOp2
 70
     0
102
RTVSPropertyOp3
 70
     0
102
RTVSPropertyOp4
 70
     0
102
RTVSPropertyOp5
 70
     0
102
RTVSPropertyOp6
 70
     0
102
RTVSPropertyOp7
 70
     0
102
RTVSPropertyOp8
 70
     0
102
RTVSPropertyOp9
 70
     0
102
RTVSPropertyOp10
 70
     0
102
RTVSPropertyOp11
 70
     0
102
RTVSPropertyOp12
 70
     0
102
RTVSPropertyOp13
 70
     0
102
RTVSPropertyOp14
 70
     2
102
RTVSPropertyOp15
 70
     0
102
RTVSPropertyOp16
 70
     0
102
RTVSPropertyOp17
 70
     0
102
RTVSPropertyOp18
 70
     0
102
RTVSPropertyOp19
 70
     0
102
RTVSPropertyOp20
 70
     0
102
RTVSPropertyOp21
 70
     0
102
RTVSPropertyOp22
 70
     0
102
RTVSPropertyOp23
 70
     0
102
RTVSPropertyOp24
 70
     0
102
RTVSPropertyOp25
 70
     0
102
RTVSPropertyOp26
 70
     0
102
RTVSPropertyOp27
 70
     0
102
RTVSPropertyOp28
 70
     1
102
RTVSPropertyOp29
 70
     1
102
RTVSPropertyOp30
 70
     1
102
RTVSPropertyOp31
 70
     1
102
RTVSPropertyOp32
 70
     1
102
RTVSPropertyOp33
 70
     1
102
RTVSPropertyOp34
 70
     1
102
RTVSPropertyOp35
 70
     1
102
RTVSPropertyOp36
 70
     1
102
RTVSPropertyOp37
 70
     0
102
RTVSPropertyOp38
 70
     0
102
RTVSPropertyOp39
 70
     0
102
RTVSPropertyOp40
 70
     0
102
RTVSPropertyOp41
 70
     0
102
RTVSPropertyOp42
 70
     0
102
RTVSPropertyOp43
 70
     0
102
RTVSPropertyOp44
 70
     0
102
RTVSPropertyOp45
 70
     1
102
RTVSPropertyOp46
 70
     0
102
RTVSPropertyOp47
 70
     0
102
RTVSPropertyOp48
 70
     0
102
RTVSPropertyOp49
 70
     1
102
RTVSPropertyOp50
 70
     0
102
RTVSPropertyOp51
 70
     0
102
RTVSPropertyOp52
 70
     0
102
RTVSPropertyOp53
 70
     0
102
RTVSPropertyOp54
 70
     0
102
RTVSPropertyOp55
 70
     1
102
RTVSPropertyOp56
 70
     0
102
RTVSPropertyOp57
 70
     0
102
RTVSPropertyOp58
 70
     0
102
RTVSPropertyOp59
 70
     0
102
RTVSPropertyOp60
 70
     0
102
RTVSPropertyOp61
 70
     0
102
RTVSPropertyOp62
 70
     0
  0
XRECORD
  5
AD77
102
{ACAD_REACTORS
330
AD76
102
}
330
AD76
100
AcDbXrecord
280
     1
102
RTVSPost2010Prop28
280
     0
102
RTVSPost2010PropOp28
 70
     1
102
RTVSPost2010Prop29
280
     1
102
RTVSPost2010PropOp29
 70
     1
102
RTVSPost2010Prop30
280
     1
102
RTVSPost2010PropOp30
 70
     1
102
RTVSPost2010Prop31
280
     0
102
RTVSPost2010PropOp31
 70
     1
102
RTVSPost2010Prop32
280
     0
102
RTVSPost2010PropOp32
 70
     1
102
RTVSPost2010Prop33
280
     0
102
RTVSPost2010PropOp33
 70
     1
102
RTVSPost2010Prop34
280
     0
102
RTVSPost2010PropOp34
 70
     1
102
RTVSPost2010Prop35
280
     0
102
RTVSPost2010PropOp35
 70
     1
102
RTVSPost2010Prop36
280
     0
102
RTVSPost2010PropOp36
 70
     1
102
RTVSPost2010Prop37
 90
       50
102
RTVSPost2010PropOp37
 70
     1
102
RTVSPost2010Prop38
140
0.0
102
RTVSPost2010PropOp38
 70
     1
102
RTVSPost2010Prop39
140
1.0
102
RTVSPost2010PropOp39
 70
     1
102
RTVSPost2010Prop40
 90
        0
102
RTVSPost2010PropOp40
 70
     1
102
RTVSPost2010Prop41ColorIndex
 90
       18
102
RTVSPost2010Prop41ColorRGB
 90
        0
102
RTVSPost2010PropOp41
 70
     1
102
RTVSPost2010Prop42
 90
       50
102
RTVSPost2010PropOp42
 70
     1
102
RTVSPost2010Prop43
 90
        3
102
RTVSPost2010PropOp43
 70
     1
102
RTVSPost2010Prop44ColorIndex
 90
        5
102
RTVSPost2010Prop44ColorRGB
 90
      255
102
RTVSPost2010PropOp44
 70
     1
102
RTVSPost2010Prop45
280
     0
102
RTVSPost2010PropOp45
 70
     1
102
RTVSPost2010Prop46
 90
       50
102
RTVSPost2010PropOp46
 70
     1
102
RTVSPost2010Prop47
 90
       50
102
RTVSPost2010PropOp47
 70
     1
102
RTVSPost2010Prop48
 90
       50
102
RTVSPost2010PropOp48
 70
     1
102
RTVSPost2010Prop49
280
     0
102
RTVSPost2010PropOp49
 70
     1
102
RTVSPost2010Prop50
 90
       50
102
RTVSPost2010PropOp50
 70
     1
102
RTVSPost2010Prop51ColorIndex
 90
      256
102
RTVSPost2010Prop51ColorRGB
 90
-16777216
102
RTVSPost2010PropOp51
 70
     0
102
RTVSPost2010Prop52
140
1.0
102
RTVSPost2010PropOp52
 70
     0
102
RTVSPost2010Prop53
 90
        2
102
RTVSPost2010PropOp53
 70
     1
102
RTVSPost2010Prop54
  1
strokes_ogs.tif
102
RTVSPost2010PropOp54
 70
     1
102
RTVSPost2010Prop55
280
     0
102
RTVSPost2010PropOp55
 70
     1
102
RTVSPost2010Prop56
140
1.0
102
RTVSPost2010PropOp56
 70
     1
102
RTVSPost2010Prop57
140
1.0
102
RTVSPost2010PropOp57
 70
     1
102
RTVSPropertyOp0
 70
     1
102
RTVSPropertyOp1
 70
     1
102
RTVSPropertyOp2
 70
     1
102
RTVSPropertyOp3
 70
     1
102
RTVSPropertyOp4
 70
     1
102
RTVSPropertyOp5
 70
     1
102
RTVSPropertyOp6
 70
     1
102
RTVSPropertyOp7
 70
     1
102
RTVSPropertyOp8
 70
     1
102
RTVSPropertyOp9
 70
     1
102
RTVSPropertyOp10
 70
     1
102
RTVSPropertyOp11
 70
     1
102
RTVSPropertyOp12
 70
     1
102
RTVSPropertyOp13
 70
     1
102
RTVSPropertyOp14
 70
     1
102
RTVSPropertyOp15
 70
     1
102
RTVSPropertyOp16
 70
     1
102
RTVSPropertyOp17
 70
     1
102
RTVSPropertyOp18
 70
     1
102
RTVSPropertyOp19
 70
     1
102
RTVSPropertyOp20
 70
     1
102
RTVSPropertyOp21
 70
     1
102
RTVSPropertyOp22
 70
     1
102
RTVSPropertyOp23
 70
     1
102
RTVSPropertyOp24
 70
     1
102
RTVSPropertyOp25
 70
     1
102
RTVSPropertyOp26
 70
     1
102
RTVSPropertyOp27
 70
     1
102
RTVSPropertyOp28
 70
     1
102
RTVSPropertyOp29
 70
     1
102
RTVSPropertyOp30
 70
     1
102
RTVSPropertyOp31
 70
     1
102
RTVSPropertyOp32
 70
     1
102
RTVSPropertyOp33
 70
     1
102
RTVSPropertyOp34
 70
     1
102
RTVSPropertyOp35
 70
     1
102
RTVSPropertyOp36
 70
     1
102
RTVSPropertyOp37
 70
     1
102
RTVSPropertyOp38
 70
     1
102
RTVSPropertyOp39
 70
     1
102
RTVSPropertyOp40
 70
     1
102
RTVSPropertyOp41
 70
     1
102
RTVSPropertyOp42
 70
     1
102
RTVSPropertyOp43
 70
     1
102
RTVSPropertyOp44
 70
     1
102
RTVSPropertyOp45
 70
     1
102
RTVSPropertyOp46
 70
     1
102
RTVSPropertyOp47
 70
     1
102
RTVSPropertyOp48
 70
     1
102
RTVSPropertyOp49
 70
     1
102
RTVSPropertyOp50
 70
     1
102
RTVSPropertyOp51
 70
     0
102
RTVSPropertyOp52
 70
     0
102
RTVSPropertyOp53
 70
     1
102
RTVSPropertyOp54
 70
     1
102
RTVSPropertyOp55
 70
     1
102
RTVSPropertyOp56
 70
     1
102
RTVSPropertyOp57
 70
     1
102
RTVSPropertyOp58
 70
     1
102
RTVSPropertyOp59
 70
     1
102
RTVSPropertyOp60
 70
     1
102
RTVSPropertyOp61
 70
     1
102
RTVSPropertyOp62
 70
     1
  0
XRECORD
  5
AD89
102
{ACAD_REACTORS
330
AD88
102
}
330
AD88
100
AcDbXrecord
280
     1
102
RTVSPost2010Prop28
280
     0
102
RTVSPost2010PropOp28
 70
     1
102
RTVSPost2010Prop29
280
     1
102
RTVSPost2010PropOp29
 70
     1
102
RTVSPost2010Prop30
280
     1
102
RTVSPost2010PropOp30
 70
     1
102
RTVSPost2010Prop31
280
     0
102
RTVSPost2010PropOp31
 70
     1
102
RTVSPost2010Prop32
280
     0
102
RTVSPost2010PropOp32
 70
     1
102
RTVSPost2010Prop33
280
     0
102
RTVSPost2010PropOp33
 70
     1
102
RTVSPost2010Prop34
280
     0
102
RTVSPost2010PropOp34
 70
     1
102
RTVSPost2010Prop35
280
     0
102
RTVSPost2010PropOp35
 70
     1
102
RTVSPost2010Prop36
280
     0
102
RTVSPost2010PropOp36
 70
     1
102
RTVSPost2010Prop37
 90
       50
102
RTVSPost2010PropOp37
 70
     0
102
RTVSPost2010Prop38
140
0.0
102
RTVSPost2010PropOp38
 70
     0
102
RTVSPost2010Prop39
140
1.0
102
RTVSPost2010PropOp39
 70
     0
102
RTVSPost2010Prop40
 90
        0
102
RTVSPost2010PropOp40
 70
     0
102
RTVSPost2010Prop41ColorIndex
 90
       18
102
RTVSPost2010Prop41ColorRGB
 90
        0
102
RTVSPost2010PropOp41
 70
     0
102
RTVSPost2010Prop42
 90
       50
102
RTVSPost2010PropOp42
 70
     0
102
RTVSPost2010Prop43
 90
        3
102
RTVSPost2010PropOp43
 70
     0
102
RTVSPost2010Prop44ColorIndex
 90
        5
102
RTVSPost2010Prop44ColorRGB
 90
      255
102
RTVSPost2010PropOp44
 70
     0
102
RTVSPost2010Prop45
280
     0
102
RTVSPost2010PropOp45
 70
     1
102
RTVSPost2010Prop46
 90
       50
102
RTVSPost2010PropOp46
 70
     0
102
RTVSPost2010Prop47
 90
       50
102
RTVSPost2010PropOp47
 70
     0
102
RTVSPost2010Prop48
 90
       50
102
RTVSPost2010PropOp48
 70
     0
102
RTVSPost2010Prop49
280
     0
102
RTVSPost2010PropOp49
 70
     1
102
RTVSPost2010Prop50
 90
       50
102
RTVSPost2010PropOp50
 70
     0
102
RTVSPost2010Prop51ColorIndex
 90
      256
102
RTVSPost2010Prop51ColorRGB
 90
-16777216
102
RTVSPost2010PropOp51
 70
     0
102
RTVSPost2010Prop52
140
1.0
102
RTVSPost2010PropOp52
 70
     0
102
RTVSPost2010Prop53
 90
        2
102
RTVSPost2010PropOp53
 70
     0
102
RTVSPost2010Prop54
  1
strokes_ogs.tif
102
RTVSPost2010PropOp54
 70
     0
102
RTVSPost2010Prop55
280
     0
102
RTVSPost2010PropOp55
 70
     1
102
RTVSPost2010Prop56
140
1.0
102
RTVSPost2010PropOp56
 70
     0
102
RTVSPost2010Prop57
140
1.0
102
RTVSPost2010PropOp57
 70
     0
102
RTVSPropertyOp0
 70
     0
102
RTVSPropertyOp1
 70
     0
102
RTVSPropertyOp2
 70
     0
102
RTVSPropertyOp3
 70
     0
102
RTVSPropertyOp4
 70
     0
102
RTVSPropertyOp5
 70
     0
102
RTVSPropertyOp6
 70
     0
102
RTVSPropertyOp7
 70
     0
102
RTVSPropertyOp8
 70
     0
102
RTVSPropertyOp9
 70
     0
102
RTVSPropertyOp10
 70
     0
102
RTVSPropertyOp11
 70
     0
102
RTVSPropertyOp12
 70
     0
102
RTVSPropertyOp13
 70
     0
102
RTVSPropertyOp14
 70
     2
102
RTVSPropertyOp15
 70
     0
102
RTVSPropertyOp16
 70
     0
102
RTVSPropertyOp17
 70
     0
102
RTVSPropertyOp18
 70
     0
102
RTVSPropertyOp19
 70
     0
102
RTVSPropertyOp20
 70
     0
102
RTVSPropertyOp21
 70
     0
102
RTVSPropertyOp22
 70
     0
102
RTVSPropertyOp23
 70
     0
102
RTVSPropertyOp24
 70
     0
102
RTVSPropertyOp25
 70
     0
102
RTVSPropertyOp26
 70
     0
102
RTVSPropertyOp27
 70
     0
102
RTVSPropertyOp28
 70
     1
102
RTVSPropertyOp29
 70
     1
102
RTVSPropertyOp30
 70
     1
102
RTVSPropertyOp31
 70
     1
102
RTVSPropertyOp32
 70
     1
102
RTVSPropertyOp33
 70
     1
102
RTVSPropertyOp34
 70
     1
102
RTVSPropertyOp35
 70
     1
102
RTVSPropertyOp36
 70
     1
102
RTVSPropertyOp37
 70
     0
102
RTVSPropertyOp38
 70
     0
102
RTVSPropertyOp39
 70
     0
102
RTVSPropertyOp40
 70
     0
102
RTVSPropertyOp41
 70
     0
102
RTVSPropertyOp42
 70
     0
102
RTVSPropertyOp43
 70
     0
102
RTVSPropertyOp44
 70
     0
102
RTVSPropertyOp45
 70
     1
102
RTVSPropertyOp46
 70
     0
102
RTVSPropertyOp47
 70
     0
102
RTVSPropertyOp48
 70
     0
102
RTVSPropertyOp49
 70
     1
102
RTVSPropertyOp50
 70
     0
102
RTVSPropertyOp51
 70
     0
102
RTVSPropertyOp52
 70
     0
102
RTVSPropertyOp53
 70
     0
102
RTVSPropertyOp54
 70
     0
102
RTVSPropertyOp55
 70
     1
102
RTVSPropertyOp56
 70
     0
102
RTVSPropertyOp57
 70
     0
102
RTVSPropertyOp58
 70
     0
102
RTVSPropertyOp59
 70
     0
102
RTVSPropertyOp60
 70
     0
102
RTVSPropertyOp61
 70
     0
102
RTVSPropertyOp62
 70
     0
  0
XRECORD
  5
AD6F
102
{ACAD_REACTORS
330
AD6E
102
}
330
AD6E
100
AcDbXrecord
280
     1
102
RTVSPost2010Prop28
280
     0
102
RTVSPost2010PropOp28
 70
     1
102
RTVSPost2010Prop29
280
     1
102
RTVSPost2010PropOp29
 70
     1
102
RTVSPost2010Prop30
280
     1
102
RTVSPost2010PropOp30
 70
     1
102
RTVSPost2010Prop31
280
     0
102
RTVSPost2010PropOp31
 70
     1
102
RTVSPost2010Prop32
280
     0
102
RTVSPost2010PropOp32
 70
     1
102
RTVSPost2010Prop33
280
     0
102
RTVSPost2010PropOp33
 70
     1
102
RTVSPost2010Prop34
280
     0
102
RTVSPost2010PropOp34
 70
     1
102
RTVSPost2010Prop35
280
     0
102
RTVSPost2010PropOp35
 70
     1
102
RTVSPost2010Prop36
280
     0
102
RTVSPost2010PropOp36
 70
     1
102
RTVSPost2010Prop37
 90
       50
102
RTVSPost2010PropOp37
 70
     1
102
RTVSPost2010Prop38
140
0.0
102
RTVSPost2010PropOp38
 70
     1
102
RTVSPost2010Prop39
140
1.0
102
RTVSPost2010PropOp39
 70
     1
102
RTVSPost2010Prop40
 90
        0
102
RTVSPost2010PropOp40
 70
     1
102
RTVSPost2010Prop41ColorIndex
 90
       18
102
RTVSPost2010Prop41ColorRGB
 90
        0
102
RTVSPost2010PropOp41
 70
     1
102
RTVSPost2010Prop42
 90
       50
102
RTVSPost2010PropOp42
 70
     1
102
RTVSPost2010Prop43
 90
        3
102
RTVSPost2010PropOp43
 70
     1
102
RTVSPost2010Prop44ColorIndex
 90
        5
102
RTVSPost2010Prop44ColorRGB
 90
      255
102
RTVSPost2010PropOp44
 70
     1
102
RTVSPost2010Prop45
280
     0
102
RTVSPost2010PropOp45
 70
     1
102
RTVSPost2010Prop46
 90
       50
102
RTVSPost2010PropOp46
 70
     1
102
RTVSPost2010Prop47
 90
       50
102
RTVSPost2010PropOp47
 70
     1
102
RTVSPost2010Prop48
 90
       50
102
RTVSPost2010PropOp48
 70
     1
102
RTVSPost2010Prop49
280
     0
102
RTVSPost2010PropOp49
 70
     1
102
RTVSPost2010Prop50
 90
       50
102
RTVSPost2010PropOp50
 70
     1
102
RTVSPost2010Prop51ColorIndex
 90
      256
102
RTVSPost2010Prop51ColorRGB
 90
-16777216
102
RTVSPost2010PropOp51
 70
     0
102
RTVSPost2010Prop52
140
1.0
102
RTVSPost2010PropOp52
 70
     0
102
RTVSPost2010Prop53
 90
        2
102
RTVSPost2010PropOp53
 70
     1
102
RTVSPost2010Prop54
  1
strokes_ogs.tif
102
RTVSPost2010PropOp54
 70
     1
102
RTVSPost2010Prop55
280
     0
102
RTVSPost2010PropOp55
 70
     1
102
RTVSPost2010Prop56
140
1.0
102
RTVSPost2010PropOp56
 70
     1
102
RTVSPost2010Prop57
140
1.0
102
RTVSPost2010PropOp57
 70
     1
102
RTVSPropertyOp0
 70
     1
102
RTVSPropertyOp1
 70
     1
102
RTVSPropertyOp2
 70
     1
102
RTVSPropertyOp3
 70
     1
102
RTVSPropertyOp4
 70
     1
102
RTVSPropertyOp5
 70
     1
102
RTVSPropertyOp6
 70
     1
102
RTVSPropertyOp7
 70
     1
102
RTVSPropertyOp8
 70
     1
102
RTVSPropertyOp9
 70
     1
102
RTVSPropertyOp10
 70
     1
102
RTVSPropertyOp11
 70
     1
102
RTVSPropertyOp12
 70
     1
102
RTVSPropertyOp13
 70
     1
102
RTVSPropertyOp14
 70
     1
102
RTVSPropertyOp15
 70
     1
102
RTVSPropertyOp16
 70
     1
102
RTVSPropertyOp17
 70
     1
102
RTVSPropertyOp18
 70
     1
102
RTVSPropertyOp19
 70
     1
102
RTVSPropertyOp20
 70
     1
102
RTVSPropertyOp21
 70
     1
102
RTVSPropertyOp22
 70
     1
102
RTVSPropertyOp23
 70
     1
102
RTVSPropertyOp24
 70
     1
102
RTVSPropertyOp25
 70
     1
102
RTVSPropertyOp26
 70
     1
102
RTVSPropertyOp27
 70
     1
102
RTVSPropertyOp28
 70
     1
102
RTVSPropertyOp29
 70
     1
102
RTVSPropertyOp30
 70
     1
102
RTVSPropertyOp31
 70
     1
102
RTVSPropertyOp32
 70
     1
102
RTVSPropertyOp33
 70
     1
102
RTVSPropertyOp34
 70
     1
102
RTVSPropertyOp35
 70
     1
102
RTVSPropertyOp36
 70
     1
102
RTVSPropertyOp37
 70
     1
102
RTVSPropertyOp38
 70
     1
102
RTVSPropertyOp39
 70
     1
102
RTVSPropertyOp40
 70
     1
102
RTVSPropertyOp41
 70
     1
102
RTVSPropertyOp42
 70
     1
102
RTVSPropertyOp43
 70
     1
102
RTVSPropertyOp44
 70
     1
102
RTVSPropertyOp45
 70
     1
102
RTVSPropertyOp46
 70
     1
102
RTVSPropertyOp47
 70
     1
102
RTVSPropertyOp48
 70
     1
102
RTVSPropertyOp49
 70
     1
102
RTVSPropertyOp50
 70
     1
102
RTVSPropertyOp51
 70
     0
102
RTVSPropertyOp52
 70
     0
102
RTVSPropertyOp53
 70
     1
102
RTVSPropertyOp54
 70
     1
102
RTVSPropertyOp55
 70
     1
102
RTVSPropertyOp56
 70
     1
102
RTVSPropertyOp57
 70
     1
102
RTVSPropertyOp58
 70
     1
102
RTVSPropertyOp59
 70
     1
102
RTVSPropertyOp60
 70
     1
102
RTVSPropertyOp61
 70
     1
102
RTVSPropertyOp62
 70
     1
  0
XRECORD
  5
AD85
102
{ACAD_REACTORS
330
AD84
102
}
330
AD84
100
AcDbXrecord
280
     1
102
RTVSPost2010Prop28
280
     0
102
RTVSPost2010PropOp28
 70
     1
102
RTVSPost2010Prop29
280
     1
102
RTVSPost2010PropOp29
 70
     1
102
RTVSPost2010Prop30
280
     1
102
RTVSPost2010PropOp30
 70
     1
102
RTVSPost2010Prop31
280
     0
102
RTVSPost2010PropOp31
 70
     1
102
RTVSPost2010Prop32
280
     0
102
RTVSPost2010PropOp32
 70
     1
102
RTVSPost2010Prop33
280
     0
102
RTVSPost2010PropOp33
 70
     1
102
RTVSPost2010Prop34
280
     0
102
RTVSPost2010PropOp34
 70
     1
102
RTVSPost2010Prop35
280
     0
102
RTVSPost2010PropOp35
 70
     1
102
RTVSPost2010Prop36
280
     0
102
RTVSPost2010PropOp36
 70
     1
102
RTVSPost2010Prop37
 90
       50
102
RTVSPost2010PropOp37
 70
     1
102
RTVSPost2010Prop38
140
0.0
102
RTVSPost2010PropOp38
 70
     1
102
RTVSPost2010Prop39
140
1.0
102
RTVSPost2010PropOp39
 70
     1
102
RTVSPost2010Prop40
 90
        0
102
RTVSPost2010PropOp40
 70
     1
102
RTVSPost2010Prop41ColorIndex
 90
       18
102
RTVSPost2010Prop41ColorRGB
 90
        0
102
RTVSPost2010PropOp41
 70
     1
102
RTVSPost2010Prop42
 90
       50
102
RTVSPost2010PropOp42
 70
     1
102
RTVSPost2010Prop43
 90
        3
102
RTVSPost2010PropOp43
 70
     1
102
RTVSPost2010Prop44ColorIndex
 90
        5
102
RTVSPost2010Prop44ColorRGB
 90
      255
102
RTVSPost2010PropOp44
 70
     1
102
RTVSPost2010Prop45
280
     0
102
RTVSPost2010PropOp45
 70
     1
102
RTVSPost2010Prop46
 90
       50
102
RTVSPost2010PropOp46
 70
     1
102
RTVSPost2010Prop47
 90
       50
102
RTVSPost2010PropOp47
 70
     1
102
RTVSPost2010Prop48
 90
       50
102
RTVSPost2010PropOp48
 70
     1
102
RTVSPost2010Prop49
280
     0
102
RTVSPost2010PropOp49
 70
     1
102
RTVSPost2010Prop50
 90
       50
102
RTVSPost2010PropOp50
 70
     1
102
RTVSPost2010Prop51ColorIndex
 90
      256
102
RTVSPost2010Prop51ColorRGB
 90
-16777216
102
RTVSPost2010PropOp51
 70
     0
102
RTVSPost2010Prop52
140
1.0
102
RTVSPost2010PropOp52
 70
     0
102
RTVSPost2010Prop53
 90
        2
102
RTVSPost2010PropOp53
 70
     1
102
RTVSPost2010Prop54
  1
strokes_ogs.tif
102
RTVSPost2010PropOp54
 70
     1
102
RTVSPost2010Prop55
280
     0
102
RTVSPost2010PropOp55
 70
     1
102
RTVSPost2010Prop56
140
1.0
102
RTVSPost2010PropOp56
 70
     1
102
RTVSPost2010Prop57
140
1.0
102
RTVSPost2010PropOp57
 70
     1
102
RTVSPropertyOp0
 70
     1
102
RTVSPropertyOp1
 70
     1
102
RTVSPropertyOp2
 70
     1
102
RTVSPropertyOp3
 70
     1
102
RTVSPropertyOp4
 70
     1
102
RTVSPropertyOp5
 70
     1
102
RTVSPropertyOp6
 70
     1
102
RTVSPropertyOp7
 70
     1
102
RTVSPropertyOp8
 70
     1
102
RTVSPropertyOp9
 70
     1
102
RTVSPropertyOp10
 70
     1
102
RTVSPropertyOp11
 70
     1
102
RTVSPropertyOp12
 70
     1
102
RTVSPropertyOp13
 70
     1
102
RTVSPropertyOp14
 70
     1
102
RTVSPropertyOp15
 70
     1
102
RTVSPropertyOp16
 70
     1
102
RTVSPropertyOp17
 70
     1
102
RTVSPropertyOp18
 70
     1
102
RTVSPropertyOp19
 70
     1
102
RTVSPropertyOp20
 70
     1
102
RTVSPropertyOp21
 70
     1
102
RTVSPropertyOp22
 70
     1
102
RTVSPropertyOp23
 70
     1
102
RTVSPropertyOp24
 70
     1
102
RTVSPropertyOp25
 70
     1
102
RTVSPropertyOp26
 70
     1
102
RTVSPropertyOp27
 70
     1
102
RTVSPropertyOp28
 70
     1
102
RTVSPropertyOp29
 70
     1
102
RTVSPropertyOp30
 70
     1
102
RTVSPropertyOp31
 70
     1
102
RTVSPropertyOp32
 70
     1
102
RTVSPropertyOp33
 70
     1
102
RTVSPropertyOp34
 70
     1
102
RTVSPropertyOp35
 70
     1
102
RTVSPropertyOp36
 70
     1
102
RTVSPropertyOp37
 70
     1
102
RTVSPropertyOp38
 70
     1
102
RTVSPropertyOp39
 70
     1
102
RTVSPropertyOp40
 70
     1
102
RTVSPropertyOp41
 70
     1
102
RTVSPropertyOp42
 70
     1
102
RTVSPropertyOp43
 70
     1
102
RTVSPropertyOp44
 70
     1
102
RTVSPropertyOp45
 70
     1
102
RTVSPropertyOp46
 70
     1
102
RTVSPropertyOp47
 70
     1
102
RTVSPropertyOp48
 70
     1
102
RTVSPropertyOp49
 70
     1
102
RTVSPropertyOp50
 70
     1
102
RTVSPropertyOp51
 70
     0
102
RTVSPropertyOp52
 70
     0
102
RTVSPropertyOp53
 70
     1
102
RTVSPropertyOp54
 70
     1
102
RTVSPropertyOp55
 70
     1
102
RTVSPropertyOp56
 70
     1
102
RTVSPropertyOp57
 70
     1
102
RTVSPropertyOp58
 70
     1
102
RTVSPropertyOp59
 70
     1
102
RTVSPropertyOp60
 70
     1
102
RTVSPropertyOp61
 70
     1
102
RTVSPropertyOp62
 70
     1
  0
XRECORD
  5
AD83
102
{ACAD_REACTORS
330
AD82
102
}
330
AD82
100
AcDbXrecord
280
     1
102
RTVSPost2010Prop28
280
     0
102
RTVSPost2010PropOp28
 70
     1
102
RTVSPost2010Prop29
280
     1
102
RTVSPost2010PropOp29
 70
     1
102
RTVSPost2010Prop30
280
     1
102
RTVSPost2010PropOp30
 70
     1
102
RTVSPost2010Prop31
280
     0
102
RTVSPost2010PropOp31
 70
     1
102
RTVSPost2010Prop32
280
     0
102
RTVSPost2010PropOp32
 70
     1
102
RTVSPost2010Prop33
280
     0
102
RTVSPost2010PropOp33
 70
     1
102
RTVSPost2010Prop34
280
     0
102
RTVSPost2010PropOp34
 70
     1
102
RTVSPost2010Prop35
280
     0
102
RTVSPost2010PropOp35
 70
     1
102
RTVSPost2010Prop36
280
     0
102
RTVSPost2010PropOp36
 70
     1
102
RTVSPost2010Prop37
 90
       50
102
RTVSPost2010PropOp37
 70
     1
102
RTVSPost2010Prop38
140
0.0
102
RTVSPost2010PropOp38
 70
     1
102
RTVSPost2010Prop39
140
1.0
102
RTVSPost2010PropOp39
 70
     1
102
RTVSPost2010Prop40
 90
        0
102
RTVSPost2010PropOp40
 70
     1
102
RTVSPost2010Prop41ColorIndex
 90
       18
102
RTVSPost2010Prop41ColorRGB
 90
        0
102
RTVSPost2010PropOp41
 70
     1
102
RTVSPost2010Prop42
 90
       50
102
RTVSPost2010PropOp42
 70
     1
102
RTVSPost2010Prop43
 90
        3
102
RTVSPost2010PropOp43
 70
     1
102
RTVSPost2010Prop44ColorIndex
 90
        5
102
RTVSPost2010Prop44ColorRGB
 90
      255
102
RTVSPost2010PropOp44
 70
     1
102
RTVSPost2010Prop45
280
     0
102
RTVSPost2010PropOp45
 70
     1
102
RTVSPost2010Prop46
 90
       50
102
RTVSPost2010PropOp46
 70
     1
102
RTVSPost2010Prop47
 90
       50
102
RTVSPost2010PropOp47
 70
     1
102
RTVSPost2010Prop48
 90
       50
102
RTVSPost2010PropOp48
 70
     1
102
RTVSPost2010Prop49
280
     0
102
RTVSPost2010PropOp49
 70
     1
102
RTVSPost2010Prop50
 90
       50
102
RTVSPost2010PropOp50
 70
     1
102
RTVSPost2010Prop51ColorIndex
 90
      256
102
RTVSPost2010Prop51ColorRGB
 90
-16777216
102
RTVSPost2010PropOp51
 70
     0
102
RTVSPost2010Prop52
140
1.0
102
RTVSPost2010PropOp52
 70
     0
102
RTVSPost2010Prop53
 90
        2
102
RTVSPost2010PropOp53
 70
     1
102
RTVSPost2010Prop54
  1
strokes_ogs.tif
102
RTVSPost2010PropOp54
 70
     1
102
RTVSPost2010Prop55
280
     0
102
RTVSPost2010PropOp55
 70
     1
102
RTVSPost2010Prop56
140
1.0
102
RTVSPost2010PropOp56
 70
     1
102
RTVSPost2010Prop57
140
1.0
102
RTVSPost2010PropOp57
 70
     1
102
RTVSPropertyOp0
 70
     1
102
RTVSPropertyOp1
 70
     1
102
RTVSPropertyOp2
 70
     1
102
RTVSPropertyOp3
 70
     1
102
RTVSPropertyOp4
 70
     1
102
RTVSPropertyOp5
 70
     1
102
RTVSPropertyOp6
 70
     1
102
RTVSPropertyOp7
 70
     1
102
RTVSPropertyOp8
 70
     1
102
RTVSPropertyOp9
 70
     1
102
RTVSPropertyOp10
 70
     1
102
RTVSPropertyOp11
 70
     1
102
RTVSPropertyOp12
 70
     1
102
RTVSPropertyOp13
 70
     1
102
RTVSPropertyOp14
 70
     1
102
RTVSPropertyOp15
 70
     1
102
RTVSPropertyOp16
 70
     1
102
RTVSPropertyOp17
 70
     1
102
RTVSPropertyOp18
 70
     1
102
RTVSPropertyOp19
 70
     1
102
RTVSPropertyOp20
 70
     1
102
RTVSPropertyOp21
 70
     1
102
RTVSPropertyOp22
 70
     1
102
RTVSPropertyOp23
 70
     1
102
RTVSPropertyOp24
 70
     1
102
RTVSPropertyOp25
 70
     1
102
RTVSPropertyOp26
 70
     1
102
RTVSPropertyOp27
 70
     1
102
RTVSPropertyOp28
 70
     1
102
RTVSPropertyOp29
 70
     1
102
RTVSPropertyOp30
 70
     1
102
RTVSPropertyOp31
 70
     1
102
RTVSPropertyOp32
 70
     1
102
RTVSPropertyOp33
 70
     1
102
RTVSPropertyOp34
 70
     1
102
RTVSPropertyOp35
 70
     1
102
RTVSPropertyOp36
 70
     1
102
RTVSPropertyOp37
 70
     1
102
RTVSPropertyOp38
 70
     1
102
RTVSPropertyOp39
 70
     1
102
RTVSPropertyOp40
 70
     1
102
RTVSPropertyOp41
 70
     1
102
RTVSPropertyOp42
 70
     1
102
RTVSPropertyOp43
 70
     1
102
RTVSPropertyOp44
 70
     1
102
RTVSPropertyOp45
 70
     1
102
RTVSPropertyOp46
 70
     1
102
RTVSPropertyOp47
 70
     1
102
RTVSPropertyOp48
 70
     1
102
RTVSPropertyOp49
 70
     1
102
RTVSPropertyOp50
 70
     1
102
RTVSPropertyOp51
 70
     0
102
RTVSPropertyOp52
 70
     0
102
RTVSPropertyOp53
 70
     1
102
RTVSPropertyOp54
 70
     1
102
RTVSPropertyOp55
 70
     1
102
RTVSPropertyOp56
 70
     1
102
RTVSPropertyOp57
 70
     1
102
RTVSPropertyOp58
 70
     1
102
RTVSPropertyOp59
 70
     1
102
RTVSPropertyOp60
 70
     1
102
RTVSPropertyOp61
 70
     1
102
RTVSPropertyOp62
 70
     1
  0
XRECORD
  5
AD7D
102
{ACAD_REACTORS
330
AD7C
102
}
330
AD7C
100
AcDbXrecord
280
     1
102
RTVSPost2010Prop28
280
     0
102
RTVSPost2010PropOp28
 70
     1
102
RTVSPost2010Prop29
280
     1
102
RTVSPost2010PropOp29
 70
     1
102
RTVSPost2010Prop30
280
     1
102
RTVSPost2010PropOp30
 70
     1
102
RTVSPost2010Prop31
280
     0
102
RTVSPost2010PropOp31
 70
     1
102
RTVSPost2010Prop32
280
     0
102
RTVSPost2010PropOp32
 70
     1
102
RTVSPost2010Prop33
280
     0
102
RTVSPost2010PropOp33
 70
     1
102
RTVSPost2010Prop34
280
     0
102
RTVSPost2010PropOp34
 70
     1
102
RTVSPost2010Prop35
280
     0
102
RTVSPost2010PropOp35
 70
     1
102
RTVSPost2010Prop36
280
     0
102
RTVSPost2010PropOp36
 70
     1
102
RTVSPost2010Prop37
 90
       50
102
RTVSPost2010PropOp37
 70
     1
102
RTVSPost2010Prop38
140
0.0
102
RTVSPost2010PropOp38
 70
     1
102
RTVSPost2010Prop39
140
1.0
102
RTVSPost2010PropOp39
 70
     1
102
RTVSPost2010Prop40
 90
        0
102
RTVSPost2010PropOp40
 70
     1
102
RTVSPost2010Prop41ColorIndex
 90
       18
102
RTVSPost2010Prop41ColorRGB
 90
        0
102
RTVSPost2010PropOp41
 70
     1
102
RTVSPost2010Prop42
 90
       50
102
RTVSPost2010PropOp42
 70
     1
102
RTVSPost2010Prop43
 90
        3
102
RTVSPost2010PropOp43
 70
     1
102
RTVSPost2010Prop44ColorIndex
 90
        5
102
RTVSPost2010Prop44ColorRGB
 90
      255
102
RTVSPost2010PropOp44
 70
     1
102
RTVSPost2010Prop45
280
     0
102
RTVSPost2010PropOp45
 70
     1
102
RTVSPost2010Prop46
 90
       50
102
RTVSPost2010PropOp46
 70
     1
102
RTVSPost2010Prop47
 90
       50
102
RTVSPost2010PropOp47
 70
     1
102
RTVSPost2010Prop48
 90
       50
102
RTVSPost2010PropOp48
 70
     1
102
RTVSPost2010Prop49
280
     0
102
RTVSPost2010PropOp49
 70
     1
102
RTVSPost2010Prop50
 90
       50
102
RTVSPost2010PropOp50
 70
     1
102
RTVSPost2010Prop51ColorIndex
 90
      256
102
RTVSPost2010Prop51ColorRGB
 90
-16777216
102
RTVSPost2010PropOp51
 70
     0
102
RTVSPost2010Prop52
140
1.0
102
RTVSPost2010PropOp52
 70
     0
102
RTVSPost2010Prop53
 90
        2
102
RTVSPost2010PropOp53
 70
     1
102
RTVSPost2010Prop54
  1
strokes_ogs.tif
102
RTVSPost2010PropOp54
 70
     1
102
RTVSPost2010Prop55
280
     0
102
RTVSPost2010PropOp55
 70
     1
102
RTVSPost2010Prop56
140
1.0
102
RTVSPost2010PropOp56
 70
     1
102
RTVSPost2010Prop57
140
1.0
102
RTVSPost2010PropOp57
 70
     1
102
RTVSPropertyOp0
 70
     1
102
RTVSPropertyOp1
 70
     1
102
RTVSPropertyOp2
 70
     1
102
RTVSPropertyOp3
 70
     1
102
RTVSPropertyOp4
 70
     1
102
RTVSPropertyOp5
 70
     1
102
RTVSPropertyOp6
 70
     1
102
RTVSPropertyOp7
 70
     1
102
RTVSPropertyOp8
 70
     1
102
RTVSPropertyOp9
 70
     1
102
RTVSPropertyOp10
 70
     1
102
RTVSPropertyOp11
 70
     1
102
RTVSPropertyOp12
 70
     1
102
RTVSPropertyOp13
 70
     1
102
RTVSPropertyOp14
 70
     1
102
RTVSPropertyOp15
 70
     1
102
RTVSPropertyOp16
 70
     1
102
RTVSPropertyOp17
 70
     1
102
RTVSPropertyOp18
 70
     1
102
RTVSPropertyOp19
 70
     1
102
RTVSPropertyOp20
 70
     1
102
RTVSPropertyOp21
 70
     1
102
RTVSPropertyOp22
 70
     1
102
RTVSPropertyOp23
 70
     1
102
RTVSPropertyOp24
 70
     1
102
RTVSPropertyOp25
 70
     1
102
RTVSPropertyOp26
 70
     1
102
RTVSPropertyOp27
 70
     1
102
RTVSPropertyOp28
 70
     1
102
RTVSPropertyOp29
 70
     1
102
RTVSPropertyOp30
 70
     1
102
RTVSPropertyOp31
 70
     1
102
RTVSPropertyOp32
 70
     1
102
RTVSPropertyOp33
 70
     1
102
RTVSPropertyOp34
 70
     1
102
RTVSPropertyOp35
 70
     1
102
RTVSPropertyOp36
 70
     1
102
RTVSPropertyOp37
 70
     1
102
RTVSPropertyOp38
 70
     1
102
RTVSPropertyOp39
 70
     1
102
RTVSPropertyOp40
 70
     1
102
RTVSPropertyOp41
 70
     1
102
RTVSPropertyOp42
 70
     1
102
RTVSPropertyOp43
 70
     1
102
RTVSPropertyOp44
 70
     1
102
RTVSPropertyOp45
 70
     1
102
RTVSPropertyOp46
 70
     1
102
RTVSPropertyOp47
 70
     1
102
RTVSPropertyOp48
 70
     1
102
RTVSPropertyOp49
 70
     1
102
RTVSPropertyOp50
 70
     1
102
RTVSPropertyOp51
 70
     0
102
RTVSPropertyOp52
 70
     0
102
RTVSPropertyOp53
 70
     1
102
RTVSPropertyOp54
 70
     1
102
RTVSPropertyOp55
 70
     1
102
RTVSPropertyOp56
 70
     1
102
RTVSPropertyOp57
 70
     1
102
RTVSPropertyOp58
 70
     1
102
RTVSPropertyOp59
 70
     1
102
RTVSPropertyOp60
 70
     1
102
RTVSPropertyOp61
 70
     1
102
RTVSPropertyOp62
 70
     1
  0
XRECORD
  5
AD7F
102
{ACAD_REACTORS
330
AD7E
102
}
330
AD7E
100
AcDbXrecord
280
     1
102
RTVSPost2010Prop28
280
     0
102
RTVSPost2010PropOp28
 70
     1
102
RTVSPost2010Prop29
280
     1
102
RTVSPost2010PropOp29
 70
     1
102
RTVSPost2010Prop30
280
     1
102
RTVSPost2010PropOp30
 70
     1
102
RTVSPost2010Prop31
280
     0
102
RTVSPost2010PropOp31
 70
     1
102
RTVSPost2010Prop32
280
     0
102
RTVSPost2010PropOp32
 70
     1
102
RTVSPost2010Prop33
280
     0
102
RTVSPost2010PropOp33
 70
     1
102
RTVSPost2010Prop34
280
     0
102
RTVSPost2010PropOp34
 70
     1
102
RTVSPost2010Prop35
280
     0
102
RTVSPost2010PropOp35
 70
     1
102
RTVSPost2010Prop36
280
     0
102
RTVSPost2010PropOp36
 70
     1
102
RTVSPost2010Prop37
 90
       50
102
RTVSPost2010PropOp37
 70
     1
102
RTVSPost2010Prop38
140
0.0
102
RTVSPost2010PropOp38
 70
     1
102
RTVSPost2010Prop39
140
1.0
102
RTVSPost2010PropOp39
 70
     1
102
RTVSPost2010Prop40
 90
        0
102
RTVSPost2010PropOp40
 70
     1
102
RTVSPost2010Prop41ColorIndex
 90
       18
102
RTVSPost2010Prop41ColorRGB
 90
        0
102
RTVSPost2010PropOp41
 70
     1
102
RTVSPost2010Prop42
 90
       50
102
RTVSPost2010PropOp42
 70
     1
102
RTVSPost2010Prop43
 90
        3
102
RTVSPost2010PropOp43
 70
     1
102
RTVSPost2010Prop44ColorIndex
 90
        5
102
RTVSPost2010Prop44ColorRGB
 90
      255
102
RTVSPost2010PropOp44
 70
     1
102
RTVSPost2010Prop45
280
     0
102
RTVSPost2010PropOp45
 70
     1
102
RTVSPost2010Prop46
 90
       50
102
RTVSPost2010PropOp46
 70
     1
102
RTVSPost2010Prop47
 90
       50
102
RTVSPost2010PropOp47
 70
     1
102
RTVSPost2010Prop48
 90
       50
102
RTVSPost2010PropOp48
 70
     1
102
RTVSPost2010Prop49
280
     0
102
RTVSPost2010PropOp49
 70
     1
102
RTVSPost2010Prop50
 90
       50
102
RTVSPost2010PropOp50
 70
     1
102
RTVSPost2010Prop51ColorIndex
 90
      256
102
RTVSPost2010Prop51ColorRGB
 90
-16777216
102
RTVSPost2010PropOp51
 70
     0
102
RTVSPost2010Prop52
140
1.0
102
RTVSPost2010PropOp52
 70
     0
102
RTVSPost2010Prop53
 90
        2
102
RTVSPost2010PropOp53
 70
     1
102
RTVSPost2010Prop54
  1
strokes_ogs.tif
102
RTVSPost2010PropOp54
 70
     1
102
RTVSPost2010Prop55
280
     0
102
RTVSPost2010PropOp55
 70
     1
102
RTVSPost2010Prop56
140
1.0
102
RTVSPost2010PropOp56
 70
     1
102
RTVSPost2010Prop57
140
1.0
102
RTVSPost2010PropOp57
 70
     1
102
RTVSPropertyOp0
 70
     1
102
RTVSPropertyOp1
 70
     1
102
RTVSPropertyOp2
 70
     1
102
RTVSPropertyOp3
 70
     1
102
RTVSPropertyOp4
 70
     1
102
RTVSPropertyOp5
 70
     1
102
RTVSPropertyOp6
 70
     1
102
RTVSPropertyOp7
 70
     1
102
RTVSPropertyOp8
 70
     1
102
RTVSPropertyOp9
 70
     1
102
RTVSPropertyOp10
 70
     1
102
RTVSPropertyOp11
 70
     1
102
RTVSPropertyOp12
 70
     1
102
RTVSPropertyOp13
 70
     1
102
RTVSPropertyOp14
 70
     1
102
RTVSPropertyOp15
 70
     1
102
RTVSPropertyOp16
 70
     1
102
RTVSPropertyOp17
 70
     1
102
RTVSPropertyOp18
 70
     1
102
RTVSPropertyOp19
 70
     1
102
RTVSPropertyOp20
 70
     1
102
RTVSPropertyOp21
 70
     1
102
RTVSPropertyOp22
 70
     1
102
RTVSPropertyOp23
 70
     1
102
RTVSPropertyOp24
 70
     1
102
RTVSPropertyOp25
 70
     1
102
RTVSPropertyOp26
 70
     1
102
RTVSPropertyOp27
 70
     1
102
RTVSPropertyOp28
 70
     1
102
RTVSPropertyOp29
 70
     1
102
RTVSPropertyOp30
 70
     1
102
RTVSPropertyOp31
 70
     1
102
RTVSPropertyOp32
 70
     1
102
RTVSPropertyOp33
 70
     1
102
RTVSPropertyOp34
 70
     1
102
RTVSPropertyOp35
 70
     1
102
RTVSPropertyOp36
 70
     1
102
RTVSPropertyOp37
 70
     1
102
RTVSPropertyOp38
 70
     1
102
RTVSPropertyOp39
 70
     1
102
RTVSPropertyOp40
 70
     1
102
RTVSPropertyOp41
 70
     1
102
RTVSPropertyOp42
 70
     1
102
RTVSPropertyOp43
 70
     1
102
RTVSPropertyOp44
 70
     1
102
RTVSPropertyOp45
 70
     1
102
RTVSPropertyOp46
 70
     1
102
RTVSPropertyOp47
 70
     1
102
RTVSPropertyOp48
 70
     1
102
RTVSPropertyOp49
 70
     1
102
RTVSPropertyOp50
 70
     1
102
RTVSPropertyOp51
 70
     0
102
RTVSPropertyOp52
 70
     0
102
RTVSPropertyOp53
 70
     1
102
RTVSPropertyOp54
 70
     1
102
RTVSPropertyOp55
 70
     1
102
RTVSPropertyOp56
 70
     1
102
RTVSPropertyOp57
 70
     1
102
RTVSPropertyOp58
 70
     1
102
RTVSPropertyOp59
 70
     1
102
RTVSPropertyOp60
 70
     1
102
RTVSPropertyOp61
 70
     1
102
RTVSPropertyOp62
 70
     1
  0
XRECORD
  5
AD75
102
{ACAD_REACTORS
330
AD74
102
}
330
AD74
100
AcDbXrecord
280
     1
102
RTVSPost2010Prop28
280
     0
102
RTVSPost2010PropOp28
 70
     1
102
RTVSPost2010Prop29
280
     1
102
RTVSPost2010PropOp29
 70
     1
102
RTVSPost2010Prop30
280
     1
102
RTVSPost2010PropOp30
 70
     1
102
RTVSPost2010Prop31
280
     0
102
RTVSPost2010PropOp31
 70
     1
102
RTVSPost2010Prop32
280
     0
102
RTVSPost2010PropOp32
 70
     1
102
RTVSPost2010Prop33
280
     0
102
RTVSPost2010PropOp33
 70
     1
102
RTVSPost2010Prop34
280
     0
102
RTVSPost2010PropOp34
 70
     1
102
RTVSPost2010Prop35
280
     0
102
RTVSPost2010PropOp35
 70
     1
102
RTVSPost2010Prop36
280
     0
102
RTVSPost2010PropOp36
 70
     1
102
RTVSPost2010Prop37
 90
       50
102
RTVSPost2010PropOp37
 70
     1
102
RTVSPost2010Prop38
140
0.0
102
RTVSPost2010PropOp38
 70
     1
102
RTVSPost2010Prop39
140
1.0
102
RTVSPost2010PropOp39
 70
     1
102
RTVSPost2010Prop40
 90
        0
102
RTVSPost2010PropOp40
 70
     1
102
RTVSPost2010Prop41ColorIndex
 90
       18
102
RTVSPost2010Prop41ColorRGB
 90
        0
102
RTVSPost2010PropOp41
 70
     1
102
RTVSPost2010Prop42
 90
       50
102
RTVSPost2010PropOp42
 70
     1
102
RTVSPost2010Prop43
 90
        3
102
RTVSPost2010PropOp43
 70
     1
102
RTVSPost2010Prop44ColorIndex
 90
        5
102
RTVSPost2010Prop44ColorRGB
 90
      255
102
RTVSPost2010PropOp44
 70
     1
102
RTVSPost2010Prop45
280
     0
102
RTVSPost2010PropOp45
 70
     1
102
RTVSPost2010Prop46
 90
       50
102
RTVSPost2010PropOp46
 70
     1
102
RTVSPost2010Prop47
 90
       50
102
RTVSPost2010PropOp47
 70
     1
102
RTVSPost2010Prop48
 90
       50
102
RTVSPost2010PropOp48
 70
     1
102
RTVSPost2010Prop49
280
     0
102
RTVSPost2010PropOp49
 70
     1
102
RTVSPost2010Prop50
 90
       50
102
RTVSPost2010PropOp50
 70
     1
102
RTVSPost2010Prop51ColorIndex
 90
      256
102
RTVSPost2010Prop51ColorRGB
 90
-16777216
102
RTVSPost2010PropOp51
 70
     0
102
RTVSPost2010Prop52
140
1.0
102
RTVSPost2010PropOp52
 70
     0
102
RTVSPost2010Prop53
 90
        2
102
RTVSPost2010PropOp53
 70
     1
102
RTVSPost2010Prop54
  1
strokes_ogs.tif
102
RTVSPost2010PropOp54
 70
     1
102
RTVSPost2010Prop55
280
     0
102
RTVSPost2010PropOp55
 70
     1
102
RTVSPost2010Prop56
140
1.0
102
RTVSPost2010PropOp56
 70
     1
102
RTVSPost2010Prop57
140
1.0
102
RTVSPost2010PropOp57
 70
     1
102
RTVSPropertyOp0
 70
     1
102
RTVSPropertyOp1
 70
     1
102
RTVSPropertyOp2
 70
     1
102
RTVSPropertyOp3
 70
     1
102
RTVSPropertyOp4
 70
     1
102
RTVSPropertyOp5
 70
     1
102
RTVSPropertyOp6
 70
     1
102
RTVSPropertyOp7
 70
     1
102
RTVSPropertyOp8
 70
     1
102
RTVSPropertyOp9
 70
     1
102
RTVSPropertyOp10
 70
     1
102
RTVSPropertyOp11
 70
     1
102
RTVSPropertyOp12
 70
     1
102
RTVSPropertyOp13
 70
     1
102
RTVSPropertyOp14
 70
     1
102
RTVSPropertyOp15
 70
     1
102
RTVSPropertyOp16
 70
     1
102
RTVSPropertyOp17
 70
     1
102
RTVSPropertyOp18
 70
     1
102
RTVSPropertyOp19
 70
     1
102
RTVSPropertyOp20
 70
     1
102
RTVSPropertyOp21
 70
     1
102
RTVSPropertyOp22
 70
     1
102
RTVSPropertyOp23
 70
     1
102
RTVSPropertyOp24
 70
     1
102
RTVSPropertyOp25
 70
     1
102
RTVSPropertyOp26
 70
     1
102
RTVSPropertyOp27
 70
     1
102
RTVSPropertyOp28
 70
     1
102
RTVSPropertyOp29
 70
     1
102
RTVSPropertyOp30
 70
     1
102
RTVSPropertyOp31
 70
     1
102
RTVSPropertyOp32
 70
     1
102
RTVSPropertyOp33
 70
     1
102
RTVSPropertyOp34
 70
     1
102
RTVSPropertyOp35
 70
     1
102
RTVSPropertyOp36
 70
     1
102
RTVSPropertyOp37
 70
     1
102
RTVSPropertyOp38
 70
     1
102
RTVSPropertyOp39
 70
     1
102
RTVSPropertyOp40
 70
     1
102
RTVSPropertyOp41
 70
     1
102
RTVSPropertyOp42
 70
     1
102
RTVSPropertyOp43
 70
     1
102
RTVSPropertyOp44
 70
     1
102
RTVSPropertyOp45
 70
     1
102
RTVSPropertyOp46
 70
     1
102
RTVSPropertyOp47
 70
     1
102
RTVSPropertyOp48
 70
     1
102
RTVSPropertyOp49
 70
     1
102
RTVSPropertyOp50
 70
     1
102
RTVSPropertyOp51
 70
     0
102
RTVSPropertyOp52
 70
     0
102
RTVSPropertyOp53
 70
     1
102
RTVSPropertyOp54
 70
     1
102
RTVSPropertyOp55
 70
     1
102
RTVSPropertyOp56
 70
     1
102
RTVSPropertyOp57
 70
     1
102
RTVSPropertyOp58
 70
     1
102
RTVSPropertyOp59
 70
     1
102
RTVSPropertyOp60
 70
     1
102
RTVSPropertyOp61
 70
     1
102
RTVSPropertyOp62
 70
     1
  0
XRECORD
  5
AD69
102
{ACAD_REACTORS
330
AD68
102
}
330
AD68
100
AcDbXrecord
280
     1
102
RTVSPost2010Prop28
280
     0
102
RTVSPost2010PropOp28
 70
     1
102
RTVSPost2010Prop29
280
     1
102
RTVSPost2010PropOp29
 70
     1
102
RTVSPost2010Prop30
280
     1
102
RTVSPost2010PropOp30
 70
     1
102
RTVSPost2010Prop31
280
     0
102
RTVSPost2010PropOp31
 70
     1
102
RTVSPost2010Prop32
280
     0
102
RTVSPost2010PropOp32
 70
     1
102
RTVSPost2010Prop33
280
     0
102
RTVSPost2010PropOp33
 70
     1
102
RTVSPost2010Prop34
280
     0
102
RTVSPost2010PropOp34
 70
     1
102
RTVSPost2010Prop35
280
     0
102
RTVSPost2010PropOp35
 70
     1
102
RTVSPost2010Prop36
280
     0
102
RTVSPost2010PropOp36
 70
     1
102
RTVSPost2010Prop37
 90
       50
102
RTVSPost2010PropOp37
 70
     1
102
RTVSPost2010Prop38
140
0.0
102
RTVSPost2010PropOp38
 70
     1
102
RTVSPost2010Prop39
140
1.0
102
RTVSPost2010PropOp39
 70
     1
102
RTVSPost2010Prop40
 90
        0
102
RTVSPost2010PropOp40
 70
     1
102
RTVSPost2010Prop41ColorIndex
 90
       18
102
RTVSPost2010Prop41ColorRGB
 90
        0
102
RTVSPost2010PropOp41
 70
     1
102
RTVSPost2010Prop42
 90
       50
102
RTVSPost2010PropOp42
 70
     1
102
RTVSPost2010Prop43
 90
        3
102
RTVSPost2010PropOp43
 70
     1
102
RTVSPost2010Prop44ColorIndex
 90
        5
102
RTVSPost2010Prop44ColorRGB
 90
      255
102
RTVSPost2010PropOp44
 70
     1
102
RTVSPost2010Prop45
280
     0
102
RTVSPost2010PropOp45
 70
     1
102
RTVSPost2010Prop46
 90
       50
102
RTVSPost2010PropOp46
 70
     1
102
RTVSPost2010Prop47
 90
       50
102
RTVSPost2010PropOp47
 70
     1
102
RTVSPost2010Prop48
 90
       50
102
RTVSPost2010PropOp48
 70
     1
102
RTVSPost2010Prop49
280
     0
102
RTVSPost2010PropOp49
 70
     1
102
RTVSPost2010Prop50
 90
       50
102
RTVSPost2010PropOp50
 70
     1
102
RTVSPost2010Prop51ColorIndex
 90
      256
102
RTVSPost2010Prop51ColorRGB
 90
-16777216
102
RTVSPost2010PropOp51
 70
     0
102
RTVSPost2010Prop52
140
1.0
102
RTVSPost2010PropOp52
 70
     0
102
RTVSPost2010Prop53
 90
        2
102
RTVSPost2010PropOp53
 70
     1
102
RTVSPost2010Prop54
  1
strokes_ogs.tif
102
RTVSPost2010PropOp54
 70
     1
102
RTVSPost2010Prop55
280
     0
102
RTVSPost2010PropOp55
 70
     1
102
RTVSPost2010Prop56
140
1.0
102
RTVSPost2010PropOp56
 70
     1
102
RTVSPost2010Prop57
140
1.0
102
RTVSPost2010PropOp57
 70
     1
102
RTVSPropertyOp0
 70
     1
102
RTVSPropertyOp1
 70
     1
102
RTVSPropertyOp2
 70
     1
102
RTVSPropertyOp3
 70
     1
102
RTVSPropertyOp4
 70
     1
102
RTVSPropertyOp5
 70
     1
102
RTVSPropertyOp6
 70
     1
102
RTVSPropertyOp7
 70
     1
102
RTVSPropertyOp8
 70
     1
102
RTVSPropertyOp9
 70
     1
102
RTVSPropertyOp10
 70
     1
102
RTVSPropertyOp11
 70
     1
102
RTVSPropertyOp12
 70
     1
102
RTVSPropertyOp13
 70
     1
102
RTVSPropertyOp14
 70
     1
102
RTVSPropertyOp15
 70
     1
102
RTVSPropertyOp16
 70
     1
102
RTVSPropertyOp17
 70
     1
102
RTVSPropertyOp18
 70
     1
102
RTVSPropertyOp19
 70
     1
102
RTVSPropertyOp20
 70
     1
102
RTVSPropertyOp21
 70
     1
102
RTVSPropertyOp22
 70
     1
102
RTVSPropertyOp23
 70
     1
102
RTVSPropertyOp24
 70
     1
102
RTVSPropertyOp25
 70
     1
102
RTVSPropertyOp26
 70
     1
102
RTVSPropertyOp27
 70
     1
102
RTVSPropertyOp28
 70
     1
102
RTVSPropertyOp29
 70
     1
102
RTVSPropertyOp30
 70
     1
102
RTVSPropertyOp31
 70
     1
102
RTVSPropertyOp32
 70
     1
102
RTVSPropertyOp33
 70
     1
102
RTVSPropertyOp34
 70
     1
102
RTVSPropertyOp35
 70
     1
102
RTVSPropertyOp36
 70
     1
102
RTVSPropertyOp37
 70
     1
102
RTVSPropertyOp38
 70
     1
102
RTVSPropertyOp39
 70
     1
102
RTVSPropertyOp40
 70
     1
102
RTVSPropertyOp41
 70
     1
102
RTVSPropertyOp42
 70
     1
102
RTVSPropertyOp43
 70
     1
102
RTVSPropertyOp44
 70
     1
102
RTVSPropertyOp45
 70
     1
102
RTVSPropertyOp46
 70
     1
102
RTVSPropertyOp47
 70
     1
102
RTVSPropertyOp48
 70
     1
102
RTVSPropertyOp49
 70
     1
102
RTVSPropertyOp50
 70
     1
102
RTVSPropertyOp51
 70
     0
102
RTVSPropertyOp52
 70
     0
102
RTVSPropertyOp53
 70
     1
102
RTVSPropertyOp54
 70
     1
102
RTVSPropertyOp55
 70
     1
102
RTVSPropertyOp56
 70
     1
102
RTVSPropertyOp57
 70
     1
102
RTVSPropertyOp58
 70
     1
102
RTVSPropertyOp59
 70
     1
102
RTVSPropertyOp60
 70
     1
102
RTVSPropertyOp61
 70
     1
102
RTVSPropertyOp62
 70
     1
  0
XRECORD
  5
AD81
102
{ACAD_REACTORS
330
AD80
102
}
330
AD80
100
AcDbXrecord
280
     1
102
RTVSPost2010Prop28
280
     0
102
RTVSPost2010PropOp28
 70
     1
102
RTVSPost2010Prop29
280
     1
102
RTVSPost2010PropOp29
 70
     1
102
RTVSPost2010Prop30
280
     1
102
RTVSPost2010PropOp30
 70
     1
102
RTVSPost2010Prop31
280
     0
102
RTVSPost2010PropOp31
 70
     1
102
RTVSPost2010Prop32
280
     0
102
RTVSPost2010PropOp32
 70
     1
102
RTVSPost2010Prop33
280
     0
102
RTVSPost2010PropOp33
 70
     1
102
RTVSPost2010Prop34
280
     0
102
RTVSPost2010PropOp34
 70
     1
102
RTVSPost2010Prop35
280
     0
102
RTVSPost2010PropOp35
 70
     1
102
RTVSPost2010Prop36
280
     0
102
RTVSPost2010PropOp36
 70
     1
102
RTVSPost2010Prop37
 90
       50
102
RTVSPost2010PropOp37
 70
     1
102
RTVSPost2010Prop38
140
0.0
102
RTVSPost2010PropOp38
 70
     1
102
RTVSPost2010Prop39
140
1.0
102
RTVSPost2010PropOp39
 70
     1
102
RTVSPost2010Prop40
 90
        0
102
RTVSPost2010PropOp40
 70
     1
102
RTVSPost2010Prop41ColorIndex
 90
       18
102
RTVSPost2010Prop41ColorRGB
 90
        0
102
RTVSPost2010PropOp41
 70
     1
102
RTVSPost2010Prop42
 90
       50
102
RTVSPost2010PropOp42
 70
     1
102
RTVSPost2010Prop43
 90
        3
102
RTVSPost2010PropOp43
 70
     1
102
RTVSPost2010Prop44ColorIndex
 90
        5
102
RTVSPost2010Prop44ColorRGB
 90
      255
102
RTVSPost2010PropOp44
 70
     1
102
RTVSPost2010Prop45
280
     0
102
RTVSPost2010PropOp45
 70
     1
102
RTVSPost2010Prop46
 90
       50
102
RTVSPost2010PropOp46
 70
     1
102
RTVSPost2010Prop47
 90
       50
102
RTVSPost2010PropOp47
 70
     1
102
RTVSPost2010Prop48
 90
       50
102
RTVSPost2010PropOp48
 70
     1
102
RTVSPost2010Prop49
280
     0
102
RTVSPost2010PropOp49
 70
     1
102
RTVSPost2010Prop50
 90
       50
102
RTVSPost2010PropOp50
 70
     1
102
RTVSPost2010Prop51ColorIndex
 90
      256
102
RTVSPost2010Prop51ColorRGB
 90
-16777216
102
RTVSPost2010PropOp51
 70
     0
102
RTVSPost2010Prop52
140
1.0
102
RTVSPost2010PropOp52
 70
     0
102
RTVSPost2010Prop53
 90
        2
102
RTVSPost2010PropOp53
 70
     1
102
RTVSPost2010Prop54
  1
strokes_ogs.tif
102
RTVSPost2010PropOp54
 70
     1
102
RTVSPost2010Prop55
280
     0
102
RTVSPost2010PropOp55
 70
     1
102
RTVSPost2010Prop56
140
1.0
102
RTVSPost2010PropOp56
 70
     1
102
RTVSPost2010Prop57
140
1.0
102
RTVSPost2010PropOp57
 70
     1
102
RTVSPropertyOp0
 70
     1
102
RTVSPropertyOp1
 70
     1
102
RTVSPropertyOp2
 70
     1
102
RTVSPropertyOp3
 70
     1
102
RTVSPropertyOp4
 70
     1
102
RTVSPropertyOp5
 70
     1
102
RTVSPropertyOp6
 70
     1
102
RTVSPropertyOp7
 70
     1
102
RTVSPropertyOp8
 70
     1
102
RTVSPropertyOp9
 70
     1
102
RTVSPropertyOp10
 70
     1
102
RTVSPropertyOp11
 70
     1
102
RTVSPropertyOp12
 70
     1
102
RTVSPropertyOp13
 70
     1
102
RTVSPropertyOp14
 70
     1
102
RTVSPropertyOp15
 70
     1
102
RTVSPropertyOp16
 70
     1
102
RTVSPropertyOp17
 70
     1
102
RTVSPropertyOp18
 70
     1
102
RTVSPropertyOp19
 70
     1
102
RTVSPropertyOp20
 70
     1
102
RTVSPropertyOp21
 70
     1
102
RTVSPropertyOp22
 70
     1
102
RTVSPropertyOp23
 70
     1
102
RTVSPropertyOp24
 70
     1
102
RTVSPropertyOp25
 70
     1
102
RTVSPropertyOp26
 70
     1
102
RTVSPropertyOp27
 70
     1
102
RTVSPropertyOp28
 70
     1
102
RTVSPropertyOp29
 70
     1
102
RTVSPropertyOp30
 70
     1
102
RTVSPropertyOp31
 70
     1
102
RTVSPropertyOp32
 70
     1
102
RTVSPropertyOp33
 70
     1
102
RTVSPropertyOp34
 70
     1
102
RTVSPropertyOp35
 70
     1
102
RTVSPropertyOp36
 70
     1
102
RTVSPropertyOp37
 70
     1
102
RTVSPropertyOp38
 70
     1
102
RTVSPropertyOp39
 70
     1
102
RTVSPropertyOp40
 70
     1
102
RTVSPropertyOp41
 70
     1
102
RTVSPropertyOp42
 70
     1
102
RTVSPropertyOp43
 70
     1
102
RTVSPropertyOp44
 70
     1
102
RTVSPropertyOp45
 70
     1
102
RTVSPropertyOp46
 70
     1
102
RTVSPropertyOp47
 70
     1
102
RTVSPropertyOp48
 70
     1
102
RTVSPropertyOp49
 70
     1
102
RTVSPropertyOp50
 70
     1
102
RTVSPropertyOp51
 70
     0
102
RTVSPropertyOp52
 70
     0
102
RTVSPropertyOp53
 70
     1
102
RTVSPropertyOp54
 70
     1
102
RTVSPropertyOp55
 70
     1
102
RTVSPropertyOp56
 70
     1
102
RTVSPropertyOp57
 70
     1
102
RTVSPropertyOp58
 70
     1
102
RTVSPropertyOp59
 70
     1
102
RTVSPropertyOp60
 70
     1
102
RTVSPropertyOp61
 70
     1
102
RTVSPropertyOp62
 70
     1
  0
ENDSEC
  0
EOF
