  0
SECTION
  2
HEADER
  9
$ACADVER
  1
AC1015
  9
$ACADMAINTVER
 70
    20
  9
$DWGCODEPAGE
  3
ANSI_932
  9
$INSBASE
 10
0.0
 20
0.0
 30
0.0
  9
$EXTMIN
 10
10.0
 20
9.999999999999998
 30
0.0
  9
$EXTMAX
 10
539.4316719999998
 20
447.3034489999998
 30
0.0
  9
$LIMMIN
 10
0.0
 20
0.0
  9
$LIMMAX
 10
663.7395339999999
 20
457.578012
  9
$ORTHOMODE
 70
     0
  9
$REGENMODE
 70
     1
  9
$FILLMODE
 70
     1
  9
$QTEXTMODE
 70
     0
  9
$MIRRTEXT
 70
     1
  9
$LTSCALE
 40
20.0
  9
$ATTMODE
 70
     1
  9
$TEXTSIZE
 40
5.0
  9
$TRACEWID
 40
1.0
  9
$TEXTSTYLE
  7
STANDARD
  9
$CLAYER
  8
0
  9
$CELTYPE
  6
BYLAYER
  9
$CECOLOR
 62
   256
  9
$CELTSCALE
 40
1.0
  9
$DISPSILH
 70
     0
  9
$DIMSCALE
 40
1.0
  9
$DIMASZ
 40
3.0
  9
$DIMEXO
 40
1.0
  9
$DIMDLI
 40
10.0
  9
$DIMRND
 40
0.0
  9
$DIMDLE
 40
0.0
  9
$DIMEXE
 40
1.0
  9
$DIMTP
 40
0.0
  9
$DIMTM
 40
0.0
  9
$DIMTXT
 40
3.2
  9
$DIMCEN
 40
0.0
  9
$DIMTSZ
 40
0.0
  9
$DIMTOL
 70
     0
  9
$DIMLIM
 70
     0
  9
$DIMTIH
 70
     0
  9
$DIMTOH
 70
     0
  9
$DIMSE1
 70
     0
  9
$DIMSE2
 70
     0
  9
$DIMTAD
 70
     3
  9
$DIMZIN
 70
     8
  9
$DIMBLK
  1

  9
$DIMASO
 70
     1
  9
$DIMSHO
 70
     1
  9
$DIMPOST
  1

  9
$DIMAPOST
  1

  9
$DIMALT
 70
     0
  9
$DIMALTD
 70
     2
  9
$DIMALTF
 40
25.4
  9
$DIMLFAC
 40
1.0
  9
$DIMTOFL
 70
     1
  9
$DIMTVP
 40
0.0
  9
$DIMTIX
 70
     0
  9
$DIMSOXD
 70
     0
  9
$DIMSAH
 70
     1
  9
$DIMBLK1
  1
OPEN
  9
$DIMBLK2
  1
OPEN
  9
$DIMSTYLE
  2
STANDARD
  9
$DIMCLRD
 70
     0
  9
$DIMCLRE
 70
     0
  9
$DIMCLRT
 70
     0
  9
$DIMTFAC
 40
1.0
  9
$DIMGAP
 40
1.0
  9
$DIMJUST
 70
     0
  9
$DIMSD1
 70
     0
  9
$DIMSD2
 70
     0
  9
$DIMTOLJ
 70
     1
  9
$DIMTZIN
 70
     0
  9
$DIMALTZ
 70
     0
  9
$DIMALTTZ
 70
     0
  9
$DIMUPT
 70
     0
  9
$DIMDEC
 70
     4
  9
$DIMTDEC
 70
     4
  9
$DIMALTU
 70
     2
  9
$DIMALTTD
 70
     2
  9
$DIMTXSTY
  7
STANDARD
  9
$DIMAUNIT
 70
     0
  9
$DIMADEC
 70
     0
  9
$DIMALTRND
 40
0.0
  9
$DIMAZIN
 70
     0
  9
$DIMDSEP
 70
    46
  9
$DIMATFIT
 70
     3
  9
$DIMFRAC
 70
     0
  9
$DIMLDRBLK
  1
OPEN
  9
$DIMLUNIT
 70
     2
  9
$DIMLWD
 70
    -2
  9
$DIMLWE
 70
    -2
  9
$DIMTMOVE
 70
     0
  9
$LUNITS
 70
     2
  9
$LUPREC
 70
     4
  9
$SKETCHINC
 40
1.0
  9
$FILLETRAD
 40
9.0
  9
$AUNITS
 70
     0
  9
$AUPREC
 70
     2
  9
$MENU
  1
.
  9
$ELEVATION
 40
0.0
  9
$PELEVATION
 40
0.0
  9
$THICKNESS
 40
0.0
  9
$LIMCHECK
 70
     0
  9
$CHAMFERA
 40
10.0
  9
$CHAMFERB
 40
10.0
  9
$CHAMFERC
 40
0.0
  9
$CHAMFERD
 40
0.0
  9
$SKPOLY
 70
     0
  9
$TDCREATE
 40
2451301.577189352
  9
$TDUCREATE
 40
2451301.202189352
  9
$TDUPDATE
 40
2457192.687792523
  9
$TDUUPDATE
 40
2457192.312792523
  9
$TDINDWG
 40
0.0000141435
  9
$TDUSRTIMER
 40
0.0000136574
  9
$USRTIMER
 70
     1
  9
$ANGBASE
 50
0.0
  9
$ANGDIR
 70
     0
  9
$PDMODE
 70
     0
  9
$PDSIZE
 40
0.0
  9
$PLINEWID
 40
0.0
  9
$SPLFRAME
 70
     0
  9
$SPLINETYPE
 70
     6
  9
$SPLINESEGS
 70
     8
  9
$HANDSEED
  5
D824
  9
$SURFTAB1
 70
     6
  9
$SURFTAB2
 70
     6
  9
$SURFTYPE
 70
     6
  9
$SURFU
 70
     6
  9
$SURFV
 70
     6
  9
$UCSBASE
  2

  9
$UCSNAME
  2

  9
$UCSORG
 10
0.0
 20
0.0
 30
0.0
  9
$UCSXDIR
 10
1.0
 20
0.0
 30
0.0
  9
$UCSYDIR
 10
0.0
 20
1.0
 30
0.0
  9
$UCSORTHOREF
  2

  9
$UCSORTHOVIEW
 70
     0
  9
$UCSORGTOP
 10
0.0
 20
0.0
 30
0.0
  9
$UCSORGBOTTOM
 10
0.0
 20
0.0
 30
0.0
  9
$UCSORGLEFT
 10
0.0
 20
0.0
 30
0.0
  9
$UCSORGRIGHT
 10
0.0
 20
0.0
 30
0.0
  9
$UCSORGFRONT
 10
0.0
 20
0.0
 30
0.0
  9
$UCSORGBACK
 10
0.0
 20
0.0
 30
0.0
  9
$PUCSBASE
  2

  9
$PUCSNAME
  2

  9
$PUCSORG
 10
0.0
 20
0.0
 30
0.0
  9
$PUCSXDIR
 10
1.0
 20
0.0
 30
0.0
  9
$PUCSYDIR
 10
0.0
 20
1.0
 30
0.0
  9
$PUCSORTHOREF
  2

  9
$PUCSORTHOVIEW
 70
     0
  9
$PUCSORGTOP
 10
0.0
 20
0.0
 30
0.0
  9
$PUCSORGBOTTOM
 10
0.0
 20
0.0
 30
0.0
  9
$PUCSORGLEFT
 10
0.0
 20
0.0
 30
0.0
  9
$PUCSORGRIGHT
 10
0.0
 20
0.0
 30
0.0
  9
$PUCSORGFRONT
 10
0.0
 20
0.0
 30
0.0
  9
$PUCSORGBACK
 10
0.0
 20
0.0
 30
0.0
  9
$USERI1
 70
     0
  9
$USERI2
 70
     0
  9
$USERI3
 70
     0
  9
$USERI4
 70
     0
  9
$USERI5
 70
     0
  9
$USERR1
 40
0.0
  9
$USERR2
 40
0.0
  9
$USERR3
 40
0.0
  9
$USERR4
 40
0.0
  9
$USERR5
 40
0.0
  9
$WORLDVIEW
 70
     1
  9
$SHADEDGE
 70
     3
  9
$SHADEDIF
 70
    70
  9
$TILEMODE
 70
     1
  9
$MAXACTVP
 70
    16
  9
$PINSBASE
 10
0.0
 20
0.0
 30
0.0
  9
$PLIMCHECK
 70
     0
  9
$PEXTMIN
 10
1.000000000000000E+20
 20
1.000000000000000E+20
 30
1.000000000000000E+20
  9
$PEXTMAX
 10
-1.000000000000000E+20
 20
-1.000000000000000E+20
 30
-1.000000000000000E+20
  9
$PLIMMIN
 10
0.0
 20
0.0
  9
$PLIMMAX
 10
420.0
 20
297.0
  9
$UNITMODE
 70
     0
  9
$VISRETAIN
 70
     0
  9
$PLINEGEN
 70
     0
  9
$PSLTSCALE
 70
     0
  9
$TREEDEPTH
 70
  3020
  9
$CMLSTYLE
  2
STANDARD
  9
$CMLJUST
 70
     0
  9
$CMLSCALE
 40
1.0
  9
$PROXYGRAPHICS
 70
     1
  9
$MEASUREMENT
 70
     0
  9
$CELWEIGHT
370
    -1
  9
$ENDCAPS
280
     0
  9
$JOINSTYLE
280
     0
  9
$LWDISPLAY
290
     0
  9
$INSUNITS
 70
     0
  9
$HYPERLINKBASE
  1

  9
$STYLESHEET
  1

  9
$XEDIT
290
     1
  9
$CEPSNTYPE
380
     0
  9
$PSTYLEMODE
290
     1
  9
$FINGERPRINTGUID
  2
{6F2F9A85-BBFD-4424-8F10-BC9A4AE12BD4}
  9
$VERSIONGUID
  2
{2530890E-4C57-4024-8177-58F257EFCB27}
  9
$EXTNAMES
290
     1
  9
$PSVPSCALE
 40
0.0
  9
$OLESTARTUP
290
     0
  0
ENDSEC
  0
SECTION
  2
CLASSES
  0
CLASS
  1
ACDBDICTIONARYWDFLT
  2
AcDbDictionaryWithDefault
  3
ObjectDBX Classes
 90
        0
280
     0
281
     0
  0
CLASS
  1
ACDBPLACEHOLDER
  2
AcDbPlaceHolder
  3
ObjectDBX Classes
 90
        0
280
     0
281
     0
  0
CLASS
  1
LAYOUT
  2
AcDbLayout
  3
ObjectDBX Classes
 90
        0
280
     0
281
     0
  0
CLASS
  1
DICTIONARYVAR
  2
AcDbDictionaryVar
  3
ObjectDBX Classes
 90
        0
280
     0
281
     0
  0
CLASS
  1
MATERIAL
  2
AcDbMaterial
  3
ObjectDBX Classes
 90
     1153
280
     0
281
     0
  0
CLASS
  1
VISUALSTYLE
  2
AcDbVisualStyle
  3
ObjectDBX Classes
 90
     4095
280
     0
281
     0
  0
CLASS
  1
TABLESTYLE
  2
AcDbTableStyle
  3
ObjectDBX Classes
 90
     4095
280
     0
281
     0
  0
CLASS
  1
SCALE
  2
AcDbScale
  3
ObjectDBX Classes
 90
     1153
280
     0
281
     0
  0
CLASS
  1
MLEADERSTYLE
  2
AcDbMLeaderStyle
  3
ACDB_MLEADERSTYLE_CLASS
 90
     4095
280
     0
281
     0
  0
CLASS
  1
ACDBSECTIONVIEWSTYLE
  2
AcDbSectionViewStyle
  3
ObjectDBX Classes
 90
     1025
280
     0
281
     0
  0
CLASS
  1
ACDBDETAILVIEWSTYLE
  2
AcDbDetailViewStyle
  3
ObjectDBX Classes
 90
     1025
280
     0
281
     0
  0
CLASS
  1
CELLSTYLEMAP
  2
AcDbCellStyleMap
  3
ObjectDBX Classes
 90
     1152
280
     0
281
     0
  0
ENDSEC
  0
SECTION
  2
TABLES
  0
TABLE
  2
VPORT
  5
D2BC
330
0
100
AcDbSymbolTable
 70
     1
  0
VPORT
  5
D76D
330
D2BC
100
AcDbSymbolTableRecord
100
AcDbViewportTableRecord
  2
*ACTIVE
 70
     0
 10
0.0
 20
0.0
 11
1.0
 21
1.0
 12
407.1658031404324
 22
228.6493653379245
 13
0.0
 23
0.0
 14
10.0
 24
10.0
 15
10.0
 25
10.0
 16
0.0
 26
0.0
 36
1.0
 17
0.0
 27
0.0
 37
0.0
 40
442.1905737300583
 41
2.35006605019815
 42
50.0
 43
0.0
 44
0.0
 50
0.0
 51
0.0
 71
     0
 72
   100
 73
     1
 74
     0
 75
     0
 76
     0
 77
     0
 78
     0
281
     0
 65
     1
110
0.0
120
0.0
130
0.0
111
1.0
121
0.0
131
0.0
112
0.0
122
1.0
132
0.0
 79
     0
146
0.0
1001
ACAD_NAV_VCDISPLAY
1070
     3
  0
ENDTAB
  0
TABLE
  2
LTYPE
  5
D2B9
330
0
100
AcDbSymbolTable
 70
     4
  0
LTYPE
  5
D2C7
330
D2B9
100
AcDbSymbolTableRecord
100
AcDbLinetypeTableRecord
  2
BYBLOCK
 70
     0
  3

 72
    65
 73
     0
 40
0.0
  0
LTYPE
  5
D2C8
330
D2B9
100
AcDbSymbolTableRecord
100
AcDbLinetypeTableRecord
  2
BYLAYER
 70
     0
  3

 72
    65
 73
     0
 40
0.0
  0
LTYPE
  5
D2C9
330
D2B9
100
AcDbSymbolTableRecord
100
AcDbLinetypeTableRecord
  2
CONTINUOUS
 70
     0
  3
Solid line
 72
    65
 73
     0
 40
0.0
  0
LTYPE
  5
D2D7
330
D2B9
100
AcDbSymbolTableRecord
100
AcDbLinetypeTableRecord
  2
DASHED
 70
     0
  3
__ __ __ __ __ __ __ __ __ __ __ __ __ __ __ __
 72
    65
 73
     2
 40
0.75
 49
0.5
 74
     0
 49
-0.25
 74
     0
  0
LTYPE
  5
D2D8
330
D2B9
100
AcDbSymbolTableRecord
100
AcDbLinetypeTableRecord
  2
CENTER
 70
     0
  3
____ _ ____ _ ____ _ ____ _ ____ _ ____ _ ____ 
 72
    65
 73
     4
 40
2.0
 49
1.25
 74
     0
 49
-0.25
 74
     0
 49
0.25
 74
     0
 49
-0.25
 74
     0
  0
LTYPE
  5
D2D9
330
D2B9
100
AcDbSymbolTableRecord
100
AcDbLinetypeTableRecord
  2
PHANTOM
 70
     0
  3
______  __  __  ______  __  __  ______  __  __ 
 72
    65
 73
     6
 40
2.5
 49
1.25
 74
     0
 49
-0.25
 74
     0
 49
0.25
 74
     0
 49
-0.25
 74
     0
 49
0.25
 74
     0
 49
-0.25
 74
     0
  0
ENDTAB
  0
TABLE
  2
LAYER
  5
D2B6
330
0
100
AcDbSymbolTable
 70
     8
  0
LAYER
  5
D2C4
102
{ACAD_XDICTIONARY
360
D7C8
102
}
330
D2B6
100
AcDbSymbolTableRecord
100
AcDbLayerTableRecord
  2
0
 70
     0
 62
     7
  6
CONTINUOUS
370
    -3
390
D776
  0
LAYER
  5
D2DA
102
{ACAD_XDICTIONARY
360
D7CA
102
}
330
D2B6
100
AcDbSymbolTableRecord
100
AcDbLayerTableRecord
  2
4
 70
     0
 62
     1
  6
CENTER
370
    -3
390
D776
  0
LAYER
  5
D2DB
102
{ACAD_XDICTIONARY
360
D7CC
102
}
330
D2B6
100
AcDbSymbolTableRecord
100
AcDbLayerTableRecord
  2
5
 70
     0
 62
     6
  6
PHANTOM
370
    -3
390
D776
  0
LAYER
  5
D2DC
102
{ACAD_XDICTIONARY
360
D7CE
102
}
330
D2B6
100
AcDbSymbolTableRecord
100
AcDbLayerTableRecord
  2
1
 70
     0
 62
     7
  6
CONTINUOUS
370
    -3
390
D776
  0
LAYER
  5
D2DD
102
{ACAD_XDICTIONARY
360
D7D0
102
}
330
D2B6
100
AcDbSymbolTableRecord
100
AcDbLayerTableRecord
  2
2
 70
     0
 62
     4
  6
CONTINUOUS
370
    -3
390
D776
  0
LAYER
  5
D2DE
102
{ACAD_XDICTIONARY
360
D7D2
102
}
330
D2B6
100
AcDbSymbolTableRecord
100
AcDbLayerTableRecord
  2
3
 70
     0
 62
     2
  6
DASHED
370
    -3
390
D776
  0
LAYER
  5
D2DF
102
{ACAD_XDICTIONARY
360
D7D4
102
}
330
D2B6
100
AcDbSymbolTableRecord
100
AcDbLayerTableRecord
  2
6
 70
     0
 62
     5
  6
CONTINUOUS
370
    -3
390
D776
  0
LAYER
  5
D2E0
102
{ACAD_XDICTIONARY
360
D7D6
102
}
330
D2B6
100
AcDbSymbolTableRecord
100
AcDbLayerTableRecord
  2
7
 70
     0
 62
     3
  6
CONTINUOUS
370
    -3
390
D776
  0
ENDTAB
  0
TABLE
  2
STYLE
  5
D2B7
330
0
100
AcDbSymbolTable
 70
     1
  0
STYLE
  5
D2C5
330
D2B7
100
AcDbSymbolTableRecord
100
AcDbTextStyleTableRecord
  2
STANDARD
 70
     0
 40
0.0
 41
1.0
 50
0.0
 71
     0
 42
5.0
  3
txt
  4

  0
ENDTAB
  0
TABLE
  2
VIEW
  5
D2BA
330
0
100
AcDbSymbolTable
 70
     0
  0
ENDTAB
  0
TABLE
  2
UCS
  5
D2BB
330
0
100
AcDbSymbolTable
 70
     0
  0
ENDTAB
  0
TABLE
  2
APPID
  5
D2BD
330
0
100
AcDbSymbolTable
 70
     3
  0
APPID
  5
D2C6
330
D2BD
100
AcDbSymbolTableRecord
100
AcDbRegAppTableRecord
  2
ACAD
 70
     0
  0
APPID
  5
D7E2
330
D2BD
100
AcDbSymbolTableRecord
100
AcDbRegAppTableRecord
  2
ACAD_NAV_VCDISPLAY
 70
     0
  0
APPID
  5
D81B
330
D2BD
100
AcDbSymbolTableRecord
100
AcDbRegAppTableRecord
  2
ACAD_MLEADERVER
 70
     0
  0
ENDTAB
  0
TABLE
  2
DIMSTYLE
  5
D2BE
330
0
100
AcDbSymbolTable
 70
     1
100
AcDbDimStyleTable
 71
     0
  0
DIMSTYLE
105
D2E2
330
D2BE
100
AcDbSymbolTableRecord
100
AcDbDimStyleTableRecord
  2
STANDARD
 70
     0
 41
3.0
 42
1.0
 43
10.0
 44
1.0
 73
     0
 74
     0
 77
     3
 78
     8
140
3.2
141
0.0
147
1.0
172
     1
173
     1
284
     8
285
     8
286
     8
340
D2C5
  0
ENDTAB
  0
TABLE
  2
BLOCK_RECORD
  5
D2B5
330
0
100
AcDbSymbolTable
 70
     1
  0
BLOCK_RECORD
  5
D2D2
102
{ACAD_XDICTIONARY
360
D770
102
}
330
D2B5
100
AcDbSymbolTableRecord
100
AcDbBlockTableRecord
  2
*MODEL_SPACE
340
D7C4
  0
BLOCK_RECORD
  5
D2CE
102
{ACAD_XDICTIONARY
360
D76E
102
}
330
D2B5
100
AcDbSymbolTableRecord
100
AcDbBlockTableRecord
  2
*PAPER_SPACE
340
D7C5
  0
BLOCK_RECORD
  5
D2EA
330
D2B5
100
AcDbSymbolTableRecord
100
AcDbBlockTableRecord
  2
_OPEN
340
0
  0
ENDTAB
  0
ENDSEC
  0
SECTION
  2
BLOCKS
  0
BLOCK
  5
D2D3
330
D2D2
100
AcDbEntity
  8
0
100
AcDbBlockBegin
  2
*MODEL_SPACE
 70
     0
 10
0.0
 20
0.0
 30
0.0
  3
*MODEL_SPACE
  1

  0
ENDBLK
  5
D2D4
330
D2D2
100
AcDbEntity
  8
0
100
AcDbBlockEnd
  0
BLOCK
  5
D2CF
330
D2CE
100
AcDbEntity
 67
     1
  8
0
100
AcDbBlockBegin
  2
*PAPER_SPACE
 70
     0
 10
0.0
 20
0.0
 30
0.0
  3
*PAPER_SPACE
  1

  0
ENDBLK
  5
D2D0
330
D2CE
100
AcDbEntity
 67
     1
  8
0
100
AcDbBlockEnd
  0
BLOCK
  5
D2EB
330
D2EA
100
AcDbEntity
  8
0
100
AcDbBlockBegin
  2
_OPEN
 70
     0
 10
0.0
 20
0.0
 30
0.0
  3
_OPEN
  1

  0
LINE
  5
D2EC
330
D2EA
100
AcDbEntity
  8
0
  6
ByBlock
 62
     0
100
AcDbLine
 10
-1.0
 20
0.166667
 30
0.0
 11
0.0
 21
0.0
 31
0.0
  0
LINE
  5
D2ED
330
D2EA
100
AcDbEntity
  8
0
  6
ByBlock
 62
     0
100
AcDbLine
 10
0.0
 20
0.0
 30
0.0
 11
-1.0
 21
-0.166667
 31
0.0
  0
LINE
  5
D2EE
330
D2EA
100
AcDbEntity
  8
0
  6
ByBlock
 62
     0
100
AcDbLine
 10
0.0
 20
0.0
 30
0.0
 11
-1.0
 21
0.0
 31
0.0
  0
ENDBLK
  5
D2EF
330
D2EA
100
AcDbEntity
  8
0
100
AcDbBlockEnd
  0
ENDSEC
  0
SECTION
  2
ENTITIES
  0
TEXT
  5
D2F0
330
D2D2
100
AcDbEntity
  8
7
  6
Continuous
100
AcDbText
 10
10.0
 20
18.0
 30
0.0
 40
3.0
  1
TYPE No.207S d=21
100
AcDbText
  0
TEXT
  5
D2F1
330
D2D2
100
AcDbEntity
  8
7
  6
Continuous
100
AcDbText
 10
10.0
 20
26.0
 30
0.0
 40
3.0
  1
CODE No.9182
100
AcDbText
  0
TEXT
  5
D2F2
330
D2D2
100
AcDbEntity
  8
1
  6
Continuous
100
AcDbText
 10
10.0
 20
10.0
 30
0.0
 40
1.399999999999999
  1
LAYER
100
AcDbText
  0
TEXT
  5
D2F3
330
D2D2
100
AcDbEntity
  8
1
  6
Continuous
100
AcDbText
 10
17.97951099999998
 20
10.04873699999998
 30
0.0
 40
1.399999999999999
  1
1
100
AcDbText
  0
TEXT
  5
D2F4
330
D2D2
100
AcDbEntity
  8
7
  6
Continuous
100
AcDbText
 10
29.97951099999999
 20
10.04873699999998
 30
0.0
 40
1.399999999999999
  1
7
100
AcDbText
  0
TEXT
  5
D2F5
330
D2D2
100
AcDbEntity
  8
4
  6
CENTER
100
AcDbText
 10
23.97951099999999
 20
10.04873699999998
 30
0.0
 40
1.399999999999999
  1
4
100
AcDbText
  0
TEXT
  5
D2F6
330
D2D2
100
AcDbEntity
  8
3
  6
DASHED
100
AcDbText
 10
21.979511
 20
10.04873699999998
 30
0.0
 40
1.399999999999999
  1
3
100
AcDbText
  0
TEXT
  5
D2F7
330
D2D2
100
AcDbEntity
  8
2
  6
Continuous
100
AcDbText
 10
19.97951099999999
 20
10.04873699999998
 30
0.0
 40
1.399999999999999
  1
2
100
AcDbText
  0
TEXT
  5
D2F8
330
D2D2
100
AcDbEntity
  8
6
  6
Continuous
100
AcDbText
 10
27.979511
 20
10.04873699999998
 30
0.0
 40
1.399999999999999
  1
6
100
AcDbText
  0
TEXT
  5
D2F9
330
D2D2
100
AcDbEntity
  8
5
  6
PHANTOM
100
AcDbText
 10
25.97951099999999
 20
10.04873699999998
 30
0.0
 40
1.399999999999999
  1
5
100
AcDbText
  0
LINE
  5
D2FA
330
D2D2
100
AcDbEntity
  8
1
  6
Continuous
100
AcDbLine
 10
250.507768
 20
259.144544
 30
0.0
 11
244.853411
 21
258.6456549999999
 31
0.0
  0
ARC
  5
D2FB
330
D2D2
100
AcDbEntity
  8
1
  6
Continuous
100
AcDbCircle
 10
245.117864
 20
264.464311
 30
0.0
 40
7.172999999999999
100
AcDbArc
 50
16.056676
 51
21.632539
  0
LINE
  5
D2FC
330
D2D2
100
AcDbEntity
  8
1
  6
Continuous
100
AcDbLine
 10
309.82296
 20
269.127968
 30
0.0
 11
363.1951599999999
 21
269.127968
 31
0.0
  0
LINE
  5
D2FD
330
D2D2
100
AcDbEntity
  8
1
  6
Continuous
100
AcDbLine
 10
248.8110349999999
 20
269.1289680000001
 30
0.0
 11
200.3610349999999
 21
269.1289680000001
 31
0.0
  0
ARC
  5
D2FE
330
D2D2
100
AcDbEntity
  8
1
  6
Continuous
100
AcDbCircle
 10
248.8110349999999
 20
265.928968
 30
0.0
 40
3.2
100
AcDbArc
 50
21.59414599999999
 51
90.0
  0
LINE
  5
D2FF
330
D2D2
100
AcDbEntity
  8
1
  6
Continuous
100
AcDbLine
 10
251.272135
 20
269.1289569999999
 30
0.0
 11
197.899935
 21
269.1289569999999
 31
0.0
  0
LINE
  5
D300
330
D2D2
100
AcDbEntity
  8
1
  6
Continuous
100
AcDbLine
 10
309.08406
 20
265.927968
 30
0.0
 11
309.08406
 21
228.525321
 31
0.0
  0
LINE
  5
D301
330
D2D2
100
AcDbEntity
  8
1
  6
Continuous
100
AcDbLine
 10
363.93406
 20
265.927968
 30
0.0
 11
363.93406
 21
226.04733
 31
0.0
  0
ARC
  5
D302
330
D2D2
100
AcDbEntity
  8
1
  6
Continuous
100
AcDbCircle
 10
312.2840599999999
 20
265.927968
 30
0.0
 40
3.2
100
AcDbArc
 50
90.0
 51
180.0
  0
ARC
  5
D303
330
D2D2
100
AcDbEntity
  8
1
  6
Continuous
100
AcDbCircle
 10
360.73406
 20
265.927968
 30
0.0
 40
3.2
100
AcDbArc
 50
0.0
 51
90.0
  0
LINE
  5
D304
330
D2D2
100
AcDbEntity
  8
1
  6
Continuous
100
AcDbLine
 10
352.3262599999998
 20
194.9438629999999
 30
0.0
 11
354.9262689999998
 21
194.9438629999999
 31
0.0
  0
LINE
  5
D305
330
D2D2
100
AcDbEntity
  8
1
  6
Continuous
100
AcDbLine
 10
327.962153
 20
259.24496
 30
0.0
 11
345.055966
 21
259.24496
 31
0.0
  0
ARC
  5
D306
330
D2D2
100
AcDbEntity
  8
1
  6
Continuous
100
AcDbCircle
 10
349.6692009999999
 20
226.04733
 30
0.0
 40
40.585141
100
AcDbArc
 50
127.58973
 51
178.2037629999999
  0
ARC
  5
D307
330
D2D2
100
AcDbEntity
  8
1
  6
Continuous
100
AcDbCircle
 10
327.962153
 20
254.2449599999999
 30
0.0
 40
5.0
100
AcDbArc
 50
90.0
 51
127.58973
  0
ARC
  5
D308
330
D2D2
100
AcDbEntity
  8
1
  6
Continuous
100
AcDbCircle
 10
350.9088929999998
 20
227.915635
 30
0.0
 40
39.224834
100
AcDbArc
 50
127.1210199999998
 51
179.538277
  0
ARC
  5
D309
330
D2D2
100
AcDbEntity
  8
1
  6
Continuous
100
AcDbCircle
 10
323.3489189999999
 20
226.04733
 30
0.0
 40
40.585141
100
AcDbArc
 50
4.655269999999998
 51
52.41027
  0
ARC
  5
D30A
330
D2D2
100
AcDbEntity
  8
1
  6
Continuous
100
AcDbCircle
 10
345.055966
 20
254.2449599999999
 30
0.0
 40
5.0
100
AcDbArc
 50
52.41027
 51
90.0
  0
ARC
  5
D30B
330
D2D2
100
AcDbEntity
  8
1
  6
Continuous
100
AcDbCircle
 10
322.1092259999999
 20
227.915635
 30
0.0
 40
39.224834
100
AcDbArc
 50
0.4616360000000002
 51
52.87898000000001
  0
ARC
  5
D30C
330
D2D2
100
AcDbEntity
  8
1
  6
Continuous
100
AcDbCircle
 10
191.5864479999999
 20
206.4441629999998
 30
0.0
 40
50.0
100
AcDbArc
 50
85.14298000000001
 51
154.501583
  0
ARC
  5
D30D
330
D2D2
100
AcDbEntity
  8
1
  6
Continuous
100
AcDbCircle
 10
191.5864479999999
 20
206.4441629999998
 30
0.0
 40
41.0
100
AcDbArc
 50
84.369753
 51
152.057098
  0
ARC
  5
D30E
330
D2D2
100
AcDbEntity
  8
1
  6
Continuous
100
AcDbCircle
 10
336.509069
 20
186.443867
 30
0.0
 40
30.0
100
AcDbArc
 50
256.1134599999999
 51
283.8865399999999
  0
LINE
  5
D30F
330
D2D2
100
AcDbEntity
  8
1
  6
Continuous
100
AcDbLine
 10
325.509069
 20
250.713189
 30
0.0
 11
325.509069
 21
162.1745449999998
 31
0.0
  0
ARC
  5
D310
330
D2D2
100
AcDbEntity
  8
1
  6
Continuous
100
AcDbCircle
 10
336.509069
 20
226.443867
 30
0.0
 40
30.0
100
AcDbArc
 50
76.11346000000001
 51
83.12595700000001
  0
LINE
  5
D311
330
D2D2
100
AcDbEntity
  8
1
  6
Continuous
100
AcDbLine
 10
347.509069
 20
250.713189
 30
0.0
 11
347.509069
 21
162.1745449999998
 31
0.0
  0
LINE
  5
D312
330
D2D2
100
AcDbEntity
  8
1
  6
Continuous
100
AcDbLine
 10
203.380718
 20
264.8758149999998
 30
0.0
 11
203.380718
 21
220.880896
 31
0.0
  0
LINE
  5
D313
330
D2D2
100
AcDbEntity
  8
4
  6
CENTER
100
AcDbLine
 10
133.5864479999999
 20
206.4271629999999
 30
0.0
 11
248.816658
 21
206.4441629999998
 31
0.0
  0
LINE
  5
D314
330
D2D2
100
AcDbEntity
  8
4
  6
CENTER
100
AcDbLine
 10
191.5864479999999
 20
148.3371629999998
 30
0.0
 11
191.5864479999999
 21
264.444163
 31
0.0
  0
LINE
  5
D315
330
D2D2
100
AcDbEntity
  8
4
  6
CENTER
100
AcDbLine
 10
224.586035
 20
235.4709539999999
 30
0.0
 11
224.586035
 21
335.4446299999999
 31
0.0
  0
LINE
  5
D316
330
D2D2
100
AcDbEntity
  8
4
  6
CENTER
100
AcDbLine
 10
257.0110349999998
 20
414.8784489999998
 30
0.0
 11
136.586035
 21
414.8784489999998
 31
0.0
  0
LINE
  5
D317
330
D2D2
100
AcDbEntity
  8
4
  6
CENTER
100
AcDbLine
 10
224.586035
 20
382.4534489999999
 30
0.0
 11
224.586035
 21
447.3034489999998
 31
0.0
  0
LINE
  5
D318
330
D2D2
100
AcDbEntity
  8
4
  6
CENTER
100
AcDbLine
 10
336.5090599999998
 20
335.4436299999999
 30
0.0
 11
336.5090599999998
 21
148.4438669999998
 31
0.0
  0
LINE
  5
D319
330
D2D2
100
AcDbEntity
  8
1
  6
Continuous
100
AcDbLine
 10
320.69186
 20
252.9260029999999
 30
0.0
 11
320.69186
 21
219.4458259999999
 31
0.0
  0
LINE
  5
D31A
330
D2D2
100
AcDbEntity
  8
1
  6
Continuous
100
AcDbLine
 10
352.3262599999998
 20
252.926002
 30
0.0
 11
352.3262599999998
 21
194.9438629999999
 31
0.0
  0
ARC
  5
D31B
330
D2D2
100
AcDbEntity
  8
1
  6
Continuous
100
AcDbCircle
 10
181.4622139999999
 20
254.0366169999999
 30
0.0
 40
14.529548
100
AcDbArc
 50
359.3096679999999
 51
41.61228499999999
  0
LINE
  5
D31C
330
D2D2
100
AcDbEntity
  8
1
  6
Continuous
100
AcDbLine
 10
192.3253129999999
 20
263.685495
 30
0.0
 11
191.5883819999999
 21
266.204001
 31
0.0
  0
ARC
  5
D31D
330
D2D2
100
AcDbEntity
  8
1
  6
Continuous
100
AcDbCircle
 10
183.746176
 20
263.5999749999999
 30
0.0
 40
5.267126
100
AcDbArc
 50
2.768558
 51
15.576486
  0
ARC
  5
D31E
330
D2D2
100
AcDbEntity
  8
1
  6
Continuous
100
AcDbCircle
 10
192.5528429999999
 20
534.547265
 30
0.0
 40
270.861866
100
AcDbArc
 50
269.329835
 51
269.95187
  0
ARC
  5
D31F
330
D2D2
100
AcDbEntity
  8
1
  6
Continuous
100
AcDbCircle
 10
189.391374
 20
264.2695939999999
 30
0.0
 40
0.565705
100
AcDbArc
 50
227.219834
 51
269.329835
  0
ARC
  5
D320
330
D2D2
100
AcDbEntity
  8
1
  6
Continuous
100
AcDbCircle
 10
194.983895
 20
265.1756279999998
 30
0.0
 40
6.166148999999997
100
AcDbArc
 50
174.1216709999999
 51
181.498972
  0
ARC
  5
D321
330
D2D2
100
AcDbEntity
  8
1
  6
Continuous
100
AcDbCircle
 10
189.104413
 20
265.6806889999999
 30
0.0
 40
0.283955
100
AcDbArc
 50
112.4266129999999
 51
153.555477
  0
ARC
  5
D322
330
D2D2
100
AcDbEntity
  8
1
  6
Continuous
100
AcDbCircle
 10
190.4158669999999
 20
262.503052
 30
0.0
 40
3.721582999999998
100
AcDbArc
 50
88.727417
 51
112.4266129999999
  0
ARC
  5
D323
330
D2D2
100
AcDbEntity
  8
1
  6
Continuous
100
AcDbCircle
 10
245.057491
 20
256.332641
 30
0.0
 40
2.322
100
AcDbArc
 50
95.042199
 51
166.6951479999999
  0
ARC
  5
D324
330
D2D2
100
AcDbEntity
  8
1
  6
Continuous
100
AcDbCircle
 10
196.1450389999999
 20
267.4081259999999
 30
0.0
 40
1.189
100
AcDbArc
 50
271.184952
 51
5.074886
  0
ARC
  5
D325
330
D2D2
100
AcDbEntity
  8
1
  6
Continuous
100
AcDbCircle
 10
193.4351679999998
 20
398.419323
 30
0.0
 40
132.2282199999999
100
AcDbArc
 50
268.727417
 51
273.9593529999999
  0
LINE
  5
D326
330
D2D2
100
AcDbEntity
  8
1
  6
Continuous
100
AcDbLine
 10
192.3253129999999
 20
263.685495
 30
0.0
 11
191.5883819999999
 21
266.204001
 31
0.0
  0
ARC
  5
D327
330
D2D2
100
AcDbEntity
  8
1
  6
Continuous
100
AcDbCircle
 10
183.746176
 20
263.5999749999999
 30
0.0
 40
5.267126
100
AcDbArc
 50
2.768558
 51
15.576486
  0
ARC
  5
D328
330
D2D2
100
AcDbEntity
  8
1
  6
Continuous
100
AcDbCircle
 10
192.5528429999999
 20
534.547265
 30
0.0
 40
270.861866
100
AcDbArc
 50
269.329835
 51
269.95187
  0
ARC
  5
D329
330
D2D2
100
AcDbEntity
  8
1
  6
Continuous
100
AcDbCircle
 10
189.391374
 20
264.2695939999999
 30
0.0
 40
0.565705
100
AcDbArc
 50
227.219834
 51
269.329835
  0
ARC
  5
D32A
330
D2D2
100
AcDbEntity
  8
1
  6
Continuous
100
AcDbCircle
 10
194.983895
 20
265.1756279999998
 30
0.0
 40
6.166148999999997
100
AcDbArc
 50
174.1216709999999
 51
181.498972
  0
ARC
  5
D32B
330
D2D2
100
AcDbEntity
  8
1
  6
Continuous
100
AcDbCircle
 10
189.104413
 20
265.6806889999999
 30
0.0
 40
0.283955
100
AcDbArc
 50
112.4266129999999
 51
153.555477
  0
ARC
  5
D32C
330
D2D2
100
AcDbEntity
  8
1
  6
Continuous
100
AcDbCircle
 10
190.4158669999999
 20
262.503052
 30
0.0
 40
3.721582999999998
100
AcDbArc
 50
88.727417
 51
112.4266129999999
  0
ARC
  5
D32D
330
D2D2
100
AcDbEntity
  8
1
  6
Continuous
100
AcDbCircle
 10
200.1180199999998
 20
265.9437549999998
 30
0.0
 40
3.2
100
AcDbArc
 50
90.23407699999998
 51
150.627636
  0
ARC
  5
D32E
330
D2D2
100
AcDbEntity
  8
1
  6
Continuous
100
AcDbCircle
 10
200.1948669999999
 20
266.7600759999999
 30
0.0
 40
2.383999999999999
100
AcDbArc
 50
353.8988339999999
 51
90.23407699999998
  0
ARC
  5
D32F
330
D2D2
100
AcDbEntity
  8
1
  6
Continuous
100
AcDbCircle
 10
342.509069
 20
250.713189
 30
0.0
 40
5.0
100
AcDbArc
 50
0.0
 51
76.11346000000001
  0
ARC
  5
D330
330
D2D2
100
AcDbEntity
  8
1
  6
Continuous
100
AcDbCircle
 10
330.509069
 20
250.713189
 30
0.0
 40
5.0
100
AcDbArc
 50
103.8865399999999
 51
180.0
  0
ARC
  5
D331
330
D2D2
100
AcDbEntity
  8
1
  6
Continuous
100
AcDbCircle
 10
342.509069
 20
162.1745449999998
 30
0.0
 40
5.0
100
AcDbArc
 50
283.8865399999999
 51
0.0
  0
ARC
  5
D332
330
D2D2
100
AcDbEntity
  8
1
  6
Continuous
100
AcDbCircle
 10
330.509069
 20
162.1745449999998
 30
0.0
 40
5.0
100
AcDbArc
 50
180.0
 51
256.1134599999999
  0
LINE
  5
D333
330
D2D2
100
AcDbEntity
  8
4
  6
CENTER
100
AcDbLine
 10
57.121566
 20
335.4266509999998
 30
0.0
 11
57.121566
 21
148.426377
 31
0.0
  0
LINE
  5
D334
330
D2D2
100
AcDbEntity
  8
1
  6
Continuous
100
AcDbLine
 10
68.121566
 20
162.157055
 30
0.0
 11
68.121566
 21
250.6956989999999
 31
0.0
  0
LINE
  5
D335
330
D2D2
100
AcDbEntity
  8
1
  6
Continuous
100
AcDbLine
 10
46.12156599999997
 20
162.157055
 30
0.0
 11
46.12156599999997
 21
250.6956989999999
 31
0.0
  0
LINE
  5
D336
330
D2D2
100
AcDbEntity
  8
4
  6
CENTER
100
AcDbLine
 10
29.971999
 20
206.426377
 30
0.0
 11
91.80438700000001
 21
206.426377
 31
0.0
  0
ARC
  5
D337
330
D2D2
100
AcDbEntity
  8
1
  6
Continuous
100
AcDbCircle
 10
61.25942099999999
 20
210.4439839999999
 30
0.0
 40
19.0
100
AcDbArc
 50
142.818892
 51
165.4165309999999
  0
ARC
  5
D338
330
D2D2
100
AcDbEntity
  8
1
  6
Continuous
100
AcDbCircle
 10
61.25942099999999
 20
202.4087689999999
 30
0.0
 40
19.0
100
AcDbArc
 50
194.583469
 51
217.1811079999999
  0
LINE
  5
D339
330
D2D2
100
AcDbEntity
  8
1
  6
Continuous
100
AcDbLine
 10
42.20434
 20
266.2639919999999
 30
0.0
 11
72.038775
 21
266.2639919999999
 31
0.0
  0
LINE
  5
D33A
330
D2D2
100
AcDbEntity
  8
1
  6
Continuous
100
AcDbLine
 10
30.43546599999999
 20
269.0929779999998
 30
0.0
 11
83.80766599999999
 21
269.0929779999998
 31
0.0
  0
LINE
  5
D33B
330
D2D2
100
AcDbEntity
  8
1
  6
Continuous
100
AcDbLine
 10
42.20434
 20
263.6639919999999
 30
0.0
 11
72.038775
 21
263.6639919999999
 31
0.0
  0
LINE
  5
D33C
330
D2D2
100
AcDbEntity
  8
1
  6
Continuous
100
AcDbLine
 10
38.70434
 20
262.7639919999999
 30
0.0
 11
38.70434
 21
194.926373
 31
0.0
  0
LINE
  5
D33D
330
D2D2
100
AcDbEntity
  8
1
  6
Continuous
100
AcDbLine
 10
41.30434
 20
262.7639919999999
 30
0.0
 11
41.30434
 21
194.926373
 31
0.0
  0
LINE
  5
D33E
330
D2D2
100
AcDbEntity
  8
1
  6
Continuous
100
AcDbLine
 10
29.696566
 20
265.8929779999999
 30
0.0
 11
29.696566
 21
228.506141
 31
0.0
  0
ARC
  5
D33F
330
D2D2
100
AcDbEntity
  8
1
  6
Continuous
100
AcDbCircle
 10
66.162603
 20
228.506141
 30
0.0
 40
36.466037
100
AcDbArc
 50
180.0
 51
209.7374579999999
  0
LINE
  5
D340
330
D2D2
100
AcDbEntity
  8
1
  6
Continuous
100
AcDbLine
 10
42.87156599999997
 20
215.2279969999999
 30
0.0
 11
42.87156599999997
 21
197.624756
 31
0.0
  0
LINE
  5
D341
330
D2D2
100
AcDbEntity
  8
1
  6
Continuous
100
AcDbLine
 10
41.87156599999997
 20
213.9263759999999
 30
0.0
 11
41.87156599999997
 21
198.9263769999998
 31
0.0
  0
LINE
  5
D342
330
D2D2
100
AcDbEntity
  8
1
  6
Continuous
100
AcDbLine
 10
38.70434
 20
194.926373
 30
0.0
 11
41.30434
 21
194.926373
 31
0.0
  0
ARC
  5
D343
330
D2D2
100
AcDbEntity
  8
1
  6
Continuous
100
AcDbCircle
 10
43.81786599999998
 20
199.38672
 30
0.0
 40
2.0
100
AcDbArc
 50
193.3071809999999
 51
241.761033
  0
LINE
  5
D344
330
D2D2
100
AcDbEntity
  8
1
  6
Continuous
100
AcDbLine
 10
41.62156599999997
 20
200.926377
 30
0.0
 11
41.62156599999997
 21
211.9263769999998
 31
0.0
  0
LINE
  5
D345
330
D2D2
100
AcDbEntity
  8
1
  6
Continuous
100
AcDbLine
 10
41.30434
 20
202.426377
 30
0.0
 11
41.62156599999997
 21
202.426377
 31
0.0
  0
LINE
  5
D346
330
D2D2
100
AcDbEntity
  8
1
  6
Continuous
100
AcDbLine
 10
41.62156599999997
 20
200.926377
 30
0.0
 11
41.87156599999997
 21
200.926377
 31
0.0
  0
LINE
  5
D347
330
D2D2
100
AcDbEntity
  8
1
  6
Continuous
100
AcDbLine
 10
41.30434
 20
210.426377
 30
0.0
 11
41.62156599999997
 21
210.426377
 31
0.0
  0
LINE
  5
D348
330
D2D2
100
AcDbEntity
  8
1
  6
Continuous
100
AcDbLine
 10
41.62156599999997
 20
211.9263769999998
 30
0.0
 11
41.87156599999997
 21
211.9263769999998
 31
0.0
  0
ARC
  5
D349
330
D2D2
100
AcDbEntity
  8
1
  6
Continuous
100
AcDbCircle
 10
43.81786599999998
 20
213.4660329999999
 30
0.0
 40
2.0
100
AcDbArc
 50
118.2389669999998
 51
166.6928189999999
  0
ARC
  5
D34A
330
D2D2
100
AcDbEntity
  8
1
  6
Continuous
100
AcDbCircle
 10
32.896566
 20
265.8929779999999
 30
0.0
 40
3.2
100
AcDbArc
 50
90.0
 51
180.0
  0
ARC
  5
D34B
330
D2D2
100
AcDbEntity
  8
1
  6
Continuous
100
AcDbCircle
 10
42.20434
 20
262.7639919999999
 30
0.0
 40
3.5
100
AcDbArc
 50
90.0
 51
178.892845
  0
ARC
  5
D34C
330
D2D2
100
AcDbEntity
  8
1
  6
Continuous
100
AcDbCircle
 10
42.20434
 20
262.7639919999999
 30
0.0
 40
0.9
100
AcDbArc
 50
90.0
 51
180.0
  0
LINE
  5
D34D
330
D2D2
100
AcDbEntity
  8
1
  6
Continuous
100
AcDbLine
 10
75.538775
 20
262.7639919999999
 30
0.0
 11
75.538775
 21
228.728187
 31
0.0
  0
LINE
  5
D34E
330
D2D2
100
AcDbEntity
  8
1
  6
Continuous
100
AcDbLine
 10
72.938775
 20
262.7639919999999
 30
0.0
 11
72.938775
 21
219.427972
 31
0.0
  0
LINE
  5
D34F
330
D2D2
100
AcDbEntity
  8
1
  6
Continuous
100
AcDbLine
 10
84.54656599999998
 20
265.8929779999999
 30
0.0
 11
84.54656599999998
 21
228.9812069999999
 31
0.0
  0
LINE
  5
D350
330
D2D2
100
AcDbEntity
  8
1
  6
Continuous
100
AcDbLine
 10
71.371566
 20
215.2279969999999
 30
0.0
 11
71.371566
 21
197.624756
 31
0.0
  0
LINE
  5
D351
330
D2D2
100
AcDbEntity
  8
1
  6
Continuous
100
AcDbLine
 10
72.371566
 20
213.9263759999999
 30
0.0
 11
72.371566
 21
198.9263769999998
 31
0.0
  0
ARC
  5
D352
330
D2D2
100
AcDbEntity
  8
1
  6
Continuous
100
AcDbCircle
 10
52.98370999999999
 20
202.4087689999999
 30
0.0
 40
19.0
100
AcDbArc
 50
322.818892
 51
345.416531
  0
ARC
  5
D353
330
D2D2
100
AcDbEntity
  8
1
  6
Continuous
100
AcDbCircle
 10
70.42526600000002
 20
199.38672
 30
0.0
 40
2.0
100
AcDbArc
 50
298.2389669999998
 51
346.6928189999999
  0
ARC
  5
D354
330
D2D2
100
AcDbEntity
  8
1
  6
Continuous
100
AcDbCircle
 10
52.98370999999999
 20
210.4439839999999
 30
0.0
 40
19.0
100
AcDbArc
 50
14.583469
 51
37.181108
  0
ARC
  5
D355
330
D2D2
100
AcDbEntity
  8
1
  6
Continuous
100
AcDbCircle
 10
70.42526600000002
 20
213.4660329999999
 30
0.0
 40
2.0
100
AcDbArc
 50
13.30718099999998
 51
61.761033
  0
ARC
  5
D356
330
D2D2
100
AcDbEntity
  8
1
  6
Continuous
100
AcDbCircle
 10
48.080566
 20
228.507535
 30
0.0
 40
36.466
100
AcDbArc
 50
337.0208149999999
 51
348.863824
  0
ARC
  5
D357
330
D2D2
100
AcDbEntity
  8
1
  6
Continuous
100
AcDbCircle
 10
72.038775
 20
262.7639919999999
 30
0.0
 40
3.5
100
AcDbArc
 50
0.0
 51
90.0
  0
ARC
  5
D358
330
D2D2
100
AcDbEntity
  8
1
  6
Continuous
100
AcDbCircle
 10
72.038775
 20
262.7639919999999
 30
0.0
 40
0.9
100
AcDbArc
 50
0.0
 51
90.0
  0
ARC
  5
D359
330
D2D2
100
AcDbEntity
  8
1
  6
Continuous
100
AcDbCircle
 10
81.34656600000003
 20
265.8929779999999
 30
0.0
 40
3.2
100
AcDbArc
 50
0.0
 51
90.0
  0
LINE
  5
D35A
330
D2D2
100
AcDbEntity
  8
1
  6
Continuous
100
AcDbLine
 10
47.521566
 20
256.210227
 30
0.0
 11
53.526809
 21
256.210227
 31
0.0
  0
LINE
  5
D35B
330
D2D2
100
AcDbEntity
  8
1
  6
Continuous
100
AcDbLine
 10
47.521566
 20
256.210227
 30
0.0
 11
47.521566
 21
258.2102269999999
 31
0.0
  0
LINE
  5
D35C
330
D2D2
100
AcDbEntity
  8
1
  6
Continuous
100
AcDbLine
 10
66.721566
 20
256.210227
 30
0.0
 11
60.716323
 21
256.210227
 31
0.0
  0
LINE
  5
D35D
330
D2D2
100
AcDbEntity
  8
1
  6
Continuous
100
AcDbLine
 10
61.221566
 20
257.810227
 30
0.0
 11
63.83974699999999
 21
256.210227
 31
0.0
  0
LINE
  5
D35E
330
D2D2
100
AcDbEntity
  8
1
  6
Continuous
100
AcDbLine
 10
61.221566
 20
257.810227
 30
0.0
 11
60.458024
 21
256.760357
 31
0.0
  0
LINE
  5
D35F
330
D2D2
100
AcDbEntity
  8
1
  6
Continuous
100
AcDbLine
 10
66.721566
 20
256.210227
 30
0.0
 11
66.721566
 21
258.2102269999999
 31
0.0
  0
LINE
  5
D360
330
D2D2
100
AcDbEntity
  8
1
  6
Continuous
100
AcDbLine
 10
53.02156599999999
 20
257.810227
 30
0.0
 11
50.403384
 21
256.210227
 31
0.0
  0
LINE
  5
D361
330
D2D2
100
AcDbEntity
  8
1
  6
Continuous
100
AcDbLine
 10
53.02156599999999
 20
257.810227
 30
0.0
 11
53.78510699999999
 21
256.760357
 31
0.0
  0
LINE
  5
D362
330
D2D2
100
AcDbEntity
  8
1
  6
Continuous
100
AcDbLine
 10
71.316565
 20
258.2102269999999
 30
0.0
 11
42.92656599999999
 21
258.2102269999999
 31
0.0
  0
ARC
  5
D363
330
D2D2
100
AcDbEntity
  8
1
  6
Continuous
100
AcDbCircle
 10
71.641402
 20
262.264833
 30
0.0
 40
4.031502999999998
100
AcDbArc
 50
278.1363819999999
 51
287.7668209999999
  0
ARC
  5
D364
330
D2D2
100
AcDbEntity
  8
1
  6
Continuous
100
AcDbCircle
 10
71.316565
 20
264.536916
 30
0.0
 40
6.326689
100
AcDbArc
 50
270.0
 51
278.1363819999999
  0
LINE
  5
D365
330
D2D2
100
AcDbEntity
  8
1
  6
Continuous
100
AcDbLine
 10
72.938775
 20
261.450284
 30
0.0
 11
41.30434
 21
261.450284
 31
0.0
  0
LINE
  5
D366
330
D2D2
100
AcDbEntity
  8
1
  6
Continuous
100
AcDbLine
 10
72.938775
 20
262.659718
 30
0.0
 11
41.30434
 21
262.659718
 31
0.0
  0
ARC
  5
D367
330
D2D2
100
AcDbEntity
  8
1
  6
Continuous
100
AcDbCircle
 10
42.60172899999999
 20
262.264833
 30
0.0
 40
4.031502999999998
100
AcDbArc
 50
252.2331789999999
 51
261.8636179999999
  0
ARC
  5
D368
330
D2D2
100
AcDbEntity
  8
1
  6
Continuous
100
AcDbCircle
 10
42.92656599999999
 20
264.536916
 30
0.0
 40
6.326689
100
AcDbArc
 50
261.8636179999999
 51
270.0
  0
LINE
  5
D369
330
D2D2
100
AcDbEntity
  8
1
  6
Continuous
100
AcDbLine
 10
71.91403000000002
 20
262.659718
 30
0.0
 11
70.909756
 21
263.6639919999999
 31
0.0
  0
LINE
  5
D36A
330
D2D2
100
AcDbEntity
  8
1
  6
Continuous
100
AcDbLine
 10
49.286613
 20
262.659718
 30
0.0
 11
48.282339
 21
263.6639919999999
 31
0.0
  0
LINE
  5
D36B
330
D2D2
100
AcDbEntity
  8
1
  6
Continuous
100
AcDbLine
 10
48.69227999999999
 20
262.659718
 30
0.0
 11
49.696553
 21
263.6639919999999
 31
0.0
  0
LINE
  5
D36C
330
D2D2
100
AcDbEntity
  8
1
  6
Continuous
100
AcDbLine
 10
43.03542499999998
 20
262.659718
 30
0.0
 11
44.03969899999998
 21
263.6639919999999
 31
0.0
  0
LINE
  5
D36D
330
D2D2
100
AcDbEntity
  8
1
  6
Continuous
100
AcDbLine
 10
41.560075
 20
263.3151879999999
 30
0.0
 11
42.21554499999998
 21
262.659718
 31
0.0
  0
LINE
  5
D36E
330
D2D2
100
AcDbEntity
  8
1
  6
Continuous
100
AcDbLine
 10
43.629758
 20
262.659718
 30
0.0
 11
42.625485
 21
263.6639919999999
 31
0.0
  0
LINE
  5
D36F
330
D2D2
100
AcDbEntity
  8
1
  6
Continuous
100
AcDbLine
 10
41.621212
 20
262.659718
 30
0.0
 11
42.625485
 21
263.6639919999999
 31
0.0
  0
LINE
  5
D370
330
D2D2
100
AcDbEntity
  8
1
  6
Continuous
100
AcDbLine
 10
47.278066
 20
262.659718
 30
0.0
 11
48.282339
 21
263.6639919999999
 31
0.0
  0
LINE
  5
D371
330
D2D2
100
AcDbEntity
  8
1
  6
Continuous
100
AcDbLine
 10
45.04397199999998
 20
262.659718
 30
0.0
 11
44.03969899999998
 21
263.6639919999999
 31
0.0
  0
LINE
  5
D372
330
D2D2
100
AcDbEntity
  8
1
  6
Continuous
100
AcDbLine
 10
46.458186
 20
262.659718
 30
0.0
 11
45.453912
 21
263.6639919999999
 31
0.0
  0
LINE
  5
D373
330
D2D2
100
AcDbEntity
  8
1
  6
Continuous
100
AcDbLine
 10
47.872399
 20
262.659718
 30
0.0
 11
46.86812599999998
 21
263.6639919999999
 31
0.0
  0
LINE
  5
D374
330
D2D2
100
AcDbEntity
  8
1
  6
Continuous
100
AcDbLine
 10
44.449639
 20
262.659718
 30
0.0
 11
45.453912
 21
263.6639919999999
 31
0.0
  0
LINE
  5
D375
330
D2D2
100
AcDbEntity
  8
1
  6
Continuous
100
AcDbLine
 10
45.86385299999998
 20
262.659718
 30
0.0
 11
46.86812599999998
 21
263.6639919999999
 31
0.0
  0
LINE
  5
D376
330
D2D2
100
AcDbEntity
  8
1
  6
Continuous
100
AcDbLine
 10
69.08560300000001
 20
262.659718
 30
0.0
 11
68.081329
 21
263.6639919999999
 31
0.0
  0
LINE
  5
D377
330
D2D2
100
AcDbEntity
  8
1
  6
Continuous
100
AcDbLine
 10
68.49127
 20
262.659718
 30
0.0
 11
69.49554300000001
 21
263.6639919999999
 31
0.0
  0
LINE
  5
D378
330
D2D2
100
AcDbEntity
  8
1
  6
Continuous
100
AcDbLine
 10
60.60032099999999
 20
262.659718
 30
0.0
 11
59.59604800000001
 21
263.6639919999999
 31
0.0
  0
LINE
  5
D379
330
D2D2
100
AcDbEntity
  8
1
  6
Continuous
100
AcDbLine
 10
60.005988
 20
262.659718
 30
0.0
 11
61.010261
 21
263.6639919999999
 31
0.0
  0
LINE
  5
D37A
330
D2D2
100
AcDbEntity
  8
1
  6
Continuous
100
AcDbLine
 10
59.18610799999999
 20
262.659718
 30
0.0
 11
58.18183399999998
 21
263.6639919999999
 31
0.0
  0
LINE
  5
D37B
330
D2D2
100
AcDbEntity
  8
1
  6
Continuous
100
AcDbLine
 10
58.591775
 20
262.659718
 30
0.0
 11
59.59604800000001
 21
263.6639919999999
 31
0.0
  0
LINE
  5
D37C
330
D2D2
100
AcDbEntity
  8
1
  6
Continuous
100
AcDbLine
 10
64.842962
 20
262.659718
 30
0.0
 11
63.838689
 21
263.6639919999999
 31
0.0
  0
LINE
  5
D37D
330
D2D2
100
AcDbEntity
  8
1
  6
Continuous
100
AcDbLine
 10
64.24862899999999
 20
262.659718
 30
0.0
 11
65.252902
 21
263.6639919999999
 31
0.0
  0
LINE
  5
D37E
330
D2D2
100
AcDbEntity
  8
1
  6
Continuous
100
AcDbLine
 10
63.428748
 20
262.659718
 30
0.0
 11
62.424475
 21
263.6639919999999
 31
0.0
  0
LINE
  5
D37F
330
D2D2
100
AcDbEntity
  8
1
  6
Continuous
100
AcDbLine
 10
62.01453499999999
 20
262.659718
 30
0.0
 11
61.010261
 21
263.6639919999999
 31
0.0
  0
LINE
  5
D380
330
D2D2
100
AcDbEntity
  8
1
  6
Continuous
100
AcDbLine
 10
62.834415
 20
262.659718
 30
0.0
 11
63.838689
 21
263.6639919999999
 31
0.0
  0
LINE
  5
D381
330
D2D2
100
AcDbEntity
  8
1
  6
Continuous
100
AcDbLine
 10
61.42020200000001
 20
262.659718
 30
0.0
 11
62.424475
 21
263.6639919999999
 31
0.0
  0
LINE
  5
D382
330
D2D2
100
AcDbEntity
  8
1
  6
Continuous
100
AcDbLine
 10
67.671389
 20
262.659718
 30
0.0
 11
66.66711600000001
 21
263.6639919999999
 31
0.0
  0
LINE
  5
D383
330
D2D2
100
AcDbEntity
  8
1
  6
Continuous
100
AcDbLine
 10
66.257175
 20
262.659718
 30
0.0
 11
65.252902
 21
263.6639919999999
 31
0.0
  0
LINE
  5
D384
330
D2D2
100
AcDbEntity
  8
1
  6
Continuous
100
AcDbLine
 10
67.077056
 20
262.659718
 30
0.0
 11
68.081329
 21
263.6639919999999
 31
0.0
  0
LINE
  5
D385
330
D2D2
100
AcDbEntity
  8
1
  6
Continuous
100
AcDbLine
 10
65.662842
 20
262.659718
 30
0.0
 11
66.66711600000001
 21
263.6639919999999
 31
0.0
  0
LINE
  5
D386
330
D2D2
100
AcDbEntity
  8
1
  6
Continuous
100
AcDbLine
 10
70.49981600000002
 20
262.659718
 30
0.0
 11
69.49554300000001
 21
263.6639919999999
 31
0.0
  0
LINE
  5
D387
330
D2D2
100
AcDbEntity
  8
1
  6
Continuous
100
AcDbLine
 10
69.90548299999999
 20
262.659718
 30
0.0
 11
70.909756
 21
263.6639919999999
 31
0.0
  0
LINE
  5
D388
330
D2D2
100
AcDbEntity
  8
1
  6
Continuous
100
AcDbLine
 10
52.11504
 20
262.659718
 30
0.0
 11
51.11076699999999
 21
263.6639919999999
 31
0.0
  0
LINE
  5
D389
330
D2D2
100
AcDbEntity
  8
1
  6
Continuous
100
AcDbLine
 10
51.520707
 20
262.659718
 30
0.0
 11
52.52498
 21
263.6639919999999
 31
0.0
  0
LINE
  5
D38A
330
D2D2
100
AcDbEntity
  8
1
  6
Continuous
100
AcDbLine
 10
50.700826
 20
262.659718
 30
0.0
 11
49.696553
 21
263.6639919999999
 31
0.0
  0
LINE
  5
D38B
330
D2D2
100
AcDbEntity
  8
1
  6
Continuous
100
AcDbLine
 10
50.106493
 20
262.659718
 30
0.0
 11
51.11076699999999
 21
263.6639919999999
 31
0.0
  0
LINE
  5
D38C
330
D2D2
100
AcDbEntity
  8
1
  6
Continuous
100
AcDbLine
 10
56.35768
 20
262.659718
 30
0.0
 11
55.35340699999999
 21
263.6639919999999
 31
0.0
  0
LINE
  5
D38D
330
D2D2
100
AcDbEntity
  8
1
  6
Continuous
100
AcDbLine
 10
55.763347
 20
262.659718
 30
0.0
 11
56.767621
 21
263.6639919999999
 31
0.0
  0
LINE
  5
D38E
330
D2D2
100
AcDbEntity
  8
1
  6
Continuous
100
AcDbLine
 10
54.94346700000001
 20
262.659718
 30
0.0
 11
53.93919399999999
 21
263.6639919999999
 31
0.0
  0
LINE
  5
D38F
330
D2D2
100
AcDbEntity
  8
1
  6
Continuous
100
AcDbLine
 10
53.52925299999998
 20
262.659718
 30
0.0
 11
52.52498
 21
263.6639919999999
 31
0.0
  0
LINE
  5
D390
330
D2D2
100
AcDbEntity
  8
1
  6
Continuous
100
AcDbLine
 10
54.349134
 20
262.659718
 30
0.0
 11
55.35340699999999
 21
263.6639919999999
 31
0.0
  0
LINE
  5
D391
330
D2D2
100
AcDbEntity
  8
1
  6
Continuous
100
AcDbLine
 10
52.93492
 20
262.659718
 30
0.0
 11
53.93919399999999
 21
263.6639919999999
 31
0.0
  0
LINE
  5
D392
330
D2D2
100
AcDbEntity
  8
1
  6
Continuous
100
AcDbLine
 10
57.77189400000001
 20
262.659718
 30
0.0
 11
56.767621
 21
263.6639919999999
 31
0.0
  0
LINE
  5
D393
330
D2D2
100
AcDbEntity
  8
1
  6
Continuous
100
AcDbLine
 10
57.17756099999999
 20
262.659718
 30
0.0
 11
58.18183399999998
 21
263.6639919999999
 31
0.0
  0
LINE
  5
D394
330
D2D2
100
AcDbEntity
  8
1
  6
Continuous
100
AcDbLine
 10
72.484261
 20
263.5037
 30
0.0
 11
72.71129999999998
 21
263.2766619999998
 31
0.0
  0
LINE
  5
D395
330
D2D2
100
AcDbEntity
  8
1
  6
Continuous
100
AcDbLine
 10
71.31969699999998
 20
262.659718
 30
0.0
 11
72.272261
 21
263.612282
 31
0.0
  0
LINE
  5
D396
330
D2D2
100
AcDbEntity
  8
1
  6
Continuous
100
AcDbLine
 10
72.73390999999998
 20
262.659718
 30
0.0
 11
72.870993
 21
262.7968009999999
 31
0.0
  0
ARC
  5
D397
330
D2D2
100
AcDbEntity
  8
1
  6
Continuous
100
AcDbCircle
 10
57.121566
 20
186.4263769999998
 30
0.0
 40
30.0
100
AcDbArc
 50
256.1134599999999
 51
283.8865399999999
  0
ARC
  5
D398
330
D2D2
100
AcDbEntity
  8
1
  6
Continuous
100
AcDbCircle
 10
63.121566
 20
162.157055
 30
0.0
 40
5.0
100
AcDbArc
 50
283.8865399999999
 51
0.0
  0
ARC
  5
D399
330
D2D2
100
AcDbEntity
  8
1
  6
Continuous
100
AcDbCircle
 10
51.12156599999998
 20
162.157055
 30
0.0
 40
5.0
100
AcDbArc
 50
180.0
 51
256.1134599999999
  0
ARC
  5
D39A
330
D2D2
100
AcDbEntity
  8
1
  6
Continuous
100
AcDbCircle
 10
57.121566
 20
226.4263769999999
 30
0.0
 40
30.0
100
AcDbArc
 50
76.11346000000001
 51
103.8865399999999
  0
ARC
  5
D39B
330
D2D2
100
AcDbEntity
  8
1
  6
Continuous
100
AcDbCircle
 10
51.12156599999998
 20
250.6956989999999
 30
0.0
 40
5.0
100
AcDbArc
 50
103.8865399999999
 51
180.0
  0
ARC
  5
D39C
330
D2D2
100
AcDbEntity
  8
1
  6
Continuous
100
AcDbCircle
 10
63.121566
 20
250.6956989999999
 30
0.0
 40
5.0
100
AcDbArc
 50
0.0
 51
76.11346000000001
  0
ARC
  5
D39D
330
D2D2
100
AcDbEntity
  8
1
  6
Continuous
100
AcDbCircle
 10
150.31378
 20
279.2626349999998
 30
0.0
 40
95.157
100
AcDbArc
 50
312.234302
 51
346.3948139999998
  0
ARC
  5
D39E
330
D2D2
100
AcDbEntity
  8
1
  6
Continuous
100
AcDbCircle
 10
123.324982
 20
254.737122
 30
0.0
 40
72.67100000000002
100
AcDbArc
 50
332.9616279999999
 51
359.3096679999999
  0
LINE
  5
D39F
330
D2D2
100
AcDbEntity
  8
1
  6
Continuous
100
AcDbLine
 10
252.0110349999999
 20
259.24496
 30
0.0
 11
252.0110349999999
 21
266.448277
 31
0.0
  0
LINE
  5
D3A0
330
D2D2
100
AcDbEntity
  8
1
  6
Continuous
100
AcDbLine
 10
250.507768
 20
259.144544
 30
0.0
 11
252.0110349999999
 21
259.24496
 31
0.0
  0
LINE
  5
D3A1
330
D2D2
100
AcDbEntity
  8
1
  6
Continuous
100
AcDbLine
 10
185.5864479999999
 20
209.908265
 30
0.0
 11
185.5864479999999
 21
202.980061
 31
0.0
  0
LINE
  5
D3A2
330
D2D2
100
AcDbEntity
  8
1
  6
Continuous
100
AcDbLine
 10
197.586448
 20
209.908265
 30
0.0
 11
197.586448
 21
202.980061
 31
0.0
  0
CIRCLE
  5
D3A3
330
D2D2
100
AcDbEntity
  8
1
  6
Continuous
100
AcDbCircle
 10
191.5864479999999
 20
206.4441629999998
 30
0.0
 40
6.0
  0
LINE
  5
D3A4
330
D2D2
100
AcDbEntity
  8
1
  6
Continuous
100
AcDbLine
 10
191.5864479999999
 20
199.51596
 30
0.0
 11
197.586448
 21
202.980061
 31
0.0
  0
LINE
  5
D3A5
330
D2D2
100
AcDbEntity
  8
1
  6
Continuous
100
AcDbLine
 10
191.5864479999999
 20
199.51596
 30
0.0
 11
185.5864479999999
 21
202.980061
 31
0.0
  0
LINE
  5
D3A6
330
D2D2
100
AcDbEntity
  8
1
  6
Continuous
100
AcDbLine
 10
197.586448
 20
209.908265
 30
0.0
 11
191.5864479999999
 21
213.372366
 31
0.0
  0
LINE
  5
D3A7
330
D2D2
100
AcDbEntity
  8
1
  6
Continuous
100
AcDbLine
 10
185.5864479999999
 20
209.908265
 30
0.0
 11
191.5864479999999
 21
213.372366
 31
0.0
  0
CIRCLE
  5
D3A8
330
D2D2
100
AcDbEntity
  8
1
  6
Continuous
100
AcDbCircle
 10
191.5864479999999
 20
206.4441629999998
 30
0.0
 40
4.0
  0
CIRCLE
  5
D3A9
330
D2D2
100
AcDbEntity
  8
2
  6
Continuous
100
AcDbCircle
 10
191.5864479999999
 20
206.4441629999998
 30
0.0
 40
3.3235
  0
LINE
  5
D3AA
330
D2D2
100
AcDbEntity
  8
4
  6
CENTER
100
AcDbLine
 10
257.0110349999998
 20
71.975465
 30
0.0
 11
136.586035
 21
71.975465
 31
0.0
  0
LINE
  5
D3AB
330
D2D2
100
AcDbEntity
  8
4
  6
CENTER
100
AcDbLine
 10
224.586035
 20
104.4004649999999
 30
0.0
 11
224.586035
 21
39.550465
 31
0.0
  0
LINE
  5
D3AC
330
D2D2
100
AcDbEntity
  8
1
  6
Continuous
100
AcDbLine
 10
340.609061
 20
257.828217
 30
0.0
 11
343.2272419999998
 21
256.2282169999999
 31
0.0
  0
LINE
  5
D3AD
330
D2D2
100
AcDbEntity
  8
1
  6
Continuous
100
AcDbLine
 10
340.609061
 20
257.828217
 30
0.0
 11
339.8455189999999
 21
256.778347
 31
0.0
  0
LINE
  5
D3AE
330
D2D2
100
AcDbEntity
  8
1
  6
Continuous
100
AcDbLine
 10
346.1090609999998
 20
256.2282169999999
 30
0.0
 11
346.1090609999998
 21
258.2282169999999
 31
0.0
  0
LINE
  5
D3AF
330
D2D2
100
AcDbEntity
  8
1
  6
Continuous
100
AcDbLine
 10
326.909061
 20
256.2282169999999
 30
0.0
 11
326.909061
 21
258.2282169999999
 31
0.0
  0
LINE
  5
D3B0
330
D2D2
100
AcDbEntity
  8
1
  6
Continuous
100
AcDbLine
 10
332.409061
 20
257.828217
 30
0.0
 11
329.790879
 21
256.2282169999999
 31
0.0
  0
LINE
  5
D3B1
330
D2D2
100
AcDbEntity
  8
1
  6
Continuous
100
AcDbLine
 10
332.409061
 20
257.828217
 30
0.0
 11
333.172602
 21
256.778347
 31
0.0
  0
LINE
  5
D3B2
330
D2D2
100
AcDbEntity
  8
1
  6
Continuous
100
AcDbLine
 10
326.909061
 20
256.2282169999999
 30
0.0
 11
346.1090609999998
 21
256.2282169999999
 31
0.0
  0
LINE
  5
D3B3
330
D2D2
100
AcDbEntity
  8
1
  6
Continuous
100
AcDbLine
 10
347.0037029999998
 20
258.2282169999999
 30
0.0
 11
326.0144159999999
 21
258.2282169999999
 31
0.0
  0
ARC
  5
D3B4
330
D2D2
100
AcDbEntity
  8
1
  6
Continuous
100
AcDbCircle
 10
336.509069
 20
226.443867
 30
0.0
 40
30.0
100
AcDbArc
 50
96.87404299999998
 51
103.8865399999999
  0
LINE
  5
D3B5
330
D2D2
100
AcDbEntity
  8
4
  6
CENTER
100
AcDbLine
 10
191.586035
 20
106.658283
 30
0.0
 11
191.586035
 21
43.55823899999999
 31
0.0
  0
LINE
  5
D3B6
330
D2D2
100
AcDbEntity
  8
4
  6
CENTER
100
AcDbLine
 10
304.626286
 20
206.4441629999998
 30
0.0
 11
364.926286
 21
206.4441629999998
 31
0.0
  0
LINE
  5
D3B7
330
D2D2
100
AcDbEntity
  8
1
  6
Continuous
100
AcDbLine
 10
352.0090599999999
 20
200.9441629999999
 30
0.0
 11
352.0090599999999
 21
211.9441629999998
 31
0.0
  0
LINE
  5
D3B8
330
D2D2
100
AcDbEntity
  8
1
  6
Continuous
100
AcDbLine
 10
351.7590599999999
 20
213.9441629999998
 30
0.0
 11
351.7590599999999
 21
198.9441629999998
 31
0.0
  0
LINE
  5
D3B9
330
D2D2
100
AcDbEntity
  8
1
  6
Continuous
100
AcDbLine
 10
350.7590599999999
 20
215.2457829999999
 30
0.0
 11
350.7590599999999
 21
197.6425419999999
 31
0.0
  0
LINE
  5
D3BA
330
D2D2
100
AcDbEntity
  8
1
  6
Continuous
100
AcDbLine
 10
352.0090599999999
 20
200.9441629999999
 30
0.0
 11
351.7590599999999
 21
200.9441629999999
 31
0.0
  0
LINE
  5
D3BB
330
D2D2
100
AcDbEntity
  8
1
  6
Continuous
100
AcDbLine
 10
352.0090599999999
 20
202.4441629999998
 30
0.0
 11
352.3262689999999
 21
202.4441629999998
 31
0.0
  0
ARC
  5
D3BC
330
D2D2
100
AcDbEntity
  8
1
  6
Continuous
100
AcDbCircle
 10
349.8127600000001
 20
199.4045059999999
 30
0.0
 40
2.0
100
AcDbArc
 50
298.2389669999998
 51
346.6928189999999
  0
ARC
  5
D3BD
330
D2D2
100
AcDbEntity
  8
1
  6
Continuous
100
AcDbCircle
 10
332.3712039999999
 20
202.4265549999999
 30
0.0
 40
19.0
100
AcDbArc
 50
322.818892
 51
345.416531
  0
ARC
  5
D3BE
330
D2D2
100
AcDbEntity
  8
1
  6
Continuous
100
AcDbCircle
 10
349.8127600000001
 20
213.4838189999999
 30
0.0
 40
2.0
100
AcDbArc
 50
13.30718099999998
 51
61.761033
  0
ARC
  5
D3BF
330
D2D2
100
AcDbEntity
  8
1
  6
Continuous
100
AcDbCircle
 10
332.3712039999999
 20
210.46177
 30
0.0
 40
19.0
100
AcDbArc
 50
14.583469
 51
37.181108
  0
LINE
  5
D3C0
330
D2D2
100
AcDbEntity
  8
1
  6
Continuous
100
AcDbLine
 10
352.0090599999999
 20
211.9441629999998
 30
0.0
 11
351.7590599999999
 21
211.9441629999998
 31
0.0
  0
LINE
  5
D3C1
330
D2D2
100
AcDbEntity
  8
1
  6
Continuous
100
AcDbLine
 10
352.3262689999999
 20
210.4441629999998
 30
0.0
 11
352.0090599999999
 21
210.4441629999998
 31
0.0
  0
LINE
  5
D3C2
330
D2D2
100
AcDbEntity
  8
1
  6
Continuous
100
AcDbLine
 10
321.2590599999999
 20
213.9441629999998
 30
0.0
 11
321.2590599999999
 21
198.9441629999998
 31
0.0
  0
LINE
  5
D3C3
330
D2D2
100
AcDbEntity
  8
1
  6
Continuous
100
AcDbLine
 10
322.2590599999999
 20
215.2457829999999
 30
0.0
 11
322.2590599999999
 21
197.6425419999999
 31
0.0
  0
ARC
  5
D3C4
330
D2D2
100
AcDbEntity
  8
1
  6
Continuous
100
AcDbCircle
 10
323.2053599999999
 20
199.4045059999999
 30
0.0
 40
2.0
100
AcDbArc
 50
193.3071809999999
 51
241.761033
  0
ARC
  5
D3C5
330
D2D2
100
AcDbEntity
  8
1
  6
Continuous
100
AcDbCircle
 10
340.6469149999999
 20
202.4265549999999
 30
0.0
 40
19.0
100
AcDbArc
 50
194.583469
 51
217.1811079999999
  0
ARC
  5
D3C6
330
D2D2
100
AcDbEntity
  8
1
  6
Continuous
100
AcDbCircle
 10
323.2053599999999
 20
213.4838189999999
 30
0.0
 40
2.0
100
AcDbArc
 50
118.2389669999998
 51
166.6928189999999
  0
ARC
  5
D3C7
330
D2D2
100
AcDbEntity
  8
1
  6
Continuous
100
AcDbCircle
 10
340.6469149999999
 20
210.46177
 30
0.0
 40
19.0
100
AcDbArc
 50
142.818892
 51
165.4165309999999
  0
ARC
  5
D3C8
330
D2D2
100
AcDbEntity
  8
1
  6
Continuous
100
AcDbCircle
 10
327.4680599999999
 20
228.525321
 30
0.0
 40
36.466
100
AcDbArc
 50
323.7207199999998
 51
0.0
  0
LINE
  5
D3C9
330
D2D2
100
AcDbEntity
  8
1
  6
Continuous
100
AcDbLine
 10
354.9262689999998
 20
201.0303809999999
 30
0.0
 11
354.9262689999998
 21
194.9438629999999
 31
0.0
  0
ARC
  5
D3CA
330
D2D2
100
AcDbEntity
  8
1
  6
Continuous
100
AcDbCircle
 10
364.926269
 20
201.0303809999999
 30
0.0
 40
10.0
100
AcDbArc
 50
143.72072
 51
180.0
  0
ARC
  5
D3CB
330
D2D2
100
AcDbEntity
  8
1
  6
Continuous
100
AcDbCircle
 10
327.4680599999999
 20
228.525321
 30
0.0
 40
33.866
100
AcDbArc
 50
323.7207009999999
 51
0.0
  0
ARC
  5
D3CC
330
D2D2
100
AcDbEntity
  8
1
  6
Continuous
100
AcDbCircle
 10
364.92626
 20
201.030369
 30
0.0
 40
12.6
100
AcDbArc
 50
143.7207009999999
 51
180.0
  0
ARC
  5
D3CD
330
D2D2
100
AcDbEntity
  8
1
  6
Continuous
100
AcDbCircle
 10
345.5500599999999
 20
228.525321
 30
0.0
 40
33.866
100
AcDbArc
 50
180.0
 51
202.5370109999999
  0
ARC
  5
D3CE
330
D2D2
100
AcDbEntity
  8
1
  6
Continuous
100
AcDbCircle
 10
345.5500599999999
 20
228.525321
 30
0.0
 40
36.466
100
AcDbArc
 50
180.0
 51
205.3019139999999
  0
LINE
  5
D3CF
330
D2D2
100
AcDbEntity
  8
4
  6
CENTER
100
AcDbLine
 10
191.586048
 20
443.295674
 30
0.0
 11
191.586048
 21
380.1956309999998
 31
0.0
  0
LINE
  5
D3D0
330
D2D2
100
AcDbEntity
  8
1
  6
Continuous
100
AcDbLine
 10
200.605284
 20
396.461224
 30
0.0
 11
188.6021149999999
 21
396.461224
 31
0.0
  0
LINE
  5
D3D1
330
D2D2
100
AcDbEntity
  8
1
  6
Continuous
100
AcDbLine
 10
322.5090359999999
 20
280.4436299999999
 30
0.0
 11
322.5090359999999
 21
276.9436519999998
 31
0.0
  0
LINE
  5
D3D2
330
D2D2
100
AcDbEntity
  8
1
  6
Continuous
100
AcDbLine
 10
336.5090359999999
 20
280.4436299999999
 30
0.0
 11
336.5090359999999
 21
276.9436519999998
 31
0.0
  0
LINE
  5
D3D3
330
D2D2
100
AcDbEntity
  8
1
  6
Continuous
100
AcDbLine
 10
350.509036
 20
280.4436299999999
 30
0.0
 11
350.509036
 21
276.9436519999998
 31
0.0
  0
ARC
  5
D3D4
330
D2D2
100
AcDbEntity
  8
1
  6
Continuous
100
AcDbCircle
 10
36.12156599999997
 20
272.9266729999998
 30
0.0
 40
4.0
100
AcDbArc
 50
90.0
 51
180.0
  0
LINE
  5
D3D5
330
D2D2
100
AcDbEntity
  8
1
  6
Continuous
100
AcDbLine
 10
30.43546599999999
 20
270.4012109999998
 30
0.0
 11
31.665722
 21
271.632467
 31
0.0
  0
LINE
  5
D3D6
330
D2D2
100
AcDbEntity
  8
1
  6
Continuous
100
AcDbLine
 10
30.43546599999999
 20
271.632467
 30
0.0
 11
83.80766599999999
 21
271.632467
 31
0.0
  0
LINE
  5
D3D7
330
D2D2
100
AcDbEntity
  8
1
  6
Continuous
100
AcDbLine
 10
83.80766599999999
 20
272.9266729999998
 30
0.0
 11
30.43546599999999
 21
272.9266729999998
 31
0.0
  0
LINE
  5
D3D8
330
D2D2
100
AcDbEntity
  8
1
  6
Continuous
100
AcDbLine
 10
30.43546599999999
 20
269.0929779999998
 30
0.0
 11
30.43546599999999
 21
272.9266729999998
 31
0.0
  0
LINE
  5
D3D9
330
D2D2
100
AcDbEntity
  8
1
  6
Continuous
100
AcDbLine
 10
31.37578299999999
 20
269.0929779999998
 30
0.0
 11
30.43546599999999
 21
270.0332949999999
 31
0.0
  0
LINE
  5
D3DA
330
D2D2
100
AcDbEntity
  8
1
  6
Continuous
100
AcDbLine
 10
63.06835799999999
 20
269.0929779999998
 30
0.0
 11
65.606847
 21
271.632467
 31
0.0
  0
LINE
  5
D3DB
330
D2D2
100
AcDbEntity
  8
1
  6
Continuous
100
AcDbLine
 10
65.316909
 20
269.0929779999998
 30
0.0
 11
62.77841999999999
 21
271.632467
 31
0.0
  0
LINE
  5
D3DC
330
D2D2
100
AcDbEntity
  8
1
  6
Continuous
100
AcDbLine
 10
36.12156599999997
 20
276.926673
 30
0.0
 11
78.121566
 21
276.926673
 31
0.0
  0
LINE
  5
D3DD
330
D2D2
100
AcDbEntity
  8
1
  6
Continuous
100
AcDbLine
 10
71.12154100000002
 20
280.426651
 30
0.0
 11
43.12154099999999
 21
280.426651
 31
0.0
  0
LINE
  5
D3DE
330
D2D2
100
AcDbEntity
  8
1
  6
Continuous
100
AcDbLine
 10
46.097795
 20
269.0929779999998
 30
0.0
 11
48.636284
 21
271.632467
 31
0.0
  0
LINE
  5
D3DF
330
D2D2
100
AcDbEntity
  8
1
  6
Continuous
100
AcDbLine
 10
48.34634600000001
 20
269.0929779999998
 30
0.0
 11
45.80785699999998
 21
271.632467
 31
0.0
  0
LINE
  5
D3E0
330
D2D2
100
AcDbEntity
  8
1
  6
Continuous
100
AcDbLine
 10
40.44094099999997
 20
269.0929779999998
 30
0.0
 11
42.97943
 21
271.632467
 31
0.0
  0
LINE
  5
D3E1
330
D2D2
100
AcDbEntity
  8
1
  6
Continuous
100
AcDbLine
 10
42.689492
 20
269.0929779999998
 30
0.0
 11
40.151003
 21
271.632467
 31
0.0
  0
LINE
  5
D3E2
330
D2D2
100
AcDbEntity
  8
1
  6
Continuous
100
AcDbLine
 10
31.95565999999999
 20
269.0929779999998
 30
0.0
 11
34.494149
 21
271.632467
 31
0.0
  0
LINE
  5
D3E3
330
D2D2
100
AcDbEntity
  8
1
  6
Continuous
100
AcDbLine
 10
34.20420999999999
 20
269.0929779999998
 30
0.0
 11
31.665722
 21
271.632467
 31
0.0
  0
LINE
  5
D3E4
330
D2D2
100
AcDbEntity
  8
1
  6
Continuous
100
AcDbLine
 10
34.784087
 20
269.0929779999998
 30
0.0
 11
37.322576
 21
271.632467
 31
0.0
  0
LINE
  5
D3E5
330
D2D2
100
AcDbEntity
  8
1
  6
Continuous
100
AcDbLine
 10
37.032638
 20
269.0929779999998
 30
0.0
 11
34.494149
 21
271.632467
 31
0.0
  0
LINE
  5
D3E6
330
D2D2
100
AcDbEntity
  8
1
  6
Continuous
100
AcDbLine
 10
37.61251399999999
 20
269.0929779999998
 30
0.0
 11
40.151003
 21
271.632467
 31
0.0
  0
LINE
  5
D3E7
330
D2D2
100
AcDbEntity
  8
1
  6
Continuous
100
AcDbLine
 10
39.861065
 20
269.0929779999998
 30
0.0
 11
37.322576
 21
271.632467
 31
0.0
  0
LINE
  5
D3E8
330
D2D2
100
AcDbEntity
  8
1
  6
Continuous
100
AcDbLine
 10
43.269368
 20
269.0929779999998
 30
0.0
 11
45.80785699999998
 21
271.632467
 31
0.0
  0
LINE
  5
D3E9
330
D2D2
100
AcDbEntity
  8
1
  6
Continuous
100
AcDbLine
 10
45.517919
 20
269.0929779999998
 30
0.0
 11
42.97943
 21
271.632467
 31
0.0
  0
LINE
  5
D3EA
330
D2D2
100
AcDbEntity
  8
1
  6
Continuous
100
AcDbLine
 10
57.411504
 20
269.0929779999998
 30
0.0
 11
59.94999299999999
 21
271.632467
 31
0.0
  0
LINE
  5
D3EB
330
D2D2
100
AcDbEntity
  8
1
  6
Continuous
100
AcDbLine
 10
59.66005500000001
 20
269.0929779999998
 30
0.0
 11
57.121566
 21
271.632467
 31
0.0
  0
LINE
  5
D3EC
330
D2D2
100
AcDbEntity
  8
1
  6
Continuous
100
AcDbLine
 10
48.926223
 20
269.0929779999998
 30
0.0
 11
51.464711
 21
271.632467
 31
0.0
  0
LINE
  5
D3ED
330
D2D2
100
AcDbEntity
  8
1
  6
Continuous
100
AcDbLine
 10
51.174773
 20
269.0929779999998
 30
0.0
 11
48.636284
 21
271.632467
 31
0.0
  0
LINE
  5
D3EE
330
D2D2
100
AcDbEntity
  8
1
  6
Continuous
100
AcDbLine
 10
51.75464999999999
 20
269.0929779999998
 30
0.0
 11
54.293139
 21
271.632467
 31
0.0
  0
LINE
  5
D3EF
330
D2D2
100
AcDbEntity
  8
1
  6
Continuous
100
AcDbLine
 10
54.0032
 20
269.0929779999998
 30
0.0
 11
51.464711
 21
271.632467
 31
0.0
  0
LINE
  5
D3F0
330
D2D2
100
AcDbEntity
  8
1
  6
Continuous
100
AcDbLine
 10
54.583077
 20
269.0929779999998
 30
0.0
 11
57.121566
 21
271.632467
 31
0.0
  0
LINE
  5
D3F1
330
D2D2
100
AcDbEntity
  8
1
  6
Continuous
100
AcDbLine
 10
56.831627
 20
269.0929779999998
 30
0.0
 11
54.293139
 21
271.632467
 31
0.0
  0
LINE
  5
D3F2
330
D2D2
100
AcDbEntity
  8
1
  6
Continuous
100
AcDbLine
 10
60.23993100000001
 20
269.0929779999998
 30
0.0
 11
62.77841999999999
 21
271.632467
 31
0.0
  0
LINE
  5
D3F3
330
D2D2
100
AcDbEntity
  8
1
  6
Continuous
100
AcDbLine
 10
62.488482
 20
269.0929779999998
 30
0.0
 11
59.94999299999999
 21
271.632467
 31
0.0
  0
LINE
  5
D3F4
330
D2D2
100
AcDbEntity
  8
1
  6
Continuous
100
AcDbLine
 10
77.21049399999998
 20
269.0929779999998
 30
0.0
 11
79.74898299999998
 21
271.632467
 31
0.0
  0
ARC
  5
D3F5
330
D2D2
100
AcDbEntity
  8
1
  6
Continuous
100
AcDbCircle
 10
78.121566
 20
272.9266729999998
 30
0.0
 40
4.0
100
AcDbArc
 50
0.0
 51
90.0
  0
LINE
  5
D3F6
330
D2D2
100
AcDbEntity
  8
1
  6
Continuous
100
AcDbLine
 10
79.45904399999998
 20
269.0929779999998
 30
0.0
 11
76.920556
 21
271.632467
 31
0.0
  0
LINE
  5
D3F7
330
D2D2
100
AcDbEntity
  8
1
  6
Continuous
100
AcDbLine
 10
76.630617
 20
269.0929779999998
 30
0.0
 11
74.092128
 21
271.632467
 31
0.0
  0
LINE
  5
D3F8
330
D2D2
100
AcDbEntity
  8
1
  6
Continuous
100
AcDbLine
 10
68.725212
 20
269.0929779999998
 30
0.0
 11
71.26370099999999
 21
271.632467
 31
0.0
  0
LINE
  5
D3F9
330
D2D2
100
AcDbEntity
  8
1
  6
Continuous
100
AcDbLine
 10
70.97376300000002
 20
269.0929779999998
 30
0.0
 11
68.43527399999999
 21
271.632467
 31
0.0
  0
LINE
  5
D3FA
330
D2D2
100
AcDbEntity
  8
1
  6
Continuous
100
AcDbLine
 10
68.145336
 20
269.0929779999998
 30
0.0
 11
65.606847
 21
271.632467
 31
0.0
  0
LINE
  5
D3FB
330
D2D2
100
AcDbEntity
  8
1
  6
Continuous
100
AcDbLine
 10
65.89678499999999
 20
269.0929779999998
 30
0.0
 11
68.43527399999999
 21
271.632467
 31
0.0
  0
LINE
  5
D3FC
330
D2D2
100
AcDbEntity
  8
1
  6
Continuous
100
AcDbLine
 10
71.55364
 20
269.0929779999998
 30
0.0
 11
74.092128
 21
271.632467
 31
0.0
  0
LINE
  5
D3FD
330
D2D2
100
AcDbEntity
  8
1
  6
Continuous
100
AcDbLine
 10
73.80218999999998
 20
269.0929779999998
 30
0.0
 11
71.26370099999999
 21
271.632467
 31
0.0
  0
LINE
  5
D3FE
330
D2D2
100
AcDbEntity
  8
1
  6
Continuous
100
AcDbLine
 10
74.38206700000002
 20
269.0929779999998
 30
0.0
 11
76.920556
 21
271.632467
 31
0.0
  0
LINE
  5
D3FF
330
D2D2
100
AcDbEntity
  8
1
  6
Continuous
100
AcDbLine
 10
83.80766599999999
 20
270.0332949999999
 30
0.0
 11
82.86734799999997
 21
269.0929779999998
 31
0.0
  0
LINE
  5
D400
330
D2D2
100
AcDbEntity
  8
1
  6
Continuous
100
AcDbLine
 10
83.80766599999999
 20
270.4012109999998
 30
0.0
 11
82.57741000000001
 21
271.632467
 31
0.0
  0
LINE
  5
D401
330
D2D2
100
AcDbEntity
  8
1
  6
Continuous
100
AcDbLine
 10
83.80766599999999
 20
272.9266729999998
 30
0.0
 11
83.80766599999999
 21
269.0929779999998
 31
0.0
  0
LINE
  5
D402
330
D2D2
100
AcDbEntity
  8
1
  6
Continuous
100
AcDbLine
 10
80.03892099999999
 20
269.0929779999998
 30
0.0
 11
82.57741000000001
 21
271.632467
 31
0.0
  0
LINE
  5
D403
330
D2D2
100
AcDbEntity
  8
1
  6
Continuous
100
AcDbLine
 10
82.28747199999999
 20
269.0929779999998
 30
0.0
 11
79.74898299999998
 21
271.632467
 31
0.0
  0
LINE
  5
D404
330
D2D2
100
AcDbEntity
  8
1
  6
Continuous
100
AcDbLine
 10
43.12154099999999
 20
280.426651
 30
0.0
 11
43.12154099999999
 21
276.926673
 31
0.0
  0
LINE
  5
D405
330
D2D2
100
AcDbEntity
  8
1
  6
Continuous
100
AcDbLine
 10
57.121541
 20
280.426651
 30
0.0
 11
57.121541
 21
276.926673
 31
0.0
  0
LINE
  5
D406
330
D2D2
100
AcDbEntity
  8
1
  6
Continuous
100
AcDbLine
 10
71.12154100000002
 20
280.426651
 30
0.0
 11
71.12154100000002
 21
276.926673
 31
0.0
  0
ARC
  5
D407
330
D2D2
100
AcDbEntity
  8
1
  6
Continuous
100
AcDbCircle
 10
200.605284
 20
387.461224
 30
0.0
 40
9.0
100
AcDbArc
 50
48.82510899999999
 51
90.0
  0
ARC
  5
D408
330
D2D2
100
AcDbEntity
  8
1
  6
Continuous
100
AcDbCircle
 10
203.586035
 20
272.944652
 30
0.0
 40
4.0
100
AcDbArc
 50
90.0
 51
180.0
  0
LINE
  5
D409
330
D2D2
100
AcDbEntity
  8
1
  6
Continuous
100
AcDbLine
 10
197.899935
 20
270.4371899999998
 30
0.0
 11
199.1301909999999
 21
271.6504459999999
 31
0.0
  0
LINE
  5
D40A
330
D2D2
100
AcDbEntity
  8
1
  6
Continuous
100
AcDbLine
 10
197.899935
 20
271.6504459999999
 30
0.0
 11
251.272135
 21
271.6504459999999
 31
0.0
  0
LINE
  5
D40B
330
D2D2
100
AcDbEntity
  8
1
  6
Continuous
100
AcDbLine
 10
251.272135
 20
272.944652
 30
0.0
 11
197.899935
 21
272.944652
 31
0.0
  0
LINE
  5
D40C
330
D2D2
100
AcDbEntity
  8
1
  6
Continuous
100
AcDbLine
 10
197.899935
 20
269.1289569999999
 30
0.0
 11
197.899935
 21
272.944652
 31
0.0
  0
LINE
  5
D40D
330
D2D2
100
AcDbEntity
  8
1
  6
Continuous
100
AcDbLine
 10
198.8402519999999
 20
269.1289569999999
 30
0.0
 11
197.899935
 21
270.069274
 31
0.0
  0
LINE
  5
D40E
330
D2D2
100
AcDbEntity
  8
1
  6
Continuous
100
AcDbLine
 10
230.5328269999999
 20
269.1289569999999
 30
0.0
 11
233.071316
 21
271.6504459999999
 31
0.0
  0
LINE
  5
D40F
330
D2D2
100
AcDbEntity
  8
1
  6
Continuous
100
AcDbLine
 10
232.781378
 20
269.1289569999999
 30
0.0
 11
230.2428889999999
 21
271.6504459999999
 31
0.0
  0
LINE
  5
D410
330
D2D2
100
AcDbEntity
  8
1
  6
Continuous
100
AcDbLine
 10
203.586035
 20
276.944652
 30
0.0
 11
245.586035
 21
276.944652
 31
0.0
  0
LINE
  5
D411
330
D2D2
100
AcDbEntity
  8
1
  6
Continuous
100
AcDbLine
 10
240.7518179999999
 20
280.4446299999998
 30
0.0
 11
208.4202029999999
 21
280.4446299999998
 31
0.0
  0
LINE
  5
D412
330
D2D2
100
AcDbEntity
  8
1
  6
Continuous
100
AcDbLine
 10
213.562264
 20
269.1289569999999
 30
0.0
 11
216.1007529999999
 21
271.6504459999999
 31
0.0
  0
LINE
  5
D413
330
D2D2
100
AcDbEntity
  8
1
  6
Continuous
100
AcDbLine
 10
215.8108149999999
 20
269.1289569999999
 30
0.0
 11
213.2723259999999
 21
271.6504459999999
 31
0.0
  0
LINE
  5
D414
330
D2D2
100
AcDbEntity
  8
1
  6
Continuous
100
AcDbLine
 10
208.4202029999999
 20
276.944652
 30
0.0
 11
208.4202029999999
 21
280.4446299999998
 31
0.0
  0
LINE
  5
D415
330
D2D2
100
AcDbEntity
  8
1
  6
Continuous
100
AcDbLine
 10
207.90541
 20
269.1289569999999
 30
0.0
 11
210.4438989999999
 21
271.6504459999999
 31
0.0
  0
LINE
  5
D416
330
D2D2
100
AcDbEntity
  8
1
  6
Continuous
100
AcDbLine
 10
210.1539609999999
 20
269.1289569999999
 30
0.0
 11
207.615472
 21
271.6504459999999
 31
0.0
  0
LINE
  5
D417
330
D2D2
100
AcDbEntity
  8
1
  6
Continuous
100
AcDbLine
 10
199.420129
 20
269.1289569999999
 30
0.0
 11
201.958618
 21
271.6504459999999
 31
0.0
  0
LINE
  5
D418
330
D2D2
100
AcDbEntity
  8
1
  6
Continuous
100
AcDbLine
 10
201.668679
 20
269.1289569999999
 30
0.0
 11
199.1301909999999
 21
271.6504459999999
 31
0.0
  0
LINE
  5
D419
330
D2D2
100
AcDbEntity
  8
1
  6
Continuous
100
AcDbLine
 10
202.248556
 20
269.1289569999999
 30
0.0
 11
204.787045
 21
271.6504459999999
 31
0.0
  0
LINE
  5
D41A
330
D2D2
100
AcDbEntity
  8
1
  6
Continuous
100
AcDbLine
 10
204.4971069999999
 20
269.1289569999999
 30
0.0
 11
201.958618
 21
271.6504459999999
 31
0.0
  0
LINE
  5
D41B
330
D2D2
100
AcDbEntity
  8
1
  6
Continuous
100
AcDbLine
 10
205.076983
 20
269.1289569999999
 30
0.0
 11
207.615472
 21
271.6504459999999
 31
0.0
  0
LINE
  5
D41C
330
D2D2
100
AcDbEntity
  8
1
  6
Continuous
100
AcDbLine
 10
207.325534
 20
269.1289569999999
 30
0.0
 11
204.787045
 21
271.6504459999999
 31
0.0
  0
LINE
  5
D41D
330
D2D2
100
AcDbEntity
  8
1
  6
Continuous
100
AcDbLine
 10
210.7338369999999
 20
269.1289569999999
 30
0.0
 11
213.2723259999999
 21
271.6504459999999
 31
0.0
  0
LINE
  5
D41E
330
D2D2
100
AcDbEntity
  8
1
  6
Continuous
100
AcDbLine
 10
212.982388
 20
269.1289569999999
 30
0.0
 11
210.4438989999999
 21
271.6504459999999
 31
0.0
  0
LINE
  5
D41F
330
D2D2
100
AcDbEntity
  8
1
  6
Continuous
100
AcDbLine
 10
216.5031069999999
 20
276.944652
 30
0.0
 11
216.5031069999999
 21
280.4446299999998
 31
0.0
  0
LINE
  5
D420
330
D2D2
100
AcDbEntity
  8
1
  6
Continuous
100
AcDbLine
 10
224.8759729999999
 20
269.1289569999999
 30
0.0
 11
227.4144619999999
 21
271.6504459999999
 31
0.0
  0
LINE
  5
D421
330
D2D2
100
AcDbEntity
  8
1
  6
Continuous
100
AcDbLine
 10
227.124524
 20
269.1289569999999
 30
0.0
 11
224.586035
 21
271.6504459999999
 31
0.0
  0
LINE
  5
D422
330
D2D2
100
AcDbEntity
  8
1
  6
Continuous
100
AcDbLine
 10
216.390692
 20
269.1289569999999
 30
0.0
 11
218.9291799999999
 21
271.6504459999999
 31
0.0
  0
LINE
  5
D423
330
D2D2
100
AcDbEntity
  8
1
  6
Continuous
100
AcDbLine
 10
218.639242
 20
269.1289569999999
 30
0.0
 11
216.1007529999999
 21
271.6504459999999
 31
0.0
  0
LINE
  5
D424
330
D2D2
100
AcDbEntity
  8
1
  6
Continuous
100
AcDbLine
 10
219.2191189999999
 20
269.1289569999999
 30
0.0
 11
221.757608
 21
271.6504459999999
 31
0.0
  0
LINE
  5
D425
330
D2D2
100
AcDbEntity
  8
1
  6
Continuous
100
AcDbLine
 10
221.467669
 20
269.1289569999999
 30
0.0
 11
218.9291799999999
 21
271.6504459999999
 31
0.0
  0
LINE
  5
D426
330
D2D2
100
AcDbEntity
  8
1
  6
Continuous
100
AcDbLine
 10
222.0475459999999
 20
269.1289569999999
 30
0.0
 11
224.586035
 21
271.6504459999999
 31
0.0
  0
LINE
  5
D427
330
D2D2
100
AcDbEntity
  8
1
  6
Continuous
100
AcDbLine
 10
224.296096
 20
269.1289569999999
 30
0.0
 11
221.757608
 21
271.6504459999999
 31
0.0
  0
LINE
  5
D428
330
D2D2
100
AcDbEntity
  8
1
  6
Continuous
100
AcDbLine
 10
227.7044
 20
269.1289569999999
 30
0.0
 11
230.2428889999999
 21
271.6504459999999
 31
0.0
  0
LINE
  5
D429
330
D2D2
100
AcDbEntity
  8
1
  6
Continuous
100
AcDbLine
 10
229.9529509999999
 20
269.1289569999999
 30
0.0
 11
227.4144619999999
 21
271.6504459999999
 31
0.0
  0
LINE
  5
D42A
330
D2D2
100
AcDbEntity
  8
1
  6
Continuous
100
AcDbLine
 10
244.6749629999999
 20
269.1289569999999
 30
0.0
 11
247.213452
 21
271.6504459999999
 31
0.0
  0
ARC
  5
D42B
330
D2D2
100
AcDbEntity
  8
1
  6
Continuous
100
AcDbCircle
 10
245.586035
 20
272.944652
 30
0.0
 40
4.0
100
AcDbArc
 50
0.0
 51
90.0
  0
LINE
  5
D42C
330
D2D2
100
AcDbEntity
  8
1
  6
Continuous
100
AcDbLine
 10
246.9235129999999
 20
269.1289569999999
 30
0.0
 11
244.385025
 21
271.6504459999999
 31
0.0
  0
LINE
  5
D42D
330
D2D2
100
AcDbEntity
  8
1
  6
Continuous
100
AcDbLine
 10
240.7518179999999
 20
276.944652
 30
0.0
 11
240.7518179999999
 21
280.4446299999998
 31
0.0
  0
LINE
  5
D42E
330
D2D2
100
AcDbEntity
  8
1
  6
Continuous
100
AcDbLine
 10
232.6689149999999
 20
276.944652
 30
0.0
 11
232.6689149999999
 21
280.4446299999998
 31
0.0
  0
LINE
  5
D42F
330
D2D2
100
AcDbEntity
  8
1
  6
Continuous
100
AcDbLine
 10
244.095086
 20
269.1289569999999
 30
0.0
 11
241.556597
 21
271.6504459999999
 31
0.0
  0
LINE
  5
D430
330
D2D2
100
AcDbEntity
  8
1
  6
Continuous
100
AcDbLine
 10
236.189681
 20
269.1289569999999
 30
0.0
 11
238.7281699999999
 21
271.6504459999999
 31
0.0
  0
LINE
  5
D431
330
D2D2
100
AcDbEntity
  8
1
  6
Continuous
100
AcDbLine
 10
238.4382319999999
 20
269.1289569999999
 30
0.0
 11
235.899743
 21
271.6504459999999
 31
0.0
  0
LINE
  5
D432
330
D2D2
100
AcDbEntity
  8
1
  6
Continuous
100
AcDbLine
 10
235.6098049999999
 20
269.1289569999999
 30
0.0
 11
233.071316
 21
271.6504459999999
 31
0.0
  0
LINE
  5
D433
330
D2D2
100
AcDbEntity
  8
1
  6
Continuous
100
AcDbLine
 10
233.361254
 20
269.1289569999999
 30
0.0
 11
235.899743
 21
271.6504459999999
 31
0.0
  0
LINE
  5
D434
330
D2D2
100
AcDbEntity
  8
1
  6
Continuous
100
AcDbLine
 10
239.018109
 20
269.1289569999999
 30
0.0
 11
241.556597
 21
271.6504459999999
 31
0.0
  0
LINE
  5
D435
330
D2D2
100
AcDbEntity
  8
1
  6
Continuous
100
AcDbLine
 10
241.2666589999998
 20
269.1289569999999
 30
0.0
 11
238.7281699999999
 21
271.6504459999999
 31
0.0
  0
LINE
  5
D436
330
D2D2
100
AcDbEntity
  8
1
  6
Continuous
100
AcDbLine
 10
241.8465359999999
 20
269.1289569999999
 30
0.0
 11
244.385025
 21
271.6504459999999
 31
0.0
  0
LINE
  5
D437
330
D2D2
100
AcDbEntity
  8
1
  6
Continuous
100
AcDbLine
 10
251.272135
 20
270.069274
 30
0.0
 11
250.331817
 21
269.1289569999999
 31
0.0
  0
LINE
  5
D438
330
D2D2
100
AcDbEntity
  8
1
  6
Continuous
100
AcDbLine
 10
251.272135
 20
270.4371899999998
 30
0.0
 11
250.0418789999999
 21
271.6504459999999
 31
0.0
  0
LINE
  5
D439
330
D2D2
100
AcDbEntity
  8
1
  6
Continuous
100
AcDbLine
 10
251.272135
 20
272.944652
 30
0.0
 11
251.272135
 21
269.1289569999999
 31
0.0
  0
LINE
  5
D43A
330
D2D2
100
AcDbEntity
  8
1
  6
Continuous
100
AcDbLine
 10
247.50339
 20
269.1289569999999
 30
0.0
 11
250.0418789999999
 21
271.6504459999999
 31
0.0
  0
LINE
  5
D43B
330
D2D2
100
AcDbEntity
  8
1
  6
Continuous
100
AcDbLine
 10
249.7519409999999
 20
269.1289569999999
 30
0.0
 11
247.213452
 21
271.6504459999999
 31
0.0
  0
ARC
  5
D43C
330
D2D2
100
AcDbEntity
  8
1
  6
Continuous
100
AcDbCircle
 10
315.5090599999998
 20
272.9436519999998
 30
0.0
 40
4.0
100
AcDbArc
 50
90.0
 51
180.0
  0
LINE
  5
D43D
330
D2D2
100
AcDbEntity
  8
1
  6
Continuous
100
AcDbLine
 10
309.82296
 20
270.43619
 30
0.0
 11
311.053216
 21
271.649446
 31
0.0
  0
LINE
  5
D43E
330
D2D2
100
AcDbEntity
  8
1
  6
Continuous
100
AcDbLine
 10
309.82296
 20
271.649446
 30
0.0
 11
363.1951599999999
 21
271.649446
 31
0.0
  0
LINE
  5
D43F
330
D2D2
100
AcDbEntity
  8
1
  6
Continuous
100
AcDbLine
 10
363.1951599999999
 20
272.9436519999998
 30
0.0
 11
309.82296
 21
272.9436519999998
 31
0.0
  0
LINE
  5
D440
330
D2D2
100
AcDbEntity
  8
1
  6
Continuous
100
AcDbLine
 10
309.82296
 20
269.1279569999999
 30
0.0
 11
309.82296
 21
272.9436519999998
 31
0.0
  0
LINE
  5
D441
330
D2D2
100
AcDbEntity
  8
1
  6
Continuous
100
AcDbLine
 10
310.763277
 20
269.1279569999999
 30
0.0
 11
309.82296
 21
270.0682739999999
 31
0.0
  0
LINE
  5
D442
330
D2D2
100
AcDbEntity
  8
1
  6
Continuous
100
AcDbLine
 10
342.455852
 20
269.1279569999999
 30
0.0
 11
344.994341
 21
271.649446
 31
0.0
  0
LINE
  5
D443
330
D2D2
100
AcDbEntity
  8
1
  6
Continuous
100
AcDbLine
 10
344.7044029999998
 20
269.1279569999999
 30
0.0
 11
342.165914
 21
271.649446
 31
0.0
  0
LINE
  5
D444
330
D2D2
100
AcDbEntity
  8
1
  6
Continuous
100
AcDbLine
 10
315.5090599999998
 20
276.9436519999998
 30
0.0
 11
357.5090599999999
 21
276.9436519999998
 31
0.0
  0
LINE
  5
D445
330
D2D2
100
AcDbEntity
  8
1
  6
Continuous
100
AcDbLine
 10
350.509036
 20
280.4436299999999
 30
0.0
 11
322.5090359999999
 21
280.4436299999999
 31
0.0
  0
LINE
  5
D446
330
D2D2
100
AcDbEntity
  8
1
  6
Continuous
100
AcDbLine
 10
325.485289
 20
269.1279569999999
 30
0.0
 11
328.023778
 21
271.649446
 31
0.0
  0
LINE
  5
D447
330
D2D2
100
AcDbEntity
  8
1
  6
Continuous
100
AcDbLine
 10
327.73384
 20
269.1279569999999
 30
0.0
 11
325.1953509999998
 21
271.649446
 31
0.0
  0
LINE
  5
D448
330
D2D2
100
AcDbEntity
  8
1
  6
Continuous
100
AcDbLine
 10
319.828435
 20
269.1279569999999
 30
0.0
 11
322.3669239999999
 21
271.649446
 31
0.0
  0
LINE
  5
D449
330
D2D2
100
AcDbEntity
  8
1
  6
Continuous
100
AcDbLine
 10
322.0769859999998
 20
269.1279569999999
 30
0.0
 11
319.538497
 21
271.649446
 31
0.0
  0
LINE
  5
D44A
330
D2D2
100
AcDbEntity
  8
1
  6
Continuous
100
AcDbLine
 10
311.343154
 20
269.1279569999999
 30
0.0
 11
313.8816429999998
 21
271.649446
 31
0.0
  0
LINE
  5
D44B
330
D2D2
100
AcDbEntity
  8
1
  6
Continuous
100
AcDbLine
 10
313.5917039999998
 20
269.1279569999999
 30
0.0
 11
311.053216
 21
271.649446
 31
0.0
  0
LINE
  5
D44C
330
D2D2
100
AcDbEntity
  8
1
  6
Continuous
100
AcDbLine
 10
314.1715809999999
 20
269.1279569999999
 30
0.0
 11
316.7100699999999
 21
271.649446
 31
0.0
  0
LINE
  5
D44D
330
D2D2
100
AcDbEntity
  8
1
  6
Continuous
100
AcDbLine
 10
316.4201319999999
 20
269.1279569999999
 30
0.0
 11
313.8816429999998
 21
271.649446
 31
0.0
  0
LINE
  5
D44E
330
D2D2
100
AcDbEntity
  8
1
  6
Continuous
100
AcDbLine
 10
317.0000079999998
 20
269.1279569999999
 30
0.0
 11
319.538497
 21
271.649446
 31
0.0
  0
LINE
  5
D44F
330
D2D2
100
AcDbEntity
  8
1
  6
Continuous
100
AcDbLine
 10
319.2485589999999
 20
269.1279569999999
 30
0.0
 11
316.7100699999999
 21
271.649446
 31
0.0
  0
LINE
  5
D450
330
D2D2
100
AcDbEntity
  8
1
  6
Continuous
100
AcDbLine
 10
322.656862
 20
269.1279569999999
 30
0.0
 11
325.1953509999998
 21
271.649446
 31
0.0
  0
LINE
  5
D451
330
D2D2
100
AcDbEntity
  8
1
  6
Continuous
100
AcDbLine
 10
324.905413
 20
269.1279569999999
 30
0.0
 11
322.3669239999999
 21
271.649446
 31
0.0
  0
LINE
  5
D452
330
D2D2
100
AcDbEntity
  8
1
  6
Continuous
100
AcDbLine
 10
336.7989979999999
 20
269.1279569999999
 30
0.0
 11
339.337487
 21
271.649446
 31
0.0
  0
LINE
  5
D453
330
D2D2
100
AcDbEntity
  8
1
  6
Continuous
100
AcDbLine
 10
339.047549
 20
269.1279569999999
 30
0.0
 11
336.5090599999998
 21
271.649446
 31
0.0
  0
LINE
  5
D454
330
D2D2
100
AcDbEntity
  8
1
  6
Continuous
100
AcDbLine
 10
328.3137169999998
 20
269.1279569999999
 30
0.0
 11
330.8522049999999
 21
271.649446
 31
0.0
  0
LINE
  5
D455
330
D2D2
100
AcDbEntity
  8
1
  6
Continuous
100
AcDbLine
 10
330.562267
 20
269.1279569999999
 30
0.0
 11
328.023778
 21
271.649446
 31
0.0
  0
LINE
  5
D456
330
D2D2
100
AcDbEntity
  8
1
  6
Continuous
100
AcDbLine
 10
331.1421439999999
 20
269.1279569999999
 30
0.0
 11
333.6806329999999
 21
271.649446
 31
0.0
  0
LINE
  5
D457
330
D2D2
100
AcDbEntity
  8
1
  6
Continuous
100
AcDbLine
 10
333.3906939999998
 20
269.1279569999999
 30
0.0
 11
330.8522049999999
 21
271.649446
 31
0.0
  0
LINE
  5
D458
330
D2D2
100
AcDbEntity
  8
1
  6
Continuous
100
AcDbLine
 10
333.970571
 20
269.1279569999999
 30
0.0
 11
336.5090599999998
 21
271.649446
 31
0.0
  0
LINE
  5
D459
330
D2D2
100
AcDbEntity
  8
1
  6
Continuous
100
AcDbLine
 10
336.2191209999999
 20
269.1279569999999
 30
0.0
 11
333.6806329999999
 21
271.649446
 31
0.0
  0
LINE
  5
D45A
330
D2D2
100
AcDbEntity
  8
1
  6
Continuous
100
AcDbLine
 10
339.627425
 20
269.1279569999999
 30
0.0
 11
342.165914
 21
271.649446
 31
0.0
  0
LINE
  5
D45B
330
D2D2
100
AcDbEntity
  8
1
  6
Continuous
100
AcDbLine
 10
341.8759759999999
 20
269.1279569999999
 30
0.0
 11
339.337487
 21
271.649446
 31
0.0
  0
LINE
  5
D45C
330
D2D2
100
AcDbEntity
  8
1
  6
Continuous
100
AcDbLine
 10
356.5979879999999
 20
269.1279569999999
 30
0.0
 11
359.136477
 21
271.649446
 31
0.0
  0
ARC
  5
D45D
330
D2D2
100
AcDbEntity
  8
1
  6
Continuous
100
AcDbCircle
 10
357.5090599999999
 20
272.9436519999998
 30
0.0
 40
4.0
100
AcDbArc
 50
0.0
 51
90.0
  0
LINE
  5
D45E
330
D2D2
100
AcDbEntity
  8
1
  6
Continuous
100
AcDbLine
 10
358.846538
 20
269.1279569999999
 30
0.0
 11
356.3080499999998
 21
271.649446
 31
0.0
  0
LINE
  5
D45F
330
D2D2
100
AcDbEntity
  8
1
  6
Continuous
100
AcDbLine
 10
356.0181109999998
 20
269.1279569999999
 30
0.0
 11
353.479622
 21
271.649446
 31
0.0
  0
LINE
  5
D460
330
D2D2
100
AcDbEntity
  8
1
  6
Continuous
100
AcDbLine
 10
348.1127059999999
 20
269.1279569999999
 30
0.0
 11
350.6511949999999
 21
271.649446
 31
0.0
  0
LINE
  5
D461
330
D2D2
100
AcDbEntity
  8
1
  6
Continuous
100
AcDbLine
 10
350.3612569999999
 20
269.1279569999999
 30
0.0
 11
347.8227679999998
 21
271.649446
 31
0.0
  0
LINE
  5
D462
330
D2D2
100
AcDbEntity
  8
1
  6
Continuous
100
AcDbLine
 10
347.53283
 20
269.1279569999999
 30
0.0
 11
344.994341
 21
271.649446
 31
0.0
  0
LINE
  5
D463
330
D2D2
100
AcDbEntity
  8
1
  6
Continuous
100
AcDbLine
 10
345.284279
 20
269.1279569999999
 30
0.0
 11
347.8227679999998
 21
271.649446
 31
0.0
  0
LINE
  5
D464
330
D2D2
100
AcDbEntity
  8
1
  6
Continuous
100
AcDbLine
 10
350.9411339999999
 20
269.1279569999999
 30
0.0
 11
353.479622
 21
271.649446
 31
0.0
  0
LINE
  5
D465
330
D2D2
100
AcDbEntity
  8
1
  6
Continuous
100
AcDbLine
 10
353.1896839999998
 20
269.1279569999999
 30
0.0
 11
350.6511949999999
 21
271.649446
 31
0.0
  0
LINE
  5
D466
330
D2D2
100
AcDbEntity
  8
1
  6
Continuous
100
AcDbLine
 10
353.769561
 20
269.1279569999999
 30
0.0
 11
356.3080499999998
 21
271.649446
 31
0.0
  0
LINE
  5
D467
330
D2D2
100
AcDbEntity
  8
1
  6
Continuous
100
AcDbLine
 10
363.1951599999999
 20
270.0682739999999
 30
0.0
 11
362.254842
 21
269.1279569999999
 31
0.0
  0
LINE
  5
D468
330
D2D2
100
AcDbEntity
  8
1
  6
Continuous
100
AcDbLine
 10
363.1951599999999
 20
270.43619
 30
0.0
 11
361.964904
 21
271.649446
 31
0.0
  0
LINE
  5
D469
330
D2D2
100
AcDbEntity
  8
1
  6
Continuous
100
AcDbLine
 10
363.1951599999999
 20
272.9436519999998
 30
0.0
 11
363.1951599999999
 21
269.1279569999999
 31
0.0
  0
LINE
  5
D46A
330
D2D2
100
AcDbEntity
  8
1
  6
Continuous
100
AcDbLine
 10
359.4264149999998
 20
269.1279569999999
 30
0.0
 11
361.964904
 21
271.649446
 31
0.0
  0
LINE
  5
D46B
330
D2D2
100
AcDbEntity
  8
1
  6
Continuous
100
AcDbLine
 10
361.6749659999999
 20
269.1279569999999
 30
0.0
 11
359.136477
 21
271.649446
 31
0.0
  0
LINE
  5
D46C
330
D2D2
100
AcDbEntity
  8
1
  6
Continuous
100
AcDbLine
 10
36.378102
 20
199.426377
 30
0.0
 11
38.70434
 21
199.426377
 31
0.0
  0
LINE
  5
D46D
330
D2D2
100
AcDbEntity
  8
1
  6
Continuous
100
AcDbLine
 10
36.378102
 20
213.426377
 30
0.0
 11
38.70434
 21
213.426377
 31
0.0
  0
LINE
  5
D46E
330
D2D2
100
AcDbEntity
  8
1
  6
Continuous
100
AcDbLine
 10
36.378102
 20
213.426377
 30
0.0
 11
36.378102
 21
199.426377
 31
0.0
  0
ARC
  5
D46F
330
D2D2
100
AcDbEntity
  8
1
  6
Continuous
100
AcDbCircle
 10
44.20434
 20
206.426377
 30
0.0
 40
10.5
100
AcDbArc
 50
138.1896849999999
 51
221.810315
  0
LINE
  5
D470
330
D2D2
100
AcDbEntity
  8
1
  6
Continuous
100
AcDbLine
 10
357.2525069999999
 20
199.4441629999998
 30
0.0
 11
354.9262689999998
 21
199.4441629999998
 31
0.0
  0
LINE
  5
D471
330
D2D2
100
AcDbEntity
  8
1
  6
Continuous
100
AcDbLine
 10
357.2525069999999
 20
207.4859319999999
 30
0.0
 11
357.2525069999999
 21
199.4441629999998
 31
0.0
  0
ARC
  5
D472
330
D2D2
100
AcDbEntity
  8
1
  6
Continuous
100
AcDbCircle
 10
349.4262689999998
 20
206.4441629999998
 30
0.0
 40
10.5
100
AcDbArc
 50
318.189685
 51
22.38542199999999
  0
ARC
  5
D473
330
D2D2
100
AcDbEntity
  8
1
  6
Continuous
100
AcDbCircle
 10
200.1175179999999
 20
389.878449
 30
0.0
 40
5.0
100
AcDbArc
 50
39.75275299999999
 51
90.00000300000001
  0
ARC
  5
D474
330
D2D2
100
AcDbEntity
  8
1
  6
Continuous
100
AcDbCircle
 10
200.117511
 20
389.878439
 30
0.0
 40
2.7
100
AcDbArc
 50
39.752743
 51
90.00000300000001
  0
ARC
  5
D475
330
D2D2
100
AcDbEntity
  8
1
  6
Continuous
100
AcDbCircle
 10
216.7937959999999
 20
407.7837689999998
 30
0.0
 40
25.29999899999999
100
AcDbArc
 50
221.321944
 51
265.0416799999998
  0
LINE
  5
D476
330
D2D2
100
AcDbEntity
  8
1
  6
Continuous
100
AcDbLine
 10
200.6220349999999
 20
394.8784489999999
 30
0.0
 11
188.6021149999999
 21
394.8784489999999
 31
0.0
  0
LINE
  5
D477
330
D2D2
100
AcDbEntity
  8
1
  6
Continuous
100
AcDbLine
 10
191.450712
 20
399.0784489999999
 30
0.0
 11
137.2977349999999
 21
399.0784489999999
 31
0.0
  0
LINE
  5
D478
330
D2D2
100
AcDbEntity
  8
1
  6
Continuous
100
AcDbLine
 10
191.2984769999999
 20
399.5784489999999
 30
0.0
 11
137.2977349999999
 21
399.5784489999999
 31
0.0
  0
ARC
  5
D479
330
D2D2
100
AcDbEntity
  8
1
  6
Continuous
100
AcDbCircle
 10
195.267074
 20
96.97546500000001
 30
0.0
 40
5.0
100
AcDbArc
 50
270.0
 51
320.24725
  0
ARC
  5
D47A
330
D2D2
100
AcDbEntity
  8
1
  6
Continuous
100
AcDbCircle
 10
195.267074
 20
96.97546500000001
 30
0.0
 40
2.7
100
AcDbArc
 50
270.0
 51
320.24725
  0
ARC
  5
D47B
330
D2D2
100
AcDbEntity
  8
1
  6
Continuous
100
AcDbCircle
 10
216.793784
 20
79.07014499999998
 30
0.0
 40
25.29999899999999
100
AcDbArc
 50
92.15195600000004
 51
139.9947899999999
  0
LINE
  5
D47C
330
D2D2
100
AcDbEntity
  8
1
  6
Continuous
100
AcDbLine
 10
180.828673
 20
90.89266499999999
 30
0.0
 11
199.960982
 21
90.89266499999999
 31
0.0
  0
LINE
  5
D47D
330
D2D2
100
AcDbEntity
  8
1
  6
Continuous
100
AcDbLine
 10
245.562241
 20
87.77546499999997
 30
0.0
 11
137.297718
 21
87.77546499999997
 31
0.0
  0
LINE
  5
D47E
330
D2D2
100
AcDbEntity
  8
1
  6
Continuous
100
AcDbLine
 10
245.562241
 20
87.27546499999998
 30
0.0
 11
137.297718
 21
87.27546499999998
 31
0.0
  0
LINE
  5
D47F
330
D2D2
100
AcDbEntity
  8
1
  6
Continuous
100
AcDbLine
 10
200.6220229999999
 20
91.97546499999999
 30
0.0
 11
156.3299639999998
 21
91.97546499999999
 31
0.0
  0
LINE
  5
D480
330
D2D2
100
AcDbEntity
  8
1
  6
Continuous
100
AcDbLine
 10
89.51624800000002
 20
184.3296569999999
 30
0.0
 11
89.51624800000002
 21
203.968477
 31
0.0
  0
ARC
  5
D481
330
D2D2
100
AcDbEntity
  8
1
  6
Continuous
100
AcDbCircle
 10
74.056853
 20
198.3331969999999
 30
0.0
 40
7.487911
100
AcDbArc
 50
275.229115
 51
84.77087
  0
LINE
  5
D482
330
D2D2
100
AcDbEntity
  8
1
  6
Continuous
100
AcDbLine
 10
72.42156899999997
 20
185.8209869999998
 30
0.0
 11
72.42156899999997
 21
222.991117
 31
0.0
  0
LINE
  5
D483
330
D2D2
100
AcDbEntity
  8
1
  6
Continuous
100
AcDbLine
 10
72.92156899999998
 20
185.8209869999998
 30
0.0
 11
72.92156899999998
 21
222.991117
 31
0.0
  0
LINE
  5
D484
330
D2D2
100
AcDbEntity
  8
1
  6
Continuous
100
AcDbLine
 10
72.42156899999997
 20
185.8209869999998
 30
0.0
 11
72.92156899999998
 21
185.8209869999998
 31
0.0
  0
ARC
  5
D485
330
D2D2
100
AcDbEntity
  8
1
  6
Continuous
100
AcDbCircle
 10
74.92156899999997
 20
188.8847669999999
 30
0.0
 40
2.0
100
AcDbArc
 50
95.22910999999997
 51
180.00001
  0
ARC
  5
D486
330
D2D2
100
AcDbEntity
  8
1
  6
Continuous
100
AcDbCircle
 10
69.562011
 20
137.9998669999999
 30
0.0
 40
51.62864299999998
100
AcDbArc
 50
68.44682
 51
77.22386
  0
LINE
  5
D487
330
D2D2
100
AcDbEntity
  8
1
  6
Continuous
100
AcDbLine
 10
77.121566
 20
184.3296569999999
 30
0.0
 11
77.121566
 21
191.5011969999999
 31
0.0
  0
ARC
  5
D488
330
D2D2
100
AcDbEntity
  8
1
  6
Continuous
100
AcDbCircle
 10
81.42156899999998
 20
190.3007569999998
 30
0.0
 40
2.0
100
AcDbArc
 50
180.0
 51
257.2238599999999
  0
ARC
  5
D489
330
D2D2
100
AcDbEntity
  8
1
  6
Continuous
100
AcDbCircle
 10
82.12156400000003
 20
192.533057
 30
0.0
 40
5.0
100
AcDbArc
 50
191.3836599999999
 51
254.6875700000001
  0
LINE
  5
D48A
330
D2D2
100
AcDbEntity
  8
1
  6
Continuous
100
AcDbLine
 10
79.42156899999997
 20
190.3007569999998
 30
0.0
 11
79.42156899999997
 21
193.109347
 31
0.0
  0
ARC
  5
D48B
330
D2D2
100
AcDbEntity
  8
1
  6
Continuous
100
AcDbCircle
 10
85.98565399999998
 20
184.566397
 30
0.0
 40
1.230588
100
AcDbArc
 50
348.908329
 51
66.19688
  0
ARC
  5
D48C
330
D2D2
100
AcDbEntity
  8
1
  6
Continuous
100
AcDbCircle
 10
70.047332
 20
148.434707
 30
0.0
 40
40.721458
100
AcDbArc
 50
66.19688
 51
74.68756999999998
  0
LINE
  5
D48D
330
D2D2
100
AcDbEntity
  8
1
  6
Continuous
100
AcDbLine
 10
77.121566
 20
184.3296569999999
 30
0.0
 11
89.49819699999997
 21
184.3296569999999
 31
0.0
  0
ARC
  5
D48E
330
D2D2
100
AcDbEntity
  8
1
  6
Continuous
100
AcDbCircle
 10
87.95498399999997
 20
184.566397
 30
0.0
 40
1.561261999999999
100
AcDbArc
 50
351.278397
 51
68.44682
  0
ARC
  5
D48F
330
D2D2
100
AcDbEntity
  8
1
  6
Continuous
100
AcDbCircle
 10
173.216225
 20
101.975475
 30
0.0
 40
10.0
100
AcDbArc
 50
243.7583499999998
 51
270.0
  0
LINE
  5
D490
330
D2D2
100
AcDbEntity
  8
1
  6
Continuous
100
AcDbLine
 10
140.741398
 20
91.97546499999999
 30
0.0
 11
140.741398
 21
94.275465
 31
0.0
  0
ARC
  5
D491
330
D2D2
100
AcDbEntity
  8
1
  6
Continuous
100
AcDbCircle
 10
151.624169
 20
86.581095
 30
0.0
 40
10.484208
100
AcDbArc
 50
79.970054
 51
149.0344399999998
  0
ARC
  5
D492
330
D2D2
100
AcDbEntity
  8
1
  6
Continuous
100
AcDbCircle
 10
149.497963
 20
88.91075500000004
 30
0.0
 40
7.487911
100
AcDbArc
 50
5.229133
 51
174.77087
  0
LINE
  5
D493
330
D2D2
100
AcDbEntity
  8
1
  6
Continuous
100
AcDbLine
 10
142.6659589999999
 20
91.97546499999999
 30
0.0
 11
140.741398
 21
91.97546499999999
 31
0.0
  0
ARC
  5
D494
330
D2D2
100
AcDbEntity
  8
1
  6
Continuous
100
AcDbCircle
 10
140.0495339999999
 20
89.77546499999998
 30
0.0
 40
2.0
100
AcDbArc
 50
270.0
 51
354.77087
  0
LINE
  5
D495
330
D2D2
100
AcDbEntity
  8
1
  6
Continuous
100
AcDbLine
 10
137.297718
 20
87.27546499999998
 30
0.0
 11
137.297718
 21
87.77546499999997
 31
0.0
  0
ARC
  5
D496
330
D2D2
100
AcDbEntity
  8
1
  6
Continuous
100
AcDbCircle
 10
158.9463889999999
 20
89.77546499999998
 30
0.0
 40
2.0
100
AcDbArc
 50
185.22913
 51
270.0
  0
ARC
  5
D497
330
D2D2
100
AcDbEntity
  8
1
  6
Continuous
100
AcDbCircle
 10
180.828673
 20
87.89266500000001
 30
0.0
 40
3.0
100
AcDbArc
 50
90.00000300000001
 51
135.0
  0
ARC
  5
D498
330
D2D2
100
AcDbEntity
  8
1
  6
Continuous
100
AcDbCircle
 10
174.3977659999999
 20
92.77546499999999
 30
0.0
 40
5.0
100
AcDbArc
 50
270.0
 51
315.0
  0
LINE
  5
D499
330
D2D2
100
AcDbEntity
  8
1
  6
Continuous
100
AcDbLine
 10
177.933298
 20
89.23994499999997
 30
0.0
 11
178.707354
 21
90.01400499999999
 31
0.0
  0
ARC
  5
D49A
330
D2D2
100
AcDbEntity
  8
1
  6
Continuous
100
AcDbCircle
 10
153.450386
 20
55.256535
 30
0.0
 40
42.67852
100
AcDbArc
 50
66.09976999999999
 51
90.00000300000001
  0
ARC
  5
D49B
330
D2D2
100
AcDbEntity
  8
1
  6
Continuous
100
AcDbCircle
 10
151.9386979999999
 20
58.81304499999998
 30
0.0
 40
38.122002
100
AcDbArc
 50
63.75835400000001
 51
87.72739399999997
  0
ARC
  5
D49C
330
D2D2
100
AcDbEntity
  8
1
  6
Continuous
100
AcDbCircle
 10
152.1335829999999
 20
108.881625
 30
0.0
 40
10.19384799999998
100
AcDbArc
 50
0.0
 51
180.00001
  0
ARC
  5
D49D
330
D2D2
100
AcDbEntity
  8
1
  6
Continuous
100
AcDbCircle
 10
152.1335829999999
 20
108.881625
 30
0.0
 40
10.19384799999998
100
AcDbArc
 50
0.0
 51
180.00001
  0
ARC
  5
D49E
330
D2D2
100
AcDbEntity
  8
1
  6
Continuous
100
AcDbCircle
 10
152.6533589999999
 20
108.881625
 30
0.0
 40
10.19384799999998
100
AcDbArc
 50
0.0
 51
91.46089100000001
  0
ARC
  5
D49F
330
D2D2
100
AcDbEntity
  8
1
  6
Continuous
100
AcDbCircle
 10
153.450386
 20
80.12121500000002
 30
0.0
 40
17.81383299999999
100
AcDbArc
 50
90.00000300000001
 51
127.3858
  0
LINE
  5
D4A0
330
D2D2
100
AcDbEntity
  8
1
  6
Continuous
100
AcDbLine
 10
141.9397319999999
 20
94.275465
 30
0.0
 11
141.9397319999999
 21
108.881625
 31
0.0
  0
LINE
  5
D4A1
330
D2D2
100
AcDbEntity
  8
1
  6
Continuous
100
AcDbLine
 10
142.634205
 20
94.275465
 30
0.0
 11
140.741398
 21
94.275465
 31
0.0
  0
LINE
  5
D4A2
330
D2D2
100
AcDbEntity
  8
1
  6
Continuous
100
AcDbLine
 10
162.327431
 20
97.00164499999999
 30
0.0
 11
162.327431
 21
108.881625
 31
0.0
  0
LINE
  5
D4A3
330
D2D2
100
AcDbEntity
  8
1
  6
Continuous
100
AcDbLine
 10
162.8472059999998
 20
96.887725
 30
0.0
 11
162.8472059999998
 21
108.881625
 31
0.0
  0
LINE
  5
D4A4
330
D2D2
100
AcDbEntity
  8
1
  6
Continuous
100
AcDbLine
 10
195.267074
 20
94.275465
 30
0.0
 11
170.7413939999999
 21
94.275465
 31
0.0
  0
LINE
  5
D4A5
330
D2D2
100
AcDbEntity
  8
1
  6
Continuous
100
AcDbLine
 10
82.12156400000003
 20
228.9812069999999
 30
0.0
 11
93.72156999999999
 21
228.9812069999999
 31
0.0
  0
LINE
  5
D4A6
330
D2D2
100
AcDbEntity
  8
1
  6
Continuous
100
AcDbLine
 10
81.42156899999998
 20
226.754947
 30
0.0
 11
93.72156999999999
 21
226.754947
 31
0.0
  0
LINE
  5
D4A7
330
D2D2
100
AcDbEntity
  8
1
  6
Continuous
100
AcDbLine
 10
81.42156899999998
 20
221.464437
 30
0.0
 11
93.72156999999999
 21
221.464437
 31
0.0
  0
LINE
  5
D4A8
330
D2D2
100
AcDbEntity
  8
1
  6
Continuous
100
AcDbLine
 10
89.51624800000002
 20
200.649677
 30
0.0
 11
95.63200100000001
 21
200.649677
 31
0.0
  0
LINE
  5
D4A9
330
D2D2
100
AcDbEntity
  8
1
  6
Continuous
100
AcDbLine
 10
87.417966
 20
208.176847
 30
0.0
 11
95.63200100000001
 21
208.176847
 31
0.0
  0
LINE
  5
D4AA
330
D2D2
100
AcDbEntity
  8
1
  6
Continuous
100
AcDbLine
 10
89.103086
 20
205.958677
 30
0.0
 11
95.63200100000001
 21
205.958677
 31
0.0
  0
ARC
  5
D4AB
330
D2D2
100
AcDbEntity
  8
1
  6
Continuous
100
AcDbCircle
 10
81.42156899999998
 20
217.426197
 30
0.0
 40
2.0
100
AcDbArc
 50
180.0
 51
223.40908
  0
ARC
  5
D4AC
330
D2D2
100
AcDbEntity
  8
1
  6
Continuous
100
AcDbCircle
 10
74.056853
 20
210.2413169999999
 30
0.0
 40
7.487911
100
AcDbArc
 50
65.83988000000001
 51
84.77087
  0
ARC
  5
D4AD
330
D2D2
100
AcDbEntity
  8
1
  6
Continuous
100
AcDbCircle
 10
74.92156899999997
 20
219.689747
 30
0.0
 40
2.0
100
AcDbArc
 50
180.00001
 51
264.7708699999999
  0
LINE
  5
D4AE
330
D2D2
100
AcDbEntity
  8
1
  6
Continuous
100
AcDbLine
 10
77.121566
 20
205.165207
 30
0.0
 11
77.121566
 21
226.728187
 31
0.0
  0
LINE
  5
D4AF
330
D2D2
100
AcDbEntity
  8
1
  6
Continuous
100
AcDbLine
 10
79.42156899999997
 20
209.2742669999999
 30
0.0
 11
79.42156899999997
 21
224.7549269999999
 31
0.0
  0
ARC
  5
D4B0
330
D2D2
100
AcDbEntity
  8
1
  6
Continuous
100
AcDbCircle
 10
74.92156899999997
 20
207.7816169999999
 30
0.0
 40
2.0
100
AcDbArc
 50
180.00001
 51
264.7708699999999
  0
LINE
  5
D4B1
330
D2D2
100
AcDbEntity
  8
1
  6
Continuous
100
AcDbLine
 10
89.42156700000003
 20
205.958677
 30
0.0
 11
89.42156700000003
 21
208.176847
 31
0.0
  0
ARC
  5
D4B2
330
D2D2
100
AcDbEntity
  8
1
  6
Continuous
100
AcDbCircle
 10
79.08607399999998
 20
204.758757
 30
0.0
 40
2.0
100
AcDbArc
 50
0.000003
 51
52.70184
  0
ARC
  5
D4B3
330
D2D2
100
AcDbEntity
  8
1
  6
Continuous
100
AcDbCircle
 10
81.041976
 20
205.7381969999999
 30
0.0
 40
2.0
100
AcDbArc
 50
6.111539999999997
 51
48.45631
  0
LINE
  5
D4B4
330
D2D2
100
AcDbEntity
  8
1
  6
Continuous
100
AcDbLine
 10
77.121566
 20
214.786687
 30
0.0
 11
79.42156899999997
 21
214.786687
 31
0.0
  0
LINE
  5
D4B5
330
D2D2
100
AcDbEntity
  8
1
  6
Continuous
100
AcDbLine
 10
77.121566
 20
214.786687
 30
0.0
 11
79.42156899999997
 21
214.786687
 31
0.0
  0
ARC
  5
D4B6
330
D2D2
100
AcDbEntity
  8
1
  6
Continuous
100
AcDbCircle
 10
72.42048599999998
 20
196.008337
 30
0.0
 40
15.0
100
AcDbArc
 50
48.45631
 51
62.17719999999999
  0
ARC
  5
D4B7
330
D2D2
100
AcDbEntity
  8
1
  6
Continuous
100
AcDbCircle
 10
72.42048599999998
 20
196.008337
 30
0.0
 40
13.0
100
AcDbArc
 50
52.70184
 51
68.8002
  0
ARC
  5
D4B8
330
D2D2
100
AcDbEntity
  8
1
  6
Continuous
100
AcDbCircle
 10
73.08744699999998
 20
204.886477
 30
0.0
 40
10.0
100
AcDbArc
 50
326.90039
 51
6.111539999999997
  0
ARC
  5
D4B9
330
D2D2
100
AcDbEntity
  8
1
  6
Continuous
100
AcDbCircle
 10
73.08744699999998
 20
204.886477
 30
0.0
 40
8.0
100
AcDbArc
 50
339.1486919999999
 51
358.7803149999999
  0
ARC
  5
D4BA
330
D2D2
100
AcDbEntity
  8
1
  6
Continuous
100
AcDbCircle
 10
84.51624800000002
 20
203.968477
 30
0.0
 40
5.0
100
AcDbArc
 50
0.000003
 51
43.40908999999999
  0
LINE
  5
D4BB
330
D2D2
100
AcDbEntity
  8
1
  6
Continuous
100
AcDbLine
 10
79.96863999999998
 20
216.051787
 30
0.0
 11
82.52007199999999
 21
213.3545799999999
 31
0.0
  0
LINE
  5
D4BC
330
D2D2
100
AcDbEntity
  8
1
  6
Continuous
100
AcDbLine
 10
74.52155999999998
 20
228.728187
 30
0.0
 11
77.42156899999997
 21
228.728187
 31
0.0
  0
LINE
  5
D4BD
330
D2D2
100
AcDbEntity
  8
1
  6
Continuous
100
AcDbLine
 10
74.52155999999998
 20
226.728187
 30
0.0
 11
77.121566
 21
226.728187
 31
0.0
  0
ARC
  5
D4BE
330
D2D2
100
AcDbEntity
  8
1
  6
Continuous
100
AcDbCircle
 10
82.12156400000003
 20
223.9812069999999
 30
0.0
 40
5.0
100
AcDbArc
 50
90.00001000000002
 51
180.0
  0
LINE
  5
D4BF
330
D2D2
100
AcDbEntity
  8
1
  6
Continuous
100
AcDbLine
 10
74.52155999999998
 20
226.728187
 30
0.0
 11
74.52155999999998
 21
228.728187
 31
0.0
  0
LINE
  5
D4C0
330
D2D2
100
AcDbEntity
  8
1
  6
Continuous
100
AcDbLine
 10
72.42156899999997
 20
222.991117
 30
0.0
 11
72.92156899999998
 21
222.991117
 31
0.0
  0
ARC
  5
D4C1
330
D2D2
100
AcDbEntity
  8
1
  6
Continuous
100
AcDbCircle
 10
81.42156899999998
 20
224.7549269999999
 30
0.0
 40
2.0
100
AcDbArc
 50
90.00001000000002
 51
180.0
  0
ARC
  5
D4C2
330
D2D2
100
AcDbEntity
  8
1
  6
Continuous
100
AcDbCircle
 10
77.42156899999997
 20
226.728187
 30
0.0
 40
2.0
100
AcDbArc
 50
36.33068999999999
 51
90.00001000000002
  0
ARC
  5
D4C3
330
D2D2
100
AcDbEntity
  8
1
  6
Continuous
100
AcDbCircle
 10
81.42156899999998
 20
219.464437
 30
0.0
 40
2.0
100
AcDbArc
 50
90.00001000000002
 51
180.0
  0
LINE
  5
D4C4
330
D2D2
100
AcDbEntity
  8
1
  6
Continuous
100
AcDbLine
 10
106.1320009999999
 20
205.5222969999999
 30
0.0
 11
106.1320009999999
 21
203.304187
 31
0.0
  0
ARC
  5
D4C5
330
D2D2
100
AcDbEntity
  8
1
  6
Continuous
100
AcDbCircle
 10
95.63200100000001
 20
167.8608069999999
 30
0.0
 40
38.097919
100
AcDbArc
 50
75.81209
 51
90.00001000000002
  0
ARC
  5
D4C6
330
D2D2
100
AcDbEntity
  8
1
  6
Continuous
100
AcDbCircle
 10
95.63200100000001
 20
170.078937
 30
0.0
 40
38.097919
100
AcDbArc
 50
75.81209
 51
90.00001000000002
  0
ARC
  5
D4C7
330
D2D2
100
AcDbEntity
  8
1
  6
Continuous
100
AcDbCircle
 10
95.63200100000001
 20
238.7475269999999
 30
0.0
 40
38.097919
100
AcDbArc
 50
270.0
 51
284.187905
  0
ARC
  5
D4C8
330
D2D2
100
AcDbEntity
  8
1
  6
Continuous
100
AcDbCircle
 10
104.5925879999999
 20
205.5222969999999
 30
0.0
 40
1.539409999999999
100
AcDbArc
 50
0.000003
 51
75.81209
  0
ARC
  5
D4C9
330
D2D2
100
AcDbEntity
  8
1
  6
Continuous
100
AcDbCircle
 10
104.5925879999999
 20
203.304187
 30
0.0
 40
1.539409999999999
100
AcDbArc
 50
284.187905
 51
75.81209
  0
ARC
  5
D4CA
330
D2D2
100
AcDbEntity
  8
1
  6
Continuous
100
AcDbCircle
 10
93.72156999999999
 20
259.702637
 30
0.0
 40
38.238205
100
AcDbArc
 50
270.0
 51
284.140197
  0
LINE
  5
D4CB
330
D2D2
100
AcDbEntity
  8
1
  6
Continuous
100
AcDbLine
 10
104.22157
 20
226.3359369999998
 30
0.0
 11
104.22157
 21
224.109687
 31
0.0
  0
LINE
  5
D4CC
330
D2D2
100
AcDbEntity
  8
1
  6
Continuous
100
AcDbLine
 10
104.22157
 20
226.3359369999998
 30
0.0
 11
104.22157
 21
224.109687
 31
0.0
  0
ARC
  5
D4CD
330
D2D2
100
AcDbEntity
  8
1
  6
Continuous
100
AcDbCircle
 10
102.6884589999999
 20
226.3359369999998
 30
0.0
 40
1.533117999999999
100
AcDbArc
 50
0.000003
 51
75.85980999999998
  0
ARC
  5
D4CE
330
D2D2
100
AcDbEntity
  8
1
  6
Continuous
100
AcDbCircle
 10
102.6884589999999
 20
224.109687
 30
0.0
 40
1.533117999999999
100
AcDbArc
 50
284.140197
 51
75.85980999999998
  0
ARC
  5
D4CF
330
D2D2
100
AcDbEntity
  8
1
  6
Continuous
100
AcDbCircle
 10
93.72156999999999
 20
190.742997
 30
0.0
 40
38.238205
100
AcDbArc
 50
75.85980999999998
 51
90.00001000000002
  0
ARC
  5
D4D0
330
D2D2
100
AcDbEntity
  8
1
  6
Continuous
100
AcDbCircle
 10
93.72156999999999
 20
188.516727
 30
0.0
 40
38.238205
100
AcDbArc
 50
75.85980999999998
 51
90.00001000000002
  0
LINE
  5
D4D1
330
D2D2
100
AcDbEntity
  8
1
  6
Continuous
100
AcDbLine
 10
141.939749
 20
392.5784489999998
 30
0.0
 11
141.939749
 21
377.9722889999999
 31
0.0
  0
LINE
  5
D4D2
330
D2D2
100
AcDbEntity
  8
1
  6
Continuous
100
AcDbLine
 10
142.4595239999999
 20
391.0784489999999
 30
0.0
 11
142.4595239999999
 21
377.9722889999999
 31
0.0
  0
LINE
  5
D4D3
330
D2D2
100
AcDbEntity
  8
1
  6
Continuous
100
AcDbLine
 10
162.8472149999998
 20
390.5784489999999
 30
0.0
 11
162.8472149999998
 21
377.9722889999999
 31
0.0
  0
ARC
  5
D4D4
330
D2D2
100
AcDbEntity
  8
1
  6
Continuous
100
AcDbCircle
 10
152.653368
 20
377.9722889999999
 30
0.0
 40
10.19384799999998
100
AcDbArc
 50
268.5391099999999
 51
0.0
  0
ARC
  5
D4D5
330
D2D2
100
AcDbEntity
  8
1
  6
Continuous
100
AcDbCircle
 10
152.133592
 20
377.9722889999999
 30
0.0
 40
10.19384799999998
100
AcDbArc
 50
179.9999899999999
 51
271.4608999999999
  0
ARC
  5
D4D6
330
D2D2
100
AcDbEntity
  8
1
  6
Continuous
100
AcDbCircle
 10
152.653368
 20
377.9722889999999
 30
0.0
 40
10.19384799999998
100
AcDbArc
 50
179.9999899999999
 51
0.00001
  0
LINE
  5
D4D7
330
D2D2
100
AcDbEntity
  8
1
  6
Continuous
100
AcDbLine
 10
200.117511
 20
392.5784489999998
 30
0.0
 11
164.8472149999998
 21
392.5784489999998
 31
0.0
  0
LINE
  5
D4D8
330
D2D2
100
AcDbEntity
  8
1
  6
Continuous
100
AcDbLine
 10
183.0514329999998
 20
394.8784489999999
 30
0.0
 11
140.7414149999999
 21
394.8784489999999
 31
0.0
  0
ARC
  5
D4D9
330
D2D2
100
AcDbEntity
  8
1
  6
Continuous
100
AcDbCircle
 10
153.4503949999999
 20
431.597379
 30
0.0
 40
42.67852
100
AcDbArc
 50
282.7194099999999
 51
293.9002299999998
  0
ARC
  5
D4DA
330
D2D2
100
AcDbEntity
  8
1
  6
Continuous
100
AcDbCircle
 10
149.497972
 20
397.9431589999999
 30
0.0
 40
7.487911
100
AcDbArc
 50
185.22913
 51
204.16012
  0
ARC
  5
D4DB
330
D2D2
100
AcDbEntity
  8
1
  6
Continuous
100
AcDbCircle
 10
140.9595239999999
 20
391.0784489999999
 30
0.0
 40
1.5
100
AcDbArc
 50
0.0
 51
90.00000300000001
  0
LINE
  5
D4DC
330
D2D2
100
AcDbEntity
  8
1
  6
Continuous
100
AcDbLine
 10
140.9595239999999
 20
392.5784489999998
 30
0.0
 11
140.7414149999999
 21
392.5784489999998
 31
0.0
  0
LINE
  5
D4DD
330
D2D2
100
AcDbEntity
  8
1
  6
Continuous
100
AcDbLine
 10
140.7414149999999
 20
394.8784489999999
 30
0.0
 11
140.7414149999999
 21
392.5784489999998
 31
0.0
  0
ARC
  5
D4DE
330
D2D2
100
AcDbEntity
  8
1
  6
Continuous
100
AcDbCircle
 10
140.049551
 20
397.0784489999999
 30
0.0
 40
2.0
100
AcDbArc
 50
5.229133
 51
90.00000300000001
  0
LINE
  5
D4DF
330
D2D2
100
AcDbEntity
  8
1
  6
Continuous
100
AcDbLine
 10
137.2977349999999
 20
399.5784489999999
 30
0.0
 11
137.2977349999999
 21
399.0784489999999
 31
0.0
  0
ARC
  5
D4E0
330
D2D2
100
AcDbEntity
  8
1
  6
Continuous
100
AcDbCircle
 10
149.497972
 20
397.9431589999999
 30
0.0
 40
7.487911
100
AcDbArc
 50
335.8398799999998
 51
354.77087
  0
ARC
  5
D4E1
330
D2D2
100
AcDbEntity
  8
1
  6
Continuous
100
AcDbCircle
 10
164.8472149999998
 20
390.5784489999999
 30
0.0
 40
2.0
100
AcDbArc
 50
90.00000300000001
 51
180.00001
  0
ARC
  5
D4E2
330
D2D2
100
AcDbEntity
  8
1
  6
Continuous
100
AcDbCircle
 10
158.9463979999998
 20
397.0784489999999
 30
0.0
 40
2.0
100
AcDbArc
 50
90.00000300000001
 51
174.77087
  0
LINE
  5
D4E3
330
D2D2
100
AcDbEntity
  8
1
  6
Continuous
100
AcDbLine
 10
183.05143
 20
394.8784489999999
 30
0.0
 11
184.9444939999999
 21
397.1231389999999
 31
0.0
  0
LINE
  5
D4E4
330
D2D2
100
AcDbEntity
  8
1
  6
Continuous
100
AcDbLine
 10
185.3219219999998
 20
396.9401889999998
 30
0.0
 11
183.6118139999999
 21
393.654969
 31
0.0
  0
ARC
  5
D4E5
330
D2D2
100
AcDbEntity
  8
1
  6
Continuous
100
AcDbCircle
 10
181.83778
 20
394.5784489999999
 30
0.0
 40
2.0
100
AcDbArc
 50
270.0
 51
332.5008899999999
  0
LINE
  5
D4E6
330
D2D2
100
AcDbEntity
  8
1
  6
Continuous
100
AcDbLine
 10
177.9333059999999
 20
397.613989
 30
0.0
 11
178.7073689999998
 21
396.8399189999999
 31
0.0
  0
ARC
  5
D4E7
330
D2D2
100
AcDbEntity
  8
1
  6
Continuous
100
AcDbCircle
 10
180.828686
 20
398.961229
 30
0.0
 40
3.0
100
AcDbArc
 50
225.0
 51
270.0
  0
ARC
  5
D4E8
330
D2D2
100
AcDbEntity
  8
1
  6
Continuous
100
AcDbCircle
 10
174.3977749999999
 20
394.078449
 30
0.0
 40
5.0
100
AcDbArc
 50
45.00000099999999
 51
90.00000300000001
  0
LINE
  5
D4E9
330
D2D2
100
AcDbEntity
  8
1
  6
Continuous
100
AcDbLine
 10
180.828686
 20
395.9612289999999
 30
0.0
 11
183.9646109999999
 21
395.9612289999999
 31
0.0
  0
ARC
  5
D4EA
330
D2D2
100
AcDbEntity
  8
1
  6
Continuous
100
AcDbCircle
 10
187.6021149999999
 20
396.4784389999999
 30
0.0
 40
1.0
100
AcDbArc
 50
0.0
 51
90.00000300000001
  0
ARC
  5
D4EB
330
D2D2
100
AcDbEntity
  8
1
  6
Continuous
100
AcDbCircle
 10
186.2089419999998
 20
396.4784389999999
 30
0.0
 40
1.0
100
AcDbArc
 50
90.00000300000001
 51
152.5009
  0
ARC
  5
D4EC
330
D2D2
100
AcDbEntity
  8
1
  6
Continuous
100
AcDbCircle
 10
185.7089419999999
 20
396.4784389999999
 30
0.0
 40
1.0
100
AcDbArc
 50
90.00000300000001
 51
152.5009
  0
LINE
  5
D4ED
330
D2D2
100
AcDbEntity
  8
1
  6
Continuous
100
AcDbLine
 10
187.6021149999999
 20
397.4784389999999
 30
0.0
 11
185.7089419999999
 21
397.4784389999999
 31
0.0
  0
ARC
  5
D4EE
330
D2D2
100
AcDbEntity
  8
1
  6
Continuous
100
AcDbCircle
 10
189.6021149999999
 20
393.5784489999999
 30
0.0
 40
1.0
100
AcDbArc
 50
179.9999899999999
 51
270.0
  0
LINE
  5
D4EF
330
D2D2
100
AcDbEntity
  8
1
  6
Continuous
100
AcDbLine
 10
188.6021149999999
 20
396.4784389999999
 30
0.0
 11
188.6021149999999
 21
393.5784489999999
 31
0.0
  0
LINE
  5
D4F0
330
D2D2
100
AcDbEntity
  8
1
  6
Continuous
100
AcDbLine
 10
316.5090599999999
 20
188.957043
 30
0.0
 11
316.5090599999999
 21
203.4271029999999
 31
0.0
  0
LINE
  5
D4F1
330
D2D2
100
AcDbEntity
  8
1
  6
Continuous
100
AcDbLine
 10
315.5416389999999
 20
184.347443
 30
0.0
 11
315.5416389999999
 21
203.949533
 31
0.0
  0
LINE
  5
D4F2
330
D2D2
100
AcDbEntity
  8
1
  6
Continuous
100
AcDbLine
 10
315.5416389999999
 20
184.347443
 30
0.0
 11
315.5416389999999
 21
197.8856129999998
 31
0.0
  0
LINE
  5
D4F3
330
D2D2
100
AcDbEntity
  8
1
  6
Continuous
100
AcDbLine
 10
321.2090569999999
 20
185.838773
 30
0.0
 11
321.2090569999999
 21
223.0089029999998
 31
0.0
  0
LINE
  5
D4F4
330
D2D2
100
AcDbEntity
  8
1
  6
Continuous
100
AcDbLine
 10
320.7090569999999
 20
185.838773
 30
0.0
 11
320.7090569999999
 21
223.0089029999998
 31
0.0
  0
LINE
  5
D4F5
330
D2D2
100
AcDbEntity
  8
1
  6
Continuous
100
AcDbLine
 10
304.114378
 20
184.347443
 30
0.0
 11
304.114378
 21
200.667463
 31
0.0
  0
LINE
  5
D4F6
330
D2D2
100
AcDbEntity
  8
1
  6
Continuous
100
AcDbLine
 10
313.2416359999999
 20
184.347443
 30
0.0
 11
313.2416359999999
 21
198.6674629999999
 31
0.0
  0
ARC
  5
D4F7
330
D2D2
100
AcDbEntity
  8
1
  6
Continuous
100
AcDbCircle
 10
241.9506
 20
93.938845
 30
0.0
 40
1.0
100
AcDbArc
 50
275.14987
 51
5.149873
  0
ARC
  5
D4F8
330
D2D2
100
AcDbEntity
  8
1
  6
Continuous
100
AcDbCircle
 10
200.1175069999999
 20
96.97546500000001
 30
0.0
 40
5.0
100
AcDbArc
 50
270.0
 51
320.24725
  0
LINE
  5
D4F9
330
D2D2
100
AcDbEntity
  8
1
  6
Continuous
100
AcDbLine
 10
211.3277389999999
 20
96.54974500000001
 30
0.0
 11
202.4122869999999
 21
91.534805
 31
0.0
  0
LINE
  5
D4FA
330
D2D2
100
AcDbEntity
  8
1
  6
Continuous
100
AcDbLine
 10
212.922673
 20
89.018005
 30
0.0
 11
214.2485509999999
 21
94.32151500000001
 31
0.0
  0
ARC
  5
D4FB
330
D2D2
100
AcDbEntity
  8
1
  6
Continuous
100
AcDbCircle
 10
223.478156
 20
95.587385
 30
0.0
 40
4.299999999999998
100
AcDbArc
 50
192.7747199999999
 51
276.32929
  0
LINE
  5
D4FC
330
D2D2
100
AcDbEntity
  8
1
  6
Continuous
100
AcDbLine
 10
242.040356
 20
92.942885
 30
0.0
 11
223.8641259999999
 21
91.304745
 31
0.0
  0
ARC
  5
D4FD
330
D2D2
100
AcDbEntity
  8
1
  6
Continuous
100
AcDbCircle
 10
213.892813
 20
88.77546499999999
 30
0.0
 40
1.0
100
AcDbArc
 50
165.96376
 51
270.0
  0
ARC
  5
D4FE
330
D2D2
100
AcDbEntity
  8
1
  6
Continuous
100
AcDbCircle
 10
199.960982
 20
95.89266499999999
 30
0.0
 40
5.0
100
AcDbArc
 50
270.0
 51
299.35776
  0
ARC
  5
D4FF
330
D2D2
100
AcDbEntity
  8
1
  6
Continuous
100
AcDbCircle
 10
233.0520609999999
 20
88.91075500000004
 30
0.0
 40
7.487911
100
AcDbArc
 50
159.77338
 51
174.77087
  0
ARC
  5
D500
330
D2D2
100
AcDbEntity
  8
1
  6
Continuous
100
AcDbCircle
 10
223.6036369999999
 20
89.77546499999998
 30
0.0
 40
2.0
100
AcDbArc
 50
270.0
 51
354.77087
  0
ARC
  5
D501
330
D2D2
100
AcDbEntity
  8
1
  6
Continuous
100
AcDbCircle
 10
242.5004889999999
 20
89.77546499999998
 30
0.0
 40
2.0
100
AcDbArc
 50
185.22913
 51
270.0
  0
ARC
  5
D502
330
D2D2
100
AcDbEntity
  8
1
  6
Continuous
100
AcDbCircle
 10
233.0520609999999
 20
88.91075500000004
 30
0.0
 40
7.487911
100
AcDbArc
 50
5.229133
 51
30.526359
  0
LINE
  5
D503
330
D2D2
100
AcDbEntity
  8
1
  6
Continuous
100
AcDbLine
 10
245.562241
 20
87.27546499999998
 30
0.0
 11
245.562241
 21
87.77546499999997
 31
0.0
  0
LINE
  5
D504
330
D2D2
100
AcDbEntity
  8
1
  6
Continuous
100
AcDbLine
 10
242.202164
 20
95.266785
 30
0.0
 11
223.657675
 21
93.59545500000001
 31
0.0
  0
ARC
  5
D505
330
D2D2
100
AcDbEntity
  8
1
  6
Continuous
100
AcDbCircle
 10
230.575987
 20
110.801035
 30
0.0
 40
10.184876
100
AcDbArc
 50
5.149873
 51
185.14987
  0
ARC
  5
D506
330
D2D2
100
AcDbEntity
  8
1
  6
Continuous
100
AcDbCircle
 10
212.308264
 20
94.80657499999999
 30
0.0
 40
2.0
100
AcDbArc
 50
353.1028449999998
 51
119.3577499999999
  0
ARC
  5
D507
330
D2D2
100
AcDbEntity
  8
1
  6
Continuous
100
AcDbCircle
 10
221.644218
 20
79.07014499999998
 30
0.0
 40
23.0
100
AcDbArc
 50
101.08106
 51
139.9947899999999
  0
ARC
  5
D508
330
D2D2
100
AcDbEntity
  8
1
  6
Continuous
100
AcDbCircle
 10
216.793784
 20
79.07014499999998
 30
0.0
 40
23.0
100
AcDbArc
 50
92.15195600000004
 51
139.9947899999999
  0
ARC
  5
D509
330
D2D2
100
AcDbEntity
  8
1
  6
Continuous
100
AcDbCircle
 10
228.2314589999999
 20
96.01577500000001
 30
0.0
 40
2.0
100
AcDbArc
 50
192.7747199999999
 51
275.14987
  0
ARC
  5
D50A
330
D2D2
100
AcDbEntity
  8
1
  6
Continuous
100
AcDbCircle
 10
216.00524
 20
100.055325
 30
0.0
 40
4.299999999999998
100
AcDbArc
 50
12.774711
 51
92.15195600000004
  0
ARC
  5
D50B
330
D2D2
100
AcDbEntity
  8
1
  6
Continuous
100
AcDbCircle
 10
216.00524
 20
100.055325
 30
0.0
 40
2.0
100
AcDbArc
 50
12.774711
 51
92.15195600000004
  0
LINE
  5
D50C
330
D2D2
100
AcDbEntity
  8
1
  6
Continuous
100
AcDbLine
 10
214.607115
 20
104.275475
 30
0.0
 11
221.680564
 21
104.275475
 31
0.0
  0
ARC
  5
D50D
330
D2D2
100
AcDbEntity
  8
1
  6
Continuous
100
AcDbCircle
 10
220.855666
 20
100.055325
 30
0.0
 40
4.299999999999998
100
AcDbArc
 50
12.774711
 51
92.15195600000004
  0
LINE
  5
D50E
330
D2D2
100
AcDbEntity
  8
1
  6
Continuous
100
AcDbLine
 10
225.049225
 20
101.0061349999999
 30
0.0
 11
224.806446
 21
103.699925
 31
0.0
  0
ARC
  5
D50F
330
D2D2
100
AcDbEntity
  8
1
  6
Continuous
100
AcDbCircle
 10
223.478156
 20
95.587385
 30
0.0
 40
2.0
100
AcDbArc
 50
192.7747199999999
 51
275.14987
  0
LINE
  5
D510
330
D2D2
100
AcDbEntity
  8
1
  6
Continuous
100
AcDbLine
 10
221.5276639999999
 20
95.14515499999999
 30
0.0
 11
220.1988029999998
 21
101.0061449999999
 31
0.0
  0
LINE
  5
D511
330
D2D2
100
AcDbEntity
  8
1
  6
Continuous
100
AcDbLine
 10
219.284593
 20
94.636595
 30
0.0
 11
217.955733
 21
100.497575
 31
0.0
  0
ARC
  5
D512
330
D2D2
100
AcDbEntity
  8
1
  6
Continuous
100
AcDbCircle
 10
223.8104929999999
 20
103.6101649999999
 30
0.0
 40
1.0
100
AcDbArc
 50
5.149873
 51
95.14987600000001
  0
ARC
  5
D513
330
D2D2
100
AcDbEntity
  8
1
  6
Continuous
100
AcDbCircle
 10
221.8370129999999
 20
105.440405
 30
0.0
 40
1.0
100
AcDbArc
 50
185.1498799999999
 51
275.14987
  0
LINE
  5
D514
330
D2D2
100
AcDbEntity
  8
1
  6
Continuous
100
AcDbLine
 10
220.841046
 20
105.3506449999999
 30
0.0
 11
220.4322209999999
 21
109.8868449999998
 31
0.0
  0
LINE
  5
D515
330
D2D2
100
AcDbEntity
  8
1
  6
Continuous
100
AcDbLine
 10
223.720722
 20
104.606125
 30
0.0
 11
221.92677
 21
104.444445
 31
0.0
  0
LINE
  5
D516
330
D2D2
100
AcDbEntity
  8
1
  6
Continuous
100
AcDbLine
 10
226.280968
 20
95.573545
 30
0.0
 11
225.0492329999999
 21
101.0061449999999
 31
0.0
  0
ARC
  5
D517
330
D2D2
100
AcDbEntity
  8
1
  6
Continuous
100
AcDbCircle
 10
231.2036879999999
 20
110.8576149999999
 30
0.0
 40
10.184876
100
AcDbArc
 50
5.149873
 51
96.922905
  0
LINE
  5
D518
330
D2D2
100
AcDbEntity
  8
1
  6
Continuous
100
AcDbLine
 10
242.202164
 20
95.266785
 30
0.0
 11
240.7197459999999
 21
111.7152549999999
 31
0.0
  0
LINE
  5
D519
330
D2D2
100
AcDbEntity
  8
1
  6
Continuous
100
AcDbLine
 10
242.9465599999999
 20
94.028605
 30
0.0
 11
241.3474509999999
 21
111.771825
 31
0.0
  0
ARC
  5
D51A
330
D2D2
100
AcDbEntity
  8
1
  6
Continuous
100
AcDbCircle
 10
319.573773
 20
198.350983
 30
0.0
 40
7.487911
100
AcDbArc
 50
245.83988
 51
264.7708799999999
  0
LINE
  5
D51B
330
D2D2
100
AcDbEntity
  8
1
  6
Continuous
100
AcDbLine
 10
316.5090599999999
 20
188.957043
 30
0.0
 11
315.5416389999999
 21
188.957043
 31
0.0
  0
LINE
  5
D51C
330
D2D2
100
AcDbEntity
  8
1
  6
Continuous
100
AcDbLine
 10
315.5416389999999
 20
184.347443
 30
0.0
 11
304.132433
 21
184.347443
 31
0.0
  0
LINE
  5
D51D
330
D2D2
100
AcDbEntity
  8
1
  6
Continuous
100
AcDbLine
 10
321.2090569999999
 20
185.838773
 30
0.0
 11
320.7090569999999
 21
185.838773
 31
0.0
  0
ARC
  5
D51E
330
D2D2
100
AcDbEntity
  8
1
  6
Continuous
100
AcDbCircle
 10
318.7090569999999
 20
188.9025529999999
 30
0.0
 40
2.0
100
AcDbArc
 50
0.0
 51
84.77088
  0
LINE
  5
D51F
330
D2D2
100
AcDbEntity
  8
1
  6
Continuous
100
AcDbLine
 10
242.9465729999999
 20
392.825309
 30
0.0
 11
241.3474649999999
 21
375.0820889999998
 31
0.0
  0
ARC
  5
D520
330
D2D2
100
AcDbEntity
  8
1
  6
Continuous
100
AcDbCircle
 10
221.6442289999999
 20
407.7837689999998
 30
0.0
 40
25.29999899999999
100
AcDbArc
 50
219.75275
 51
267.8480299999999
  0
ARC
  5
D521
330
D2D2
100
AcDbEntity
  8
1
  6
Continuous
100
AcDbCircle
 10
221.6442289999999
 20
407.7837689999998
 30
0.0
 40
23.0
100
AcDbArc
 50
220.00521
 51
267.8480399999999
  0
LINE
  5
D522
330
D2D2
100
AcDbEntity
  8
1
  6
Continuous
100
AcDbLine
 10
218.366498
 20
388.168002
 30
0.0
 11
217.955741
 21
386.356349
 31
0.0
  0
LINE
  5
D523
330
D2D2
100
AcDbEntity
  8
1
  6
Continuous
100
AcDbLine
 10
225.1945629999999
 20
387.4602009999999
 30
0.0
 11
224.8064649999998
 21
383.153989
 31
0.0
  0
LINE
  5
D524
330
D2D2
100
AcDbEntity
  8
1
  6
Continuous
100
AcDbLine
 10
223.064504
 20
387.4956879999999
 30
0.0
 11
222.8061789999999
 21
386.3563389999998
 31
0.0
  0
LINE
  5
D525
330
D2D2
100
AcDbEntity
  8
1
  6
Continuous
100
AcDbLine
 10
225.829299
 20
387.481644
 30
0.0
 11
225.4341709999999
 21
383.097419
 31
0.0
  0
ARC
  5
D526
330
D2D2
100
AcDbEntity
  8
1
  6
Continuous
100
AcDbCircle
 10
231.2037049999999
 20
375.9963089999998
 30
0.0
 40
10.184876
100
AcDbArc
 50
174.8501199999998
 51
354.8501299999998
  0
ARC
  5
D527
330
D2D2
100
AcDbEntity
  8
1
  6
Continuous
100
AcDbCircle
 10
230.5759999999999
 20
376.052879
 30
0.0
 40
10.184876
100
AcDbArc
 50
174.8501199999998
 51
266.6231599999999
  0
LINE
  5
D528
330
D2D2
100
AcDbEntity
  8
1
  6
Continuous
100
AcDbLine
 10
214.607089
 20
382.5784389999999
 30
0.0
 11
220.7169819999998
 21
382.5784389999999
 31
0.0
  0
ARC
  5
D529
330
D2D2
100
AcDbEntity
  8
1
  6
Continuous
100
AcDbCircle
 10
216.005252
 20
386.798579
 30
0.0
 40
2.0
100
AcDbArc
 50
307.53279
 51
347.2252899999999
  0
ARC
  5
D52A
330
D2D2
100
AcDbEntity
  8
1
  6
Continuous
100
AcDbCircle
 10
221.837024
 20
381.4135089999999
 30
0.0
 40
1.0
100
AcDbArc
 50
84.85012899999999
 51
174.8501199999998
  0
ARC
  5
D52B
330
D2D2
100
AcDbEntity
  8
1
  6
Continuous
100
AcDbCircle
 10
223.810504
 20
383.2437489999999
 30
0.0
 40
1.0
100
AcDbArc
 50
264.85012
 51
354.8501299999998
  0
ARC
  5
D52C
330
D2D2
100
AcDbEntity
  8
1
  6
Continuous
100
AcDbCircle
 10
220.8556849999999
 20
386.7985689999999
 30
0.0
 40
2.0
100
AcDbArc
 50
267.8480399999999
 51
347.2252899999999
  0
ARC
  5
D52D
330
D2D2
100
AcDbEntity
  8
1
  6
Continuous
100
AcDbCircle
 10
220.873789
 20
386.878439
 30
0.0
 40
4.299999999999998
100
AcDbArc
 50
270.0
 51
346.2016799999998
  0
ARC
  5
D52E
330
D2D2
100
AcDbEntity
  8
1
  6
Continuous
100
AcDbCircle
 10
224.438212
 20
383.187179
 30
0.0
 40
1.0
100
AcDbArc
 50
264.85012
 51
354.8501299999998
  0
ARC
  5
D52F
330
D2D2
100
AcDbEntity
  8
1
  6
Continuous
100
AcDbCircle
 10
222.4647319999998
 20
381.3569389999998
 30
0.0
 40
1.0
100
AcDbArc
 50
84.85012899999999
 51
174.8501199999998
  0
LINE
  5
D530
330
D2D2
100
AcDbEntity
  8
1
  6
Continuous
100
AcDbLine
 10
220.8410629999999
 20
381.5032689999999
 30
0.0
 11
220.4322379999999
 21
376.9670689999998
 31
0.0
  0
LINE
  5
D531
330
D2D2
100
AcDbEntity
  8
1
  6
Continuous
100
AcDbLine
 10
223.7207409999999
 20
382.247789
 30
0.0
 11
221.9267879999999
 21
382.4094689999999
 31
0.0
  0
LINE
  5
D532
330
D2D2
100
AcDbEntity
  8
1
  6
Continuous
100
AcDbLine
 10
221.468768
 20
381.446699
 30
0.0
 11
221.059943
 21
376.910499
 31
0.0
  0
LINE
  5
D533
330
D2D2
100
AcDbEntity
  8
1
  6
Continuous
100
AcDbLine
 10
224.3484459999999
 20
382.1912189999998
 30
0.0
 11
222.554493
 21
382.3528989999999
 31
0.0
  0
ARC
  5
D534
330
D2D2
100
AcDbEntity
  8
1
  6
Continuous
100
AcDbCircle
 10
241.9506109999999
 20
392.915069
 30
0.0
 40
1.0
100
AcDbArc
 50
354.8501299999998
 51
74.170812
  0
ARC
  5
D535
330
D2D2
100
AcDbEntity
  8
1
  6
Continuous
100
AcDbCircle
 10
319.573773
 20
210.2591029999999
 30
0.0
 40
7.487911
100
AcDbArc
 50
95.229134
 51
264.77089
  0
LINE
  5
D536
330
D2D2
100
AcDbEntity
  8
1
  6
Continuous
100
AcDbLine
 10
304.2090549999999
 20
208.194633
 30
0.0
 11
297.998621
 21
208.194633
 31
0.0
  0
LINE
  5
D537
330
D2D2
100
AcDbEntity
  8
1
  6
Continuous
100
AcDbLine
 10
310.5416410000001
 20
202.8856129999998
 30
0.0
 11
297.998621
 21
202.8856129999998
 31
0.0
  0
LINE
  5
D538
330
D2D2
100
AcDbEntity
  8
1
  6
Continuous
100
AcDbLine
 10
311.2416379999999
 20
200.667463
 30
0.0
 11
297.998621
 21
200.667463
 31
0.0
  0
LINE
  5
D539
330
D2D2
100
AcDbEntity
  8
1
  6
Continuous
100
AcDbLine
 10
287.498621
 20
205.5400829999999
 30
0.0
 11
287.498621
 21
203.3219729999999
 31
0.0
  0
ARC
  5
D53A
330
D2D2
100
AcDbEntity
  8
1
  6
Continuous
100
AcDbCircle
 10
289.0380309999999
 20
205.540123
 30
0.0
 40
1.539409999999999
100
AcDbArc
 50
104.1879039999998
 51
255.81209
  0
ARC
  5
D53B
330
D2D2
100
AcDbEntity
  8
1
  6
Continuous
100
AcDbCircle
 10
289.0380309999999
 20
203.3219729999999
 30
0.0
 40
1.539409999999999
100
AcDbArc
 50
180.0000029999999
 51
255.81209
  0
ARC
  5
D53C
330
D2D2
100
AcDbEntity
  8
1
  6
Continuous
100
AcDbCircle
 10
297.998621
 20
240.983483
 30
0.0
 40
38.097919
100
AcDbArc
 50
255.81209
 51
269.9999899999999
  0
ARC
  5
D53D
330
D2D2
100
AcDbEntity
  8
1
  6
Continuous
100
AcDbCircle
 10
297.998621
 20
238.765333
 30
0.0
 40
38.097919
100
AcDbArc
 50
255.81209
 51
269.9999899999999
  0
ARC
  5
D53E
330
D2D2
100
AcDbEntity
  8
1
  6
Continuous
100
AcDbCircle
 10
297.998621
 20
170.096723
 30
0.0
 40
38.097919
100
AcDbArc
 50
90.00000300000001
 51
104.1879039999998
  0
ARC
  5
D53F
330
D2D2
100
AcDbEntity
  8
1
  6
Continuous
100
AcDbCircle
 10
289.0380309999999
 20
205.5400829999999
 30
0.0
 40
1.539409999999999
100
AcDbArc
 50
104.1879039999998
 51
180.0000029999999
  0
ARC
  5
D540
330
D2D2
100
AcDbEntity
  8
1
  6
Continuous
100
AcDbCircle
 10
311.2416379999999
 20
198.6674629999999
 30
0.0
 40
2.0
100
AcDbArc
 50
0.0
 51
90.00000300000001
  0
LINE
  5
D541
330
D2D2
100
AcDbEntity
  8
1
  6
Continuous
100
AcDbLine
 10
304.2090549999999
 20
206.4441629999998
 30
0.0
 11
313.130562
 21
206.4441629999998
 31
0.0
  0
LINE
  5
D542
330
D2D2
100
AcDbEntity
  8
1
  6
Continuous
100
AcDbLine
 10
304.2090549999999
 20
206.4441629999998
 30
0.0
 11
304.2090549999999
 21
208.194633
 31
0.0
  0
LWPOLYLINE
  5
D543
330
D2D2
100
AcDbEntity
  8
1
  6
Continuous
100
AcDbPolyline
 90
       17
 70
     0
 43
0.0
 10
306.4304499999999
 20
207.2787329999999
 42
0.035213
 10
306.4305109999999
 20
207.205443
 42
0.034371
 10
306.440736
 20
207.1330429999999
 42
0.032439
 10
306.4606089999998
 20
207.062383
 42
0.029676
 10
306.489221
 20
206.9944229999999
 42
0.02657
 10
306.525441
 20
206.9298129999999
 42
0.023288
 10
306.5676649999999
 20
206.869483
 42
0.020411
 10
306.6148379999999
 20
206.813233
 42
0.01808
 10
306.6665069999999
 20
206.7604629999999
 42
0.016058
 10
306.7219149999999
 20
206.711093
 42
0.014332
 10
306.780423
 20
206.6650129999999
 42
0.012734
 10
306.840822
 20
206.622523
 42
0.01145
 10
306.902885
 20
206.5831929999999
 42
0.010486
 10
306.9669989999999
 20
206.546413
 42
0.009655
 10
307.032848
 20
206.5120729999999
 42
0.008937
 10
307.100162
 20
206.4800929999999
 42
0.008317
 10
307.1687129999999
 20
206.4503729999999
  0
ARC
  5
D556
330
D2D2
100
AcDbEntity
  8
1
  6
Continuous
100
AcDbCircle
 10
310.5416410000001
 20
197.8856129999998
 30
0.0
 40
5.0
100
AcDbArc
 50
0.0
 51
90.00000300000001
  0
LINE
  5
D557
330
D2D2
100
AcDbEntity
  8
1
  6
Continuous
100
AcDbLine
 10
309.08406
 20
228.998993
 30
0.0
 11
299.9090519999999
 21
228.998993
 31
0.0
  0
LINE
  5
D558
330
D2D2
100
AcDbEntity
  8
1
  6
Continuous
100
AcDbLine
 10
309.40359
 20
223.7084929999999
 30
0.0
 11
299.909056
 21
223.7084929999999
 31
0.0
  0
LINE
  5
D559
330
D2D2
100
AcDbEntity
  8
1
  6
Continuous
100
AcDbLine
 10
309.7706819999999
 20
221.482223
 30
0.0
 11
299.909056
 21
221.482223
 31
0.0
  0
LINE
  5
D55A
330
D2D2
100
AcDbEntity
  8
1
  6
Continuous
100
AcDbLine
 10
289.4090519999998
 20
226.3537429999999
 30
0.0
 11
289.4090519999998
 21
224.127473
 31
0.0
  0
LINE
  5
D55B
330
D2D2
100
AcDbEntity
  8
1
  6
Continuous
100
AcDbLine
 10
289.4090519999998
 20
226.3537429999999
 30
0.0
 11
289.4090519999998
 21
224.127473
 31
0.0
  0
ARC
  5
D55C
330
D2D2
100
AcDbEntity
  8
1
  6
Continuous
100
AcDbCircle
 10
290.9421709999999
 20
226.3537429999999
 30
0.0
 40
1.533117999999999
100
AcDbArc
 50
104.140195
 51
180.0000029999999
  0
ARC
  5
D55D
330
D2D2
100
AcDbEntity
  8
1
  6
Continuous
100
AcDbCircle
 10
290.9421709999999
 20
226.3537429999999
 30
0.0
 40
1.533117999999999
100
AcDbArc
 50
104.140195
 51
255.85982
  0
ARC
  5
D55E
330
D2D2
100
AcDbEntity
  8
1
  6
Continuous
100
AcDbCircle
 10
290.9421709999999
 20
224.127473
 30
0.0
 40
1.533117999999999
100
AcDbArc
 50
180.0000029999999
 51
255.8598100000001
  0
ARC
  5
D55F
330
D2D2
100
AcDbEntity
  8
1
  6
Continuous
100
AcDbCircle
 10
299.909056
 20
261.9466929999999
 30
0.0
 40
38.238205
100
AcDbArc
 50
255.8598100000001
 51
269.9999899999999
  0
ARC
  5
D560
330
D2D2
100
AcDbEntity
  8
1
  6
Continuous
100
AcDbCircle
 10
299.9090519999999
 20
190.760783
 30
0.0
 40
38.238205
100
AcDbArc
 50
90.00000300000001
 51
104.140195
  0
ARC
  5
D561
330
D2D2
100
AcDbEntity
  8
1
  6
Continuous
100
AcDbCircle
 10
299.909056
 20
259.720423
 30
0.0
 40
38.238205
100
AcDbArc
 50
255.8598100000001
 51
269.9999899999999
  0
ARC
  5
D562
330
D2D2
100
AcDbEntity
  8
1
  6
Continuous
100
AcDbCircle
 10
318.7090569999999
 20
219.707533
 30
0.0
 40
2.0
100
AcDbArc
 50
275.2291299999999
 51
0.0
  0
ARC
  5
D563
330
D2D2
100
AcDbEntity
  8
1
  6
Continuous
100
AcDbCircle
 10
318.7090569999999
 20
200.810683
 30
0.0
 40
2.0
100
AcDbArc
 50
0.0
 51
84.77085999999998
  0
LINE
  5
D564
330
D2D2
100
AcDbEntity
  8
1
  6
Continuous
100
AcDbLine
 10
321.2090569999999
 20
223.0089029999998
 30
0.0
 11
320.7090569999999
 21
223.0089029999998
 31
0.0
  0
CIRCLE
  5
D565
330
D2D2
100
AcDbEntity
  8
1
  6
Continuous
100
AcDbCircle
 10
191.5864479999999
 20
180.33572
 30
0.0
 40
2.6
  0
LINE
  5
D566
330
D2D2
100
AcDbEntity
  8
1
  6
Continuous
100
AcDbLine
 10
198.586048
 20
391.0784489999999
 30
0.0
 11
198.586048
 21
392.5784489999998
 31
0.0
  0
LINE
  5
D567
330
D2D2
100
AcDbEntity
  8
1
  6
Continuous
100
AcDbLine
 10
184.5860479999998
 20
391.0784489999999
 30
0.0
 11
184.5860479999998
 21
392.5784489999998
 31
0.0
  0
LINE
  5
D568
330
D2D2
100
AcDbEntity
  8
1
  6
Continuous
100
AcDbLine
 10
198.586048
 20
391.0784489999999
 30
0.0
 11
184.5860479999998
 21
391.0784489999999
 31
0.0
  0
LINE
  5
D569
330
D2D2
100
AcDbEntity
  8
1
  6
Continuous
100
AcDbLine
 10
86.80438700000001
 20
209.6263769999999
 30
0.0
 11
86.00438699999996
 21
210.426377
 31
0.0
  0
LINE
  5
D56A
330
D2D2
100
AcDbEntity
  8
2
  6
Continuous
100
AcDbLine
 10
86.680887
 20
209.749877
 30
0.0
 11
85.92156899999997
 21
209.749877
 31
0.0
  0
ARC
  5
D56B
330
D2D2
100
AcDbEntity
  8
1
  6
Continuous
100
AcDbCircle
 10
194.586048
 20
394.743512
 30
0.0
 40
8.665063999999999
100
AcDbArc
 50
249.7438419999999
 51
290.256158
  0
LINE
  5
D56C
330
D2D2
100
AcDbEntity
  8
1
  6
Continuous
100
AcDbLine
 10
187.586048
 20
385.995631
 30
0.0
 11
195.586048
 21
385.995631
 31
0.0
  0
LINE
  5
D56D
330
D2D2
100
AcDbEntity
  8
1
  6
Continuous
100
AcDbLine
 10
194.7860479999999
 20
385.1956309999998
 30
0.0
 11
188.3860479999999
 21
385.1956309999998
 31
0.0
  0
LINE
  5
D56E
330
D2D2
100
AcDbEntity
  8
1
  6
Continuous
100
AcDbLine
 10
185.586048
 20
386.0784489999998
 30
0.0
 11
197.586048
 21
386.0784489999998
 31
0.0
  0
LINE
  5
D56F
330
D2D2
100
AcDbEntity
  8
1
  6
Continuous
100
AcDbLine
 10
86.80438700000001
 20
203.226377
 30
0.0
 11
86.00438699999996
 21
202.426377
 31
0.0
  0
LINE
  5
D570
330
D2D2
100
AcDbEntity
  8
2
  6
Continuous
100
AcDbLine
 10
86.680887
 20
203.102877
 30
0.0
 11
85.92156899999997
 21
203.102877
 31
0.0
  0
ARC
  5
D571
330
D2D2
100
AcDbEntity
  8
1
  6
Continuous
100
AcDbCircle
 10
194.586048
 20
382.4133849999999
 30
0.0
 40
8.665063999999999
100
AcDbArc
 50
69.743842
 51
110.256158
  0
LINE
  5
D572
330
D2D2
100
AcDbEntity
  8
1
  6
Continuous
100
AcDbLine
 10
80.92156899999997
 20
208.3667989999999
 30
0.0
 11
80.92156899999997
 21
213.426377
 31
0.0
  0
LINE
  5
D573
330
D2D2
100
AcDbEntity
  8
1
  6
Continuous
100
AcDbLine
 10
86.00438699999996
 20
210.426377
 30
0.0
 11
86.00438699999996
 21
202.426377
 31
0.0
  0
ARC
  5
D574
330
D2D2
100
AcDbEntity
  8
1
  6
Continuous
100
AcDbCircle
 10
92.385671
 20
206.426377
 30
0.0
 40
11.464102
100
AcDbArc
 50
162.412046
 51
170.778287
  0
ARC
  5
D575
330
D2D2
100
AcDbEntity
  8
1
  6
Continuous
100
AcDbCircle
 10
74.45746800000001
 20
206.426377
 30
0.0
 40
11.464102
100
AcDbArc
 50
342.4120459999999
 51
17.587954
  0
LINE
  5
D576
330
D2D2
100
AcDbEntity
  8
1
  6
Continuous
100
AcDbLine
 10
85.92156899999997
 20
212.426377
 30
0.0
 11
85.92156899999997
 21
200.426377
 31
0.0
  0
LINE
  5
D577
330
D2D2
100
AcDbEntity
  8
2
  6
Continuous
100
AcDbLine
 10
188.262548
 20
385.319131
 30
0.0
 11
188.262548
 21
386.0784489999998
 31
0.0
  0
LINE
  5
D578
330
D2D2
100
AcDbEntity
  8
1
  6
Continuous
100
AcDbLine
 10
188.3860479999999
 20
385.1956309999998
 30
0.0
 11
187.586048
 21
385.995631
 31
0.0
  0
LINE
  5
D579
330
D2D2
100
AcDbEntity
  8
1
  6
Continuous
100
AcDbLine
 10
187.586048
 20
386.0784489999998
 30
0.0
 11
187.586048
 21
385.995631
 31
0.0
  0
ARC
  5
D57A
330
D2D2
100
AcDbEntity
  8
1
  6
Continuous
100
AcDbCircle
 10
188.586048
 20
394.743512
 30
0.0
 40
8.665063999999999
100
AcDbArc
 50
249.7438419999999
 51
290.256158
  0
LINE
  5
D57B
330
D2D2
100
AcDbEntity
  8
1
  6
Continuous
100
AcDbLine
 10
191.586048
 20
390.54255
 30
0.0
 11
191.586048
 21
386.614347
 31
0.0
  0
LINE
  5
D57C
330
D2D2
100
AcDbEntity
  8
1
  6
Continuous
100
AcDbLine
 10
85.92156899999997
 20
202.426377
 30
0.0
 11
86.00438699999996
 21
202.426377
 31
0.0
  0
ARC
  5
D57D
330
D2D2
100
AcDbEntity
  8
1
  6
Continuous
100
AcDbCircle
 10
82.85458199999998
 20
201.2302239999999
 30
0.0
 40
3.066986999999998
100
AcDbArc
 50
334.384247
 51
34.38424699999998
  0
LINE
  5
D57E
330
D2D2
100
AcDbEntity
  8
1
  6
Continuous
100
AcDbLine
 10
82.900574
 20
202.962275
 30
0.0
 11
85.38567099999999
 21
202.962275
 31
0.0
  0
LINE
  5
D57F
330
D2D2
100
AcDbEntity
  8
1
  6
Continuous
100
AcDbLine
 10
81.45746800000003
 20
199.498174
 30
0.0
 11
85.38567099999999
 21
199.498174
 31
0.0
  0
LINE
  5
D580
330
D2D2
100
AcDbEntity
  8
1
  6
Continuous
100
AcDbLine
 10
85.38567099999999
 20
199.498174
 30
0.0
 11
85.92156899999997
 21
200.426377
 31
0.0
  0
ARC
  5
D581
330
D2D2
100
AcDbEntity
  8
1
  6
Continuous
100
AcDbCircle
 10
188.586048
 20
382.4133849999999
 30
0.0
 40
8.665063999999999
100
AcDbArc
 50
69.743842
 51
110.256158
  0
LINE
  5
D582
330
D2D2
100
AcDbEntity
  8
1
  6
Continuous
100
AcDbLine
 10
185.586048
 20
386.0784489999998
 30
0.0
 11
185.586048
 21
391.0784489999999
 31
0.0
  0
LINE
  5
D583
330
D2D2
100
AcDbEntity
  8
1
  6
Continuous
100
AcDbLine
 10
80.92156899999997
 20
213.426377
 30
0.0
 11
79.42156899999997
 21
213.426377
 31
0.0
  0
LINE
  5
D584
330
D2D2
100
AcDbEntity
  8
1
  6
Continuous
100
AcDbLine
 10
85.92156899999997
 20
210.426377
 30
0.0
 11
86.00438699999996
 21
210.426377
 31
0.0
  0
LINE
  5
D585
330
D2D2
100
AcDbEntity
  8
1
  6
Continuous
100
AcDbLine
 10
85.38567099999999
 20
213.3545799999999
 30
0.0
 11
85.92156899999997
 21
212.426377
 31
0.0
  0
LINE
  5
D586
330
D2D2
100
AcDbEntity
  8
1
  6
Continuous
100
AcDbLine
 10
81.45746800000003
 20
213.3545799999999
 30
0.0
 11
80.92156899999997
 21
212.426377
 31
0.0
  0
LINE
  5
D587
330
D2D2
100
AcDbEntity
  8
1
  6
Continuous
100
AcDbLine
 10
81.45746800000003
 20
213.3545799999999
 30
0.0
 11
85.38567099999999
 21
213.3545799999999
 31
0.0
  0
LINE
  5
D588
330
D2D2
100
AcDbEntity
  8
1
  6
Continuous
100
AcDbLine
 10
81.45746800000003
 20
209.8904779999998
 30
0.0
 11
85.38567099999999
 21
209.8904779999998
 31
0.0
  0
ARC
  5
D589
330
D2D2
100
AcDbEntity
  8
1
  6
Continuous
100
AcDbCircle
 10
83.988557
 20
211.622529
 30
0.0
 40
3.066986999999998
100
AcDbArc
 50
154.3842469999999
 51
214.384247
  0
ARC
  5
D58A
330
D2D2
100
AcDbEntity
  8
1
  6
Continuous
100
AcDbCircle
 10
82.85458199999998
 20
211.622529
 30
0.0
 40
3.066986999999998
100
AcDbArc
 50
325.6157529999999
 51
25.615753
  0
LINE
  5
D58B
330
D2D2
100
AcDbEntity
  8
1
  6
Continuous
100
AcDbLine
 10
86.80438700000001
 20
203.226377
 30
0.0
 11
86.80438700000001
 21
209.6263769999999
 31
0.0
  0
LINE
  5
D58C
330
D2D2
100
AcDbEntity
  8
2
  6
Continuous
100
AcDbLine
 10
194.909548
 20
385.319131
 30
0.0
 11
194.909548
 21
386.0784489999998
 31
0.0
  0
LINE
  5
D58D
330
D2D2
100
AcDbEntity
  8
1
  6
Continuous
100
AcDbLine
 10
194.7860479999999
 20
385.1956309999998
 30
0.0
 11
195.586048
 21
385.995631
 31
0.0
  0
LINE
  5
D58E
330
D2D2
100
AcDbEntity
  8
1
  6
Continuous
100
AcDbLine
 10
195.586048
 20
386.0784489999998
 30
0.0
 11
195.586048
 21
385.995631
 31
0.0
  0
LINE
  5
D58F
330
D2D2
100
AcDbEntity
  8
1
  6
Continuous
100
AcDbLine
 10
197.586048
 20
386.0784489999998
 30
0.0
 11
197.586048
 21
391.0784489999999
 31
0.0
  0
CIRCLE
  5
D590
330
D2D2
100
AcDbEntity
  8
1
  6
Continuous
100
AcDbCircle
 10
191.5864479999999
 20
206.4357199999999
 30
0.0
 40
7.0
  0
LWPOLYLINE
  5
D591
330
D2D2
100
AcDbEntity
  8
1
  6
Continuous
100
AcDbPolyline
 90
       14
 70
     0
 43
0.0
 10
311.348335
 20
215.8757679999999
 42
0.005919
 10
310.8447229999999
 20
215.606023
 42
0.010459
 10
310.043586
 20
215.142573
 42
0.011488
 10
309.2635419999999
 20
214.6444529999999
 42
0.012711
 10
308.5084929999999
 20
214.1092329999999
 42
0.014169
 10
307.783273
 20
213.5342829999999
 42
0.015907
 10
307.093902
 20
212.916843
 42
0.017971
 10
306.447884
 20
212.2542329999999
 42
0.020397
 10
305.854527
 20
211.5441629999998
 42
0.023231
 10
305.3242629999999
 20
210.7837529999999
 42
0.026306
 10
304.8720149999998
 20
209.9751229999998
 42
0.029458
 10
304.512792
 20
209.121723
 42
0.032314
 10
304.2617009999998
 20
208.2310629999998
 42
0.034363
 10
304.13152
 20
207.315283
  0
LWPOLYLINE
  5
D5A1
330
D2D2
100
AcDbEntity
  8
1
  6
Continuous
100
AcDbPolyline
 90
       13
 70
     0
 43
0.0
 10
311.909538
 20
214.4510729999999
 42
0.002011
 10
311.771658
 20
214.3677929999999
 42
0.011492
 10
311.066243
 20
213.915323
 42
0.012714
 10
310.383535
 20
213.429293
 42
0.01417
 10
309.7279139999999
 20
212.907343
 42
0.015904
 10
309.10483
 20
212.3469829999999
 42
0.017963
 10
308.521073
 20
211.7458229999999
 42
0.020402
 10
307.984494
 20
211.1010729999999
 42
0.023201
 10
307.5057
 20
210.411593
 42
0.026255
 10
307.097517
 20
209.678653
 42
0.029382
 10
306.7734429999999
 20
208.905413
 42
0.03221
 10
306.5470409999999
 20
208.098653
 42
0.034235
 10
306.429761
 20
207.269323
  0
ARC
  5
D5B0
330
D2D2
100
AcDbEntity
  8
1
  6
Continuous
100
AcDbCircle
 10
224.586035
 20
71.975465
 30
0.0
 40
27.425
100
AcDbArc
 50
103.1077889999999
 51
115.4316709999998
  0
ARC
  5
D5B1
330
D2D2
100
AcDbEntity
  8
1
  6
Continuous
100
AcDbCircle
 10
224.586035
 20
71.975465
 30
0.0
 40
24.82499999999999
100
AcDbArc
 50
103.1426759999998
 51
114.4936189999999
  0
LINE
  5
D5B2
330
D2D2
100
AcDbEntity
  8
1
  6
Continuous
100
AcDbLine
 10
187.586035
 20
91.97546499999999
 30
0.0
 11
187.586035
 21
90.89266499999999
 31
0.0
  0
LINE
  5
D5B3
330
D2D2
100
AcDbEntity
  8
1
  6
Continuous
100
AcDbLine
 10
195.586035
 20
91.97546499999999
 30
0.0
 11
195.586035
 21
90.89266499999999
 31
0.0
  0
ARC
  5
D5B4
330
D2D2
100
AcDbEntity
  8
1
  6
Continuous
100
AcDbCircle
 10
224.586035
 20
71.975465
 30
0.0
 40
24.82499999999999
100
AcDbArc
 50
39.52799699999999
 51
51.20219399999999
  0
ARC
  5
D5B5
330
D2D2
100
AcDbEntity
  8
1
  6
Continuous
100
AcDbCircle
 10
224.586035
 20
71.975465
 30
0.0
 40
19.82499999999999
100
AcDbArc
 50
97.949725
 51
125.349129
  0
ARC
  5
D5B6
330
D2D2
100
AcDbEntity
  8
1
  6
Continuous
100
AcDbCircle
 10
191.5864479999999
 20
206.4357199999999
 30
0.0
 40
30.0
100
AcDbArc
 50
86.083619
 51
150.6515409999998
  0
ARC
  5
D5B7
330
D2D2
100
AcDbEntity
  8
1
  6
Continuous
100
AcDbCircle
 10
191.5864479999999
 20
206.4357199999999
 30
0.0
 40
21.49999999999999
100
AcDbArc
 50
91.91383999999999
 51
100.1788619999999
  0
ARC
  5
D5B8
330
D2D2
100
AcDbEntity
  8
1
  6
Continuous
100
AcDbCircle
 10
191.5864479999999
 20
232.53572
 30
0.0
 40
2.6
100
AcDbArc
 50
52.940803
 51
271.025935
  0
ARC
  5
D5B9
330
D2D2
100
AcDbEntity
  8
1
  6
Continuous
100
AcDbCircle
 10
481.4316719999998
 20
232.53572
 30
0.0
 40
2.6
100
AcDbArc
 50
268.974065
 51
127.0591969999998
  0
ARC
  5
D5BA
330
D2D2
100
AcDbEntity
  8
1
  6
Continuous
100
AcDbCircle
 10
481.4316719999998
 20
206.4357199999999
 30
0.0
 40
30.0
100
AcDbArc
 50
163.667702
 51
93.91638099999999
  0
ARC
  5
D5BB
330
D2D2
100
AcDbEntity
  8
1
  6
Continuous
100
AcDbCircle
 10
522.704341
 20
279.2626349999998
 30
0.0
 40
95.157
100
AcDbArc
 50
193.605186
 51
240.5727950000001
  0
ARC
  5
D5BC
330
D2D2
100
AcDbEntity
  8
1
  6
Continuous
100
AcDbCircle
 10
549.6931379999998
 20
254.737122
 30
0.0
 40
72.67100000000002
100
AcDbArc
 50
180.690332
 51
215.473014
  0
LINE
  5
D5BD
330
D2D2
100
AcDbEntity
  8
1
  6
Continuous
100
AcDbLine
 10
469.6374019999998
 20
264.8758149999998
 30
0.0
 11
469.6374019999998
 21
220.880896
 31
0.0
  0
LINE
  5
D5BE
330
D2D2
100
AcDbEntity
  8
4
  6
CENTER
100
AcDbLine
 10
481.4316719999998
 20
148.3371629999998
 30
0.0
 11
481.4316719999998
 21
264.444163
 31
0.0
  0
ARC
  5
D5BF
330
D2D2
100
AcDbEntity
  8
1
  6
Continuous
100
AcDbCircle
 10
481.4316719999998
 20
206.4441629999998
 30
0.0
 40
41.0
100
AcDbArc
 50
153.825966
 51
95.63024699999997
  0
ARC
  5
D5C0
330
D2D2
100
AcDbEntity
  8
1
  6
Continuous
100
AcDbCircle
 10
481.4316719999998
 20
206.4441629999998
 30
0.0
 40
50.0
100
AcDbArc
 50
147.541952
 51
94.85701999999996
  0
ARC
  5
D5C1
330
D2D2
100
AcDbEntity
  8
1
  6
Continuous
100
AcDbCircle
 10
481.4316719999998
 20
206.4357199999999
 30
0.0
 40
21.49999999999999
100
AcDbArc
 50
176.591708
 51
88.08615999999997
  0
ARC
  5
D5C2
330
D2D2
100
AcDbEntity
  8
1
  6
Continuous
100
AcDbCircle
 10
481.4302429999998
 20
206.094166
 30
0.0
 40
11.14999999999999
100
AcDbArc
 50
239.8900379999998
 51
35.473014
  0
LINE
  5
D5C3
330
D2D2
100
AcDbEntity
  8
4
  6
CENTER
100
AcDbLine
 10
539.4316719999998
 20
206.4271629999999
 30
0.0
 11
423.4316719999998
 21
206.4442769999998
 31
0.0
  0
ARC
  5
D5C4
330
D2D2
100
AcDbEntity
  8
1
  6
Continuous
100
AcDbCircle
 10
523.2199869999998
 20
198.3303349999999
 30
0.0
 40
12.5
100
AcDbArc
 50
288.983499
 51
49.040276
  0
LINE
  5
D5C5
330
D2D2
100
AcDbEntity
  8
1
  6
Continuous
100
AcDbLine
 10
530.5002599999998
 20
228.990551
 30
0.0
 11
526.5615309999998
 21
227.968471
 31
0.0
  0
LINE
  5
D5C6
330
D2D2
100
AcDbEntity
  8
1
  6
Continuous
100
AcDbLine
 10
531.0779659999998
 20
226.7642839999998
 30
0.0
 11
530.312401
 21
226.5656229999999
 31
0.0
  0
LINE
  5
D5C7
330
D2D2
100
AcDbEntity
  8
5
  6
PHANTOM
100
AcDbLine
 10
535.079392
 20
212.6299879999999
 30
0.0
 11
531.0154419999999
 21
212.882316
 31
0.0
  0
LINE
  5
D5C8
330
D2D2
100
AcDbEntity
  8
5
  6
PHANTOM
100
AcDbLine
 10
534.9368619999998
 20
210.3344059999999
 30
0.0
 11
534.1474599999997
 21
210.38342
 31
0.0
  0
ARC
  5
D5C9
330
D2D2
100
AcDbEntity
  8
5
  6
PHANTOM
100
AcDbCircle
 10
525.1627549999998
 20
201.344942
 30
0.0
 40
7.64465
100
AcDbArc
 50
311.719786
 51
335.95288
  0
ARC
  5
D5CA
330
D2D2
100
AcDbEntity
  8
1
  6
Continuous
100
AcDbCircle
 10
523.5197460000001
 20
198.3425419999999
 30
0.0
 40
9.0
100
AcDbArc
 50
308.070844
 51
30.13772599999999
  0
LINE
  5
D5CB
330
D2D2
100
AcDbEntity
  8
5
  6
PHANTOM
100
AcDbLine
 10
533.9861959999998
 20
209.739246
 30
0.0
 11
533.594422
 21
204.0503209999999
 31
0.0
  0
ARC
  5
D5CC
330
D2D2
100
AcDbEntity
  8
5
  6
PHANTOM
100
AcDbCircle
 10
516.4545289999998
 20
205.23068
 30
0.0
 40
17.180489
100
AcDbArc
 50
335.95288
 51
356.06049
  0
ARC
  5
D5CD
330
D2D2
100
AcDbEntity
  8
5
  6
PHANTOM
100
AcDbCircle
 10
512.4938409999998
 20
207.1278759999999
 30
0.0
 40
21.571022
100
AcDbArc
 50
324.1804849999998
 51
335.4648899999999
  0
ARC
  5
D5CE
330
D2D2
100
AcDbEntity
  8
5
  6
PHANTOM
100
AcDbCircle
 10
512.4938429999998
 20
207.127884
 30
0.0
 40
21.571022
100
AcDbArc
 50
324.180481
 51
335.4648899999999
  0
LINE
  5
D5CF
330
D2D2
100
AcDbEntity
  8
1
  6
Continuous
100
AcDbLine
 10
531.040574
 20
226.754577
 30
0.0
 11
530.5002599999998
 21
228.990552
 31
0.0
  0
ARC
  5
D5D0
330
D2D2
100
AcDbEntity
  8
1
  6
Continuous
100
AcDbCircle
 10
532.1922009999998
 20
226.3656899999999
 30
0.0
 40
1.890402999999997
100
AcDbArc
 50
173.9289149999999
 51
194.1604899999999
  0
ARC
  5
D5D1
330
D2D2
100
AcDbEntity
  8
1
  6
Continuous
100
AcDbCircle
 10
532.1922009999998
 20
226.3657009999998
 30
0.0
 40
1.890402999999997
100
AcDbArc
 50
173.928921
 51
194.1605
  0
LINE
  5
D5D2
330
D2D2
100
AcDbEntity
  8
1
  6
Continuous
100
AcDbLine
 10
530.3592459999999
 20
225.903226
 30
0.0
 11
531.754273
 21
220.3740970000001
 31
0.0
  0
ARC
  5
D5D3
330
D2D2
100
AcDbEntity
  8
5
  6
PHANTOM
100
AcDbCircle
 10
535.872126
 20
209.6093699999999
 30
0.0
 40
1.890402999999997
100
AcDbArc
 50
155.828915
 51
176.0604899999999
  0
ARC
  5
D5D4
330
D2D2
100
AcDbEntity
  8
5
  6
PHANTOM
100
AcDbCircle
 10
535.872129
 20
209.6093799999999
 30
0.0
 40
1.890402999999997
100
AcDbArc
 50
155.828921
 51
176.0604999999999
  0
ARC
  5
D5D5
330
D2D2
100
AcDbEntity
  8
1
  6
Continuous
100
AcDbCircle
 10
510.741715
 20
216.7439089999998
 30
0.0
 40
21.571022
100
AcDbArc
 50
342.299256
 51
353.5648899999998
  0
ARC
  5
D5D6
330
D2D2
100
AcDbEntity
  8
1
  6
Continuous
100
AcDbCircle
 10
510.741715
 20
216.7439169999999
 30
0.0
 40
21.571022
100
AcDbArc
 50
342.299252
 51
353.5648899999998
  0
ARC
  5
D5D7
330
D2D2
100
AcDbEntity
  8
1
  6
Continuous
100
AcDbCircle
 10
524.5803379999999
 20
215.1830719999999
 30
0.0
 40
7.64465
100
AcDbArc
 50
329.85377
 51
354.0528799999998
  0
LINE
  5
D5D8
330
D2D2
100
AcDbEntity
  8
5
  6
PHANTOM
100
AcDbLine
 10
534.898304
 20
210.3367959999999
 30
0.0
 11
535.079392
 21
212.6299889999999
 31
0.0
  0
ARC
  5
D5D9
330
D2D2
100
AcDbEntity
  8
1
  6
Continuous
100
AcDbCircle
 10
515.095826
 20
216.1710869999998
 30
0.0
 40
17.180489
100
AcDbArc
 50
354.0528799999998
 51
14.16049
  0
CIRCLE
  5
D5DA
330
D2D2
100
AcDbEntity
  8
1
  6
Continuous
100
AcDbCircle
 10
507.531672
 20
206.4357199999999
 30
0.0
 40
2.6
  0
ARC
  5
D5DB
330
D2D2
100
AcDbEntity
  8
1
  6
Continuous
100
AcDbCircle
 10
454.543573
 20
213.9914719999999
 30
0.0
 40
27.5
100
AcDbArc
 50
193.4580699999998
 51
203.71391
  0
ARC
  5
D5DC
330
D2D2
100
AcDbEntity
  8
1
  6
Continuous
100
AcDbCircle
 10
439.955468
 20
210.5004629999998
 30
0.0
 40
12.5
100
AcDbArc
 50
120.050525
 51
193.4580699999998
  0
CIRCLE
  5
D5DD
330
D2D2
100
AcDbEntity
  8
1
  6
Continuous
100
AcDbCircle
 10
481.4316719999998
 20
180.33572
 30
0.0
 40
2.6
  0
CIRCLE
  5
D5DE
330
D2D2
100
AcDbEntity
  8
1
  6
Continuous
100
AcDbCircle
 10
455.3316719999998
 20
206.4357199999999
 30
0.0
 40
2.6
  0
ARC
  5
D5DF
330
D2D2
100
AcDbEntity
  8
5
  6
PHANTOM
100
AcDbCircle
 10
462.9994619999997
 20
210.2447569999999
 30
0.0
 40
31.351715
100
AcDbArc
 50
174.02583
 51
178.142766
  0
ARC
  5
D5E0
330
D2D2
100
AcDbEntity
  8
5
  6
PHANTOM
100
AcDbCircle
 10
462.9994619999997
 20
210.2447569999999
 30
0.0
 40
31.351715
100
AcDbArc
 50
174.02584
 51
178.142766
  0
ARC
  5
D5E1
330
D2D2
100
AcDbEntity
  8
1
  6
Continuous
100
AcDbCircle
 10
439.965646
 20
210.2506689999999
 30
0.0
 40
9.0
100
AcDbArc
 50
150.821378
 51
198.688725
  0
LINE
  5
D5E2
330
D2D2
100
AcDbEntity
  8
1
  6
Continuous
100
AcDbLine
 10
431.535436
 20
203.224593
 30
0.0
 11
430.1878369999998
 21
202.872216
 31
0.0
  0
ARC
  5
D5E3
330
D2D2
100
AcDbEntity
  8
1
  6
Continuous
100
AcDbCircle
 10
461.901445
 20
217.2234809999999
 30
0.0
 40
35.53642700000001
100
AcDbArc
 50
203.71391
 51
212.434095
  0
ARC
  5
D5E4
330
D2D2
100
AcDbEntity
  8
1
  6
Continuous
100
AcDbCircle
 10
608.9415719999998
 20
253.844041
 30
0.0
 40
185.8965599999999
100
AcDbArc
 50
195.9154399999999
 51
196.7298
  0
ARC
  5
D5E5
330
D2D2
100
AcDbEntity
  8
1
  6
Continuous
100
AcDbCircle
 10
462.7281889999999
 20
204.3298159999999
 30
0.0
 40
31.351715
100
AcDbArc
 50
192.12583
 51
196.318148
  0
ARC
  5
D5E6
330
D2D2
100
AcDbEntity
  8
1
  6
Continuous
100
AcDbCircle
 10
462.7281889999999
 20
204.3298159999999
 30
0.0
 40
31.351715
100
AcDbArc
 50
192.12584
 51
196.318148
  0
ARC
  5
D5E7
330
D2D2
100
AcDbEntity
  8
1
  6
Continuous
100
AcDbCircle
 10
406.0136499999998
 20
187.592405
 30
0.0
 40
27.96965
100
AcDbArc
 50
19.938237
 51
27.09602
  0
LINE
  5
D5E8
330
D2D2
100
AcDbEntity
  8
5
  6
PHANTOM
100
AcDbLine
 10
433.0042049999998
 20
218.885239
 30
0.0
 11
431.6165049999998
 21
218.9688049999999
 31
0.0
  0
ARC
  5
D5E9
330
D2D2
100
AcDbEntity
  8
5
  6
PHANTOM
100
AcDbCircle
 10
403.891482
 20
211.955454
 30
0.0
 40
27.96965
100
AcDbArc
 50
1.402439999999999
 51
8.996019999999997
  0
ARC
  5
D5EA
330
D2D2
100
AcDbEntity
  8
5
  6
PHANTOM
100
AcDbCircle
 10
617.360486
 20
211.883754
 30
0.0
 40
185.8965599999999
100
AcDbArc
 50
177.81544
 51
178.6297999999999
  0
LINE
  5
D5EB
330
D2D2
100
AcDbEntity
  8
4
  6
CENTER
100
AcDbLine
 10
448.4320849999998
 20
235.4709539999999
 30
0.0
 11
448.4320849999998
 21
335.4446299999999
 31
0.0
  0
LINE
  5
D5EC
330
D2D2
100
AcDbEntity
  8
1
  6
Continuous
100
AcDbLine
 10
426.0946070000001
 20
269.1289569999999
 30
0.0
 11
428.6330949999999
 21
271.6504459999999
 31
0.0
  0
LINE
  5
D5ED
330
D2D2
100
AcDbEntity
  8
1
  6
Continuous
100
AcDbLine
 10
428.343157
 20
269.1289569999999
 30
0.0
 11
425.8046679999997
 21
271.6504459999999
 31
0.0
  0
LINE
  5
D5EE
330
D2D2
100
AcDbEntity
  8
1
  6
Continuous
100
AcDbLine
 10
469.4320849999998
 20
276.944652
 30
0.0
 11
427.4320849999998
 21
276.944652
 31
0.0
  0
LINE
  5
D5EF
330
D2D2
100
AcDbEntity
  8
1
  6
Continuous
100
AcDbLine
 10
421.745985
 20
272.944652
 30
0.0
 11
475.118185
 21
272.944652
 31
0.0
  0
LINE
  5
D5F0
330
D2D2
100
AcDbEntity
  8
1
  6
Continuous
100
AcDbLine
 10
475.118185
 20
271.6504459999999
 30
0.0
 11
421.745985
 21
271.6504459999999
 31
0.0
  0
LINE
  5
D5F1
330
D2D2
100
AcDbEntity
  8
1
  6
Continuous
100
AcDbLine
 10
421.745985
 20
269.1289569999999
 30
0.0
 11
475.118185
 21
269.1289569999999
 31
0.0
  0
LINE
  5
D5F2
330
D2D2
100
AcDbEntity
  8
1
  6
Continuous
100
AcDbLine
 10
424.2070849999998
 20
269.1289680000001
 30
0.0
 11
472.6570849999998
 21
269.1289680000001
 31
0.0
  0
LINE
  5
D5F3
330
D2D2
100
AcDbEntity
  8
1
  6
Continuous
100
AcDbLine
 10
422.5103519999998
 20
259.144544
 30
0.0
 11
428.1647089999998
 21
258.6456549999999
 31
0.0
  0
LINE
  5
D5F4
330
D2D2
100
AcDbEntity
  8
1
  6
Continuous
100
AcDbLine
 10
432.2663019999998
 20
276.944652
 30
0.0
 11
432.2663019999998
 21
280.4446299999998
 31
0.0
  0
LINE
  5
D5F5
330
D2D2
100
AcDbEntity
  8
1
  6
Continuous
100
AcDbLine
 10
440.3492049999998
 20
276.944652
 30
0.0
 11
440.3492049999998
 21
280.4446299999998
 31
0.0
  0
LINE
  5
D5F6
330
D2D2
100
AcDbEntity
  8
1
  6
Continuous
100
AcDbLine
 10
456.515013
 20
276.944652
 30
0.0
 11
456.515013
 21
280.4446299999998
 31
0.0
  0
LINE
  5
D5F7
330
D2D2
100
AcDbEntity
  8
1
  6
Continuous
100
AcDbLine
 10
464.597917
 20
276.944652
 30
0.0
 11
464.597917
 21
280.4446299999998
 31
0.0
  0
LINE
  5
D5F8
330
D2D2
100
AcDbEntity
  8
1
  6
Continuous
100
AcDbLine
 10
460.035732
 20
269.1289569999999
 30
0.0
 11
462.574221
 21
271.6504459999999
 31
0.0
  0
LINE
  5
D5F9
330
D2D2
100
AcDbEntity
  8
1
  6
Continuous
100
AcDbLine
 10
462.284283
 20
269.1289569999999
 30
0.0
 11
459.7457939999999
 21
271.6504459999999
 31
0.0
  0
ARC
  5
D5FA
330
D2D2
100
AcDbEntity
  8
1
  6
Continuous
100
AcDbCircle
 10
491.5559059999998
 20
254.0366169999999
 30
0.0
 40
14.529548
100
AcDbArc
 50
138.3877149999999
 51
180.690332
  0
ARC
  5
D5FB
330
D2D2
100
AcDbEntity
  8
1
  6
Continuous
100
AcDbCircle
 10
479.5829519999998
 20
398.419323
 30
0.0
 40
132.2282199999999
100
AcDbArc
 50
266.0406469999999
 51
271.272583
  0
ARC
  5
D5FC
330
D2D2
100
AcDbEntity
  8
1
  6
Continuous
100
AcDbCircle
 10
482.602253
 20
262.503052
 30
0.0
 40
3.721582999999998
100
AcDbArc
 50
67.573387
 51
91.27258299999999
  0
ARC
  5
D5FD
330
D2D2
100
AcDbEntity
  8
1
  6
Continuous
100
AcDbCircle
 10
483.9137069999998
 20
265.6806889999999
 30
0.0
 40
0.283955
100
AcDbArc
 50
26.44452299999999
 51
67.573387
  0
ARC
  5
D5FE
330
D2D2
100
AcDbEntity
  8
1
  6
Continuous
100
AcDbCircle
 10
478.034225
 20
265.1756279999998
 30
0.0
 40
6.166148999999997
100
AcDbArc
 50
358.5010279999999
 51
5.878328999999997
  0
ARC
  5
D5FF
330
D2D2
100
AcDbEntity
  8
1
  6
Continuous
100
AcDbCircle
 10
482.602253
 20
262.503052
 30
0.0
 40
3.721582999999998
100
AcDbArc
 50
67.573387
 51
91.27258299999999
  0
ARC
  5
D600
330
D2D2
100
AcDbEntity
  8
1
  6
Continuous
100
AcDbCircle
 10
483.9137069999998
 20
265.6806889999999
 30
0.0
 40
0.283955
100
AcDbArc
 50
26.44452299999999
 51
67.573387
  0
ARC
  5
D601
330
D2D2
100
AcDbEntity
  8
1
  6
Continuous
100
AcDbCircle
 10
478.034225
 20
265.1756279999998
 30
0.0
 40
6.166148999999997
100
AcDbArc
 50
358.5010279999999
 51
5.878328999999997
  0
ARC
  5
D602
330
D2D2
100
AcDbEntity
  8
1
  6
Continuous
100
AcDbCircle
 10
483.626747
 20
264.2695939999999
 30
0.0
 40
0.565705
100
AcDbArc
 50
270.6701649999998
 51
312.780166
  0
ARC
  5
D603
330
D2D2
100
AcDbEntity
  8
1
  6
Continuous
100
AcDbCircle
 10
483.626747
 20
264.2695939999999
 30
0.0
 40
0.565705
100
AcDbArc
 50
270.6701649999998
 51
312.780166
  0
ARC
  5
D604
330
D2D2
100
AcDbEntity
  8
1
  6
Continuous
100
AcDbCircle
 10
480.4652769999998
 20
534.547265
 30
0.0
 40
270.861866
100
AcDbArc
 50
270.0481299999999
 51
270.6701649999998
  0
ARC
  5
D605
330
D2D2
100
AcDbEntity
  8
1
  6
Continuous
100
AcDbCircle
 10
480.4652769999998
 20
534.547265
 30
0.0
 40
270.861866
100
AcDbArc
 50
270.0481299999999
 51
270.6701649999998
  0
ARC
  5
D606
330
D2D2
100
AcDbEntity
  8
1
  6
Continuous
100
AcDbCircle
 10
489.271944
 20
263.5999749999999
 30
0.0
 40
5.267126
100
AcDbArc
 50
164.4235139999999
 51
177.2314419999999
  0
LINE
  5
D607
330
D2D2
100
AcDbEntity
  8
1
  6
Continuous
100
AcDbLine
 10
480.692807
 20
263.685495
 30
0.0
 11
481.429738
 21
266.204001
 31
0.0
  0
ARC
  5
D608
330
D2D2
100
AcDbEntity
  8
1
  6
Continuous
100
AcDbCircle
 10
489.271944
 20
263.5999749999999
 30
0.0
 40
5.267126
100
AcDbArc
 50
164.4235139999999
 51
177.2314419999999
  0
LINE
  5
D609
330
D2D2
100
AcDbEntity
  8
1
  6
Continuous
100
AcDbLine
 10
480.692807
 20
263.685495
 30
0.0
 11
481.429738
 21
266.204001
 31
0.0
  0
LINE
  5
D60A
330
D2D2
100
AcDbEntity
  8
1
  6
Continuous
100
AcDbLine
 10
462.8641589999999
 20
269.1289569999999
 30
0.0
 11
465.402648
 21
271.6504459999999
 31
0.0
  0
LINE
  5
D60B
330
D2D2
100
AcDbEntity
  8
1
  6
Continuous
100
AcDbLine
 10
465.1127099999998
 20
269.1289569999999
 30
0.0
 11
462.574221
 21
271.6504459999999
 31
0.0
  0
LINE
  5
D60C
330
D2D2
100
AcDbEntity
  8
1
  6
Continuous
100
AcDbLine
 10
465.692586
 20
269.1289569999999
 30
0.0
 11
468.231075
 21
271.6504459999999
 31
0.0
  0
LINE
  5
D60D
330
D2D2
100
AcDbEntity
  8
1
  6
Continuous
100
AcDbLine
 10
468.5210129999998
 20
269.1289569999999
 30
0.0
 11
471.0595019999998
 21
271.6504459999999
 31
0.0
  0
LINE
  5
D60E
330
D2D2
100
AcDbEntity
  8
1
  6
Continuous
100
AcDbLine
 10
470.7695639999998
 20
269.1289569999999
 30
0.0
 11
468.231075
 21
271.6504459999999
 31
0.0
  0
LINE
  5
D60F
330
D2D2
100
AcDbEntity
  8
1
  6
Continuous
100
AcDbLine
 10
471.349441
 20
269.1289569999999
 30
0.0
 11
473.8879289999998
 21
271.6504459999999
 31
0.0
  0
LINE
  5
D610
330
D2D2
100
AcDbEntity
  8
1
  6
Continuous
100
AcDbLine
 10
473.597991
 20
269.1289569999999
 30
0.0
 11
471.0595019999998
 21
271.6504459999999
 31
0.0
  0
LINE
  5
D611
330
D2D2
100
AcDbEntity
  8
1
  6
Continuous
100
AcDbLine
 10
474.177868
 20
269.1289569999999
 30
0.0
 11
475.118185
 21
270.069274
 31
0.0
  0
LINE
  5
D612
330
D2D2
100
AcDbEntity
  8
1
  6
Continuous
100
AcDbLine
 10
475.118185
 20
269.1289569999999
 30
0.0
 11
475.118185
 21
272.944652
 31
0.0
  0
LINE
  5
D613
330
D2D2
100
AcDbEntity
  8
1
  6
Continuous
100
AcDbLine
 10
475.118185
 20
270.4371899999998
 30
0.0
 11
473.8879289999998
 21
271.6504459999999
 31
0.0
  0
ARC
  5
D614
330
D2D2
100
AcDbEntity
  8
1
  6
Continuous
100
AcDbCircle
 10
469.4320849999998
 20
272.944652
 30
0.0
 40
4.0
100
AcDbArc
 50
0.0
 51
90.0
  0
ARC
  5
D615
330
D2D2
100
AcDbEntity
  8
1
  6
Continuous
100
AcDbCircle
 10
472.823253
 20
266.7600759999999
 30
0.0
 40
2.383999999999999
100
AcDbArc
 50
89.765923
 51
186.1011659999999
  0
ARC
  5
D616
330
D2D2
100
AcDbEntity
  8
1
  6
Continuous
100
AcDbCircle
 10
472.9001009999998
 20
265.9437549999998
 30
0.0
 40
3.2
100
AcDbArc
 50
29.372364
 51
89.765923
  0
ARC
  5
D617
330
D2D2
100
AcDbEntity
  8
1
  6
Continuous
100
AcDbCircle
 10
476.873081
 20
267.4081259999999
 30
0.0
 40
1.189
100
AcDbArc
 50
174.9251139999999
 51
268.815048
  0
LINE
  5
D618
330
D2D2
100
AcDbEntity
  8
1
  6
Continuous
100
AcDbLine
 10
467.941137
 20
269.1289569999999
 30
0.0
 11
465.402648
 21
271.6504459999999
 31
0.0
  0
LINE
  5
D619
330
D2D2
100
AcDbEntity
  8
1
  6
Continuous
100
AcDbLine
 10
443.065169
 20
269.1289569999999
 30
0.0
 11
445.603658
 21
271.6504459999999
 31
0.0
  0
LINE
  5
D61A
330
D2D2
100
AcDbEntity
  8
1
  6
Continuous
100
AcDbLine
 10
445.3137199999998
 20
269.1289569999999
 30
0.0
 11
442.7752309999998
 21
271.6504459999999
 31
0.0
  0
LINE
  5
D61B
330
D2D2
100
AcDbEntity
  8
1
  6
Continuous
100
AcDbLine
 10
445.8935959999998
 20
269.1289569999999
 30
0.0
 11
448.4320849999998
 21
271.6504459999999
 31
0.0
  0
LINE
  5
D61C
330
D2D2
100
AcDbEntity
  8
1
  6
Continuous
100
AcDbLine
 10
448.1421469999999
 20
269.1289569999999
 30
0.0
 11
445.603658
 21
271.6504459999999
 31
0.0
  0
LINE
  5
D61D
330
D2D2
100
AcDbEntity
  8
1
  6
Continuous
100
AcDbLine
 10
451.5504509999998
 20
269.1289569999999
 30
0.0
 11
454.08894
 21
271.6504459999999
 31
0.0
  0
LINE
  5
D61E
330
D2D2
100
AcDbEntity
  8
1
  6
Continuous
100
AcDbLine
 10
453.7990009999998
 20
269.1289569999999
 30
0.0
 11
451.2605119999998
 21
271.6504459999999
 31
0.0
  0
LINE
  5
D61F
330
D2D2
100
AcDbEntity
  8
1
  6
Continuous
100
AcDbLine
 10
454.3788779999998
 20
269.1289569999999
 30
0.0
 11
456.917367
 21
271.6504459999999
 31
0.0
  0
LINE
  5
D620
330
D2D2
100
AcDbEntity
  8
1
  6
Continuous
100
AcDbLine
 10
456.627428
 20
269.1289569999999
 30
0.0
 11
454.08894
 21
271.6504459999999
 31
0.0
  0
LINE
  5
D621
330
D2D2
100
AcDbEntity
  8
1
  6
Continuous
100
AcDbLine
 10
457.2073049999998
 20
269.1289569999999
 30
0.0
 11
459.7457939999999
 21
271.6504459999999
 31
0.0
  0
LINE
  5
D622
330
D2D2
100
AcDbEntity
  8
1
  6
Continuous
100
AcDbLine
 10
459.455856
 20
269.1289569999999
 30
0.0
 11
456.917367
 21
271.6504459999999
 31
0.0
  0
LINE
  5
D623
330
D2D2
100
AcDbEntity
  8
1
  6
Continuous
100
AcDbLine
 10
448.722024
 20
269.1289569999999
 30
0.0
 11
451.2605119999998
 21
271.6504459999999
 31
0.0
  0
LINE
  5
D624
330
D2D2
100
AcDbEntity
  8
1
  6
Continuous
100
AcDbLine
 10
450.970574
 20
269.1289569999999
 30
0.0
 11
448.4320849999998
 21
271.6504459999999
 31
0.0
  0
LINE
  5
D625
330
D2D2
100
AcDbEntity
  8
1
  6
Continuous
100
AcDbLine
 10
431.1715839999997
 20
269.1289569999999
 30
0.0
 11
428.6330949999999
 21
271.6504459999999
 31
0.0
  0
LINE
  5
D626
330
D2D2
100
AcDbEntity
  8
1
  6
Continuous
100
AcDbLine
 10
428.9230339999998
 20
269.1289569999999
 30
0.0
 11
431.461523
 21
271.6504459999999
 31
0.0
  0
LINE
  5
D627
330
D2D2
100
AcDbEntity
  8
1
  6
Continuous
100
AcDbLine
 10
439.6568659999998
 20
269.1289569999999
 30
0.0
 11
437.118377
 21
271.6504459999999
 31
0.0
  0
LINE
  5
D628
330
D2D2
100
AcDbEntity
  8
1
  6
Continuous
100
AcDbLine
 10
437.408315
 20
269.1289569999999
 30
0.0
 11
439.946804
 21
271.6504459999999
 31
0.0
  0
LINE
  5
D629
330
D2D2
100
AcDbEntity
  8
1
  6
Continuous
100
AcDbLine
 10
434.579888
 20
269.1289569999999
 30
0.0
 11
437.118377
 21
271.6504459999999
 31
0.0
  0
LINE
  5
D62A
330
D2D2
100
AcDbEntity
  8
1
  6
Continuous
100
AcDbLine
 10
436.8284389999998
 20
269.1289569999999
 30
0.0
 11
434.2899499999998
 21
271.6504459999999
 31
0.0
  0
LINE
  5
D62B
330
D2D2
100
AcDbEntity
  8
1
  6
Continuous
100
AcDbLine
 10
440.236742
 20
269.1289569999999
 30
0.0
 11
442.7752309999998
 21
271.6504459999999
 31
0.0
  0
LINE
  5
D62C
330
D2D2
100
AcDbEntity
  8
1
  6
Continuous
100
AcDbLine
 10
442.4852929999998
 20
269.1289569999999
 30
0.0
 11
439.946804
 21
271.6504459999999
 31
0.0
  0
LINE
  5
D62D
330
D2D2
100
AcDbEntity
  8
1
  6
Continuous
100
AcDbLine
 10
431.7514609999998
 20
269.1289569999999
 30
0.0
 11
434.2899499999998
 21
271.6504459999999
 31
0.0
  0
LINE
  5
D62E
330
D2D2
100
AcDbEntity
  8
1
  6
Continuous
100
AcDbLine
 10
434.000011
 20
269.1289569999999
 30
0.0
 11
431.461523
 21
271.6504459999999
 31
0.0
  0
ARC
  5
D62F
330
D2D2
100
AcDbEntity
  8
1
  6
Continuous
100
AcDbCircle
 10
427.96063
 20
256.332641
 30
0.0
 40
2.322
100
AcDbArc
 50
13.304852
 51
84.95780100000002
  0
LINE
  5
D630
330
D2D2
100
AcDbEntity
  8
1
  6
Continuous
100
AcDbLine
 10
432.2663019999998
 20
280.4446299999998
 30
0.0
 11
464.597917
 21
280.4446299999998
 31
0.0
  0
LINE
  5
D631
330
D2D2
100
AcDbEntity
  8
1
  6
Continuous
100
AcDbLine
 10
423.2661789999998
 20
269.1289569999999
 30
0.0
 11
425.8046679999997
 21
271.6504459999999
 31
0.0
  0
LINE
  5
D632
330
D2D2
100
AcDbEntity
  8
1
  6
Continuous
100
AcDbLine
 10
425.5147299999999
 20
269.1289569999999
 30
0.0
 11
422.976241
 21
271.6504459999999
 31
0.0
  0
LINE
  5
D633
330
D2D2
100
AcDbEntity
  8
1
  6
Continuous
100
AcDbLine
 10
421.745985
 20
272.944652
 30
0.0
 11
421.745985
 21
269.1289569999999
 31
0.0
  0
LINE
  5
D634
330
D2D2
100
AcDbEntity
  8
1
  6
Continuous
100
AcDbLine
 10
421.745985
 20
270.4371899999998
 30
0.0
 11
422.976241
 21
271.6504459999999
 31
0.0
  0
LINE
  5
D635
330
D2D2
100
AcDbEntity
  8
1
  6
Continuous
100
AcDbLine
 10
421.745985
 20
270.069274
 30
0.0
 11
422.686303
 21
269.1289569999999
 31
0.0
  0
ARC
  5
D636
330
D2D2
100
AcDbEntity
  8
1
  6
Continuous
100
AcDbCircle
 10
427.4320849999998
 20
272.944652
 30
0.0
 40
4.0
100
AcDbArc
 50
90.0
 51
180.0
  0
ARC
  5
D637
330
D2D2
100
AcDbEntity
  8
1
  6
Continuous
100
AcDbCircle
 10
424.2070849999998
 20
265.928968
 30
0.0
 40
3.2
100
AcDbArc
 50
90.0
 51
158.405854
  0
ARC
  5
D638
330
D2D2
100
AcDbEntity
  8
1
  6
Continuous
100
AcDbCircle
 10
427.9002559999998
 20
264.464311
 30
0.0
 40
7.172999999999999
100
AcDbArc
 50
158.3674609999999
 51
163.9433239999999
  0
LINE
  5
D639
330
D2D2
100
AcDbEntity
  8
1
  6
Continuous
100
AcDbLine
 10
422.5103519999998
 20
259.144544
 30
0.0
 11
421.0070849999998
 21
259.24496
 31
0.0
  0
LINE
  5
D63A
330
D2D2
100
AcDbEntity
  8
1
  6
Continuous
100
AcDbLine
 10
421.0070849999998
 20
259.24496
 30
0.0
 11
421.0070849999998
 21
266.448277
 31
0.0
  0
LINE
  5
D63B
330
D2D2
100
AcDbEntity
  8
1
  6
Continuous
100
AcDbLine
 10
187.586035
 20
100.8582829999999
 30
0.0
 11
195.586035
 21
100.8582829999999
 31
0.0
  0
LINE
  5
D63C
330
D2D2
100
AcDbEntity
  8
1
  6
Continuous
100
AcDbLine
 10
194.786035
 20
101.6582829999999
 30
0.0
 11
188.3860349999999
 21
101.6582829999999
 31
0.0
  0
LINE
  5
D63D
330
D2D2
100
AcDbEntity
  8
2
  6
Continuous
100
AcDbLine
 10
188.2625349999999
 20
101.5347829999999
 30
0.0
 11
188.2625349999999
 21
100.775465
 31
0.0
  0
LINE
  5
D63E
330
D2D2
100
AcDbEntity
  8
1
  6
Continuous
100
AcDbLine
 10
188.3860349999999
 20
101.6582829999999
 30
0.0
 11
187.586035
 21
100.8582829999999
 31
0.0
  0
LINE
  5
D63F
330
D2D2
100
AcDbEntity
  8
1
  6
Continuous
100
AcDbLine
 10
187.586035
 20
100.775465
 30
0.0
 11
187.586035
 21
100.8582829999999
 31
0.0
  0
ARC
  5
D640
330
D2D2
100
AcDbEntity
  8
1
  6
Continuous
100
AcDbCircle
 10
194.586035
 20
92.11040199999999
 30
0.0
 40
8.665063999999999
100
AcDbArc
 50
69.743842
 51
110.256158
  0
ARC
  5
D641
330
D2D2
100
AcDbEntity
  8
1
  6
Continuous
100
AcDbCircle
 10
194.586035
 20
104.440529
 30
0.0
 40
8.665063999999999
100
AcDbArc
 50
249.7438419999999
 51
290.256158
  0
LINE
  5
D642
330
D2D2
100
AcDbEntity
  8
1
  6
Continuous
100
AcDbLine
 10
191.586035
 20
96.31136300000001
 30
0.0
 11
191.586035
 21
100.2395669999999
 31
0.0
  0
LINE
  5
D643
330
D2D2
100
AcDbEntity
  8
2
  6
Continuous
100
AcDbLine
 10
194.909535
 20
101.5347829999999
 30
0.0
 11
194.909535
 21
100.775465
 31
0.0
  0
LINE
  5
D644
330
D2D2
100
AcDbEntity
  8
1
  6
Continuous
100
AcDbLine
 10
194.786035
 20
101.6582829999999
 30
0.0
 11
195.586035
 21
100.8582829999999
 31
0.0
  0
LINE
  5
D645
330
D2D2
100
AcDbEntity
  8
1
  6
Continuous
100
AcDbLine
 10
195.586035
 20
100.775465
 30
0.0
 11
195.586035
 21
100.8582829999999
 31
0.0
  0
LINE
  5
D646
330
D2D2
100
AcDbEntity
  8
1
  6
Continuous
100
AcDbLine
 10
197.5860349999999
 20
100.775465
 30
0.0
 11
197.5860349999999
 21
95.775465
 31
0.0
  0
LINE
  5
D647
330
D2D2
100
AcDbEntity
  8
1
  6
Continuous
100
AcDbLine
 10
184.586035
 20
95.775465
 30
0.0
 11
184.586035
 21
94.275465
 31
0.0
  0
LINE
  5
D648
330
D2D2
100
AcDbEntity
  8
1
  6
Continuous
100
AcDbLine
 10
185.586035
 20
100.775465
 30
0.0
 11
185.586035
 21
95.775465
 31
0.0
  0
LINE
  5
D649
330
D2D2
100
AcDbEntity
  8
1
  6
Continuous
100
AcDbLine
 10
197.7931989999999
 20
95.775465
 30
0.0
 11
184.586035
 21
95.775465
 31
0.0
  0
LINE
  5
D64A
330
D2D2
100
AcDbEntity
  8
1
  6
Continuous
100
AcDbLine
 10
185.586035
 20
100.775465
 30
0.0
 11
197.5860349999999
 21
100.775465
 31
0.0
  0
ARC
  5
D64B
330
D2D2
100
AcDbEntity
  8
1
  6
Continuous
100
AcDbCircle
 10
188.586035
 20
92.11040199999999
 30
0.0
 40
8.665063999999999
100
AcDbArc
 50
69.743842
 51
110.256158
  0
ARC
  5
D64C
330
D2D2
100
AcDbEntity
  8
1
  6
Continuous
100
AcDbCircle
 10
188.586035
 20
104.440529
 30
0.0
 40
8.665063999999999
100
AcDbArc
 50
249.7438419999999
 51
290.256158
  0
LINE
  5
D64D
330
D2D2
100
AcDbEntity
  8
1
  6
Continuous
100
AcDbLine
 10
86.80438700000001
 20
208.825481
 30
0.0
 11
88.148572
 21
207.404497
 31
0.0
  0
ARC
  5
D64E
330
D2D2
100
AcDbEntity
  8
1
  6
Continuous
100
AcDbCircle
 10
191.5864479999999
 20
206.4441629999998
 30
0.0
 40
50.0
100
AcDbArc
 50
175.7089179999999
 51
178.480563
  0
ARC
  5
D64F
330
D2D2
100
AcDbEntity
  8
1
  6
Continuous
100
AcDbCircle
 10
191.5864479999999
 20
206.4441629999998
 30
0.0
 40
50.0
100
AcDbArc
 50
203.4956619999999
 51
347.381097
  0
ARC
  5
D650
330
D2D2
100
AcDbEntity
  8
1
  6
Continuous
100
AcDbCircle
 10
191.5864479999999
 20
206.4441629999998
 30
0.0
 40
41.0
100
AcDbArc
 50
208.4296689999999
 51
327.528715
  0
ARC
  5
D651
330
D2D2
100
AcDbEntity
  8
1
  6
Continuous
100
AcDbCircle
 10
191.5864479999999
 20
206.4357199999999
 30
0.0
 40
30.0
100
AcDbArc
 50
208.444112
 51
310.856402
  0
ARC
  5
D652
330
D2D2
100
AcDbEntity
  8
1
  6
Continuous
100
AcDbCircle
 10
191.5864479999999
 20
206.4357199999999
 30
0.0
 40
21.49999999999999
100
AcDbArc
 50
212.5276819999999
 51
297.2053809999998
  0
ARC
  5
D653
330
D2D2
100
AcDbEntity
  8
1
  6
Continuous
100
AcDbCircle
 10
191.5864479999999
 20
206.4441629999998
 30
0.0
 40
41.0
100
AcDbArc
 50
22.95324099999999
 51
26.174034
  0
ARC
  5
D654
330
D2D2
100
AcDbEntity
  8
1
  6
Continuous
100
AcDbCircle
 10
191.5864479999999
 20
206.4441629999998
 30
0.0
 40
50.0
100
AcDbArc
 50
17.308831
 51
32.458048
  0
ARC
  5
D655
330
D2D2
100
AcDbEntity
  8
1
  6
Continuous
100
AcDbCircle
 10
191.5864479999999
 20
206.4357199999999
 30
0.0
 40
30.0
100
AcDbArc
 50
358.782944
 51
16.332298
  0
CIRCLE
  5
D656
330
D2D2
100
AcDbEntity
  8
1
  6
Continuous
100
AcDbCircle
 10
481.4316719999998
 20
206.4357199999999
 30
0.0
 40
7.0
  0
ARC
  5
D657
330
D2D2
100
AcDbEntity
  8
1
  6
Continuous
100
AcDbCircle
 10
224.586035
 20
71.975465
 30
0.0
 40
19.82499999999999
100
AcDbArc
 50
213.700727
 51
50.51155399999998
  0
ARC
  5
D658
330
D2D2
100
AcDbEntity
  8
1
  6
Continuous
100
AcDbCircle
 10
224.586035
 20
71.975465
 30
0.0
 40
24.82499999999999
100
AcDbArc
 50
228.8251119999999
 51
38.04747499999999
  0
ARC
  5
D659
330
D2D2
100
AcDbEntity
  8
1
  6
Continuous
100
AcDbCircle
 10
224.586035
 20
71.975465
 30
0.0
 40
27.425
100
AcDbArc
 50
228.8251119999999
 51
49.975741
  0
ARC
  5
D65A
330
D2D2
100
AcDbEntity
  8
1
  6
Continuous
100
AcDbCircle
 10
191.586035
 20
59.058239
 30
0.0
 40
10.5
100
AcDbArc
 50
228.1896849999998
 51
311.810315
  0
LINE
  5
D65B
330
D2D2
100
AcDbEntity
  8
1
  6
Continuous
100
AcDbLine
 10
198.586035
 20
51.232001
 30
0.0
 11
184.586035
 21
51.232001
 31
0.0
  0
LINE
  5
D65C
330
D2D2
100
AcDbEntity
  8
1
  6
Continuous
100
AcDbLine
 10
180.437878
 20
56.158239
 30
0.0
 11
200.605285
 21
56.158239
 31
0.0
  0
LINE
  5
D65D
330
D2D2
100
AcDbEntity
  8
1
  6
Continuous
100
AcDbLine
 10
180.437878
 20
53.558239
 30
0.0
 11
200.605285
 21
53.558239
 31
0.0
  0
LINE
  5
D65E
330
D2D2
100
AcDbEntity
  8
1
  6
Continuous
100
AcDbLine
 10
182.7844149999999
 20
86.225465
 30
0.0
 11
200.387656
 21
86.225465
 31
0.0
  0
LINE
  5
D65F
330
D2D2
100
AcDbEntity
  8
1
  6
Continuous
100
AcDbLine
 10
182.7844149999999
 20
57.725465
 30
0.0
 11
200.387656
 21
57.725465
 31
0.0
  0
LINE
  5
D660
330
D2D2
100
AcDbEntity
  8
1
  6
Continuous
100
AcDbLine
 10
184.0860349999999
 20
56.725465
 30
0.0
 11
199.086035
 21
56.725465
 31
0.0
  0
LINE
  5
D661
330
D2D2
100
AcDbEntity
  8
1
  6
Continuous
100
AcDbLine
 10
197.086035
 20
56.475465
 30
0.0
 11
186.086035
 21
56.475465
 31
0.0
  0
LINE
  5
D662
330
D2D2
100
AcDbEntity
  8
1
  6
Continuous
100
AcDbLine
 10
235.8553569999999
 20
82.97546500000001
 30
0.0
 11
147.316713
 21
82.97546500000001
 31
0.0
  0
LINE
  5
D663
330
D2D2
100
AcDbEntity
  8
1
  6
Continuous
100
AcDbLine
 10
235.8553569999999
 20
60.97546499999999
 30
0.0
 11
147.316713
 21
60.97546499999999
 31
0.0
  0
ARC
  5
D664
330
D2D2
100
AcDbEntity
  8
1
  6
Continuous
100
AcDbCircle
 10
171.5860349999998
 20
71.975465
 30
0.0
 40
30.0
100
AcDbArc
 50
166.11346
 51
193.88654
  0
ARC
  5
D665
330
D2D2
100
AcDbEntity
  8
1
  6
Continuous
100
AcDbCircle
 10
147.316713
 20
65.97546499999999
 30
0.0
 40
5.0
100
AcDbArc
 50
193.88654
 51
270.0
  0
ARC
  5
D666
330
D2D2
100
AcDbEntity
  8
1
  6
Continuous
100
AcDbCircle
 10
147.316713
 20
77.975465
 30
0.0
 40
5.0
100
AcDbArc
 50
90.0
 51
166.11346
  0
LINE
  5
D667
330
D2D2
100
AcDbEntity
  8
1
  6
Continuous
100
AcDbLine
 10
184.586035
 20
51.232001
 30
0.0
 11
184.586035
 21
53.558239
 31
0.0
  0
LINE
  5
D668
330
D2D2
100
AcDbEntity
  8
1
  6
Continuous
100
AcDbLine
 10
180.437878
 20
56.158239
 30
0.0
 11
180.437878
 21
53.558239
 31
0.0
  0
ARC
  5
D669
330
D2D2
100
AcDbEntity
  8
1
  6
Continuous
100
AcDbCircle
 10
187.568428
 20
76.11332
 30
0.0
 40
19.0
100
AcDbArc
 50
232.818892
 51
255.416531
  0
LINE
  5
D66A
330
D2D2
100
AcDbEntity
  8
1
  6
Continuous
100
AcDbLine
 10
187.586035
 20
56.158239
 30
0.0
 11
187.586035
 21
56.475465
 31
0.0
  0
LINE
  5
D66B
330
D2D2
100
AcDbEntity
  8
1
  6
Continuous
100
AcDbLine
 10
186.086035
 20
56.475465
 30
0.0
 11
186.086035
 21
56.725465
 31
0.0
  0
ARC
  5
D66C
330
D2D2
100
AcDbEntity
  8
1
  6
Continuous
100
AcDbCircle
 10
184.546379
 20
58.671765
 30
0.0
 40
2.0
100
AcDbArc
 50
208.2389669999999
 51
256.692819
  0
ARC
  5
D66D
330
D2D2
100
AcDbEntity
  8
1
  6
Continuous
100
AcDbCircle
 10
187.568428
 20
67.837609
 30
0.0
 40
19.0
100
AcDbArc
 50
104.5834689999998
 51
127.181108
  0
ARC
  5
D66E
330
D2D2
100
AcDbEntity
  8
1
  6
Continuous
100
AcDbCircle
 10
184.546379
 20
85.27916500000001
 30
0.0
 40
2.0
100
AcDbArc
 50
103.307181
 51
151.761033
  0
ARC
  5
D66F
330
D2D2
100
AcDbEntity
  8
1
  6
Continuous
100
AcDbCircle
 10
224.586035
 20
71.975465
 30
0.0
 40
11.82499999999999
100
AcDbArc
 50
68.471096
 51
111.5289039999999
  0
ARC
  5
D670
330
D2D2
100
AcDbEntity
  8
1
  6
Continuous
100
AcDbCircle
 10
224.586035
 20
71.975465
 30
0.0
 40
11.82499999999999
100
AcDbArc
 50
248.4710959999999
 51
291.528904
  0
ARC
  5
D671
330
D2D2
100
AcDbEntity
  8
1
  6
Continuous
100
AcDbCircle
 10
200.605285
 20
44.558239
 30
0.0
 40
11.59999999999999
100
AcDbArc
 50
48.82511199999999
 51
90.0
  0
LINE
  5
D672
330
D2D2
100
AcDbEntity
  8
1
  6
Continuous
100
AcDbLine
 10
198.586035
 20
51.232001
 30
0.0
 11
198.586035
 21
53.558239
 31
0.0
  0
ARC
  5
D673
330
D2D2
100
AcDbEntity
  8
1
  6
Continuous
100
AcDbCircle
 10
200.605285
 20
44.558239
 30
0.0
 40
9.0
100
AcDbArc
 50
48.82511199999999
 51
90.0
  0
ARC
  5
D674
330
D2D2
100
AcDbEntity
  8
1
  6
Continuous
100
AcDbCircle
 10
195.603643
 20
76.11332
 30
0.0
 40
19.0
100
AcDbArc
 50
284.583469
 51
307.1811079999998
  0
ARC
  5
D675
330
D2D2
100
AcDbEntity
  8
1
  6
Continuous
100
AcDbCircle
 10
198.6256919999999
 20
58.671765
 30
0.0
 40
2.0
100
AcDbArc
 50
283.307181
 51
331.7610329999999
  0
LINE
  5
D676
330
D2D2
100
AcDbEntity
  8
1
  6
Continuous
100
AcDbLine
 10
195.586035
 20
56.158239
 30
0.0
 11
195.586035
 21
56.475465
 31
0.0
  0
LINE
  5
D677
330
D2D2
100
AcDbEntity
  8
1
  6
Continuous
100
AcDbLine
 10
197.086035
 20
56.475465
 30
0.0
 11
197.086035
 21
56.725465
 31
0.0
  0
ARC
  5
D678
330
D2D2
100
AcDbEntity
  8
1
  6
Continuous
100
AcDbCircle
 10
195.603643
 20
67.837609
 30
0.0
 40
19.0
100
AcDbArc
 50
52.81889200000001
 51
75.41653100000002
  0
ARC
  5
D679
330
D2D2
100
AcDbEntity
  8
1
  6
Continuous
100
AcDbCircle
 10
198.6256919999999
 20
85.27916500000001
 30
0.0
 40
2.0
100
AcDbArc
 50
28.238967
 51
76.692819
  0
ARC
  5
D67A
330
D2D2
100
AcDbEntity
  8
1
  6
Continuous
100
AcDbCircle
 10
211.586035
 20
71.975465
 30
0.0
 40
30.0
100
AcDbArc
 50
346.1134599999998
 51
13.88654
  0
ARC
  5
D67B
330
D2D2
100
AcDbEntity
  8
1
  6
Continuous
100
AcDbCircle
 10
235.8553569999999
 20
65.97546499999999
 30
0.0
 40
5.0
100
AcDbArc
 50
270.0
 51
346.1134599999998
  0
ARC
  5
D67C
330
D2D2
100
AcDbEntity
  8
1
  6
Continuous
100
AcDbCircle
 10
235.8553569999999
 20
77.975465
 30
0.0
 40
5.0
100
AcDbArc
 50
13.88654
 51
90.0
  0
LINE
  5
D67D
330
D2D2
100
AcDbEntity
  8
1
  6
Continuous
100
AcDbLine
 10
67.621541
 20
286.3266509999998
 30
0.0
 11
46.621541
 21
286.3266509999998
 31
0.0
  0
LINE
  5
D67E
330
D2D2
100
AcDbEntity
  8
1
  6
Continuous
100
AcDbLine
 10
47.371541
 20
325.5266509999998
 30
0.0
 11
66.87154099999999
 21
325.5266509999998
 31
0.0
  0
LINE
  5
D67F
330
D2D2
100
AcDbEntity
  8
1
  6
Continuous
100
AcDbLine
 10
47.371541
 20
329.5266509999998
 30
0.0
 11
66.87154099999999
 21
329.5266509999998
 31
0.0
  0
LINE
  5
D680
330
D2D2
100
AcDbEntity
  8
1
  6
Continuous
100
AcDbLine
 10
46.621541
 20
281.9266509999998
 30
0.0
 11
46.621541
 21
324.5266509999999
 31
0.0
  0
ARC
  5
D681
330
D2D2
100
AcDbEntity
  8
1
  6
Continuous
100
AcDbCircle
 10
48.121541
 20
281.9266509999998
 30
0.0
 40
1.5
100
AcDbArc
 50
180.0
 51
270.0
  0
LINE
  5
D682
330
D2D2
100
AcDbEntity
  8
1
  6
Continuous
100
AcDbLine
 10
52.621517
 20
330.426651
 30
0.0
 11
51.721517
 21
329.5266509999998
 31
0.0
  0
LINE
  5
D683
330
D2D2
100
AcDbEntity
  8
1
  6
Continuous
100
AcDbLine
 10
61.62151699999999
 20
330.426651
 30
0.0
 11
62.521517
 21
329.5266509999998
 31
0.0
  0
ARC
  5
D684
330
D2D2
100
AcDbEntity
  8
1
  6
Continuous
100
AcDbCircle
 10
47.621541
 20
324.5266509999999
 30
0.0
 40
1.0
100
AcDbArc
 50
90.0
 51
180.0
  0
LINE
  5
D685
330
D2D2
100
AcDbEntity
  8
1
  6
Continuous
100
AcDbLine
 10
47.371541
 20
329.5266509999998
 30
0.0
 11
47.371541
 21
325.5266509999998
 31
0.0
  0
LINE
  5
D686
330
D2D2
100
AcDbEntity
  8
2
  6
Continuous
100
AcDbLine
 10
52.06854100000001
 20
329.5266509999998
 30
0.0
 11
52.06854100000001
 21
329.8736749999998
 31
0.0
  0
LINE
  5
D687
330
D2D2
100
AcDbEntity
  8
2
  6
Continuous
100
AcDbLine
 10
62.17454100000001
 20
329.5266509999998
 30
0.0
 11
62.17454100000001
 21
329.873627
 31
0.0
  0
LINE
  5
D688
330
D2D2
100
AcDbEntity
  8
1
  6
Continuous
100
AcDbLine
 10
52.621517
 20
330.426651
 30
0.0
 11
61.62151699999999
 21
330.426651
 31
0.0
  0
LINE
  5
D689
330
D2D2
100
AcDbEntity
  8
1
  6
Continuous
100
AcDbLine
 10
67.621541
 20
281.9266509999998
 30
0.0
 11
67.621541
 21
324.5266509999999
 31
0.0
  0
ARC
  5
D68A
330
D2D2
100
AcDbEntity
  8
1
  6
Continuous
100
AcDbCircle
 10
66.12154100000001
 20
281.9266509999998
 30
0.0
 40
1.5
100
AcDbArc
 50
270.0
 51
0.0
  0
ARC
  5
D68B
330
D2D2
100
AcDbEntity
  8
1
  6
Continuous
100
AcDbCircle
 10
66.62154100000001
 20
324.5266509999999
 30
0.0
 40
1.0
100
AcDbArc
 50
0.0
 51
90.0
  0
LINE
  5
D68C
330
D2D2
100
AcDbEntity
  8
1
  6
Continuous
100
AcDbLine
 10
66.87154099999999
 20
329.5266509999998
 30
0.0
 11
66.87154099999999
 21
325.5266509999998
 31
0.0
  0
LINE
  5
D68D
330
D2D2
100
AcDbEntity
  8
1
  6
Continuous
100
AcDbLine
 10
235.086035
 20
281.9446299999999
 30
0.0
 11
235.086035
 21
324.5446299999999
 31
0.0
  0
LINE
  5
D68E
330
D2D2
100
AcDbEntity
  8
1
  6
Continuous
100
AcDbLine
 10
214.086035
 20
281.9446299999999
 30
0.0
 11
214.086035
 21
324.5446299999999
 31
0.0
  0
LINE
  5
D68F
330
D2D2
100
AcDbEntity
  8
1
  6
Continuous
100
AcDbLine
 10
235.086035
 20
286.34463
 30
0.0
 11
214.086035
 21
286.34463
 31
0.0
  0
ARC
  5
D690
330
D2D2
100
AcDbEntity
  8
1
  6
Continuous
100
AcDbCircle
 10
215.586035
 20
281.9446299999999
 30
0.0
 40
1.5
100
AcDbArc
 50
180.0
 51
270.0
  0
ARC
  5
D691
330
D2D2
100
AcDbEntity
  8
1
  6
Continuous
100
AcDbCircle
 10
233.586035
 20
281.9446299999999
 30
0.0
 40
1.5
100
AcDbArc
 50
270.0
 51
0.0
  0
LINE
  5
D692
330
D2D2
100
AcDbEntity
  8
1
  6
Continuous
100
AcDbLine
 10
213.8860349999999
 20
325.54463
 30
0.0
 11
235.2860349999999
 21
325.54463
 31
0.0
  0
LINE
  5
D693
330
D2D2
100
AcDbEntity
  8
1
  6
Continuous
100
AcDbLine
 10
220.0860109999999
 20
330.4446299999999
 30
0.0
 11
229.086011
 21
330.4446299999999
 31
0.0
  0
LINE
  5
D694
330
D2D2
100
AcDbEntity
  8
1
  6
Continuous
100
AcDbLine
 10
213.8860349999999
 20
329.54463
 30
0.0
 11
235.2860349999999
 21
329.54463
 31
0.0
  0
LINE
  5
D695
330
D2D2
100
AcDbEntity
  8
1
  6
Continuous
100
AcDbLine
 10
220.0860109999999
 20
330.4446299999999
 30
0.0
 11
219.1860109999999
 21
329.54463
 31
0.0
  0
ARC
  5
D696
330
D2D2
100
AcDbEntity
  8
1
  6
Continuous
100
AcDbCircle
 10
215.086035
 20
324.5446299999999
 30
0.0
 40
1.0
100
AcDbArc
 50
90.0
 51
180.0
  0
LINE
  5
D697
330
D2D2
100
AcDbEntity
  8
1
  6
Continuous
100
AcDbLine
 10
220.1783709999999
 20
329.54463
 30
0.0
 11
220.1783709999999
 21
325.54463
 31
0.0
  0
LINE
  5
D698
330
D2D2
100
AcDbEntity
  8
1
  6
Continuous
100
AcDbLine
 10
213.8860349999999
 20
325.54463
 30
0.0
 11
213.8860349999999
 21
329.54463
 31
0.0
  0
LINE
  5
D699
330
D2D2
100
AcDbEntity
  8
2
  6
Continuous
100
AcDbLine
 10
219.533035
 20
329.54463
 30
0.0
 11
219.533035
 21
329.891654
 31
0.0
  0
LINE
  5
D69A
330
D2D2
100
AcDbEntity
  8
1
  6
Continuous
100
AcDbLine
 10
229.086011
 20
330.4446299999999
 30
0.0
 11
229.986011
 21
329.54463
 31
0.0
  0
ARC
  5
D69B
330
D2D2
100
AcDbEntity
  8
1
  6
Continuous
100
AcDbCircle
 10
234.086035
 20
324.5446299999999
 30
0.0
 40
1.0
100
AcDbArc
 50
0.0
 51
90.0
  0
LINE
  5
D69C
330
D2D2
100
AcDbEntity
  8
1
  6
Continuous
100
AcDbLine
 10
228.9936979999999
 20
329.54463
 30
0.0
 11
228.9936979999999
 21
325.54463
 31
0.0
  0
LINE
  5
D69D
330
D2D2
100
AcDbEntity
  8
1
  6
Continuous
100
AcDbLine
 10
235.2860349999999
 20
325.54463
 30
0.0
 11
235.2860349999999
 21
329.54463
 31
0.0
  0
LINE
  5
D69E
330
D2D2
100
AcDbEntity
  8
2
  6
Continuous
100
AcDbLine
 10
229.639035
 20
329.54463
 30
0.0
 11
229.639035
 21
329.891606
 31
0.0
  0
LINE
  5
D69F
330
D2D2
100
AcDbEntity
  8
1
  6
Continuous
100
AcDbLine
 10
347.0090599999999
 20
281.9436299999999
 30
0.0
 11
347.0090599999999
 21
324.54363
 31
0.0
  0
LINE
  5
D6A0
330
D2D2
100
AcDbEntity
  8
1
  6
Continuous
100
AcDbLine
 10
326.0090599999998
 20
281.9436299999999
 30
0.0
 11
326.0090599999998
 21
324.54363
 31
0.0
  0
ARC
  5
D6A1
330
D2D2
100
AcDbEntity
  8
1
  6
Continuous
100
AcDbCircle
 10
327.5090599999999
 20
281.9436299999999
 30
0.0
 40
1.5
100
AcDbArc
 50
180.0
 51
270.0
  0
ARC
  5
D6A2
330
D2D2
100
AcDbEntity
  8
1
  6
Continuous
100
AcDbCircle
 10
345.5090599999999
 20
281.9436299999999
 30
0.0
 40
1.5
100
AcDbArc
 50
270.0
 51
0.0
  0
LINE
  5
D6A3
330
D2D2
100
AcDbEntity
  8
1
  6
Continuous
100
AcDbLine
 10
347.0090599999999
 20
286.3436299999999
 30
0.0
 11
326.0090599999998
 21
286.3436299999999
 31
0.0
  0
LINE
  5
D6A4
330
D2D2
100
AcDbEntity
  8
1
  6
Continuous
100
AcDbLine
 10
332.009036
 20
330.4436299999999
 30
0.0
 11
331.109036
 21
329.5436299999999
 31
0.0
  0
LINE
  5
D6A5
330
D2D2
100
AcDbEntity
  8
1
  6
Continuous
100
AcDbLine
 10
341.0090359999998
 20
330.4436299999999
 30
0.0
 11
341.909036
 21
329.5436299999999
 31
0.0
  0
LINE
  5
D6A6
330
D2D2
100
AcDbEntity
  8
1
  6
Continuous
100
AcDbLine
 10
326.7590599999999
 20
325.5436299999999
 30
0.0
 11
346.2590599999999
 21
325.5436299999999
 31
0.0
  0
LINE
  5
D6A7
330
D2D2
100
AcDbEntity
  8
1
  6
Continuous
100
AcDbLine
 10
326.7590599999999
 20
329.5436299999999
 30
0.0
 11
346.2590599999999
 21
329.5436299999999
 31
0.0
  0
LINE
  5
D6A8
330
D2D2
100
AcDbEntity
  8
1
  6
Continuous
100
AcDbLine
 10
326.7590599999999
 20
329.5436299999999
 30
0.0
 11
326.7590599999999
 21
325.5436299999999
 31
0.0
  0
ARC
  5
D6A9
330
D2D2
100
AcDbEntity
  8
1
  6
Continuous
100
AcDbCircle
 10
327.0090599999999
 20
324.54363
 30
0.0
 40
1.0
100
AcDbArc
 50
90.0
 51
180.0
  0
LINE
  5
D6AA
330
D2D2
100
AcDbEntity
  8
2
  6
Continuous
100
AcDbLine
 10
331.45606
 20
329.5436299999999
 30
0.0
 11
331.45606
 21
329.8906539999999
 31
0.0
  0
LINE
  5
D6AB
330
D2D2
100
AcDbEntity
  8
1
  6
Continuous
100
AcDbLine
 10
346.2590599999999
 20
329.5436299999999
 30
0.0
 11
346.2590599999999
 21
325.5436299999999
 31
0.0
  0
ARC
  5
D6AC
330
D2D2
100
AcDbEntity
  8
1
  6
Continuous
100
AcDbCircle
 10
346.00906
 20
324.54363
 30
0.0
 40
1.0
100
AcDbArc
 50
0.0
 51
90.0
  0
LINE
  5
D6AD
330
D2D2
100
AcDbEntity
  8
2
  6
Continuous
100
AcDbLine
 10
341.56206
 20
329.5436299999999
 30
0.0
 11
341.56206
 21
329.890606
 31
0.0
  0
LINE
  5
D6AE
330
D2D2
100
AcDbEntity
  8
1
  6
Continuous
100
AcDbLine
 10
332.009036
 20
330.4436299999999
 30
0.0
 11
341.0090359999998
 21
330.4436299999999
 31
0.0
  0
LINE
  5
D6AF
330
D2D2
100
AcDbEntity
  8
1
  6
Continuous
100
AcDbLine
 10
452.9321089999998
 20
330.4446299999999
 30
0.0
 11
443.9321089999999
 21
330.4446299999999
 31
0.0
  0
LINE
  5
D6B0
330
D2D2
100
AcDbEntity
  8
1
  6
Continuous
100
AcDbLine
 10
459.1320849999998
 20
325.54463
 30
0.0
 11
437.732085
 21
325.54463
 31
0.0
  0
LINE
  5
D6B1
330
D2D2
100
AcDbEntity
  8
1
  6
Continuous
100
AcDbLine
 10
459.1320849999998
 20
329.54463
 30
0.0
 11
437.732085
 21
329.54463
 31
0.0
  0
LINE
  5
D6B2
330
D2D2
100
AcDbEntity
  8
1
  6
Continuous
100
AcDbLine
 10
437.932085
 20
286.34463
 30
0.0
 11
458.932085
 21
286.34463
 31
0.0
  0
LINE
  5
D6B3
330
D2D2
100
AcDbEntity
  8
1
  6
Continuous
100
AcDbLine
 10
437.932085
 20
281.9446299999999
 30
0.0
 11
437.932085
 21
324.5446299999999
 31
0.0
  0
ARC
  5
D6B4
330
D2D2
100
AcDbEntity
  8
1
  6
Continuous
100
AcDbCircle
 10
439.4320849999998
 20
281.9446299999999
 30
0.0
 40
1.5
100
AcDbArc
 50
180.0
 51
270.0
  0
LINE
  5
D6B5
330
D2D2
100
AcDbEntity
  8
1
  6
Continuous
100
AcDbLine
 10
443.9321089999999
 20
330.4446299999999
 30
0.0
 11
443.0321089999998
 21
329.54463
 31
0.0
  0
LINE
  5
D6B6
330
D2D2
100
AcDbEntity
  8
2
  6
Continuous
100
AcDbLine
 10
443.379085
 20
329.54463
 30
0.0
 11
443.379085
 21
329.891606
 31
0.0
  0
LINE
  5
D6B7
330
D2D2
100
AcDbEntity
  8
1
  6
Continuous
100
AcDbLine
 10
437.732085
 20
325.54463
 30
0.0
 11
437.732085
 21
329.54463
 31
0.0
  0
LINE
  5
D6B8
330
D2D2
100
AcDbEntity
  8
1
  6
Continuous
100
AcDbLine
 10
444.0244219999998
 20
329.54463
 30
0.0
 11
444.0244219999998
 21
325.54463
 31
0.0
  0
ARC
  5
D6B9
330
D2D2
100
AcDbEntity
  8
1
  6
Continuous
100
AcDbCircle
 10
438.9320849999998
 20
324.5446299999999
 30
0.0
 40
1.0
100
AcDbArc
 50
90.0
 51
180.0
  0
LINE
  5
D6BA
330
D2D2
100
AcDbEntity
  8
1
  6
Continuous
100
AcDbLine
 10
458.932085
 20
281.9446299999999
 30
0.0
 11
458.932085
 21
324.5446299999999
 31
0.0
  0
ARC
  5
D6BB
330
D2D2
100
AcDbEntity
  8
1
  6
Continuous
100
AcDbCircle
 10
457.4320849999998
 20
281.9446299999999
 30
0.0
 40
1.5
100
AcDbArc
 50
270.0
 51
0.0
  0
LINE
  5
D6BC
330
D2D2
100
AcDbEntity
  8
1
  6
Continuous
100
AcDbLine
 10
452.9321089999998
 20
330.4446299999999
 30
0.0
 11
453.832109
 21
329.54463
 31
0.0
  0
LINE
  5
D6BD
330
D2D2
100
AcDbEntity
  8
2
  6
Continuous
100
AcDbLine
 10
453.4850849999998
 20
329.54463
 30
0.0
 11
453.4850849999998
 21
329.891654
 31
0.0
  0
LINE
  5
D6BE
330
D2D2
100
AcDbEntity
  8
1
  6
Continuous
100
AcDbLine
 10
459.1320849999998
 20
325.54463
 30
0.0
 11
459.1320849999998
 21
329.54463
 31
0.0
  0
LINE
  5
D6BF
330
D2D2
100
AcDbEntity
  8
1
  6
Continuous
100
AcDbLine
 10
452.8397489999998
 20
329.54463
 30
0.0
 11
452.8397489999998
 21
325.54463
 31
0.0
  0
ARC
  5
D6C0
330
D2D2
100
AcDbEntity
  8
1
  6
Continuous
100
AcDbCircle
 10
457.932085
 20
324.5446299999999
 30
0.0
 40
1.0
100
AcDbArc
 50
0.0
 51
90.0
  0
ARC
  5
D6C1
330
D2D2
100
AcDbEntity
  8
1
  6
Continuous
100
AcDbCircle
 10
224.586035
 20
414.878435
 30
0.0
 40
27.425
100
AcDbArc
 50
228.825109
 51
131.1749289999999
  0
CIRCLE
  5
D6C2
330
D2D2
100
AcDbEntity
  8
1
  6
Continuous
100
AcDbCircle
 10
224.586035
 20
414.878435
 30
0.0
 40
26.6861
  0
ARC
  5
D6C3
330
D2D2
100
AcDbEntity
  8
1
  6
Continuous
100
AcDbCircle
 10
191.586048
 20
427.7956439999998
 30
0.0
 40
10.5
100
AcDbArc
 50
48.189685
 51
131.810315
  0
LINE
  5
D6C4
330
D2D2
100
AcDbEntity
  8
1
  6
Continuous
100
AcDbLine
 10
198.586048
 20
435.621882
 30
0.0
 11
184.5860479999998
 21
435.621882
 31
0.0
  0
LINE
  5
D6C5
330
D2D2
100
AcDbEntity
  8
1
  6
Continuous
100
AcDbLine
 10
200.6052659999999
 20
433.295644
 30
0.0
 11
180.8364479999999
 21
433.295644
 31
0.0
  0
LINE
  5
D6C6
330
D2D2
100
AcDbEntity
  8
1
  6
Continuous
100
AcDbLine
 10
200.605284
 20
396.46121
 30
0.0
 11
188.6021149999999
 21
396.46121
 31
0.0
  0
ARC
  5
D6C7
330
D2D2
100
AcDbEntity
  8
1
  6
Continuous
100
AcDbCircle
 10
242.4471089999999
 20
414.878427
 30
0.0
 40
53.38794100000001
100
AcDbArc
 50
159.8200589999999
 51
200.1799409999999
  0
LINE
  5
D6C8
330
D2D2
100
AcDbEntity
  8
1
  6
Continuous
100
AcDbLine
 10
190.204674
 20
425.8784349999998
 30
0.0
 11
147.3167259999998
 21
425.8784349999998
 31
0.0
  0
LINE
  5
D6C9
330
D2D2
100
AcDbEntity
  8
1
  6
Continuous
100
AcDbLine
 10
190.2046699999999
 20
403.878435
 30
0.0
 11
147.3167259999998
 21
403.878435
 31
0.0
  0
ARC
  5
D6CA
330
D2D2
100
AcDbEntity
  8
1
  6
Continuous
100
AcDbCircle
 10
171.586048
 20
414.878435
 30
0.0
 40
30.0
100
AcDbArc
 50
166.11346
 51
193.88654
  0
ARC
  5
D6CB
330
D2D2
100
AcDbEntity
  8
1
  6
Continuous
100
AcDbCircle
 10
147.3167259999998
 20
408.878435
 30
0.0
 40
5.0
100
AcDbArc
 50
193.88654
 51
270.0
  0
ARC
  5
D6CC
330
D2D2
100
AcDbEntity
  8
1
  6
Continuous
100
AcDbCircle
 10
147.3167259999998
 20
420.878435
 30
0.0
 40
5.0
100
AcDbArc
 50
90.0
 51
166.11346
  0
ARC
  5
D6CD
330
D2D2
100
AcDbEntity
  8
1
  6
Continuous
100
AcDbCircle
 10
184.546392
 20
401.5747349999998
 30
0.0
 40
2.0
100
AcDbArc
 50
208.2389669999999
 51
256.692819
  0
ARC
  5
D6CE
330
D2D2
100
AcDbEntity
  8
1
  6
Continuous
100
AcDbCircle
 10
187.5684409999998
 20
419.0162899999998
 30
0.0
 40
19.0
100
AcDbArc
 50
232.818892
 51
255.416531
  0
LINE
  5
D6CF
330
D2D2
100
AcDbEntity
  8
1
  6
Continuous
100
AcDbLine
 10
190.996065
 20
400.628435
 30
0.0
 11
182.7844279999999
 21
400.628435
 31
0.0
  0
LINE
  5
D6D0
330
D2D2
100
AcDbEntity
  8
1
  6
Continuous
100
AcDbLine
 10
184.5860479999998
 20
435.621882
 30
0.0
 11
184.5860479999998
 21
433.295644
 31
0.0
  0
LINE
  5
D6D1
330
D2D2
100
AcDbEntity
  8
1
  6
Continuous
100
AcDbLine
 10
180.836444
 20
430.695644
 30
0.0
 11
180.836444
 21
433.295644
 31
0.0
  0
ARC
  5
D6D2
330
D2D2
100
AcDbEntity
  8
1
  6
Continuous
100
AcDbCircle
 10
187.5684409999998
 20
410.7405799999998
 30
0.0
 40
19.0
100
AcDbArc
 50
104.5834689999998
 51
127.181108
  0
ARC
  5
D6D3
330
D2D2
100
AcDbEntity
  8
1
  6
Continuous
100
AcDbCircle
 10
184.546392
 20
428.1821349999998
 30
0.0
 40
2.0
100
AcDbArc
 50
103.307181
 51
151.761033
  0
LINE
  5
D6D4
330
D2D2
100
AcDbEntity
  8
1
  6
Continuous
100
AcDbLine
 10
186.086048
 20
430.3784349999999
 30
0.0
 11
186.086048
 21
430.1284349999998
 31
0.0
  0
LINE
  5
D6D5
330
D2D2
100
AcDbEntity
  8
1
  6
Continuous
100
AcDbLine
 10
187.586048
 20
430.3784349999999
 30
0.0
 11
187.586048
 21
430.695644
 31
0.0
  0
LINE
  5
D6D6
330
D2D2
100
AcDbEntity
  8
1
  6
Continuous
100
AcDbLine
 10
186.086048
 20
430.3784349999999
 30
0.0
 11
191.358735
 21
430.3784349999999
 31
0.0
  0
LINE
  5
D6D7
330
D2D2
100
AcDbEntity
  8
1
  6
Continuous
100
AcDbLine
 10
191.283553
 20
430.1284349999998
 30
0.0
 11
184.086048
 21
430.1284349999998
 31
0.0
  0
LINE
  5
D6D8
330
D2D2
100
AcDbEntity
  8
1
  6
Continuous
100
AcDbLine
 10
190.996069
 20
429.1284349999998
 30
0.0
 11
182.7844279999999
 21
429.1284349999998
 31
0.0
  0
LINE
  5
D6D9
330
D2D2
100
AcDbEntity
  8
1
  6
Continuous
100
AcDbLine
 10
191.456052
 20
430.695644
 30
0.0
 11
180.8364479999999
 21
430.695644
 31
0.0
  0
ARC
  5
D6DA
330
D2D2
100
AcDbEntity
  8
1
  6
Continuous
100
AcDbCircle
 10
200.605284
 20
387.46121
 30
0.0
 40
9.0
100
AcDbArc
 50
48.82510899999999
 51
90.0
  0
CIRCLE
  5
D6DB
330
D2D2
100
AcDbEntity
  8
1
  6
Continuous
100
AcDbCircle
 10
224.586035
 20
414.878435
 30
0.0
 40
25.0
  0
ARC
  5
D6DC
330
D2D2
100
AcDbEntity
  8
1
  6
Continuous
100
AcDbCircle
 10
224.586035
 20
414.878435
 30
0.0
 40
10.5
100
AcDbArc
 50
248.213211
 51
291.786789
  0
ARC
  5
D6DD
330
D2D2
100
AcDbEntity
  8
1
  6
Continuous
100
AcDbCircle
 10
224.586035
 20
414.878435
 30
0.0
 40
10.5
100
AcDbArc
 50
68.213211
 51
111.7867889999999
  0
LINE
  5
D6DE
330
D2D2
100
AcDbEntity
  8
1
  6
Continuous
100
AcDbLine
 10
220.1783709999999
 20
424.6284349999998
 30
0.0
 11
228.9936979999999
 21
424.6284349999998
 31
0.0
  0
LINE
  5
D6DF
330
D2D2
100
AcDbEntity
  8
1
  6
Continuous
100
AcDbLine
 10
228.9936979999999
 20
405.128435
 30
0.0
 11
220.1783709999999
 21
405.128435
 31
0.0
  0
CIRCLE
  5
D6E0
330
D2D2
100
AcDbEntity
  8
2
  6
Continuous
100
AcDbCircle
 10
224.586035
 20
414.878435
 30
0.0
 40
5.052999999999999
  0
LINE
  5
D6E1
330
D2D2
100
AcDbEntity
  8
1
  6
Continuous
100
AcDbLine
 10
232.6689389999999
 20
428.8784349999998
 30
0.0
 11
216.503132
 21
428.8784349999998
 31
0.0
  0
LINE
  5
D6E2
330
D2D2
100
AcDbEntity
  8
1
  6
Continuous
100
AcDbLine
 10
232.6689389999999
 20
400.8784349999998
 30
0.0
 11
216.503132
 21
400.8784349999998
 31
0.0
  0
CIRCLE
  5
D6E3
330
D2D2
100
AcDbEntity
  8
1
  6
Continuous
100
AcDbCircle
 10
224.586035
 20
414.878435
 30
0.0
 40
6.0
  0
CIRCLE
  5
D6E4
330
D2D2
100
AcDbEntity
  8
1
  6
Continuous
100
AcDbCircle
 10
224.586035
 20
414.878435
 30
0.0
 40
4.499976
  0
ARC
  5
D6E5
330
D2D2
100
AcDbEntity
  8
1
  6
Continuous
100
AcDbCircle
 10
224.586035
 20
414.878435
 30
0.0
 40
10.7
100
AcDbArc
 50
114.326207
 51
245.673793
  0
ARC
  5
D6E6
330
D2D2
100
AcDbEntity
  8
1
  6
Continuous
100
AcDbCircle
 10
225.279254
 20
414.878435
 30
0.0
 40
28.865452
100
AcDbArc
 50
139.0925329999998
 51
220.5077509999999
  0
LINE
  5
D6E7
330
D2D2
100
AcDbEntity
  8
1
  6
Continuous
100
AcDbLine
 10
216.503132
 20
428.8784349999998
 30
0.0
 11
208.4202279999999
 21
414.878435
 31
0.0
  0
LINE
  5
D6E8
330
D2D2
100
AcDbEntity
  8
1
  6
Continuous
100
AcDbLine
 10
216.503132
 20
400.8784349999998
 30
0.0
 11
208.4202279999999
 21
414.878435
 31
0.0
  0
LINE
  5
D6E9
330
D2D2
100
AcDbEntity
  8
1
  6
Continuous
100
AcDbLine
 10
198.586048
 20
435.621882
 30
0.0
 11
198.586048
 21
433.295644
 31
0.0
  0
ARC
  5
D6EA
330
D2D2
100
AcDbEntity
  8
1
  6
Continuous
100
AcDbCircle
 10
200.6052659999999
 20
442.295644
 30
0.0
 40
9.0
100
AcDbArc
 50
270.0
 51
311.174929
  0
ARC
  5
D6EB
330
D2D2
100
AcDbEntity
  8
1
  6
Continuous
100
AcDbCircle
 10
224.586035
 20
414.878435
 30
0.0
 40
10.7
100
AcDbArc
 50
294.326207
 51
65.673793
  0
LINE
  5
D6EC
330
D2D2
100
AcDbEntity
  8
1
  6
Continuous
100
AcDbLine
 10
240.751843
 20
414.878435
 30
0.0
 11
232.6689389999999
 21
428.8784349999998
 31
0.0
  0
LINE
  5
D6ED
330
D2D2
100
AcDbEntity
  8
1
  6
Continuous
100
AcDbLine
 10
240.751843
 20
414.878435
 30
0.0
 11
232.6689389999999
 21
400.8784349999998
 31
0.0
  0
LINE
  5
D6EE
330
D2D2
100
AcDbEntity
  8
1
  6
Continuous
100
AcDbLine
 10
224.586035
 20
428.8784349999998
 30
0.0
 11
228.8067739999999
 21
428.8784349999998
 31
0.0
  0
ARC
  5
D6EF
330
D2D2
100
AcDbEntity
  8
1
  6
Continuous
100
AcDbCircle
 10
224.586035
 20
71.975465
 30
0.0
 40
19.82499999999999
100
AcDbArc
 50
129.488446
 51
146.299273
  0
ARC
  5
D6F0
330
D2D2
100
AcDbEntity
  8
5
  6
PHANTOM
100
AcDbCircle
 10
-9687.434933
 20
5890.282213999999
 30
0.0
 40
11374.978
100
AcDbArc
 50
330.09334
 51
330.11903
  0
ARC
  5
D6F1
330
D2D2
100
AcDbEntity
  8
1
  6
Continuous
100
AcDbCircle
 10
168.409927
 20
234.2923669999999
 30
0.0
 40
13.76769
100
AcDbArc
 50
272.3706399999999
 51
311.9933399999998
  0
ARC
  5
D6F2
330
D2D2
100
AcDbEntity
  8
5
  6
PHANTOM
100
AcDbCircle
 10
160.902396
 20
225.713502
 30
0.0
 40
13.76769
100
AcDbArc
 50
290.47064
 51
330.09334
  0
ARC
  5
D6F3
330
D2D2
100
AcDbEntity
  8
5
  6
PHANTOM
100
AcDbCircle
 10
183.2407199999999
 20
441.3406889999998
 30
0.0
 40
251.42841
100
AcDbArc
 50
263.55972
 51
269.2761499999999
  0
ARC
  5
D6F4
330
D2D2
100
AcDbEntity
  8
1
  6
Continuous
100
AcDbCircle
 10
268.1267689999998
 20
396.44135
 30
0.0
 40
221.83052
100
AcDbArc
 50
235.88754
 51
245.06386
  0
ARC
  5
D6F5
330
D2D2
100
AcDbEntity
  8
1
  6
Continuous
100
AcDbCircle
 10
256.6331399999999
 20
432.3094099999998
 30
0.0
 40
251.42841
100
AcDbArc
 50
245.45972
 51
251.1761499999999
  0
LINE
  5
D6F6
330
D2D2
100
AcDbEntity
  8
5
  6
PHANTOM
100
AcDbLine
 10
144.646381
 20
194.4064179999998
 30
0.0
 11
175.0133079999999
 21
190.0469219999999
 31
0.0
  0
ARC
  5
D6F7
330
D2D2
100
AcDbEntity
  8
5
  6
PHANTOM
100
AcDbCircle
 10
205.308956
 20
410.818334
 30
0.0
 40
221.83052
100
AcDbArc
 50
253.98754
 51
263.16386
  0
ARC
  5
D6F8
330
D2D2
100
AcDbEntity
  8
1
  6
Continuous
100
AcDbCircle
 10
-603.906292
 20
-2723.682179999999
 30
0.0
 40
3020.3101
100
AcDbArc
 50
74.61067799999998
 51
75.198368
  0
ARC
  5
D6F9
330
D2D2
100
AcDbEntity
  8
5
  6
PHANTOM
100
AcDbCircle
 10
345.776652
 20
-2825.828284
 30
0.0
 40
3020.3101
100
AcDbArc
 50
92.710678
 51
93.29836800000002
  0
ARC
  5
D6FA
330
D2D2
100
AcDbEntity
  8
1
  6
Continuous
100
AcDbCircle
 10
149.7981329999998
 20
198.3303349999999
 30
0.0
 40
12.5
100
AcDbArc
 50
125.51238
 51
281.3157899999998
  0
LINE
  5
D6FB
330
D2D2
100
AcDbEntity
  8
1
  6
Continuous
100
AcDbLine
 10
141.9775459999998
 20
226.754577
 30
0.0
 11
142.51786
 21
228.990552
 31
0.0
  0
LINE
  5
D6FC
330
D2D2
100
AcDbEntity
  8
1
  6
Continuous
100
AcDbLine
 10
142.51786
 20
228.990551
 30
0.0
 11
162.8476169999999
 21
223.715083
 31
0.0
  0
ARC
  5
D6FD
330
D2D2
100
AcDbEntity
  8
1
  6
Continuous
100
AcDbCircle
 10
162.276405
 20
216.7439089999998
 30
0.0
 40
21.571022
100
AcDbArc
 50
186.43511
 51
198.90187
  0
ARC
  5
D6FE
330
D2D2
100
AcDbEntity
  8
1
  6
Continuous
100
AcDbCircle
 10
148.4377819999999
 20
215.1830719999999
 30
0.0
 40
7.64465
100
AcDbArc
 50
185.9471199999999
 51
227.08005
  0
ARC
  5
D6FF
330
D2D2
100
AcDbEntity
  8
5
  6
PHANTOM
100
AcDbCircle
 10
160.524279
 20
207.1278759999999
 30
0.0
 40
21.571022
100
AcDbArc
 50
204.5351099999999
 51
217.00187
  0
ARC
  5
D700
330
D2D2
100
AcDbEntity
  8
5
  6
PHANTOM
100
AcDbCircle
 10
147.855366
 20
201.344942
 30
0.0
 40
7.64465
100
AcDbArc
 50
204.0471199999998
 51
245.18005
  0
ARC
  5
D701
330
D2D2
100
AcDbEntity
  8
1
  6
Continuous
100
AcDbCircle
 10
149.498374
 20
198.3425419999999
 30
0.0
 40
9.0
100
AcDbArc
 50
119.9597899999997
 51
6.175894
  0
LINE
  5
D702
330
D2D2
100
AcDbEntity
  8
5
  6
PHANTOM
100
AcDbLine
 10
138.0812589999999
 20
210.3344059999999
 30
0.0
 11
159.103715
 21
211.639674
 31
0.0
  0
LINE
  5
D703
330
D2D2
100
AcDbEntity
  8
5
  6
PHANTOM
100
AcDbLine
 10
137.9387289999999
 20
212.6299879999999
 30
0.0
 11
158.901446
 21
213.9315489999999
 31
0.0
  0
LINE
  5
D704
330
D2D2
100
AcDbEntity
  8
1
  6
Continuous
100
AcDbLine
 10
142.6588739999999
 20
225.903226
 30
0.0
 11
141.263847
 21
220.3740970000001
 31
0.0
  0
LINE
  5
D705
330
D2D2
100
AcDbEntity
  8
5
  6
PHANTOM
100
AcDbLine
 10
139.0319239999997
 20
209.739246
 30
0.0
 11
139.423699
 21
204.0503209999999
 31
0.0
  0
ARC
  5
D706
330
D2D2
100
AcDbEntity
  8
5
  6
PHANTOM
100
AcDbCircle
 10
156.563591
 20
205.23068
 30
0.0
 40
17.180489
100
AcDbArc
 50
183.93951
 51
204.0471199999998
  0
ARC
  5
D707
330
D2D2
100
AcDbEntity
  8
1
  6
Continuous
100
AcDbCircle
 10
157.922294
 20
216.1710869999998
 30
0.0
 40
17.180489
100
AcDbArc
 50
165.8395099999999
 51
185.9471199999999
  0
ARC
  5
D708
330
D2D2
100
AcDbEntity
  8
5
  6
PHANTOM
100
AcDbCircle
 10
137.145994
 20
209.6093699999999
 30
0.0
 40
1.890402999999997
100
AcDbArc
 50
3.93951
 51
24.171085
  0
LINE
  5
D709
330
D2D2
100
AcDbEntity
  8
5
  6
PHANTOM
100
AcDbLine
 10
138.1198159999998
 20
210.3367959999999
 30
0.0
 11
137.9387279999999
 21
212.6299889999999
 31
0.0
  0
ARC
  5
D70A
330
D2D2
100
AcDbEntity
  8
1
  6
Continuous
100
AcDbCircle
 10
166.238609
 20
234.325674
 30
0.0
 40
33.784821
100
AcDbArc
 50
227.08005
 51
245.45972
  0
ARC
  5
D70B
330
D2D2
100
AcDbEntity
  8
1
  6
Continuous
100
AcDbCircle
 10
162.299674
 20
226.9414569999999
 30
0.0
 40
27.052713
100
AcDbArc
 50
224.11755
 51
245.60599
  0
LINE
  5
D70C
330
D2D2
100
AcDbEntity
  8
1
  6
Continuous
100
AcDbLine
 10
143.231956
 20
209.5848509999999
 30
0.0
 11
170.741805
 21
196.0067939999999
 31
0.0
  0
ARC
  5
D70D
330
D2D2
100
AcDbEntity
  8
5
  6
PHANTOM
100
AcDbCircle
 10
165.9475079999999
 20
294.5217839999999
 30
0.0
 40
105.21761
100
AcDbArc
 50
263.70599
 51
273.2983699999999
  0
ARC
  5
D70E
330
D2D2
100
AcDbEntity
  8
1
  6
Continuous
100
AcDbCircle
 10
146.3643409999999
 20
215.4901399999999
 30
0.0
 40
30.0
100
AcDbArc
 50
281.3157899999998
 51
319.51122
  0
ARC
  5
D70F
330
D2D2
100
AcDbEntity
  8
1
  6
Continuous
100
AcDbCircle
 10
194.5824959999999
 20
298.128324
 30
0.0
 40
105.21761
100
AcDbArc
 50
245.60599
 51
255.19837
  0
ARC
  5
D710
330
D2D2
100
AcDbEntity
  8
5
  6
PHANTOM
100
AcDbCircle
 10
146.831026
 20
196.8085649999999
 30
0.0
 40
4.424784999999999
100
AcDbArc
 50
217.00187
 51
242.2175499999999
  0
ARC
  5
D711
330
D2D2
100
AcDbEntity
  8
5
  6
PHANTOM
100
AcDbCircle
 10
158.828177
 20
225.070584
 30
0.0
 40
33.784821
100
AcDbArc
 50
245.18005
 51
263.55972
  0
ARC
  5
D712
330
D2D2
100
AcDbEntity
  8
5
  6
PHANTOM
100
AcDbCircle
 10
157.378259
 20
216.8280349999998
 30
0.0
 40
27.052713
100
AcDbArc
 50
242.2175499999999
 51
263.70599
  0
LINE
  5
D713
330
D2D2
100
AcDbEntity
  8
1
  6
Continuous
100
AcDbLine
 10
141.940154
 20
226.7642839999998
 30
0.0
 11
162.3278459999999
 21
221.4737799999999
 31
0.0
  0
ARC
  5
D714
330
D2D2
100
AcDbEntity
  8
1
  6
Continuous
100
AcDbCircle
 10
140.825919
 20
226.3656899999999
 30
0.0
 40
1.890402999999997
100
AcDbArc
 50
345.83951
 51
6.071085
  0
ARC
  5
D715
330
D2D2
100
AcDbEntity
  8
1
  6
Continuous
100
AcDbCircle
 10
146.054786
 20
211.189412
 30
0.0
 40
4.424784999999999
100
AcDbArc
 50
198.90187
 51
224.11755
  0
ARC
  5
D716
330
D2D2
100
AcDbEntity
  8
1
  6
Continuous
100
AcDbCircle
 10
168.6227719999999
 20
229.151037
 30
0.0
 40
8.621955999999999
100
AcDbArc
 50
239.4631599999999
 51
272.3706399999999
  0
ARC
  5
D717
330
D2D2
100
AcDbEntity
  8
1
  6
Continuous
100
AcDbCircle
 10
168.3037099999999
 20
226.5338609999998
 30
0.0
 40
6.294694999999999
100
AcDbArc
 50
208.9382899999999
 51
229.8151199999999
  0
LINE
  5
D718
330
D2D2
100
AcDbEntity
  8
1
  6
Continuous
100
AcDbLine
 10
162.847614
 20
223.715083
 30
0.0
 11
162.3278459999999
 21
221.4737809999999
 31
0.0
  0
ARC
  5
D719
330
D2D2
100
AcDbEntity
  8
5
  6
PHANTOM
100
AcDbCircle
 10
163.2118199999998
 20
218.3059209999999
 30
0.0
 40
6.294694999999999
100
AcDbArc
 50
227.0382899999999
 51
247.91512
  0
LINE
  5
D71A
330
D2D2
100
AcDbEntity
  8
5
  6
PHANTOM
100
AcDbLine
 10
158.9014429999998
 20
213.931548
 30
0.0
 11
159.103715
 21
211.639675
 31
0.0
  0
ARC
  5
D71B
330
D2D2
100
AcDbEntity
  8
5
  6
PHANTOM
100
AcDbCircle
 10
162.7019989999998
 20
220.8927129999999
 30
0.0
 40
8.621955999999999
100
AcDbArc
 50
257.5631599999999
 51
290.47064
  0
ARC
  5
D71C
330
D2D2
100
AcDbEntity
  8
1
  6
Continuous
100
AcDbCircle
 10
216.6758179999999
 20
207.11482
 30
0.0
 40
24.0
100
AcDbArc
 50
238.7675429999999
 51
289.3325429999999
  0
LINE
  5
D71D
330
D2D2
100
AcDbEntity
  8
1
  6
Continuous
100
AcDbLine
 10
222.50402
 20
208.187217
 30
0.0
 11
242.830283
 21
202.872216
 31
0.0
  0
LINE
  5
D71E
330
D2D2
100
AcDbEntity
  8
5
  6
PHANTOM
100
AcDbLine
 10
220.429937
 20
217.7059069999998
 30
0.0
 11
241.401616
 21
218.9688049999999
 31
0.0
  0
LINE
  5
D71F
330
D2D2
100
AcDbEntity
  8
5
  6
PHANTOM
100
AcDbLine
 10
220.5445069999999
 20
215.4086379999998
 30
0.0
 11
241.492561
 21
216.6701129999999
 31
0.0
  0
ARC
  5
D720
330
D2D2
100
AcDbEntity
  8
1
  6
Continuous
100
AcDbCircle
 10
229.0825109999999
 20
195.530897
 30
0.0
 40
10.601247
100
AcDbArc
 50
287.7560199999999
 51
334.9104299999999
  0
LINE
  5
D721
330
D2D2
100
AcDbEntity
  8
1
  6
Continuous
100
AcDbLine
 10
221.8992129999998
 20
205.9680329999999
 30
0.0
 11
242.2025789999999
 21
200.6590189999998
 31
0.0
  0
ARC
  5
D722
330
D2D2
100
AcDbEntity
  8
1
  6
Continuous
100
AcDbCircle
 10
233.0524739999999
 20
210.2506689999999
 30
0.0
 40
9.0
100
AcDbArc
 50
314.1266219999998
 51
196.56567
  0
ARC
  5
D723
330
D2D2
100
AcDbEntity
  8
5
  6
PHANTOM
100
AcDbCircle
 10
230.6149169999999
 20
207.719657
 30
0.0
 40
10.601247
100
AcDbArc
 50
305.85602
 51
353.01043
  0
ARC
  5
D724
330
D2D2
100
AcDbEntity
  8
1
  6
Continuous
100
AcDbCircle
 10
233.062652
 20
210.5004629999998
 30
0.0
 40
12.5
100
AcDbArc
 50
346.5419299999999
 51
137.36829
  0
ARC
  5
D725
330
D2D2
100
AcDbEntity
  8
1
  6
Continuous
100
AcDbCircle
 10
162.1391519999999
 20
131.4866309999999
 30
0.0
 40
99.473991
100
AcDbArc
 50
74.571657
 51
77.864013
  0
ARC
  5
D726
330
D2D2
100
AcDbEntity
  8
1
  6
Continuous
100
AcDbCircle
 10
-7432.741651999998
 20
8678.20032
 30
0.0
 40
11374.978
100
AcDbArc
 50
311.9933399999998
 51
312.0190299999998
  0
ARC
  5
D727
330
D2D2
100
AcDbEntity
  8
5
  6
PHANTOM
100
AcDbCircle
 10
222.126302
 20
266.211681
 30
0.0
 40
51.39790699999998
100
AcDbArc
 50
248.9194399999999
 51
262.3748799999999
  0
ARC
  5
D728
330
D2D2
100
AcDbEntity
  8
1
  6
Continuous
100
AcDbCircle
 10
193.317489
 20
197.486303
 30
0.0
 40
21.205776
100
AcDbArc
 50
50.81944899999999
 51
70.74897800000002
  0
ARC
  5
D729
330
D2D2
100
AcDbEntity
  8
1
  6
Continuous
100
AcDbCircle
 10
249.074615
 20
364.49306
 30
0.0
 40
183.4644199999999
100
AcDbArc
 50
256.00583
 51
259.3515299999999
  0
ARC
  5
D72A
330
D2D2
100
AcDbEntity
  8
5
  6
PHANTOM
100
AcDbCircle
 10
188.6909409999999
 20
492.027747
 30
0.0
 40
301.26257
100
AcDbArc
 50
272.7106699999998
 51
274.10583
  0
LINE
  5
D72B
330
D2D2
100
AcDbEntity
  8
1
  6
Continuous
100
AcDbLine
 10
202.4192129999999
 20
216.639462
 30
0.0
 11
195.5520709999999
 21
189.636291
 31
0.0
  0
LINE
  5
D72C
330
D2D2
100
AcDbEntity
  8
5
  6
PHANTOM
100
AcDbLine
 10
198.7130989999998
 20
219.500022
 30
0.0
 11
200.5750209999999
 21
191.6996239999998
 31
0.0
  0
ARC
  5
D72D
330
D2D2
100
AcDbEntity
  8
1
  6
Continuous
100
AcDbCircle
 10
190.595092
 20
208.4777729999999
 30
0.0
 40
19.0
100
AcDbArc
 50
232.638976
 51
273.0885699999999
  0
LINE
  5
D72E
330
D2D2
100
AcDbEntity
  8
1
  6
Continuous
100
AcDbLine
 10
193.0619439999999
 20
189.5832419999999
 30
0.0
 11
191.6188059999998
 21
189.5053729999999
 31
0.0
  0
ARC
  5
D72F
330
D2D2
100
AcDbEntity
  8
1
  6
Continuous
100
AcDbCircle
 10
277.5609349999999
 20
478.795
 30
0.0
 40
301.26257
100
AcDbArc
 50
254.6106700000001
 51
256.00583
  0
ARC
  5
D730
330
D2D2
100
AcDbEntity
  8
1
  6
Continuous
100
AcDbCircle
 10
191.575668
 20
225.7147349999999
 30
0.0
 40
5.454352
100
AcDbArc
 50
237.3122899999999
 51
256.85837
  0
ARC
  5
D731
330
D2D2
100
AcDbEntity
  8
5
  6
PHANTOM
100
AcDbCircle
 10
194.480669
 20
122.240436
 30
0.0
 40
97.44767799999999
100
AcDbArc
 50
88.848978
 51
94.958363
  0
LINE
  5
D732
330
D2D2
100
AcDbEntity
  8
1
  6
Continuous
100
AcDbLine
 10
188.602517
 20
227.375967
 30
0.0
 11
188.603183
 21
226.0969479999999
 31
0.0
  0
LINE
  5
D733
330
D2D2
100
AcDbEntity
  8
1
  6
Continuous
100
AcDbLine
 10
188.6025099999999
 20
227.37597
 30
0.0
 11
187.911611
 21
225.4834529999999
 31
0.0
  0
ARC
  5
D734
330
D2D2
100
AcDbEntity
  8
5
  6
PHANTOM
100
AcDbCircle
 10
186.881245
 20
126.046851
 30
0.0
 40
99.473991
100
AcDbArc
 50
92.67165699999999
 51
95.964013
  0
ARC
  5
D735
330
D2D2
100
AcDbEntity
  8
1
  6
Continuous
100
AcDbCircle
 10
189.66027
 20
222.729787
 30
0.0
 40
1.907709
100
AcDbArc
 50
189.7576899999999
 51
237.3122899999999
  0
ARC
  5
D736
330
D2D2
100
AcDbEntity
  8
5
  6
PHANTOM
100
AcDbCircle
 10
189.447101
 20
223.837529
 30
0.0
 40
7.284514999999997
100
AcDbArc
 50
183.4496599999999
 51
207.85768
  0
ARC
  5
D737
330
D2D2
100
AcDbEntity
  8
5
  6
PHANTOM
100
AcDbCircle
 10
164.837172
 20
221.4654439999999
 30
0.0
 40
18.013693
100
AcDbArc
 50
357.80338
 51
8.722469999999997
  0
ARC
  5
D738
330
D2D2
100
AcDbEntity
  8
5
  6
PHANTOM
100
AcDbCircle
 10
184.6934029999999
 20
221.3250689999999
 30
0.0
 40
1.907709
100
AcDbArc
 50
207.8576899999999
 51
255.4122899999999
  0
ARC
  5
D739
330
D2D2
100
AcDbEntity
  8
5
  6
PHANTOM
100
AcDbCircle
 10
185.5866659999998
 20
224.7573779999999
 30
0.0
 40
5.454352
100
AcDbArc
 50
255.4122899999999
 51
274.95837
  0
ARC
  5
D73A
330
D2D2
100
AcDbEntity
  8
1
  6
Continuous
100
AcDbCircle
 10
194.9592969999999
 20
223.6410579999999
 30
0.0
 40
7.284514999999997
100
AcDbArc
 50
165.3496599999998
 51
189.7576799999999
  0
ARC
  5
D73B
330
D2D2
100
AcDbEntity
  8
1
  6
Continuous
100
AcDbCircle
 10
170.830222
 20
229.0320789999999
 30
0.0
 40
18.013693
100
AcDbArc
 50
339.7033799999999
 51
350.62247
  0
ARC
  5
D73C
330
D2D2
100
AcDbEntity
  8
5
  6
PHANTOM
100
AcDbCircle
 10
187.0894739999999
 20
216.541248
 30
0.0
 40
13.50661099999999
100
AcDbArc
 50
141.3203
 51
150.11903
  0
LINE
  5
D73D
330
D2D2
100
AcDbEntity
  8
5
  6
PHANTOM
100
AcDbLine
 10
182.2445329999999
 20
225.4127169999999
 30
0.0
 11
182.642527
 21
224.1971959999999
 31
0.0
  0
LINE
  5
D73E
330
D2D2
100
AcDbEntity
  8
5
  6
PHANTOM
100
AcDbLine
 10
182.244526
 20
225.412718
 30
0.0
 11
182.175776
 21
223.3992039999999
 31
0.0
  0
ARC
  5
D73F
330
D2D2
100
AcDbEntity
  8
1
  6
Continuous
100
AcDbCircle
 10
168.1799609999999
 20
125.507612
 30
0.0
 40
97.44767799999999
100
AcDbArc
 50
70.74897800000002
 51
76.85836299999998
  0
ARC
  5
D740
330
D2D2
100
AcDbEntity
  8
5
  6
PHANTOM
100
AcDbCircle
 10
196.012202
 20
198.4669519999999
 30
0.0
 40
21.205776
100
AcDbArc
 50
68.919449
 51
88.848978
  0
ARC
  5
D741
330
D2D2
100
AcDbEntity
  8
1
  6
Continuous
100
AcDbCircle
 10
226.918525
 20
217.695359
 30
0.0
 40
13.023892
100
AcDbArc
 50
246.1973299999999
 51
259.33839
  0
LINE
  5
D742
330
D2D2
100
AcDbEntity
  8
5
  6
PHANTOM
100
AcDbLine
 10
225.0546579999999
 20
215.680234
 30
0.0
 11
226.6456479999999
 21
194.64774
 31
0.0
  0
LINE
  5
D743
330
D2D2
100
AcDbEntity
  8
5
  6
PHANTOM
100
AcDbLine
 10
223.4052619999999
 20
215.208193
 30
0.0
 11
224.6599119999999
 21
193.7559029999999
 31
0.0
  0
ARC
  5
D744
330
D2D2
100
AcDbEntity
  8
1
  6
Continuous
100
AcDbCircle
 10
221.4883799999999
 20
171.81204
 30
0.0
 40
12.529045
100
AcDbArc
 50
90.80717400000001
 51
102.47269
  0
ARC
  5
D745
330
D2D2
100
AcDbEntity
  8
5
  6
PHANTOM
100
AcDbCircle
 10
220.0046089999999
 20
199.601994
 30
0.0
 40
7.044608999999998
100
AcDbArc
 50
277.45153
 51
294.1476399999999
  0
LINE
  5
D746
330
D2D2
100
AcDbEntity
  8
1
  6
Continuous
100
AcDbLine
 10
224.5561319999999
 20
204.888738
 30
0.0
 11
219.0839759999998
 21
184.108209
 31
0.0
  0
ARC
  5
D747
330
D2D2
100
AcDbEntity
  8
1
  6
Continuous
100
AcDbCircle
 10
216.4752799999999
 20
191.1113029999999
 30
0.0
 40
7.044608999999998
100
AcDbArc
 50
259.3515299999999
 51
276.0476399999999
  0
ARC
  5
D748
330
D2D2
100
AcDbEntity
  8
1
  6
Continuous
100
AcDbCircle
 10
217.791572
 20
178.687032
 30
0.0
 40
5.449194
100
AcDbArc
 50
79.52325
 51
96.047636
  0
ARC
  5
D749
330
D2D2
100
AcDbEntity
  8
5
  6
PHANTOM
100
AcDbCircle
 10
197.1251649999999
 20
374.531926
 30
0.0
 40
183.4644199999999
100
AcDbArc
 50
274.10583
 51
277.45153
  0
LINE
  5
D74A
330
D2D2
100
AcDbEntity
  8
1
  6
Continuous
100
AcDbLine
 10
224.5089899999999
 20
204.896297
 30
0.0
 11
225.711004
 21
204.7035569999999
 31
0.0
  0
LINE
  5
D74B
330
D2D2
100
AcDbEntity
  8
1
  6
Continuous
100
AcDbLine
 10
225.7883119999999
 20
204.9508129999999
 30
0.0
 11
225.7110089999999
 21
204.703559
 31
0.0
  0
ARC
  5
D74C
330
D2D2
100
AcDbEntity
  8
1
  6
Continuous
100
AcDbCircle
 10
225.8850009999999
 20
205.516286
 30
0.0
 40
21.08608999999999
100
AcDbArc
 50
265.6994
 51
287.7560199999999
  0
ARC
  5
D74D
330
D2D2
100
AcDbEntity
  8
1
  6
Continuous
100
AcDbCircle
 10
220.72422
 20
226.050771
 30
0.0
 40
41.71508
100
AcDbArc
 50
270.80717
 51
274.922624
  0
ARC
  5
D74E
330
D2D2
100
AcDbEntity
  8
1
  6
Continuous
100
AcDbCircle
 10
220.72422
 20
226.050779
 30
0.0
 40
41.71508
100
AcDbArc
 50
270.8071799999999
 51
274.9225549999998
  0
ARC
  5
D74F
330
D2D2
100
AcDbEntity
  8
5
  6
PHANTOM
100
AcDbCircle
 10
213.188422
 20
234.1325609999999
 30
0.0
 40
41.71508
100
AcDbArc
 50
288.9071799999999
 51
293.0225549999999
  0
ARC
  5
D750
330
D2D2
100
AcDbEntity
  8
5
  6
PHANTOM
100
AcDbCircle
 10
230.765466
 20
182.8151929999999
 30
0.0
 40
12.529045
100
AcDbArc
 50
108.907174
 51
120.57269
  0
ARC
  5
D751
330
D2D2
100
AcDbEntity
  8
5
  6
PHANTOM
100
AcDbCircle
 10
230.765468
 20
182.815185
 30
0.0
 40
12.529045
100
AcDbArc
 50
108.9071669999998
 51
120.57268
  0
ARC
  5
D752
330
D2D2
100
AcDbEntity
  8
5
  6
PHANTOM
100
AcDbCircle
 10
225.1156939999999
 20
188.20147
 30
0.0
 40
5.449194
100
AcDbArc
 50
97.62325
 51
114.147636
  0
ARC
  5
D753
330
D2D2
100
AcDbEntity
  8
5
  6
PHANTOM
100
AcDbCircle
 10
224.473408
 20
216.2175359999999
 30
0.0
 40
21.08608999999999
100
AcDbArc
 50
283.7994
 51
305.85602
  0
LINE
  5
D754
330
D2D2
100
AcDbEntity
  8
1
  6
Continuous
100
AcDbLine
 10
226.2705609999999
 20
204.8249919999999
 30
0.0
 11
221.248522
 21
184.3389929999999
 31
0.0
  0
ARC
  5
D755
330
D2D2
100
AcDbEntity
  8
5
  6
PHANTOM
100
AcDbCircle
 10
221.6720379999999
 20
228.1150279999998
 30
0.0
 40
13.023892
100
AcDbArc
 50
264.2973299999998
 51
277.4383899999999
  0
ARC
  5
D756
330
D2D2
100
AcDbEntity
  8
1
  6
Continuous
100
AcDbCircle
 10
226.8269339999999
 20
228.114156
 30
0.0
 40
22.92425199999999
100
AcDbArc
 50
244.2748799999999
 51
256.9798299999998
  0
LINE
  5
D757
330
D2D2
100
AcDbEntity
  8
5
  6
PHANTOM
100
AcDbLine
 10
220.4339739999999
 20
217.706146
 30
0.0
 11
220.541644
 21
215.468188
 31
0.0
  0
ARC
  5
D758
330
D2D2
100
AcDbEntity
  8
1
  6
Continuous
100
AcDbCircle
 10
239.1860419999999
 20
253.765699
 30
0.0
 40
51.39790699999998
100
AcDbArc
 50
230.8194399999999
 51
244.2748799999999
  0
ARC
  5
D759
330
D2D2
100
AcDbEntity
  8
5
  6
PHANTOM
100
AcDbCircle
 10
218.3481049999998
 20
237.9898029999999
 30
0.0
 40
22.92425199999999
100
AcDbArc
 50
262.3748799999999
 51
275.0798299999999
  0
LINE
  5
D75A
330
D2D2
100
AcDbEntity
  8
1
  6
Continuous
100
AcDbLine
 10
222.507931
 20
208.1861909999998
 30
0.0
 11
221.9149929999999
 21
206.025526
 31
0.0
  0
LINE
  5
D75B
330
D2D2
100
AcDbEntity
  8
5
  6
PHANTOM
100
AcDbLine
 10
223.358104
 20
215.200732
 30
0.0
 11
224.560517
 21
215.3909669999999
 31
0.0
  0
LINE
  5
D75C
330
D2D2
100
AcDbEntity
  8
5
  6
PHANTOM
100
AcDbLine
 10
224.557183
 20
215.650005
 30
0.0
 11
224.5605209999999
 21
215.39097
 31
0.0
  0
ARC
  5
D75D
330
D2D2
100
AcDbEntity
  8
1
  6
Continuous
100
AcDbCircle
 10
190.4515529999999
 20
217.438287
 30
0.0
 40
13.50661099999999
100
AcDbArc
 50
123.2202999999999
 51
132.0190299999999
  0
ARC
  5
D75E
330
D2D2
100
AcDbEntity
  8
1
  6
Continuous
100
AcDbCircle
 10
218.474547
 20
213.9914719999999
 30
0.0
 40
27.5
100
AcDbArc
 50
336.28609
 51
346.5419299999999
  0
ARC
  5
D75F
330
D2D2
100
AcDbEntity
  8
1
  6
Continuous
100
AcDbCircle
 10
267.00447
 20
187.592405
 30
0.0
 40
27.96965
100
AcDbArc
 50
152.9039799999999
 51
158.718333
  0
ARC
  5
D760
330
D2D2
100
AcDbEntity
  8
1
  6
Continuous
100
AcDbCircle
 10
210.289931
 20
204.3298159999999
 30
0.0
 40
31.351715
100
AcDbArc
 50
334.9104299999999
 51
347.87417
  0
ARC
  5
D761
330
D2D2
100
AcDbEntity
  8
1
  6
Continuous
100
AcDbCircle
 10
64.076548
 20
253.844041
 30
0.0
 40
185.8965599999999
100
AcDbArc
 50
343.2701999999999
 51
344.08456
  0
ARC
  5
D762
330
D2D2
100
AcDbEntity
  8
1
  6
Continuous
100
AcDbCircle
 10
211.1166749999999
 20
217.2234809999999
 30
0.0
 40
35.53642700000001
100
AcDbArc
 50
327.5659319999999
 51
336.28609
  0
ARC
  5
D763
330
D2D2
100
AcDbEntity
  8
5
  6
PHANTOM
100
AcDbCircle
 10
55.65763399999998
 20
211.883754
 30
0.0
 40
185.8965599999999
100
AcDbArc
 50
1.3702
 51
2.184559999999999
  0
ARC
  5
D764
330
D2D2
100
AcDbEntity
  8
5
  6
PHANTOM
100
AcDbCircle
 10
269.126638
 20
211.955454
 30
0.0
 40
27.96965
100
AcDbArc
 50
171.00398
 51
176.818333
  0
ARC
  5
D765
330
D2D2
100
AcDbEntity
  8
5
  6
PHANTOM
100
AcDbCircle
 10
210.0186579999999
 20
210.2447569999999
 30
0.0
 40
31.351715
100
AcDbArc
 50
353.01043
 51
5.974169999999999
  0
ENDSEC
  0
SECTION
  2
OBJECTS
  0
DICTIONARY
  5
D2C0
330
0
100
AcDbDictionary
281
     1
  3
ACAD_CIP_PREVIOUS_PRODUCT_INFO
350
D7C7
  3
ACAD_COLOR
350
D7A9
  3
ACAD_DETAILVIEWSTYLE
350
D7C2
  3
ACAD_GROUP
350
D2C1
  3
ACAD_LAYOUT
350
D2CD
  3
ACAD_MATERIAL
350
D777
  3
ACAD_MLEADERSTYLE
350
D7BE
  3
ACAD_MLINESTYLE
350
D2CA
  3
ACAD_PLOTSETTINGS
350
D2CC
  3
ACAD_PLOTSTYLENAME
350
D775
  3
ACAD_SCALELIST
350
D7AC
  3
ACAD_SECTIONVIEWSTYLE
350
D7C0
  3
ACAD_TABLESTYLE
350
D7AA
  3
ACAD_VISUALSTYLE
350
D790
  3
ACDB_RECOMPOSE_DATA
350
D7E5
  3
AcDbVariableDictionary
350
D7D8
  3
DWGPROPS
350
D7E6
  0
DICTIONARY
  5
D7C8
330
D2C4
100
AcDbDictionary
280
     1
281
     1
  3
ADSK_XREC_LAYER_RECONCILED
360
D7C9
  0
DICTIONARY
  5
D7CA
330
D2DA
100
AcDbDictionary
280
     1
281
     1
  3
ADSK_XREC_LAYER_RECONCILED
360
D7CB
  0
DICTIONARY
  5
D7CC
330
D2DB
100
AcDbDictionary
280
     1
281
     1
  3
ADSK_XREC_LAYER_RECONCILED
360
D7CD
  0
DICTIONARY
  5
D7CE
330
D2DC
100
AcDbDictionary
280
     1
281
     1
  3
ADSK_XREC_LAYER_RECONCILED
360
D7CF
  0
DICTIONARY
  5
D7D0
330
D2DD
100
AcDbDictionary
280
     1
281
     1
  3
ADSK_XREC_LAYER_RECONCILED
360
D7D1
  0
DICTIONARY
  5
D7D2
330
D2DE
100
AcDbDictionary
280
     1
281
     1
  3
ADSK_XREC_LAYER_RECONCILED
360
D7D3
  0
DICTIONARY
  5
D7D4
330
D2DF
100
AcDbDictionary
280
     1
281
     1
  3
ADSK_XREC_LAYER_RECONCILED
360
D7D5
  0
DICTIONARY
  5
D7D6
330
D2E0
100
AcDbDictionary
280
     1
281
     1
  3
ADSK_XREC_LAYER_RECONCILED
360
D7D7
  0
DICTIONARY
  5
D770
330
D2D2
100
AcDbDictionary
281
     1
  3
ACAD_LAYOUTSELFREF
350
D771
  0
DICTIONARY
  5
D76E
330
D2CE
100
AcDbDictionary
281
     1
  3
ACAD_LAYOUTSELFREF
350
D76F
  0
XRECORD
  5
D7C7
102
{ACAD_REACTORS
330
D2C0
102
}
330
D2C0
100
AcDbXrecord
280
     1
300
ACDLT
300
2014
300
ACDLT_F_S
  0
DICTIONARY
  5
D7A9
102
{ACAD_REACTORS
330
D2C0
102
}
330
D2C0
100
AcDbDictionary
281
     1
  0
DICTIONARY
  5
D7C2
102
{ACAD_REACTORS
330
D2C0
102
}
330
D2C0
100
AcDbDictionary
281
     1
  3
Imperial24
350
D7C3
  0
DICTIONARY
  5
D2C1
102
{ACAD_REACTORS
330
D2C0
102
}
330
D2C0
100
AcDbDictionary
281
     1
  0
DICTIONARY
  5
D2CD
102
{ACAD_REACTORS
330
D2C0
102
}
330
D2C0
100
AcDbDictionary
281
     1
  3
Model
350
D7C4
  3
レイアウト1
350
D7C5
  0
DICTIONARY
  5
D777
102
{ACAD_REACTORS
330
D2C0
102
}
330
D2C0
100
AcDbDictionary
281
     1
  3
ByBlock
350
D780
  3
ByLayer
350
D778
  3
Global
350
D788
  0
DICTIONARY
  5
D7BE
102
{ACAD_REACTORS
330
D2C0
102
}
330
D2C0
100
AcDbDictionary
281
     1
  3
Standard
350
D7BF
  0
DICTIONARY
  5
D2CA
102
{ACAD_REACTORS
330
D2C0
102
}
330
D2C0
100
AcDbDictionary
281
     1
  3
STANDARD
350
D2CB
  0
DICTIONARY
  5
D2CC
102
{ACAD_REACTORS
330
D2C0
102
}
330
D2C0
100
AcDbDictionary
281
     1
  0
ACDBDICTIONARYWDFLT
  5
D775
102
{ACAD_REACTORS
330
D2C0
102
}
330
D2C0
100
AcDbDictionary
281
     1
  3
Normal
350
D776
100
AcDbDictionaryWithDefault
340
D776
  0
DICTIONARY
  5
D7AC
102
{ACAD_REACTORS
330
D2C0
102
}
330
D2C0
100
AcDbDictionary
281
     1
  3
A0
350
D7AD
  3
A1
350
D7AE
  3
A2
350
D7AF
  3
A3
350
D7B0
  3
A4
350
D7B1
  3
A5
350
D7B2
  3
A6
350
D7B3
  3
A7
350
D7B4
  3
A8
350
D7B5
  3
A9
350
D7B6
  3
B0
350
D7B7
  3
B1
350
D7B8
  3
B2
350
D7B9
  3
B3
350
D7BA
  3
B4
350
D7BB
  3
B5
350
D7BC
  3
B6
350
D7BD
  0
DICTIONARY
  5
D7C0
102
{ACAD_REACTORS
330
D2C0
102
}
330
D2C0
100
AcDbDictionary
281
     1
  3
Imperial24
350
D7C1
  0
DICTIONARY
  5
D7AA
102
{ACAD_REACTORS
330
D2C0
102
}
330
D2C0
100
AcDbDictionary
281
     1
  3
Standard
350
D7AB
  0
DICTIONARY
  5
D790
102
{ACAD_REACTORS
330
D2C0
102
}
330
D2C0
100
AcDbDictionary
281
     1
  3
2dWireframe
350
D796
  3
Basic
350
D795
  3
Brighten
350
D79C
  3
ColorChange
350
D7A0
  3
Conceptual
350
D799
  3
Dim
350
D79B
  3
EdgeColorOff
350
D7A8
  3
Facepattern
350
D79F
  3
Flat
350
D791
  3
FlatWithEdges
350
D792
  3
Gouraud
350
D793
  3
GouraudWithEdges
350
D794
  3
Hidden
350
D798
  3
JitterOff
350
D7A6
  3
Linepattern
350
D79E
  3
OverhangOff
350
D7A7
  3
Realistic
350
D79A
  3
Shaded
350
D7A5
  3
Shaded with edges
350
D7A4
  3
Shades of Gray
350
D7A1
  3
Sketchy
350
D7A2
  3
Thicken
350
D79D
  3
Wireframe
350
D797
  3
X-Ray
350
D7A3
  0
XRECORD
  5
D7E5
102
{ACAD_REACTORS
330
D2C0
102
}
330
D2C0
100
AcDbXrecord
280
     1
 90
        1
330
D7AB
  0
DICTIONARY
  5
D7D8
102
{ACAD_REACTORS
330
D2C0
102
}
330
D2C0
100
AcDbDictionary
281
     1
  3
CANNOSCALE
350
D7DD
  3
CMLEADERSTYLE
350
D7DA
  3
CTABLESTYLE
350
D7D9
  3
CVIEWDETAILSTYLE
350
D7DB
  3
CVIEWSECTIONSTYLE
350
D7DC
  3
DIMASSOC
350
D7E0
  3
INDEXCTL
350
D7DF
  3
SORTENTS
350
D7DE
  3
XCLIPFRAME
350
D7E1
  0
XRECORD
  5
D7E6
102
{ACAD_REACTORS
330
D2C0
102
}
330
D2C0
100
AcDbXrecord
280
     1
  1
DWGPROPS COOKIE
  2

  3

  4

  6

  7

  8
Yoshitsune
  9

300
=
301
=
302
=
303
=
304
=
305
=
306
=
307
=
308
=
309
=
 40
0.0000134722222222
 41
2451301.577189352
 42
2457192.687792523
  1

 90
        0
  0
XRECORD
  5
D7C9
102
{ACAD_REACTORS
330
D7C8
102
}
330
D7C8
100
AcDbXrecord
280
     1
290
     1
  0
XRECORD
  5
D7CB
102
{ACAD_REACTORS
330
D7CA
102
}
330
D7CA
100
AcDbXrecord
280
     1
290
     1
  0
XRECORD
  5
D7CD
102
{ACAD_REACTORS
330
D7CC
102
}
330
D7CC
100
AcDbXrecord
280
     1
290
     1
  0
XRECORD
  5
D7CF
102
{ACAD_REACTORS
330
D7CE
102
}
330
D7CE
100
AcDbXrecord
280
     1
290
     1
  0
XRECORD
  5
D7D1
102
{ACAD_REACTORS
330
D7D0
102
}
330
D7D0
100
AcDbXrecord
280
     1
290
     1
  0
XRECORD
  5
D7D3
102
{ACAD_REACTORS
330
D7D2
102
}
330
D7D2
100
AcDbXrecord
280
     1
290
     1
  0
XRECORD
  5
D7D5
102
{ACAD_REACTORS
330
D7D4
102
}
330
D7D4
100
AcDbXrecord
280
     1
290
     1
  0
XRECORD
  5
D7D7
102
{ACAD_REACTORS
330
D7D6
102
}
330
D7D6
100
AcDbXrecord
280
     1
290
     1
  0
XRECORD
  5
D771
102
{ACAD_REACTORS
330
D770
102
}
330
D770
100
AcDbXrecord
280
     1
340
D2D2
  0
XRECORD
  5
D76F
102
{ACAD_REACTORS
330
D76E
102
}
330
D76E
100
AcDbXrecord
280
     1
340
D2CE
  0
ACDBDETAILVIEWSTYLE
  5
D7C3
102
{ACAD_XDICTIONARY
360
D81E
102
}
102
{ACAD_REACTORS
330
D7C2
102
}
330
D7C2
100
AcDbModelDocViewStyle
 70
     0
  3
Imperial24
290
     0
100
AcDbDetailViewStyle
 70
     0
 71
     0
 90
        3
 71
     1
340
D2C5
 40
0.24
340
0
 40
0.24
300

 40
0.36
280
     3
 71
     2
340
D2C9
 90
       25
 71
     3
340
D2C5
 40
0.24
 90
        1
 40
0.75
 90
        1
300
%<\AcVar ViewType \f "%tc1">% %<\AcVar ViewDetailId>%\PSCALE %<\AcVar ViewScale \f "%sn">%
 71
     4
340
D2C9
 90
       25
340
D2C9
 90
       25
280
     0
  0
LAYOUT
  5
D7C4
102
{ACAD_XDICTIONARY
360
D820
102
}
102
{ACAD_REACTORS
330
D2CD
102
}
330
D2CD
100
AcDbPlotSettings
  1

  2
Canon LBP9100C
  4

  6

 40
0.0
 41
0.0
 42
0.0
 43
0.0
 44
0.0
 45
0.0
 46
0.0
 47
0.0
 48
0.0
 49
0.0
140
0.0
141
0.0
142
1.0
143
1.0
 70
  1712
 72
     0
 73
     0
 74
     0
  7

 75
     0
147
1.0
148
0.0
149
0.0
100
AcDbLayout
  1
Model
 70
     1
 71
     0
 10
0.0
 20
0.0
 11
12.0
 21
9.0
 12
0.0
 22
0.0
 32
0.0
 14
0.0
 24
0.0
 34
0.0
 15
0.0
 25
0.0
 35
0.0
146
0.0
 13
0.0
 23
0.0
 33
0.0
 16
1.0
 26
0.0
 36
0.0
 17
0.0
 27
1.0
 37
0.0
 76
     0
330
D2D2
331
D76D
  0
LAYOUT
  5
D7C5
102
{ACAD_XDICTIONARY
360
D822
102
}
102
{ACAD_REACTORS
330
D2CD
102
}
330
D2CD
100
AcDbPlotSettings
  1

  2
Canon LBP9100C
  4

  6

 40
0.0
 41
0.0
 42
0.0
 43
0.0
 44
0.0
 45
0.0
 46
0.0
 47
0.0
 48
0.0
 49
0.0
140
0.0
141
0.0
142
1.0
143
1.0
 70
   688
 72
     0
 73
     0
 74
     5
  7

 75
    16
147
1.0
148
0.0
149
0.0
100
AcDbLayout
  1
レイアウト1
 70
     0
 71
     1
 10
0.0
 20
0.0
 11
420.0
 21
297.0
 12
0.0
 22
0.0
 32
0.0
 14
1.000000000000000E+20
 24
1.000000000000000E+20
 34
1.000000000000000E+20
 15
-1.000000000000000E+20
 25
-1.000000000000000E+20
 35
-1.000000000000000E+20
146
0.0
 13
0.0
 23
0.0
 33
0.0
 16
1.0
 26
0.0
 36
0.0
 17
0.0
 27
1.0
 37
0.0
 76
     0
330
D2CE
  0
MATERIAL
  5
D780
102
{ACAD_XDICTIONARY
360
D781
102
}
102
{ACAD_REACTORS
330
D777
102
}
330
D777
100
AcDbMaterial
  1
ByBlock
 72
     0
 43
0.0208333333333333
 43
0.0
 43
0.0
 43
0.0
 43
0.0
 43
0.0208333333333333
 43
0.0
 43
0.0
 43
0.0
 43
0.0
 43
1.0
 43
0.0
 43
0.0
 43
0.0
 43
0.0
 43
1.0
 77
     0
 47
0.0208333333333333
 47
0.0
 47
0.0
 47
0.0
 47
0.0
 47
0.0208333333333333
 47
0.0
 47
0.0
 47
0.0
 47
0.0
 47
1.0
 47
0.0
 47
0.0
 47
0.0
 47
0.0
 47
1.0
171
     0
 49
0.0208333333333333
 49
0.0
 49
0.0
 49
0.0
 49
0.0
 49
0.0208333333333333
 49
0.0
 49
0.0
 49
0.0
 49
0.0
 49
1.0
 49
0.0
 49
0.0
 49
0.0
 49
0.0
 49
1.0
175
     0
142
0.0208333333333333
142
0.0
142
0.0
142
0.0
142
0.0
142
0.0208333333333333
142
0.0
142
0.0
142
0.0
142
0.0
142
1.0
142
0.0
142
0.0
142
0.0
142
0.0
142
1.0
179
     0
144
0.0208333333333333
144
0.0
144
0.0
144
0.0
144
0.0
144
0.0208333333333333
144
0.0
144
0.0
144
0.0
144
0.0
144
1.0
144
0.0
144
0.0
144
0.0
144
0.0
144
1.0
147
0.0208333333333333
147
0.0
147
0.0
147
0.0
147
0.0
147
0.0208333333333333
147
0.0
147
0.0
147
0.0
147
0.0
147
1.0
147
0.0
147
0.0
147
0.0
147
0.0
147
1.0
  0
MATERIAL
  5
D778
102
{ACAD_XDICTIONARY
360
D779
102
}
102
{ACAD_REACTORS
330
D777
102
}
330
D777
100
AcDbMaterial
  1
ByLayer
 72
     0
 43
0.0208333333333333
 43
0.0
 43
0.0
 43
0.0
 43
0.0
 43
0.0208333333333333
 43
0.0
 43
0.0
 43
0.0
 43
0.0
 43
1.0
 43
0.0
 43
0.0
 43
0.0
 43
0.0
 43
1.0
 77
     0
 47
0.0208333333333333
 47
0.0
 47
0.0
 47
0.0
 47
0.0
 47
0.0208333333333333
 47
0.0
 47
0.0
 47
0.0
 47
0.0
 47
1.0
 47
0.0
 47
0.0
 47
0.0
 47
0.0
 47
1.0
171
     0
 49
0.0208333333333333
 49
0.0
 49
0.0
 49
0.0
 49
0.0
 49
0.0208333333333333
 49
0.0
 49
0.0
 49
0.0
 49
0.0
 49
1.0
 49
0.0
 49
0.0
 49
0.0
 49
0.0
 49
1.0
175
     0
142
0.0208333333333333
142
0.0
142
0.0
142
0.0
142
0.0
142
0.0208333333333333
142
0.0
142
0.0
142
0.0
142
0.0
142
1.0
142
0.0
142
0.0
142
0.0
142
0.0
142
1.0
179
     0
144
0.0208333333333333
144
0.0
144
0.0
144
0.0
144
0.0
144
0.0208333333333333
144
0.0
144
0.0
144
0.0
144
0.0
144
1.0
144
0.0
144
0.0
144
0.0
144
0.0
144
1.0
147
0.0208333333333333
147
0.0
147
0.0
147
0.0
147
0.0
147
0.0208333333333333
147
0.0
147
0.0
147
0.0
147
0.0
147
1.0
147
0.0
147
0.0
147
0.0
147
0.0
147
1.0
  0
MATERIAL
  5
D788
102
{ACAD_XDICTIONARY
360
D789
102
}
102
{ACAD_REACTORS
330
D777
102
}
330
D777
100
AcDbMaterial
  1
Global
 72
     0
 43
0.0208333333333333
 43
0.0
 43
0.0
 43
0.0
 43
0.0
 43
0.0208333333333333
 43
0.0
 43
0.0
 43
0.0
 43
0.0
 43
1.0
 43
0.0
 43
0.0
 43
0.0
 43
0.0
 43
1.0
 77
     0
 47
0.0208333333333333
 47
0.0
 47
0.0
 47
0.0
 47
0.0
 47
0.0208333333333333
 47
0.0
 47
0.0
 47
0.0
 47
0.0
 47
1.0
 47
0.0
 47
0.0
 47
0.0
 47
0.0
 47
1.0
171
     0
 49
0.0208333333333333
 49
0.0
 49
0.0
 49
0.0
 49
0.0
 49
0.0208333333333333
 49
0.0
 49
0.0
 49
0.0
 49
0.0
 49
1.0
 49
0.0
 49
0.0
 49
0.0
 49
0.0
 49
1.0
175
     0
142
0.0208333333333333
142
0.0
142
0.0
142
0.0
142
0.0
142
0.0208333333333333
142
0.0
142
0.0
142
0.0
142
0.0
142
1.0
142
0.0
142
0.0
142
0.0
142
0.0
142
1.0
179
     0
144
0.0208333333333333
144
0.0
144
0.0
144
0.0
144
0.0
144
0.0208333333333333
144
0.0
144
0.0
144
0.0
144
0.0
144
1.0
144
0.0
144
0.0
144
0.0
144
0.0
144
1.0
147
0.0208333333333333
147
0.0
147
0.0
147
0.0
147
0.0
147
0.0208333333333333
147
0.0
147
0.0
147
0.0
147
0.0
147
1.0
147
0.0
147
0.0
147
0.0
147
0.0
147
1.0
  0
MLEADERSTYLE
  5
D7BF
102
{ACAD_REACTORS
330
D7BE
102
}
330
D7BE
100
AcDbMLeaderStyle
170
     2
171
     1
172
     0
 90
        2
 40
0.0
 41
0.0
173
     1
 91
-1056964608
340
D2C7
 92
       -2
290
     1
 42
0.09
291
     1
 43
0.36
  3
Standard
 44
0.18
300

342
D2C5
174
     1
178
     6
175
     1
176
     0
 93
-1056964608
 45
0.18
292
     0
297
     0
 46
0.18
 94
-1056964608
 47
1.0
 49
1.0
140
1.0
293
     1
141
0.0
294
     1
177
     0
142
1.0
295
     0
296
     0
143
0.125
1001
ACAD_MLEADERVER
1070
     2
  0
MLINESTYLE
  5
D2CB
102
{ACAD_REACTORS
330
D2CA
102
}
330
D2CA
100
AcDbMlineStyle
  2
STANDARD
 70
     0
  3

 62
   256
 51
90.0
 52
90.0
 71
     2
 49
0.5
 62
   256
  6
BYLAYER
 49
-0.5
 62
   256
  6
BYLAYER
  0
ACDBPLACEHOLDER
  5
D776
102
{ACAD_REACTORS
330
D775
102
}
330
D775
  0
SCALE
  5
D7AD
102
{ACAD_REACTORS
330
D7AC
102
}
330
D7AC
100
AcDbScale
 70
     0
300
1:1
140
1.0
141
1.0
290
     1
  0
SCALE
  5
D7AE
102
{ACAD_REACTORS
330
D7AC
102
}
330
D7AC
100
AcDbScale
 70
     0
300
1/128" = 1'-0"
140
0.0078125
141
12.0
290
     0
  0
SCALE
  5
D7AF
102
{ACAD_REACTORS
330
D7AC
102
}
330
D7AC
100
AcDbScale
 70
     0
300
1/64" = 1'-0"
140
0.015625
141
12.0
290
     0
  0
SCALE
  5
D7B0
102
{ACAD_REACTORS
330
D7AC
102
}
330
D7AC
100
AcDbScale
 70
     0
300
1/32" = 1'-0"
140
0.03125
141
12.0
290
     0
  0
SCALE
  5
D7B1
102
{ACAD_REACTORS
330
D7AC
102
}
330
D7AC
100
AcDbScale
 70
     0
300
1/16" = 1'-0"
140
0.0625
141
12.0
290
     0
  0
SCALE
  5
D7B2
102
{ACAD_REACTORS
330
D7AC
102
}
330
D7AC
100
AcDbScale
 70
     0
300
3/32" = 1'-0"
140
0.09375
141
12.0
290
     0
  0
SCALE
  5
D7B3
102
{ACAD_REACTORS
330
D7AC
102
}
330
D7AC
100
AcDbScale
 70
     0
300
1/8" = 1'-0"
140
0.125
141
12.0
290
     0
  0
SCALE
  5
D7B4
102
{ACAD_REACTORS
330
D7AC
102
}
330
D7AC
100
AcDbScale
 70
     0
300
3/16" = 1'-0"
140
0.1875
141
12.0
290
     0
  0
SCALE
  5
D7B5
102
{ACAD_REACTORS
330
D7AC
102
}
330
D7AC
100
AcDbScale
 70
     0
300
1/4" = 1'-0"
140
0.25
141
12.0
290
     0
  0
SCALE
  5
D7B6
102
{ACAD_REACTORS
330
D7AC
102
}
330
D7AC
100
AcDbScale
 70
     0
300
3/8" = 1'-0"
140
0.375
141
12.0
290
     0
  0
SCALE
  5
D7B7
102
{ACAD_REACTORS
330
D7AC
102
}
330
D7AC
100
AcDbScale
 70
     0
300
1/2" = 1'-0"
140
0.5
141
12.0
290
     0
  0
SCALE
  5
D7B8
102
{ACAD_REACTORS
330
D7AC
102
}
330
D7AC
100
AcDbScale
 70
     0
300
3/4" = 1'-0"
140
0.75
141
12.0
290
     0
  0
SCALE
  5
D7B9
102
{ACAD_REACTORS
330
D7AC
102
}
330
D7AC
100
AcDbScale
 70
     0
300
1" = 1'-0"
140
1.0
141
12.0
290
     0
  0
SCALE
  5
D7BA
102
{ACAD_REACTORS
330
D7AC
102
}
330
D7AC
100
AcDbScale
 70
     0
300
1-1/2" = 1'-0"
140
1.5
141
12.0
290
     0
  0
SCALE
  5
D7BB
102
{ACAD_REACTORS
330
D7AC
102
}
330
D7AC
100
AcDbScale
 70
     0
300
3" = 1'-0"
140
3.0
141
12.0
290
     0
  0
SCALE
  5
D7BC
102
{ACAD_REACTORS
330
D7AC
102
}
330
D7AC
100
AcDbScale
 70
     0
300
6" = 1'-0"
140
6.0
141
12.0
290
     0
  0
SCALE
  5
D7BD
102
{ACAD_REACTORS
330
D7AC
102
}
330
D7AC
100
AcDbScale
 70
     0
300
1'-0" = 1'-0"
140
12.0
141
12.0
290
     0
  0
ACDBSECTIONVIEWSTYLE
  5
D7C1
102
{ACAD_XDICTIONARY
360
D81C
102
}
102
{ACAD_REACTORS
330
D7C0
102
}
330
D7C0
100
AcDbModelDocViewStyle
 70
     0
  3
Imperial24
290
     0
100
AcDbSectionViewStyle
 70
     0
 71
     0
 90
       78
 71
     1
340
D2C5
 40
0.24
340
0
340
0
 40
0.24
300
I, O, Q, S, X, Z
 40
0.48
 90
        3
 40
0.18
 90
        1
 71
     2
340
D2C9
 90
       25
340
D2C9
 90
       50
 40
0.24
 40
0.0
 40
0.24
 71
     3
340
D2C5
 40
0.24
 90
        1
 40
0.75
 90
        1
300
%<\AcVar ViewType \f "%tc1">% %<\AcVar ViewSectionStartId>%-%<\AcVar ViewSectionEndId>%\PSCALE %<\AcVar ViewScale \f "%sn">%
 71
     4
300
ANSI31
 40
1.0
 90
        0
290
     0
290
     0
 90
        6
 40
0.0
 40
1.570796326794896
 40
0.2617993877991494
 40
1.308996938995747
 40
-0.2617993877991494
 40
1.832595714594046
  0
TABLESTYLE
  5
D7AB
102
{ACAD_XDICTIONARY
360
D7E3
102
}
102
{ACAD_REACTORS
330
D7AA
102
}
330
D7AA
100
AcDbTableStyle
  3
Standard
 70
     0
 71
     0
 40
0.06
 41
0.06
280
     0
281
     0
  7
STANDARD
140
0.18
170
     2
 62
     0
 63
     7
283
     0
274
    -2
284
     1
 64
     0
275
    -2
285
     1
 65
     0
276
    -2
286
     1
 66
     0
277
    -2
287
     1
 67
     0
278
    -2
288
     1
 68
     0
279
    -2
289
     1
 69
     0
  7
STANDARD
140
0.25
170
     5
 62
     0
 63
     7
283
     0
274
    -2
284
     1
 64
     0
275
    -2
285
     1
 65
     0
276
    -2
286
     1
 66
     0
277
    -2
287
     1
 67
     0
278
    -2
288
     1
 68
     0
279
    -2
289
     1
 69
     0
  7
STANDARD
140
0.18
170
     5
 62
     0
 63
     7
283
     0
274
    -2
284
     1
 64
     0
275
    -2
285
     1
 65
     0
276
    -2
286
     1
 66
     0
277
    -2
287
     1
 67
     0
278
    -2
288
     1
 68
     0
279
    -2
289
     1
 69
     0
  0
VISUALSTYLE
  5
D796
102
{ACAD_XDICTIONARY
360
D7F4
102
}
102
{ACAD_REACTORS
330
D790
102
}
330
D790
100
AcDbVisualStyle
  2
2dWireframe
 70
     4
 71
     0
 72
     2
 73
     0
 90
        0
 40
-0.6
 41
-30.0
 62
     5
 63
     7
 74
     1
 91
        4
 64
     7
 65
   257
 75
     1
175
     1
 42
1.0
 92
        0
 66
   257
 43
1.0
 76
     1
 77
     6
 78
     2
 67
     7
 79
     5
170
     0
171
     0
290
     0
174
     0
 93
        1
 44
0.0
173
     0
291
     0
 45
0.0
1001
ACAD
1000
AcDbSavedByObjectVersion
1070
     0
  0
VISUALSTYLE
  5
D795
102
{ACAD_XDICTIONARY
360
D7F2
102
}
102
{ACAD_REACTORS
330
D790
102
}
330
D790
100
AcDbVisualStyle
  2
Basic
 70
     7
 71
     1
 72
     0
 73
     1
 90
        0
 40
-0.6
 41
-30.0
 62
     5
 63
     7
 74
     0
 91
        4
 64
     7
 65
   257
 75
     1
175
     1
 42
1.0
 92
        8
 66
     7
 43
1.0
 76
     1
 77
     6
 78
     2
 67
     7
 79
     5
170
     0
171
     0
290
     0
174
     0
 93
        1
 44
0.0
173
     0
291
     1
 45
0.0
1001
ACAD
1000
AcDbSavedByObjectVersion
1070
     0
  0
VISUALSTYLE
  5
D79C
102
{ACAD_XDICTIONARY
360
D800
102
}
102
{ACAD_REACTORS
330
D790
102
}
330
D790
100
AcDbVisualStyle
  2
Brighten
 70
    12
 71
     2
 72
     2
 73
     0
 90
        0
 40
-0.6
 41
-30.0
 62
     5
 63
     7
 74
     1
 91
        4
 64
     7
 65
   257
 75
     1
175
     1
 42
1.0
 92
        8
 66
     7
 43
1.0
 76
     1
 77
     6
 78
     2
 67
     7
 79
     5
170
     0
171
     0
290
     0
174
     0
 93
        1
 44
50.0
173
     0
291
     1
 45
0.0
1001
ACAD
1000
AcDbSavedByObjectVersion
1070
     0
  0
VISUALSTYLE
  5
D7A0
102
{ACAD_XDICTIONARY
360
D808
102
}
102
{ACAD_REACTORS
330
D790
102
}
330
D790
100
AcDbVisualStyle
  2
ColorChange
 70
    16
 71
     2
 72
     2
 73
     3
 90
        0
 40
-0.6
 41
-30.0
 62
     5
 63
     8
 74
     1
 91
        4
 64
     7
 65
   257
 75
     1
175
     1
 42
1.0
 92
        8
 66
     8
 43
1.0
 76
     1
 77
     6
 78
     2
 67
     7
 79
     5
170
     0
171
     0
290
     0
174
     0
 93
        1
 44
0.0
173
     0
291
     1
 45
0.0
1001
ACAD
1000
AcDbSavedByObjectVersion
1070
     0
  0
VISUALSTYLE
  5
D799
102
{ACAD_XDICTIONARY
360
D7FA
102
}
102
{ACAD_REACTORS
330
D790
102
}
330
D790
100
AcDbVisualStyle
  2
Conceptual
 70
     9
 71
     3
 72
     2
 73
     0
 90
        0
 40
-0.6
 41
-30.0
 62
     5
 63
     7
 74
     2
 91
        2
 64
     7
 65
   257
 75
     1
175
     1
 42
179.0
 92
        8
 66
     7
 43
1.0
 76
     1
 77
     6
 78
     2
 67
     7
 79
     3
170
     0
171
     0
290
     0
174
     0
 93
        1
 44
0.0
173
     0
291
     0
 45
0.0
1001
ACAD
1000
AcDbSavedByObjectVersion
1070
     0
  0
VISUALSTYLE
  5
D79B
102
{ACAD_XDICTIONARY
360
D7FE
102
}
102
{ACAD_REACTORS
330
D790
102
}
330
D790
100
AcDbVisualStyle
  2
Dim
 70
    11
 71
     2
 72
     2
 73
     0
 90
        0
 40
-0.6
 41
-30.0
 62
     5
 63
     7
 74
     1
 91
        4
 64
     7
 65
   257
 75
     1
175
     1
 42
1.0
 92
        8
 66
     7
 43
1.0
 76
     1
 77
     6
 78
     2
 67
     7
 79
     5
170
     0
171
     0
290
     0
174
     0
 93
        1
 44
-50.0
173
     0
291
     1
 45
0.0
1001
ACAD
1000
AcDbSavedByObjectVersion
1070
     0
  0
VISUALSTYLE
  5
D7A8
102
{ACAD_XDICTIONARY
360
D818
102
}
102
{ACAD_REACTORS
330
D790
102
}
330
D790
100
AcDbVisualStyle
  2
EdgeColorOff
 70
    22
 71
     2
 72
     2
 73
     0
 90
        0
 40
-0.6
 41
-30.0
 62
     5
 63
     7
 74
     1
 91
        4
 64
     7
 65
   257
 75
     1
175
     1
 42
1.0
 92
        8
 66
     7
 43
1.0
 76
     1
 77
     6
 78
     2
 67
     7
 79
     5
170
     0
171
     0
290
     0
174
     0
 93
        1
 44
0.0
173
     0
291
     1
 45
0.0
1001
ACAD
1000
AcDbSavedByObjectVersion
1070
     0
  0
VISUALSTYLE
  5
D79F
102
{ACAD_XDICTIONARY
360
D806
102
}
102
{ACAD_REACTORS
330
D790
102
}
330
D790
100
AcDbVisualStyle
  2
Facepattern
 70
    15
 71
     2
 72
     2
 73
     0
 90
        0
 40
-0.6
 41
-30.0
 62
     5
 63
     7
 74
     1
 91
        4
 64
     7
 65
   257
 75
     1
175
     1
 42
1.0
 92
        8
 66
     7
 43
1.0
 76
     1
 77
     6
 78
     2
 67
     7
 79
     5
170
     0
171
     0
290
     0
174
     0
 93
        1
 44
0.0
173
     0
291
     1
 45
0.0
1001
ACAD
1000
AcDbSavedByObjectVersion
1070
     0
  0
VISUALSTYLE
  5
D791
102
{ACAD_XDICTIONARY
360
D7EA
102
}
102
{ACAD_REACTORS
330
D790
102
}
330
D790
100
AcDbVisualStyle
  2
Flat
 70
     0
 71
     2
 72
     1
 73
     1
 90
        2
 40
-0.6
 41
30.0
 62
     5
 63
     7
 74
     0
 91
        0
 64
     7
 65
   257
 75
     1
175
     1
 42
1.0
 92
        8
 66
     7
 43
1.0
 76
     1
 77
     6
 78
     2
 67
     7
 79
     5
170
     0
171
     0
290
     0
174
     0
 93
       13
 44
0.0
173
     0
291
     1
 45
0.0
1001
ACAD
1000
AcDbSavedByObjectVersion
1070
     0
  0
VISUALSTYLE
  5
D792
102
{ACAD_XDICTIONARY
360
D7EC
102
}
102
{ACAD_REACTORS
330
D790
102
}
330
D790
100
AcDbVisualStyle
  2
FlatWithEdges
 70
     1
 71
     2
 72
     1
 73
     1
 90
        2
 40
-0.6
 41
30.0
 62
     5
 63
     7
 74
     1
 91
        0
 64
     7
 65
   257
 75
     1
175
     1
 42
1.0
 92
        0
 66
   257
 43
1.0
 76
     1
 77
     6
 78
     2
 67
     7
 79
     5
170
     0
171
     0
290
     0
174
     0
 93
       13
 44
0.0
173
     0
291
     1
 45
0.0
1001
ACAD
1000
AcDbSavedByObjectVersion
1070
     0
  0
VISUALSTYLE
  5
D793
102
{ACAD_XDICTIONARY
360
D7EE
102
}
102
{ACAD_REACTORS
330
D790
102
}
330
D790
100
AcDbVisualStyle
  2
Gouraud
 70
     2
 71
     2
 72
     2
 73
     1
 90
        2
 40
-0.6
 41
30.0
 62
     5
 63
     7
 74
     0
 91
        0
 64
     7
 65
   257
 75
     1
175
     1
 42
1.0
 92
        0
 66
     7
 43
1.0
 76
     1
 77
     6
 78
     2
 67
     7
 79
     5
170
     0
171
     0
290
     0
174
     0
 93
       13
 44
0.0
173
     0
291
     1
 45
0.0
1001
ACAD
1000
AcDbSavedByObjectVersion
1070
     0
  0
VISUALSTYLE
  5
D794
102
{ACAD_XDICTIONARY
360
D7F0
102
}
102
{ACAD_REACTORS
330
D790
102
}
330
D790
100
AcDbVisualStyle
  2
GouraudWithEdges
 70
     3
 71
     2
 72
     2
 73
     1
 90
        2
 40
-0.6
 41
30.0
 62
     5
 63
     7
 74
     1
 91
        0
 64
     7
 65
   257
 75
     1
175
     1
 42
1.0
 92
        0
 66
   257
 43
1.0
 76
     1
 77
     6
 78
     2
 67
     7
 79
     5
170
     0
171
     0
290
     0
174
     0
 93
       13
 44
0.0
173
     0
291
     1
 45
0.0
1001
ACAD
1000
AcDbSavedByObjectVersion
1070
     0
  0
VISUALSTYLE
  5
D798
102
{ACAD_XDICTIONARY
360
D7F8
102
}
102
{ACAD_REACTORS
330
D790
102
}
330
D790
100
AcDbVisualStyle
  2
Hidden
 70
     6
 71
     1
 72
     2
 73
     2
 90
        0
 40
-0.6
 41
-30.0
 62
     5
 63
     7
 74
     2
 91
        2
 64
     7
 65
   257
 75
     2
175
     1
 42
40.0
 92
        0
 66
   257
 43
1.0
 76
     1
 77
     6
 78
     2
 67
     7
 79
     3
170
     0
171
     0
290
     0
174
     0
 93
        1
 44
0.0
173
     0
291
     0
 45
0.0
1001
ACAD
1000
AcDbSavedByObjectVersion
1070
     0
  0
VISUALSTYLE
  5
D7A6
102
{ACAD_XDICTIONARY
360
D814
102
}
102
{ACAD_REACTORS
330
D790
102
}
330
D790
100
AcDbVisualStyle
  2
JitterOff
 70
    20
 71
     2
 72
     2
 73
     0
 90
        0
 40
-0.6
 41
-30.0
 62
     5
 63
     7
 74
     1
 91
        4
 64
     7
 65
   257
 75
     1
175
     1
 42
1.0
 92
       10
 66
     7
 43
1.0
 76
     1
 77
     6
 78
     2
 67
     7
 79
     5
170
     0
171
     0
290
     0
174
     0
 93
        1
 44
0.0
173
     0
291
     1
 45
0.0
1001
ACAD
1000
AcDbSavedByObjectVersion
1070
     0
  0
VISUALSTYLE
  5
D79E
102
{ACAD_XDICTIONARY
360
D804
102
}
102
{ACAD_REACTORS
330
D790
102
}
330
D790
100
AcDbVisualStyle
  2
Linepattern
 70
    14
 71
     2
 72
     2
 73
     0
 90
        0
 40
-0.6
 41
-30.0
 62
     5
 63
     7
 74
     1
 91
        4
 64
     7
 65
   257
 75
     7
175
     7
 42
1.0
 92
        8
 66
     7
 43
1.0
 76
     1
 77
     6
 78
     2
 67
     7
 79
     5
170
     0
171
     0
290
     0
174
     0
 93
        1
 44
0.0
173
     0
291
     1
 45
0.0
1001
ACAD
1000
AcDbSavedByObjectVersion
1070
     0
  0
VISUALSTYLE
  5
D7A7
102
{ACAD_XDICTIONARY
360
D816
102
}
102
{ACAD_REACTORS
330
D790
102
}
330
D790
100
AcDbVisualStyle
  2
OverhangOff
 70
    21
 71
     2
 72
     2
 73
     0
 90
        0
 40
-0.6
 41
-30.0
 62
     5
 63
     7
 74
     1
 91
        4
 64
     7
 65
   257
 75
     1
175
     1
 42
1.0
 92
        9
 66
     7
 43
1.0
 76
     1
 77
     6
 78
     2
 67
     7
 79
     5
170
     0
171
     0
290
     0
174
     0
 93
        1
 44
0.0
173
     0
291
     1
 45
0.0
1001
ACAD
1000
AcDbSavedByObjectVersion
1070
     0
  0
VISUALSTYLE
  5
D79A
102
{ACAD_XDICTIONARY
360
D7FC
102
}
102
{ACAD_REACTORS
330
D790
102
}
330
D790
100
AcDbVisualStyle
  2
Realistic
 70
     8
 71
     2
 72
     3
 73
     0
 90
        2
 40
-0.6
 41
30.0
 62
     5
 63
     7
 74
     0
 91
        0
 64
     7
 65
   257
 75
     1
175
     1
 42
1.0
 92
        8
 66
   257
 43
1.0
 76
     1
 77
     6
 78
     2
 67
     7
 79
     3
170
     0
171
     0
290
     0
174
     0
 93
       13
 44
0.0
173
     0
291
     0
 45
0.0
1001
ACAD
1000
AcDbSavedByObjectVersion
1070
     0
  0
VISUALSTYLE
  5
D7A5
102
{ACAD_XDICTIONARY
360
D812
102
}
102
{ACAD_REACTORS
330
D790
102
}
330
D790
100
AcDbVisualStyle
  2
Shaded
 70
    27
 71
     2
 72
     2
 73
     1
 90
        2
 40
-0.6
 41
30.0
 62
     5
 63
     7
 74
     0
 91
        4
 64
     7
 65
   257
 75
     1
175
     1
 42
1.0
 92
        8
 66
   257
 43
1.0
 76
     1
 77
     6
 78
     2
 67
     8
 79
     3
170
     0
171
     0
290
     0
174
     0
 93
        5
 44
0.0
173
     0
291
     0
 45
0.0
1001
ACAD
1000
AcDbSavedByObjectVersion
1070
     0
  0
VISUALSTYLE
  5
D7A4
102
{ACAD_XDICTIONARY
360
D810
102
}
102
{ACAD_REACTORS
330
D790
102
}
330
D790
100
AcDbVisualStyle
  2
Shaded with edges
 70
    26
 71
     2
 72
     2
 73
     1
 90
        2
 40
-0.6
 41
30.0
 62
     5
 63
     7
 74
     1
 91
       10
 64
     7
 65
   257
 75
     2
175
     1
 42
1.0
 92
        8
 66
   257
 43
1.0
 76
     1
 77
     6
 78
     2
 67
     7
 79
     3
170
     0
171
     0
290
     0
174
     0
 93
        5
 44
0.0
173
     0
291
     0
 45
0.0
1001
ACAD
1000
AcDbSavedByObjectVersion
1070
     0
  0
VISUALSTYLE
  5
D7A1
102
{ACAD_XDICTIONARY
360
D80A
102
}
102
{ACAD_REACTORS
330
D790
102
}
330
D790
100
AcDbVisualStyle
  2
Shades of Gray
 70
    23
 71
     2
 72
     2
 73
     3
 90
        0
 40
-0.6
 41
-30.0
 62
     5
 63
     7
 74
     2
 91
        2
 64
     7
 65
     7
 75
     1
175
     1
 42
40.0
 92
        8
 66
     7
 43
1.0
 76
     1
 77
     6
 78
     2
 67
     7
 79
     3
170
     0
171
     0
290
     0
174
     0
 93
        1
 44
0.0
173
     0
291
     0
 45
0.0
1001
ACAD
1000
AcDbSavedByObjectVersion
1070
     0
  0
VISUALSTYLE
  5
D7A2
102
{ACAD_XDICTIONARY
360
D80C
102
}
102
{ACAD_REACTORS
330
D790
102
}
330
D790
100
AcDbVisualStyle
  2
Sketchy
 70
    24
 71
     1
 72
     2
 73
     2
 90
        0
 40
-0.6
 41
-30.0
 62
     5
 63
     7
 74
     2
 91
        2
 64
     7
 65
     7
 75
     1
175
     1
 42
40.0
 92
       11
 66
     7
 43
1.0
 76
     1
 77
     6
 78
     2
 67
     7
 79
     6
170
     0
171
     0
290
     0
174
     0
 93
        1
 44
0.0
173
     0
291
     0
 45
0.0
1001
ACAD
1000
AcDbSavedByObjectVersion
1070
     0
  0
VISUALSTYLE
  5
D79D
102
{ACAD_XDICTIONARY
360
D802
102
}
102
{ACAD_REACTORS
330
D790
102
}
330
D790
100
AcDbVisualStyle
  2
Thicken
 70
    13
 71
     2
 72
     2
 73
     0
 90
        0
 40
-0.6
 41
-30.0
 62
     5
 63
     7
 74
     1
 91
        4
 64
     7
 65
   257
 75
     1
175
     1
 42
1.0
 92
       12
 66
     7
 43
1.0
 76
     1
 77
     6
 78
     2
 67
     7
 79
     5
170
     0
171
     0
290
     0
174
     0
 93
        1
 44
0.0
173
     0
291
     1
 45
0.0
1001
ACAD
1000
AcDbSavedByObjectVersion
1070
     0
  0
VISUALSTYLE
  5
D797
102
{ACAD_XDICTIONARY
360
D7F6
102
}
102
{ACAD_REACTORS
330
D790
102
}
330
D790
100
AcDbVisualStyle
  2
Wireframe
 70
     5
 71
     0
 72
     2
 73
     0
 90
        0
 40
-0.6
 41
-30.0
 62
     5
 63
     7
 74
     1
 91
        4
 64
     7
 65
   257
 75
     1
175
     1
 42
1.0
 92
        0
 66
   257
 43
1.0
 76
     1
 77
     6
 78
     2
 67
     7
 79
     3
170
     0
171
     0
290
     0
174
     0
 93
        1
 44
0.0
173
     0
291
     0
 45
0.0
1001
ACAD
1000
AcDbSavedByObjectVersion
1070
     0
  0
VISUALSTYLE
  5
D7A3
102
{ACAD_XDICTIONARY
360
D80E
102
}
102
{ACAD_REACTORS
330
D790
102
}
330
D790
100
AcDbVisualStyle
  2
X-Ray
 70
    25
 71
     2
 72
     2
 73
     1
 90
        1
 40
0.5
 41
-30.0
 62
     5
 63
     7
 74
     1
 91
        0
 64
     7
 65
   257
 75
     1
175
     1
 42
1.0
 92
        8
 66
     7
 43
1.0
 76
     1
 77
     6
 78
     2
 67
     7
 79
     3
170
     0
171
     0
290
     0
174
     0
 93
       13
 44
0.0
173
     0
291
     0
 45
0.0
1001
ACAD
1000
AcDbSavedByObjectVersion
1070
     0
  0
DICTIONARYVAR
  5
D7DD
102
{ACAD_REACTORS
330
D7D8
102
}
330
D7D8
100
DictionaryVariables
280
     0
  1
1:1
  0
DICTIONARYVAR
  5
D7DA
102
{ACAD_REACTORS
330
D7D8
102
}
330
D7D8
100
DictionaryVariables
280
     0
  1
STANDARD
  0
DICTIONARYVAR
  5
D7D9
102
{ACAD_REACTORS
330
D7D8
102
}
330
D7D8
100
DictionaryVariables
280
     0
  1
STANDARD
  0
DICTIONARYVAR
  5
D7DB
102
{ACAD_REACTORS
330
D7D8
102
}
330
D7D8
100
DictionaryVariables
280
     0
  1
Imperial24
  0
DICTIONARYVAR
  5
D7DC
102
{ACAD_REACTORS
330
D7D8
102
}
330
D7D8
100
DictionaryVariables
280
     0
  1
Imperial24
  0
DICTIONARYVAR
  5
D7E0
102
{ACAD_REACTORS
330
D7D8
102
}
330
D7D8
100
DictionaryVariables
280
     0
  1
1
  0
DICTIONARYVAR
  5
D7DF
102
{ACAD_REACTORS
330
D7D8
102
}
330
D7D8
100
DictionaryVariables
280
     0
  1
0
  0
DICTIONARYVAR
  5
D7DE
102
{ACAD_REACTORS
330
D7D8
102
}
330
D7D8
100
DictionaryVariables
280
     0
  1
127
  0
DICTIONARYVAR
  5
D7E1
102
{ACAD_REACTORS
330
D7D8
102
}
330
D7D8
100
DictionaryVariables
280
     0
  1
2
  0
DICTIONARY
  5
D81E
330
D7C3
100
AcDbDictionary
280
     1
281
     1
  3
ACAD_XREC_ROUNDTRIP
360
D81F
  0
DICTIONARY
  5
D820
330
D7C4
100
AcDbDictionary
280
     1
281
     1
  3
ACAD_XREC_ROUNDTRIP
360
D821
  0
DICTIONARY
  5
D822
330
D7C5
100
AcDbDictionary
280
     1
281
     1
  3
ACAD_XREC_ROUNDTRIP
360
D823
  0
DICTIONARY
  5
D781
330
D780
100
AcDbDictionary
280
     1
281
     1
  3
ACAD_XREC_ROUNDTRIP
360
D7E8
  3
BUMPTILE
360
D783
  3
DIFFUSETILE
360
D782
  3
OPACITYTILE
360
D786
  3
REFLECTIONTILE
360
D785
  3
REFRACTIONTILE
360
D787
  3
SPECULARTILE
360
D784
  0
DICTIONARY
  5
D779
330
D778
100
AcDbDictionary
280
     1
281
     1
  3
ACAD_XREC_ROUNDTRIP
360
D7E7
  3
BUMPTILE
360
D77B
  3
DIFFUSETILE
360
D77A
  3
OPACITYTILE
360
D77E
  3
REFLECTIONTILE
360
D77D
  3
REFRACTIONTILE
360
D77F
  3
SPECULARTILE
360
D77C
  0
DICTIONARY
  5
D789
330
D788
100
AcDbDictionary
280
     1
281
     1
  3
ACAD_XREC_ROUNDTRIP
360
D7E9
  3
BUMPTILE
360
D78B
  3
DIFFUSETILE
360
D78A
  3
OPACITYTILE
360
D78E
  3
REFLECTIONTILE
360
D78D
  3
REFRACTIONTILE
360
D78F
  3
SPECULARTILE
360
D78C
  0
DICTIONARY
  5
D81C
330
D7C1
100
AcDbDictionary
280
     1
281
     1
  3
ACAD_XREC_ROUNDTRIP
360
D81D
  0
DICTIONARY
  5
D7E3
330
D7AB
100
AcDbDictionary
280
     1
281
     1
  3
ACAD_ROUNDTRIP_2008_TABLESTYLE_CELLSTYLEMAP
360
D7E4
  3
ACAD_XREC_ROUNDTRIP
360
D81A
  0
DICTIONARY
  5
D7F4
330
D796
100
AcDbDictionary
280
     1
281
     1
  3
ACAD_XREC_ROUNDTRIP
360
D7F5
  0
DICTIONARY
  5
D7F2
330
D795
100
AcDbDictionary
280
     1
281
     1
  3
ACAD_XREC_ROUNDTRIP
360
D7F3
  0
DICTIONARY
  5
D800
330
D79C
100
AcDbDictionary
280
     1
281
     1
  3
ACAD_XREC_ROUNDTRIP
360
D801
  0
DICTIONARY
  5
D808
330
D7A0
100
AcDbDictionary
280
     1
281
     1
  3
ACAD_XREC_ROUNDTRIP
360
D809
  0
DICTIONARY
  5
D7FA
330
D799
100
AcDbDictionary
280
     1
281
     1
  3
ACAD_XREC_ROUNDTRIP
360
D7FB
  0
DICTIONARY
  5
D7FE
330
D79B
100
AcDbDictionary
280
     1
281
     1
  3
ACAD_XREC_ROUNDTRIP
360
D7FF
  0
DICTIONARY
  5
D818
330
D7A8
100
AcDbDictionary
280
     1
281
     1
  3
ACAD_XREC_ROUNDTRIP
360
D819
  0
DICTIONARY
  5
D806
330
D79F
100
AcDbDictionary
280
     1
281
     1
  3
ACAD_XREC_ROUNDTRIP
360
D807
  0
DICTIONARY
  5
D7EA
330
D791
100
AcDbDictionary
280
     1
281
     1
  3
ACAD_XREC_ROUNDTRIP
360
D7EB
  0
DICTIONARY
  5
D7EC
330
D792
100
AcDbDictionary
280
     1
281
     1
  3
ACAD_XREC_ROUNDTRIP
360
D7ED
  0
DICTIONARY
  5
D7EE
330
D793
100
AcDbDictionary
280
     1
281
     1
  3
ACAD_XREC_ROUNDTRIP
360
D7EF
  0
DICTIONARY
  5
D7F0
330
D794
100
AcDbDictionary
280
     1
281
     1
  3
ACAD_XREC_ROUNDTRIP
360
D7F1
  0
DICTIONARY
  5
D7F8
330
D798
100
AcDbDictionary
280
     1
281
     1
  3
ACAD_XREC_ROUNDTRIP
360
D7F9
  0
DICTIONARY
  5
D814
330
D7A6
100
AcDbDictionary
280
     1
281
     1
  3
ACAD_XREC_ROUNDTRIP
360
D815
  0
DICTIONARY
  5
D804
330
D79E
100
AcDbDictionary
280
     1
281
     1
  3
ACAD_XREC_ROUNDTRIP
360
D805
  0
DICTIONARY
  5
D816
330
D7A7
100
AcDbDictionary
280
     1
281
     1
  3
ACAD_XREC_ROUNDTRIP
360
D817
  0
DICTIONARY
  5
D7FC
330
D79A
100
AcDbDictionary
280
     1
281
     1
  3
ACAD_XREC_ROUNDTRIP
360
D7FD
  0
DICTIONARY
  5
D812
330
D7A5
100
AcDbDictionary
280
     1
281
     1
  3
ACAD_XREC_ROUNDTRIP
360
D813
  0
DICTIONARY
  5
D810
330
D7A4
100
AcDbDictionary
280
     1
281
     1
  3
ACAD_XREC_ROUNDTRIP
360
D811
  0
DICTIONARY
  5
D80A
330
D7A1
100
AcDbDictionary
280
     1
281
     1
  3
ACAD_XREC_ROUNDTRIP
360
D80B
  0
DICTIONARY
  5
D80C
330
D7A2
100
AcDbDictionary
280
     1
281
     1
  3
ACAD_XREC_ROUNDTRIP
360
D80D
  0
DICTIONARY
  5
D802
330
D79D
100
AcDbDictionary
280
     1
281
     1
  3
ACAD_XREC_ROUNDTRIP
360
D803
  0
DICTIONARY
  5
D7F6
330
D797
100
AcDbDictionary
280
     1
281
     1
  3
ACAD_XREC_ROUNDTRIP
360
D7F7
  0
DICTIONARY
  5
D80E
330
D7A3
100
AcDbDictionary
280
     1
281
     1
  3
ACAD_XREC_ROUNDTRIP
360
D80F
  0
XRECORD
  5
D81F
102
{ACAD_REACTORS
330
D81E
102
}
330
D81E
100
AcDbXrecord
280
     1
102
DISPLAYNAME
  1
Imperial24
102
FLAGS
 90
        0
  0
XRECORD
  5
D821
102
{ACAD_REACTORS
330
D820
102
}
330
D820
100
AcDbXrecord
280
     1
102
SHADEPLOT
 70
     0
102
SHADEPLOTRESLEVEL
 70
     2
102
SHADEPLOTCUSTOMDPI
 70
   300
  0
XRECORD
  5
D823
102
{ACAD_REACTORS
330
D822
102
}
330
D822
100
AcDbXrecord
280
     1
102
SHADEPLOT
 70
     0
102
SHADEPLOTRESLEVEL
 70
     2
102
SHADEPLOTCUSTOMDPI
 70
   300
  0
XRECORD
  5
D7E8
102
{ACAD_REACTORS
330
D781
102
}
330
D781
100
AcDbXrecord
280
     1
102
MATERIAL
148
0.0
149
0.0
149
0.0
 93
        0
 94
      127
282
     0
 72
     0
 77
     0
171
     0
175
     0
179
     0
273
     0
  0
XRECORD
  5
D783
102
{ACAD_REACTORS
330
D781
102
}
330
D781
100
AcDbXrecord
280
     1
270
     1
271
     1
  0
XRECORD
  5
D782
102
{ACAD_REACTORS
330
D781
102
}
330
D781
100
AcDbXrecord
280
     1
270
     1
271
     1
  0
XRECORD
  5
D786
102
{ACAD_REACTORS
330
D781
102
}
330
D781
100
AcDbXrecord
280
     1
270
     1
271
     1
  0
XRECORD
  5
D785
102
{ACAD_REACTORS
330
D781
102
}
330
D781
100
AcDbXrecord
280
     1
270
     1
271
     1
  0
XRECORD
  5
D787
102
{ACAD_REACTORS
330
D781
102
}
330
D781
100
AcDbXrecord
280
     1
270
     1
271
     1
  0
XRECORD
  5
D784
102
{ACAD_REACTORS
330
D781
102
}
330
D781
100
AcDbXrecord
280
     1
270
     1
271
     1
  0
XRECORD
  5
D7E7
102
{ACAD_REACTORS
330
D779
102
}
330
D779
100
AcDbXrecord
280
     1
102
MATERIAL
148
0.0
149
0.0
149
0.0
 93
        0
 94
      127
282
     0
 72
     0
 77
     0
171
     0
175
     0
179
     0
273
     0
  0
XRECORD
  5
D77B
102
{ACAD_REACTORS
330
D779
102
}
330
D779
100
AcDbXrecord
280
     1
270
     1
271
     1
  0
XRECORD
  5
D77A
102
{ACAD_REACTORS
330
D779
102
}
330
D779
100
AcDbXrecord
280
     1
270
     1
271
     1
  0
XRECORD
  5
D77E
102
{ACAD_REACTORS
330
D779
102
}
330
D779
100
AcDbXrecord
280
     1
270
     1
271
     1
  0
XRECORD
  5
D77D
102
{ACAD_REACTORS
330
D779
102
}
330
D779
100
AcDbXrecord
280
     1
270
     1
271
     1
  0
XRECORD
  5
D77F
102
{ACAD_REACTORS
330
D779
102
}
330
D779
100
AcDbXrecord
280
     1
270
     1
271
     1
  0
XRECORD
  5
D77C
102
{ACAD_REACTORS
330
D779
102
}
330
D779
100
AcDbXrecord
280
     1
270
     1
271
     1
  0
XRECORD
  5
D7E9
102
{ACAD_REACTORS
330
D789
102
}
330
D789
100
AcDbXrecord
280
     1
102
MATERIAL
148
0.0
149
0.0
149
0.0
 93
        0
 94
      127
282
     0
 72
     0
 77
     0
171
     0
175
     0
179
     0
273
     0
  0
XRECORD
  5
D78B
102
{ACAD_REACTORS
330
D789
102
}
330
D789
100
AcDbXrecord
280
     1
270
     1
271
     1
  0
XRECORD
  5
D78A
102
{ACAD_REACTORS
330
D789
102
}
330
D789
100
AcDbXrecord
280
     1
270
     1
271
     1
  0
XRECORD
  5
D78E
102
{ACAD_REACTORS
330
D789
102
}
330
D789
100
AcDbXrecord
280
     1
270
     1
271
     1
  0
XRECORD
  5
D78D
102
{ACAD_REACTORS
330
D789
102
}
330
D789
100
AcDbXrecord
280
     1
270
     1
271
     1
  0
XRECORD
  5
D78F
102
{ACAD_REACTORS
330
D789
102
}
330
D789
100
AcDbXrecord
280
     1
270
     1
271
     1
  0
XRECORD
  5
D78C
102
{ACAD_REACTORS
330
D789
102
}
330
D789
100
AcDbXrecord
280
     1
270
     1
271
     1
  0
XRECORD
  5
D81D
102
{ACAD_REACTORS
330
D81C
102
}
330
D81C
100
AcDbXrecord
280
     1
102
DISPLAYNAME
  1
Imperial24
102
FLAGS
 90
        0
  0
CELLSTYLEMAP
  5
D7E4
102
{ACAD_REACTORS
330
D7E3
102
}
330
D7E3
100
AcDbCellStyleMap
 90
        3
300
CELLSTYLE
  1
TABLEFORMAT_BEGIN
 90
        5
170
     1
 91
        0
 92
    32768
 62
   257
 93
        1
300
CONTENTFORMAT
  1
CONTENTFORMAT_BEGIN
 90
        0
 91
        0
 92
      512
 93
        0
300

 40
0.0
140
1.0
 94
        5
 62
     0
340
D2C5
144
0.25
309
CONTENTFORMAT_END
171
     0
 94
        0
309
TABLEFORMAT_END
  1
CELLSTYLE_BEGIN
 90
        1
 91
        1
300
_TITLE
309
CELLSTYLE_END
300
CELLSTYLE
  1
TABLEFORMAT_BEGIN
 90
        5
170
     1
 91
        0
 92
        0
 62
   257
 93
        1
300
CONTENTFORMAT
  1
CONTENTFORMAT_BEGIN
 90
        0
 91
        0
 92
      512
 93
        0
300

 40
0.0
140
1.0
 94
        5
 62
     0
340
D2C5
144
0.18
309
CONTENTFORMAT_END
171
     0
 94
        0
309
TABLEFORMAT_END
  1
CELLSTYLE_BEGIN
 90
        2
 91
        1
300
_HEADER
309
CELLSTYLE_END
300
CELLSTYLE
  1
TABLEFORMAT_BEGIN
 90
        5
170
     1
 91
        0
 92
        0
 62
   257
 93
        1
300
CONTENTFORMAT
  1
CONTENTFORMAT_BEGIN
 90
        0
 91
        0
 92
      512
 93
        0
300

 40
0.0
140
1.0
 94
        2
 62
     0
340
D2C5
144
0.18
309
CONTENTFORMAT_END
171
     0
 94
        0
309
TABLEFORMAT_END
  1
CELLSTYLE_BEGIN
 90
        3
 91
        2
300
_DATA
309
CELLSTYLE_END
  0
XRECORD
  5
D81A
102
{ACAD_REACTORS
330
D7E3
102
}
330
D7E3
100
AcDbXrecord
280
     1
102
ACAD_ROUNDTRIP_PRE2007_TABLESTYLE
 90
      512
 91
        0
  1

 92
      512
 93
        0
  2

 94
      512
 95
        0
  3

  0
XRECORD
  5
D7F5
102
{ACAD_REACTORS
330
D7F4
102
}
330
D7F4
100
AcDbXrecord
280
     1
102
RTVSPost2010Prop28
280
     1
102
RTVSPost2010PropOp28
 70
     1
102
RTVSPost2010Prop29
280
     1
102
RTVSPost2010PropOp29
 70
     1
102
RTVSPost2010Prop30
280
     0
102
RTVSPost2010PropOp30
 70
     1
102
RTVSPost2010Prop31
280
     0
102
RTVSPost2010PropOp31
 70
     1
102
RTVSPost2010Prop32
280
     0
102
RTVSPost2010PropOp32
 70
     1
102
RTVSPost2010Prop33
280
     0
102
RTVSPost2010PropOp33
 70
     1
102
RTVSPost2010Prop34
280
     0
102
RTVSPost2010PropOp34
 70
     1
102
RTVSPost2010Prop35
280
     0
102
RTVSPost2010PropOp35
 70
     1
102
RTVSPost2010Prop36
280
     0
102
RTVSPost2010PropOp36
 70
     1
102
RTVSPost2010Prop37
 90
       50
102
RTVSPost2010PropOp37
 70
     1
102
RTVSPost2010Prop38
140
0.0
102
RTVSPost2010PropOp38
 70
     1
102
RTVSPost2010Prop39
140
1.0
102
RTVSPost2010PropOp39
 70
     1
102
RTVSPost2010Prop40
 90
        0
102
RTVSPost2010PropOp40
 70
     1
102
RTVSPost2010Prop41ColorIndex
 90
       18
102
RTVSPost2010Prop41ColorRGB
 90
        0
102
RTVSPost2010PropOp41
 70
     1
102
RTVSPost2010Prop42
 90
       50
102
RTVSPost2010PropOp42
 70
     1
102
RTVSPost2010Prop43
 90
        3
102
RTVSPost2010PropOp43
 70
     1
102
RTVSPost2010Prop44ColorIndex
 90
        5
102
RTVSPost2010Prop44ColorRGB
 90
      255
102
RTVSPost2010PropOp44
 70
     1
102
RTVSPost2010Prop45
280
     0
102
RTVSPost2010PropOp45
 70
     1
102
RTVSPost2010Prop46
 90
       50
102
RTVSPost2010PropOp46
 70
     1
102
RTVSPost2010Prop47
 90
       50
102
RTVSPost2010PropOp47
 70
     1
102
RTVSPost2010Prop48
 90
       50
102
RTVSPost2010PropOp48
 70
     1
102
RTVSPost2010Prop49
280
     0
102
RTVSPost2010PropOp49
 70
     1
102
RTVSPost2010Prop50
 90
       50
102
RTVSPost2010PropOp50
 70
     1
102
RTVSPost2010Prop51ColorIndex
 90
      256
102
RTVSPost2010Prop51ColorRGB
 90
-16777216
102
RTVSPost2010PropOp51
 70
     0
102
RTVSPost2010Prop52
140
1.0
102
RTVSPost2010PropOp52
 70
     0
102
RTVSPost2010Prop53
 90
        2
102
RTVSPost2010PropOp53
 70
     1
102
RTVSPost2010Prop54
  1
strokes_ogs.tif
102
RTVSPost2010PropOp54
 70
     1
102
RTVSPost2010Prop55
280
     0
102
RTVSPost2010PropOp55
 70
     1
102
RTVSPost2010Prop56
140
1.0
102
RTVSPost2010PropOp56
 70
     1
102
RTVSPost2010Prop57
140
1.0
102
RTVSPost2010PropOp57
 70
     1
102
RTVSPropertyOp0
 70
     1
102
RTVSPropertyOp1
 70
     1
102
RTVSPropertyOp2
 70
     1
102
RTVSPropertyOp3
 70
     1
102
RTVSPropertyOp4
 70
     1
102
RTVSPropertyOp5
 70
     1
102
RTVSPropertyOp6
 70
     1
102
RTVSPropertyOp7
 70
     1
102
RTVSPropertyOp8
 70
     1
102
RTVSPropertyOp9
 70
     1
102
RTVSPropertyOp10
 70
     1
102
RTVSPropertyOp11
 70
     1
102
RTVSPropertyOp12
 70
     1
102
RTVSPropertyOp13
 70
     1
102
RTVSPropertyOp14
 70
     1
102
RTVSPropertyOp15
 70
     1
102
RTVSPropertyOp16
 70
     1
102
RTVSPropertyOp17
 70
     1
102
RTVSPropertyOp18
 70
     1
102
RTVSPropertyOp19
 70
     1
102
RTVSPropertyOp20
 70
     1
102
RTVSPropertyOp21
 70
     1
102
RTVSPropertyOp22
 70
     1
102
RTVSPropertyOp23
 70
     1
102
RTVSPropertyOp24
 70
     1
102
RTVSPropertyOp25
 70
     1
102
RTVSPropertyOp26
 70
     1
102
RTVSPropertyOp27
 70
     1
102
RTVSPropertyOp28
 70
     1
102
RTVSPropertyOp29
 70
     1
102
RTVSPropertyOp30
 70
     1
102
RTVSPropertyOp31
 70
     1
102
RTVSPropertyOp32
 70
     1
102
RTVSPropertyOp33
 70
     1
102
RTVSPropertyOp34
 70
     1
102
RTVSPropertyOp35
 70
     1
102
RTVSPropertyOp36
 70
     1
102
RTVSPropertyOp37
 70
     1
102
RTVSPropertyOp38
 70
     1
102
RTVSPropertyOp39
 70
     1
102
RTVSPropertyOp40
 70
     1
102
RTVSPropertyOp41
 70
     1
102
RTVSPropertyOp42
 70
     1
102
RTVSPropertyOp43
 70
     1
102
RTVSPropertyOp44
 70
     1
102
RTVSPropertyOp45
 70
     1
102
RTVSPropertyOp46
 70
     1
102
RTVSPropertyOp47
 70
     1
102
RTVSPropertyOp48
 70
     1
102
RTVSPropertyOp49
 70
     1
102
RTVSPropertyOp50
 70
     1
102
RTVSPropertyOp51
 70
     0
102
RTVSPropertyOp52
 70
     0
102
RTVSPropertyOp53
 70
     1
102
RTVSPropertyOp54
 70
     1
102
RTVSPropertyOp55
 70
     1
102
RTVSPropertyOp56
 70
     1
102
RTVSPropertyOp57
 70
     1
102
RTVSPropertyOp58
 70
     1
102
RTVSPropertyOp59
 70
     1
102
RTVSPropertyOp60
 70
     1
102
RTVSPropertyOp61
 70
     1
102
RTVSPropertyOp62
 70
     1
  0
XRECORD
  5
D7F3
102
{ACAD_REACTORS
330
D7F2
102
}
330
D7F2
100
AcDbXrecord
280
     1
102
RTVSPost2010Prop28
280
     0
102
RTVSPost2010PropOp28
 70
     1
102
RTVSPost2010Prop29
280
     1
102
RTVSPost2010PropOp29
 70
     1
102
RTVSPost2010Prop30
280
     1
102
RTVSPost2010PropOp30
 70
     1
102
RTVSPost2010Prop31
280
     0
102
RTVSPost2010PropOp31
 70
     1
102
RTVSPost2010Prop32
280
     0
102
RTVSPost2010PropOp32
 70
     1
102
RTVSPost2010Prop33
280
     0
102
RTVSPost2010PropOp33
 70
     1
102
RTVSPost2010Prop34
280
     0
102
RTVSPost2010PropOp34
 70
     1
102
RTVSPost2010Prop35
280
     0
102
RTVSPost2010PropOp35
 70
     1
102
RTVSPost2010Prop36
280
     0
102
RTVSPost2010PropOp36
 70
     1
102
RTVSPost2010Prop37
 90
       50
102
RTVSPost2010PropOp37
 70
     1
102
RTVSPost2010Prop38
140
0.0
102
RTVSPost2010PropOp38
 70
     1
102
RTVSPost2010Prop39
140
1.0
102
RTVSPost2010PropOp39
 70
     1
102
RTVSPost2010Prop40
 90
        0
102
RTVSPost2010PropOp40
 70
     1
102
RTVSPost2010Prop41ColorIndex
 90
       18
102
RTVSPost2010Prop41ColorRGB
 90
        0
102
RTVSPost2010PropOp41
 70
     1
102
RTVSPost2010Prop42
 90
       50
102
RTVSPost2010PropOp42
 70
     1
102
RTVSPost2010Prop43
 90
        3
102
RTVSPost2010PropOp43
 70
     1
102
RTVSPost2010Prop44ColorIndex
 90
        5
102
RTVSPost2010Prop44ColorRGB
 90
      255
102
RTVSPost2010PropOp44
 70
     1
102
RTVSPost2010Prop45
280
     0
102
RTVSPost2010PropOp45
 70
     1
102
RTVSPost2010Prop46
 90
       50
102
RTVSPost2010PropOp46
 70
     1
102
RTVSPost2010Prop47
 90
       50
102
RTVSPost2010PropOp47
 70
     1
102
RTVSPost2010Prop48
 90
       50
102
RTVSPost2010PropOp48
 70
     1
102
RTVSPost2010Prop49
280
     0
102
RTVSPost2010PropOp49
 70
     1
102
RTVSPost2010Prop50
 90
       50
102
RTVSPost2010PropOp50
 70
     1
102
RTVSPost2010Prop51ColorIndex
 90
      256
102
RTVSPost2010Prop51ColorRGB
 90
-16777216
102
RTVSPost2010PropOp51
 70
     0
102
RTVSPost2010Prop52
140
1.0
102
RTVSPost2010PropOp52
 70
     0
102
RTVSPost2010Prop53
 90
        2
102
RTVSPost2010PropOp53
 70
     1
102
RTVSPost2010Prop54
  1
strokes_ogs.tif
102
RTVSPost2010PropOp54
 70
     1
102
RTVSPost2010Prop55
280
     0
102
RTVSPost2010PropOp55
 70
     1
102
RTVSPost2010Prop56
140
1.0
102
RTVSPost2010PropOp56
 70
     1
102
RTVSPost2010Prop57
140
1.0
102
RTVSPost2010PropOp57
 70
     1
102
RTVSPropertyOp0
 70
     1
102
RTVSPropertyOp1
 70
     1
102
RTVSPropertyOp2
 70
     1
102
RTVSPropertyOp3
 70
     1
102
RTVSPropertyOp4
 70
     1
102
RTVSPropertyOp5
 70
     1
102
RTVSPropertyOp6
 70
     1
102
RTVSPropertyOp7
 70
     1
102
RTVSPropertyOp8
 70
     1
102
RTVSPropertyOp9
 70
     1
102
RTVSPropertyOp10
 70
     1
102
RTVSPropertyOp11
 70
     1
102
RTVSPropertyOp12
 70
     1
102
RTVSPropertyOp13
 70
     1
102
RTVSPropertyOp14
 70
     1
102
RTVSPropertyOp15
 70
     1
102
RTVSPropertyOp16
 70
     1
102
RTVSPropertyOp17
 70
     1
102
RTVSPropertyOp18
 70
     1
102
RTVSPropertyOp19
 70
     1
102
RTVSPropertyOp20
 70
     1
102
RTVSPropertyOp21
 70
     1
102
RTVSPropertyOp22
 70
     1
102
RTVSPropertyOp23
 70
     1
102
RTVSPropertyOp24
 70
     1
102
RTVSPropertyOp25
 70
     1
102
RTVSPropertyOp26
 70
     1
102
RTVSPropertyOp27
 70
     1
102
RTVSPropertyOp28
 70
     1
102
RTVSPropertyOp29
 70
     1
102
RTVSPropertyOp30
 70
     1
102
RTVSPropertyOp31
 70
     1
102
RTVSPropertyOp32
 70
     1
102
RTVSPropertyOp33
 70
     1
102
RTVSPropertyOp34
 70
     1
102
RTVSPropertyOp35
 70
     1
102
RTVSPropertyOp36
 70
     1
102
RTVSPropertyOp37
 70
     1
102
RTVSPropertyOp38
 70
     1
102
RTVSPropertyOp39
 70
     1
102
RTVSPropertyOp40
 70
     1
102
RTVSPropertyOp41
 70
     1
102
RTVSPropertyOp42
 70
     1
102
RTVSPropertyOp43
 70
     1
102
RTVSPropertyOp44
 70
     1
102
RTVSPropertyOp45
 70
     1
102
RTVSPropertyOp46
 70
     1
102
RTVSPropertyOp47
 70
     1
102
RTVSPropertyOp48
 70
     1
102
RTVSPropertyOp49
 70
     1
102
RTVSPropertyOp50
 70
     1
102
RTVSPropertyOp51
 70
     0
102
RTVSPropertyOp52
 70
     0
102
RTVSPropertyOp53
 70
     1
102
RTVSPropertyOp54
 70
     1
102
RTVSPropertyOp55
 70
     1
102
RTVSPropertyOp56
 70
     1
102
RTVSPropertyOp57
 70
     1
102
RTVSPropertyOp58
 70
     1
102
RTVSPropertyOp59
 70
     1
102
RTVSPropertyOp60
 70
     1
102
RTVSPropertyOp61
 70
     1
102
RTVSPropertyOp62
 70
     1
  0
XRECORD
  5
D801
102
{ACAD_REACTORS
330
D800
102
}
330
D800
100
AcDbXrecord
280
     1
102
RTVSPost2010Prop28
280
     0
102
RTVSPost2010PropOp28
 70
     1
102
RTVSPost2010Prop29
280
     1
102
RTVSPost2010PropOp29
 70
     1
102
RTVSPost2010Prop30
280
     1
102
RTVSPost2010PropOp30
 70
     1
102
RTVSPost2010Prop31
280
     0
102
RTVSPost2010PropOp31
 70
     1
102
RTVSPost2010Prop32
280
     0
102
RTVSPost2010PropOp32
 70
     1
102
RTVSPost2010Prop33
280
     0
102
RTVSPost2010PropOp33
 70
     1
102
RTVSPost2010Prop34
280
     0
102
RTVSPost2010PropOp34
 70
     1
102
RTVSPost2010Prop35
280
     0
102
RTVSPost2010PropOp35
 70
     1
102
RTVSPost2010Prop36
280
     0
102
RTVSPost2010PropOp36
 70
     1
102
RTVSPost2010Prop37
 90
       50
102
RTVSPost2010PropOp37
 70
     1
102
RTVSPost2010Prop38
140
0.0
102
RTVSPost2010PropOp38
 70
     1
102
RTVSPost2010Prop39
140
1.0
102
RTVSPost2010PropOp39
 70
     1
102
RTVSPost2010Prop40
 90
        0
102
RTVSPost2010PropOp40
 70
     1
102
RTVSPost2010Prop41ColorIndex
 90
       18
102
RTVSPost2010Prop41ColorRGB
 90
        0
102
RTVSPost2010PropOp41
 70
     1
102
RTVSPost2010Prop42
 90
       50
102
RTVSPost2010PropOp42
 70
     1
102
RTVSPost2010Prop43
 90
        3
102
RTVSPost2010PropOp43
 70
     1
102
RTVSPost2010Prop44ColorIndex
 90
        5
102
RTVSPost2010Prop44ColorRGB
 90
      255
102
RTVSPost2010PropOp44
 70
     1
102
RTVSPost2010Prop45
280
     0
102
RTVSPost2010PropOp45
 70
     1
102
RTVSPost2010Prop46
 90
       50
102
RTVSPost2010PropOp46
 70
     1
102
RTVSPost2010Prop47
 90
       50
102
RTVSPost2010PropOp47
 70
     1
102
RTVSPost2010Prop48
 90
       50
102
RTVSPost2010PropOp48
 70
     1
102
RTVSPost2010Prop49
280
     0
102
RTVSPost2010PropOp49
 70
     1
102
RTVSPost2010Prop50
 90
       50
102
RTVSPost2010PropOp50
 70
     1
102
RTVSPost2010Prop51ColorIndex
 90
      256
102
RTVSPost2010Prop51ColorRGB
 90
-16777216
102
RTVSPost2010PropOp51
 70
     0
102
RTVSPost2010Prop52
140
1.0
102
RTVSPost2010PropOp52
 70
     0
102
RTVSPost2010Prop53
 90
        2
102
RTVSPost2010PropOp53
 70
     1
102
RTVSPost2010Prop54
  1
strokes_ogs.tif
102
RTVSPost2010PropOp54
 70
     1
102
RTVSPost2010Prop55
280
     0
102
RTVSPost2010PropOp55
 70
     1
102
RTVSPost2010Prop56
140
1.0
102
RTVSPost2010PropOp56
 70
     1
102
RTVSPost2010Prop57
140
1.0
102
RTVSPost2010PropOp57
 70
     1
102
RTVSPropertyOp0
 70
     1
102
RTVSPropertyOp1
 70
     1
102
RTVSPropertyOp2
 70
     1
102
RTVSPropertyOp3
 70
     1
102
RTVSPropertyOp4
 70
     1
102
RTVSPropertyOp5
 70
     1
102
RTVSPropertyOp6
 70
     1
102
RTVSPropertyOp7
 70
     1
102
RTVSPropertyOp8
 70
     1
102
RTVSPropertyOp9
 70
     1
102
RTVSPropertyOp10
 70
     1
102
RTVSPropertyOp11
 70
     1
102
RTVSPropertyOp12
 70
     1
102
RTVSPropertyOp13
 70
     1
102
RTVSPropertyOp14
 70
     1
102
RTVSPropertyOp15
 70
     1
102
RTVSPropertyOp16
 70
     1
102
RTVSPropertyOp17
 70
     1
102
RTVSPropertyOp18
 70
     1
102
RTVSPropertyOp19
 70
     1
102
RTVSPropertyOp20
 70
     1
102
RTVSPropertyOp21
 70
     1
102
RTVSPropertyOp22
 70
     1
102
RTVSPropertyOp23
 70
     1
102
RTVSPropertyOp24
 70
     1
102
RTVSPropertyOp25
 70
     1
102
RTVSPropertyOp26
 70
     1
102
RTVSPropertyOp27
 70
     1
102
RTVSPropertyOp28
 70
     1
102
RTVSPropertyOp29
 70
     1
102
RTVSPropertyOp30
 70
     1
102
RTVSPropertyOp31
 70
     1
102
RTVSPropertyOp32
 70
     1
102
RTVSPropertyOp33
 70
     1
102
RTVSPropertyOp34
 70
     1
102
RTVSPropertyOp35
 70
     1
102
RTVSPropertyOp36
 70
     1
102
RTVSPropertyOp37
 70
     1
102
RTVSPropertyOp38
 70
     1
102
RTVSPropertyOp39
 70
     1
102
RTVSPropertyOp40
 70
     1
102
RTVSPropertyOp41
 70
     1
102
RTVSPropertyOp42
 70
     1
102
RTVSPropertyOp43
 70
     1
102
RTVSPropertyOp44
 70
     1
102
RTVSPropertyOp45
 70
     1
102
RTVSPropertyOp46
 70
     1
102
RTVSPropertyOp47
 70
     1
102
RTVSPropertyOp48
 70
     1
102
RTVSPropertyOp49
 70
     1
102
RTVSPropertyOp50
 70
     1
102
RTVSPropertyOp51
 70
     0
102
RTVSPropertyOp52
 70
     0
102
RTVSPropertyOp53
 70
     1
102
RTVSPropertyOp54
 70
     1
102
RTVSPropertyOp55
 70
     1
102
RTVSPropertyOp56
 70
     1
102
RTVSPropertyOp57
 70
     1
102
RTVSPropertyOp58
 70
     1
102
RTVSPropertyOp59
 70
     1
102
RTVSPropertyOp60
 70
     1
102
RTVSPropertyOp61
 70
     1
102
RTVSPropertyOp62
 70
     1
  0
XRECORD
  5
D809
102
{ACAD_REACTORS
330
D808
102
}
330
D808
100
AcDbXrecord
280
     1
102
RTVSPost2010Prop28
280
     0
102
RTVSPost2010PropOp28
 70
     1
102
RTVSPost2010Prop29
280
     1
102
RTVSPost2010PropOp29
 70
     1
102
RTVSPost2010Prop30
280
     1
102
RTVSPost2010PropOp30
 70
     1
102
RTVSPost2010Prop31
280
     0
102
RTVSPost2010PropOp31
 70
     1
102
RTVSPost2010Prop32
280
     0
102
RTVSPost2010PropOp32
 70
     1
102
RTVSPost2010Prop33
280
     0
102
RTVSPost2010PropOp33
 70
     1
102
RTVSPost2010Prop34
280
     0
102
RTVSPost2010PropOp34
 70
     1
102
RTVSPost2010Prop35
280
     0
102
RTVSPost2010PropOp35
 70
     1
102
RTVSPost2010Prop36
280
     0
102
RTVSPost2010PropOp36
 70
     1
102
RTVSPost2010Prop37
 90
       50
102
RTVSPost2010PropOp37
 70
     1
102
RTVSPost2010Prop38
140
0.0
102
RTVSPost2010PropOp38
 70
     1
102
RTVSPost2010Prop39
140
1.0
102
RTVSPost2010PropOp39
 70
     1
102
RTVSPost2010Prop40
 90
        0
102
RTVSPost2010PropOp40
 70
     1
102
RTVSPost2010Prop41ColorIndex
 90
       18
102
RTVSPost2010Prop41ColorRGB
 90
        0
102
RTVSPost2010PropOp41
 70
     1
102
RTVSPost2010Prop42
 90
       50
102
RTVSPost2010PropOp42
 70
     1
102
RTVSPost2010Prop43
 90
        3
102
RTVSPost2010PropOp43
 70
     1
102
RTVSPost2010Prop44ColorIndex
 90
        5
102
RTVSPost2010Prop44ColorRGB
 90
      255
102
RTVSPost2010PropOp44
 70
     1
102
RTVSPost2010Prop45
280
     0
102
RTVSPost2010PropOp45
 70
     1
102
RTVSPost2010Prop46
 90
       50
102
RTVSPost2010PropOp46
 70
     1
102
RTVSPost2010Prop47
 90
       50
102
RTVSPost2010PropOp47
 70
     1
102
RTVSPost2010Prop48
 90
       50
102
RTVSPost2010PropOp48
 70
     1
102
RTVSPost2010Prop49
280
     0
102
RTVSPost2010PropOp49
 70
     1
102
RTVSPost2010Prop50
 90
       50
102
RTVSPost2010PropOp50
 70
     1
102
RTVSPost2010Prop51ColorIndex
 90
      256
102
RTVSPost2010Prop51ColorRGB
 90
-16777216
102
RTVSPost2010PropOp51
 70
     0
102
RTVSPost2010Prop52
140
1.0
102
RTVSPost2010PropOp52
 70
     0
102
RTVSPost2010Prop53
 90
        2
102
RTVSPost2010PropOp53
 70
     1
102
RTVSPost2010Prop54
  1
strokes_ogs.tif
102
RTVSPost2010PropOp54
 70
     1
102
RTVSPost2010Prop55
280
     0
102
RTVSPost2010PropOp55
 70
     1
102
RTVSPost2010Prop56
140
1.0
102
RTVSPost2010PropOp56
 70
     1
102
RTVSPost2010Prop57
140
1.0
102
RTVSPost2010PropOp57
 70
     1
102
RTVSPropertyOp0
 70
     1
102
RTVSPropertyOp1
 70
     1
102
RTVSPropertyOp2
 70
     1
102
RTVSPropertyOp3
 70
     1
102
RTVSPropertyOp4
 70
     1
102
RTVSPropertyOp5
 70
     1
102
RTVSPropertyOp6
 70
     1
102
RTVSPropertyOp7
 70
     1
102
RTVSPropertyOp8
 70
     1
102
RTVSPropertyOp9
 70
     1
102
RTVSPropertyOp10
 70
     1
102
RTVSPropertyOp11
 70
     1
102
RTVSPropertyOp12
 70
     1
102
RTVSPropertyOp13
 70
     1
102
RTVSPropertyOp14
 70
     1
102
RTVSPropertyOp15
 70
     1
102
RTVSPropertyOp16
 70
     1
102
RTVSPropertyOp17
 70
     1
102
RTVSPropertyOp18
 70
     1
102
RTVSPropertyOp19
 70
     1
102
RTVSPropertyOp20
 70
     1
102
RTVSPropertyOp21
 70
     1
102
RTVSPropertyOp22
 70
     1
102
RTVSPropertyOp23
 70
     1
102
RTVSPropertyOp24
 70
     1
102
RTVSPropertyOp25
 70
     1
102
RTVSPropertyOp26
 70
     1
102
RTVSPropertyOp27
 70
     1
102
RTVSPropertyOp28
 70
     1
102
RTVSPropertyOp29
 70
     1
102
RTVSPropertyOp30
 70
     1
102
RTVSPropertyOp31
 70
     1
102
RTVSPropertyOp32
 70
     1
102
RTVSPropertyOp33
 70
     1
102
RTVSPropertyOp34
 70
     1
102
RTVSPropertyOp35
 70
     1
102
RTVSPropertyOp36
 70
     1
102
RTVSPropertyOp37
 70
     1
102
RTVSPropertyOp38
 70
     1
102
RTVSPropertyOp39
 70
     1
102
RTVSPropertyOp40
 70
     1
102
RTVSPropertyOp41
 70
     1
102
RTVSPropertyOp42
 70
     1
102
RTVSPropertyOp43
 70
     1
102
RTVSPropertyOp44
 70
     1
102
RTVSPropertyOp45
 70
     1
102
RTVSPropertyOp46
 70
     1
102
RTVSPropertyOp47
 70
     1
102
RTVSPropertyOp48
 70
     1
102
RTVSPropertyOp49
 70
     1
102
RTVSPropertyOp50
 70
     1
102
RTVSPropertyOp51
 70
     0
102
RTVSPropertyOp52
 70
     0
102
RTVSPropertyOp53
 70
     1
102
RTVSPropertyOp54
 70
     1
102
RTVSPropertyOp55
 70
     1
102
RTVSPropertyOp56
 70
     1
102
RTVSPropertyOp57
 70
     1
102
RTVSPropertyOp58
 70
     1
102
RTVSPropertyOp59
 70
     1
102
RTVSPropertyOp60
 70
     1
102
RTVSPropertyOp61
 70
     1
102
RTVSPropertyOp62
 70
     1
  0
XRECORD
  5
D7FB
102
{ACAD_REACTORS
330
D7FA
102
}
330
D7FA
100
AcDbXrecord
280
     1
102
RTVSPost2010Prop28
280
     0
102
RTVSPost2010PropOp28
 70
     1
102
RTVSPost2010Prop29
280
     1
102
RTVSPost2010PropOp29
 70
     1
102
RTVSPost2010Prop30
280
     1
102
RTVSPost2010PropOp30
 70
     1
102
RTVSPost2010Prop31
280
     0
102
RTVSPost2010PropOp31
 70
     1
102
RTVSPost2010Prop32
280
     0
102
RTVSPost2010PropOp32
 70
     1
102
RTVSPost2010Prop33
280
     0
102
RTVSPost2010PropOp33
 70
     1
102
RTVSPost2010Prop34
280
     0
102
RTVSPost2010PropOp34
 70
     1
102
RTVSPost2010Prop35
280
     0
102
RTVSPost2010PropOp35
 70
     1
102
RTVSPost2010Prop36
280
     0
102
RTVSPost2010PropOp36
 70
     1
102
RTVSPost2010Prop37
 90
       50
102
RTVSPost2010PropOp37
 70
     1
102
RTVSPost2010Prop38
140
0.0
102
RTVSPost2010PropOp38
 70
     1
102
RTVSPost2010Prop39
140
1.0
102
RTVSPost2010PropOp39
 70
     1
102
RTVSPost2010Prop40
 90
        0
102
RTVSPost2010PropOp40
 70
     1
102
RTVSPost2010Prop41ColorIndex
 90
       18
102
RTVSPost2010Prop41ColorRGB
 90
        0
102
RTVSPost2010PropOp41
 70
     1
102
RTVSPost2010Prop42
 90
       50
102
RTVSPost2010PropOp42
 70
     1
102
RTVSPost2010Prop43
 90
        3
102
RTVSPost2010PropOp43
 70
     1
102
RTVSPost2010Prop44ColorIndex
 90
        5
102
RTVSPost2010Prop44ColorRGB
 90
      255
102
RTVSPost2010PropOp44
 70
     1
102
RTVSPost2010Prop45
280
     0
102
RTVSPost2010PropOp45
 70
     1
102
RTVSPost2010Prop46
 90
       50
102
RTVSPost2010PropOp46
 70
     1
102
RTVSPost2010Prop47
 90
       50
102
RTVSPost2010PropOp47
 70
     1
102
RTVSPost2010Prop48
 90
       50
102
RTVSPost2010PropOp48
 70
     1
102
RTVSPost2010Prop49
280
     0
102
RTVSPost2010PropOp49
 70
     1
102
RTVSPost2010Prop50
 90
       50
102
RTVSPost2010PropOp50
 70
     1
102
RTVSPost2010Prop51ColorIndex
 90
      256
102
RTVSPost2010Prop51ColorRGB
 90
-16777216
102
RTVSPost2010PropOp51
 70
     0
102
RTVSPost2010Prop52
140
1.0
102
RTVSPost2010PropOp52
 70
     0
102
RTVSPost2010Prop53
 90
        2
102
RTVSPost2010PropOp53
 70
     1
102
RTVSPost2010Prop54
  1
strokes_ogs.tif
102
RTVSPost2010PropOp54
 70
     1
102
RTVSPost2010Prop55
280
     0
102
RTVSPost2010PropOp55
 70
     1
102
RTVSPost2010Prop56
140
1.0
102
RTVSPost2010PropOp56
 70
     1
102
RTVSPost2010Prop57
140
1.0
102
RTVSPost2010PropOp57
 70
     1
102
RTVSPropertyOp0
 70
     1
102
RTVSPropertyOp1
 70
     1
102
RTVSPropertyOp2
 70
     1
102
RTVSPropertyOp3
 70
     1
102
RTVSPropertyOp4
 70
     1
102
RTVSPropertyOp5
 70
     1
102
RTVSPropertyOp6
 70
     1
102
RTVSPropertyOp7
 70
     1
102
RTVSPropertyOp8
 70
     1
102
RTVSPropertyOp9
 70
     1
102
RTVSPropertyOp10
 70
     1
102
RTVSPropertyOp11
 70
     1
102
RTVSPropertyOp12
 70
     1
102
RTVSPropertyOp13
 70
     1
102
RTVSPropertyOp14
 70
     1
102
RTVSPropertyOp15
 70
     1
102
RTVSPropertyOp16
 70
     1
102
RTVSPropertyOp17
 70
     1
102
RTVSPropertyOp18
 70
     1
102
RTVSPropertyOp19
 70
     1
102
RTVSPropertyOp20
 70
     1
102
RTVSPropertyOp21
 70
     1
102
RTVSPropertyOp22
 70
     1
102
RTVSPropertyOp23
 70
     1
102
RTVSPropertyOp24
 70
     1
102
RTVSPropertyOp25
 70
     1
102
RTVSPropertyOp26
 70
     1
102
RTVSPropertyOp27
 70
     1
102
RTVSPropertyOp28
 70
     1
102
RTVSPropertyOp29
 70
     1
102
RTVSPropertyOp30
 70
     1
102
RTVSPropertyOp31
 70
     1
102
RTVSPropertyOp32
 70
     1
102
RTVSPropertyOp33
 70
     1
102
RTVSPropertyOp34
 70
     1
102
RTVSPropertyOp35
 70
     1
102
RTVSPropertyOp36
 70
     1
102
RTVSPropertyOp37
 70
     1
102
RTVSPropertyOp38
 70
     1
102
RTVSPropertyOp39
 70
     1
102
RTVSPropertyOp40
 70
     1
102
RTVSPropertyOp41
 70
     1
102
RTVSPropertyOp42
 70
     1
102
RTVSPropertyOp43
 70
     1
102
RTVSPropertyOp44
 70
     1
102
RTVSPropertyOp45
 70
     1
102
RTVSPropertyOp46
 70
     1
102
RTVSPropertyOp47
 70
     1
102
RTVSPropertyOp48
 70
     1
102
RTVSPropertyOp49
 70
     1
102
RTVSPropertyOp50
 70
     1
102
RTVSPropertyOp51
 70
     0
102
RTVSPropertyOp52
 70
     0
102
RTVSPropertyOp53
 70
     1
102
RTVSPropertyOp54
 70
     1
102
RTVSPropertyOp55
 70
     1
102
RTVSPropertyOp56
 70
     1
102
RTVSPropertyOp57
 70
     1
102
RTVSPropertyOp58
 70
     1
102
RTVSPropertyOp59
 70
     1
102
RTVSPropertyOp60
 70
     1
102
RTVSPropertyOp61
 70
     1
102
RTVSPropertyOp62
 70
     1
  0
XRECORD
  5
D7FF
102
{ACAD_REACTORS
330
D7FE
102
}
330
D7FE
100
AcDbXrecord
280
     1
102
RTVSPost2010Prop28
280
     0
102
RTVSPost2010PropOp28
 70
     1
102
RTVSPost2010Prop29
280
     1
102
RTVSPost2010PropOp29
 70
     1
102
RTVSPost2010Prop30
280
     1
102
RTVSPost2010PropOp30
 70
     1
102
RTVSPost2010Prop31
280
     0
102
RTVSPost2010PropOp31
 70
     1
102
RTVSPost2010Prop32
280
     0
102
RTVSPost2010PropOp32
 70
     1
102
RTVSPost2010Prop33
280
     0
102
RTVSPost2010PropOp33
 70
     1
102
RTVSPost2010Prop34
280
     0
102
RTVSPost2010PropOp34
 70
     1
102
RTVSPost2010Prop35
280
     0
102
RTVSPost2010PropOp35
 70
     1
102
RTVSPost2010Prop36
280
     0
102
RTVSPost2010PropOp36
 70
     1
102
RTVSPost2010Prop37
 90
       50
102
RTVSPost2010PropOp37
 70
     1
102
RTVSPost2010Prop38
140
0.0
102
RTVSPost2010PropOp38
 70
     1
102
RTVSPost2010Prop39
140
1.0
102
RTVSPost2010PropOp39
 70
     1
102
RTVSPost2010Prop40
 90
        0
102
RTVSPost2010PropOp40
 70
     1
102
RTVSPost2010Prop41ColorIndex
 90
       18
102
RTVSPost2010Prop41ColorRGB
 90
        0
102
RTVSPost2010PropOp41
 70
     1
102
RTVSPost2010Prop42
 90
       50
102
RTVSPost2010PropOp42
 70
     1
102
RTVSPost2010Prop43
 90
        3
102
RTVSPost2010PropOp43
 70
     1
102
RTVSPost2010Prop44ColorIndex
 90
        5
102
RTVSPost2010Prop44ColorRGB
 90
      255
102
RTVSPost2010PropOp44
 70
     1
102
RTVSPost2010Prop45
280
     0
102
RTVSPost2010PropOp45
 70
     1
102
RTVSPost2010Prop46
 90
       50
102
RTVSPost2010PropOp46
 70
     1
102
RTVSPost2010Prop47
 90
       50
102
RTVSPost2010PropOp47
 70
     1
102
RTVSPost2010Prop48
 90
       50
102
RTVSPost2010PropOp48
 70
     1
102
RTVSPost2010Prop49
280
     0
102
RTVSPost2010PropOp49
 70
     1
102
RTVSPost2010Prop50
 90
       50
102
RTVSPost2010PropOp50
 70
     1
102
RTVSPost2010Prop51ColorIndex
 90
      256
102
RTVSPost2010Prop51ColorRGB
 90
-16777216
102
RTVSPost2010PropOp51
 70
     0
102
RTVSPost2010Prop52
140
1.0
102
RTVSPost2010PropOp52
 70
     0
102
RTVSPost2010Prop53
 90
        2
102
RTVSPost2010PropOp53
 70
     1
102
RTVSPost2010Prop54
  1
strokes_ogs.tif
102
RTVSPost2010PropOp54
 70
     1
102
RTVSPost2010Prop55
280
     0
102
RTVSPost2010PropOp55
 70
     1
102
RTVSPost2010Prop56
140
1.0
102
RTVSPost2010PropOp56
 70
     1
102
RTVSPost2010Prop57
140
1.0
102
RTVSPost2010PropOp57
 70
     1
102
RTVSPropertyOp0
 70
     1
102
RTVSPropertyOp1
 70
     1
102
RTVSPropertyOp2
 70
     1
102
RTVSPropertyOp3
 70
     1
102
RTVSPropertyOp4
 70
     1
102
RTVSPropertyOp5
 70
     1
102
RTVSPropertyOp6
 70
     1
102
RTVSPropertyOp7
 70
     1
102
RTVSPropertyOp8
 70
     1
102
RTVSPropertyOp9
 70
     1
102
RTVSPropertyOp10
 70
     1
102
RTVSPropertyOp11
 70
     1
102
RTVSPropertyOp12
 70
     1
102
RTVSPropertyOp13
 70
     1
102
RTVSPropertyOp14
 70
     1
102
RTVSPropertyOp15
 70
     1
102
RTVSPropertyOp16
 70
     1
102
RTVSPropertyOp17
 70
     1
102
RTVSPropertyOp18
 70
     1
102
RTVSPropertyOp19
 70
     1
102
RTVSPropertyOp20
 70
     1
102
RTVSPropertyOp21
 70
     1
102
RTVSPropertyOp22
 70
     1
102
RTVSPropertyOp23
 70
     1
102
RTVSPropertyOp24
 70
     1
102
RTVSPropertyOp25
 70
     1
102
RTVSPropertyOp26
 70
     1
102
RTVSPropertyOp27
 70
     1
102
RTVSPropertyOp28
 70
     1
102
RTVSPropertyOp29
 70
     1
102
RTVSPropertyOp30
 70
     1
102
RTVSPropertyOp31
 70
     1
102
RTVSPropertyOp32
 70
     1
102
RTVSPropertyOp33
 70
     1
102
RTVSPropertyOp34
 70
     1
102
RTVSPropertyOp35
 70
     1
102
RTVSPropertyOp36
 70
     1
102
RTVSPropertyOp37
 70
     1
102
RTVSPropertyOp38
 70
     1
102
RTVSPropertyOp39
 70
     1
102
RTVSPropertyOp40
 70
     1
102
RTVSPropertyOp41
 70
     1
102
RTVSPropertyOp42
 70
     1
102
RTVSPropertyOp43
 70
     1
102
RTVSPropertyOp44
 70
     1
102
RTVSPropertyOp45
 70
     1
102
RTVSPropertyOp46
 70
     1
102
RTVSPropertyOp47
 70
     1
102
RTVSPropertyOp48
 70
     1
102
RTVSPropertyOp49
 70
     1
102
RTVSPropertyOp50
 70
     1
102
RTVSPropertyOp51
 70
     0
102
RTVSPropertyOp52
 70
     0
102
RTVSPropertyOp53
 70
     1
102
RTVSPropertyOp54
 70
     1
102
RTVSPropertyOp55
 70
     1
102
RTVSPropertyOp56
 70
     1
102
RTVSPropertyOp57
 70
     1
102
RTVSPropertyOp58
 70
     1
102
RTVSPropertyOp59
 70
     1
102
RTVSPropertyOp60
 70
     1
102
RTVSPropertyOp61
 70
     1
102
RTVSPropertyOp62
 70
     1
  0
XRECORD
  5
D819
102
{ACAD_REACTORS
330
D818
102
}
330
D818
100
AcDbXrecord
280
     1
102
RTVSPost2010Prop28
280
     0
102
RTVSPost2010PropOp28
 70
     1
102
RTVSPost2010Prop29
280
     1
102
RTVSPost2010PropOp29
 70
     1
102
RTVSPost2010Prop30
280
     1
102
RTVSPost2010PropOp30
 70
     1
102
RTVSPost2010Prop31
280
     0
102
RTVSPost2010PropOp31
 70
     1
102
RTVSPost2010Prop32
280
     0
102
RTVSPost2010PropOp32
 70
     1
102
RTVSPost2010Prop33
280
     0
102
RTVSPost2010PropOp33
 70
     1
102
RTVSPost2010Prop34
280
     0
102
RTVSPost2010PropOp34
 70
     1
102
RTVSPost2010Prop35
280
     0
102
RTVSPost2010PropOp35
 70
     1
102
RTVSPost2010Prop36
280
     0
102
RTVSPost2010PropOp36
 70
     1
102
RTVSPost2010Prop37
 90
       50
102
RTVSPost2010PropOp37
 70
     0
102
RTVSPost2010Prop38
140
0.0
102
RTVSPost2010PropOp38
 70
     0
102
RTVSPost2010Prop39
140
1.0
102
RTVSPost2010PropOp39
 70
     0
102
RTVSPost2010Prop40
 90
        0
102
RTVSPost2010PropOp40
 70
     0
102
RTVSPost2010Prop41ColorIndex
 90
       18
102
RTVSPost2010Prop41ColorRGB
 90
        0
102
RTVSPost2010PropOp41
 70
     0
102
RTVSPost2010Prop42
 90
       50
102
RTVSPost2010PropOp42
 70
     0
102
RTVSPost2010Prop43
 90
        3
102
RTVSPost2010PropOp43
 70
     0
102
RTVSPost2010Prop44ColorIndex
 90
        5
102
RTVSPost2010Prop44ColorRGB
 90
      255
102
RTVSPost2010PropOp44
 70
     0
102
RTVSPost2010Prop45
280
     0
102
RTVSPost2010PropOp45
 70
     1
102
RTVSPost2010Prop46
 90
       50
102
RTVSPost2010PropOp46
 70
     0
102
RTVSPost2010Prop47
 90
       50
102
RTVSPost2010PropOp47
 70
     0
102
RTVSPost2010Prop48
 90
       50
102
RTVSPost2010PropOp48
 70
     0
102
RTVSPost2010Prop49
280
     0
102
RTVSPost2010PropOp49
 70
     1
102
RTVSPost2010Prop50
 90
       50
102
RTVSPost2010PropOp50
 70
     0
102
RTVSPost2010Prop51ColorIndex
 90
      256
102
RTVSPost2010Prop51ColorRGB
 90
-16777216
102
RTVSPost2010PropOp51
 70
     0
102
RTVSPost2010Prop52
140
1.0
102
RTVSPost2010PropOp52
 70
     0
102
RTVSPost2010Prop53
 90
        2
102
RTVSPost2010PropOp53
 70
     0
102
RTVSPost2010Prop54
  1
strokes_ogs.tif
102
RTVSPost2010PropOp54
 70
     0
102
RTVSPost2010Prop55
280
     0
102
RTVSPost2010PropOp55
 70
     1
102
RTVSPost2010Prop56
140
1.0
102
RTVSPost2010PropOp56
 70
     0
102
RTVSPost2010Prop57
140
1.0
102
RTVSPost2010PropOp57
 70
     0
102
RTVSPropertyOp0
 70
     0
102
RTVSPropertyOp1
 70
     0
102
RTVSPropertyOp2
 70
     0
102
RTVSPropertyOp3
 70
     0
102
RTVSPropertyOp4
 70
     0
102
RTVSPropertyOp5
 70
     0
102
RTVSPropertyOp6
 70
     0
102
RTVSPropertyOp7
 70
     0
102
RTVSPropertyOp8
 70
     0
102
RTVSPropertyOp9
 70
     0
102
RTVSPropertyOp10
 70
     0
102
RTVSPropertyOp11
 70
     0
102
RTVSPropertyOp12
 70
     0
102
RTVSPropertyOp13
 70
     0
102
RTVSPropertyOp14
 70
     2
102
RTVSPropertyOp15
 70
     0
102
RTVSPropertyOp16
 70
     0
102
RTVSPropertyOp17
 70
     0
102
RTVSPropertyOp18
 70
     0
102
RTVSPropertyOp19
 70
     0
102
RTVSPropertyOp20
 70
     0
102
RTVSPropertyOp21
 70
     0
102
RTVSPropertyOp22
 70
     0
102
RTVSPropertyOp23
 70
     0
102
RTVSPropertyOp24
 70
     0
102
RTVSPropertyOp25
 70
     0
102
RTVSPropertyOp26
 70
     0
102
RTVSPropertyOp27
 70
     0
102
RTVSPropertyOp28
 70
     1
102
RTVSPropertyOp29
 70
     1
102
RTVSPropertyOp30
 70
     1
102
RTVSPropertyOp31
 70
     1
102
RTVSPropertyOp32
 70
     1
102
RTVSPropertyOp33
 70
     1
102
RTVSPropertyOp34
 70
     1
102
RTVSPropertyOp35
 70
     1
102
RTVSPropertyOp36
 70
     1
102
RTVSPropertyOp37
 70
     0
102
RTVSPropertyOp38
 70
     0
102
RTVSPropertyOp39
 70
     0
102
RTVSPropertyOp40
 70
     0
102
RTVSPropertyOp41
 70
     0
102
RTVSPropertyOp42
 70
     0
102
RTVSPropertyOp43
 70
     0
102
RTVSPropertyOp44
 70
     0
102
RTVSPropertyOp45
 70
     1
102
RTVSPropertyOp46
 70
     0
102
RTVSPropertyOp47
 70
     0
102
RTVSPropertyOp48
 70
     0
102
RTVSPropertyOp49
 70
     1
102
RTVSPropertyOp50
 70
     0
102
RTVSPropertyOp51
 70
     0
102
RTVSPropertyOp52
 70
     0
102
RTVSPropertyOp53
 70
     0
102
RTVSPropertyOp54
 70
     0
102
RTVSPropertyOp55
 70
     1
102
RTVSPropertyOp56
 70
     0
102
RTVSPropertyOp57
 70
     0
102
RTVSPropertyOp58
 70
     0
102
RTVSPropertyOp59
 70
     0
102
RTVSPropertyOp60
 70
     0
102
RTVSPropertyOp61
 70
     0
102
RTVSPropertyOp62
 70
     0
  0
XRECORD
  5
D807
102
{ACAD_REACTORS
330
D806
102
}
330
D806
100
AcDbXrecord
280
     1
102
RTVSPost2010Prop28
280
     0
102
RTVSPost2010PropOp28
 70
     1
102
RTVSPost2010Prop29
280
     1
102
RTVSPost2010PropOp29
 70
     1
102
RTVSPost2010Prop30
280
     1
102
RTVSPost2010PropOp30
 70
     1
102
RTVSPost2010Prop31
280
     0
102
RTVSPost2010PropOp31
 70
     1
102
RTVSPost2010Prop32
280
     0
102
RTVSPost2010PropOp32
 70
     1
102
RTVSPost2010Prop33
280
     0
102
RTVSPost2010PropOp33
 70
     1
102
RTVSPost2010Prop34
280
     0
102
RTVSPost2010PropOp34
 70
     1
102
RTVSPost2010Prop35
280
     0
102
RTVSPost2010PropOp35
 70
     1
102
RTVSPost2010Prop36
280
     0
102
RTVSPost2010PropOp36
 70
     1
102
RTVSPost2010Prop37
 90
       50
102
RTVSPost2010PropOp37
 70
     1
102
RTVSPost2010Prop38
140
0.0
102
RTVSPost2010PropOp38
 70
     1
102
RTVSPost2010Prop39
140
1.0
102
RTVSPost2010PropOp39
 70
     1
102
RTVSPost2010Prop40
 90
        0
102
RTVSPost2010PropOp40
 70
     1
102
RTVSPost2010Prop41ColorIndex
 90
       18
102
RTVSPost2010Prop41ColorRGB
 90
        0
102
RTVSPost2010PropOp41
 70
     1
102
RTVSPost2010Prop42
 90
       50
102
RTVSPost2010PropOp42
 70
     1
102
RTVSPost2010Prop43
 90
        3
102
RTVSPost2010PropOp43
 70
     1
102
RTVSPost2010Prop44ColorIndex
 90
        5
102
RTVSPost2010Prop44ColorRGB
 90
      255
102
RTVSPost2010PropOp44
 70
     1
102
RTVSPost2010Prop45
280
     0
102
RTVSPost2010PropOp45
 70
     1
102
RTVSPost2010Prop46
 90
       50
102
RTVSPost2010PropOp46
 70
     1
102
RTVSPost2010Prop47
 90
       50
102
RTVSPost2010PropOp47
 70
     1
102
RTVSPost2010Prop48
 90
       50
102
RTVSPost2010PropOp48
 70
     1
102
RTVSPost2010Prop49
280
     0
102
RTVSPost2010PropOp49
 70
     1
102
RTVSPost2010Prop50
 90
       50
102
RTVSPost2010PropOp50
 70
     1
102
RTVSPost2010Prop51ColorIndex
 90
      256
102
RTVSPost2010Prop51ColorRGB
 90
-16777216
102
RTVSPost2010PropOp51
 70
     0
102
RTVSPost2010Prop52
140
1.0
102
RTVSPost2010PropOp52
 70
     0
102
RTVSPost2010Prop53
 90
        2
102
RTVSPost2010PropOp53
 70
     1
102
RTVSPost2010Prop54
  1
strokes_ogs.tif
102
RTVSPost2010PropOp54
 70
     1
102
RTVSPost2010Prop55
280
     0
102
RTVSPost2010PropOp55
 70
     1
102
RTVSPost2010Prop56
140
1.0
102
RTVSPost2010PropOp56
 70
     1
102
RTVSPost2010Prop57
140
1.0
102
RTVSPost2010PropOp57
 70
     1
102
RTVSPropertyOp0
 70
     1
102
RTVSPropertyOp1
 70
     1
102
RTVSPropertyOp2
 70
     1
102
RTVSPropertyOp3
 70
     1
102
RTVSPropertyOp4
 70
     1
102
RTVSPropertyOp5
 70
     1
102
RTVSPropertyOp6
 70
     1
102
RTVSPropertyOp7
 70
     1
102
RTVSPropertyOp8
 70
     1
102
RTVSPropertyOp9
 70
     1
102
RTVSPropertyOp10
 70
     1
102
RTVSPropertyOp11
 70
     1
102
RTVSPropertyOp12
 70
     1
102
RTVSPropertyOp13
 70
     1
102
RTVSPropertyOp14
 70
     1
102
RTVSPropertyOp15
 70
     1
102
RTVSPropertyOp16
 70
     1
102
RTVSPropertyOp17
 70
     1
102
RTVSPropertyOp18
 70
     1
102
RTVSPropertyOp19
 70
     1
102
RTVSPropertyOp20
 70
     1
102
RTVSPropertyOp21
 70
     1
102
RTVSPropertyOp22
 70
     1
102
RTVSPropertyOp23
 70
     1
102
RTVSPropertyOp24
 70
     1
102
RTVSPropertyOp25
 70
     1
102
RTVSPropertyOp26
 70
     1
102
RTVSPropertyOp27
 70
     1
102
RTVSPropertyOp28
 70
     1
102
RTVSPropertyOp29
 70
     1
102
RTVSPropertyOp30
 70
     1
102
RTVSPropertyOp31
 70
     1
102
RTVSPropertyOp32
 70
     1
102
RTVSPropertyOp33
 70
     1
102
RTVSPropertyOp34
 70
     1
102
RTVSPropertyOp35
 70
     1
102
RTVSPropertyOp36
 70
     1
102
RTVSPropertyOp37
 70
     1
102
RTVSPropertyOp38
 70
     1
102
RTVSPropertyOp39
 70
     1
102
RTVSPropertyOp40
 70
     1
102
RTVSPropertyOp41
 70
     1
102
RTVSPropertyOp42
 70
     1
102
RTVSPropertyOp43
 70
     1
102
RTVSPropertyOp44
 70
     1
102
RTVSPropertyOp45
 70
     1
102
RTVSPropertyOp46
 70
     1
102
RTVSPropertyOp47
 70
     1
102
RTVSPropertyOp48
 70
     1
102
RTVSPropertyOp49
 70
     1
102
RTVSPropertyOp50
 70
     1
102
RTVSPropertyOp51
 70
     0
102
RTVSPropertyOp52
 70
     0
102
RTVSPropertyOp53
 70
     1
102
RTVSPropertyOp54
 70
     1
102
RTVSPropertyOp55
 70
     1
102
RTVSPropertyOp56
 70
     1
102
RTVSPropertyOp57
 70
     1
102
RTVSPropertyOp58
 70
     1
102
RTVSPropertyOp59
 70
     1
102
RTVSPropertyOp60
 70
     1
102
RTVSPropertyOp61
 70
     1
102
RTVSPropertyOp62
 70
     1
  0
XRECORD
  5
D7EB
102
{ACAD_REACTORS
330
D7EA
102
}
330
D7EA
100
AcDbXrecord
280
     1
102
RTVSPost2010Prop28
280
     0
102
RTVSPost2010PropOp28
 70
     1
102
RTVSPost2010Prop29
280
     1
102
RTVSPost2010PropOp29
 70
     1
102
RTVSPost2010Prop30
280
     1
102
RTVSPost2010PropOp30
 70
     1
102
RTVSPost2010Prop31
280
     0
102
RTVSPost2010PropOp31
 70
     1
102
RTVSPost2010Prop32
280
     0
102
RTVSPost2010PropOp32
 70
     1
102
RTVSPost2010Prop33
280
     0
102
RTVSPost2010PropOp33
 70
     1
102
RTVSPost2010Prop34
280
     0
102
RTVSPost2010PropOp34
 70
     1
102
RTVSPost2010Prop35
280
     0
102
RTVSPost2010PropOp35
 70
     1
102
RTVSPost2010Prop36
280
     0
102
RTVSPost2010PropOp36
 70
     1
102
RTVSPost2010Prop37
 90
       50
102
RTVSPost2010PropOp37
 70
     1
102
RTVSPost2010Prop38
140
0.0
102
RTVSPost2010PropOp38
 70
     1
102
RTVSPost2010Prop39
140
1.0
102
RTVSPost2010PropOp39
 70
     1
102
RTVSPost2010Prop40
 90
        0
102
RTVSPost2010PropOp40
 70
     1
102
RTVSPost2010Prop41ColorIndex
 90
       18
102
RTVSPost2010Prop41ColorRGB
 90
        0
102
RTVSPost2010PropOp41
 70
     1
102
RTVSPost2010Prop42
 90
       50
102
RTVSPost2010PropOp42
 70
     1
102
RTVSPost2010Prop43
 90
        3
102
RTVSPost2010PropOp43
 70
     1
102
RTVSPost2010Prop44ColorIndex
 90
        5
102
RTVSPost2010Prop44ColorRGB
 90
      255
102
RTVSPost2010PropOp44
 70
     1
102
RTVSPost2010Prop45
280
     0
102
RTVSPost2010PropOp45
 70
     1
102
RTVSPost2010Prop46
 90
       50
102
RTVSPost2010PropOp46
 70
     1
102
RTVSPost2010Prop47
 90
       50
102
RTVSPost2010PropOp47
 70
     1
102
RTVSPost2010Prop48
 90
       50
102
RTVSPost2010PropOp48
 70
     1
102
RTVSPost2010Prop49
280
     0
102
RTVSPost2010PropOp49
 70
     1
102
RTVSPost2010Prop50
 90
       50
102
RTVSPost2010PropOp50
 70
     1
102
RTVSPost2010Prop51ColorIndex
 90
      256
102
RTVSPost2010Prop51ColorRGB
 90
-16777216
102
RTVSPost2010PropOp51
 70
     0
102
RTVSPost2010Prop52
140
1.0
102
RTVSPost2010PropOp52
 70
     0
102
RTVSPost2010Prop53
 90
        2
102
RTVSPost2010PropOp53
 70
     1
102
RTVSPost2010Prop54
  1
strokes_ogs.tif
102
RTVSPost2010PropOp54
 70
     1
102
RTVSPost2010Prop55
280
     0
102
RTVSPost2010PropOp55
 70
     1
102
RTVSPost2010Prop56
140
1.0
102
RTVSPost2010PropOp56
 70
     1
102
RTVSPost2010Prop57
140
1.0
102
RTVSPost2010PropOp57
 70
     1
102
RTVSPropertyOp0
 70
     1
102
RTVSPropertyOp1
 70
     1
102
RTVSPropertyOp2
 70
     1
102
RTVSPropertyOp3
 70
     1
102
RTVSPropertyOp4
 70
     1
102
RTVSPropertyOp5
 70
     1
102
RTVSPropertyOp6
 70
     1
102
RTVSPropertyOp7
 70
     1
102
RTVSPropertyOp8
 70
     1
102
RTVSPropertyOp9
 70
     1
102
RTVSPropertyOp10
 70
     1
102
RTVSPropertyOp11
 70
     1
102
RTVSPropertyOp12
 70
     1
102
RTVSPropertyOp13
 70
     1
102
RTVSPropertyOp14
 70
     1
102
RTVSPropertyOp15
 70
     1
102
RTVSPropertyOp16
 70
     1
102
RTVSPropertyOp17
 70
     1
102
RTVSPropertyOp18
 70
     1
102
RTVSPropertyOp19
 70
     1
102
RTVSPropertyOp20
 70
     1
102
RTVSPropertyOp21
 70
     1
102
RTVSPropertyOp22
 70
     1
102
RTVSPropertyOp23
 70
     1
102
RTVSPropertyOp24
 70
     1
102
RTVSPropertyOp25
 70
     1
102
RTVSPropertyOp26
 70
     1
102
RTVSPropertyOp27
 70
     1
102
RTVSPropertyOp28
 70
     1
102
RTVSPropertyOp29
 70
     1
102
RTVSPropertyOp30
 70
     1
102
RTVSPropertyOp31
 70
     1
102
RTVSPropertyOp32
 70
     1
102
RTVSPropertyOp33
 70
     1
102
RTVSPropertyOp34
 70
     1
102
RTVSPropertyOp35
 70
     1
102
RTVSPropertyOp36
 70
     1
102
RTVSPropertyOp37
 70
     1
102
RTVSPropertyOp38
 70
     1
102
RTVSPropertyOp39
 70
     1
102
RTVSPropertyOp40
 70
     1
102
RTVSPropertyOp41
 70
     1
102
RTVSPropertyOp42
 70
     1
102
RTVSPropertyOp43
 70
     1
102
RTVSPropertyOp44
 70
     1
102
RTVSPropertyOp45
 70
     1
102
RTVSPropertyOp46
 70
     1
102
RTVSPropertyOp47
 70
     1
102
RTVSPropertyOp48
 70
     1
102
RTVSPropertyOp49
 70
     1
102
RTVSPropertyOp50
 70
     1
102
RTVSPropertyOp51
 70
     0
102
RTVSPropertyOp52
 70
     0
102
RTVSPropertyOp53
 70
     1
102
RTVSPropertyOp54
 70
     1
102
RTVSPropertyOp55
 70
     1
102
RTVSPropertyOp56
 70
     1
102
RTVSPropertyOp57
 70
     1
102
RTVSPropertyOp58
 70
     1
102
RTVSPropertyOp59
 70
     1
102
RTVSPropertyOp60
 70
     1
102
RTVSPropertyOp61
 70
     1
102
RTVSPropertyOp62
 70
     1
  0
XRECORD
  5
D7ED
102
{ACAD_REACTORS
330
D7EC
102
}
330
D7EC
100
AcDbXrecord
280
     1
102
RTVSPost2010Prop28
280
     0
102
RTVSPost2010PropOp28
 70
     1
102
RTVSPost2010Prop29
280
     1
102
RTVSPost2010PropOp29
 70
     1
102
RTVSPost2010Prop30
280
     1
102
RTVSPost2010PropOp30
 70
     1
102
RTVSPost2010Prop31
280
     0
102
RTVSPost2010PropOp31
 70
     1
102
RTVSPost2010Prop32
280
     0
102
RTVSPost2010PropOp32
 70
     1
102
RTVSPost2010Prop33
280
     0
102
RTVSPost2010PropOp33
 70
     1
102
RTVSPost2010Prop34
280
     0
102
RTVSPost2010PropOp34
 70
     1
102
RTVSPost2010Prop35
280
     0
102
RTVSPost2010PropOp35
 70
     1
102
RTVSPost2010Prop36
280
     0
102
RTVSPost2010PropOp36
 70
     1
102
RTVSPost2010Prop37
 90
       50
102
RTVSPost2010PropOp37
 70
     1
102
RTVSPost2010Prop38
140
0.0
102
RTVSPost2010PropOp38
 70
     1
102
RTVSPost2010Prop39
140
1.0
102
RTVSPost2010PropOp39
 70
     1
102
RTVSPost2010Prop40
 90
        0
102
RTVSPost2010PropOp40
 70
     1
102
RTVSPost2010Prop41ColorIndex
 90
       18
102
RTVSPost2010Prop41ColorRGB
 90
        0
102
RTVSPost2010PropOp41
 70
     1
102
RTVSPost2010Prop42
 90
       50
102
RTVSPost2010PropOp42
 70
     1
102
RTVSPost2010Prop43
 90
        3
102
RTVSPost2010PropOp43
 70
     1
102
RTVSPost2010Prop44ColorIndex
 90
        5
102
RTVSPost2010Prop44ColorRGB
 90
      255
102
RTVSPost2010PropOp44
 70
     1
102
RTVSPost2010Prop45
280
     0
102
RTVSPost2010PropOp45
 70
     1
102
RTVSPost2010Prop46
 90
       50
102
RTVSPost2010PropOp46
 70
     1
102
RTVSPost2010Prop47
 90
       50
102
RTVSPost2010PropOp47
 70
     1
102
RTVSPost2010Prop48
 90
       50
102
RTVSPost2010PropOp48
 70
     1
102
RTVSPost2010Prop49
280
     0
102
RTVSPost2010PropOp49
 70
     1
102
RTVSPost2010Prop50
 90
       50
102
RTVSPost2010PropOp50
 70
     1
102
RTVSPost2010Prop51ColorIndex
 90
      256
102
RTVSPost2010Prop51ColorRGB
 90
-16777216
102
RTVSPost2010PropOp51
 70
     0
102
RTVSPost2010Prop52
140
1.0
102
RTVSPost2010PropOp52
 70
     0
102
RTVSPost2010Prop53
 90
        2
102
RTVSPost2010PropOp53
 70
     1
102
RTVSPost2010Prop54
  1
strokes_ogs.tif
102
RTVSPost2010PropOp54
 70
     1
102
RTVSPost2010Prop55
280
     0
102
RTVSPost2010PropOp55
 70
     1
102
RTVSPost2010Prop56
140
1.0
102
RTVSPost2010PropOp56
 70
     1
102
RTVSPost2010Prop57
140
1.0
102
RTVSPost2010PropOp57
 70
     1
102
RTVSPropertyOp0
 70
     1
102
RTVSPropertyOp1
 70
     1
102
RTVSPropertyOp2
 70
     1
102
RTVSPropertyOp3
 70
     1
102
RTVSPropertyOp4
 70
     1
102
RTVSPropertyOp5
 70
     1
102
RTVSPropertyOp6
 70
     1
102
RTVSPropertyOp7
 70
     1
102
RTVSPropertyOp8
 70
     1
102
RTVSPropertyOp9
 70
     1
102
RTVSPropertyOp10
 70
     1
102
RTVSPropertyOp11
 70
     1
102
RTVSPropertyOp12
 70
     1
102
RTVSPropertyOp13
 70
     1
102
RTVSPropertyOp14
 70
     1
102
RTVSPropertyOp15
 70
     1
102
RTVSPropertyOp16
 70
     1
102
RTVSPropertyOp17
 70
     1
102
RTVSPropertyOp18
 70
     1
102
RTVSPropertyOp19
 70
     1
102
RTVSPropertyOp20
 70
     1
102
RTVSPropertyOp21
 70
     1
102
RTVSPropertyOp22
 70
     1
102
RTVSPropertyOp23
 70
     1
102
RTVSPropertyOp24
 70
     1
102
RTVSPropertyOp25
 70
     1
102
RTVSPropertyOp26
 70
     1
102
RTVSPropertyOp27
 70
     1
102
RTVSPropertyOp28
 70
     1
102
RTVSPropertyOp29
 70
     1
102
RTVSPropertyOp30
 70
     1
102
RTVSPropertyOp31
 70
     1
102
RTVSPropertyOp32
 70
     1
102
RTVSPropertyOp33
 70
     1
102
RTVSPropertyOp34
 70
     1
102
RTVSPropertyOp35
 70
     1
102
RTVSPropertyOp36
 70
     1
102
RTVSPropertyOp37
 70
     1
102
RTVSPropertyOp38
 70
     1
102
RTVSPropertyOp39
 70
     1
102
RTVSPropertyOp40
 70
     1
102
RTVSPropertyOp41
 70
     1
102
RTVSPropertyOp42
 70
     1
102
RTVSPropertyOp43
 70
     1
102
RTVSPropertyOp44
 70
     1
102
RTVSPropertyOp45
 70
     1
102
RTVSPropertyOp46
 70
     1
102
RTVSPropertyOp47
 70
     1
102
RTVSPropertyOp48
 70
     1
102
RTVSPropertyOp49
 70
     1
102
RTVSPropertyOp50
 70
     1
102
RTVSPropertyOp51
 70
     0
102
RTVSPropertyOp52
 70
     0
102
RTVSPropertyOp53
 70
     1
102
RTVSPropertyOp54
 70
     1
102
RTVSPropertyOp55
 70
     1
102
RTVSPropertyOp56
 70
     1
102
RTVSPropertyOp57
 70
     1
102
RTVSPropertyOp58
 70
     1
102
RTVSPropertyOp59
 70
     1
102
RTVSPropertyOp60
 70
     1
102
RTVSPropertyOp61
 70
     1
102
RTVSPropertyOp62
 70
     1
  0
XRECORD
  5
D7EF
102
{ACAD_REACTORS
330
D7EE
102
}
330
D7EE
100
AcDbXrecord
280
     1
102
RTVSPost2010Prop28
280
     0
102
RTVSPost2010PropOp28
 70
     1
102
RTVSPost2010Prop29
280
     1
102
RTVSPost2010PropOp29
 70
     1
102
RTVSPost2010Prop30
280
     1
102
RTVSPost2010PropOp30
 70
     1
102
RTVSPost2010Prop31
280
     0
102
RTVSPost2010PropOp31
 70
     1
102
RTVSPost2010Prop32
280
     0
102
RTVSPost2010PropOp32
 70
     1
102
RTVSPost2010Prop33
280
     0
102
RTVSPost2010PropOp33
 70
     1
102
RTVSPost2010Prop34
280
     0
102
RTVSPost2010PropOp34
 70
     1
102
RTVSPost2010Prop35
280
     0
102
RTVSPost2010PropOp35
 70
     1
102
RTVSPost2010Prop36
280
     0
102
RTVSPost2010PropOp36
 70
     1
102
RTVSPost2010Prop37
 90
       50
102
RTVSPost2010PropOp37
 70
     1
102
RTVSPost2010Prop38
140
0.0
102
RTVSPost2010PropOp38
 70
     1
102
RTVSPost2010Prop39
140
1.0
102
RTVSPost2010PropOp39
 70
     1
102
RTVSPost2010Prop40
 90
        0
102
RTVSPost2010PropOp40
 70
     1
102
RTVSPost2010Prop41ColorIndex
 90
       18
102
RTVSPost2010Prop41ColorRGB
 90
        0
102
RTVSPost2010PropOp41
 70
     1
102
RTVSPost2010Prop42
 90
       50
102
RTVSPost2010PropOp42
 70
     1
102
RTVSPost2010Prop43
 90
        3
102
RTVSPost2010PropOp43
 70
     1
102
RTVSPost2010Prop44ColorIndex
 90
        5
102
RTVSPost2010Prop44ColorRGB
 90
      255
102
RTVSPost2010PropOp44
 70
     1
102
RTVSPost2010Prop45
280
     0
102
RTVSPost2010PropOp45
 70
     1
102
RTVSPost2010Prop46
 90
       50
102
RTVSPost2010PropOp46
 70
     1
102
RTVSPost2010Prop47
 90
       50
102
RTVSPost2010PropOp47
 70
     1
102
RTVSPost2010Prop48
 90
       50
102
RTVSPost2010PropOp48
 70
     1
102
RTVSPost2010Prop49
280
     0
102
RTVSPost2010PropOp49
 70
     1
102
RTVSPost2010Prop50
 90
       50
102
RTVSPost2010PropOp50
 70
     1
102
RTVSPost2010Prop51ColorIndex
 90
      256
102
RTVSPost2010Prop51ColorRGB
 90
-16777216
102
RTVSPost2010PropOp51
 70
     0
102
RTVSPost2010Prop52
140
1.0
102
RTVSPost2010PropOp52
 70
     0
102
RTVSPost2010Prop53
 90
        2
102
RTVSPost2010PropOp53
 70
     1
102
RTVSPost2010Prop54
  1
strokes_ogs.tif
102
RTVSPost2010PropOp54
 70
     1
102
RTVSPost2010Prop55
280
     0
102
RTVSPost2010PropOp55
 70
     1
102
RTVSPost2010Prop56
140
1.0
102
RTVSPost2010PropOp56
 70
     1
102
RTVSPost2010Prop57
140
1.0
102
RTVSPost2010PropOp57
 70
     1
102
RTVSPropertyOp0
 70
     1
102
RTVSPropertyOp1
 70
     1
102
RTVSPropertyOp2
 70
     1
102
RTVSPropertyOp3
 70
     1
102
RTVSPropertyOp4
 70
     1
102
RTVSPropertyOp5
 70
     1
102
RTVSPropertyOp6
 70
     1
102
RTVSPropertyOp7
 70
     1
102
RTVSPropertyOp8
 70
     1
102
RTVSPropertyOp9
 70
     1
102
RTVSPropertyOp10
 70
     1
102
RTVSPropertyOp11
 70
     1
102
RTVSPropertyOp12
 70
     1
102
RTVSPropertyOp13
 70
     1
102
RTVSPropertyOp14
 70
     1
102
RTVSPropertyOp15
 70
     1
102
RTVSPropertyOp16
 70
     1
102
RTVSPropertyOp17
 70
     1
102
RTVSPropertyOp18
 70
     1
102
RTVSPropertyOp19
 70
     1
102
RTVSPropertyOp20
 70
     1
102
RTVSPropertyOp21
 70
     1
102
RTVSPropertyOp22
 70
     1
102
RTVSPropertyOp23
 70
     1
102
RTVSPropertyOp24
 70
     1
102
RTVSPropertyOp25
 70
     1
102
RTVSPropertyOp26
 70
     1
102
RTVSPropertyOp27
 70
     1
102
RTVSPropertyOp28
 70
     1
102
RTVSPropertyOp29
 70
     1
102
RTVSPropertyOp30
 70
     1
102
RTVSPropertyOp31
 70
     1
102
RTVSPropertyOp32
 70
     1
102
RTVSPropertyOp33
 70
     1
102
RTVSPropertyOp34
 70
     1
102
RTVSPropertyOp35
 70
     1
102
RTVSPropertyOp36
 70
     1
102
RTVSPropertyOp37
 70
     1
102
RTVSPropertyOp38
 70
     1
102
RTVSPropertyOp39
 70
     1
102
RTVSPropertyOp40
 70
     1
102
RTVSPropertyOp41
 70
     1
102
RTVSPropertyOp42
 70
     1
102
RTVSPropertyOp43
 70
     1
102
RTVSPropertyOp44
 70
     1
102
RTVSPropertyOp45
 70
     1
102
RTVSPropertyOp46
 70
     1
102
RTVSPropertyOp47
 70
     1
102
RTVSPropertyOp48
 70
     1
102
RTVSPropertyOp49
 70
     1
102
RTVSPropertyOp50
 70
     1
102
RTVSPropertyOp51
 70
     0
102
RTVSPropertyOp52
 70
     0
102
RTVSPropertyOp53
 70
     1
102
RTVSPropertyOp54
 70
     1
102
RTVSPropertyOp55
 70
     1
102
RTVSPropertyOp56
 70
     1
102
RTVSPropertyOp57
 70
     1
102
RTVSPropertyOp58
 70
     1
102
RTVSPropertyOp59
 70
     1
102
RTVSPropertyOp60
 70
     1
102
RTVSPropertyOp61
 70
     1
102
RTVSPropertyOp62
 70
     1
  0
XRECORD
  5
D7F1
102
{ACAD_REACTORS
330
D7F0
102
}
330
D7F0
100
AcDbXrecord
280
     1
102
RTVSPost2010Prop28
280
     0
102
RTVSPost2010PropOp28
 70
     1
102
RTVSPost2010Prop29
280
     1
102
RTVSPost2010PropOp29
 70
     1
102
RTVSPost2010Prop30
280
     1
102
RTVSPost2010PropOp30
 70
     1
102
RTVSPost2010Prop31
280
     0
102
RTVSPost2010PropOp31
 70
     1
102
RTVSPost2010Prop32
280
     0
102
RTVSPost2010PropOp32
 70
     1
102
RTVSPost2010Prop33
280
     0
102
RTVSPost2010PropOp33
 70
     1
102
RTVSPost2010Prop34
280
     0
102
RTVSPost2010PropOp34
 70
     1
102
RTVSPost2010Prop35
280
     0
102
RTVSPost2010PropOp35
 70
     1
102
RTVSPost2010Prop36
280
     0
102
RTVSPost2010PropOp36
 70
     1
102
RTVSPost2010Prop37
 90
       50
102
RTVSPost2010PropOp37
 70
     1
102
RTVSPost2010Prop38
140
0.0
102
RTVSPost2010PropOp38
 70
     1
102
RTVSPost2010Prop39
140
1.0
102
RTVSPost2010PropOp39
 70
     1
102
RTVSPost2010Prop40
 90
        0
102
RTVSPost2010PropOp40
 70
     1
102
RTVSPost2010Prop41ColorIndex
 90
       18
102
RTVSPost2010Prop41ColorRGB
 90
        0
102
RTVSPost2010PropOp41
 70
     1
102
RTVSPost2010Prop42
 90
       50
102
RTVSPost2010PropOp42
 70
     1
102
RTVSPost2010Prop43
 90
        3
102
RTVSPost2010PropOp43
 70
     1
102
RTVSPost2010Prop44ColorIndex
 90
        5
102
RTVSPost2010Prop44ColorRGB
 90
      255
102
RTVSPost2010PropOp44
 70
     1
102
RTVSPost2010Prop45
280
     0
102
RTVSPost2010PropOp45
 70
     1
102
RTVSPost2010Prop46
 90
       50
102
RTVSPost2010PropOp46
 70
     1
102
RTVSPost2010Prop47
 90
       50
102
RTVSPost2010PropOp47
 70
     1
102
RTVSPost2010Prop48
 90
       50
102
RTVSPost2010PropOp48
 70
     1
102
RTVSPost2010Prop49
280
     0
102
RTVSPost2010PropOp49
 70
     1
102
RTVSPost2010Prop50
 90
       50
102
RTVSPost2010PropOp50
 70
     1
102
RTVSPost2010Prop51ColorIndex
 90
      256
102
RTVSPost2010Prop51ColorRGB
 90
-16777216
102
RTVSPost2010PropOp51
 70
     0
102
RTVSPost2010Prop52
140
1.0
102
RTVSPost2010PropOp52
 70
     0
102
RTVSPost2010Prop53
 90
        2
102
RTVSPost2010PropOp53
 70
     1
102
RTVSPost2010Prop54
  1
strokes_ogs.tif
102
RTVSPost2010PropOp54
 70
     1
102
RTVSPost2010Prop55
280
     0
102
RTVSPost2010PropOp55
 70
     1
102
RTVSPost2010Prop56
140
1.0
102
RTVSPost2010PropOp56
 70
     1
102
RTVSPost2010Prop57
140
1.0
102
RTVSPost2010PropOp57
 70
     1
102
RTVSPropertyOp0
 70
     1
102
RTVSPropertyOp1
 70
     1
102
RTVSPropertyOp2
 70
     1
102
RTVSPropertyOp3
 70
     1
102
RTVSPropertyOp4
 70
     1
102
RTVSPropertyOp5
 70
     1
102
RTVSPropertyOp6
 70
     1
102
RTVSPropertyOp7
 70
     1
102
RTVSPropertyOp8
 70
     1
102
RTVSPropertyOp9
 70
     1
102
RTVSPropertyOp10
 70
     1
102
RTVSPropertyOp11
 70
     1
102
RTVSPropertyOp12
 70
     1
102
RTVSPropertyOp13
 70
     1
102
RTVSPropertyOp14
 70
     1
102
RTVSPropertyOp15
 70
     1
102
RTVSPropertyOp16
 70
     1
102
RTVSPropertyOp17
 70
     1
102
RTVSPropertyOp18
 70
     1
102
RTVSPropertyOp19
 70
     1
102
RTVSPropertyOp20
 70
     1
102
RTVSPropertyOp21
 70
     1
102
RTVSPropertyOp22
 70
     1
102
RTVSPropertyOp23
 70
     1
102
RTVSPropertyOp24
 70
     1
102
RTVSPropertyOp25
 70
     1
102
RTVSPropertyOp26
 70
     1
102
RTVSPropertyOp27
 70
     1
102
RTVSPropertyOp28
 70
     1
102
RTVSPropertyOp29
 70
     1
102
RTVSPropertyOp30
 70
     1
102
RTVSPropertyOp31
 70
     1
102
RTVSPropertyOp32
 70
     1
102
RTVSPropertyOp33
 70
     1
102
RTVSPropertyOp34
 70
     1
102
RTVSPropertyOp35
 70
     1
102
RTVSPropertyOp36
 70
     1
102
RTVSPropertyOp37
 70
     1
102
RTVSPropertyOp38
 70
     1
102
RTVSPropertyOp39
 70
     1
102
RTVSPropertyOp40
 70
     1
102
RTVSPropertyOp41
 70
     1
102
RTVSPropertyOp42
 70
     1
102
RTVSPropertyOp43
 70
     1
102
RTVSPropertyOp44
 70
     1
102
RTVSPropertyOp45
 70
     1
102
RTVSPropertyOp46
 70
     1
102
RTVSPropertyOp47
 70
     1
102
RTVSPropertyOp48
 70
     1
102
RTVSPropertyOp49
 70
     1
102
RTVSPropertyOp50
 70
     1
102
RTVSPropertyOp51
 70
     0
102
RTVSPropertyOp52
 70
     0
102
RTVSPropertyOp53
 70
     1
102
RTVSPropertyOp54
 70
     1
102
RTVSPropertyOp55
 70
     1
102
RTVSPropertyOp56
 70
     1
102
RTVSPropertyOp57
 70
     1
102
RTVSPropertyOp58
 70
     1
102
RTVSPropertyOp59
 70
     1
102
RTVSPropertyOp60
 70
     1
102
RTVSPropertyOp61
 70
     1
102
RTVSPropertyOp62
 70
     1
  0
XRECORD
  5
D7F9
102
{ACAD_REACTORS
330
D7F8
102
}
330
D7F8
100
AcDbXrecord
280
     1
102
RTVSPost2010Prop28
280
     0
102
RTVSPost2010PropOp28
 70
     1
102
RTVSPost2010Prop29
280
     1
102
RTVSPost2010PropOp29
 70
     1
102
RTVSPost2010Prop30
280
     1
102
RTVSPost2010PropOp30
 70
     1
102
RTVSPost2010Prop31
280
     0
102
RTVSPost2010PropOp31
 70
     1
102
RTVSPost2010Prop32
280
     0
102
RTVSPost2010PropOp32
 70
     1
102
RTVSPost2010Prop33
280
     0
102
RTVSPost2010PropOp33
 70
     1
102
RTVSPost2010Prop34
280
     0
102
RTVSPost2010PropOp34
 70
     1
102
RTVSPost2010Prop35
280
     0
102
RTVSPost2010PropOp35
 70
     1
102
RTVSPost2010Prop36
280
     0
102
RTVSPost2010PropOp36
 70
     1
102
RTVSPost2010Prop37
 90
       50
102
RTVSPost2010PropOp37
 70
     1
102
RTVSPost2010Prop38
140
0.0
102
RTVSPost2010PropOp38
 70
     1
102
RTVSPost2010Prop39
140
1.0
102
RTVSPost2010PropOp39
 70
     1
102
RTVSPost2010Prop40
 90
        0
102
RTVSPost2010PropOp40
 70
     1
102
RTVSPost2010Prop41ColorIndex
 90
       18
102
RTVSPost2010Prop41ColorRGB
 90
        0
102
RTVSPost2010PropOp41
 70
     1
102
RTVSPost2010Prop42
 90
       50
102
RTVSPost2010PropOp42
 70
     1
102
RTVSPost2010Prop43
 90
        3
102
RTVSPost2010PropOp43
 70
     1
102
RTVSPost2010Prop44ColorIndex
 90
        5
102
RTVSPost2010Prop44ColorRGB
 90
      255
102
RTVSPost2010PropOp44
 70
     1
102
RTVSPost2010Prop45
280
     0
102
RTVSPost2010PropOp45
 70
     1
102
RTVSPost2010Prop46
 90
       50
102
RTVSPost2010PropOp46
 70
     1
102
RTVSPost2010Prop47
 90
       50
102
RTVSPost2010PropOp47
 70
     1
102
RTVSPost2010Prop48
 90
       50
102
RTVSPost2010PropOp48
 70
     1
102
RTVSPost2010Prop49
280
     0
102
RTVSPost2010PropOp49
 70
     1
102
RTVSPost2010Prop50
 90
       50
102
RTVSPost2010PropOp50
 70
     1
102
RTVSPost2010Prop51ColorIndex
 90
      256
102
RTVSPost2010Prop51ColorRGB
 90
-16777216
102
RTVSPost2010PropOp51
 70
     0
102
RTVSPost2010Prop52
140
1.0
102
RTVSPost2010PropOp52
 70
     0
102
RTVSPost2010Prop53
 90
        2
102
RTVSPost2010PropOp53
 70
     1
102
RTVSPost2010Prop54
  1
strokes_ogs.tif
102
RTVSPost2010PropOp54
 70
     1
102
RTVSPost2010Prop55
280
     0
102
RTVSPost2010PropOp55
 70
     1
102
RTVSPost2010Prop56
140
1.0
102
RTVSPost2010PropOp56
 70
     1
102
RTVSPost2010Prop57
140
1.0
102
RTVSPost2010PropOp57
 70
     1
102
RTVSPropertyOp0
 70
     1
102
RTVSPropertyOp1
 70
     1
102
RTVSPropertyOp2
 70
     1
102
RTVSPropertyOp3
 70
     1
102
RTVSPropertyOp4
 70
     1
102
RTVSPropertyOp5
 70
     1
102
RTVSPropertyOp6
 70
     1
102
RTVSPropertyOp7
 70
     1
102
RTVSPropertyOp8
 70
     1
102
RTVSPropertyOp9
 70
     1
102
RTVSPropertyOp10
 70
     1
102
RTVSPropertyOp11
 70
     1
102
RTVSPropertyOp12
 70
     1
102
RTVSPropertyOp13
 70
     1
102
RTVSPropertyOp14
 70
     1
102
RTVSPropertyOp15
 70
     1
102
RTVSPropertyOp16
 70
     1
102
RTVSPropertyOp17
 70
     1
102
RTVSPropertyOp18
 70
     1
102
RTVSPropertyOp19
 70
     1
102
RTVSPropertyOp20
 70
     1
102
RTVSPropertyOp21
 70
     1
102
RTVSPropertyOp22
 70
     1
102
RTVSPropertyOp23
 70
     1
102
RTVSPropertyOp24
 70
     1
102
RTVSPropertyOp25
 70
     1
102
RTVSPropertyOp26
 70
     1
102
RTVSPropertyOp27
 70
     1
102
RTVSPropertyOp28
 70
     1
102
RTVSPropertyOp29
 70
     1
102
RTVSPropertyOp30
 70
     1
102
RTVSPropertyOp31
 70
     1
102
RTVSPropertyOp32
 70
     1
102
RTVSPropertyOp33
 70
     1
102
RTVSPropertyOp34
 70
     1
102
RTVSPropertyOp35
 70
     1
102
RTVSPropertyOp36
 70
     1
102
RTVSPropertyOp37
 70
     1
102
RTVSPropertyOp38
 70
     1
102
RTVSPropertyOp39
 70
     1
102
RTVSPropertyOp40
 70
     1
102
RTVSPropertyOp41
 70
     1
102
RTVSPropertyOp42
 70
     1
102
RTVSPropertyOp43
 70
     1
102
RTVSPropertyOp44
 70
     1
102
RTVSPropertyOp45
 70
     1
102
RTVSPropertyOp46
 70
     1
102
RTVSPropertyOp47
 70
     1
102
RTVSPropertyOp48
 70
     1
102
RTVSPropertyOp49
 70
     1
102
RTVSPropertyOp50
 70
     1
102
RTVSPropertyOp51
 70
     0
102
RTVSPropertyOp52
 70
     0
102
RTVSPropertyOp53
 70
     1
102
RTVSPropertyOp54
 70
     1
102
RTVSPropertyOp55
 70
     1
102
RTVSPropertyOp56
 70
     1
102
RTVSPropertyOp57
 70
     1
102
RTVSPropertyOp58
 70
     1
102
RTVSPropertyOp59
 70
     1
102
RTVSPropertyOp60
 70
     1
102
RTVSPropertyOp61
 70
     1
102
RTVSPropertyOp62
 70
     1
  0
XRECORD
  5
D815
102
{ACAD_REACTORS
330
D814
102
}
330
D814
100
AcDbXrecord
280
     1
102
RTVSPost2010Prop28
280
     0
102
RTVSPost2010PropOp28
 70
     1
102
RTVSPost2010Prop29
280
     1
102
RTVSPost2010PropOp29
 70
     1
102
RTVSPost2010Prop30
280
     1
102
RTVSPost2010PropOp30
 70
     1
102
RTVSPost2010Prop31
280
     0
102
RTVSPost2010PropOp31
 70
     1
102
RTVSPost2010Prop32
280
     0
102
RTVSPost2010PropOp32
 70
     1
102
RTVSPost2010Prop33
280
     0
102
RTVSPost2010PropOp33
 70
     1
102
RTVSPost2010Prop34
280
     0
102
RTVSPost2010PropOp34
 70
     1
102
RTVSPost2010Prop35
280
     0
102
RTVSPost2010PropOp35
 70
     1
102
RTVSPost2010Prop36
280
     0
102
RTVSPost2010PropOp36
 70
     1
102
RTVSPost2010Prop37
 90
       50
102
RTVSPost2010PropOp37
 70
     0
102
RTVSPost2010Prop38
140
0.0
102
RTVSPost2010PropOp38
 70
     0
102
RTVSPost2010Prop39
140
1.0
102
RTVSPost2010PropOp39
 70
     0
102
RTVSPost2010Prop40
 90
        0
102
RTVSPost2010PropOp40
 70
     0
102
RTVSPost2010Prop41ColorIndex
 90
       18
102
RTVSPost2010Prop41ColorRGB
 90
        0
102
RTVSPost2010PropOp41
 70
     0
102
RTVSPost2010Prop42
 90
       50
102
RTVSPost2010PropOp42
 70
     0
102
RTVSPost2010Prop43
 90
        3
102
RTVSPost2010PropOp43
 70
     0
102
RTVSPost2010Prop44ColorIndex
 90
        5
102
RTVSPost2010Prop44ColorRGB
 90
      255
102
RTVSPost2010PropOp44
 70
     0
102
RTVSPost2010Prop45
280
     0
102
RTVSPost2010PropOp45
 70
     1
102
RTVSPost2010Prop46
 90
       50
102
RTVSPost2010PropOp46
 70
     0
102
RTVSPost2010Prop47
 90
       50
102
RTVSPost2010PropOp47
 70
     0
102
RTVSPost2010Prop48
 90
       50
102
RTVSPost2010PropOp48
 70
     0
102
RTVSPost2010Prop49
280
     0
102
RTVSPost2010PropOp49
 70
     1
102
RTVSPost2010Prop50
 90
       50
102
RTVSPost2010PropOp50
 70
     0
102
RTVSPost2010Prop51ColorIndex
 90
      256
102
RTVSPost2010Prop51ColorRGB
 90
-16777216
102
RTVSPost2010PropOp51
 70
     0
102
RTVSPost2010Prop52
140
1.0
102
RTVSPost2010PropOp52
 70
     0
102
RTVSPost2010Prop53
 90
        2
102
RTVSPost2010PropOp53
 70
     0
102
RTVSPost2010Prop54
  1
strokes_ogs.tif
102
RTVSPost2010PropOp54
 70
     0
102
RTVSPost2010Prop55
280
     0
102
RTVSPost2010PropOp55
 70
     1
102
RTVSPost2010Prop56
140
1.0
102
RTVSPost2010PropOp56
 70
     0
102
RTVSPost2010Prop57
140
1.0
102
RTVSPost2010PropOp57
 70
     0
102
RTVSPropertyOp0
 70
     0
102
RTVSPropertyOp1
 70
     0
102
RTVSPropertyOp2
 70
     0
102
RTVSPropertyOp3
 70
     0
102
RTVSPropertyOp4
 70
     0
102
RTVSPropertyOp5
 70
     0
102
RTVSPropertyOp6
 70
     0
102
RTVSPropertyOp7
 70
     0
102
RTVSPropertyOp8
 70
     0
102
RTVSPropertyOp9
 70
     0
102
RTVSPropertyOp10
 70
     0
102
RTVSPropertyOp11
 70
     0
102
RTVSPropertyOp12
 70
     0
102
RTVSPropertyOp13
 70
     0
102
RTVSPropertyOp14
 70
     2
102
RTVSPropertyOp15
 70
     0
102
RTVSPropertyOp16
 70
     0
102
RTVSPropertyOp17
 70
     0
102
RTVSPropertyOp18
 70
     0
102
RTVSPropertyOp19
 70
     0
102
RTVSPropertyOp20
 70
     0
102
RTVSPropertyOp21
 70
     0
102
RTVSPropertyOp22
 70
     0
102
RTVSPropertyOp23
 70
     0
102
RTVSPropertyOp24
 70
     0
102
RTVSPropertyOp25
 70
     0
102
RTVSPropertyOp26
 70
     0
102
RTVSPropertyOp27
 70
     0
102
RTVSPropertyOp28
 70
     1
102
RTVSPropertyOp29
 70
     1
102
RTVSPropertyOp30
 70
     1
102
RTVSPropertyOp31
 70
     1
102
RTVSPropertyOp32
 70
     1
102
RTVSPropertyOp33
 70
     1
102
RTVSPropertyOp34
 70
     1
102
RTVSPropertyOp35
 70
     1
102
RTVSPropertyOp36
 70
     1
102
RTVSPropertyOp37
 70
     0
102
RTVSPropertyOp38
 70
     0
102
RTVSPropertyOp39
 70
     0
102
RTVSPropertyOp40
 70
     0
102
RTVSPropertyOp41
 70
     0
102
RTVSPropertyOp42
 70
     0
102
RTVSPropertyOp43
 70
     0
102
RTVSPropertyOp44
 70
     0
102
RTVSPropertyOp45
 70
     1
102
RTVSPropertyOp46
 70
     0
102
RTVSPropertyOp47
 70
     0
102
RTVSPropertyOp48
 70
     0
102
RTVSPropertyOp49
 70
     1
102
RTVSPropertyOp50
 70
     0
102
RTVSPropertyOp51
 70
     0
102
RTVSPropertyOp52
 70
     0
102
RTVSPropertyOp53
 70
     0
102
RTVSPropertyOp54
 70
     0
102
RTVSPropertyOp55
 70
     1
102
RTVSPropertyOp56
 70
     0
102
RTVSPropertyOp57
 70
     0
102
RTVSPropertyOp58
 70
     0
102
RTVSPropertyOp59
 70
     0
102
RTVSPropertyOp60
 70
     0
102
RTVSPropertyOp61
 70
     0
102
RTVSPropertyOp62
 70
     0
  0
XRECORD
  5
D805
102
{ACAD_REACTORS
330
D804
102
}
330
D804
100
AcDbXrecord
280
     1
102
RTVSPost2010Prop28
280
     0
102
RTVSPost2010PropOp28
 70
     1
102
RTVSPost2010Prop29
280
     1
102
RTVSPost2010PropOp29
 70
     1
102
RTVSPost2010Prop30
280
     1
102
RTVSPost2010PropOp30
 70
     1
102
RTVSPost2010Prop31
280
     0
102
RTVSPost2010PropOp31
 70
     1
102
RTVSPost2010Prop32
280
     0
102
RTVSPost2010PropOp32
 70
     1
102
RTVSPost2010Prop33
280
     0
102
RTVSPost2010PropOp33
 70
     1
102
RTVSPost2010Prop34
280
     0
102
RTVSPost2010PropOp34
 70
     1
102
RTVSPost2010Prop35
280
     0
102
RTVSPost2010PropOp35
 70
     1
102
RTVSPost2010Prop36
280
     0
102
RTVSPost2010PropOp36
 70
     1
102
RTVSPost2010Prop37
 90
       50
102
RTVSPost2010PropOp37
 70
     1
102
RTVSPost2010Prop38
140
0.0
102
RTVSPost2010PropOp38
 70
     1
102
RTVSPost2010Prop39
140
1.0
102
RTVSPost2010PropOp39
 70
     1
102
RTVSPost2010Prop40
 90
        0
102
RTVSPost2010PropOp40
 70
     1
102
RTVSPost2010Prop41ColorIndex
 90
       18
102
RTVSPost2010Prop41ColorRGB
 90
        0
102
RTVSPost2010PropOp41
 70
     1
102
RTVSPost2010Prop42
 90
       50
102
RTVSPost2010PropOp42
 70
     1
102
RTVSPost2010Prop43
 90
        3
102
RTVSPost2010PropOp43
 70
     1
102
RTVSPost2010Prop44ColorIndex
 90
        5
102
RTVSPost2010Prop44ColorRGB
 90
      255
102
RTVSPost2010PropOp44
 70
     1
102
RTVSPost2010Prop45
280
     0
102
RTVSPost2010PropOp45
 70
     1
102
RTVSPost2010Prop46
 90
       50
102
RTVSPost2010PropOp46
 70
     1
102
RTVSPost2010Prop47
 90
       50
102
RTVSPost2010PropOp47
 70
     1
102
RTVSPost2010Prop48
 90
       50
102
RTVSPost2010PropOp48
 70
     1
102
RTVSPost2010Prop49
280
     0
102
RTVSPost2010PropOp49
 70
     1
102
RTVSPost2010Prop50
 90
       50
102
RTVSPost2010PropOp50
 70
     1
102
RTVSPost2010Prop51ColorIndex
 90
      256
102
RTVSPost2010Prop51ColorRGB
 90
-16777216
102
RTVSPost2010PropOp51
 70
     0
102
RTVSPost2010Prop52
140
1.0
102
RTVSPost2010PropOp52
 70
     0
102
RTVSPost2010Prop53
 90
        2
102
RTVSPost2010PropOp53
 70
     1
102
RTVSPost2010Prop54
  1
strokes_ogs.tif
102
RTVSPost2010PropOp54
 70
     1
102
RTVSPost2010Prop55
280
     0
102
RTVSPost2010PropOp55
 70
     1
102
RTVSPost2010Prop56
140
1.0
102
RTVSPost2010PropOp56
 70
     1
102
RTVSPost2010Prop57
140
1.0
102
RTVSPost2010PropOp57
 70
     1
102
RTVSPropertyOp0
 70
     1
102
RTVSPropertyOp1
 70
     1
102
RTVSPropertyOp2
 70
     1
102
RTVSPropertyOp3
 70
     1
102
RTVSPropertyOp4
 70
     1
102
RTVSPropertyOp5
 70
     1
102
RTVSPropertyOp6
 70
     1
102
RTVSPropertyOp7
 70
     1
102
RTVSPropertyOp8
 70
     1
102
RTVSPropertyOp9
 70
     1
102
RTVSPropertyOp10
 70
     1
102
RTVSPropertyOp11
 70
     1
102
RTVSPropertyOp12
 70
     1
102
RTVSPropertyOp13
 70
     1
102
RTVSPropertyOp14
 70
     1
102
RTVSPropertyOp15
 70
     1
102
RTVSPropertyOp16
 70
     1
102
RTVSPropertyOp17
 70
     1
102
RTVSPropertyOp18
 70
     1
102
RTVSPropertyOp19
 70
     1
102
RTVSPropertyOp20
 70
     1
102
RTVSPropertyOp21
 70
     1
102
RTVSPropertyOp22
 70
     1
102
RTVSPropertyOp23
 70
     1
102
RTVSPropertyOp24
 70
     1
102
RTVSPropertyOp25
 70
     1
102
RTVSPropertyOp26
 70
     1
102
RTVSPropertyOp27
 70
     1
102
RTVSPropertyOp28
 70
     1
102
RTVSPropertyOp29
 70
     1
102
RTVSPropertyOp30
 70
     1
102
RTVSPropertyOp31
 70
     1
102
RTVSPropertyOp32
 70
     1
102
RTVSPropertyOp33
 70
     1
102
RTVSPropertyOp34
 70
     1
102
RTVSPropertyOp35
 70
     1
102
RTVSPropertyOp36
 70
     1
102
RTVSPropertyOp37
 70
     1
102
RTVSPropertyOp38
 70
     1
102
RTVSPropertyOp39
 70
     1
102
RTVSPropertyOp40
 70
     1
102
RTVSPropertyOp41
 70
     1
102
RTVSPropertyOp42
 70
     1
102
RTVSPropertyOp43
 70
     1
102
RTVSPropertyOp44
 70
     1
102
RTVSPropertyOp45
 70
     1
102
RTVSPropertyOp46
 70
     1
102
RTVSPropertyOp47
 70
     1
102
RTVSPropertyOp48
 70
     1
102
RTVSPropertyOp49
 70
     1
102
RTVSPropertyOp50
 70
     1
102
RTVSPropertyOp51
 70
     0
102
RTVSPropertyOp52
 70
     0
102
RTVSPropertyOp53
 70
     1
102
RTVSPropertyOp54
 70
     1
102
RTVSPropertyOp55
 70
     1
102
RTVSPropertyOp56
 70
     1
102
RTVSPropertyOp57
 70
     1
102
RTVSPropertyOp58
 70
     1
102
RTVSPropertyOp59
 70
     1
102
RTVSPropertyOp60
 70
     1
102
RTVSPropertyOp61
 70
     1
102
RTVSPropertyOp62
 70
     1
  0
XRECORD
  5
D817
102
{ACAD_REACTORS
330
D816
102
}
330
D816
100
AcDbXrecord
280
     1
102
RTVSPost2010Prop28
280
     0
102
RTVSPost2010PropOp28
 70
     1
102
RTVSPost2010Prop29
280
     1
102
RTVSPost2010PropOp29
 70
     1
102
RTVSPost2010Prop30
280
     1
102
RTVSPost2010PropOp30
 70
     1
102
RTVSPost2010Prop31
280
     0
102
RTVSPost2010PropOp31
 70
     1
102
RTVSPost2010Prop32
280
     0
102
RTVSPost2010PropOp32
 70
     1
102
RTVSPost2010Prop33
280
     0
102
RTVSPost2010PropOp33
 70
     1
102
RTVSPost2010Prop34
280
     0
102
RTVSPost2010PropOp34
 70
     1
102
RTVSPost2010Prop35
280
     0
102
RTVSPost2010PropOp35
 70
     1
102
RTVSPost2010Prop36
280
     0
102
RTVSPost2010PropOp36
 70
     1
102
RTVSPost2010Prop37
 90
       50
102
RTVSPost2010PropOp37
 70
     0
102
RTVSPost2010Prop38
140
0.0
102
RTVSPost2010PropOp38
 70
     0
102
RTVSPost2010Prop39
140
1.0
102
RTVSPost2010PropOp39
 70
     0
102
RTVSPost2010Prop40
 90
        0
102
RTVSPost2010PropOp40
 70
     0
102
RTVSPost2010Prop41ColorIndex
 90
       18
102
RTVSPost2010Prop41ColorRGB
 90
        0
102
RTVSPost2010PropOp41
 70
     0
102
RTVSPost2010Prop42
 90
       50
102
RTVSPost2010PropOp42
 70
     0
102
RTVSPost2010Prop43
 90
        3
102
RTVSPost2010PropOp43
 70
     0
102
RTVSPost2010Prop44ColorIndex
 90
        5
102
RTVSPost2010Prop44ColorRGB
 90
      255
102
RTVSPost2010PropOp44
 70
     0
102
RTVSPost2010Prop45
280
     0
102
RTVSPost2010PropOp45
 70
     1
102
RTVSPost2010Prop46
 90
       50
102
RTVSPost2010PropOp46
 70
     0
102
RTVSPost2010Prop47
 90
       50
102
RTVSPost2010PropOp47
 70
     0
102
RTVSPost2010Prop48
 90
       50
102
RTVSPost2010PropOp48
 70
     0
102
RTVSPost2010Prop49
280
     0
102
RTVSPost2010PropOp49
 70
     1
102
RTVSPost2010Prop50
 90
       50
102
RTVSPost2010PropOp50
 70
     0
102
RTVSPost2010Prop51ColorIndex
 90
      256
102
RTVSPost2010Prop51ColorRGB
 90
-16777216
102
RTVSPost2010PropOp51
 70
     0
102
RTVSPost2010Prop52
140
1.0
102
RTVSPost2010PropOp52
 70
     0
102
RTVSPost2010Prop53
 90
        2
102
RTVSPost2010PropOp53
 70
     0
102
RTVSPost2010Prop54
  1
strokes_ogs.tif
102
RTVSPost2010PropOp54
 70
     0
102
RTVSPost2010Prop55
280
     0
102
RTVSPost2010PropOp55
 70
     1
102
RTVSPost2010Prop56
140
1.0
102
RTVSPost2010PropOp56
 70
     0
102
RTVSPost2010Prop57
140
1.0
102
RTVSPost2010PropOp57
 70
     0
102
RTVSPropertyOp0
 70
     0
102
RTVSPropertyOp1
 70
     0
102
RTVSPropertyOp2
 70
     0
102
RTVSPropertyOp3
 70
     0
102
RTVSPropertyOp4
 70
     0
102
RTVSPropertyOp5
 70
     0
102
RTVSPropertyOp6
 70
     0
102
RTVSPropertyOp7
 70
     0
102
RTVSPropertyOp8
 70
     0
102
RTVSPropertyOp9
 70
     0
102
RTVSPropertyOp10
 70
     0
102
RTVSPropertyOp11
 70
     0
102
RTVSPropertyOp12
 70
     0
102
RTVSPropertyOp13
 70
     0
102
RTVSPropertyOp14
 70
     2
102
RTVSPropertyOp15
 70
     0
102
RTVSPropertyOp16
 70
     0
102
RTVSPropertyOp17
 70
     0
102
RTVSPropertyOp18
 70
     0
102
RTVSPropertyOp19
 70
     0
102
RTVSPropertyOp20
 70
     0
102
RTVSPropertyOp21
 70
     0
102
RTVSPropertyOp22
 70
     0
102
RTVSPropertyOp23
 70
     0
102
RTVSPropertyOp24
 70
     0
102
RTVSPropertyOp25
 70
     0
102
RTVSPropertyOp26
 70
     0
102
RTVSPropertyOp27
 70
     0
102
RTVSPropertyOp28
 70
     1
102
RTVSPropertyOp29
 70
     1
102
RTVSPropertyOp30
 70
     1
102
RTVSPropertyOp31
 70
     1
102
RTVSPropertyOp32
 70
     1
102
RTVSPropertyOp33
 70
     1
102
RTVSPropertyOp34
 70
     1
102
RTVSPropertyOp35
 70
     1
102
RTVSPropertyOp36
 70
     1
102
RTVSPropertyOp37
 70
     0
102
RTVSPropertyOp38
 70
     0
102
RTVSPropertyOp39
 70
     0
102
RTVSPropertyOp40
 70
     0
102
RTVSPropertyOp41
 70
     0
102
RTVSPropertyOp42
 70
     0
102
RTVSPropertyOp43
 70
     0
102
RTVSPropertyOp44
 70
     0
102
RTVSPropertyOp45
 70
     1
102
RTVSPropertyOp46
 70
     0
102
RTVSPropertyOp47
 70
     0
102
RTVSPropertyOp48
 70
     0
102
RTVSPropertyOp49
 70
     1
102
RTVSPropertyOp50
 70
     0
102
RTVSPropertyOp51
 70
     0
102
RTVSPropertyOp52
 70
     0
102
RTVSPropertyOp53
 70
     0
102
RTVSPropertyOp54
 70
     0
102
RTVSPropertyOp55
 70
     1
102
RTVSPropertyOp56
 70
     0
102
RTVSPropertyOp57
 70
     0
102
RTVSPropertyOp58
 70
     0
102
RTVSPropertyOp59
 70
     0
102
RTVSPropertyOp60
 70
     0
102
RTVSPropertyOp61
 70
     0
102
RTVSPropertyOp62
 70
     0
  0
XRECORD
  5
D7FD
102
{ACAD_REACTORS
330
D7FC
102
}
330
D7FC
100
AcDbXrecord
280
     1
102
RTVSPost2010Prop28
280
     0
102
RTVSPost2010PropOp28
 70
     1
102
RTVSPost2010Prop29
280
     1
102
RTVSPost2010PropOp29
 70
     1
102
RTVSPost2010Prop30
280
     1
102
RTVSPost2010PropOp30
 70
     1
102
RTVSPost2010Prop31
280
     0
102
RTVSPost2010PropOp31
 70
     1
102
RTVSPost2010Prop32
280
     0
102
RTVSPost2010PropOp32
 70
     1
102
RTVSPost2010Prop33
280
     0
102
RTVSPost2010PropOp33
 70
     1
102
RTVSPost2010Prop34
280
     0
102
RTVSPost2010PropOp34
 70
     1
102
RTVSPost2010Prop35
280
     0
102
RTVSPost2010PropOp35
 70
     1
102
RTVSPost2010Prop36
280
     0
102
RTVSPost2010PropOp36
 70
     1
102
RTVSPost2010Prop37
 90
       50
102
RTVSPost2010PropOp37
 70
     1
102
RTVSPost2010Prop38
140
0.0
102
RTVSPost2010PropOp38
 70
     1
102
RTVSPost2010Prop39
140
1.0
102
RTVSPost2010PropOp39
 70
     1
102
RTVSPost2010Prop40
 90
        0
102
RTVSPost2010PropOp40
 70
     1
102
RTVSPost2010Prop41ColorIndex
 90
       18
102
RTVSPost2010Prop41ColorRGB
 90
        0
102
RTVSPost2010PropOp41
 70
     1
102
RTVSPost2010Prop42
 90
       50
102
RTVSPost2010PropOp42
 70
     1
102
RTVSPost2010Prop43
 90
        3
102
RTVSPost2010PropOp43
 70
     1
102
RTVSPost2010Prop44ColorIndex
 90
        5
102
RTVSPost2010Prop44ColorRGB
 90
      255
102
RTVSPost2010PropOp44
 70
     1
102
RTVSPost2010Prop45
280
     0
102
RTVSPost2010PropOp45
 70
     1
102
RTVSPost2010Prop46
 90
       50
102
RTVSPost2010PropOp46
 70
     1
102
RTVSPost2010Prop47
 90
       50
102
RTVSPost2010PropOp47
 70
     1
102
RTVSPost2010Prop48
 90
       50
102
RTVSPost2010PropOp48
 70
     1
102
RTVSPost2010Prop49
280
     0
102
RTVSPost2010PropOp49
 70
     1
102
RTVSPost2010Prop50
 90
       50
102
RTVSPost2010PropOp50
 70
     1
102
RTVSPost2010Prop51ColorIndex
 90
      256
102
RTVSPost2010Prop51ColorRGB
 90
-16777216
102
RTVSPost2010PropOp51
 70
     0
102
RTVSPost2010Prop52
140
1.0
102
RTVSPost2010PropOp52
 70
     0
102
RTVSPost2010Prop53
 90
        2
102
RTVSPost2010PropOp53
 70
     1
102
RTVSPost2010Prop54
  1
strokes_ogs.tif
102
RTVSPost2010PropOp54
 70
     1
102
RTVSPost2010Prop55
280
     0
102
RTVSPost2010PropOp55
 70
     1
102
RTVSPost2010Prop56
140
1.0
102
RTVSPost2010PropOp56
 70
     1
102
RTVSPost2010Prop57
140
1.0
102
RTVSPost2010PropOp57
 70
     1
102
RTVSPropertyOp0
 70
     1
102
RTVSPropertyOp1
 70
     1
102
RTVSPropertyOp2
 70
     1
102
RTVSPropertyOp3
 70
     1
102
RTVSPropertyOp4
 70
     1
102
RTVSPropertyOp5
 70
     1
102
RTVSPropertyOp6
 70
     1
102
RTVSPropertyOp7
 70
     1
102
RTVSPropertyOp8
 70
     1
102
RTVSPropertyOp9
 70
     1
102
RTVSPropertyOp10
 70
     1
102
RTVSPropertyOp11
 70
     1
102
RTVSPropertyOp12
 70
     1
102
RTVSPropertyOp13
 70
     1
102
RTVSPropertyOp14
 70
     1
102
RTVSPropertyOp15
 70
     1
102
RTVSPropertyOp16
 70
     1
102
RTVSPropertyOp17
 70
     1
102
RTVSPropertyOp18
 70
     1
102
RTVSPropertyOp19
 70
     1
102
RTVSPropertyOp20
 70
     1
102
RTVSPropertyOp21
 70
     1
102
RTVSPropertyOp22
 70
     1
102
RTVSPropertyOp23
 70
     1
102
RTVSPropertyOp24
 70
     1
102
RTVSPropertyOp25
 70
     1
102
RTVSPropertyOp26
 70
     1
102
RTVSPropertyOp27
 70
     1
102
RTVSPropertyOp28
 70
     1
102
RTVSPropertyOp29
 70
     1
102
RTVSPropertyOp30
 70
     1
102
RTVSPropertyOp31
 70
     1
102
RTVSPropertyOp32
 70
     1
102
RTVSPropertyOp33
 70
     1
102
RTVSPropertyOp34
 70
     1
102
RTVSPropertyOp35
 70
     1
102
RTVSPropertyOp36
 70
     1
102
RTVSPropertyOp37
 70
     1
102
RTVSPropertyOp38
 70
     1
102
RTVSPropertyOp39
 70
     1
102
RTVSPropertyOp40
 70
     1
102
RTVSPropertyOp41
 70
     1
102
RTVSPropertyOp42
 70
     1
102
RTVSPropertyOp43
 70
     1
102
RTVSPropertyOp44
 70
     1
102
RTVSPropertyOp45
 70
     1
102
RTVSPropertyOp46
 70
     1
102
RTVSPropertyOp47
 70
     1
102
RTVSPropertyOp48
 70
     1
102
RTVSPropertyOp49
 70
     1
102
RTVSPropertyOp50
 70
     1
102
RTVSPropertyOp51
 70
     0
102
RTVSPropertyOp52
 70
     0
102
RTVSPropertyOp53
 70
     1
102
RTVSPropertyOp54
 70
     1
102
RTVSPropertyOp55
 70
     1
102
RTVSPropertyOp56
 70
     1
102
RTVSPropertyOp57
 70
     1
102
RTVSPropertyOp58
 70
     1
102
RTVSPropertyOp59
 70
     1
102
RTVSPropertyOp60
 70
     1
102
RTVSPropertyOp61
 70
     1
102
RTVSPropertyOp62
 70
     1
  0
XRECORD
  5
D813
102
{ACAD_REACTORS
330
D812
102
}
330
D812
100
AcDbXrecord
280
     1
102
RTVSPost2010Prop28
280
     0
102
RTVSPost2010PropOp28
 70
     1
102
RTVSPost2010Prop29
280
     1
102
RTVSPost2010PropOp29
 70
     1
102
RTVSPost2010Prop30
280
     1
102
RTVSPost2010PropOp30
 70
     1
102
RTVSPost2010Prop31
280
     0
102
RTVSPost2010PropOp31
 70
     1
102
RTVSPost2010Prop32
280
     0
102
RTVSPost2010PropOp32
 70
     1
102
RTVSPost2010Prop33
280
     0
102
RTVSPost2010PropOp33
 70
     1
102
RTVSPost2010Prop34
280
     0
102
RTVSPost2010PropOp34
 70
     1
102
RTVSPost2010Prop35
280
     0
102
RTVSPost2010PropOp35
 70
     1
102
RTVSPost2010Prop36
280
     0
102
RTVSPost2010PropOp36
 70
     1
102
RTVSPost2010Prop37
 90
       50
102
RTVSPost2010PropOp37
 70
     1
102
RTVSPost2010Prop38
140
0.0
102
RTVSPost2010PropOp38
 70
     1
102
RTVSPost2010Prop39
140
1.0
102
RTVSPost2010PropOp39
 70
     1
102
RTVSPost2010Prop40
 90
        0
102
RTVSPost2010PropOp40
 70
     1
102
RTVSPost2010Prop41ColorIndex
 90
       18
102
RTVSPost2010Prop41ColorRGB
 90
        0
102
RTVSPost2010PropOp41
 70
     1
102
RTVSPost2010Prop42
 90
       50
102
RTVSPost2010PropOp42
 70
     1
102
RTVSPost2010Prop43
 90
        3
102
RTVSPost2010PropOp43
 70
     1
102
RTVSPost2010Prop44ColorIndex
 90
        5
102
RTVSPost2010Prop44ColorRGB
 90
      255
102
RTVSPost2010PropOp44
 70
     1
102
RTVSPost2010Prop45
280
     0
102
RTVSPost2010PropOp45
 70
     1
102
RTVSPost2010Prop46
 90
       50
102
RTVSPost2010PropOp46
 70
     1
102
RTVSPost2010Prop47
 90
       50
102
RTVSPost2010PropOp47
 70
     1
102
RTVSPost2010Prop48
 90
       50
102
RTVSPost2010PropOp48
 70
     1
102
RTVSPost2010Prop49
280
     0
102
RTVSPost2010PropOp49
 70
     1
102
RTVSPost2010Prop50
 90
       50
102
RTVSPost2010PropOp50
 70
     1
102
RTVSPost2010Prop51ColorIndex
 90
      256
102
RTVSPost2010Prop51ColorRGB
 90
-16777216
102
RTVSPost2010PropOp51
 70
     0
102
RTVSPost2010Prop52
140
1.0
102
RTVSPost2010PropOp52
 70
     0
102
RTVSPost2010Prop53
 90
        2
102
RTVSPost2010PropOp53
 70
     1
102
RTVSPost2010Prop54
  1
strokes_ogs.tif
102
RTVSPost2010PropOp54
 70
     1
102
RTVSPost2010Prop55
280
     0
102
RTVSPost2010PropOp55
 70
     1
102
RTVSPost2010Prop56
140
1.0
102
RTVSPost2010PropOp56
 70
     1
102
RTVSPost2010Prop57
140
1.0
102
RTVSPost2010PropOp57
 70
     1
102
RTVSPropertyOp0
 70
     1
102
RTVSPropertyOp1
 70
     1
102
RTVSPropertyOp2
 70
     1
102
RTVSPropertyOp3
 70
     1
102
RTVSPropertyOp4
 70
     1
102
RTVSPropertyOp5
 70
     1
102
RTVSPropertyOp6
 70
     1
102
RTVSPropertyOp7
 70
     1
102
RTVSPropertyOp8
 70
     1
102
RTVSPropertyOp9
 70
     1
102
RTVSPropertyOp10
 70
     1
102
RTVSPropertyOp11
 70
     1
102
RTVSPropertyOp12
 70
     1
102
RTVSPropertyOp13
 70
     1
102
RTVSPropertyOp14
 70
     1
102
RTVSPropertyOp15
 70
     1
102
RTVSPropertyOp16
 70
     1
102
RTVSPropertyOp17
 70
     1
102
RTVSPropertyOp18
 70
     1
102
RTVSPropertyOp19
 70
     1
102
RTVSPropertyOp20
 70
     1
102
RTVSPropertyOp21
 70
     1
102
RTVSPropertyOp22
 70
     1
102
RTVSPropertyOp23
 70
     1
102
RTVSPropertyOp24
 70
     1
102
RTVSPropertyOp25
 70
     1
102
RTVSPropertyOp26
 70
     1
102
RTVSPropertyOp27
 70
     1
102
RTVSPropertyOp28
 70
     1
102
RTVSPropertyOp29
 70
     1
102
RTVSPropertyOp30
 70
     1
102
RTVSPropertyOp31
 70
     1
102
RTVSPropertyOp32
 70
     1
102
RTVSPropertyOp33
 70
     1
102
RTVSPropertyOp34
 70
     1
102
RTVSPropertyOp35
 70
     1
102
RTVSPropertyOp36
 70
     1
102
RTVSPropertyOp37
 70
     1
102
RTVSPropertyOp38
 70
     1
102
RTVSPropertyOp39
 70
     1
102
RTVSPropertyOp40
 70
     1
102
RTVSPropertyOp41
 70
     1
102
RTVSPropertyOp42
 70
     1
102
RTVSPropertyOp43
 70
     1
102
RTVSPropertyOp44
 70
     1
102
RTVSPropertyOp45
 70
     1
102
RTVSPropertyOp46
 70
     1
102
RTVSPropertyOp47
 70
     1
102
RTVSPropertyOp48
 70
     1
102
RTVSPropertyOp49
 70
     1
102
RTVSPropertyOp50
 70
     1
102
RTVSPropertyOp51
 70
     0
102
RTVSPropertyOp52
 70
     0
102
RTVSPropertyOp53
 70
     1
102
RTVSPropertyOp54
 70
     1
102
RTVSPropertyOp55
 70
     1
102
RTVSPropertyOp56
 70
     1
102
RTVSPropertyOp57
 70
     1
102
RTVSPropertyOp58
 70
     1
102
RTVSPropertyOp59
 70
     1
102
RTVSPropertyOp60
 70
     1
102
RTVSPropertyOp61
 70
     1
102
RTVSPropertyOp62
 70
     1
  0
XRECORD
  5
D811
102
{ACAD_REACTORS
330
D810
102
}
330
D810
100
AcDbXrecord
280
     1
102
RTVSPost2010Prop28
280
     0
102
RTVSPost2010PropOp28
 70
     1
102
RTVSPost2010Prop29
280
     1
102
RTVSPost2010PropOp29
 70
     1
102
RTVSPost2010Prop30
280
     1
102
RTVSPost2010PropOp30
 70
     1
102
RTVSPost2010Prop31
280
     0
102
RTVSPost2010PropOp31
 70
     1
102
RTVSPost2010Prop32
280
     0
102
RTVSPost2010PropOp32
 70
     1
102
RTVSPost2010Prop33
280
     0
102
RTVSPost2010PropOp33
 70
     1
102
RTVSPost2010Prop34
280
     0
102
RTVSPost2010PropOp34
 70
     1
102
RTVSPost2010Prop35
280
     0
102
RTVSPost2010PropOp35
 70
     1
102
RTVSPost2010Prop36
280
     0
102
RTVSPost2010PropOp36
 70
     1
102
RTVSPost2010Prop37
 90
       50
102
RTVSPost2010PropOp37
 70
     1
102
RTVSPost2010Prop38
140
0.0
102
RTVSPost2010PropOp38
 70
     1
102
RTVSPost2010Prop39
140
1.0
102
RTVSPost2010PropOp39
 70
     1
102
RTVSPost2010Prop40
 90
        0
102
RTVSPost2010PropOp40
 70
     1
102
RTVSPost2010Prop41ColorIndex
 90
       18
102
RTVSPost2010Prop41ColorRGB
 90
        0
102
RTVSPost2010PropOp41
 70
     1
102
RTVSPost2010Prop42
 90
       50
102
RTVSPost2010PropOp42
 70
     1
102
RTVSPost2010Prop43
 90
        3
102
RTVSPost2010PropOp43
 70
     1
102
RTVSPost2010Prop44ColorIndex
 90
        5
102
RTVSPost2010Prop44ColorRGB
 90
      255
102
RTVSPost2010PropOp44
 70
     1
102
RTVSPost2010Prop45
280
     0
102
RTVSPost2010PropOp45
 70
     1
102
RTVSPost2010Prop46
 90
       50
102
RTVSPost2010PropOp46
 70
     1
102
RTVSPost2010Prop47
 90
       50
102
RTVSPost2010PropOp47
 70
     1
102
RTVSPost2010Prop48
 90
       50
102
RTVSPost2010PropOp48
 70
     1
102
RTVSPost2010Prop49
280
     0
102
RTVSPost2010PropOp49
 70
     1
102
RTVSPost2010Prop50
 90
       50
102
RTVSPost2010PropOp50
 70
     1
102
RTVSPost2010Prop51ColorIndex
 90
      256
102
RTVSPost2010Prop51ColorRGB
 90
-16777216
102
RTVSPost2010PropOp51
 70
     0
102
RTVSPost2010Prop52
140
1.0
102
RTVSPost2010PropOp52
 70
     0
102
RTVSPost2010Prop53
 90
        2
102
RTVSPost2010PropOp53
 70
     1
102
RTVSPost2010Prop54
  1
strokes_ogs.tif
102
RTVSPost2010PropOp54
 70
     1
102
RTVSPost2010Prop55
280
     0
102
RTVSPost2010PropOp55
 70
     1
102
RTVSPost2010Prop56
140
1.0
102
RTVSPost2010PropOp56
 70
     1
102
RTVSPost2010Prop57
140
1.0
102
RTVSPost2010PropOp57
 70
     1
102
RTVSPropertyOp0
 70
     1
102
RTVSPropertyOp1
 70
     1
102
RTVSPropertyOp2
 70
     1
102
RTVSPropertyOp3
 70
     1
102
RTVSPropertyOp4
 70
     1
102
RTVSPropertyOp5
 70
     1
102
RTVSPropertyOp6
 70
     1
102
RTVSPropertyOp7
 70
     1
102
RTVSPropertyOp8
 70
     1
102
RTVSPropertyOp9
 70
     1
102
RTVSPropertyOp10
 70
     1
102
RTVSPropertyOp11
 70
     1
102
RTVSPropertyOp12
 70
     1
102
RTVSPropertyOp13
 70
     1
102
RTVSPropertyOp14
 70
     1
102
RTVSPropertyOp15
 70
     1
102
RTVSPropertyOp16
 70
     1
102
RTVSPropertyOp17
 70
     1
102
RTVSPropertyOp18
 70
     1
102
RTVSPropertyOp19
 70
     1
102
RTVSPropertyOp20
 70
     1
102
RTVSPropertyOp21
 70
     1
102
RTVSPropertyOp22
 70
     1
102
RTVSPropertyOp23
 70
     1
102
RTVSPropertyOp24
 70
     1
102
RTVSPropertyOp25
 70
     1
102
RTVSPropertyOp26
 70
     1
102
RTVSPropertyOp27
 70
     1
102
RTVSPropertyOp28
 70
     1
102
RTVSPropertyOp29
 70
     1
102
RTVSPropertyOp30
 70
     1
102
RTVSPropertyOp31
 70
     1
102
RTVSPropertyOp32
 70
     1
102
RTVSPropertyOp33
 70
     1
102
RTVSPropertyOp34
 70
     1
102
RTVSPropertyOp35
 70
     1
102
RTVSPropertyOp36
 70
     1
102
RTVSPropertyOp37
 70
     1
102
RTVSPropertyOp38
 70
     1
102
RTVSPropertyOp39
 70
     1
102
RTVSPropertyOp40
 70
     1
102
RTVSPropertyOp41
 70
     1
102
RTVSPropertyOp42
 70
     1
102
RTVSPropertyOp43
 70
     1
102
RTVSPropertyOp44
 70
     1
102
RTVSPropertyOp45
 70
     1
102
RTVSPropertyOp46
 70
     1
102
RTVSPropertyOp47
 70
     1
102
RTVSPropertyOp48
 70
     1
102
RTVSPropertyOp49
 70
     1
102
RTVSPropertyOp50
 70
     1
102
RTVSPropertyOp51
 70
     0
102
RTVSPropertyOp52
 70
     0
102
RTVSPropertyOp53
 70
     1
102
RTVSPropertyOp54
 70
     1
102
RTVSPropertyOp55
 70
     1
102
RTVSPropertyOp56
 70
     1
102
RTVSPropertyOp57
 70
     1
102
RTVSPropertyOp58
 70
     1
102
RTVSPropertyOp59
 70
     1
102
RTVSPropertyOp60
 70
     1
102
RTVSPropertyOp61
 70
     1
102
RTVSPropertyOp62
 70
     1
  0
XRECORD
  5
D80B
102
{ACAD_REACTORS
330
D80A
102
}
330
D80A
100
AcDbXrecord
280
     1
102
RTVSPost2010Prop28
280
     0
102
RTVSPost2010PropOp28
 70
     1
102
RTVSPost2010Prop29
280
     1
102
RTVSPost2010PropOp29
 70
     1
102
RTVSPost2010Prop30
280
     1
102
RTVSPost2010PropOp30
 70
     1
102
RTVSPost2010Prop31
280
     0
102
RTVSPost2010PropOp31
 70
     1
102
RTVSPost2010Prop32
280
     0
102
RTVSPost2010PropOp32
 70
     1
102
RTVSPost2010Prop33
280
     0
102
RTVSPost2010PropOp33
 70
     1
102
RTVSPost2010Prop34
280
     0
102
RTVSPost2010PropOp34
 70
     1
102
RTVSPost2010Prop35
280
     0
102
RTVSPost2010PropOp35
 70
     1
102
RTVSPost2010Prop36
280
     0
102
RTVSPost2010PropOp36
 70
     1
102
RTVSPost2010Prop37
 90
       50
102
RTVSPost2010PropOp37
 70
     1
102
RTVSPost2010Prop38
140
0.0
102
RTVSPost2010PropOp38
 70
     1
102
RTVSPost2010Prop39
140
1.0
102
RTVSPost2010PropOp39
 70
     1
102
RTVSPost2010Prop40
 90
        0
102
RTVSPost2010PropOp40
 70
     1
102
RTVSPost2010Prop41ColorIndex
 90
       18
102
RTVSPost2010Prop41ColorRGB
 90
        0
102
RTVSPost2010PropOp41
 70
     1
102
RTVSPost2010Prop42
 90
       50
102
RTVSPost2010PropOp42
 70
     1
102
RTVSPost2010Prop43
 90
        3
102
RTVSPost2010PropOp43
 70
     1
102
RTVSPost2010Prop44ColorIndex
 90
        5
102
RTVSPost2010Prop44ColorRGB
 90
      255
102
RTVSPost2010PropOp44
 70
     1
102
RTVSPost2010Prop45
280
     0
102
RTVSPost2010PropOp45
 70
     1
102
RTVSPost2010Prop46
 90
       50
102
RTVSPost2010PropOp46
 70
     1
102
RTVSPost2010Prop47
 90
       50
102
RTVSPost2010PropOp47
 70
     1
102
RTVSPost2010Prop48
 90
       50
102
RTVSPost2010PropOp48
 70
     1
102
RTVSPost2010Prop49
280
     0
102
RTVSPost2010PropOp49
 70
     1
102
RTVSPost2010Prop50
 90
       50
102
RTVSPost2010PropOp50
 70
     1
102
RTVSPost2010Prop51ColorIndex
 90
      256
102
RTVSPost2010Prop51ColorRGB
 90
-16777216
102
RTVSPost2010PropOp51
 70
     0
102
RTVSPost2010Prop52
140
1.0
102
RTVSPost2010PropOp52
 70
     0
102
RTVSPost2010Prop53
 90
        2
102
RTVSPost2010PropOp53
 70
     1
102
RTVSPost2010Prop54
  1
strokes_ogs.tif
102
RTVSPost2010PropOp54
 70
     1
102
RTVSPost2010Prop55
280
     0
102
RTVSPost2010PropOp55
 70
     1
102
RTVSPost2010Prop56
140
1.0
102
RTVSPost2010PropOp56
 70
     1
102
RTVSPost2010Prop57
140
1.0
102
RTVSPost2010PropOp57
 70
     1
102
RTVSPropertyOp0
 70
     1
102
RTVSPropertyOp1
 70
     1
102
RTVSPropertyOp2
 70
     1
102
RTVSPropertyOp3
 70
     1
102
RTVSPropertyOp4
 70
     1
102
RTVSPropertyOp5
 70
     1
102
RTVSPropertyOp6
 70
     1
102
RTVSPropertyOp7
 70
     1
102
RTVSPropertyOp8
 70
     1
102
RTVSPropertyOp9
 70
     1
102
RTVSPropertyOp10
 70
     1
102
RTVSPropertyOp11
 70
     1
102
RTVSPropertyOp12
 70
     1
102
RTVSPropertyOp13
 70
     1
102
RTVSPropertyOp14
 70
     1
102
RTVSPropertyOp15
 70
     1
102
RTVSPropertyOp16
 70
     1
102
RTVSPropertyOp17
 70
     1
102
RTVSPropertyOp18
 70
     1
102
RTVSPropertyOp19
 70
     1
102
RTVSPropertyOp20
 70
     1
102
RTVSPropertyOp21
 70
     1
102
RTVSPropertyOp22
 70
     1
102
RTVSPropertyOp23
 70
     1
102
RTVSPropertyOp24
 70
     1
102
RTVSPropertyOp25
 70
     1
102
RTVSPropertyOp26
 70
     1
102
RTVSPropertyOp27
 70
     1
102
RTVSPropertyOp28
 70
     1
102
RTVSPropertyOp29
 70
     1
102
RTVSPropertyOp30
 70
     1
102
RTVSPropertyOp31
 70
     1
102
RTVSPropertyOp32
 70
     1
102
RTVSPropertyOp33
 70
     1
102
RTVSPropertyOp34
 70
     1
102
RTVSPropertyOp35
 70
     1
102
RTVSPropertyOp36
 70
     1
102
RTVSPropertyOp37
 70
     1
102
RTVSPropertyOp38
 70
     1
102
RTVSPropertyOp39
 70
     1
102
RTVSPropertyOp40
 70
     1
102
RTVSPropertyOp41
 70
     1
102
RTVSPropertyOp42
 70
     1
102
RTVSPropertyOp43
 70
     1
102
RTVSPropertyOp44
 70
     1
102
RTVSPropertyOp45
 70
     1
102
RTVSPropertyOp46
 70
     1
102
RTVSPropertyOp47
 70
     1
102
RTVSPropertyOp48
 70
     1
102
RTVSPropertyOp49
 70
     1
102
RTVSPropertyOp50
 70
     1
102
RTVSPropertyOp51
 70
     0
102
RTVSPropertyOp52
 70
     0
102
RTVSPropertyOp53
 70
     1
102
RTVSPropertyOp54
 70
     1
102
RTVSPropertyOp55
 70
     1
102
RTVSPropertyOp56
 70
     1
102
RTVSPropertyOp57
 70
     1
102
RTVSPropertyOp58
 70
     1
102
RTVSPropertyOp59
 70
     1
102
RTVSPropertyOp60
 70
     1
102
RTVSPropertyOp61
 70
     1
102
RTVSPropertyOp62
 70
     1
  0
XRECORD
  5
D80D
102
{ACAD_REACTORS
330
D80C
102
}
330
D80C
100
AcDbXrecord
280
     1
102
RTVSPost2010Prop28
280
     0
102
RTVSPost2010PropOp28
 70
     1
102
RTVSPost2010Prop29
280
     1
102
RTVSPost2010PropOp29
 70
     1
102
RTVSPost2010Prop30
280
     1
102
RTVSPost2010PropOp30
 70
     1
102
RTVSPost2010Prop31
280
     0
102
RTVSPost2010PropOp31
 70
     1
102
RTVSPost2010Prop32
280
     0
102
RTVSPost2010PropOp32
 70
     1
102
RTVSPost2010Prop33
280
     0
102
RTVSPost2010PropOp33
 70
     1
102
RTVSPost2010Prop34
280
     0
102
RTVSPost2010PropOp34
 70
     1
102
RTVSPost2010Prop35
280
     0
102
RTVSPost2010PropOp35
 70
     1
102
RTVSPost2010Prop36
280
     0
102
RTVSPost2010PropOp36
 70
     1
102
RTVSPost2010Prop37
 90
       50
102
RTVSPost2010PropOp37
 70
     1
102
RTVSPost2010Prop38
140
0.0
102
RTVSPost2010PropOp38
 70
     1
102
RTVSPost2010Prop39
140
1.0
102
RTVSPost2010PropOp39
 70
     1
102
RTVSPost2010Prop40
 90
        0
102
RTVSPost2010PropOp40
 70
     1
102
RTVSPost2010Prop41ColorIndex
 90
       18
102
RTVSPost2010Prop41ColorRGB
 90
        0
102
RTVSPost2010PropOp41
 70
     1
102
RTVSPost2010Prop42
 90
       50
102
RTVSPost2010PropOp42
 70
     1
102
RTVSPost2010Prop43
 90
        3
102
RTVSPost2010PropOp43
 70
     1
102
RTVSPost2010Prop44ColorIndex
 90
        5
102
RTVSPost2010Prop44ColorRGB
 90
      255
102
RTVSPost2010PropOp44
 70
     1
102
RTVSPost2010Prop45
280
     0
102
RTVSPost2010PropOp45
 70
     1
102
RTVSPost2010Prop46
 90
       50
102
RTVSPost2010PropOp46
 70
     1
102
RTVSPost2010Prop47
 90
       50
102
RTVSPost2010PropOp47
 70
     1
102
RTVSPost2010Prop48
 90
       50
102
RTVSPost2010PropOp48
 70
     1
102
RTVSPost2010Prop49
280
     0
102
RTVSPost2010PropOp49
 70
     1
102
RTVSPost2010Prop50
 90
       50
102
RTVSPost2010PropOp50
 70
     1
102
RTVSPost2010Prop51ColorIndex
 90
      256
102
RTVSPost2010Prop51ColorRGB
 90
-16777216
102
RTVSPost2010PropOp51
 70
     0
102
RTVSPost2010Prop52
140
1.0
102
RTVSPost2010PropOp52
 70
     0
102
RTVSPost2010Prop53
 90
        2
102
RTVSPost2010PropOp53
 70
     1
102
RTVSPost2010Prop54
  1
strokes_ogs.tif
102
RTVSPost2010PropOp54
 70
     1
102
RTVSPost2010Prop55
280
     0
102
RTVSPost2010PropOp55
 70
     1
102
RTVSPost2010Prop56
140
1.0
102
RTVSPost2010PropOp56
 70
     1
102
RTVSPost2010Prop57
140
1.0
102
RTVSPost2010PropOp57
 70
     1
102
RTVSPropertyOp0
 70
     1
102
RTVSPropertyOp1
 70
     1
102
RTVSPropertyOp2
 70
     1
102
RTVSPropertyOp3
 70
     1
102
RTVSPropertyOp4
 70
     1
102
RTVSPropertyOp5
 70
     1
102
RTVSPropertyOp6
 70
     1
102
RTVSPropertyOp7
 70
     1
102
RTVSPropertyOp8
 70
     1
102
RTVSPropertyOp9
 70
     1
102
RTVSPropertyOp10
 70
     1
102
RTVSPropertyOp11
 70
     1
102
RTVSPropertyOp12
 70
     1
102
RTVSPropertyOp13
 70
     1
102
RTVSPropertyOp14
 70
     1
102
RTVSPropertyOp15
 70
     1
102
RTVSPropertyOp16
 70
     1
102
RTVSPropertyOp17
 70
     1
102
RTVSPropertyOp18
 70
     1
102
RTVSPropertyOp19
 70
     1
102
RTVSPropertyOp20
 70
     1
102
RTVSPropertyOp21
 70
     1
102
RTVSPropertyOp22
 70
     1
102
RTVSPropertyOp23
 70
     1
102
RTVSPropertyOp24
 70
     1
102
RTVSPropertyOp25
 70
     1
102
RTVSPropertyOp26
 70
     1
102
RTVSPropertyOp27
 70
     1
102
RTVSPropertyOp28
 70
     1
102
RTVSPropertyOp29
 70
     1
102
RTVSPropertyOp30
 70
     1
102
RTVSPropertyOp31
 70
     1
102
RTVSPropertyOp32
 70
     1
102
RTVSPropertyOp33
 70
     1
102
RTVSPropertyOp34
 70
     1
102
RTVSPropertyOp35
 70
     1
102
RTVSPropertyOp36
 70
     1
102
RTVSPropertyOp37
 70
     1
102
RTVSPropertyOp38
 70
     1
102
RTVSPropertyOp39
 70
     1
102
RTVSPropertyOp40
 70
     1
102
RTVSPropertyOp41
 70
     1
102
RTVSPropertyOp42
 70
     1
102
RTVSPropertyOp43
 70
     1
102
RTVSPropertyOp44
 70
     1
102
RTVSPropertyOp45
 70
     1
102
RTVSPropertyOp46
 70
     1
102
RTVSPropertyOp47
 70
     1
102
RTVSPropertyOp48
 70
     1
102
RTVSPropertyOp49
 70
     1
102
RTVSPropertyOp50
 70
     1
102
RTVSPropertyOp51
 70
     0
102
RTVSPropertyOp52
 70
     0
102
RTVSPropertyOp53
 70
     1
102
RTVSPropertyOp54
 70
     1
102
RTVSPropertyOp55
 70
     1
102
RTVSPropertyOp56
 70
     1
102
RTVSPropertyOp57
 70
     1
102
RTVSPropertyOp58
 70
     1
102
RTVSPropertyOp59
 70
     1
102
RTVSPropertyOp60
 70
     1
102
RTVSPropertyOp61
 70
     1
102
RTVSPropertyOp62
 70
     1
  0
XRECORD
  5
D803
102
{ACAD_REACTORS
330
D802
102
}
330
D802
100
AcDbXrecord
280
     1
102
RTVSPost2010Prop28
280
     0
102
RTVSPost2010PropOp28
 70
     1
102
RTVSPost2010Prop29
280
     1
102
RTVSPost2010PropOp29
 70
     1
102
RTVSPost2010Prop30
280
     1
102
RTVSPost2010PropOp30
 70
     1
102
RTVSPost2010Prop31
280
     0
102
RTVSPost2010PropOp31
 70
     1
102
RTVSPost2010Prop32
280
     0
102
RTVSPost2010PropOp32
 70
     1
102
RTVSPost2010Prop33
280
     0
102
RTVSPost2010PropOp33
 70
     1
102
RTVSPost2010Prop34
280
     0
102
RTVSPost2010PropOp34
 70
     1
102
RTVSPost2010Prop35
280
     0
102
RTVSPost2010PropOp35
 70
     1
102
RTVSPost2010Prop36
280
     0
102
RTVSPost2010PropOp36
 70
     1
102
RTVSPost2010Prop37
 90
       50
102
RTVSPost2010PropOp37
 70
     1
102
RTVSPost2010Prop38
140
0.0
102
RTVSPost2010PropOp38
 70
     1
102
RTVSPost2010Prop39
140
1.0
102
RTVSPost2010PropOp39
 70
     1
102
RTVSPost2010Prop40
 90
        0
102
RTVSPost2010PropOp40
 70
     1
102
RTVSPost2010Prop41ColorIndex
 90
       18
102
RTVSPost2010Prop41ColorRGB
 90
        0
102
RTVSPost2010PropOp41
 70
     1
102
RTVSPost2010Prop42
 90
       50
102
RTVSPost2010PropOp42
 70
     1
102
RTVSPost2010Prop43
 90
        3
102
RTVSPost2010PropOp43
 70
     1
102
RTVSPost2010Prop44ColorIndex
 90
        5
102
RTVSPost2010Prop44ColorRGB
 90
      255
102
RTVSPost2010PropOp44
 70
     1
102
RTVSPost2010Prop45
280
     0
102
RTVSPost2010PropOp45
 70
     1
102
RTVSPost2010Prop46
 90
       50
102
RTVSPost2010PropOp46
 70
     1
102
RTVSPost2010Prop47
 90
       50
102
RTVSPost2010PropOp47
 70
     1
102
RTVSPost2010Prop48
 90
       50
102
RTVSPost2010PropOp48
 70
     1
102
RTVSPost2010Prop49
280
     0
102
RTVSPost2010PropOp49
 70
     1
102
RTVSPost2010Prop50
 90
       50
102
RTVSPost2010PropOp50
 70
     1
102
RTVSPost2010Prop51ColorIndex
 90
      256
102
RTVSPost2010Prop51ColorRGB
 90
-16777216
102
RTVSPost2010PropOp51
 70
     0
102
RTVSPost2010Prop52
140
1.0
102
RTVSPost2010PropOp52
 70
     0
102
RTVSPost2010Prop53
 90
        2
102
RTVSPost2010PropOp53
 70
     1
102
RTVSPost2010Prop54
  1
strokes_ogs.tif
102
RTVSPost2010PropOp54
 70
     1
102
RTVSPost2010Prop55
280
     0
102
RTVSPost2010PropOp55
 70
     1
102
RTVSPost2010Prop56
140
1.0
102
RTVSPost2010PropOp56
 70
     1
102
RTVSPost2010Prop57
140
1.0
102
RTVSPost2010PropOp57
 70
     1
102
RTVSPropertyOp0
 70
     1
102
RTVSPropertyOp1
 70
     1
102
RTVSPropertyOp2
 70
     1
102
RTVSPropertyOp3
 70
     1
102
RTVSPropertyOp4
 70
     1
102
RTVSPropertyOp5
 70
     1
102
RTVSPropertyOp6
 70
     1
102
RTVSPropertyOp7
 70
     1
102
RTVSPropertyOp8
 70
     1
102
RTVSPropertyOp9
 70
     1
102
RTVSPropertyOp10
 70
     1
102
RTVSPropertyOp11
 70
     1
102
RTVSPropertyOp12
 70
     1
102
RTVSPropertyOp13
 70
     1
102
RTVSPropertyOp14
 70
     1
102
RTVSPropertyOp15
 70
     1
102
RTVSPropertyOp16
 70
     1
102
RTVSPropertyOp17
 70
     1
102
RTVSPropertyOp18
 70
     1
102
RTVSPropertyOp19
 70
     1
102
RTVSPropertyOp20
 70
     1
102
RTVSPropertyOp21
 70
     1
102
RTVSPropertyOp22
 70
     1
102
RTVSPropertyOp23
 70
     1
102
RTVSPropertyOp24
 70
     1
102
RTVSPropertyOp25
 70
     1
102
RTVSPropertyOp26
 70
     1
102
RTVSPropertyOp27
 70
     1
102
RTVSPropertyOp28
 70
     1
102
RTVSPropertyOp29
 70
     1
102
RTVSPropertyOp30
 70
     1
102
RTVSPropertyOp31
 70
     1
102
RTVSPropertyOp32
 70
     1
102
RTVSPropertyOp33
 70
     1
102
RTVSPropertyOp34
 70
     1
102
RTVSPropertyOp35
 70
     1
102
RTVSPropertyOp36
 70
     1
102
RTVSPropertyOp37
 70
     1
102
RTVSPropertyOp38
 70
     1
102
RTVSPropertyOp39
 70
     1
102
RTVSPropertyOp40
 70
     1
102
RTVSPropertyOp41
 70
     1
102
RTVSPropertyOp42
 70
     1
102
RTVSPropertyOp43
 70
     1
102
RTVSPropertyOp44
 70
     1
102
RTVSPropertyOp45
 70
     1
102
RTVSPropertyOp46
 70
     1
102
RTVSPropertyOp47
 70
     1
102
RTVSPropertyOp48
 70
     1
102
RTVSPropertyOp49
 70
     1
102
RTVSPropertyOp50
 70
     1
102
RTVSPropertyOp51
 70
     0
102
RTVSPropertyOp52
 70
     0
102
RTVSPropertyOp53
 70
     1
102
RTVSPropertyOp54
 70
     1
102
RTVSPropertyOp55
 70
     1
102
RTVSPropertyOp56
 70
     1
102
RTVSPropertyOp57
 70
     1
102
RTVSPropertyOp58
 70
     1
102
RTVSPropertyOp59
 70
     1
102
RTVSPropertyOp60
 70
     1
102
RTVSPropertyOp61
 70
     1
102
RTVSPropertyOp62
 70
     1
  0
XRECORD
  5
D7F7
102
{ACAD_REACTORS
330
D7F6
102
}
330
D7F6
100
AcDbXrecord
280
     1
102
RTVSPost2010Prop28
280
     0
102
RTVSPost2010PropOp28
 70
     1
102
RTVSPost2010Prop29
280
     1
102
RTVSPost2010PropOp29
 70
     1
102
RTVSPost2010Prop30
280
     1
102
RTVSPost2010PropOp30
 70
     1
102
RTVSPost2010Prop31
280
     0
102
RTVSPost2010PropOp31
 70
     1
102
RTVSPost2010Prop32
280
     0
102
RTVSPost2010PropOp32
 70
     1
102
RTVSPost2010Prop33
280
     0
102
RTVSPost2010PropOp33
 70
     1
102
RTVSPost2010Prop34
280
     0
102
RTVSPost2010PropOp34
 70
     1
102
RTVSPost2010Prop35
280
     0
102
RTVSPost2010PropOp35
 70
     1
102
RTVSPost2010Prop36
280
     0
102
RTVSPost2010PropOp36
 70
     1
102
RTVSPost2010Prop37
 90
       50
102
RTVSPost2010PropOp37
 70
     1
102
RTVSPost2010Prop38
140
0.0
102
RTVSPost2010PropOp38
 70
     1
102
RTVSPost2010Prop39
140
1.0
102
RTVSPost2010PropOp39
 70
     1
102
RTVSPost2010Prop40
 90
        0
102
RTVSPost2010PropOp40
 70
     1
102
RTVSPost2010Prop41ColorIndex
 90
       18
102
RTVSPost2010Prop41ColorRGB
 90
        0
102
RTVSPost2010PropOp41
 70
     1
102
RTVSPost2010Prop42
 90
       50
102
RTVSPost2010PropOp42
 70
     1
102
RTVSPost2010Prop43
 90
        3
102
RTVSPost2010PropOp43
 70
     1
102
RTVSPost2010Prop44ColorIndex
 90
        5
102
RTVSPost2010Prop44ColorRGB
 90
      255
102
RTVSPost2010PropOp44
 70
     1
102
RTVSPost2010Prop45
280
     0
102
RTVSPost2010PropOp45
 70
     1
102
RTVSPost2010Prop46
 90
       50
102
RTVSPost2010PropOp46
 70
     1
102
RTVSPost2010Prop47
 90
       50
102
RTVSPost2010PropOp47
 70
     1
102
RTVSPost2010Prop48
 90
       50
102
RTVSPost2010PropOp48
 70
     1
102
RTVSPost2010Prop49
280
     0
102
RTVSPost2010PropOp49
 70
     1
102
RTVSPost2010Prop50
 90
       50
102
RTVSPost2010PropOp50
 70
     1
102
RTVSPost2010Prop51ColorIndex
 90
      256
102
RTVSPost2010Prop51ColorRGB
 90
-16777216
102
RTVSPost2010PropOp51
 70
     0
102
RTVSPost2010Prop52
140
1.0
102
RTVSPost2010PropOp52
 70
     0
102
RTVSPost2010Prop53
 90
        2
102
RTVSPost2010PropOp53
 70
     1
102
RTVSPost2010Prop54
  1
strokes_ogs.tif
102
RTVSPost2010PropOp54
 70
     1
102
RTVSPost2010Prop55
280
     0
102
RTVSPost2010PropOp55
 70
     1
102
RTVSPost2010Prop56
140
1.0
102
RTVSPost2010PropOp56
 70
     1
102
RTVSPost2010Prop57
140
1.0
102
RTVSPost2010PropOp57
 70
     1
102
RTVSPropertyOp0
 70
     1
102
RTVSPropertyOp1
 70
     1
102
RTVSPropertyOp2
 70
     1
102
RTVSPropertyOp3
 70
     1
102
RTVSPropertyOp4
 70
     1
102
RTVSPropertyOp5
 70
     1
102
RTVSPropertyOp6
 70
     1
102
RTVSPropertyOp7
 70
     1
102
RTVSPropertyOp8
 70
     1
102
RTVSPropertyOp9
 70
     1
102
RTVSPropertyOp10
 70
     1
102
RTVSPropertyOp11
 70
     1
102
RTVSPropertyOp12
 70
     1
102
RTVSPropertyOp13
 70
     1
102
RTVSPropertyOp14
 70
     1
102
RTVSPropertyOp15
 70
     1
102
RTVSPropertyOp16
 70
     1
102
RTVSPropertyOp17
 70
     1
102
RTVSPropertyOp18
 70
     1
102
RTVSPropertyOp19
 70
     1
102
RTVSPropertyOp20
 70
     1
102
RTVSPropertyOp21
 70
     1
102
RTVSPropertyOp22
 70
     1
102
RTVSPropertyOp23
 70
     1
102
RTVSPropertyOp24
 70
     1
102
RTVSPropertyOp25
 70
     1
102
RTVSPropertyOp26
 70
     1
102
RTVSPropertyOp27
 70
     1
102
RTVSPropertyOp28
 70
     1
102
RTVSPropertyOp29
 70
     1
102
RTVSPropertyOp30
 70
     1
102
RTVSPropertyOp31
 70
     1
102
RTVSPropertyOp32
 70
     1
102
RTVSPropertyOp33
 70
     1
102
RTVSPropertyOp34
 70
     1
102
RTVSPropertyOp35
 70
     1
102
RTVSPropertyOp36
 70
     1
102
RTVSPropertyOp37
 70
     1
102
RTVSPropertyOp38
 70
     1
102
RTVSPropertyOp39
 70
     1
102
RTVSPropertyOp40
 70
     1
102
RTVSPropertyOp41
 70
     1
102
RTVSPropertyOp42
 70
     1
102
RTVSPropertyOp43
 70
     1
102
RTVSPropertyOp44
 70
     1
102
RTVSPropertyOp45
 70
     1
102
RTVSPropertyOp46
 70
     1
102
RTVSPropertyOp47
 70
     1
102
RTVSPropertyOp48
 70
     1
102
RTVSPropertyOp49
 70
     1
102
RTVSPropertyOp50
 70
     1
102
RTVSPropertyOp51
 70
     0
102
RTVSPropertyOp52
 70
     0
102
RTVSPropertyOp53
 70
     1
102
RTVSPropertyOp54
 70
     1
102
RTVSPropertyOp55
 70
     1
102
RTVSPropertyOp56
 70
     1
102
RTVSPropertyOp57
 70
     1
102
RTVSPropertyOp58
 70
     1
102
RTVSPropertyOp59
 70
     1
102
RTVSPropertyOp60
 70
     1
102
RTVSPropertyOp61
 70
     1
102
RTVSPropertyOp62
 70
     1
  0
XRECORD
  5
D80F
102
{ACAD_REACTORS
330
D80E
102
}
330
D80E
100
AcDbXrecord
280
     1
102
RTVSPost2010Prop28
280
     0
102
RTVSPost2010PropOp28
 70
     1
102
RTVSPost2010Prop29
280
     1
102
RTVSPost2010PropOp29
 70
     1
102
RTVSPost2010Prop30
280
     1
102
RTVSPost2010PropOp30
 70
     1
102
RTVSPost2010Prop31
280
     0
102
RTVSPost2010PropOp31
 70
     1
102
RTVSPost2010Prop32
280
     0
102
RTVSPost2010PropOp32
 70
     1
102
RTVSPost2010Prop33
280
     0
102
RTVSPost2010PropOp33
 70
     1
102
RTVSPost2010Prop34
280
     0
102
RTVSPost2010PropOp34
 70
     1
102
RTVSPost2010Prop35
280
     0
102
RTVSPost2010PropOp35
 70
     1
102
RTVSPost2010Prop36
280
     0
102
RTVSPost2010PropOp36
 70
     1
102
RTVSPost2010Prop37
 90
       50
102
RTVSPost2010PropOp37
 70
     1
102
RTVSPost2010Prop38
140
0.0
102
RTVSPost2010PropOp38
 70
     1
102
RTVSPost2010Prop39
140
1.0
102
RTVSPost2010PropOp39
 70
     1
102
RTVSPost2010Prop40
 90
        0
102
RTVSPost2010PropOp40
 70
     1
102
RTVSPost2010Prop41ColorIndex
 90
       18
102
RTVSPost2010Prop41ColorRGB
 90
        0
102
RTVSPost2010PropOp41
 70
     1
102
RTVSPost2010Prop42
 90
       50
102
RTVSPost2010PropOp42
 70
     1
102
RTVSPost2010Prop43
 90
        3
102
RTVSPost2010PropOp43
 70
     1
102
RTVSPost2010Prop44ColorIndex
 90
        5
102
RTVSPost2010Prop44ColorRGB
 90
      255
102
RTVSPost2010PropOp44
 70
     1
102
RTVSPost2010Prop45
280
     0
102
RTVSPost2010PropOp45
 70
     1
102
RTVSPost2010Prop46
 90
       50
102
RTVSPost2010PropOp46
 70
     1
102
RTVSPost2010Prop47
 90
       50
102
RTVSPost2010PropOp47
 70
     1
102
RTVSPost2010Prop48
 90
       50
102
RTVSPost2010PropOp48
 70
     1
102
RTVSPost2010Prop49
280
     0
102
RTVSPost2010PropOp49
 70
     1
102
RTVSPost2010Prop50
 90
       50
102
RTVSPost2010PropOp50
 70
     1
102
RTVSPost2010Prop51ColorIndex
 90
      256
102
RTVSPost2010Prop51ColorRGB
 90
-16777216
102
RTVSPost2010PropOp51
 70
     0
102
RTVSPost2010Prop52
140
1.0
102
RTVSPost2010PropOp52
 70
     0
102
RTVSPost2010Prop53
 90
        2
102
RTVSPost2010PropOp53
 70
     1
102
RTVSPost2010Prop54
  1
strokes_ogs.tif
102
RTVSPost2010PropOp54
 70
     1
102
RTVSPost2010Prop55
280
     0
102
RTVSPost2010PropOp55
 70
     1
102
RTVSPost2010Prop56
140
1.0
102
RTVSPost2010PropOp56
 70
     1
102
RTVSPost2010Prop57
140
1.0
102
RTVSPost2010PropOp57
 70
     1
102
RTVSPropertyOp0
 70
     1
102
RTVSPropertyOp1
 70
     1
102
RTVSPropertyOp2
 70
     1
102
RTVSPropertyOp3
 70
     1
102
RTVSPropertyOp4
 70
     1
102
RTVSPropertyOp5
 70
     1
102
RTVSPropertyOp6
 70
     1
102
RTVSPropertyOp7
 70
     1
102
RTVSPropertyOp8
 70
     1
102
RTVSPropertyOp9
 70
     1
102
RTVSPropertyOp10
 70
     1
102
RTVSPropertyOp11
 70
     1
102
RTVSPropertyOp12
 70
     1
102
RTVSPropertyOp13
 70
     1
102
RTVSPropertyOp14
 70
     1
102
RTVSPropertyOp15
 70
     1
102
RTVSPropertyOp16
 70
     1
102
RTVSPropertyOp17
 70
     1
102
RTVSPropertyOp18
 70
     1
102
RTVSPropertyOp19
 70
     1
102
RTVSPropertyOp20
 70
     1
102
RTVSPropertyOp21
 70
     1
102
RTVSPropertyOp22
 70
     1
102
RTVSPropertyOp23
 70
     1
102
RTVSPropertyOp24
 70
     1
102
RTVSPropertyOp25
 70
     1
102
RTVSPropertyOp26
 70
     1
102
RTVSPropertyOp27
 70
     1
102
RTVSPropertyOp28
 70
     1
102
RTVSPropertyOp29
 70
     1
102
RTVSPropertyOp30
 70
     1
102
RTVSPropertyOp31
 70
     1
102
RTVSPropertyOp32
 70
     1
102
RTVSPropertyOp33
 70
     1
102
RTVSPropertyOp34
 70
     1
102
RTVSPropertyOp35
 70
     1
102
RTVSPropertyOp36
 70
     1
102
RTVSPropertyOp37
 70
     1
102
RTVSPropertyOp38
 70
     1
102
RTVSPropertyOp39
 70
     1
102
RTVSPropertyOp40
 70
     1
102
RTVSPropertyOp41
 70
     1
102
RTVSPropertyOp42
 70
     1
102
RTVSPropertyOp43
 70
     1
102
RTVSPropertyOp44
 70
     1
102
RTVSPropertyOp45
 70
     1
102
RTVSPropertyOp46
 70
     1
102
RTVSPropertyOp47
 70
     1
102
RTVSPropertyOp48
 70
     1
102
RTVSPropertyOp49
 70
     1
102
RTVSPropertyOp50
 70
     1
102
RTVSPropertyOp51
 70
     0
102
RTVSPropertyOp52
 70
     0
102
RTVSPropertyOp53
 70
     1
102
RTVSPropertyOp54
 70
     1
102
RTVSPropertyOp55
 70
     1
102
RTVSPropertyOp56
 70
     1
102
RTVSPropertyOp57
 70
     1
102
RTVSPropertyOp58
 70
     1
102
RTVSPropertyOp59
 70
     1
102
RTVSPropertyOp60
 70
     1
102
RTVSPropertyOp61
 70
     1
102
RTVSPropertyOp62
 70
     1
  0
ENDSEC
  0
EOF
