  0
SECTION
  2
HEADER
  9
$ACADVER
  1
AC1015
  9
$ACADMAINTVER
 70
    20
  9
$DWGCODEPAGE
  3
ANSI_932
  9
$INSBASE
 10
0.0
 20
0.0
 30
0.0
  9
$EXTMIN
 10
10.0
 20
9.999999999999998
 30
0.0
  9
$EXTMAX
 10
539.4316719999998
 20
447.3034489999998
 30
0.0
  9
$LIMMIN
 10
0.0
 20
0.0
  9
$LIMMAX
 10
792.0
 20
546.0
  9
$ORTHOMODE
 70
     1
  9
$REGENMODE
 70
     1
  9
$FILLMODE
 70
     1
  9
$QTEXTMODE
 70
     0
  9
$MIRRTEXT
 70
     1
  9
$LTSCALE
 40
20.0
  9
$ATTMODE
 70
     1
  9
$TEXTSIZE
 40
5.0
  9
$TRACEWID
 40
1.0
  9
$TEXTSTYLE
  7
STANDARD
  9
$CLAYER
  8
0
  9
$CELTYPE
  6
BYLAYER
  9
$CECOLOR
 62
   256
  9
$CELTSCALE
 40
1.0
  9
$DISPSILH
 70
     0
  9
$DIMSCALE
 40
1.0
  9
$DIMASZ
 40
3.0
  9
$DIMEXO
 40
1.0
  9
$DIMDLI
 40
10.0
  9
$DIMRND
 40
0.0
  9
$DIMDLE
 40
0.0
  9
$DIMEXE
 40
1.0
  9
$DIMTP
 40
0.0
  9
$DIMTM
 40
0.0
  9
$DIMTXT
 40
3.2
  9
$DIMCEN
 40
0.0
  9
$DIMTSZ
 40
0.0
  9
$DIMTOL
 70
     0
  9
$DIMLIM
 70
     0
  9
$DIMTIH
 70
     0
  9
$DIMTOH
 70
     0
  9
$DIMSE1
 70
     0
  9
$DIMSE2
 70
     0
  9
$DIMTAD
 70
     3
  9
$DIMZIN
 70
     8
  9
$DIMBLK
  1

  9
$DIMASO
 70
     1
  9
$DIMSHO
 70
     1
  9
$DIMPOST
  1

  9
$DIMAPOST
  1

  9
$DIMALT
 70
     0
  9
$DIMALTD
 70
     2
  9
$DIMALTF
 40
25.4
  9
$DIMLFAC
 40
1.0
  9
$DIMTOFL
 70
     1
  9
$DIMTVP
 40
0.0
  9
$DIMTIX
 70
     0
  9
$DIMSOXD
 70
     0
  9
$DIMSAH
 70
     1
  9
$DIMBLK1
  1
OPEN
  9
$DIMBLK2
  1
OPEN
  9
$DIMSTYLE
  2
STANDARD
  9
$DIMCLRD
 70
     0
  9
$DIMCLRE
 70
     0
  9
$DIMCLRT
 70
     0
  9
$DIMTFAC
 40
1.0
  9
$DIMGAP
 40
1.0
  9
$DIMJUST
 70
     0
  9
$DIMSD1
 70
     0
  9
$DIMSD2
 70
     0
  9
$DIMTOLJ
 70
     1
  9
$DIMTZIN
 70
     0
  9
$DIMALTZ
 70
     0
  9
$DIMALTTZ
 70
     0
  9
$DIMUPT
 70
     0
  9
$DIMDEC
 70
     4
  9
$DIMTDEC
 70
     4
  9
$DIMALTU
 70
     2
  9
$DIMALTTD
 70
     2
  9
$DIMTXSTY
  7
STANDARD
  9
$DIMAUNIT
 70
     0
  9
$DIMADEC
 70
     0
  9
$DIMALTRND
 40
0.0
  9
$DIMAZIN
 70
     0
  9
$DIMDSEP
 70
    46
  9
$DIMATFIT
 70
     3
  9
$DIMFRAC
 70
     0
  9
$DIMLDRBLK
  1
OPEN
  9
$DIMLUNIT
 70
     2
  9
$DIMLWD
 70
    -2
  9
$DIMLWE
 70
    -2
  9
$DIMTMOVE
 70
     0
  9
$LUNITS
 70
     2
  9
$LUPREC
 70
     4
  9
$SKETCHINC
 40
1.0
  9
$FILLETRAD
 40
0.0
  9
$AUNITS
 70
     0
  9
$AUPREC
 70
     2
  9
$MENU
  1
.
  9
$ELEVATION
 40
0.0
  9
$PELEVATION
 40
0.0
  9
$THICKNESS
 40
0.0
  9
$LIMCHECK
 70
     0
  9
$CHAMFERA
 40
10.0
  9
$CHAMFERB
 40
10.0
  9
$CHAMFERC
 40
0.0
  9
$CHAMFERD
 40
0.0
  9
$SKPOLY
 70
     0
  9
$TDCREATE
 40
2451301.576262500
  9
$TDUCREATE
 40
2451301.201262500
  9
$TDUPDATE
 40
2457192.687808761
  9
$TDUUPDATE
 40
2457192.312808762
  9
$TDINDWG
 40
0.0000113310
  9
$TDUSRTIMER
 40
0.0000108565
  9
$USRTIMER
 70
     1
  9
$ANGBASE
 50
0.0
  9
$ANGDIR
 70
     0
  9
$PDMODE
 70
     0
  9
$PDSIZE
 40
0.0
  9
$PLINEWID
 40
0.0
  9
$SPLFRAME
 70
     0
  9
$SPLINETYPE
 70
     6
  9
$SPLINESEGS
 70
     8
  9
$HANDSEED
  5
A029
  9
$SURFTAB1
 70
     6
  9
$SURFTAB2
 70
     6
  9
$SURFTYPE
 70
     6
  9
$SURFU
 70
     6
  9
$SURFV
 70
     6
  9
$UCSBASE
  2

  9
$UCSNAME
  2

  9
$UCSORG
 10
0.0
 20
0.0
 30
0.0
  9
$UCSXDIR
 10
1.0
 20
0.0
 30
0.0
  9
$UCSYDIR
 10
0.0
 20
1.0
 30
0.0
  9
$UCSORTHOREF
  2

  9
$UCSORTHOVIEW
 70
     0
  9
$UCSORGTOP
 10
0.0
 20
0.0
 30
0.0
  9
$UCSORGBOTTOM
 10
0.0
 20
0.0
 30
0.0
  9
$UCSORGLEFT
 10
0.0
 20
0.0
 30
0.0
  9
$UCSORGRIGHT
 10
0.0
 20
0.0
 30
0.0
  9
$UCSORGFRONT
 10
0.0
 20
0.0
 30
0.0
  9
$UCSORGBACK
 10
0.0
 20
0.0
 30
0.0
  9
$PUCSBASE
  2

  9
$PUCSNAME
  2

  9
$PUCSORG
 10
0.0
 20
0.0
 30
0.0
  9
$PUCSXDIR
 10
1.0
 20
0.0
 30
0.0
  9
$PUCSYDIR
 10
0.0
 20
1.0
 30
0.0
  9
$PUCSORTHOREF
  2

  9
$PUCSORTHOVIEW
 70
     0
  9
$PUCSORGTOP
 10
0.0
 20
0.0
 30
0.0
  9
$PUCSORGBOTTOM
 10
0.0
 20
0.0
 30
0.0
  9
$PUCSORGLEFT
 10
0.0
 20
0.0
 30
0.0
  9
$PUCSORGRIGHT
 10
0.0
 20
0.0
 30
0.0
  9
$PUCSORGFRONT
 10
0.0
 20
0.0
 30
0.0
  9
$PUCSORGBACK
 10
0.0
 20
0.0
 30
0.0
  9
$USERI1
 70
     0
  9
$USERI2
 70
     0
  9
$USERI3
 70
     0
  9
$USERI4
 70
     0
  9
$USERI5
 70
     0
  9
$USERR1
 40
0.0
  9
$USERR2
 40
0.0
  9
$USERR3
 40
0.0
  9
$USERR4
 40
0.0
  9
$USERR5
 40
0.0
  9
$WORLDVIEW
 70
     1
  9
$SHADEDGE
 70
     3
  9
$SHADEDIF
 70
    70
  9
$TILEMODE
 70
     1
  9
$MAXACTVP
 70
    16
  9
$PINSBASE
 10
0.0
 20
0.0
 30
0.0
  9
$PLIMCHECK
 70
     0
  9
$PEXTMIN
 10
1.000000000000000E+20
 20
1.000000000000000E+20
 30
1.000000000000000E+20
  9
$PEXTMAX
 10
-1.000000000000000E+20
 20
-1.000000000000000E+20
 30
-1.000000000000000E+20
  9
$PLIMMIN
 10
0.0
 20
0.0
  9
$PLIMMAX
 10
420.0
 20
297.0
  9
$UNITMODE
 70
     0
  9
$VISRETAIN
 70
     0
  9
$PLINEGEN
 70
     0
  9
$PSLTSCALE
 70
     0
  9
$TREEDEPTH
 70
  3020
  9
$CMLSTYLE
  2
STANDARD
  9
$CMLJUST
 70
     0
  9
$CMLSCALE
 40
1.0
  9
$PROXYGRAPHICS
 70
     1
  9
$MEASUREMENT
 70
     0
  9
$CELWEIGHT
370
    -1
  9
$ENDCAPS
280
     0
  9
$JOINSTYLE
280
     0
  9
$LWDISPLAY
290
     0
  9
$INSUNITS
 70
     0
  9
$HYPERLINKBASE
  1

  9
$STYLESHEET
  1

  9
$XEDIT
290
     1
  9
$CEPSNTYPE
380
     0
  9
$PSTYLEMODE
290
     1
  9
$FINGERPRINTGUID
  2
{3F3D7CD2-508D-4D55-A099-06798114B4A6}
  9
$VERSIONGUID
  2
{31F2DB11-6AE2-4388-B304-3867EBE3104C}
  9
$EXTNAMES
290
     1
  9
$PSVPSCALE
 40
0.0
  9
$OLESTARTUP
290
     0
  0
ENDSEC
  0
SECTION
  2
CLASSES
  0
CLASS
  1
ACDBDICTIONARYWDFLT
  2
AcDbDictionaryWithDefault
  3
ObjectDBX Classes
 90
        0
280
     0
281
     0
  0
CLASS
  1
ACDBPLACEHOLDER
  2
AcDbPlaceHolder
  3
ObjectDBX Classes
 90
        0
280
     0
281
     0
  0
CLASS
  1
LAYOUT
  2
AcDbLayout
  3
ObjectDBX Classes
 90
        0
280
     0
281
     0
  0
CLASS
  1
DICTIONARYVAR
  2
AcDbDictionaryVar
  3
ObjectDBX Classes
 90
        0
280
     0
281
     0
  0
CLASS
  1
MATERIAL
  2
AcDbMaterial
  3
ObjectDBX Classes
 90
     1153
280
     0
281
     0
  0
CLASS
  1
VISUALSTYLE
  2
AcDbVisualStyle
  3
ObjectDBX Classes
 90
     4095
280
     0
281
     0
  0
CLASS
  1
TABLESTYLE
  2
AcDbTableStyle
  3
ObjectDBX Classes
 90
     4095
280
     0
281
     0
  0
CLASS
  1
SCALE
  2
AcDbScale
  3
ObjectDBX Classes
 90
     1153
280
     0
281
     0
  0
CLASS
  1
MLEADERSTYLE
  2
AcDbMLeaderStyle
  3
ACDB_MLEADERSTYLE_CLASS
 90
     4095
280
     0
281
     0
  0
CLASS
  1
ACDBSECTIONVIEWSTYLE
  2
AcDbSectionViewStyle
  3
ObjectDBX Classes
 90
     1025
280
     0
281
     0
  0
CLASS
  1
ACDBDETAILVIEWSTYLE
  2
AcDbDetailViewStyle
  3
ObjectDBX Classes
 90
     1025
280
     0
281
     0
  0
CLASS
  1
CELLSTYLEMAP
  2
AcDbCellStyleMap
  3
ObjectDBX Classes
 90
     1152
280
     0
281
     0
  0
ENDSEC
  0
SECTION
  2
TABLES
  0
TABLE
  2
VPORT
  5
9C36
330
0
100
AcDbSymbolTable
 70
     1
  0
VPORT
  5
9F72
330
9C36
100
AcDbSymbolTableRecord
100
AcDbViewportTableRecord
  2
*ACTIVE
 70
     0
 10
0.0
 20
0.0
 11
1.0
 21
1.0
 12
407.1630936314513
 22
228.6566632069375
 13
0.0
 23
0.0
 14
10.0
 24
10.0
 15
10.0
 25
10.0
 16
0.0
 26
0.0
 36
1.0
 17
0.0
 27
0.0
 37
0.0
 40
442.1841454676061
 41
2.35006605019815
 42
50.0
 43
0.0
 44
0.0
 50
0.0
 51
0.0
 71
     0
 72
   100
 73
     1
 74
     0
 75
     0
 76
     0
 77
     0
 78
     0
281
     0
 65
     1
110
0.0
120
0.0
130
0.0
111
1.0
121
0.0
131
0.0
112
0.0
122
1.0
132
0.0
 79
     0
146
0.0
1001
ACAD_NAV_VCDISPLAY
1070
     3
  0
ENDTAB
  0
TABLE
  2
LTYPE
  5
9C33
330
0
100
AcDbSymbolTable
 70
     4
  0
LTYPE
  5
9C41
330
9C33
100
AcDbSymbolTableRecord
100
AcDbLinetypeTableRecord
  2
BYBLOCK
 70
     0
  3

 72
    65
 73
     0
 40
0.0
  0
LTYPE
  5
9C42
330
9C33
100
AcDbSymbolTableRecord
100
AcDbLinetypeTableRecord
  2
BYLAYER
 70
     0
  3

 72
    65
 73
     0
 40
0.0
  0
LTYPE
  5
9C43
330
9C33
100
AcDbSymbolTableRecord
100
AcDbLinetypeTableRecord
  2
CONTINUOUS
 70
     0
  3
Solid line
 72
    65
 73
     0
 40
0.0
  0
LTYPE
  5
9C51
330
9C33
100
AcDbSymbolTableRecord
100
AcDbLinetypeTableRecord
  2
DASHED
 70
     0
  3
__ __ __ __ __ __ __ __ __ __ __ __ __ __ __ __
 72
    65
 73
     2
 40
0.75
 49
0.5
 74
     0
 49
-0.25
 74
     0
  0
LTYPE
  5
9C52
330
9C33
100
AcDbSymbolTableRecord
100
AcDbLinetypeTableRecord
  2
CENTER
 70
     0
  3
____ _ ____ _ ____ _ ____ _ ____ _ ____ _ ____ 
 72
    65
 73
     4
 40
2.0
 49
1.25
 74
     0
 49
-0.25
 74
     0
 49
0.25
 74
     0
 49
-0.25
 74
     0
  0
LTYPE
  5
9C53
330
9C33
100
AcDbSymbolTableRecord
100
AcDbLinetypeTableRecord
  2
PHANTOM
 70
     0
  3
______  __  __  ______  __  __  ______  __  __ 
 72
    65
 73
     6
 40
2.5
 49
1.25
 74
     0
 49
-0.25
 74
     0
 49
0.25
 74
     0
 49
-0.25
 74
     0
 49
0.25
 74
     0
 49
-0.25
 74
     0
  0
ENDTAB
  0
TABLE
  2
LAYER
  5
9C30
330
0
100
AcDbSymbolTable
 70
     8
  0
LAYER
  5
9C3E
102
{ACAD_XDICTIONARY
360
9FCD
102
}
330
9C30
100
AcDbSymbolTableRecord
100
AcDbLayerTableRecord
  2
0
 70
     0
 62
     7
  6
CONTINUOUS
370
    -3
390
9F7B
  0
LAYER
  5
9C54
102
{ACAD_XDICTIONARY
360
9FCF
102
}
330
9C30
100
AcDbSymbolTableRecord
100
AcDbLayerTableRecord
  2
4
 70
     0
 62
     1
  6
CENTER
370
    -3
390
9F7B
  0
LAYER
  5
9C55
102
{ACAD_XDICTIONARY
360
9FD1
102
}
330
9C30
100
AcDbSymbolTableRecord
100
AcDbLayerTableRecord
  2
5
 70
     0
 62
     6
  6
PHANTOM
370
    -3
390
9F7B
  0
LAYER
  5
9C56
102
{ACAD_XDICTIONARY
360
9FD3
102
}
330
9C30
100
AcDbSymbolTableRecord
100
AcDbLayerTableRecord
  2
1
 70
     0
 62
     7
  6
CONTINUOUS
370
    -3
390
9F7B
  0
LAYER
  5
9C57
102
{ACAD_XDICTIONARY
360
9FD5
102
}
330
9C30
100
AcDbSymbolTableRecord
100
AcDbLayerTableRecord
  2
2
 70
     0
 62
     4
  6
CONTINUOUS
370
    -3
390
9F7B
  0
LAYER
  5
9C58
102
{ACAD_XDICTIONARY
360
9FD7
102
}
330
9C30
100
AcDbSymbolTableRecord
100
AcDbLayerTableRecord
  2
3
 70
     0
 62
     2
  6
DASHED
370
    -3
390
9F7B
  0
LAYER
  5
9C59
102
{ACAD_XDICTIONARY
360
9FD9
102
}
330
9C30
100
AcDbSymbolTableRecord
100
AcDbLayerTableRecord
  2
6
 70
     0
 62
     5
  6
CONTINUOUS
370
    -3
390
9F7B
  0
LAYER
  5
9C5A
102
{ACAD_XDICTIONARY
360
9FDB
102
}
330
9C30
100
AcDbSymbolTableRecord
100
AcDbLayerTableRecord
  2
7
 70
     0
 62
     3
  6
CONTINUOUS
370
    -3
390
9F7B
  0
ENDTAB
  0
TABLE
  2
STYLE
  5
9C31
330
0
100
AcDbSymbolTable
 70
     1
  0
STYLE
  5
9C3F
330
9C31
100
AcDbSymbolTableRecord
100
AcDbTextStyleTableRecord
  2
STANDARD
 70
     0
 40
0.0
 41
1.0
 50
0.0
 71
     0
 42
5.0
  3
txt
  4

  0
ENDTAB
  0
TABLE
  2
VIEW
  5
9C34
330
0
100
AcDbSymbolTable
 70
     0
  0
ENDTAB
  0
TABLE
  2
UCS
  5
9C35
330
0
100
AcDbSymbolTable
 70
     0
  0
ENDTAB
  0
TABLE
  2
APPID
  5
9C37
330
0
100
AcDbSymbolTable
 70
     3
  0
APPID
  5
9C40
330
9C37
100
AcDbSymbolTableRecord
100
AcDbRegAppTableRecord
  2
ACAD
 70
     0
  0
APPID
  5
9FE7
330
9C37
100
AcDbSymbolTableRecord
100
AcDbRegAppTableRecord
  2
ACAD_NAV_VCDISPLAY
 70
     0
  0
APPID
  5
A020
330
9C37
100
AcDbSymbolTableRecord
100
AcDbRegAppTableRecord
  2
ACAD_MLEADERVER
 70
     0
  0
ENDTAB
  0
TABLE
  2
DIMSTYLE
  5
9C38
330
0
100
AcDbSymbolTable
 70
     1
100
AcDbDimStyleTable
 71
     0
  0
DIMSTYLE
105
9C5C
330
9C38
100
AcDbSymbolTableRecord
100
AcDbDimStyleTableRecord
  2
STANDARD
 70
     0
 41
3.0
 42
1.0
 43
10.0
 44
1.0
 73
     0
 74
     0
 77
     3
 78
     8
140
3.2
141
0.0
147
1.0
172
     1
173
     1
284
     8
285
     8
286
     8
340
9C3F
  0
ENDTAB
  0
TABLE
  2
BLOCK_RECORD
  5
9C2F
330
0
100
AcDbSymbolTable
 70
     1
  0
BLOCK_RECORD
  5
9C4C
102
{ACAD_XDICTIONARY
360
9F75
102
}
330
9C2F
100
AcDbSymbolTableRecord
100
AcDbBlockTableRecord
  2
*MODEL_SPACE
340
9FC9
  0
BLOCK_RECORD
  5
9C48
102
{ACAD_XDICTIONARY
360
9F73
102
}
330
9C2F
100
AcDbSymbolTableRecord
100
AcDbBlockTableRecord
  2
*PAPER_SPACE
340
9FCA
  0
BLOCK_RECORD
  5
9C64
330
9C2F
100
AcDbSymbolTableRecord
100
AcDbBlockTableRecord
  2
_OPEN
340
0
  0
ENDTAB
  0
ENDSEC
  0
SECTION
  2
BLOCKS
  0
BLOCK
  5
9C4D
330
9C4C
100
AcDbEntity
  8
0
100
AcDbBlockBegin
  2
*MODEL_SPACE
 70
     0
 10
0.0
 20
0.0
 30
0.0
  3
*MODEL_SPACE
  1

  0
ENDBLK
  5
9C4E
330
9C4C
100
AcDbEntity
  8
0
100
AcDbBlockEnd
  0
BLOCK
  5
9C49
330
9C48
100
AcDbEntity
 67
     1
  8
0
100
AcDbBlockBegin
  2
*PAPER_SPACE
 70
     0
 10
0.0
 20
0.0
 30
0.0
  3
*PAPER_SPACE
  1

  0
ENDBLK
  5
9C4A
330
9C48
100
AcDbEntity
 67
     1
  8
0
100
AcDbBlockEnd
  0
BLOCK
  5
9C65
330
9C64
100
AcDbEntity
  8
0
100
AcDbBlockBegin
  2
_OPEN
 70
     0
 10
0.0
 20
0.0
 30
0.0
  3
_OPEN
  1

  0
LINE
  5
9C66
330
9C64
100
AcDbEntity
  8
0
  6
ByBlock
 62
     0
100
AcDbLine
 10
-1.0
 20
0.166667
 30
0.0
 11
0.0
 21
0.0
 31
0.0
  0
LINE
  5
9C67
330
9C64
100
AcDbEntity
  8
0
  6
ByBlock
 62
     0
100
AcDbLine
 10
0.0
 20
0.0
 30
0.0
 11
-1.0
 21
-0.166667
 31
0.0
  0
LINE
  5
9C68
330
9C64
100
AcDbEntity
  8
0
  6
ByBlock
 62
     0
100
AcDbLine
 10
0.0
 20
0.0
 30
0.0
 11
-1.0
 21
0.0
 31
0.0
  0
ENDBLK
  5
9C69
330
9C64
100
AcDbEntity
  8
0
100
AcDbBlockEnd
  0
ENDSEC
  0
SECTION
  2
ENTITIES
  0
TEXT
  5
9C6A
330
9C4C
100
AcDbEntity
  8
7
  6
Continuous
100
AcDbText
 10
10.0
 20
18.0
 30
0.0
 40
3.0
  1
TYPE No.207 d=21
100
AcDbText
  0
TEXT
  5
9C6B
330
9C4C
100
AcDbEntity
  8
7
  6
Continuous
100
AcDbText
 10
10.0
 20
26.0
 30
0.0
 40
3.0
  1
CODE No.9168
100
AcDbText
  0
TEXT
  5
9C6C
330
9C4C
100
AcDbEntity
  8
1
  6
Continuous
100
AcDbText
 10
10.0
 20
10.0
 30
0.0
 40
1.399999999999999
  1
LAYER
100
AcDbText
  0
TEXT
  5
9C6D
330
9C4C
100
AcDbEntity
  8
1
  6
Continuous
100
AcDbText
 10
17.97951099999998
 20
10.04873699999998
 30
0.0
 40
1.399999999999999
  1
1
100
AcDbText
  0
TEXT
  5
9C6E
330
9C4C
100
AcDbEntity
  8
7
  6
Continuous
100
AcDbText
 10
29.97951099999999
 20
10.04873699999998
 30
0.0
 40
1.399999999999999
  1
7
100
AcDbText
  0
TEXT
  5
9C6F
330
9C4C
100
AcDbEntity
  8
4
  6
CENTER
100
AcDbText
 10
23.97951099999999
 20
10.04873699999998
 30
0.0
 40
1.399999999999999
  1
4
100
AcDbText
  0
TEXT
  5
9C70
330
9C4C
100
AcDbEntity
  8
3
  6
DASHED
100
AcDbText
 10
21.979511
 20
10.04873699999998
 30
0.0
 40
1.399999999999999
  1
3
100
AcDbText
  0
TEXT
  5
9C71
330
9C4C
100
AcDbEntity
  8
2
  6
Continuous
100
AcDbText
 10
19.97951099999999
 20
10.04873699999998
 30
0.0
 40
1.399999999999999
  1
2
100
AcDbText
  0
TEXT
  5
9C72
330
9C4C
100
AcDbEntity
  8
6
  6
Continuous
100
AcDbText
 10
27.979511
 20
10.04873699999998
 30
0.0
 40
1.399999999999999
  1
6
100
AcDbText
  0
TEXT
  5
9C73
330
9C4C
100
AcDbEntity
  8
5
  6
PHANTOM
100
AcDbText
 10
25.97951099999999
 20
10.04873699999998
 30
0.0
 40
1.399999999999999
  1
5
100
AcDbText
  0
LINE
  5
9C74
330
9C4C
100
AcDbEntity
  8
4
  6
CENTER
100
AcDbLine
 10
539.4316719999998
 20
206.4271629999999
 30
0.0
 11
424.2014619999998
 21
206.4441629999998
 31
0.0
  0
ARC
  5
9C75
330
9C4C
100
AcDbEntity
  8
1
  6
Continuous
100
AcDbCircle
 10
481.4316719999998
 20
206.4357199999999
 30
0.0
 40
30.0
100
AcDbArc
 50
163.667702
 51
93.91638099999999
  0
ARC
  5
9C76
330
9C4C
100
AcDbEntity
  8
1
  6
Continuous
100
AcDbCircle
 10
481.4316719999998
 20
206.4357199999999
 30
0.0
 40
41.0
100
AcDbArc
 50
153.520815
 51
95.62902999999998
  0
ARC
  5
9C77
330
9C4C
100
AcDbEntity
  8
1
  6
Continuous
100
AcDbCircle
 10
481.4316719999998
 20
206.4357199999999
 30
0.0
 40
50.0
100
AcDbArc
 50
147.361186
 51
94.85854399999999
  0
LINE
  5
9C78
330
9C4C
100
AcDbEntity
  8
4
  6
CENTER
100
AcDbLine
 10
257.0110349999998
 20
71.975465
 30
0.0
 11
136.586035
 21
71.975465
 31
0.0
  0
ARC
  5
9C79
330
9C4C
100
AcDbEntity
  8
1
  6
Continuous
100
AcDbCircle
 10
191.5864479999999
 20
206.4357199999999
 30
0.0
 40
50.0
100
AcDbArc
 50
85.141456
 51
32.63881400000001
  0
ARC
  5
9C7A
330
9C4C
100
AcDbEntity
  8
1
  6
Continuous
100
AcDbCircle
 10
191.5864479999999
 20
206.4357199999999
 30
0.0
 40
41.0
100
AcDbArc
 50
84.37096999999999
 51
26.47918499999999
  0
LINE
  5
9C7B
330
9C4C
100
AcDbEntity
  8
1
  6
Continuous
100
AcDbLine
 10
46.12156599999997
 20
162.157055
 30
0.0
 11
46.12156599999997
 21
250.6956989999999
 31
0.0
  0
LINE
  5
9C7C
330
9C4C
100
AcDbEntity
  8
1
  6
Continuous
100
AcDbLine
 10
68.121566
 20
162.157055
 30
0.0
 11
68.121566
 21
250.6956989999999
 31
0.0
  0
LINE
  5
9C7D
330
9C4C
100
AcDbEntity
  8
4
  6
CENTER
100
AcDbLine
 10
57.121566
 20
335.4266509999998
 30
0.0
 11
57.121566
 21
148.426377
 31
0.0
  0
ARC
  5
9C7E
330
9C4C
100
AcDbEntity
  8
1
  6
Continuous
100
AcDbCircle
 10
57.121566
 20
186.4263769999998
 30
0.0
 40
30.0
100
AcDbArc
 50
256.1134599999999
 51
283.8865399999999
  0
ARC
  5
9C7F
330
9C4C
100
AcDbEntity
  8
1
  6
Continuous
100
AcDbCircle
 10
51.12156599999998
 20
162.157055
 30
0.0
 40
5.0
100
AcDbArc
 50
180.0
 51
256.1134599999999
  0
ARC
  5
9C80
330
9C4C
100
AcDbEntity
  8
1
  6
Continuous
100
AcDbCircle
 10
63.121566
 20
162.157055
 30
0.0
 40
5.0
100
AcDbArc
 50
283.8865399999999
 51
0.0
  0
ARC
  5
9C81
330
9C4C
100
AcDbEntity
  8
1
  6
Continuous
100
AcDbCircle
 10
200.6052659999999
 20
99.392674
 30
0.0
 40
11.59999999999999
100
AcDbArc
 50
270.0
 51
311.174929
  0
ARC
  5
9C82
330
9C4C
100
AcDbEntity
  8
1
  6
Continuous
100
AcDbCircle
 10
224.586035
 20
71.975465
 30
0.0
 40
19.82499999999999
100
AcDbArc
 50
213.700727
 51
146.299273
  0
ARC
  5
9C83
330
9C4C
100
AcDbEntity
  8
1
  6
Continuous
100
AcDbCircle
 10
224.586035
 20
71.975465
 30
0.0
 40
24.82499999999999
100
AcDbArc
 50
228.8251119999999
 51
131.1749289999999
  0
ARC
  5
9C84
330
9C4C
100
AcDbEntity
  8
1
  6
Continuous
100
AcDbCircle
 10
224.586035
 20
71.975465
 30
0.0
 40
27.425
100
AcDbArc
 50
228.8251119999999
 51
131.1749289999999
  0
LINE
  5
9C85
330
9C4C
100
AcDbEntity
  8
1
  6
Continuous
100
AcDbLine
 10
180.437878
 20
90.39267399999998
 30
0.0
 11
180.437878
 21
87.792674
 31
0.0
  0
LINE
  5
9C86
330
9C4C
100
AcDbEntity
  8
4
  6
CENTER
100
AcDbLine
 10
191.586035
 20
103.8582389999999
 30
0.0
 11
191.586035
 21
43.55823899999999
 31
0.0
  0
LINE
  5
9C87
330
9C4C
100
AcDbEntity
  8
4
  6
CENTER
100
AcDbLine
 10
224.586035
 20
104.4004649999999
 30
0.0
 11
224.586035
 21
39.550465
 31
0.0
  0
ARC
  5
9C88
330
9C4C
100
AcDbEntity
  8
1
  6
Continuous
100
AcDbCircle
 10
191.586035
 20
59.058239
 30
0.0
 40
10.5
100
AcDbArc
 50
228.1896849999998
 51
311.810315
  0
LINE
  5
9C89
330
9C4C
100
AcDbEntity
  8
1
  6
Continuous
100
AcDbLine
 10
198.586035
 20
51.232001
 30
0.0
 11
184.586035
 21
51.232001
 31
0.0
  0
LINE
  5
9C8A
330
9C4C
100
AcDbEntity
  8
1
  6
Continuous
100
AcDbLine
 10
180.437878
 20
56.158239
 30
0.0
 11
200.605285
 21
56.158239
 31
0.0
  0
LINE
  5
9C8B
330
9C4C
100
AcDbEntity
  8
1
  6
Continuous
100
AcDbLine
 10
180.437878
 20
87.792674
 30
0.0
 11
200.6052659999999
 21
87.792674
 31
0.0
  0
LINE
  5
9C8C
330
9C4C
100
AcDbEntity
  8
1
  6
Continuous
100
AcDbLine
 10
180.437878
 20
53.558239
 30
0.0
 11
200.605285
 21
53.558239
 31
0.0
  0
LINE
  5
9C8D
330
9C4C
100
AcDbEntity
  8
1
  6
Continuous
100
AcDbLine
 10
182.7844149999999
 20
86.225465
 30
0.0
 11
200.387656
 21
86.225465
 31
0.0
  0
LINE
  5
9C8E
330
9C4C
100
AcDbEntity
  8
1
  6
Continuous
100
AcDbLine
 10
184.0860349999999
 20
87.22546499999998
 30
0.0
 11
199.086035
 21
87.22546499999998
 31
0.0
  0
LINE
  5
9C8F
330
9C4C
100
AcDbEntity
  8
1
  6
Continuous
100
AcDbLine
 10
197.086035
 20
87.475465
 30
0.0
 11
186.086035
 21
87.475465
 31
0.0
  0
LINE
  5
9C90
330
9C4C
100
AcDbEntity
  8
1
  6
Continuous
100
AcDbLine
 10
182.7844149999999
 20
57.725465
 30
0.0
 11
200.387656
 21
57.725465
 31
0.0
  0
LINE
  5
9C91
330
9C4C
100
AcDbEntity
  8
1
  6
Continuous
100
AcDbLine
 10
184.0860349999999
 20
56.725465
 30
0.0
 11
199.086035
 21
56.725465
 31
0.0
  0
LINE
  5
9C92
330
9C4C
100
AcDbEntity
  8
1
  6
Continuous
100
AcDbLine
 10
197.086035
 20
56.475465
 30
0.0
 11
186.086035
 21
56.475465
 31
0.0
  0
LINE
  5
9C93
330
9C4C
100
AcDbEntity
  8
1
  6
Continuous
100
AcDbLine
 10
235.8553569999999
 20
82.97546500000001
 30
0.0
 11
147.316713
 21
82.97546500000001
 31
0.0
  0
LINE
  5
9C94
330
9C4C
100
AcDbEntity
  8
1
  6
Continuous
100
AcDbLine
 10
235.8553569999999
 20
60.97546499999999
 30
0.0
 11
147.316713
 21
60.97546499999999
 31
0.0
  0
ARC
  5
9C95
330
9C4C
100
AcDbEntity
  8
1
  6
Continuous
100
AcDbCircle
 10
171.5860349999998
 20
71.975465
 30
0.0
 40
30.0
100
AcDbArc
 50
166.11346
 51
193.88654
  0
ARC
  5
9C96
330
9C4C
100
AcDbEntity
  8
1
  6
Continuous
100
AcDbCircle
 10
147.316713
 20
65.97546499999999
 30
0.0
 40
5.0
100
AcDbArc
 50
193.88654
 51
270.0
  0
ARC
  5
9C97
330
9C4C
100
AcDbEntity
  8
1
  6
Continuous
100
AcDbCircle
 10
147.316713
 20
77.975465
 30
0.0
 40
5.0
100
AcDbArc
 50
90.0
 51
166.11346
  0
LINE
  5
9C98
330
9C4C
100
AcDbEntity
  8
1
  6
Continuous
100
AcDbLine
 10
184.586035
 20
51.232001
 30
0.0
 11
184.586035
 21
53.558239
 31
0.0
  0
LINE
  5
9C99
330
9C4C
100
AcDbEntity
  8
1
  6
Continuous
100
AcDbLine
 10
180.437878
 20
56.158239
 30
0.0
 11
180.437878
 21
53.558239
 31
0.0
  0
ARC
  5
9C9A
330
9C4C
100
AcDbEntity
  8
1
  6
Continuous
100
AcDbCircle
 10
187.568428
 20
76.11332
 30
0.0
 40
19.0
100
AcDbArc
 50
232.818892
 51
255.416531
  0
LINE
  5
9C9B
330
9C4C
100
AcDbEntity
  8
1
  6
Continuous
100
AcDbLine
 10
187.586035
 20
56.158239
 30
0.0
 11
187.586035
 21
56.475465
 31
0.0
  0
LINE
  5
9C9C
330
9C4C
100
AcDbEntity
  8
1
  6
Continuous
100
AcDbLine
 10
186.086035
 20
56.475465
 30
0.0
 11
186.086035
 21
56.725465
 31
0.0
  0
ARC
  5
9C9D
330
9C4C
100
AcDbEntity
  8
1
  6
Continuous
100
AcDbCircle
 10
184.546379
 20
58.671765
 30
0.0
 40
2.0
100
AcDbArc
 50
208.2389669999999
 51
256.692819
  0
LINE
  5
9C9E
330
9C4C
100
AcDbEntity
  8
1
  6
Continuous
100
AcDbLine
 10
187.586035
 20
87.792674
 30
0.0
 11
187.586035
 21
87.475465
 31
0.0
  0
LINE
  5
9C9F
330
9C4C
100
AcDbEntity
  8
1
  6
Continuous
100
AcDbLine
 10
186.086035
 20
87.475465
 30
0.0
 11
186.086035
 21
87.22546499999998
 31
0.0
  0
ARC
  5
9CA0
330
9C4C
100
AcDbEntity
  8
1
  6
Continuous
100
AcDbCircle
 10
187.568428
 20
67.837609
 30
0.0
 40
19.0
100
AcDbArc
 50
104.5834689999998
 51
127.181108
  0
ARC
  5
9CA1
330
9C4C
100
AcDbEntity
  8
1
  6
Continuous
100
AcDbCircle
 10
184.546379
 20
85.27916500000001
 30
0.0
 40
2.0
100
AcDbArc
 50
103.307181
 51
151.761033
  0
ARC
  5
9CA2
330
9C4C
100
AcDbEntity
  8
1
  6
Continuous
100
AcDbCircle
 10
224.586035
 20
71.975465
 30
0.0
 40
11.82499999999999
100
AcDbArc
 50
68.471096
 51
111.5289039999999
  0
ARC
  5
9CA3
330
9C4C
100
AcDbEntity
  8
1
  6
Continuous
100
AcDbCircle
 10
224.586035
 20
71.975465
 30
0.0
 40
11.82499999999999
100
AcDbArc
 50
248.4710959999999
 51
291.528904
  0
ARC
  5
9CA4
330
9C4C
100
AcDbEntity
  8
1
  6
Continuous
100
AcDbCircle
 10
200.605285
 20
44.558239
 30
0.0
 40
11.59999999999999
100
AcDbArc
 50
48.82511199999999
 51
90.0
  0
LINE
  5
9CA5
330
9C4C
100
AcDbEntity
  8
1
  6
Continuous
100
AcDbLine
 10
198.586035
 20
51.232001
 30
0.0
 11
198.586035
 21
53.558239
 31
0.0
  0
ARC
  5
9CA6
330
9C4C
100
AcDbEntity
  8
1
  6
Continuous
100
AcDbCircle
 10
200.605285
 20
44.558239
 30
0.0
 40
9.0
100
AcDbArc
 50
48.82511199999999
 51
90.0
  0
ARC
  5
9CA7
330
9C4C
100
AcDbEntity
  8
1
  6
Continuous
100
AcDbCircle
 10
195.603643
 20
76.11332
 30
0.0
 40
19.0
100
AcDbArc
 50
284.583469
 51
307.1811079999998
  0
ARC
  5
9CA8
330
9C4C
100
AcDbEntity
  8
1
  6
Continuous
100
AcDbCircle
 10
198.6256919999999
 20
58.671765
 30
0.0
 40
2.0
100
AcDbArc
 50
283.307181
 51
331.7610329999999
  0
LINE
  5
9CA9
330
9C4C
100
AcDbEntity
  8
1
  6
Continuous
100
AcDbLine
 10
195.586035
 20
56.158239
 30
0.0
 11
195.586035
 21
56.475465
 31
0.0
  0
LINE
  5
9CAA
330
9C4C
100
AcDbEntity
  8
1
  6
Continuous
100
AcDbLine
 10
197.086035
 20
56.475465
 30
0.0
 11
197.086035
 21
56.725465
 31
0.0
  0
ARC
  5
9CAB
330
9C4C
100
AcDbEntity
  8
1
  6
Continuous
100
AcDbCircle
 10
195.603643
 20
67.837609
 30
0.0
 40
19.0
100
AcDbArc
 50
52.81889200000001
 51
75.41653100000002
  0
ARC
  5
9CAC
330
9C4C
100
AcDbEntity
  8
1
  6
Continuous
100
AcDbCircle
 10
198.6256919999999
 20
85.27916500000001
 30
0.0
 40
2.0
100
AcDbArc
 50
28.238967
 51
76.692819
  0
LINE
  5
9CAD
330
9C4C
100
AcDbEntity
  8
1
  6
Continuous
100
AcDbLine
 10
195.586035
 20
87.475465
 30
0.0
 11
195.586035
 21
87.792674
 31
0.0
  0
LINE
  5
9CAE
330
9C4C
100
AcDbEntity
  8
1
  6
Continuous
100
AcDbLine
 10
197.086035
 20
87.475465
 30
0.0
 11
197.086035
 21
87.22546499999998
 31
0.0
  0
ARC
  5
9CAF
330
9C4C
100
AcDbEntity
  8
1
  6
Continuous
100
AcDbCircle
 10
211.586035
 20
71.975465
 30
0.0
 40
30.0
100
AcDbArc
 50
346.1134599999998
 51
13.88654
  0
ARC
  5
9CB0
330
9C4C
100
AcDbEntity
  8
1
  6
Continuous
100
AcDbCircle
 10
235.8553569999999
 20
65.97546499999999
 30
0.0
 40
5.0
100
AcDbArc
 50
270.0
 51
346.1134599999998
  0
ARC
  5
9CB1
330
9C4C
100
AcDbEntity
  8
1
  6
Continuous
100
AcDbCircle
 10
235.8553569999999
 20
77.975465
 30
0.0
 40
5.0
100
AcDbArc
 50
13.88654
 51
90.0
  0
ARC
  5
9CB2
330
9C4C
100
AcDbEntity
  8
1
  6
Continuous
100
AcDbCircle
 10
188.586035
 20
88.72761099999998
 30
0.0
 40
8.665063999999999
100
AcDbArc
 50
69.743842
 51
110.256158
  0
ARC
  5
9CB3
330
9C4C
100
AcDbEntity
  8
1
  6
Continuous
100
AcDbCircle
 10
188.586035
 20
101.0577379999999
 30
0.0
 40
8.665063999999999
100
AcDbArc
 50
249.7438419999999
 51
290.256158
  0
LINE
  5
9CB4
330
9C4C
100
AcDbEntity
  8
1
  6
Continuous
100
AcDbLine
 10
185.586035
 20
97.39267400000001
 30
0.0
 11
197.5860349999999
 21
97.39267400000001
 31
0.0
  0
LINE
  5
9CB5
330
9C4C
100
AcDbEntity
  8
1
  6
Continuous
100
AcDbLine
 10
180.437878
 20
90.39267399999998
 30
0.0
 11
200.6052659999999
 21
90.39267399999998
 31
0.0
  0
LINE
  5
9CB6
330
9C4C
100
AcDbEntity
  8
1
  6
Continuous
100
AcDbLine
 10
199.086035
 20
92.39267400000001
 30
0.0
 11
184.0860349999999
 21
92.39267400000001
 31
0.0
  0
LINE
  5
9CB7
330
9C4C
100
AcDbEntity
  8
1
  6
Continuous
100
AcDbLine
 10
189.586035
 20
92.39267400000001
 30
0.0
 11
191.586035
 21
90.39267399999998
 31
0.0
  0
LINE
  5
9CB8
330
9C4C
100
AcDbEntity
  8
1
  6
Continuous
100
AcDbLine
 10
194.9204699999999
 20
98.858239
 30
0.0
 11
188.2625349999999
 21
98.858239
 31
0.0
  0
LINE
  5
9CB9
330
9C4C
100
AcDbEntity
  8
1
  6
Continuous
100
AcDbLine
 10
195.586035
 20
98.19267400000001
 30
0.0
 11
187.586035
 21
98.19267400000001
 31
0.0
  0
LINE
  5
9CBA
330
9C4C
100
AcDbEntity
  8
1
  6
Continuous
100
AcDbLine
 10
185.586035
 20
97.39267400000001
 30
0.0
 11
185.586035
 21
92.39267400000001
 31
0.0
  0
LINE
  5
9CBB
330
9C4C
100
AcDbEntity
  8
1
  6
Continuous
100
AcDbLine
 10
187.586035
 20
97.39267400000001
 30
0.0
 11
187.586035
 21
98.18173899999999
 31
0.0
  0
LINE
  5
9CBC
330
9C4C
100
AcDbEntity
  8
2
  6
Continuous
100
AcDbLine
 10
188.2625349999999
 20
97.39267400000001
 30
0.0
 11
188.2625349999999
 21
98.858239
 31
0.0
  0
LINE
  5
9CBD
330
9C4C
100
AcDbEntity
  8
1
  6
Continuous
100
AcDbLine
 10
187.586035
 20
98.18173899999999
 30
0.0
 11
188.2625349999999
 21
98.858239
 31
0.0
  0
LINE
  5
9CBE
330
9C4C
100
AcDbEntity
  8
1
  6
Continuous
100
AcDbLine
 10
184.0860349999999
 20
90.39267399999998
 30
0.0
 11
184.0860349999999
 21
92.39267400000001
 31
0.0
  0
ARC
  5
9CBF
330
9C4C
100
AcDbEntity
  8
1
  6
Continuous
100
AcDbCircle
 10
200.6052659999999
 20
99.392674
 30
0.0
 40
9.0
100
AcDbArc
 50
270.0
 51
311.174929
  0
LINE
  5
9CC0
330
9C4C
100
AcDbEntity
  8
1
  6
Continuous
100
AcDbLine
 10
191.586035
 20
92.928572
 30
0.0
 11
191.586035
 21
96.85677599999999
 31
0.0
  0
LINE
  5
9CC1
330
9C4C
100
AcDbEntity
  8
1
  6
Continuous
100
AcDbLine
 10
197.5860349999999
 20
97.39267400000001
 30
0.0
 11
197.5860349999999
 21
92.39267400000001
 31
0.0
  0
ARC
  5
9CC2
330
9C4C
100
AcDbEntity
  8
1
  6
Continuous
100
AcDbCircle
 10
194.586035
 20
88.72761099999998
 30
0.0
 40
8.665063999999999
100
AcDbArc
 50
69.743842
 51
110.256158
  0
ARC
  5
9CC3
330
9C4C
100
AcDbEntity
  8
1
  6
Continuous
100
AcDbCircle
 10
194.586035
 20
101.0577379999999
 30
0.0
 40
8.665063999999999
100
AcDbArc
 50
249.7438419999999
 51
290.256158
  0
LINE
  5
9CC4
330
9C4C
100
AcDbEntity
  8
1
  6
Continuous
100
AcDbLine
 10
195.586035
 20
97.39267400000001
 30
0.0
 11
195.586035
 21
98.19267400000001
 31
0.0
  0
LINE
  5
9CC5
330
9C4C
100
AcDbEntity
  8
2
  6
Continuous
100
AcDbLine
 10
194.909535
 20
97.39267400000001
 30
0.0
 11
194.909535
 21
98.858239
 31
0.0
  0
LINE
  5
9CC6
330
9C4C
100
AcDbEntity
  8
1
  6
Continuous
100
AcDbLine
 10
194.9204699999999
 20
98.858239
 30
0.0
 11
195.586035
 21
98.19267400000001
 31
0.0
  0
LINE
  5
9CC7
330
9C4C
100
AcDbEntity
  8
1
  6
Continuous
100
AcDbLine
 10
199.086035
 20
90.39267399999998
 30
0.0
 11
199.086035
 21
92.39267400000001
 31
0.0
  0
LINE
  5
9CC8
330
9C4C
100
AcDbEntity
  8
1
  6
Continuous
100
AcDbLine
 10
191.586035
 20
92.39267400000001
 30
0.0
 11
193.586035
 21
90.39267399999998
 31
0.0
  0
ARC
  5
9CCA
330
9C4C
100
AcDbEntity
  8
1
  6
Continuous
100
AcDbCircle
 10
72.038775
 20
262.7639919999999
 30
0.0
 40
3.5
100
AcDbArc
 50
0.0
 51
90.0
  0
LINE
  5
9CCB
330
9C4C
100
AcDbEntity
  8
1
  6
Continuous
100
AcDbLine
 10
84.54656599999998
 20
265.8929779999999
 30
0.0
 11
84.54656599999998
 21
228.507535
 31
0.0
  0
ARC
  5
9CCC
330
9C4C
100
AcDbEntity
  8
1
  6
Continuous
100
AcDbCircle
 10
42.20434
 20
262.7639919999999
 30
0.0
 40
3.5
100
AcDbArc
 50
90.0
 51
178.892845
  0
LINE
  5
9CCD
330
9C4C
100
AcDbEntity
  8
1
  6
Continuous
100
AcDbLine
 10
29.696566
 20
265.8929779999999
 30
0.0
 11
29.696566
 21
228.506141
 31
0.0
  0
ARC
  5
9CCE
330
9C4C
100
AcDbEntity
  8
1
  6
Continuous
100
AcDbCircle
 10
57.121566
 20
226.4263769999999
 30
0.0
 40
30.0
100
AcDbArc
 50
76.11346000000001
 51
103.8865399999999
  0
LINE
  5
9CCF
330
9C4C
100
AcDbEntity
  8
1
  6
Continuous
100
AcDbLine
 10
62.834415
 20
262.659718
 30
0.0
 11
63.838689
 21
263.6639919999999
 31
0.0
  0
LINE
  5
9CD0
330
9C4C
100
AcDbEntity
  8
1
  6
Continuous
100
AcDbLine
 10
72.938775
 20
262.659718
 30
0.0
 11
41.30434
 21
262.659718
 31
0.0
  0
LINE
  5
9CD1
330
9C4C
100
AcDbEntity
  8
1
  6
Continuous
100
AcDbLine
 10
72.938775
 20
261.450284
 30
0.0
 11
41.30434
 21
261.450284
 31
0.0
  0
LINE
  5
9CD2
330
9C4C
100
AcDbEntity
  8
1
  6
Continuous
100
AcDbLine
 10
71.316565
 20
258.2102269999999
 30
0.0
 11
42.92656599999999
 21
258.2102269999999
 31
0.0
  0
LINE
  5
9CD3
330
9C4C
100
AcDbEntity
  8
1
  6
Continuous
100
AcDbLine
 10
61.221566
 20
257.810227
 30
0.0
 11
63.83974699999999
 21
256.210227
 31
0.0
  0
LINE
  5
9CD4
330
9C4C
100
AcDbEntity
  8
1
  6
Continuous
100
AcDbLine
 10
66.721566
 20
256.210227
 30
0.0
 11
60.716323
 21
256.210227
 31
0.0
  0
LINE
  5
9CD5
330
9C4C
100
AcDbEntity
  8
1
  6
Continuous
100
AcDbLine
 10
42.20434
 20
263.6639919999999
 30
0.0
 11
72.038775
 21
263.6639919999999
 31
0.0
  0
LINE
  5
9CD6
330
9C4C
100
AcDbEntity
  8
4
  6
CENTER
100
AcDbLine
 10
29.971999
 20
206.426377
 30
0.0
 11
87.64230600000002
 21
206.426377
 31
0.0
  0
ARC
  5
9CD7
330
9C4C
100
AcDbEntity
  8
1
  6
Continuous
100
AcDbCircle
 10
66.162603
 20
228.506141
 30
0.0
 40
36.466037
100
AcDbArc
 50
180.0
 51
209.7374579999999
  0
LINE
  5
9CD8
330
9C4C
100
AcDbEntity
  8
1
  6
Continuous
100
AcDbLine
 10
41.30434
 20
262.7639919999999
 30
0.0
 11
41.30434
 21
194.926373
 31
0.0
  0
LINE
  5
9CD9
330
9C4C
100
AcDbEntity
  8
1
  6
Continuous
100
AcDbLine
 10
38.70434
 20
262.7639919999999
 30
0.0
 11
38.70434
 21
194.926373
 31
0.0
  0
ARC
  5
9CDA
330
9C4C
100
AcDbEntity
  8
1
  6
Continuous
100
AcDbCircle
 10
61.25942099999999
 20
210.4439839999999
 30
0.0
 40
19.0
100
AcDbArc
 50
142.818892
 51
165.4165309999999
  0
ARC
  5
9CDB
330
9C4C
100
AcDbEntity
  8
1
  6
Continuous
100
AcDbCircle
 10
43.81786599999998
 20
199.38672
 30
0.0
 40
2.0
100
AcDbArc
 50
193.3071809999999
 51
241.761033
  0
LINE
  5
9CDC
330
9C4C
100
AcDbEntity
  8
1
  6
Continuous
100
AcDbLine
 10
42.87156599999997
 20
215.2279969999999
 30
0.0
 11
42.87156599999997
 21
197.624756
 31
0.0
  0
LINE
  5
9CDD
330
9C4C
100
AcDbEntity
  8
1
  6
Continuous
100
AcDbLine
 10
38.70434
 20
194.926373
 30
0.0
 11
41.30434
 21
194.926373
 31
0.0
  0
ARC
  5
9CDE
330
9C4C
100
AcDbEntity
  8
1
  6
Continuous
100
AcDbCircle
 10
61.25942099999999
 20
202.4087689999999
 30
0.0
 40
19.0
100
AcDbArc
 50
194.583469
 51
217.1811079999999
  0
ARC
  5
9CDF
330
9C4C
100
AcDbEntity
  8
1
  6
Continuous
100
AcDbCircle
 10
44.20434
 20
206.426377
 30
0.0
 40
10.5
100
AcDbArc
 50
138.1896849999999
 51
221.810315
  0
LINE
  5
9CE0
330
9C4C
100
AcDbEntity
  8
1
  6
Continuous
100
AcDbLine
 10
36.378102
 20
213.426377
 30
0.0
 11
36.378102
 21
199.426377
 31
0.0
  0
LINE
  5
9CE1
330
9C4C
100
AcDbEntity
  8
1
  6
Continuous
100
AcDbLine
 10
36.378102
 20
213.426377
 30
0.0
 11
38.70434
 21
213.426377
 31
0.0
  0
LINE
  5
9CE2
330
9C4C
100
AcDbEntity
  8
1
  6
Continuous
100
AcDbLine
 10
36.378102
 20
199.426377
 30
0.0
 11
38.70434
 21
199.426377
 31
0.0
  0
ARC
  5
9CE3
330
9C4C
100
AcDbEntity
  8
1
  6
Continuous
100
AcDbCircle
 10
43.81786599999998
 20
213.4660329999999
 30
0.0
 40
2.0
100
AcDbArc
 50
118.2389669999998
 51
166.6928189999999
  0
LINE
  5
9CE4
330
9C4C
100
AcDbEntity
  8
1
  6
Continuous
100
AcDbLine
 10
41.62156599999997
 20
211.9263769999998
 30
0.0
 11
41.87156599999997
 21
211.9263769999998
 31
0.0
  0
LINE
  5
9CE5
330
9C4C
100
AcDbEntity
  8
1
  6
Continuous
100
AcDbLine
 10
41.30434
 20
210.426377
 30
0.0
 11
41.62156599999997
 21
210.426377
 31
0.0
  0
LINE
  5
9CE6
330
9C4C
100
AcDbEntity
  8
1
  6
Continuous
100
AcDbLine
 10
41.62156599999997
 20
200.926377
 30
0.0
 11
41.87156599999997
 21
200.926377
 31
0.0
  0
LINE
  5
9CE7
330
9C4C
100
AcDbEntity
  8
1
  6
Continuous
100
AcDbLine
 10
41.30434
 20
202.426377
 30
0.0
 11
41.62156599999997
 21
202.426377
 31
0.0
  0
LINE
  5
9CE8
330
9C4C
100
AcDbEntity
  8
1
  6
Continuous
100
AcDbLine
 10
41.62156599999997
 20
200.926377
 30
0.0
 11
41.62156599999997
 21
211.9263769999998
 31
0.0
  0
LINE
  5
9CE9
330
9C4C
100
AcDbEntity
  8
1
  6
Continuous
100
AcDbLine
 10
41.87156599999997
 20
213.9263759999999
 30
0.0
 11
41.87156599999997
 21
198.9263769999998
 31
0.0
  0
ARC
  5
9CEA
330
9C4C
100
AcDbEntity
  8
1
  6
Continuous
100
AcDbCircle
 10
51.12156599999998
 20
250.6956989999999
 30
0.0
 40
5.0
100
AcDbArc
 50
103.8865399999999
 51
180.0
  0
LINE
  5
9CEB
330
9C4C
100
AcDbEntity
  8
1
  6
Continuous
100
AcDbLine
 10
47.872399
 20
262.659718
 30
0.0
 11
46.86812599999998
 21
263.6639919999999
 31
0.0
  0
LINE
  5
9CEC
330
9C4C
100
AcDbEntity
  8
1
  6
Continuous
100
AcDbLine
 10
47.278066
 20
262.659718
 30
0.0
 11
48.282339
 21
263.6639919999999
 31
0.0
  0
LINE
  5
9CED
330
9C4C
100
AcDbEntity
  8
1
  6
Continuous
100
AcDbLine
 10
47.521566
 20
256.210227
 30
0.0
 11
53.526809
 21
256.210227
 31
0.0
  0
LINE
  5
9CEE
330
9C4C
100
AcDbEntity
  8
1
  6
Continuous
100
AcDbLine
 10
45.86385299999998
 20
262.659718
 30
0.0
 11
46.86812599999998
 21
263.6639919999999
 31
0.0
  0
LINE
  5
9CEF
330
9C4C
100
AcDbEntity
  8
1
  6
Continuous
100
AcDbLine
 10
44.449639
 20
262.659718
 30
0.0
 11
45.453912
 21
263.6639919999999
 31
0.0
  0
LINE
  5
9CF0
330
9C4C
100
AcDbEntity
  8
1
  6
Continuous
100
AcDbLine
 10
46.458186
 20
262.659718
 30
0.0
 11
45.453912
 21
263.6639919999999
 31
0.0
  0
LINE
  5
9CF1
330
9C4C
100
AcDbEntity
  8
1
  6
Continuous
100
AcDbLine
 10
45.04397199999998
 20
262.659718
 30
0.0
 11
44.03969899999998
 21
263.6639919999999
 31
0.0
  0
LINE
  5
9CF2
330
9C4C
100
AcDbEntity
  8
1
  6
Continuous
100
AcDbLine
 10
41.621212
 20
262.659718
 30
0.0
 11
42.625485
 21
263.6639919999999
 31
0.0
  0
LINE
  5
9CF3
330
9C4C
100
AcDbEntity
  8
1
  6
Continuous
100
AcDbLine
 10
43.629758
 20
262.659718
 30
0.0
 11
42.625485
 21
263.6639919999999
 31
0.0
  0
LINE
  5
9CF4
330
9C4C
100
AcDbEntity
  8
1
  6
Continuous
100
AcDbLine
 10
41.560075
 20
263.3151879999999
 30
0.0
 11
42.21554499999998
 21
262.659718
 31
0.0
  0
LINE
  5
9CF5
330
9C4C
100
AcDbEntity
  8
1
  6
Continuous
100
AcDbLine
 10
43.03542499999998
 20
262.659718
 30
0.0
 11
44.03969899999998
 21
263.6639919999999
 31
0.0
  0
ARC
  5
9CF6
330
9C4C
100
AcDbEntity
  8
1
  6
Continuous
100
AcDbCircle
 10
42.92656599999999
 20
264.536916
 30
0.0
 40
6.326689
100
AcDbArc
 50
261.8636179999999
 51
270.0
  0
ARC
  5
9CF7
330
9C4C
100
AcDbEntity
  8
1
  6
Continuous
100
AcDbCircle
 10
42.60172899999999
 20
262.264833
 30
0.0
 40
4.031502999999998
100
AcDbArc
 50
252.2331789999999
 51
261.8636179999999
  0
LINE
  5
9CF8
330
9C4C
100
AcDbEntity
  8
1
  6
Continuous
100
AcDbLine
 10
47.521566
 20
256.210227
 30
0.0
 11
47.521566
 21
258.2102269999999
 31
0.0
  0
ARC
  5
9CF9
330
9C4C
100
AcDbEntity
  8
1
  6
Continuous
100
AcDbCircle
 10
42.20434
 20
262.7639919999999
 30
0.0
 40
0.9
100
AcDbArc
 50
90.0
 51
180.0
  0
LINE
  5
9CFA
330
9C4C
100
AcDbEntity
  8
1
  6
Continuous
100
AcDbLine
 10
57.17756099999999
 20
262.659718
 30
0.0
 11
58.18183399999998
 21
263.6639919999999
 31
0.0
  0
LINE
  5
9CFB
330
9C4C
100
AcDbEntity
  8
1
  6
Continuous
100
AcDbLine
 10
57.77189400000001
 20
262.659718
 30
0.0
 11
56.767621
 21
263.6639919999999
 31
0.0
  0
LINE
  5
9CFC
330
9C4C
100
AcDbEntity
  8
1
  6
Continuous
100
AcDbLine
 10
52.93492
 20
262.659718
 30
0.0
 11
53.93919399999999
 21
263.6639919999999
 31
0.0
  0
LINE
  5
9CFD
330
9C4C
100
AcDbEntity
  8
1
  6
Continuous
100
AcDbLine
 10
54.349134
 20
262.659718
 30
0.0
 11
55.35340699999999
 21
263.6639919999999
 31
0.0
  0
LINE
  5
9CFE
330
9C4C
100
AcDbEntity
  8
1
  6
Continuous
100
AcDbLine
 10
53.52925299999998
 20
262.659718
 30
0.0
 11
52.52498
 21
263.6639919999999
 31
0.0
  0
LINE
  5
9CFF
330
9C4C
100
AcDbEntity
  8
1
  6
Continuous
100
AcDbLine
 10
54.94346700000001
 20
262.659718
 30
0.0
 11
53.93919399999999
 21
263.6639919999999
 31
0.0
  0
LINE
  5
9D00
330
9C4C
100
AcDbEntity
  8
1
  6
Continuous
100
AcDbLine
 10
55.763347
 20
262.659718
 30
0.0
 11
56.767621
 21
263.6639919999999
 31
0.0
  0
LINE
  5
9D01
330
9C4C
100
AcDbEntity
  8
1
  6
Continuous
100
AcDbLine
 10
56.35768
 20
262.659718
 30
0.0
 11
55.35340699999999
 21
263.6639919999999
 31
0.0
  0
LINE
  5
9D02
330
9C4C
100
AcDbEntity
  8
1
  6
Continuous
100
AcDbLine
 10
50.106493
 20
262.659718
 30
0.0
 11
51.11076699999999
 21
263.6639919999999
 31
0.0
  0
LINE
  5
9D03
330
9C4C
100
AcDbEntity
  8
1
  6
Continuous
100
AcDbLine
 10
50.700826
 20
262.659718
 30
0.0
 11
49.696553
 21
263.6639919999999
 31
0.0
  0
LINE
  5
9D04
330
9C4C
100
AcDbEntity
  8
1
  6
Continuous
100
AcDbLine
 10
51.520707
 20
262.659718
 30
0.0
 11
52.52498
 21
263.6639919999999
 31
0.0
  0
LINE
  5
9D05
330
9C4C
100
AcDbEntity
  8
1
  6
Continuous
100
AcDbLine
 10
52.11504
 20
262.659718
 30
0.0
 11
51.11076699999999
 21
263.6639919999999
 31
0.0
  0
LINE
  5
9D06
330
9C4C
100
AcDbEntity
  8
1
  6
Continuous
100
AcDbLine
 10
61.42020200000001
 20
262.659718
 30
0.0
 11
62.424475
 21
263.6639919999999
 31
0.0
  0
LINE
  5
9D07
330
9C4C
100
AcDbEntity
  8
1
  6
Continuous
100
AcDbLine
 10
62.01453499999999
 20
262.659718
 30
0.0
 11
61.010261
 21
263.6639919999999
 31
0.0
  0
LINE
  5
9D08
330
9C4C
100
AcDbEntity
  8
1
  6
Continuous
100
AcDbLine
 10
63.428748
 20
262.659718
 30
0.0
 11
62.424475
 21
263.6639919999999
 31
0.0
  0
LINE
  5
9D09
330
9C4C
100
AcDbEntity
  8
1
  6
Continuous
100
AcDbLine
 10
58.591775
 20
262.659718
 30
0.0
 11
59.59604800000001
 21
263.6639919999999
 31
0.0
  0
LINE
  5
9D0A
330
9C4C
100
AcDbEntity
  8
1
  6
Continuous
100
AcDbLine
 10
59.18610799999999
 20
262.659718
 30
0.0
 11
58.18183399999998
 21
263.6639919999999
 31
0.0
  0
LINE
  5
9D0B
330
9C4C
100
AcDbEntity
  8
1
  6
Continuous
100
AcDbLine
 10
60.005988
 20
262.659718
 30
0.0
 11
61.010261
 21
263.6639919999999
 31
0.0
  0
LINE
  5
9D0C
330
9C4C
100
AcDbEntity
  8
1
  6
Continuous
100
AcDbLine
 10
60.60032099999999
 20
262.659718
 30
0.0
 11
59.59604800000001
 21
263.6639919999999
 31
0.0
  0
LINE
  5
9D0D
330
9C4C
100
AcDbEntity
  8
1
  6
Continuous
100
AcDbLine
 10
48.69227999999999
 20
262.659718
 30
0.0
 11
49.696553
 21
263.6639919999999
 31
0.0
  0
LINE
  5
9D0E
330
9C4C
100
AcDbEntity
  8
1
  6
Continuous
100
AcDbLine
 10
49.286613
 20
262.659718
 30
0.0
 11
48.282339
 21
263.6639919999999
 31
0.0
  0
LINE
  5
9D0F
330
9C4C
100
AcDbEntity
  8
1
  6
Continuous
100
AcDbLine
 10
53.02156599999999
 20
257.810227
 30
0.0
 11
53.78510699999999
 21
256.760357
 31
0.0
  0
LINE
  5
9D10
330
9C4C
100
AcDbEntity
  8
1
  6
Continuous
100
AcDbLine
 10
53.02156599999999
 20
257.810227
 30
0.0
 11
50.403384
 21
256.210227
 31
0.0
  0
LINE
  5
9D11
330
9C4C
100
AcDbEntity
  8
1
  6
Continuous
100
AcDbLine
 10
61.221566
 20
257.810227
 30
0.0
 11
60.458024
 21
256.760357
 31
0.0
  0
ARC
  5
9D12
330
9C4C
100
AcDbEntity
  8
1
  6
Continuous
100
AcDbCircle
 10
48.080566
 20
228.507535
 30
0.0
 40
36.466
100
AcDbArc
 50
335.4468919999998
 51
0.0
  0
ARC
  5
9D13
330
9C4C
100
AcDbEntity
  8
1
  6
Continuous
100
AcDbCircle
 10
52.98370999999999
 20
210.4439839999999
 30
0.0
 40
19.0
100
AcDbArc
 50
14.583469
 51
37.181108
  0
LINE
  5
9D14
330
9C4C
100
AcDbEntity
  8
1
  6
Continuous
100
AcDbLine
 10
72.938775
 20
262.7639919999999
 30
0.0
 11
72.938775
 21
194.926377
 31
0.0
  0
LINE
  5
9D15
330
9C4C
100
AcDbEntity
  8
1
  6
Continuous
100
AcDbLine
 10
75.538775
 20
262.7639919999999
 30
0.0
 11
75.538775
 21
194.926377
 31
0.0
  0
ARC
  5
9D16
330
9C4C
100
AcDbEntity
  8
1
  6
Continuous
100
AcDbCircle
 10
70.42526600000002
 20
199.38672
 30
0.0
 40
2.0
100
AcDbArc
 50
298.2389669999998
 51
346.6928189999999
  0
LINE
  5
9D17
330
9C4C
100
AcDbEntity
  8
1
  6
Continuous
100
AcDbLine
 10
71.371566
 20
215.2279969999999
 30
0.0
 11
71.371566
 21
197.624756
 31
0.0
  0
LINE
  5
9D18
330
9C4C
100
AcDbEntity
  8
1
  6
Continuous
100
AcDbLine
 10
72.938775
 20
194.926373
 30
0.0
 11
75.538775
 21
194.926373
 31
0.0
  0
ARC
  5
9D19
330
9C4C
100
AcDbEntity
  8
1
  6
Continuous
100
AcDbCircle
 10
52.98370999999999
 20
202.4087689999999
 30
0.0
 40
19.0
100
AcDbArc
 50
322.818892
 51
345.416531
  0
LINE
  5
9D1A
330
9C4C
100
AcDbEntity
  8
1
  6
Continuous
100
AcDbLine
 10
78.074673
 20
213.3545799999999
 30
0.0
 11
82.00287600000001
 21
213.3545799999999
 31
0.0
  0
LINE
  5
9D1B
330
9C4C
100
AcDbEntity
  8
1
  6
Continuous
100
AcDbLine
 10
78.074673
 20
209.8904779999998
 30
0.0
 11
82.00287600000001
 21
209.8904779999998
 31
0.0
  0
LINE
  5
9D1C
330
9C4C
100
AcDbEntity
  8
1
  6
Continuous
100
AcDbLine
 10
78.074673
 20
202.962275
 30
0.0
 11
82.00287600000001
 21
202.962275
 31
0.0
  0
LINE
  5
9D1D
330
9C4C
100
AcDbEntity
  8
1
  6
Continuous
100
AcDbLine
 10
78.074673
 20
199.498174
 30
0.0
 11
82.00287600000001
 21
199.498174
 31
0.0
  0
LINE
  5
9D1E
330
9C4C
100
AcDbEntity
  8
1
  6
Continuous
100
AcDbLine
 10
77.538775
 20
206.426377
 30
0.0
 11
75.538775
 21
204.426377
 31
0.0
  0
LINE
  5
9D1F
330
9C4C
100
AcDbEntity
  8
1
  6
Continuous
100
AcDbLine
 10
77.538775
 20
208.426377
 30
0.0
 11
75.538775
 21
206.426377
 31
0.0
  0
LINE
  5
9D20
330
9C4C
100
AcDbEntity
  8
1
  6
Continuous
100
AcDbLine
 10
78.074673
 20
213.3545799999999
 30
0.0
 11
77.538775
 21
212.426377
 31
0.0
  0
ARC
  5
9D21
330
9C4C
100
AcDbEntity
  8
1
  6
Continuous
100
AcDbCircle
 10
80.60576199999998
 20
211.622529
 30
0.0
 40
3.066986999999998
100
AcDbArc
 50
154.3842469999999
 51
214.384247
  0
ARC
  5
9D22
330
9C4C
100
AcDbEntity
  8
1
  6
Continuous
100
AcDbCircle
 10
80.60576199999998
 20
201.2302239999999
 30
0.0
 40
3.066986999999998
100
AcDbArc
 50
145.615753
 51
205.615753
  0
LINE
  5
9D23
330
9C4C
100
AcDbEntity
  8
1
  6
Continuous
100
AcDbLine
 10
78.074673
 20
199.498174
 30
0.0
 11
77.538775
 21
200.426377
 31
0.0
  0
ARC
  5
9D24
330
9C4C
100
AcDbEntity
  8
1
  6
Continuous
100
AcDbCircle
 10
89.002876
 20
206.426377
 30
0.0
 40
11.464102
100
AcDbArc
 50
162.412046
 51
197.5879539999999
  0
LINE
  5
9D25
330
9C4C
100
AcDbEntity
  8
1
  6
Continuous
100
AcDbLine
 10
75.538775
 20
213.9263769999999
 30
0.0
 11
77.538775
 21
213.9263769999999
 31
0.0
  0
ARC
  5
9D26
330
9C4C
100
AcDbEntity
  8
1
  6
Continuous
100
AcDbCircle
 10
70.42526600000002
 20
213.4660329999999
 30
0.0
 40
2.0
100
AcDbArc
 50
13.30718099999998
 51
61.761033
  0
LINE
  5
9D27
330
9C4C
100
AcDbEntity
  8
1
  6
Continuous
100
AcDbLine
 10
72.621566
 20
211.9263769999998
 30
0.0
 11
72.371566
 21
211.9263769999998
 31
0.0
  0
LINE
  5
9D28
330
9C4C
100
AcDbEntity
  8
1
  6
Continuous
100
AcDbLine
 10
72.938775
 20
210.426377
 30
0.0
 11
72.621566
 21
210.426377
 31
0.0
  0
LINE
  5
9D29
330
9C4C
100
AcDbEntity
  8
1
  6
Continuous
100
AcDbLine
 10
72.621566
 20
200.926377
 30
0.0
 11
72.371566
 21
200.926377
 31
0.0
  0
LINE
  5
9D2A
330
9C4C
100
AcDbEntity
  8
1
  6
Continuous
100
AcDbLine
 10
72.621566
 20
202.426377
 30
0.0
 11
72.938775
 21
202.426377
 31
0.0
  0
LINE
  5
9D2B
330
9C4C
100
AcDbEntity
  8
1
  6
Continuous
100
AcDbLine
 10
77.538775
 20
198.9263769999998
 30
0.0
 11
77.538775
 21
213.9263769999999
 31
0.0
  0
LINE
  5
9D2C
330
9C4C
100
AcDbEntity
  8
1
  6
Continuous
100
AcDbLine
 10
72.621566
 20
200.926377
 30
0.0
 11
72.621566
 21
211.9263769999998
 31
0.0
  0
LINE
  5
9D2D
330
9C4C
100
AcDbEntity
  8
1
  6
Continuous
100
AcDbLine
 10
75.538775
 20
198.9263769999998
 30
0.0
 11
77.538775
 21
198.9263769999998
 31
0.0
  0
LINE
  5
9D2E
330
9C4C
100
AcDbEntity
  8
1
  6
Continuous
100
AcDbLine
 10
72.371566
 20
213.9263759999999
 30
0.0
 11
72.371566
 21
198.9263769999998
 31
0.0
  0
LINE
  5
9D2F
330
9C4C
100
AcDbEntity
  8
1
  6
Continuous
100
AcDbLine
 10
82.00287600000001
 20
213.3545799999999
 30
0.0
 11
82.53877499999999
 21
212.426377
 31
0.0
  0
ARC
  5
9D30
330
9C4C
100
AcDbEntity
  8
1
  6
Continuous
100
AcDbCircle
 10
79.47178700000002
 20
211.622529
 30
0.0
 40
3.066986999999998
100
AcDbArc
 50
325.6157529999999
 51
25.615753
  0
ARC
  5
9D31
330
9C4C
100
AcDbEntity
  8
1
  6
Continuous
100
AcDbCircle
 10
79.47178700000002
 20
201.2302239999999
 30
0.0
 40
3.066986999999998
100
AcDbArc
 50
334.384247
 51
34.38424699999998
  0
LINE
  5
9D32
330
9C4C
100
AcDbEntity
  8
1
  6
Continuous
100
AcDbLine
 10
82.00287600000001
 20
199.498174
 30
0.0
 11
82.53877499999999
 21
200.426377
 31
0.0
  0
ARC
  5
9D33
330
9C4C
100
AcDbEntity
  8
1
  6
Continuous
100
AcDbCircle
 10
71.074673
 20
206.426377
 30
0.0
 40
11.464102
100
AcDbArc
 50
342.4120459999999
 51
17.587954
  0
LINE
  5
9D34
330
9C4C
100
AcDbEntity
  8
1
  6
Continuous
100
AcDbLine
 10
82.53877499999999
 20
212.426377
 30
0.0
 11
82.53877499999999
 21
200.426377
 31
0.0
  0
LINE
  5
9D35
330
9C4C
100
AcDbEntity
  8
1
  6
Continuous
100
AcDbLine
 10
84.00434
 20
203.091942
 30
0.0
 11
83.33877499999998
 21
202.426377
 31
0.0
  0
LINE
  5
9D36
330
9C4C
100
AcDbEntity
  8
1
  6
Continuous
100
AcDbLine
 10
83.32784000000001
 20
210.426377
 30
0.0
 11
84.00434
 21
209.749877
 31
0.0
  0
LINE
  5
9D37
330
9C4C
100
AcDbEntity
  8
2
  6
Continuous
100
AcDbLine
 10
82.53877499999999
 20
203.102877
 30
0.0
 11
84.00434
 21
203.102877
 31
0.0
  0
LINE
  5
9D38
330
9C4C
100
AcDbEntity
  8
2
  6
Continuous
100
AcDbLine
 10
82.53877499999999
 20
209.749877
 30
0.0
 11
84.00434
 21
209.749877
 31
0.0
  0
LINE
  5
9D39
330
9C4C
100
AcDbEntity
  8
1
  6
Continuous
100
AcDbLine
 10
82.53877499999999
 20
202.426377
 30
0.0
 11
83.33877499999998
 21
202.426377
 31
0.0
  0
LINE
  5
9D3A
330
9C4C
100
AcDbEntity
  8
1
  6
Continuous
100
AcDbLine
 10
82.53877499999999
 20
210.426377
 30
0.0
 11
83.32784000000001
 21
210.426377
 31
0.0
  0
LINE
  5
9D3B
330
9C4C
100
AcDbEntity
  8
1
  6
Continuous
100
AcDbLine
 10
83.33877499999998
 20
202.426377
 30
0.0
 11
83.33877499999998
 21
210.426377
 31
0.0
  0
LINE
  5
9D3C
330
9C4C
100
AcDbEntity
  8
1
  6
Continuous
100
AcDbLine
 10
84.00434
 20
203.091942
 30
0.0
 11
84.00434
 21
209.749877
 31
0.0
  0
ARC
  5
9D3D
330
9C4C
100
AcDbEntity
  8
1
  6
Continuous
100
AcDbCircle
 10
63.121566
 20
250.6956989999999
 30
0.0
 40
5.0
100
AcDbArc
 50
0.0
 51
76.11346000000001
  0
LINE
  5
9D3E
330
9C4C
100
AcDbEntity
  8
1
  6
Continuous
100
AcDbLine
 10
72.73390999999998
 20
262.659718
 30
0.0
 11
72.870993
 21
262.7968009999999
 31
0.0
  0
LINE
  5
9D3F
330
9C4C
100
AcDbEntity
  8
1
  6
Continuous
100
AcDbLine
 10
71.31969699999998
 20
262.659718
 30
0.0
 11
72.272261
 21
263.612282
 31
0.0
  0
LINE
  5
9D40
330
9C4C
100
AcDbEntity
  8
1
  6
Continuous
100
AcDbLine
 10
72.484261
 20
263.5037
 30
0.0
 11
72.71129999999998
 21
263.2766619999998
 31
0.0
  0
LINE
  5
9D41
330
9C4C
100
AcDbEntity
  8
1
  6
Continuous
100
AcDbLine
 10
69.90548299999999
 20
262.659718
 30
0.0
 11
70.909756
 21
263.6639919999999
 31
0.0
  0
LINE
  5
9D42
330
9C4C
100
AcDbEntity
  8
1
  6
Continuous
100
AcDbLine
 10
70.49981600000002
 20
262.659718
 30
0.0
 11
69.49554300000001
 21
263.6639919999999
 31
0.0
  0
LINE
  5
9D43
330
9C4C
100
AcDbEntity
  8
1
  6
Continuous
100
AcDbLine
 10
65.662842
 20
262.659718
 30
0.0
 11
66.66711600000001
 21
263.6639919999999
 31
0.0
  0
LINE
  5
9D44
330
9C4C
100
AcDbEntity
  8
1
  6
Continuous
100
AcDbLine
 10
67.077056
 20
262.659718
 30
0.0
 11
68.081329
 21
263.6639919999999
 31
0.0
  0
LINE
  5
9D45
330
9C4C
100
AcDbEntity
  8
1
  6
Continuous
100
AcDbLine
 10
66.257175
 20
262.659718
 30
0.0
 11
65.252902
 21
263.6639919999999
 31
0.0
  0
LINE
  5
9D46
330
9C4C
100
AcDbEntity
  8
1
  6
Continuous
100
AcDbLine
 10
67.671389
 20
262.659718
 30
0.0
 11
66.66711600000001
 21
263.6639919999999
 31
0.0
  0
LINE
  5
9D47
330
9C4C
100
AcDbEntity
  8
1
  6
Continuous
100
AcDbLine
 10
64.24862899999999
 20
262.659718
 30
0.0
 11
65.252902
 21
263.6639919999999
 31
0.0
  0
LINE
  5
9D48
330
9C4C
100
AcDbEntity
  8
1
  6
Continuous
100
AcDbLine
 10
64.842962
 20
262.659718
 30
0.0
 11
63.838689
 21
263.6639919999999
 31
0.0
  0
LINE
  5
9D49
330
9C4C
100
AcDbEntity
  8
1
  6
Continuous
100
AcDbLine
 10
68.49127
 20
262.659718
 30
0.0
 11
69.49554300000001
 21
263.6639919999999
 31
0.0
  0
LINE
  5
9D4A
330
9C4C
100
AcDbEntity
  8
1
  6
Continuous
100
AcDbLine
 10
69.08560300000001
 20
262.659718
 30
0.0
 11
68.081329
 21
263.6639919999999
 31
0.0
  0
LINE
  5
9D4B
330
9C4C
100
AcDbEntity
  8
1
  6
Continuous
100
AcDbLine
 10
71.91403000000002
 20
262.659718
 30
0.0
 11
70.909756
 21
263.6639919999999
 31
0.0
  0
ARC
  5
9D4C
330
9C4C
100
AcDbEntity
  8
1
  6
Continuous
100
AcDbCircle
 10
71.316565
 20
264.536916
 30
0.0
 40
6.326689
100
AcDbArc
 50
270.0
 51
278.1363819999999
  0
ARC
  5
9D4D
330
9C4C
100
AcDbEntity
  8
1
  6
Continuous
100
AcDbCircle
 10
71.641402
 20
262.264833
 30
0.0
 40
4.031502999999998
100
AcDbArc
 50
278.1363819999999
 51
287.7668209999999
  0
LINE
  5
9D4E
330
9C4C
100
AcDbEntity
  8
1
  6
Continuous
100
AcDbLine
 10
66.721566
 20
256.210227
 30
0.0
 11
66.721566
 21
258.2102269999999
 31
0.0
  0
ARC
  5
9D4F
330
9C4C
100
AcDbEntity
  8
1
  6
Continuous
100
AcDbCircle
 10
72.038775
 20
262.7639919999999
 30
0.0
 40
0.9
100
AcDbArc
 50
0.0
 51
90.0
  0
LINE
  5
9D50
330
9C4C
100
AcDbEntity
  8
1
  6
Continuous
100
AcDbLine
 10
67.621566
 20
286.3266509999998
 30
0.0
 11
46.62156599999998
 21
286.3266509999998
 31
0.0
  0
LINE
  5
9D51
330
9C4C
100
AcDbEntity
  8
1
  6
Continuous
100
AcDbLine
 10
47.37156599999997
 20
325.5266509999998
 30
0.0
 11
66.871566
 21
325.5266509999998
 31
0.0
  0
LINE
  5
9D52
330
9C4C
100
AcDbEntity
  8
1
  6
Continuous
100
AcDbLine
 10
47.37156599999997
 20
329.5266509999998
 30
0.0
 11
66.871566
 21
329.5266509999998
 31
0.0
  0
LINE
  5
9D53
330
9C4C
100
AcDbEntity
  8
1
  6
Continuous
100
AcDbLine
 10
71.12154100000002
 20
280.426651
 30
0.0
 11
43.12154099999999
 21
280.426651
 31
0.0
  0
LINE
  5
9D54
330
9C4C
100
AcDbEntity
  8
1
  6
Continuous
100
AcDbLine
 10
36.12156599999997
 20
276.926673
 30
0.0
 11
78.121566
 21
276.926673
 31
0.0
  0
LINE
  5
9D55
330
9C4C
100
AcDbEntity
  8
1
  6
Continuous
100
AcDbLine
 10
65.316909
 20
269.0929779999998
 30
0.0
 11
62.77841999999999
 21
271.632467
 31
0.0
  0
LINE
  5
9D56
330
9C4C
100
AcDbEntity
  8
1
  6
Continuous
100
AcDbLine
 10
63.06835799999999
 20
269.0929779999998
 30
0.0
 11
65.606847
 21
271.632467
 31
0.0
  0
LINE
  5
9D57
330
9C4C
100
AcDbEntity
  8
1
  6
Continuous
100
AcDbLine
 10
83.80766599999999
 20
272.9266729999998
 30
0.0
 11
30.43546599999999
 21
272.9266729999998
 31
0.0
  0
LINE
  5
9D58
330
9C4C
100
AcDbEntity
  8
1
  6
Continuous
100
AcDbLine
 10
30.43546599999999
 20
271.632467
 30
0.0
 11
83.80766599999999
 21
271.632467
 31
0.0
  0
LINE
  5
9D59
330
9C4C
100
AcDbEntity
  8
1
  6
Continuous
100
AcDbLine
 10
30.43546599999999
 20
269.0929779999998
 30
0.0
 11
83.80766599999999
 21
269.0929779999998
 31
0.0
  0
LINE
  5
9D5A
330
9C4C
100
AcDbEntity
  8
1
  6
Continuous
100
AcDbLine
 10
42.20434
 20
266.2639919999999
 30
0.0
 11
72.038775
 21
266.2639919999999
 31
0.0
  0
LINE
  5
9D5B
330
9C4C
100
AcDbEntity
  8
1
  6
Continuous
100
AcDbLine
 10
46.62156599999998
 20
281.9266509999998
 30
0.0
 11
46.62156599999998
 21
324.5266509999999
 31
0.0
  0
LINE
  5
9D5C
330
9C4C
100
AcDbEntity
  8
1
  6
Continuous
100
AcDbLine
 10
34.20420999999999
 20
269.0929779999998
 30
0.0
 11
31.665722
 21
271.632467
 31
0.0
  0
ARC
  5
9D5D
330
9C4C
100
AcDbEntity
  8
1
  6
Continuous
100
AcDbCircle
 10
36.12156599999997
 20
272.9266729999998
 30
0.0
 40
4.0
100
AcDbArc
 50
90.0
 51
180.0
  0
ARC
  5
9D5E
330
9C4C
100
AcDbEntity
  8
1
  6
Continuous
100
AcDbCircle
 10
32.896566
 20
265.8929779999999
 30
0.0
 40
3.2
100
AcDbArc
 50
90.0
 51
180.0
  0
LINE
  5
9D5F
330
9C4C
100
AcDbEntity
  8
1
  6
Continuous
100
AcDbLine
 10
31.37578299999999
 20
269.0929779999998
 30
0.0
 11
30.43546599999999
 21
270.0332949999999
 31
0.0
  0
LINE
  5
9D60
330
9C4C
100
AcDbEntity
  8
1
  6
Continuous
100
AcDbLine
 10
30.43546599999999
 20
269.0929779999998
 30
0.0
 11
30.43546599999999
 21
272.9266729999998
 31
0.0
  0
LINE
  5
9D61
330
9C4C
100
AcDbEntity
  8
1
  6
Continuous
100
AcDbLine
 10
30.43546599999999
 20
270.4012109999998
 30
0.0
 11
31.665722
 21
271.632467
 31
0.0
  0
ARC
  5
9D62
330
9C4C
100
AcDbEntity
  8
1
  6
Continuous
100
AcDbCircle
 10
48.12156599999998
 20
281.9266509999998
 30
0.0
 40
1.5
100
AcDbArc
 50
180.0
 51
270.0
  0
LINE
  5
9D63
330
9C4C
100
AcDbEntity
  8
1
  6
Continuous
100
AcDbLine
 10
48.34634600000001
 20
269.0929779999998
 30
0.0
 11
45.80785699999998
 21
271.632467
 31
0.0
  0
LINE
  5
9D64
330
9C4C
100
AcDbEntity
  8
1
  6
Continuous
100
AcDbLine
 10
46.097795
 20
269.0929779999998
 30
0.0
 11
48.636284
 21
271.632467
 31
0.0
  0
LINE
  5
9D65
330
9C4C
100
AcDbEntity
  8
1
  6
Continuous
100
AcDbLine
 10
43.12154099999999
 20
280.426651
 30
0.0
 11
43.12154099999999
 21
276.926673
 31
0.0
  0
LINE
  5
9D66
330
9C4C
100
AcDbEntity
  8
1
  6
Continuous
100
AcDbLine
 10
45.517919
 20
269.0929779999998
 30
0.0
 11
42.97943
 21
271.632467
 31
0.0
  0
LINE
  5
9D67
330
9C4C
100
AcDbEntity
  8
1
  6
Continuous
100
AcDbLine
 10
43.269368
 20
269.0929779999998
 30
0.0
 11
45.80785699999998
 21
271.632467
 31
0.0
  0
LINE
  5
9D68
330
9C4C
100
AcDbEntity
  8
1
  6
Continuous
100
AcDbLine
 10
39.861065
 20
269.0929779999998
 30
0.0
 11
37.322576
 21
271.632467
 31
0.0
  0
LINE
  5
9D69
330
9C4C
100
AcDbEntity
  8
1
  6
Continuous
100
AcDbLine
 10
37.61251399999999
 20
269.0929779999998
 30
0.0
 11
40.151003
 21
271.632467
 31
0.0
  0
LINE
  5
9D6A
330
9C4C
100
AcDbEntity
  8
1
  6
Continuous
100
AcDbLine
 10
37.032638
 20
269.0929779999998
 30
0.0
 11
34.494149
 21
271.632467
 31
0.0
  0
LINE
  5
9D6B
330
9C4C
100
AcDbEntity
  8
1
  6
Continuous
100
AcDbLine
 10
34.784087
 20
269.0929779999998
 30
0.0
 11
37.322576
 21
271.632467
 31
0.0
  0
LINE
  5
9D6C
330
9C4C
100
AcDbEntity
  8
1
  6
Continuous
100
AcDbLine
 10
31.95565999999999
 20
269.0929779999998
 30
0.0
 11
34.494149
 21
271.632467
 31
0.0
  0
LINE
  5
9D6D
330
9C4C
100
AcDbEntity
  8
1
  6
Continuous
100
AcDbLine
 10
42.689492
 20
269.0929779999998
 30
0.0
 11
40.151003
 21
271.632467
 31
0.0
  0
LINE
  5
9D6E
330
9C4C
100
AcDbEntity
  8
1
  6
Continuous
100
AcDbLine
 10
40.44094099999997
 20
269.0929779999998
 30
0.0
 11
42.97943
 21
271.632467
 31
0.0
  0
LINE
  5
9D6F
330
9C4C
100
AcDbEntity
  8
1
  6
Continuous
100
AcDbLine
 10
57.121541
 20
280.426651
 30
0.0
 11
57.121541
 21
276.926673
 31
0.0
  0
LINE
  5
9D70
330
9C4C
100
AcDbEntity
  8
1
  6
Continuous
100
AcDbLine
 10
62.488482
 20
269.0929779999998
 30
0.0
 11
59.94999299999999
 21
271.632467
 31
0.0
  0
LINE
  5
9D71
330
9C4C
100
AcDbEntity
  8
1
  6
Continuous
100
AcDbLine
 10
60.23993100000001
 20
269.0929779999998
 30
0.0
 11
62.77841999999999
 21
271.632467
 31
0.0
  0
LINE
  5
9D72
330
9C4C
100
AcDbEntity
  8
1
  6
Continuous
100
AcDbLine
 10
56.831627
 20
269.0929779999998
 30
0.0
 11
54.293139
 21
271.632467
 31
0.0
  0
LINE
  5
9D73
330
9C4C
100
AcDbEntity
  8
1
  6
Continuous
100
AcDbLine
 10
54.583077
 20
269.0929779999998
 30
0.0
 11
57.121566
 21
271.632467
 31
0.0
  0
LINE
  5
9D74
330
9C4C
100
AcDbEntity
  8
1
  6
Continuous
100
AcDbLine
 10
54.0032
 20
269.0929779999998
 30
0.0
 11
51.464711
 21
271.632467
 31
0.0
  0
LINE
  5
9D75
330
9C4C
100
AcDbEntity
  8
1
  6
Continuous
100
AcDbLine
 10
51.75464999999999
 20
269.0929779999998
 30
0.0
 11
54.293139
 21
271.632467
 31
0.0
  0
LINE
  5
9D76
330
9C4C
100
AcDbEntity
  8
1
  6
Continuous
100
AcDbLine
 10
51.174773
 20
269.0929779999998
 30
0.0
 11
48.636284
 21
271.632467
 31
0.0
  0
LINE
  5
9D77
330
9C4C
100
AcDbEntity
  8
1
  6
Continuous
100
AcDbLine
 10
48.926223
 20
269.0929779999998
 30
0.0
 11
51.464711
 21
271.632467
 31
0.0
  0
LINE
  5
9D78
330
9C4C
100
AcDbEntity
  8
1
  6
Continuous
100
AcDbLine
 10
59.66005500000001
 20
269.0929779999998
 30
0.0
 11
57.121566
 21
271.632467
 31
0.0
  0
LINE
  5
9D79
330
9C4C
100
AcDbEntity
  8
1
  6
Continuous
100
AcDbLine
 10
57.411504
 20
269.0929779999998
 30
0.0
 11
59.94999299999999
 21
271.632467
 31
0.0
  0
LINE
  5
9D7A
330
9C4C
100
AcDbEntity
  8
1
  6
Continuous
100
AcDbLine
 10
52.62154200000001
 20
330.426651
 30
0.0
 11
51.721542
 21
329.5266509999998
 31
0.0
  0
LINE
  5
9D7B
330
9C4C
100
AcDbEntity
  8
1
  6
Continuous
100
AcDbLine
 10
61.62154199999999
 20
330.426651
 30
0.0
 11
62.52154199999999
 21
329.5266509999998
 31
0.0
  0
ARC
  5
9D7C
330
9C4C
100
AcDbEntity
  8
1
  6
Continuous
100
AcDbCircle
 10
47.62156599999999
 20
324.5266509999999
 30
0.0
 40
1.0
100
AcDbArc
 50
90.0
 51
180.0
  0
LINE
  5
9D7D
330
9C4C
100
AcDbEntity
  8
1
  6
Continuous
100
AcDbLine
 10
47.37156599999997
 20
329.5266509999998
 30
0.0
 11
47.37156599999997
 21
325.5266509999998
 31
0.0
  0
LINE
  5
9D7E
330
9C4C
100
AcDbEntity
  8
2
  6
Continuous
100
AcDbLine
 10
52.068566
 20
329.5266509999998
 30
0.0
 11
52.068566
 21
329.8736749999998
 31
0.0
  0
LINE
  5
9D7F
330
9C4C
100
AcDbEntity
  8
2
  6
Continuous
100
AcDbLine
 10
62.17456600000001
 20
329.5266509999998
 30
0.0
 11
62.17456600000001
 21
329.873627
 31
0.0
  0
LINE
  5
9D80
330
9C4C
100
AcDbEntity
  8
1
  6
Continuous
100
AcDbLine
 10
52.62154200000001
 20
330.426651
 30
0.0
 11
61.62154199999999
 21
330.426651
 31
0.0
  0
LINE
  5
9D81
330
9C4C
100
AcDbEntity
  8
1
  6
Continuous
100
AcDbLine
 10
67.621566
 20
281.9266509999998
 30
0.0
 11
67.621566
 21
324.5266509999999
 31
0.0
  0
LINE
  5
9D82
330
9C4C
100
AcDbEntity
  8
1
  6
Continuous
100
AcDbLine
 10
82.28747199999999
 20
269.0929779999998
 30
0.0
 11
79.74898299999998
 21
271.632467
 31
0.0
  0
ARC
  5
9D83
330
9C4C
100
AcDbEntity
  8
1
  6
Continuous
100
AcDbCircle
 10
78.121566
 20
272.9266729999998
 30
0.0
 40
4.0
100
AcDbArc
 50
0.0
 51
90.0
  0
ARC
  5
9D84
330
9C4C
100
AcDbEntity
  8
1
  6
Continuous
100
AcDbCircle
 10
66.121566
 20
281.9266509999998
 30
0.0
 40
1.5
100
AcDbArc
 50
270.0
 51
0.0
  0
LINE
  5
9D85
330
9C4C
100
AcDbEntity
  8
1
  6
Continuous
100
AcDbLine
 10
71.12154100000002
 20
280.426651
 30
0.0
 11
71.12154100000002
 21
276.926673
 31
0.0
  0
LINE
  5
9D86
330
9C4C
100
AcDbEntity
  8
1
  6
Continuous
100
AcDbLine
 10
74.38206700000002
 20
269.0929779999998
 30
0.0
 11
76.920556
 21
271.632467
 31
0.0
  0
LINE
  5
9D87
330
9C4C
100
AcDbEntity
  8
1
  6
Continuous
100
AcDbLine
 10
73.80218999999998
 20
269.0929779999998
 30
0.0
 11
71.26370099999999
 21
271.632467
 31
0.0
  0
LINE
  5
9D88
330
9C4C
100
AcDbEntity
  8
1
  6
Continuous
100
AcDbLine
 10
71.55364
 20
269.0929779999998
 30
0.0
 11
74.092128
 21
271.632467
 31
0.0
  0
LINE
  5
9D89
330
9C4C
100
AcDbEntity
  8
1
  6
Continuous
100
AcDbLine
 10
65.89678499999999
 20
269.0929779999998
 30
0.0
 11
68.43527399999999
 21
271.632467
 31
0.0
  0
LINE
  5
9D8A
330
9C4C
100
AcDbEntity
  8
1
  6
Continuous
100
AcDbLine
 10
68.145336
 20
269.0929779999998
 30
0.0
 11
65.606847
 21
271.632467
 31
0.0
  0
LINE
  5
9D8B
330
9C4C
100
AcDbEntity
  8
1
  6
Continuous
100
AcDbLine
 10
70.97376300000002
 20
269.0929779999998
 30
0.0
 11
68.43527399999999
 21
271.632467
 31
0.0
  0
LINE
  5
9D8C
330
9C4C
100
AcDbEntity
  8
1
  6
Continuous
100
AcDbLine
 10
68.725212
 20
269.0929779999998
 30
0.0
 11
71.26370099999999
 21
271.632467
 31
0.0
  0
LINE
  5
9D8D
330
9C4C
100
AcDbEntity
  8
1
  6
Continuous
100
AcDbLine
 10
76.630617
 20
269.0929779999998
 30
0.0
 11
74.092128
 21
271.632467
 31
0.0
  0
LINE
  5
9D8E
330
9C4C
100
AcDbEntity
  8
1
  6
Continuous
100
AcDbLine
 10
79.45904399999998
 20
269.0929779999998
 30
0.0
 11
76.920556
 21
271.632467
 31
0.0
  0
LINE
  5
9D8F
330
9C4C
100
AcDbEntity
  8
1
  6
Continuous
100
AcDbLine
 10
77.21049399999998
 20
269.0929779999998
 30
0.0
 11
79.74898299999998
 21
271.632467
 31
0.0
  0
LINE
  5
9D90
330
9C4C
100
AcDbEntity
  8
1
  6
Continuous
100
AcDbLine
 10
80.03892099999999
 20
269.0929779999998
 30
0.0
 11
82.57741000000001
 21
271.632467
 31
0.0
  0
LINE
  5
9D91
330
9C4C
100
AcDbEntity
  8
1
  6
Continuous
100
AcDbLine
 10
83.80766599999999
 20
272.9266729999998
 30
0.0
 11
83.80766599999999
 21
269.0929779999998
 31
0.0
  0
LINE
  5
9D92
330
9C4C
100
AcDbEntity
  8
1
  6
Continuous
100
AcDbLine
 10
83.80766599999999
 20
270.4012109999998
 30
0.0
 11
82.57741000000001
 21
271.632467
 31
0.0
  0
LINE
  5
9D93
330
9C4C
100
AcDbEntity
  8
1
  6
Continuous
100
AcDbLine
 10
83.80766599999999
 20
270.0332949999999
 30
0.0
 11
82.86734799999997
 21
269.0929779999998
 31
0.0
  0
ARC
  5
9D94
330
9C4C
100
AcDbEntity
  8
1
  6
Continuous
100
AcDbCircle
 10
81.34656600000003
 20
265.8929779999999
 30
0.0
 40
3.2
100
AcDbArc
 50
0.0
 51
90.0
  0
ARC
  5
9D95
330
9C4C
100
AcDbEntity
  8
1
  6
Continuous
100
AcDbCircle
 10
66.621566
 20
324.5266509999999
 30
0.0
 40
1.0
100
AcDbArc
 50
0.0
 51
90.0
  0
LINE
  5
9D96
330
9C4C
100
AcDbEntity
  8
1
  6
Continuous
100
AcDbLine
 10
66.871566
 20
329.5266509999998
 30
0.0
 11
66.871566
 21
325.5266509999998
 31
0.0
  0
LINE
  5
9D97
330
9C4C
100
AcDbEntity
  8
1
  6
Continuous
100
AcDbLine
 10
252.0110349999999
 20
259.24496
 30
0.0
 11
252.0110349999999
 21
266.448277
 31
0.0
  0
ARC
  5
9D98
330
9C4C
100
AcDbEntity
  8
1
  6
Continuous
100
AcDbCircle
 10
183.746176
 20
263.5999749999999
 30
0.0
 40
5.267126
100
AcDbArc
 50
2.768558
 51
15.576486
  0
LINE
  5
9D99
330
9C4C
100
AcDbEntity
  8
1
  6
Continuous
100
AcDbLine
 10
192.3253129999999
 20
263.685495
 30
0.0
 11
191.5883819999999
 21
266.204001
 31
0.0
  0
ARC
  5
9D9A
330
9C4C
100
AcDbEntity
  8
1
  6
Continuous
100
AcDbCircle
 10
183.746176
 20
263.5999749999999
 30
0.0
 40
5.267126
100
AcDbArc
 50
2.768558
 51
15.576486
  0
LINE
  5
9D9B
330
9C4C
100
AcDbEntity
  8
1
  6
Continuous
100
AcDbLine
 10
192.3253129999999
 20
263.685495
 30
0.0
 11
191.5883819999999
 21
266.204001
 31
0.0
  0
ARC
  5
9D9C
330
9C4C
100
AcDbEntity
  8
1
  6
Continuous
100
AcDbCircle
 10
181.4622139999999
 20
254.0366169999999
 30
0.0
 40
14.529548
100
AcDbArc
 50
359.3096679999999
 51
41.61228499999999
  0
LINE
  5
9D9D
330
9C4C
100
AcDbEntity
  8
4
  6
CENTER
100
AcDbLine
 10
224.586035
 20
235.4709539999999
 30
0.0
 11
224.586035
 21
335.4446299999999
 31
0.0
  0
LINE
  5
9D9E
330
9C4C
100
AcDbEntity
  8
1
  6
Continuous
100
AcDbLine
 10
203.380718
 20
264.8758149999998
 30
0.0
 11
203.380718
 21
220.880896
 31
0.0
  0
ARC
  5
9D9F
330
9C4C
100
AcDbEntity
  8
1
  6
Continuous
100
AcDbCircle
 10
191.5864479999999
 20
232.53572
 30
0.0
 40
2.6
100
AcDbArc
 50
52.940803
 51
271.025935
  0
CIRCLE
  5
9DA0
330
9C4C
100
AcDbEntity
  8
1
  6
Continuous
100
AcDbCircle
 10
191.5864479999999
 20
180.33572
 30
0.0
 40
2.6
  0
ARC
  5
9DA1
330
9C4C
100
AcDbEntity
  8
1
  6
Continuous
100
AcDbCircle
 10
191.5864479999999
 20
206.4357199999999
 30
0.0
 40
30.0
100
AcDbArc
 50
86.083619
 51
16.332298
  0
ARC
  5
9DA2
330
9C4C
100
AcDbEntity
  8
1
  6
Continuous
100
AcDbCircle
 10
191.5864479999999
 20
206.4357199999999
 30
0.0
 40
21.49999999999999
100
AcDbArc
 50
91.91383999999999
 51
3.408291999999999
  0
CIRCLE
  5
9DA3
330
9C4C
100
AcDbEntity
  8
1
  6
Continuous
100
AcDbCircle
 10
191.5864479999999
 20
206.4441629999998
 30
0.0
 40
7.5
  0
CIRCLE
  5
9DA4
330
9C4C
100
AcDbEntity
  8
2
  6
Continuous
100
AcDbCircle
 10
191.5864479999999
 20
206.4441629999998
 30
0.0
 40
3.3235
  0
CIRCLE
  5
9DA5
330
9C4C
100
AcDbEntity
  8
1
  6
Continuous
100
AcDbCircle
 10
191.5864479999999
 20
206.4441629999998
 30
0.0
 40
4.0
  0
LINE
  5
9DA6
330
9C4C
100
AcDbEntity
  8
1
  6
Continuous
100
AcDbLine
 10
185.5864479999999
 20
209.908265
 30
0.0
 11
191.5864479999999
 21
213.372366
 31
0.0
  0
LINE
  5
9DA7
330
9C4C
100
AcDbEntity
  8
1
  6
Continuous
100
AcDbLine
 10
191.5864479999999
 20
199.51596
 30
0.0
 11
185.5864479999999
 21
202.980061
 31
0.0
  0
CIRCLE
  5
9DA8
330
9C4C
100
AcDbEntity
  8
1
  6
Continuous
100
AcDbCircle
 10
191.5864479999999
 20
206.4441629999998
 30
0.0
 40
6.0
  0
ARC
  5
9DA9
330
9C4C
100
AcDbEntity
  8
1
  6
Continuous
100
AcDbCircle
 10
123.324982
 20
254.737122
 30
0.0
 40
72.67100000000002
100
AcDbArc
 50
324.5269859999999
 51
359.3096679999999
  0
ARC
  5
9DAA
330
9C4C
100
AcDbEntity
  8
1
  6
Continuous
100
AcDbCircle
 10
192.5528429999999
 20
534.547265
 30
0.0
 40
270.861866
100
AcDbArc
 50
269.329835
 51
269.95187
  0
ARC
  5
9DAB
330
9C4C
100
AcDbEntity
  8
1
  6
Continuous
100
AcDbCircle
 10
192.5528429999999
 20
534.547265
 30
0.0
 40
270.861866
100
AcDbArc
 50
269.329835
 51
269.95187
  0
ARC
  5
9DAC
330
9C4C
100
AcDbEntity
  8
1
  6
Continuous
100
AcDbCircle
 10
191.5878779999999
 20
206.094166
 30
0.0
 40
11.14999999999999
100
AcDbArc
 50
144.5269859999999
 51
300.109962
  0
CIRCLE
  5
9DAD
330
9C4C
100
AcDbEntity
  8
1
  6
Continuous
100
AcDbCircle
 10
165.486448
 20
206.4357199999999
 30
0.0
 40
2.6
  0
LINE
  5
9DAE
330
9C4C
100
AcDbEntity
  8
1
  6
Continuous
100
AcDbLine
 10
185.5864479999999
 20
209.908265
 30
0.0
 11
185.5864479999999
 21
202.980061
 31
0.0
  0
ARC
  5
9DAF
330
9C4C
100
AcDbEntity
  8
1
  6
Continuous
100
AcDbCircle
 10
189.391374
 20
264.2695939999999
 30
0.0
 40
0.565705
100
AcDbArc
 50
227.219834
 51
269.329835
  0
ARC
  5
9DB0
330
9C4C
100
AcDbEntity
  8
1
  6
Continuous
100
AcDbCircle
 10
189.391374
 20
264.2695939999999
 30
0.0
 40
0.565705
100
AcDbArc
 50
227.219834
 51
269.329835
  0
ARC
  5
9DB1
330
9C4C
100
AcDbEntity
  8
1
  6
Continuous
100
AcDbCircle
 10
150.31378
 20
279.2626349999998
 30
0.0
 40
95.157
100
AcDbArc
 50
299.4272049999999
 51
346.3948139999998
  0
LINE
  5
9DB2
330
9C4C
100
AcDbEntity
  8
1
  6
Continuous
100
AcDbLine
 10
197.586448
 20
209.908265
 30
0.0
 11
191.5864479999999
 21
213.372366
 31
0.0
  0
LINE
  5
9DB3
330
9C4C
100
AcDbEntity
  8
1
  6
Continuous
100
AcDbLine
 10
191.5864479999999
 20
199.51596
 30
0.0
 11
197.586448
 21
202.980061
 31
0.0
  0
LINE
  5
9DB4
330
9C4C
100
AcDbEntity
  8
1
  6
Continuous
100
AcDbLine
 10
197.586448
 20
209.908265
 30
0.0
 11
197.586448
 21
202.980061
 31
0.0
  0
CIRCLE
  5
9DB5
330
9C4C
100
AcDbEntity
  8
1
  6
Continuous
100
AcDbCircle
 10
217.6864479999999
 20
206.4357199999999
 30
0.0
 40
2.6
  0
LINE
  5
9DB6
330
9C4C
100
AcDbEntity
  8
1
  6
Continuous
100
AcDbLine
 10
250.507768
 20
259.144544
 30
0.0
 11
252.0110349999999
 21
259.24496
 31
0.0
  0
ARC
  5
9DB7
330
9C4C
100
AcDbEntity
  8
1
  6
Continuous
100
AcDbCircle
 10
245.057491
 20
256.332641
 30
0.0
 40
2.322
100
AcDbArc
 50
95.042199
 51
166.6951479999999
  0
LINE
  5
9DB8
330
9C4C
100
AcDbEntity
  8
1
  6
Continuous
100
AcDbLine
 10
250.507768
 20
259.144544
 30
0.0
 11
244.853411
 21
258.6456549999999
 31
0.0
  0
ARC
  5
9DB9
330
9C4C
100
AcDbEntity
  8
1
  6
Continuous
100
AcDbCircle
 10
193.4351679999998
 20
398.419323
 30
0.0
 40
132.2282199999999
100
AcDbArc
 50
268.727417
 51
273.9593529999999
  0
ARC
  5
9DBA
330
9C4C
100
AcDbEntity
  8
1
  6
Continuous
100
AcDbCircle
 10
190.4158669999999
 20
262.503052
 30
0.0
 40
3.721582999999998
100
AcDbArc
 50
88.727417
 51
112.4266129999999
  0
ARC
  5
9DBB
330
9C4C
100
AcDbEntity
  8
1
  6
Continuous
100
AcDbCircle
 10
189.104413
 20
265.6806889999999
 30
0.0
 40
0.283955
100
AcDbArc
 50
112.4266129999999
 51
153.555477
  0
ARC
  5
9DBC
330
9C4C
100
AcDbEntity
  8
1
  6
Continuous
100
AcDbCircle
 10
194.983895
 20
265.1756279999998
 30
0.0
 40
6.166148999999997
100
AcDbArc
 50
174.1216709999999
 51
181.498972
  0
ARC
  5
9DBD
330
9C4C
100
AcDbEntity
  8
1
  6
Continuous
100
AcDbCircle
 10
190.4158669999999
 20
262.503052
 30
0.0
 40
3.721582999999998
100
AcDbArc
 50
88.727417
 51
112.4266129999999
  0
ARC
  5
9DBE
330
9C4C
100
AcDbEntity
  8
1
  6
Continuous
100
AcDbCircle
 10
189.104413
 20
265.6806889999999
 30
0.0
 40
0.283955
100
AcDbArc
 50
112.4266129999999
 51
153.555477
  0
ARC
  5
9DBF
330
9C4C
100
AcDbEntity
  8
1
  6
Continuous
100
AcDbCircle
 10
194.983895
 20
265.1756279999998
 30
0.0
 40
6.166148999999997
100
AcDbArc
 50
174.1216709999999
 51
181.498972
  0
LINE
  5
9DC0
330
9C4C
100
AcDbEntity
  8
1
  6
Continuous
100
AcDbLine
 10
235.086035
 20
281.9446299999999
 30
0.0
 11
235.086035
 21
324.5446299999999
 31
0.0
  0
LINE
  5
9DC1
330
9C4C
100
AcDbEntity
  8
1
  6
Continuous
100
AcDbLine
 10
214.086035
 20
281.9446299999999
 30
0.0
 11
214.086035
 21
324.5446299999999
 31
0.0
  0
LINE
  5
9DC2
330
9C4C
100
AcDbEntity
  8
1
  6
Continuous
100
AcDbLine
 10
235.086035
 20
286.34463
 30
0.0
 11
214.086035
 21
286.34463
 31
0.0
  0
LINE
  5
9DC3
330
9C4C
100
AcDbEntity
  8
1
  6
Continuous
100
AcDbLine
 10
224.296096
 20
269.1289569999999
 30
0.0
 11
221.757608
 21
271.6504459999999
 31
0.0
  0
LINE
  5
9DC4
330
9C4C
100
AcDbEntity
  8
1
  6
Continuous
100
AcDbLine
 10
222.0475459999999
 20
269.1289569999999
 30
0.0
 11
224.586035
 21
271.6504459999999
 31
0.0
  0
LINE
  5
9DC5
330
9C4C
100
AcDbEntity
  8
1
  6
Continuous
100
AcDbLine
 10
240.7518179999999
 20
280.4446299999998
 30
0.0
 11
208.4202029999999
 21
280.4446299999998
 31
0.0
  0
LINE
  5
9DC6
330
9C4C
100
AcDbEntity
  8
1
  6
Continuous
100
AcDbLine
 10
203.586035
 20
276.944652
 30
0.0
 11
245.586035
 21
276.944652
 31
0.0
  0
LINE
  5
9DC7
330
9C4C
100
AcDbEntity
  8
1
  6
Continuous
100
AcDbLine
 10
251.272135
 20
272.944652
 30
0.0
 11
197.899935
 21
272.944652
 31
0.0
  0
LINE
  5
9DC8
330
9C4C
100
AcDbEntity
  8
1
  6
Continuous
100
AcDbLine
 10
197.899935
 20
271.6504459999999
 30
0.0
 11
251.272135
 21
271.6504459999999
 31
0.0
  0
LINE
  5
9DC9
330
9C4C
100
AcDbEntity
  8
1
  6
Continuous
100
AcDbLine
 10
251.272135
 20
269.1289569999999
 30
0.0
 11
197.899935
 21
269.1289569999999
 31
0.0
  0
LINE
  5
9DCA
330
9C4C
100
AcDbEntity
  8
1
  6
Continuous
100
AcDbLine
 10
248.8110349999999
 20
269.1289680000001
 30
0.0
 11
200.3610349999999
 21
269.1289680000001
 31
0.0
  0
LINE
  5
9DCB
330
9C4C
100
AcDbEntity
  8
1
  6
Continuous
100
AcDbLine
 10
205.076983
 20
269.1289569999999
 30
0.0
 11
207.615472
 21
271.6504459999999
 31
0.0
  0
LINE
  5
9DCC
330
9C4C
100
AcDbEntity
  8
1
  6
Continuous
100
AcDbLine
 10
207.325534
 20
269.1289569999999
 30
0.0
 11
204.787045
 21
271.6504459999999
 31
0.0
  0
LINE
  5
9DCD
330
9C4C
100
AcDbEntity
  8
1
  6
Continuous
100
AcDbLine
 10
204.4971069999999
 20
269.1289569999999
 30
0.0
 11
201.958618
 21
271.6504459999999
 31
0.0
  0
LINE
  5
9DCE
330
9C4C
100
AcDbEntity
  8
1
  6
Continuous
100
AcDbLine
 10
202.248556
 20
269.1289569999999
 30
0.0
 11
204.787045
 21
271.6504459999999
 31
0.0
  0
LINE
  5
9DCF
330
9C4C
100
AcDbEntity
  8
1
  6
Continuous
100
AcDbLine
 10
201.668679
 20
269.1289569999999
 30
0.0
 11
199.1301909999999
 21
271.6504459999999
 31
0.0
  0
LINE
  5
9DD0
330
9C4C
100
AcDbEntity
  8
1
  6
Continuous
100
AcDbLine
 10
199.420129
 20
269.1289569999999
 30
0.0
 11
201.958618
 21
271.6504459999999
 31
0.0
  0
LINE
  5
9DD1
330
9C4C
100
AcDbEntity
  8
1
  6
Continuous
100
AcDbLine
 10
198.8402519999999
 20
269.1289569999999
 30
0.0
 11
197.899935
 21
270.069274
 31
0.0
  0
LINE
  5
9DD2
330
9C4C
100
AcDbEntity
  8
1
  6
Continuous
100
AcDbLine
 10
197.899935
 20
269.1289569999999
 30
0.0
 11
197.899935
 21
272.944652
 31
0.0
  0
LINE
  5
9DD3
330
9C4C
100
AcDbEntity
  8
1
  6
Continuous
100
AcDbLine
 10
197.899935
 20
270.4371899999998
 30
0.0
 11
199.1301909999999
 21
271.6504459999999
 31
0.0
  0
ARC
  5
9DD4
330
9C4C
100
AcDbEntity
  8
1
  6
Continuous
100
AcDbCircle
 10
203.586035
 20
272.944652
 30
0.0
 40
4.0
100
AcDbArc
 50
90.0
 51
180.0
  0
ARC
  5
9DD5
330
9C4C
100
AcDbEntity
  8
1
  6
Continuous
100
AcDbCircle
 10
200.1948669999999
 20
266.7600759999999
 30
0.0
 40
2.383999999999999
100
AcDbArc
 50
353.8988339999999
 51
90.23407699999998
  0
ARC
  5
9DD6
330
9C4C
100
AcDbEntity
  8
1
  6
Continuous
100
AcDbCircle
 10
200.1180199999998
 20
265.9437549999998
 30
0.0
 40
3.2
100
AcDbArc
 50
90.23407699999998
 51
150.627636
  0
ARC
  5
9DD7
330
9C4C
100
AcDbEntity
  8
1
  6
Continuous
100
AcDbCircle
 10
196.1450389999999
 20
267.4081259999999
 30
0.0
 40
1.189
100
AcDbArc
 50
271.184952
 51
5.074886
  0
ARC
  5
9DD8
330
9C4C
100
AcDbEntity
  8
1
  6
Continuous
100
AcDbCircle
 10
215.586035
 20
281.9446299999999
 30
0.0
 40
1.5
100
AcDbArc
 50
180.0
 51
270.0
  0
LINE
  5
9DD9
330
9C4C
100
AcDbEntity
  8
1
  6
Continuous
100
AcDbLine
 10
221.467669
 20
269.1289569999999
 30
0.0
 11
218.9291799999999
 21
271.6504459999999
 31
0.0
  0
LINE
  5
9DDA
330
9C4C
100
AcDbEntity
  8
1
  6
Continuous
100
AcDbLine
 10
219.2191189999999
 20
269.1289569999999
 30
0.0
 11
221.757608
 21
271.6504459999999
 31
0.0
  0
LINE
  5
9DDB
330
9C4C
100
AcDbEntity
  8
1
  6
Continuous
100
AcDbLine
 10
218.639242
 20
269.1289569999999
 30
0.0
 11
216.1007529999999
 21
271.6504459999999
 31
0.0
  0
LINE
  5
9DDC
330
9C4C
100
AcDbEntity
  8
1
  6
Continuous
100
AcDbLine
 10
216.390692
 20
269.1289569999999
 30
0.0
 11
218.9291799999999
 21
271.6504459999999
 31
0.0
  0
LINE
  5
9DDD
330
9C4C
100
AcDbEntity
  8
1
  6
Continuous
100
AcDbLine
 10
216.5031069999999
 20
276.944652
 30
0.0
 11
216.5031069999999
 21
280.4446299999998
 31
0.0
  0
LINE
  5
9DDE
330
9C4C
100
AcDbEntity
  8
1
  6
Continuous
100
AcDbLine
 10
212.982388
 20
269.1289569999999
 30
0.0
 11
210.4438989999999
 21
271.6504459999999
 31
0.0
  0
LINE
  5
9DDF
330
9C4C
100
AcDbEntity
  8
1
  6
Continuous
100
AcDbLine
 10
210.7338369999999
 20
269.1289569999999
 30
0.0
 11
213.2723259999999
 21
271.6504459999999
 31
0.0
  0
LINE
  5
9DE0
330
9C4C
100
AcDbEntity
  8
1
  6
Continuous
100
AcDbLine
 10
210.1539609999999
 20
269.1289569999999
 30
0.0
 11
207.615472
 21
271.6504459999999
 31
0.0
  0
LINE
  5
9DE1
330
9C4C
100
AcDbEntity
  8
1
  6
Continuous
100
AcDbLine
 10
207.90541
 20
269.1289569999999
 30
0.0
 11
210.4438989999999
 21
271.6504459999999
 31
0.0
  0
LINE
  5
9DE2
330
9C4C
100
AcDbEntity
  8
1
  6
Continuous
100
AcDbLine
 10
208.4202029999999
 20
276.944652
 30
0.0
 11
208.4202029999999
 21
280.4446299999998
 31
0.0
  0
LINE
  5
9DE3
330
9C4C
100
AcDbEntity
  8
1
  6
Continuous
100
AcDbLine
 10
215.8108149999999
 20
269.1289569999999
 30
0.0
 11
213.2723259999999
 21
271.6504459999999
 31
0.0
  0
LINE
  5
9DE4
330
9C4C
100
AcDbEntity
  8
1
  6
Continuous
100
AcDbLine
 10
213.562264
 20
269.1289569999999
 30
0.0
 11
216.1007529999999
 21
271.6504459999999
 31
0.0
  0
LINE
  5
9DE5
330
9C4C
100
AcDbEntity
  8
1
  6
Continuous
100
AcDbLine
 10
241.2666589999998
 20
269.1289569999999
 30
0.0
 11
238.7281699999999
 21
271.6504459999999
 31
0.0
  0
LINE
  5
9DE6
330
9C4C
100
AcDbEntity
  8
1
  6
Continuous
100
AcDbLine
 10
239.018109
 20
269.1289569999999
 30
0.0
 11
241.556597
 21
271.6504459999999
 31
0.0
  0
ARC
  5
9DE7
330
9C4C
100
AcDbEntity
  8
1
  6
Continuous
100
AcDbCircle
 10
233.586035
 20
281.9446299999999
 30
0.0
 40
1.5
100
AcDbArc
 50
270.0
 51
0.0
  0
LINE
  5
9DE8
330
9C4C
100
AcDbEntity
  8
1
  6
Continuous
100
AcDbLine
 10
233.361254
 20
269.1289569999999
 30
0.0
 11
235.899743
 21
271.6504459999999
 31
0.0
  0
LINE
  5
9DE9
330
9C4C
100
AcDbEntity
  8
1
  6
Continuous
100
AcDbLine
 10
235.6098049999999
 20
269.1289569999999
 30
0.0
 11
233.071316
 21
271.6504459999999
 31
0.0
  0
LINE
  5
9DEA
330
9C4C
100
AcDbEntity
  8
1
  6
Continuous
100
AcDbLine
 10
238.4382319999999
 20
269.1289569999999
 30
0.0
 11
235.899743
 21
271.6504459999999
 31
0.0
  0
LINE
  5
9DEB
330
9C4C
100
AcDbEntity
  8
1
  6
Continuous
100
AcDbLine
 10
236.189681
 20
269.1289569999999
 30
0.0
 11
238.7281699999999
 21
271.6504459999999
 31
0.0
  0
LINE
  5
9DEC
330
9C4C
100
AcDbEntity
  8
1
  6
Continuous
100
AcDbLine
 10
232.6689149999999
 20
276.944652
 30
0.0
 11
232.6689149999999
 21
280.4446299999998
 31
0.0
  0
LINE
  5
9DED
330
9C4C
100
AcDbEntity
  8
1
  6
Continuous
100
AcDbLine
 10
229.9529509999999
 20
269.1289569999999
 30
0.0
 11
227.4144619999999
 21
271.6504459999999
 31
0.0
  0
LINE
  5
9DEE
330
9C4C
100
AcDbEntity
  8
1
  6
Continuous
100
AcDbLine
 10
227.7044
 20
269.1289569999999
 30
0.0
 11
230.2428889999999
 21
271.6504459999999
 31
0.0
  0
LINE
  5
9DEF
330
9C4C
100
AcDbEntity
  8
1
  6
Continuous
100
AcDbLine
 10
227.124524
 20
269.1289569999999
 30
0.0
 11
224.586035
 21
271.6504459999999
 31
0.0
  0
LINE
  5
9DF0
330
9C4C
100
AcDbEntity
  8
1
  6
Continuous
100
AcDbLine
 10
224.8759729999999
 20
269.1289569999999
 30
0.0
 11
227.4144619999999
 21
271.6504459999999
 31
0.0
  0
LINE
  5
9DF1
330
9C4C
100
AcDbEntity
  8
1
  6
Continuous
100
AcDbLine
 10
232.781378
 20
269.1289569999999
 30
0.0
 11
230.2428889999999
 21
271.6504459999999
 31
0.0
  0
LINE
  5
9DF2
330
9C4C
100
AcDbEntity
  8
1
  6
Continuous
100
AcDbLine
 10
230.5328269999999
 20
269.1289569999999
 30
0.0
 11
233.071316
 21
271.6504459999999
 31
0.0
  0
LINE
  5
9DF3
330
9C4C
100
AcDbEntity
  8
1
  6
Continuous
100
AcDbLine
 10
249.7519409999999
 20
269.1289569999999
 30
0.0
 11
247.213452
 21
271.6504459999999
 31
0.0
  0
LINE
  5
9DF4
330
9C4C
100
AcDbEntity
  8
1
  6
Continuous
100
AcDbLine
 10
247.50339
 20
269.1289569999999
 30
0.0
 11
250.0418789999999
 21
271.6504459999999
 31
0.0
  0
LINE
  5
9DF5
330
9C4C
100
AcDbEntity
  8
1
  6
Continuous
100
AcDbLine
 10
251.272135
 20
272.944652
 30
0.0
 11
251.272135
 21
269.1289569999999
 31
0.0
  0
LINE
  5
9DF6
330
9C4C
100
AcDbEntity
  8
1
  6
Continuous
100
AcDbLine
 10
251.272135
 20
270.4371899999998
 30
0.0
 11
250.0418789999999
 21
271.6504459999999
 31
0.0
  0
LINE
  5
9DF7
330
9C4C
100
AcDbEntity
  8
1
  6
Continuous
100
AcDbLine
 10
251.272135
 20
270.069274
 30
0.0
 11
250.331817
 21
269.1289569999999
 31
0.0
  0
LINE
  5
9DF8
330
9C4C
100
AcDbEntity
  8
1
  6
Continuous
100
AcDbLine
 10
241.8465359999999
 20
269.1289569999999
 30
0.0
 11
244.385025
 21
271.6504459999999
 31
0.0
  0
LINE
  5
9DF9
330
9C4C
100
AcDbEntity
  8
1
  6
Continuous
100
AcDbLine
 10
244.095086
 20
269.1289569999999
 30
0.0
 11
241.556597
 21
271.6504459999999
 31
0.0
  0
LINE
  5
9DFA
330
9C4C
100
AcDbEntity
  8
1
  6
Continuous
100
AcDbLine
 10
240.7518179999999
 20
276.944652
 30
0.0
 11
240.7518179999999
 21
280.4446299999998
 31
0.0
  0
LINE
  5
9DFB
330
9C4C
100
AcDbEntity
  8
1
  6
Continuous
100
AcDbLine
 10
246.9235129999999
 20
269.1289569999999
 30
0.0
 11
244.385025
 21
271.6504459999999
 31
0.0
  0
ARC
  5
9DFC
330
9C4C
100
AcDbEntity
  8
1
  6
Continuous
100
AcDbCircle
 10
245.586035
 20
272.944652
 30
0.0
 40
4.0
100
AcDbArc
 50
0.0
 51
90.0
  0
LINE
  5
9DFD
330
9C4C
100
AcDbEntity
  8
1
  6
Continuous
100
AcDbLine
 10
244.6749629999999
 20
269.1289569999999
 30
0.0
 11
247.213452
 21
271.6504459999999
 31
0.0
  0
ARC
  5
9DFE
330
9C4C
100
AcDbEntity
  8
1
  6
Continuous
100
AcDbCircle
 10
248.8110349999999
 20
265.928968
 30
0.0
 40
3.2
100
AcDbArc
 50
21.59414599999999
 51
90.0
  0
ARC
  5
9DFF
330
9C4C
100
AcDbEntity
  8
1
  6
Continuous
100
AcDbCircle
 10
245.117864
 20
264.464311
 30
0.0
 40
7.172999999999999
100
AcDbArc
 50
16.056676
 51
21.632539
  0
LINE
  5
9E00
330
9C4C
100
AcDbEntity
  8
1
  6
Continuous
100
AcDbLine
 10
213.8860349999999
 20
325.54463
 30
0.0
 11
235.2860349999999
 21
325.54463
 31
0.0
  0
LINE
  5
9E01
330
9C4C
100
AcDbEntity
  8
1
  6
Continuous
100
AcDbLine
 10
220.0860109999999
 20
330.4446299999999
 30
0.0
 11
229.086011
 21
330.4446299999999
 31
0.0
  0
LINE
  5
9E02
330
9C4C
100
AcDbEntity
  8
1
  6
Continuous
100
AcDbLine
 10
213.8860349999999
 20
329.54463
 30
0.0
 11
235.2860349999999
 21
329.54463
 31
0.0
  0
LINE
  5
9E03
330
9C4C
100
AcDbEntity
  8
1
  6
Continuous
100
AcDbLine
 10
220.0860109999999
 20
330.4446299999999
 30
0.0
 11
219.1860109999999
 21
329.54463
 31
0.0
  0
ARC
  5
9E04
330
9C4C
100
AcDbEntity
  8
1
  6
Continuous
100
AcDbCircle
 10
215.086035
 20
324.5446299999999
 30
0.0
 40
1.0
100
AcDbArc
 50
90.0
 51
180.0
  0
LINE
  5
9E05
330
9C4C
100
AcDbEntity
  8
1
  6
Continuous
100
AcDbLine
 10
220.1783709999999
 20
329.54463
 30
0.0
 11
220.1783709999999
 21
325.54463
 31
0.0
  0
LINE
  5
9E06
330
9C4C
100
AcDbEntity
  8
1
  6
Continuous
100
AcDbLine
 10
213.8860349999999
 20
325.54463
 30
0.0
 11
213.8860349999999
 21
329.54463
 31
0.0
  0
LINE
  5
9E07
330
9C4C
100
AcDbEntity
  8
2
  6
Continuous
100
AcDbLine
 10
219.533035
 20
329.54463
 30
0.0
 11
219.533035
 21
329.891654
 31
0.0
  0
LINE
  5
9E08
330
9C4C
100
AcDbEntity
  8
1
  6
Continuous
100
AcDbLine
 10
229.086011
 20
330.4446299999999
 30
0.0
 11
229.986011
 21
329.54463
 31
0.0
  0
ARC
  5
9E09
330
9C4C
100
AcDbEntity
  8
1
  6
Continuous
100
AcDbCircle
 10
234.086035
 20
324.5446299999999
 30
0.0
 40
1.0
100
AcDbArc
 50
0.0
 51
90.0
  0
LINE
  5
9E0A
330
9C4C
100
AcDbEntity
  8
1
  6
Continuous
100
AcDbLine
 10
228.9936979999999
 20
329.54463
 30
0.0
 11
228.9936979999999
 21
325.54463
 31
0.0
  0
LINE
  5
9E0B
330
9C4C
100
AcDbEntity
  8
1
  6
Continuous
100
AcDbLine
 10
235.2860349999999
 20
325.54463
 30
0.0
 11
235.2860349999999
 21
329.54463
 31
0.0
  0
LINE
  5
9E0C
330
9C4C
100
AcDbEntity
  8
2
  6
Continuous
100
AcDbLine
 10
229.639035
 20
329.54463
 30
0.0
 11
229.639035
 21
329.891606
 31
0.0
  0
LINE
  5
9E0D
330
9C4C
100
AcDbEntity
  8
4
  6
CENTER
100
AcDbLine
 10
481.4316719999998
 20
148.3371629999998
 30
0.0
 11
481.4316719999998
 21
258.001771
 31
0.0
  0
LINE
  5
9E0E
330
9C4C
100
AcDbEntity
  8
4
  6
CENTER
100
AcDbLine
 10
336.5090599999998
 20
335.4436299999999
 30
0.0
 11
336.5090599999998
 21
148.4438669999998
 31
0.0
  0
LINE
  5
9E0F
330
9C4C
100
AcDbEntity
  8
1
  6
Continuous
100
AcDbLine
 10
347.509069
 20
250.713189
 30
0.0
 11
347.509069
 21
162.1745449999998
 31
0.0
  0
LINE
  5
9E10
330
9C4C
100
AcDbEntity
  8
1
  6
Continuous
100
AcDbLine
 10
325.509069
 20
250.713189
 30
0.0
 11
325.509069
 21
162.1745449999998
 31
0.0
  0
ARC
  5
9E11
330
9C4C
100
AcDbEntity
  8
1
  6
Continuous
100
AcDbCircle
 10
336.509069
 20
186.443867
 30
0.0
 40
30.0
100
AcDbArc
 50
256.1134599999999
 51
283.8865399999999
  0
ARC
  5
9E12
330
9C4C
100
AcDbEntity
  8
1
  6
Continuous
100
AcDbCircle
 10
330.509069
 20
162.1745449999998
 30
0.0
 40
5.0
100
AcDbArc
 50
180.0
 51
256.1134599999999
  0
ARC
  5
9E13
330
9C4C
100
AcDbEntity
  8
1
  6
Continuous
100
AcDbCircle
 10
342.509069
 20
162.1745449999998
 30
0.0
 40
5.0
100
AcDbArc
 50
283.8865399999999
 51
0.0
  0
LINE
  5
9E15
330
9C4C
100
AcDbEntity
  8
1
  6
Continuous
100
AcDbLine
 10
363.93406
 20
265.927968
 30
0.0
 11
363.93406
 21
226.04733
 31
0.0
  0
LINE
  5
9E16
330
9C4C
100
AcDbEntity
  8
1
  6
Continuous
100
AcDbLine
 10
309.08406
 20
265.927968
 30
0.0
 11
309.08406
 21
228.525321
 31
0.0
  0
ARC
  5
9E17
330
9C4C
100
AcDbEntity
  8
1
  6
Continuous
100
AcDbCircle
 10
308.0918599999999
 20
201.030369
 30
0.0
 40
12.6
100
AcDbArc
 50
0.0
 51
36.279299
  0
LINE
  5
9E18
330
9C4C
100
AcDbEntity
  8
4
  6
CENTER
100
AcDbLine
 10
304.626286
 20
206.4441629999998
 30
0.0
 11
364.926286
 21
206.4441629999998
 31
0.0
  0
LINE
  5
9E19
330
9C4C
100
AcDbEntity
  8
1
  6
Continuous
100
AcDbLine
 10
320.69186
 20
194.9438629999999
 30
0.0
 11
318.1588509999999
 21
194.9438629999999
 31
0.0
  0
ARC
  5
9E1A
330
9C4C
100
AcDbEntity
  8
1
  6
Continuous
100
AcDbCircle
 10
350.9088929999998
 20
227.915635
 30
0.0
 40
39.224834
100
AcDbArc
 50
127.1210199999998
 51
179.538277
  0
ARC
  5
9E1B
330
9C4C
100
AcDbEntity
  8
1
  6
Continuous
100
AcDbCircle
 10
349.6692009999999
 20
226.04733
 30
0.0
 40
40.585141
100
AcDbArc
 50
127.58973
 51
178.2037629999999
  0
ARC
  5
9E1C
330
9C4C
100
AcDbEntity
  8
1
  6
Continuous
100
AcDbCircle
 10
345.5500599999999
 20
228.525321
 30
0.0
 40
36.466
100
AcDbArc
 50
180.0
 51
216.2792799999998
  0
ARC
  5
9E1D
330
9C4C
100
AcDbEntity
  8
1
  6
Continuous
100
AcDbCircle
 10
345.5500599999999
 20
228.525321
 30
0.0
 40
33.866
100
AcDbArc
 50
180.0
 51
216.279299
  0
LINE
  5
9E1E
330
9C4C
100
AcDbEntity
  8
1
  6
Continuous
100
AcDbLine
 10
318.0918509999999
 20
201.0303809999999
 30
0.0
 11
318.0918509999999
 21
194.9438629999999
 31
0.0
  0
LINE
  5
9E1F
330
9C4C
100
AcDbEntity
  8
1
  6
Continuous
100
AcDbLine
 10
317.0738739999999
 20
205.4262029999999
 30
0.0
 11
316.091834
 21
204.4441629999998
 31
0.0
  0
LINE
  5
9E20
330
9C4C
100
AcDbEntity
  8
1
  6
Continuous
100
AcDbLine
 10
316.3367779999999
 20
206.689107
 30
0.0
 11
316.091834
 21
206.4441629999998
 31
0.0
  0
LINE
  5
9E21
330
9C4C
100
AcDbEntity
  8
1
  6
Continuous
100
AcDbLine
 10
311.091834
 20
210.4441629999998
 30
0.0
 11
310.302769
 21
210.4441629999998
 31
0.0
  0
LINE
  5
9E22
330
9C4C
100
AcDbEntity
  8
2
  6
Continuous
100
AcDbLine
 10
311.091834
 20
209.767663
 30
0.0
 11
309.6262689999999
 21
209.767663
 31
0.0
  0
LINE
  5
9E23
330
9C4C
100
AcDbEntity
  8
1
  6
Continuous
100
AcDbLine
 10
310.302769
 20
210.4441629999998
 30
0.0
 11
309.6262689999999
 21
209.767663
 31
0.0
  0
ARC
  5
9E24
330
9C4C
100
AcDbEntity
  8
1
  6
Continuous
100
AcDbCircle
 10
314.158821
 20
211.640315
 30
0.0
 40
3.066986999999998
100
AcDbArc
 50
154.3842469999999
 51
214.384247
  0
LINE
  5
9E25
330
9C4C
100
AcDbEntity
  8
1
  6
Continuous
100
AcDbLine
 10
311.627732
 20
213.372366
 30
0.0
 11
311.091834
 21
212.4441629999998
 31
0.0
  0
LINE
  5
9E26
330
9C4C
100
AcDbEntity
  8
1
  6
Continuous
100
AcDbLine
 10
314.194449
 20
209.908265
 30
0.0
 11
311.627732
 21
209.908265
 31
0.0
  0
LINE
  5
9E27
330
9C4C
100
AcDbEntity
  8
1
  6
Continuous
100
AcDbLine
 10
312.3814439999998
 20
213.372366
 30
0.0
 11
311.627732
 21
213.372366
 31
0.0
  0
LINE
  5
9E28
330
9C4C
100
AcDbEntity
  8
1
  6
Continuous
100
AcDbLine
 10
311.091834
 20
202.4441629999998
 30
0.0
 11
310.2918339999998
 21
202.4441629999998
 31
0.0
  0
LINE
  5
9E29
330
9C4C
100
AcDbEntity
  8
2
  6
Continuous
100
AcDbLine
 10
311.091834
 20
203.1206629999998
 30
0.0
 11
309.6262689999999
 21
203.1206629999998
 31
0.0
  0
LINE
  5
9E2A
330
9C4C
100
AcDbEntity
  8
1
  6
Continuous
100
AcDbLine
 10
309.6262689999999
 20
203.109728
 30
0.0
 11
310.2918339999998
 21
202.4441629999998
 31
0.0
  0
LINE
  5
9E2B
330
9C4C
100
AcDbEntity
  8
1
  6
Continuous
100
AcDbLine
 10
311.627732
 20
199.51596
 30
0.0
 11
311.091834
 21
200.4441629999998
 31
0.0
  0
ARC
  5
9E2C
330
9C4C
100
AcDbEntity
  8
1
  6
Continuous
100
AcDbCircle
 10
314.158821
 20
201.2480109999999
 30
0.0
 40
3.066986999999998
100
AcDbArc
 50
145.615753
 51
205.615753
  0
LINE
  5
9E2D
330
9C4C
100
AcDbEntity
  8
1
  6
Continuous
100
AcDbLine
 10
318.091834
 20
198.9441629999998
 30
0.0
 11
316.091834
 21
198.9441629999998
 31
0.0
  0
LINE
  5
9E2E
330
9C4C
100
AcDbEntity
  8
1
  6
Continuous
100
AcDbLine
 10
316.091834
 20
198.9441629999998
 30
0.0
 11
316.091834
 21
206.4441629999998
 31
0.0
  0
LINE
  5
9E2F
330
9C4C
100
AcDbEntity
  8
1
  6
Continuous
100
AcDbLine
 10
315.5559359999998
 20
199.51596
 30
0.0
 11
316.091834
 21
200.4441629999998
 31
0.0
  0
ARC
  5
9E30
330
9C4C
100
AcDbEntity
  8
1
  6
Continuous
100
AcDbCircle
 10
313.024847
 20
201.2480109999999
 30
0.0
 40
3.066986999999998
100
AcDbArc
 50
334.384247
 51
34.38424699999998
  0
LINE
  5
9E31
330
9C4C
100
AcDbEntity
  8
1
  6
Continuous
100
AcDbLine
 10
315.5559359999998
 20
199.51596
 30
0.0
 11
311.627732
 21
199.51596
 31
0.0
  0
LINE
  5
9E32
330
9C4C
100
AcDbEntity
  8
1
  6
Continuous
100
AcDbLine
 10
315.5559359999998
 20
202.980061
 30
0.0
 11
311.627732
 21
202.980061
 31
0.0
  0
LINE
  5
9E33
330
9C4C
100
AcDbEntity
  8
1
  6
Continuous
100
AcDbLine
 10
309.6262689999999
 20
203.109728
 30
0.0
 11
309.6262689999999
 21
209.767663
 31
0.0
  0
LINE
  5
9E34
330
9C4C
100
AcDbEntity
  8
1
  6
Continuous
100
AcDbLine
 10
310.2918339999998
 20
202.4441629999998
 30
0.0
 11
310.2918339999998
 21
210.4441629999998
 31
0.0
  0
LINE
  5
9E35
330
9C4C
100
AcDbEntity
  8
1
  6
Continuous
100
AcDbLine
 10
311.091834
 20
212.4441629999998
 30
0.0
 11
311.091834
 21
200.4441629999998
 31
0.0
  0
ARC
  5
9E36
330
9C4C
100
AcDbEntity
  8
1
  6
Continuous
100
AcDbCircle
 10
322.5559359999999
 20
206.4441629999998
 30
0.0
 40
11.464102
100
AcDbArc
 50
162.412046
 51
197.5879539999999
  0
ARC
  5
9E37
330
9C4C
100
AcDbEntity
  8
1
  6
Continuous
100
AcDbCircle
 10
304.6277319999999
 20
206.4441629999998
 30
0.0
 40
11.464102
100
AcDbArc
 50
342.4120459999999
 51
3.048318999999998
  0
ARC
  5
9E38
330
9C4C
100
AcDbEntity
  8
1
  6
Continuous
100
AcDbCircle
 10
308.0918509999999
 20
201.0303809999999
 30
0.0
 40
10.0
100
AcDbArc
 50
0.0
 51
36.27928
  0
ARC
  5
9E39
330
9C4C
100
AcDbEntity
  8
1
  6
Continuous
100
AcDbCircle
 10
327.4680599999999
 20
228.525321
 30
0.0
 40
33.866
100
AcDbArc
 50
323.7207009999999
 51
0.0
  0
ARC
  5
9E3A
330
9C4C
100
AcDbEntity
  8
1
  6
Continuous
100
AcDbCircle
 10
327.4680599999999
 20
228.525321
 30
0.0
 40
36.466
100
AcDbArc
 50
323.7207199999998
 51
0.0
  0
ARC
  5
9E3B
330
9C4C
100
AcDbEntity
  8
1
  6
Continuous
100
AcDbCircle
 10
340.6469149999999
 20
210.46177
 30
0.0
 40
19.0
100
AcDbArc
 50
142.818892
 51
165.4165309999999
  0
ARC
  5
9E3C
330
9C4C
100
AcDbEntity
  8
1
  6
Continuous
100
AcDbCircle
 10
332.3712039999999
 20
210.46177
 30
0.0
 40
19.0
100
AcDbArc
 50
14.583469
 51
37.181108
  0
LINE
  5
9E3D
330
9C4C
100
AcDbEntity
  8
1
  6
Continuous
100
AcDbLine
 10
352.3262599999998
 20
252.926002
 30
0.0
 11
352.3262599999998
 21
194.9438629999999
 31
0.0
  0
LINE
  5
9E3E
330
9C4C
100
AcDbEntity
  8
1
  6
Continuous
100
AcDbLine
 10
320.69186
 20
252.9260029999999
 30
0.0
 11
320.69186
 21
194.9438629999999
 31
0.0
  0
ARC
  5
9E3F
330
9C4C
100
AcDbEntity
  8
1
  6
Continuous
100
AcDbCircle
 10
349.8127600000001
 20
213.4838189999999
 30
0.0
 40
2.0
100
AcDbArc
 50
13.30718099999998
 51
61.761033
  0
ARC
  5
9E40
330
9C4C
100
AcDbEntity
  8
1
  6
Continuous
100
AcDbCircle
 10
332.3712039999999
 20
202.4265549999999
 30
0.0
 40
19.0
100
AcDbArc
 50
322.818892
 51
345.416531
  0
ARC
  5
9E41
330
9C4C
100
AcDbEntity
  8
1
  6
Continuous
100
AcDbCircle
 10
349.8127600000001
 20
199.4045059999999
 30
0.0
 40
2.0
100
AcDbArc
 50
298.2389669999998
 51
346.6928189999999
  0
ARC
  5
9E42
330
9C4C
100
AcDbEntity
  8
1
  6
Continuous
100
AcDbCircle
 10
323.2053599999999
 20
199.4045059999999
 30
0.0
 40
2.0
100
AcDbArc
 50
193.3071809999999
 51
241.761033
  0
LINE
  5
9E43
330
9C4C
100
AcDbEntity
  8
1
  6
Continuous
100
AcDbLine
 10
322.2590599999999
 20
215.2457829999999
 30
0.0
 11
322.2590599999999
 21
197.6425419999999
 31
0.0
  0
LINE
  5
9E44
330
9C4C
100
AcDbEntity
  8
1
  6
Continuous
100
AcDbLine
 10
350.7590599999999
 20
215.2457829999999
 30
0.0
 11
350.7590599999999
 21
197.6425419999999
 31
0.0
  0
ARC
  5
9E45
330
9C4C
100
AcDbEntity
  8
1
  6
Continuous
100
AcDbCircle
 10
340.6469149999999
 20
202.4265549999999
 30
0.0
 40
19.0
100
AcDbArc
 50
194.583469
 51
217.1811079999999
  0
LINE
  5
9E46
330
9C4C
100
AcDbEntity
  8
1
  6
Continuous
100
AcDbLine
 10
320.6918339999999
 20
210.4441629999998
 30
0.0
 11
321.00906
 21
210.4441629999998
 31
0.0
  0
LINE
  5
9E47
330
9C4C
100
AcDbEntity
  8
1
  6
Continuous
100
AcDbLine
 10
321.00906
 20
211.9441629999998
 30
0.0
 11
321.2590599999999
 21
211.9441629999998
 31
0.0
  0
ARC
  5
9E48
330
9C4C
100
AcDbEntity
  8
1
  6
Continuous
100
AcDbCircle
 10
323.2053599999999
 20
213.4838189999999
 30
0.0
 40
2.0
100
AcDbArc
 50
118.2389669999998
 51
166.6928189999999
  0
LINE
  5
9E49
330
9C4C
100
AcDbEntity
  8
1
  6
Continuous
100
AcDbLine
 10
320.6918339999999
 20
202.4441629999998
 30
0.0
 11
321.00906
 21
202.4441629999998
 31
0.0
  0
LINE
  5
9E4A
330
9C4C
100
AcDbEntity
  8
1
  6
Continuous
100
AcDbLine
 10
321.00906
 20
200.9441629999999
 30
0.0
 11
321.2590599999999
 21
200.9441629999999
 31
0.0
  0
LINE
  5
9E4B
330
9C4C
100
AcDbEntity
  8
1
  6
Continuous
100
AcDbLine
 10
321.2590599999999
 20
213.9441629999998
 30
0.0
 11
321.2590599999999
 21
198.9441629999998
 31
0.0
  0
LINE
  5
9E4C
330
9C4C
100
AcDbEntity
  8
1
  6
Continuous
100
AcDbLine
 10
321.00906
 20
200.9441629999999
 30
0.0
 11
321.00906
 21
211.9441629999998
 31
0.0
  0
LINE
  5
9E4D
330
9C4C
100
AcDbEntity
  8
1
  6
Continuous
100
AcDbLine
 10
354.9262689999998
 20
201.0303809999999
 30
0.0
 11
354.9262689999998
 21
194.9438629999999
 31
0.0
  0
LINE
  5
9E4E
330
9C4C
100
AcDbEntity
  8
1
  6
Continuous
100
AcDbLine
 10
352.3262599999998
 20
194.9438629999999
 30
0.0
 11
354.9262689999998
 21
194.9438629999999
 31
0.0
  0
ARC
  5
9E4F
330
9C4C
100
AcDbEntity
  8
1
  6
Continuous
100
AcDbCircle
 10
349.4262689999998
 20
206.4441629999998
 30
0.0
 40
10.5
100
AcDbArc
 50
318.189685
 51
22.38542199999999
  0
LINE
  5
9E50
330
9C4C
100
AcDbEntity
  8
1
  6
Continuous
100
AcDbLine
 10
357.2525069999999
 20
207.4859319999999
 30
0.0
 11
357.2525069999999
 21
199.4441629999998
 31
0.0
  0
LINE
  5
9E51
330
9C4C
100
AcDbEntity
  8
1
  6
Continuous
100
AcDbLine
 10
357.2525069999999
 20
199.4441629999998
 30
0.0
 11
354.9262689999998
 21
199.4441629999998
 31
0.0
  0
ARC
  5
9E52
330
9C4C
100
AcDbEntity
  8
1
  6
Continuous
100
AcDbCircle
 10
364.92626
 20
201.030369
 30
0.0
 40
12.6
100
AcDbArc
 50
143.7207009999999
 51
180.0
  0
ARC
  5
9E53
330
9C4C
100
AcDbEntity
  8
1
  6
Continuous
100
AcDbCircle
 10
364.926269
 20
201.0303809999999
 30
0.0
 40
10.0
100
AcDbArc
 50
143.72072
 51
180.0
  0
LINE
  5
9E54
330
9C4C
100
AcDbEntity
  8
1
  6
Continuous
100
AcDbLine
 10
352.3262689999999
 20
210.4441629999998
 30
0.0
 11
352.0090599999999
 21
210.4441629999998
 31
0.0
  0
LINE
  5
9E55
330
9C4C
100
AcDbEntity
  8
1
  6
Continuous
100
AcDbLine
 10
352.0090599999999
 20
211.9441629999998
 30
0.0
 11
351.7590599999999
 21
211.9441629999998
 31
0.0
  0
LINE
  5
9E56
330
9C4C
100
AcDbEntity
  8
1
  6
Continuous
100
AcDbLine
 10
352.0090599999999
 20
202.4441629999998
 30
0.0
 11
352.3262689999999
 21
202.4441629999998
 31
0.0
  0
LINE
  5
9E57
330
9C4C
100
AcDbEntity
  8
1
  6
Continuous
100
AcDbLine
 10
352.0090599999999
 20
200.9441629999999
 30
0.0
 11
351.7590599999999
 21
200.9441629999999
 31
0.0
  0
LINE
  5
9E58
330
9C4C
100
AcDbEntity
  8
1
  6
Continuous
100
AcDbLine
 10
351.7590599999999
 20
213.9441629999998
 30
0.0
 11
351.7590599999999
 21
198.9441629999998
 31
0.0
  0
LINE
  5
9E59
330
9C4C
100
AcDbEntity
  8
1
  6
Continuous
100
AcDbLine
 10
352.0090599999999
 20
200.9441629999999
 30
0.0
 11
352.0090599999999
 21
211.9441629999998
 31
0.0
  0
ARC
  5
9E5A
330
9C4C
100
AcDbEntity
  8
1
  6
Continuous
100
AcDbCircle
 10
322.1092259999999
 20
227.915635
 30
0.0
 40
39.224834
100
AcDbArc
 50
0.4616360000000002
 51
52.87898000000001
  0
ARC
  5
9E5B
330
9C4C
100
AcDbEntity
  8
1
  6
Continuous
100
AcDbCircle
 10
323.3489189999999
 20
226.04733
 30
0.0
 40
40.585141
100
AcDbArc
 50
4.655269999999998
 51
52.41027
  0
LINE
  5
9E5C
330
9C4C
100
AcDbEntity
  8
1
  6
Continuous
100
AcDbLine
 10
347.0037029999998
 20
258.2282169999999
 30
0.0
 11
326.0144159999999
 21
258.2282169999999
 31
0.0
  0
LINE
  5
9E5D
330
9C4C
100
AcDbEntity
  8
1
  6
Continuous
100
AcDbLine
 10
326.909061
 20
256.2282169999999
 30
0.0
 11
346.1090609999998
 21
256.2282169999999
 31
0.0
  0
LINE
  5
9E5E
330
9C4C
100
AcDbEntity
  8
1
  6
Continuous
100
AcDbLine
 10
327.962153
 20
259.24496
 30
0.0
 11
345.055966
 21
259.24496
 31
0.0
  0
ARC
  5
9E5F
330
9C4C
100
AcDbEntity
  8
1
  6
Continuous
100
AcDbCircle
 10
336.509069
 20
226.443867
 30
0.0
 40
30.0
100
AcDbArc
 50
96.87404299999998
 51
103.8865399999999
  0
LINE
  5
9E60
330
9C4C
100
AcDbEntity
  8
1
  6
Continuous
100
AcDbLine
 10
332.409061
 20
257.828217
 30
0.0
 11
333.172602
 21
256.778347
 31
0.0
  0
LINE
  5
9E61
330
9C4C
100
AcDbEntity
  8
1
  6
Continuous
100
AcDbLine
 10
332.409061
 20
257.828217
 30
0.0
 11
329.790879
 21
256.2282169999999
 31
0.0
  0
LINE
  5
9E62
330
9C4C
100
AcDbEntity
  8
1
  6
Continuous
100
AcDbLine
 10
326.909061
 20
256.2282169999999
 30
0.0
 11
326.909061
 21
258.2282169999999
 31
0.0
  0
ARC
  5
9E63
330
9C4C
100
AcDbEntity
  8
1
  6
Continuous
100
AcDbCircle
 10
330.509069
 20
250.713189
 30
0.0
 40
5.0
100
AcDbArc
 50
103.8865399999999
 51
180.0
  0
ARC
  5
9E64
330
9C4C
100
AcDbEntity
  8
1
  6
Continuous
100
AcDbCircle
 10
327.962153
 20
254.2449599999999
 30
0.0
 40
5.0
100
AcDbArc
 50
90.0
 51
127.58973
  0
LINE
  5
9E65
330
9C4C
100
AcDbEntity
  8
1
  6
Continuous
100
AcDbLine
 10
346.1090609999998
 20
256.2282169999999
 30
0.0
 11
346.1090609999998
 21
258.2282169999999
 31
0.0
  0
LINE
  5
9E66
330
9C4C
100
AcDbEntity
  8
1
  6
Continuous
100
AcDbLine
 10
340.609061
 20
257.828217
 30
0.0
 11
339.8455189999999
 21
256.778347
 31
0.0
  0
LINE
  5
9E67
330
9C4C
100
AcDbEntity
  8
1
  6
Continuous
100
AcDbLine
 10
340.609061
 20
257.828217
 30
0.0
 11
343.2272419999998
 21
256.2282169999999
 31
0.0
  0
ARC
  5
9E68
330
9C4C
100
AcDbEntity
  8
1
  6
Continuous
100
AcDbCircle
 10
342.509069
 20
250.713189
 30
0.0
 40
5.0
100
AcDbArc
 50
0.0
 51
76.11346000000001
  0
ARC
  5
9E69
330
9C4C
100
AcDbEntity
  8
1
  6
Continuous
100
AcDbCircle
 10
336.509069
 20
226.443867
 30
0.0
 40
30.0
100
AcDbArc
 50
76.11346000000001
 51
83.12595700000001
  0
ARC
  5
9E6A
330
9C4C
100
AcDbEntity
  8
1
  6
Continuous
100
AcDbCircle
 10
345.055966
 20
254.2449599999999
 30
0.0
 40
5.0
100
AcDbArc
 50
52.41027
 51
90.0
  0
LINE
  5
9E6B
330
9C4C
100
AcDbEntity
  8
1
  6
Continuous
100
AcDbLine
 10
319.2485589999999
 20
269.1279569999999
 30
0.0
 11
316.7100699999999
 21
271.649446
 31
0.0
  0
LINE
  5
9E6C
330
9C4C
100
AcDbEntity
  8
1
  6
Continuous
100
AcDbLine
 10
317.0000079999998
 20
269.1279569999999
 30
0.0
 11
319.538497
 21
271.649446
 31
0.0
  0
LINE
  5
9E6D
330
9C4C
100
AcDbEntity
  8
1
  6
Continuous
100
AcDbLine
 10
315.5090599999998
 20
276.9436519999998
 30
0.0
 11
357.5090599999999
 21
276.9436519999998
 31
0.0
  0
LINE
  5
9E6E
330
9C4C
100
AcDbEntity
  8
1
  6
Continuous
100
AcDbLine
 10
363.1951599999999
 20
272.9436519999998
 30
0.0
 11
309.82296
 21
272.9436519999998
 31
0.0
  0
LINE
  5
9E6F
330
9C4C
100
AcDbEntity
  8
1
  6
Continuous
100
AcDbLine
 10
309.82296
 20
271.649446
 30
0.0
 11
363.1951599999999
 21
271.649446
 31
0.0
  0
LINE
  5
9E70
330
9C4C
100
AcDbEntity
  8
1
  6
Continuous
100
AcDbLine
 10
309.82296
 20
269.127968
 30
0.0
 11
363.1951599999999
 21
269.127968
 31
0.0
  0
LINE
  5
9E71
330
9C4C
100
AcDbEntity
  8
1
  6
Continuous
100
AcDbLine
 10
316.4201319999999
 20
269.1279569999999
 30
0.0
 11
313.8816429999998
 21
271.649446
 31
0.0
  0
LINE
  5
9E72
330
9C4C
100
AcDbEntity
  8
1
  6
Continuous
100
AcDbLine
 10
314.1715809999999
 20
269.1279569999999
 30
0.0
 11
316.7100699999999
 21
271.649446
 31
0.0
  0
LINE
  5
9E73
330
9C4C
100
AcDbEntity
  8
1
  6
Continuous
100
AcDbLine
 10
313.5917039999998
 20
269.1279569999999
 30
0.0
 11
311.053216
 21
271.649446
 31
0.0
  0
LINE
  5
9E74
330
9C4C
100
AcDbEntity
  8
1
  6
Continuous
100
AcDbLine
 10
311.343154
 20
269.1279569999999
 30
0.0
 11
313.8816429999998
 21
271.649446
 31
0.0
  0
LINE
  5
9E75
330
9C4C
100
AcDbEntity
  8
1
  6
Continuous
100
AcDbLine
 10
310.763277
 20
269.1279569999999
 30
0.0
 11
309.82296
 21
270.0682739999999
 31
0.0
  0
LINE
  5
9E76
330
9C4C
100
AcDbEntity
  8
1
  6
Continuous
100
AcDbLine
 10
309.82296
 20
269.1279569999999
 30
0.0
 11
309.82296
 21
272.9436519999998
 31
0.0
  0
LINE
  5
9E77
330
9C4C
100
AcDbEntity
  8
1
  6
Continuous
100
AcDbLine
 10
309.82296
 20
270.43619
 30
0.0
 11
311.053216
 21
271.649446
 31
0.0
  0
ARC
  5
9E78
330
9C4C
100
AcDbEntity
  8
1
  6
Continuous
100
AcDbCircle
 10
315.5090599999998
 20
272.9436519999998
 30
0.0
 40
4.0
100
AcDbArc
 50
90.0
 51
180.0
  0
ARC
  5
9E79
330
9C4C
100
AcDbEntity
  8
1
  6
Continuous
100
AcDbCircle
 10
312.2840599999999
 20
265.927968
 30
0.0
 40
3.2
100
AcDbArc
 50
90.0
 51
180.0
  0
LINE
  5
9E7A
330
9C4C
100
AcDbEntity
  8
1
  6
Continuous
100
AcDbLine
 10
347.0090599999999
 20
281.9436299999999
 30
0.0
 11
347.0090599999999
 21
324.54363
 31
0.0
  0
LINE
  5
9E7B
330
9C4C
100
AcDbEntity
  8
1
  6
Continuous
100
AcDbLine
 10
326.0090599999998
 20
281.9436299999999
 30
0.0
 11
326.0090599999998
 21
324.54363
 31
0.0
  0
LINE
  5
9E7C
330
9C4C
100
AcDbEntity
  8
1
  6
Continuous
100
AcDbLine
 10
353.1896839999998
 20
269.1279569999999
 30
0.0
 11
350.6511949999999
 21
271.649446
 31
0.0
  0
LINE
  5
9E7D
330
9C4C
100
AcDbEntity
  8
1
  6
Continuous
100
AcDbLine
 10
350.9411339999999
 20
269.1279569999999
 30
0.0
 11
353.479622
 21
271.649446
 31
0.0
  0
LINE
  5
9E7E
330
9C4C
100
AcDbEntity
  8
1
  6
Continuous
100
AcDbLine
 10
336.2191209999999
 20
269.1279569999999
 30
0.0
 11
333.6806329999999
 21
271.649446
 31
0.0
  0
LINE
  5
9E7F
330
9C4C
100
AcDbEntity
  8
1
  6
Continuous
100
AcDbLine
 10
333.970571
 20
269.1279569999999
 30
0.0
 11
336.5090599999998
 21
271.649446
 31
0.0
  0
LINE
  5
9E80
330
9C4C
100
AcDbEntity
  8
1
  6
Continuous
100
AcDbLine
 10
350.509036
 20
280.4436299999999
 30
0.0
 11
322.5090359999999
 21
280.4436299999999
 31
0.0
  0
ARC
  5
9E81
330
9C4C
100
AcDbEntity
  8
1
  6
Continuous
100
AcDbCircle
 10
327.5090599999999
 20
281.9436299999999
 30
0.0
 40
1.5
100
AcDbArc
 50
180.0
 51
270.0
  0
LINE
  5
9E82
330
9C4C
100
AcDbEntity
  8
1
  6
Continuous
100
AcDbLine
 10
333.3906939999998
 20
269.1279569999999
 30
0.0
 11
330.8522049999999
 21
271.649446
 31
0.0
  0
LINE
  5
9E83
330
9C4C
100
AcDbEntity
  8
1
  6
Continuous
100
AcDbLine
 10
331.1421439999999
 20
269.1279569999999
 30
0.0
 11
333.6806329999999
 21
271.649446
 31
0.0
  0
LINE
  5
9E84
330
9C4C
100
AcDbEntity
  8
1
  6
Continuous
100
AcDbLine
 10
330.562267
 20
269.1279569999999
 30
0.0
 11
328.023778
 21
271.649446
 31
0.0
  0
LINE
  5
9E85
330
9C4C
100
AcDbEntity
  8
1
  6
Continuous
100
AcDbLine
 10
328.3137169999998
 20
269.1279569999999
 30
0.0
 11
330.8522049999999
 21
271.649446
 31
0.0
  0
LINE
  5
9E86
330
9C4C
100
AcDbEntity
  8
1
  6
Continuous
100
AcDbLine
 10
324.905413
 20
269.1279569999999
 30
0.0
 11
322.3669239999999
 21
271.649446
 31
0.0
  0
LINE
  5
9E87
330
9C4C
100
AcDbEntity
  8
1
  6
Continuous
100
AcDbLine
 10
322.656862
 20
269.1279569999999
 30
0.0
 11
325.1953509999998
 21
271.649446
 31
0.0
  0
LINE
  5
9E88
330
9C4C
100
AcDbEntity
  8
1
  6
Continuous
100
AcDbLine
 10
322.0769859999998
 20
269.1279569999999
 30
0.0
 11
319.538497
 21
271.649446
 31
0.0
  0
LINE
  5
9E89
330
9C4C
100
AcDbEntity
  8
1
  6
Continuous
100
AcDbLine
 10
319.828435
 20
269.1279569999999
 30
0.0
 11
322.3669239999999
 21
271.649446
 31
0.0
  0
LINE
  5
9E8A
330
9C4C
100
AcDbEntity
  8
1
  6
Continuous
100
AcDbLine
 10
327.73384
 20
269.1279569999999
 30
0.0
 11
325.1953509999998
 21
271.649446
 31
0.0
  0
LINE
  5
9E8B
330
9C4C
100
AcDbEntity
  8
1
  6
Continuous
100
AcDbLine
 10
325.485289
 20
269.1279569999999
 30
0.0
 11
328.023778
 21
271.649446
 31
0.0
  0
LINE
  5
9E8C
330
9C4C
100
AcDbEntity
  8
1
  6
Continuous
100
AcDbLine
 10
322.5090359999999
 20
280.4436299999999
 30
0.0
 11
322.5090359999999
 21
276.9436519999998
 31
0.0
  0
ARC
  5
9E8D
330
9C4C
100
AcDbEntity
  8
1
  6
Continuous
100
AcDbCircle
 10
345.5090599999999
 20
281.9436299999999
 30
0.0
 40
1.5
100
AcDbArc
 50
270.0
 51
0.0
  0
LINE
  5
9E8E
330
9C4C
100
AcDbEntity
  8
1
  6
Continuous
100
AcDbLine
 10
345.284279
 20
269.1279569999999
 30
0.0
 11
347.8227679999998
 21
271.649446
 31
0.0
  0
LINE
  5
9E8F
330
9C4C
100
AcDbEntity
  8
1
  6
Continuous
100
AcDbLine
 10
347.53283
 20
269.1279569999999
 30
0.0
 11
344.994341
 21
271.649446
 31
0.0
  0
LINE
  5
9E90
330
9C4C
100
AcDbEntity
  8
1
  6
Continuous
100
AcDbLine
 10
350.3612569999999
 20
269.1279569999999
 30
0.0
 11
347.8227679999998
 21
271.649446
 31
0.0
  0
LINE
  5
9E91
330
9C4C
100
AcDbEntity
  8
1
  6
Continuous
100
AcDbLine
 10
348.1127059999999
 20
269.1279569999999
 30
0.0
 11
350.6511949999999
 21
271.649446
 31
0.0
  0
LINE
  5
9E92
330
9C4C
100
AcDbEntity
  8
1
  6
Continuous
100
AcDbLine
 10
341.8759759999999
 20
269.1279569999999
 30
0.0
 11
339.337487
 21
271.649446
 31
0.0
  0
LINE
  5
9E93
330
9C4C
100
AcDbEntity
  8
1
  6
Continuous
100
AcDbLine
 10
339.627425
 20
269.1279569999999
 30
0.0
 11
342.165914
 21
271.649446
 31
0.0
  0
LINE
  5
9E94
330
9C4C
100
AcDbEntity
  8
1
  6
Continuous
100
AcDbLine
 10
339.047549
 20
269.1279569999999
 30
0.0
 11
336.5090599999998
 21
271.649446
 31
0.0
  0
LINE
  5
9E95
330
9C4C
100
AcDbEntity
  8
1
  6
Continuous
100
AcDbLine
 10
336.7989979999999
 20
269.1279569999999
 30
0.0
 11
339.337487
 21
271.649446
 31
0.0
  0
LINE
  5
9E96
330
9C4C
100
AcDbEntity
  8
1
  6
Continuous
100
AcDbLine
 10
344.7044029999998
 20
269.1279569999999
 30
0.0
 11
342.165914
 21
271.649446
 31
0.0
  0
LINE
  5
9E97
330
9C4C
100
AcDbEntity
  8
1
  6
Continuous
100
AcDbLine
 10
342.455852
 20
269.1279569999999
 30
0.0
 11
344.994341
 21
271.649446
 31
0.0
  0
LINE
  5
9E98
330
9C4C
100
AcDbEntity
  8
1
  6
Continuous
100
AcDbLine
 10
350.509036
 20
280.4436299999999
 30
0.0
 11
350.509036
 21
276.9436519999998
 31
0.0
  0
LINE
  5
9E99
330
9C4C
100
AcDbEntity
  8
1
  6
Continuous
100
AcDbLine
 10
336.5090359999999
 20
280.4436299999999
 30
0.0
 11
336.5090359999999
 21
276.9436519999998
 31
0.0
  0
LINE
  5
9E9A
330
9C4C
100
AcDbEntity
  8
1
  6
Continuous
100
AcDbLine
 10
347.0090599999999
 20
286.3436299999999
 30
0.0
 11
326.0090599999998
 21
286.3436299999999
 31
0.0
  0
LINE
  5
9E9B
330
9C4C
100
AcDbEntity
  8
1
  6
Continuous
100
AcDbLine
 10
361.6749659999999
 20
269.1279569999999
 30
0.0
 11
359.136477
 21
271.649446
 31
0.0
  0
LINE
  5
9E9C
330
9C4C
100
AcDbEntity
  8
1
  6
Continuous
100
AcDbLine
 10
359.4264149999998
 20
269.1279569999999
 30
0.0
 11
361.964904
 21
271.649446
 31
0.0
  0
LINE
  5
9E9D
330
9C4C
100
AcDbEntity
  8
1
  6
Continuous
100
AcDbLine
 10
363.1951599999999
 20
272.9436519999998
 30
0.0
 11
363.1951599999999
 21
269.1279569999999
 31
0.0
  0
LINE
  5
9E9E
330
9C4C
100
AcDbEntity
  8
1
  6
Continuous
100
AcDbLine
 10
363.1951599999999
 20
270.43619
 30
0.0
 11
361.964904
 21
271.649446
 31
0.0
  0
LINE
  5
9E9F
330
9C4C
100
AcDbEntity
  8
1
  6
Continuous
100
AcDbLine
 10
363.1951599999999
 20
270.0682739999999
 30
0.0
 11
362.254842
 21
269.1279569999999
 31
0.0
  0
LINE
  5
9EA0
330
9C4C
100
AcDbEntity
  8
1
  6
Continuous
100
AcDbLine
 10
353.769561
 20
269.1279569999999
 30
0.0
 11
356.3080499999998
 21
271.649446
 31
0.0
  0
LINE
  5
9EA1
330
9C4C
100
AcDbEntity
  8
1
  6
Continuous
100
AcDbLine
 10
356.0181109999998
 20
269.1279569999999
 30
0.0
 11
353.479622
 21
271.649446
 31
0.0
  0
LINE
  5
9EA2
330
9C4C
100
AcDbEntity
  8
1
  6
Continuous
100
AcDbLine
 10
358.846538
 20
269.1279569999999
 30
0.0
 11
356.3080499999998
 21
271.649446
 31
0.0
  0
ARC
  5
9EA3
330
9C4C
100
AcDbEntity
  8
1
  6
Continuous
100
AcDbCircle
 10
357.5090599999999
 20
272.9436519999998
 30
0.0
 40
4.0
100
AcDbArc
 50
0.0
 51
90.0
  0
LINE
  5
9EA4
330
9C4C
100
AcDbEntity
  8
1
  6
Continuous
100
AcDbLine
 10
356.5979879999999
 20
269.1279569999999
 30
0.0
 11
359.136477
 21
271.649446
 31
0.0
  0
ARC
  5
9EA5
330
9C4C
100
AcDbEntity
  8
1
  6
Continuous
100
AcDbCircle
 10
360.73406
 20
265.927968
 30
0.0
 40
3.2
100
AcDbArc
 50
0.0
 51
90.0
  0
LINE
  5
9EA6
330
9C4C
100
AcDbEntity
  8
1
  6
Continuous
100
AcDbLine
 10
332.009036
 20
330.4436299999999
 30
0.0
 11
331.109036
 21
329.5436299999999
 31
0.0
  0
LINE
  5
9EA7
330
9C4C
100
AcDbEntity
  8
1
  6
Continuous
100
AcDbLine
 10
341.0090359999998
 20
330.4436299999999
 30
0.0
 11
341.909036
 21
329.5436299999999
 31
0.0
  0
LINE
  5
9EA8
330
9C4C
100
AcDbEntity
  8
1
  6
Continuous
100
AcDbLine
 10
326.7590599999999
 20
325.5436299999999
 30
0.0
 11
346.2590599999999
 21
325.5436299999999
 31
0.0
  0
LINE
  5
9EA9
330
9C4C
100
AcDbEntity
  8
1
  6
Continuous
100
AcDbLine
 10
326.7590599999999
 20
329.5436299999999
 30
0.0
 11
346.2590599999999
 21
329.5436299999999
 31
0.0
  0
LINE
  5
9EAA
330
9C4C
100
AcDbEntity
  8
1
  6
Continuous
100
AcDbLine
 10
326.7590599999999
 20
329.5436299999999
 30
0.0
 11
326.7590599999999
 21
325.5436299999999
 31
0.0
  0
ARC
  5
9EAB
330
9C4C
100
AcDbEntity
  8
1
  6
Continuous
100
AcDbCircle
 10
327.0090599999999
 20
324.54363
 30
0.0
 40
1.0
100
AcDbArc
 50
90.0
 51
180.0
  0
LINE
  5
9EAC
330
9C4C
100
AcDbEntity
  8
2
  6
Continuous
100
AcDbLine
 10
331.45606
 20
329.5436299999999
 30
0.0
 11
331.45606
 21
329.8906539999999
 31
0.0
  0
LINE
  5
9EAD
330
9C4C
100
AcDbEntity
  8
1
  6
Continuous
100
AcDbLine
 10
346.2590599999999
 20
329.5436299999999
 30
0.0
 11
346.2590599999999
 21
325.5436299999999
 31
0.0
  0
ARC
  5
9EAE
330
9C4C
100
AcDbEntity
  8
1
  6
Continuous
100
AcDbCircle
 10
346.00906
 20
324.54363
 30
0.0
 40
1.0
100
AcDbArc
 50
0.0
 51
90.0
  0
LINE
  5
9EAF
330
9C4C
100
AcDbEntity
  8
2
  6
Continuous
100
AcDbLine
 10
341.56206
 20
329.5436299999999
 30
0.0
 11
341.56206
 21
329.890606
 31
0.0
  0
LINE
  5
9EB0
330
9C4C
100
AcDbEntity
  8
1
  6
Continuous
100
AcDbLine
 10
332.009036
 20
330.4436299999999
 30
0.0
 11
341.0090359999998
 21
330.4436299999999
 31
0.0
  0
LINE
  5
9EB1
330
9C4C
100
AcDbEntity
  8
1
  6
Continuous
100
AcDbLine
 10
421.0070849999998
 20
259.24496
 30
0.0
 11
421.0070849999998
 21
266.448277
 31
0.0
  0
LINE
  5
9EB2
330
9C4C
100
AcDbEntity
  8
1
  6
Continuous
100
AcDbLine
 10
480.692807
 20
263.685495
 30
0.0
 11
481.429738
 21
266.204001
 31
0.0
  0
ARC
  5
9EB3
330
9C4C
100
AcDbEntity
  8
1
  6
Continuous
100
AcDbCircle
 10
489.271944
 20
263.5999749999999
 30
0.0
 40
5.267126
100
AcDbArc
 50
164.4235139999999
 51
177.2314419999999
  0
LINE
  5
9EB4
330
9C4C
100
AcDbEntity
  8
1
  6
Continuous
100
AcDbLine
 10
480.692807
 20
263.685495
 30
0.0
 11
481.429738
 21
266.204001
 31
0.0
  0
ARC
  5
9EB5
330
9C4C
100
AcDbEntity
  8
1
  6
Continuous
100
AcDbCircle
 10
489.271944
 20
263.5999749999999
 30
0.0
 40
5.267126
100
AcDbArc
 50
164.4235139999999
 51
177.2314419999999
  0
ARC
  5
9EB6
330
9C4C
100
AcDbEntity
  8
1
  6
Continuous
100
AcDbCircle
 10
491.5559059999998
 20
254.0366169999999
 30
0.0
 40
14.529548
100
AcDbArc
 50
138.3877149999999
 51
180.690332
  0
LINE
  5
9EB7
330
9C4C
100
AcDbEntity
  8
1
  6
Continuous
100
AcDbLine
 10
469.6374019999998
 20
264.8758149999998
 30
0.0
 11
469.6374019999998
 21
220.880896
 31
0.0
  0
LINE
  5
9EB8
330
9C4C
100
AcDbEntity
  8
4
  6
CENTER
100
AcDbLine
 10
448.4320849999998
 20
235.4709539999999
 30
0.0
 11
448.4320849999998
 21
335.4446299999999
 31
0.0
  0
ARC
  5
9EB9
330
9C4C
100
AcDbEntity
  8
1
  6
Continuous
100
AcDbCircle
 10
522.704341
 20
279.2626349999998
 30
0.0
 40
95.157
100
AcDbArc
 50
193.605186
 51
240.5727950000001
  0
LINE
  5
9EBA
330
9C4C
100
AcDbEntity
  8
1
  6
Continuous
100
AcDbLine
 10
422.5103519999998
 20
259.144544
 30
0.0
 11
428.1647089999998
 21
258.6456549999999
 31
0.0
  0
ARC
  5
9EBB
330
9C4C
100
AcDbEntity
  8
1
  6
Continuous
100
AcDbCircle
 10
427.96063
 20
256.332641
 30
0.0
 40
2.322
100
AcDbArc
 50
13.304852
 51
84.95780100000002
  0
LINE
  5
9EBC
330
9C4C
100
AcDbEntity
  8
1
  6
Continuous
100
AcDbLine
 10
422.5103519999998
 20
259.144544
 30
0.0
 11
421.0070849999998
 21
259.24496
 31
0.0
  0
ARC
  5
9EBD
330
9C4C
100
AcDbEntity
  8
1
  6
Continuous
100
AcDbCircle
 10
549.6931379999998
 20
254.737122
 30
0.0
 40
72.67100000000002
100
AcDbArc
 50
180.690332
 51
215.473014
  0
ARC
  5
9EBE
330
9C4C
100
AcDbEntity
  8
1
  6
Continuous
100
AcDbCircle
 10
481.4316719999998
 20
206.4357199999999
 30
0.0
 40
21.49999999999999
100
AcDbArc
 50
176.591708
 51
88.08615999999997
  0
CIRCLE
  5
9EBF
330
9C4C
100
AcDbEntity
  8
1
  6
Continuous
100
AcDbCircle
 10
481.4316719999998
 20
206.4357199999999
 30
0.0
 40
7.0
  0
ARC
  5
9EC0
330
9C4C
100
AcDbEntity
  8
1
  6
Continuous
100
AcDbCircle
 10
481.4302429999998
 20
206.094166
 30
0.0
 40
11.14999999999999
100
AcDbArc
 50
239.8900379999998
 51
35.473014
  0
CIRCLE
  5
9EC1
330
9C4C
100
AcDbEntity
  8
1
  6
Continuous
100
AcDbCircle
 10
455.3316719999998
 20
206.4357199999999
 30
0.0
 40
2.6
  0
CIRCLE
  5
9EC2
330
9C4C
100
AcDbEntity
  8
1
  6
Continuous
100
AcDbCircle
 10
481.4316719999998
 20
180.33572
 30
0.0
 40
2.6
  0
CIRCLE
  5
9EC3
330
9C4C
100
AcDbEntity
  8
1
  6
Continuous
100
AcDbCircle
 10
507.531672
 20
206.4357199999999
 30
0.0
 40
2.6
  0
ARC
  5
9EC4
330
9C4C
100
AcDbEntity
  8
1
  6
Continuous
100
AcDbCircle
 10
481.4316719999998
 20
232.53572
 30
0.0
 40
2.6
100
AcDbArc
 50
268.974065
 51
127.0591969999998
  0
ARC
  5
9EC5
330
9C4C
100
AcDbEntity
  8
1
  6
Continuous
100
AcDbCircle
 10
480.4652769999998
 20
534.547265
 30
0.0
 40
270.861866
100
AcDbArc
 50
270.0481299999999
 51
270.6701649999998
  0
ARC
  5
9EC6
330
9C4C
100
AcDbEntity
  8
1
  6
Continuous
100
AcDbCircle
 10
483.626747
 20
264.2695939999999
 30
0.0
 40
0.565705
100
AcDbArc
 50
270.6701649999998
 51
312.780166
  0
ARC
  5
9EC7
330
9C4C
100
AcDbEntity
  8
1
  6
Continuous
100
AcDbCircle
 10
480.4652769999998
 20
534.547265
 30
0.0
 40
270.861866
100
AcDbArc
 50
270.0481299999999
 51
270.6701649999998
  0
ARC
  5
9EC8
330
9C4C
100
AcDbEntity
  8
1
  6
Continuous
100
AcDbCircle
 10
483.626747
 20
264.2695939999999
 30
0.0
 40
0.565705
100
AcDbArc
 50
270.6701649999998
 51
312.780166
  0
LINE
  5
9EC9
330
9C4C
100
AcDbEntity
  8
1
  6
Continuous
100
AcDbLine
 10
452.9321089999998
 20
330.4446299999999
 30
0.0
 11
443.9321089999999
 21
330.4446299999999
 31
0.0
  0
LINE
  5
9ECA
330
9C4C
100
AcDbEntity
  8
1
  6
Continuous
100
AcDbLine
 10
459.1320849999998
 20
325.54463
 30
0.0
 11
437.732085
 21
325.54463
 31
0.0
  0
LINE
  5
9ECB
330
9C4C
100
AcDbEntity
  8
1
  6
Continuous
100
AcDbLine
 10
459.1320849999998
 20
329.54463
 30
0.0
 11
437.732085
 21
329.54463
 31
0.0
  0
LINE
  5
9ECC
330
9C4C
100
AcDbEntity
  8
1
  6
Continuous
100
AcDbLine
 10
448.1421469999999
 20
269.1289569999999
 30
0.0
 11
445.603658
 21
271.6504459999999
 31
0.0
  0
LINE
  5
9ECD
330
9C4C
100
AcDbEntity
  8
1
  6
Continuous
100
AcDbLine
 10
445.8935959999998
 20
269.1289569999999
 30
0.0
 11
448.4320849999998
 21
271.6504459999999
 31
0.0
  0
LINE
  5
9ECE
330
9C4C
100
AcDbEntity
  8
1
  6
Continuous
100
AcDbLine
 10
437.932085
 20
286.34463
 30
0.0
 11
458.932085
 21
286.34463
 31
0.0
  0
LINE
  5
9ECF
330
9C4C
100
AcDbEntity
  8
1
  6
Continuous
100
AcDbLine
 10
424.2070849999998
 20
269.1289680000001
 30
0.0
 11
472.6570849999998
 21
269.1289680000001
 31
0.0
  0
LINE
  5
9ED0
330
9C4C
100
AcDbEntity
  8
1
  6
Continuous
100
AcDbLine
 10
421.745985
 20
269.1289569999999
 30
0.0
 11
475.118185
 21
269.1289569999999
 31
0.0
  0
LINE
  5
9ED1
330
9C4C
100
AcDbEntity
  8
1
  6
Continuous
100
AcDbLine
 10
421.745985
 20
272.944652
 30
0.0
 11
475.118185
 21
272.944652
 31
0.0
  0
LINE
  5
9ED2
330
9C4C
100
AcDbEntity
  8
1
  6
Continuous
100
AcDbLine
 10
475.118185
 20
271.6504459999999
 30
0.0
 11
421.745985
 21
271.6504459999999
 31
0.0
  0
LINE
  5
9ED3
330
9C4C
100
AcDbEntity
  8
1
  6
Continuous
100
AcDbLine
 10
469.4320849999998
 20
276.944652
 30
0.0
 11
427.4320849999998
 21
276.944652
 31
0.0
  0
LINE
  5
9ED4
330
9C4C
100
AcDbEntity
  8
1
  6
Continuous
100
AcDbLine
 10
432.2663019999998
 20
280.4446299999998
 30
0.0
 11
464.597917
 21
280.4446299999998
 31
0.0
  0
LINE
  5
9ED5
330
9C4C
100
AcDbEntity
  8
1
  6
Continuous
100
AcDbLine
 10
437.932085
 20
281.9446299999999
 30
0.0
 11
437.932085
 21
324.5446299999999
 31
0.0
  0
LINE
  5
9ED6
330
9C4C
100
AcDbEntity
  8
1
  6
Continuous
100
AcDbLine
 10
428.9230339999998
 20
269.1289569999999
 30
0.0
 11
431.461523
 21
271.6504459999999
 31
0.0
  0
LINE
  5
9ED7
330
9C4C
100
AcDbEntity
  8
1
  6
Continuous
100
AcDbLine
 10
431.1715839999997
 20
269.1289569999999
 30
0.0
 11
428.6330949999999
 21
271.6504459999999
 31
0.0
  0
ARC
  5
9ED8
330
9C4C
100
AcDbEntity
  8
1
  6
Continuous
100
AcDbCircle
 10
427.4320849999998
 20
272.944652
 30
0.0
 40
4.0
100
AcDbArc
 50
90.0
 51
180.0
  0
ARC
  5
9ED9
330
9C4C
100
AcDbEntity
  8
1
  6
Continuous
100
AcDbCircle
 10
427.9002559999998
 20
264.464311
 30
0.0
 40
7.172999999999999
100
AcDbArc
 50
158.3674609999999
 51
163.9433239999999
  0
ARC
  5
9EDA
330
9C4C
100
AcDbEntity
  8
1
  6
Continuous
100
AcDbCircle
 10
424.2070849999998
 20
265.928968
 30
0.0
 40
3.2
100
AcDbArc
 50
90.0
 51
158.405854
  0
LINE
  5
9EDB
330
9C4C
100
AcDbEntity
  8
1
  6
Continuous
100
AcDbLine
 10
428.343157
 20
269.1289569999999
 30
0.0
 11
425.8046679999997
 21
271.6504459999999
 31
0.0
  0
LINE
  5
9EDC
330
9C4C
100
AcDbEntity
  8
1
  6
Continuous
100
AcDbLine
 10
426.0946070000001
 20
269.1289569999999
 30
0.0
 11
428.6330949999999
 21
271.6504459999999
 31
0.0
  0
LINE
  5
9EDD
330
9C4C
100
AcDbEntity
  8
1
  6
Continuous
100
AcDbLine
 10
421.745985
 20
270.069274
 30
0.0
 11
422.686303
 21
269.1289569999999
 31
0.0
  0
LINE
  5
9EDE
330
9C4C
100
AcDbEntity
  8
1
  6
Continuous
100
AcDbLine
 10
421.745985
 20
270.4371899999998
 30
0.0
 11
422.976241
 21
271.6504459999999
 31
0.0
  0
LINE
  5
9EDF
330
9C4C
100
AcDbEntity
  8
1
  6
Continuous
100
AcDbLine
 10
421.745985
 20
272.944652
 30
0.0
 11
421.745985
 21
269.1289569999999
 31
0.0
  0
LINE
  5
9EE0
330
9C4C
100
AcDbEntity
  8
1
  6
Continuous
100
AcDbLine
 10
425.5147299999999
 20
269.1289569999999
 30
0.0
 11
422.976241
 21
271.6504459999999
 31
0.0
  0
LINE
  5
9EE1
330
9C4C
100
AcDbEntity
  8
1
  6
Continuous
100
AcDbLine
 10
423.2661789999998
 20
269.1289569999999
 30
0.0
 11
425.8046679999997
 21
271.6504459999999
 31
0.0
  0
LINE
  5
9EE2
330
9C4C
100
AcDbEntity
  8
1
  6
Continuous
100
AcDbLine
 10
432.2663019999998
 20
276.944652
 30
0.0
 11
432.2663019999998
 21
280.4446299999998
 31
0.0
  0
LINE
  5
9EE3
330
9C4C
100
AcDbEntity
  8
1
  6
Continuous
100
AcDbLine
 10
442.4852929999998
 20
269.1289569999999
 30
0.0
 11
439.946804
 21
271.6504459999999
 31
0.0
  0
LINE
  5
9EE4
330
9C4C
100
AcDbEntity
  8
1
  6
Continuous
100
AcDbLine
 10
440.236742
 20
269.1289569999999
 30
0.0
 11
442.7752309999998
 21
271.6504459999999
 31
0.0
  0
LINE
  5
9EE5
330
9C4C
100
AcDbEntity
  8
1
  6
Continuous
100
AcDbLine
 10
445.3137199999998
 20
269.1289569999999
 30
0.0
 11
442.7752309999998
 21
271.6504459999999
 31
0.0
  0
LINE
  5
9EE6
330
9C4C
100
AcDbEntity
  8
1
  6
Continuous
100
AcDbLine
 10
443.065169
 20
269.1289569999999
 30
0.0
 11
445.603658
 21
271.6504459999999
 31
0.0
  0
LINE
  5
9EE7
330
9C4C
100
AcDbEntity
  8
1
  6
Continuous
100
AcDbLine
 10
436.8284389999998
 20
269.1289569999999
 30
0.0
 11
434.2899499999998
 21
271.6504459999999
 31
0.0
  0
LINE
  5
9EE8
330
9C4C
100
AcDbEntity
  8
1
  6
Continuous
100
AcDbLine
 10
434.579888
 20
269.1289569999999
 30
0.0
 11
437.118377
 21
271.6504459999999
 31
0.0
  0
LINE
  5
9EE9
330
9C4C
100
AcDbEntity
  8
1
  6
Continuous
100
AcDbLine
 10
437.408315
 20
269.1289569999999
 30
0.0
 11
439.946804
 21
271.6504459999999
 31
0.0
  0
LINE
  5
9EEA
330
9C4C
100
AcDbEntity
  8
1
  6
Continuous
100
AcDbLine
 10
439.6568659999998
 20
269.1289569999999
 30
0.0
 11
437.118377
 21
271.6504459999999
 31
0.0
  0
LINE
  5
9EEB
330
9C4C
100
AcDbEntity
  8
1
  6
Continuous
100
AcDbLine
 10
440.3492049999998
 20
276.944652
 30
0.0
 11
440.3492049999998
 21
280.4446299999998
 31
0.0
  0
ARC
  5
9EEC
330
9C4C
100
AcDbEntity
  8
1
  6
Continuous
100
AcDbCircle
 10
439.4320849999998
 20
281.9446299999999
 30
0.0
 40
1.5
100
AcDbArc
 50
180.0
 51
270.0
  0
LINE
  5
9EED
330
9C4C
100
AcDbEntity
  8
1
  6
Continuous
100
AcDbLine
 10
434.000011
 20
269.1289569999999
 30
0.0
 11
431.461523
 21
271.6504459999999
 31
0.0
  0
LINE
  5
9EEE
330
9C4C
100
AcDbEntity
  8
1
  6
Continuous
100
AcDbLine
 10
431.7514609999998
 20
269.1289569999999
 30
0.0
 11
434.2899499999998
 21
271.6504459999999
 31
0.0
  0
LINE
  5
9EEF
330
9C4C
100
AcDbEntity
  8
1
  6
Continuous
100
AcDbLine
 10
443.9321089999999
 20
330.4446299999999
 30
0.0
 11
443.0321089999998
 21
329.54463
 31
0.0
  0
LINE
  5
9EF0
330
9C4C
100
AcDbEntity
  8
2
  6
Continuous
100
AcDbLine
 10
443.379085
 20
329.54463
 30
0.0
 11
443.379085
 21
329.891606
 31
0.0
  0
LINE
  5
9EF1
330
9C4C
100
AcDbEntity
  8
1
  6
Continuous
100
AcDbLine
 10
437.732085
 20
325.54463
 30
0.0
 11
437.732085
 21
329.54463
 31
0.0
  0
LINE
  5
9EF2
330
9C4C
100
AcDbEntity
  8
1
  6
Continuous
100
AcDbLine
 10
444.0244219999998
 20
329.54463
 30
0.0
 11
444.0244219999998
 21
325.54463
 31
0.0
  0
ARC
  5
9EF3
330
9C4C
100
AcDbEntity
  8
1
  6
Continuous
100
AcDbCircle
 10
438.9320849999998
 20
324.5446299999999
 30
0.0
 40
1.0
100
AcDbArc
 50
90.0
 51
180.0
  0
LINE
  5
9EF4
330
9C4C
100
AcDbEntity
  8
1
  6
Continuous
100
AcDbLine
 10
458.932085
 20
281.9446299999999
 30
0.0
 11
458.932085
 21
324.5446299999999
 31
0.0
  0
ARC
  5
9EF5
330
9C4C
100
AcDbEntity
  8
1
  6
Continuous
100
AcDbCircle
 10
479.5829519999998
 20
398.419323
 30
0.0
 40
132.2282199999999
100
AcDbArc
 50
266.0406469999999
 51
271.272583
  0
LINE
  5
9EF6
330
9C4C
100
AcDbEntity
  8
1
  6
Continuous
100
AcDbLine
 10
465.1127099999998
 20
269.1289569999999
 30
0.0
 11
462.574221
 21
271.6504459999999
 31
0.0
  0
LINE
  5
9EF7
330
9C4C
100
AcDbEntity
  8
1
  6
Continuous
100
AcDbLine
 10
450.970574
 20
269.1289569999999
 30
0.0
 11
448.4320849999998
 21
271.6504459999999
 31
0.0
  0
LINE
  5
9EF8
330
9C4C
100
AcDbEntity
  8
1
  6
Continuous
100
AcDbLine
 10
448.722024
 20
269.1289569999999
 30
0.0
 11
451.2605119999998
 21
271.6504459999999
 31
0.0
  0
LINE
  5
9EF9
330
9C4C
100
AcDbEntity
  8
1
  6
Continuous
100
AcDbLine
 10
459.455856
 20
269.1289569999999
 30
0.0
 11
456.917367
 21
271.6504459999999
 31
0.0
  0
LINE
  5
9EFA
330
9C4C
100
AcDbEntity
  8
1
  6
Continuous
100
AcDbLine
 10
457.2073049999998
 20
269.1289569999999
 30
0.0
 11
459.7457939999999
 21
271.6504459999999
 31
0.0
  0
LINE
  5
9EFB
330
9C4C
100
AcDbEntity
  8
1
  6
Continuous
100
AcDbLine
 10
462.284283
 20
269.1289569999999
 30
0.0
 11
459.7457939999999
 21
271.6504459999999
 31
0.0
  0
LINE
  5
9EFC
330
9C4C
100
AcDbEntity
  8
1
  6
Continuous
100
AcDbLine
 10
460.035732
 20
269.1289569999999
 30
0.0
 11
462.574221
 21
271.6504459999999
 31
0.0
  0
LINE
  5
9EFD
330
9C4C
100
AcDbEntity
  8
1
  6
Continuous
100
AcDbLine
 10
456.627428
 20
269.1289569999999
 30
0.0
 11
454.08894
 21
271.6504459999999
 31
0.0
  0
LINE
  5
9EFE
330
9C4C
100
AcDbEntity
  8
1
  6
Continuous
100
AcDbLine
 10
454.3788779999998
 20
269.1289569999999
 30
0.0
 11
456.917367
 21
271.6504459999999
 31
0.0
  0
LINE
  5
9EFF
330
9C4C
100
AcDbEntity
  8
1
  6
Continuous
100
AcDbLine
 10
456.515013
 20
276.944652
 30
0.0
 11
456.515013
 21
280.4446299999998
 31
0.0
  0
ARC
  5
9F00
330
9C4C
100
AcDbEntity
  8
1
  6
Continuous
100
AcDbCircle
 10
457.4320849999998
 20
281.9446299999999
 30
0.0
 40
1.5
100
AcDbArc
 50
270.0
 51
0.0
  0
LINE
  5
9F01
330
9C4C
100
AcDbEntity
  8
1
  6
Continuous
100
AcDbLine
 10
453.7990009999998
 20
269.1289569999999
 30
0.0
 11
451.2605119999998
 21
271.6504459999999
 31
0.0
  0
LINE
  5
9F02
330
9C4C
100
AcDbEntity
  8
1
  6
Continuous
100
AcDbLine
 10
451.5504509999998
 20
269.1289569999999
 30
0.0
 11
454.08894
 21
271.6504459999999
 31
0.0
  0
LINE
  5
9F03
330
9C4C
100
AcDbEntity
  8
1
  6
Continuous
100
AcDbLine
 10
462.8641589999999
 20
269.1289569999999
 30
0.0
 11
465.402648
 21
271.6504459999999
 31
0.0
  0
LINE
  5
9F04
330
9C4C
100
AcDbEntity
  8
1
  6
Continuous
100
AcDbLine
 10
470.7695639999998
 20
269.1289569999999
 30
0.0
 11
468.231075
 21
271.6504459999999
 31
0.0
  0
LINE
  5
9F05
330
9C4C
100
AcDbEntity
  8
1
  6
Continuous
100
AcDbLine
 10
467.941137
 20
269.1289569999999
 30
0.0
 11
465.402648
 21
271.6504459999999
 31
0.0
  0
LINE
  5
9F06
330
9C4C
100
AcDbEntity
  8
1
  6
Continuous
100
AcDbLine
 10
465.692586
 20
269.1289569999999
 30
0.0
 11
468.231075
 21
271.6504459999999
 31
0.0
  0
LINE
  5
9F07
330
9C4C
100
AcDbEntity
  8
1
  6
Continuous
100
AcDbLine
 10
464.597917
 20
276.944652
 30
0.0
 11
464.597917
 21
280.4446299999998
 31
0.0
  0
ARC
  5
9F08
330
9C4C
100
AcDbEntity
  8
1
  6
Continuous
100
AcDbCircle
 10
476.873081
 20
267.4081259999999
 30
0.0
 40
1.189
100
AcDbArc
 50
174.9251139999999
 51
268.815048
  0
ARC
  5
9F09
330
9C4C
100
AcDbEntity
  8
1
  6
Continuous
100
AcDbCircle
 10
472.9001009999998
 20
265.9437549999998
 30
0.0
 40
3.2
100
AcDbArc
 50
29.372364
 51
89.765923
  0
LINE
  5
9F0A
330
9C4C
100
AcDbEntity
  8
1
  6
Continuous
100
AcDbLine
 10
475.118185
 20
270.4371899999998
 30
0.0
 11
473.8879289999998
 21
271.6504459999999
 31
0.0
  0
LINE
  5
9F0B
330
9C4C
100
AcDbEntity
  8
1
  6
Continuous
100
AcDbLine
 10
475.118185
 20
269.1289569999999
 30
0.0
 11
475.118185
 21
272.944652
 31
0.0
  0
LINE
  5
9F0C
330
9C4C
100
AcDbEntity
  8
1
  6
Continuous
100
AcDbLine
 10
474.177868
 20
269.1289569999999
 30
0.0
 11
475.118185
 21
270.069274
 31
0.0
  0
LINE
  5
9F0D
330
9C4C
100
AcDbEntity
  8
1
  6
Continuous
100
AcDbLine
 10
473.597991
 20
269.1289569999999
 30
0.0
 11
471.0595019999998
 21
271.6504459999999
 31
0.0
  0
LINE
  5
9F0E
330
9C4C
100
AcDbEntity
  8
1
  6
Continuous
100
AcDbLine
 10
471.349441
 20
269.1289569999999
 30
0.0
 11
473.8879289999998
 21
271.6504459999999
 31
0.0
  0
ARC
  5
9F0F
330
9C4C
100
AcDbEntity
  8
1
  6
Continuous
100
AcDbCircle
 10
469.4320849999998
 20
272.944652
 30
0.0
 40
4.0
100
AcDbArc
 50
0.0
 51
90.0
  0
ARC
  5
9F10
330
9C4C
100
AcDbEntity
  8
1
  6
Continuous
100
AcDbCircle
 10
472.823253
 20
266.7600759999999
 30
0.0
 40
2.383999999999999
100
AcDbArc
 50
89.765923
 51
186.1011659999999
  0
LINE
  5
9F11
330
9C4C
100
AcDbEntity
  8
1
  6
Continuous
100
AcDbLine
 10
468.5210129999998
 20
269.1289569999999
 30
0.0
 11
471.0595019999998
 21
271.6504459999999
 31
0.0
  0
ARC
  5
9F12
330
9C4C
100
AcDbEntity
  8
1
  6
Continuous
100
AcDbCircle
 10
478.034225
 20
265.1756279999998
 30
0.0
 40
6.166148999999997
100
AcDbArc
 50
358.5010279999999
 51
5.878328999999997
  0
ARC
  5
9F13
330
9C4C
100
AcDbEntity
  8
1
  6
Continuous
100
AcDbCircle
 10
483.9137069999998
 20
265.6806889999999
 30
0.0
 40
0.283955
100
AcDbArc
 50
26.44452299999999
 51
67.573387
  0
ARC
  5
9F14
330
9C4C
100
AcDbEntity
  8
1
  6
Continuous
100
AcDbCircle
 10
482.602253
 20
262.503052
 30
0.0
 40
3.721582999999998
100
AcDbArc
 50
67.573387
 51
91.27258299999999
  0
ARC
  5
9F15
330
9C4C
100
AcDbEntity
  8
1
  6
Continuous
100
AcDbCircle
 10
478.034225
 20
265.1756279999998
 30
0.0
 40
6.166148999999997
100
AcDbArc
 50
358.5010279999999
 51
5.878328999999997
  0
ARC
  5
9F16
330
9C4C
100
AcDbEntity
  8
1
  6
Continuous
100
AcDbCircle
 10
483.9137069999998
 20
265.6806889999999
 30
0.0
 40
0.283955
100
AcDbArc
 50
26.44452299999999
 51
67.573387
  0
ARC
  5
9F17
330
9C4C
100
AcDbEntity
  8
1
  6
Continuous
100
AcDbCircle
 10
482.602253
 20
262.503052
 30
0.0
 40
3.721582999999998
100
AcDbArc
 50
67.573387
 51
91.27258299999999
  0
LINE
  5
9F18
330
9C4C
100
AcDbEntity
  8
1
  6
Continuous
100
AcDbLine
 10
452.9321089999998
 20
330.4446299999999
 30
0.0
 11
453.832109
 21
329.54463
 31
0.0
  0
LINE
  5
9F19
330
9C4C
100
AcDbEntity
  8
2
  6
Continuous
100
AcDbLine
 10
453.4850849999998
 20
329.54463
 30
0.0
 11
453.4850849999998
 21
329.891654
 31
0.0
  0
LINE
  5
9F1A
330
9C4C
100
AcDbEntity
  8
1
  6
Continuous
100
AcDbLine
 10
459.1320849999998
 20
325.54463
 30
0.0
 11
459.1320849999998
 21
329.54463
 31
0.0
  0
LINE
  5
9F1B
330
9C4C
100
AcDbEntity
  8
1
  6
Continuous
100
AcDbLine
 10
452.8397489999998
 20
329.54463
 30
0.0
 11
452.8397489999998
 21
325.54463
 31
0.0
  0
ARC
  5
9F1C
330
9C4C
100
AcDbEntity
  8
1
  6
Continuous
100
AcDbCircle
 10
457.932085
 20
324.5446299999999
 30
0.0
 40
1.0
100
AcDbArc
 50
0.0
 51
90.0
  0
LINE
  5
9F1D
330
9C4C
100
AcDbEntity
  8
4
  6
CENTER
100
AcDbLine
 10
257.0110349999998
 20
414.8784489999998
 30
0.0
 11
136.586035
 21
414.8784489999998
 31
0.0
  0
ARC
  5
9F1E
330
9C4C
100
AcDbEntity
  8
1
  6
Continuous
100
AcDbCircle
 10
224.586035
 20
414.8784489999998
 30
0.0
 40
27.425
100
AcDbArc
 50
228.825109
 51
131.1749289999999
  0
CIRCLE
  5
9F1F
330
9C4C
100
AcDbEntity
  8
1
  6
Continuous
100
AcDbCircle
 10
224.586035
 20
414.8784489999998
 30
0.0
 40
26.6861
  0
LINE
  5
9F20
330
9C4C
100
AcDbEntity
  8
4
  6
CENTER
100
AcDbLine
 10
191.586048
 20
443.295674
 30
0.0
 11
191.586048
 21
382.9956759999998
 31
0.0
  0
LINE
  5
9F21
330
9C4C
100
AcDbEntity
  8
4
  6
CENTER
100
AcDbLine
 10
224.586035
 20
382.4534489999999
 30
0.0
 11
224.586035
 21
447.3034489999998
 31
0.0
  0
ARC
  5
9F22
330
9C4C
100
AcDbEntity
  8
1
  6
Continuous
100
AcDbCircle
 10
191.586048
 20
427.795658
 30
0.0
 40
10.5
100
AcDbArc
 50
48.189685
 51
131.810315
  0
LINE
  5
9F23
330
9C4C
100
AcDbEntity
  8
1
  6
Continuous
100
AcDbLine
 10
198.586048
 20
435.6218959999998
 30
0.0
 11
184.5860479999998
 21
435.6218959999998
 31
0.0
  0
LINE
  5
9F24
330
9C4C
100
AcDbEntity
  8
1
  6
Continuous
100
AcDbLine
 10
195.586048
 20
388.661241
 30
0.0
 11
187.586048
 21
388.661241
 31
0.0
  0
LINE
  5
9F25
330
9C4C
100
AcDbEntity
  8
1
  6
Continuous
100
AcDbLine
 10
194.920483
 20
387.995676
 30
0.0
 11
188.262548
 21
387.995676
 31
0.0
  0
LINE
  5
9F26
330
9C4C
100
AcDbEntity
  8
1
  6
Continuous
100
AcDbLine
 10
199.086048
 20
394.4612409999999
 30
0.0
 11
184.086048
 21
394.4612409999999
 31
0.0
  0
LINE
  5
9F27
330
9C4C
100
AcDbEntity
  8
1
  6
Continuous
100
AcDbLine
 10
185.586048
 20
389.4612409999999
 30
0.0
 11
197.586048
 21
389.4612409999999
 31
0.0
  0
ARC
  5
9F28
330
9C4C
100
AcDbEntity
  8
1
  6
Continuous
100
AcDbCircle
 10
188.586048
 20
385.796177
 30
0.0
 40
8.665063999999999
100
AcDbArc
 50
69.743842
 51
110.256158
  0
ARC
  5
9F29
330
9C4C
100
AcDbEntity
  8
1
  6
Continuous
100
AcDbCircle
 10
188.586048
 20
398.1263039999999
 30
0.0
 40
8.665063999999999
100
AcDbArc
 50
249.7438419999999
 51
290.256158
  0
LINE
  5
9F2A
330
9C4C
100
AcDbEntity
  8
1
  6
Continuous
100
AcDbLine
 10
191.586048
 20
394.4612409999999
 30
0.0
 11
189.5860479999998
 21
396.4612409999999
 31
0.0
  0
LINE
  5
9F2B
330
9C4C
100
AcDbEntity
  8
1
  6
Continuous
100
AcDbLine
 10
200.6052659999999
 20
433.295658
 30
0.0
 11
180.8364479999999
 21
433.295658
 31
0.0
  0
LINE
  5
9F2C
330
9C4C
100
AcDbEntity
  8
1
  6
Continuous
100
AcDbLine
 10
200.605284
 20
396.461224
 30
0.0
 11
180.836444
 21
396.461224
 31
0.0
  0
ARC
  5
9F2D
330
9C4C
100
AcDbEntity
  8
1
  6
Continuous
100
AcDbCircle
 10
242.4471089999999
 20
414.878441
 30
0.0
 40
53.38794100000001
100
AcDbArc
 50
159.8200589999999
 51
200.1799409999999
  0
LINE
  5
9F2E
330
9C4C
100
AcDbEntity
  8
1
  6
Continuous
100
AcDbLine
 10
184.086048
 20
396.4612409999999
 30
0.0
 11
184.086048
 21
394.4612409999999
 31
0.0
  0
LINE
  5
9F2F
330
9C4C
100
AcDbEntity
  8
1
  6
Continuous
100
AcDbLine
 10
187.586048
 20
388.672176
 30
0.0
 11
188.262548
 21
387.995676
 31
0.0
  0
LINE
  5
9F30
330
9C4C
100
AcDbEntity
  8
1
  6
Continuous
100
AcDbLine
 10
185.586048
 20
389.4612409999999
 30
0.0
 11
185.586048
 21
394.4612409999999
 31
0.0
  0
LINE
  5
9F31
330
9C4C
100
AcDbEntity
  8
2
  6
Continuous
100
AcDbLine
 10
188.262548
 20
389.4612409999999
 30
0.0
 11
188.262548
 21
387.995676
 31
0.0
  0
LINE
  5
9F32
330
9C4C
100
AcDbEntity
  8
1
  6
Continuous
100
AcDbLine
 10
187.586048
 20
389.4612409999999
 30
0.0
 11
187.586048
 21
388.672176
 31
0.0
  0
LINE
  5
9F33
330
9C4C
100
AcDbEntity
  8
1
  6
Continuous
100
AcDbLine
 10
190.204674
 20
425.878449
 30
0.0
 11
147.3167259999998
 21
425.878449
 31
0.0
  0
LINE
  5
9F34
330
9C4C
100
AcDbEntity
  8
1
  6
Continuous
100
AcDbLine
 10
190.2046699999999
 20
403.878449
 30
0.0
 11
147.3167259999998
 21
403.878449
 31
0.0
  0
ARC
  5
9F35
330
9C4C
100
AcDbEntity
  8
1
  6
Continuous
100
AcDbCircle
 10
171.586048
 20
414.8784489999998
 30
0.0
 40
30.0
100
AcDbArc
 50
166.11346
 51
193.88654
  0
ARC
  5
9F36
330
9C4C
100
AcDbEntity
  8
1
  6
Continuous
100
AcDbCircle
 10
147.3167259999998
 20
408.878449
 30
0.0
 40
5.0
100
AcDbArc
 50
193.88654
 51
270.0
  0
ARC
  5
9F37
330
9C4C
100
AcDbEntity
  8
1
  6
Continuous
100
AcDbCircle
 10
147.3167259999998
 20
420.878449
 30
0.0
 40
5.0
100
AcDbArc
 50
90.0
 51
166.11346
  0
ARC
  5
9F38
330
9C4C
100
AcDbEntity
  8
1
  6
Continuous
100
AcDbCircle
 10
184.546392
 20
401.5747489999998
 30
0.0
 40
2.0
100
AcDbArc
 50
208.2389669999999
 51
256.692819
  0
LINE
  5
9F39
330
9C4C
100
AcDbEntity
  8
1
  6
Continuous
100
AcDbLine
 10
180.836444
 20
396.461224
 30
0.0
 11
180.836444
 21
399.0612239999999
 31
0.0
  0
ARC
  5
9F3A
330
9C4C
100
AcDbEntity
  8
1
  6
Continuous
100
AcDbCircle
 10
187.5684409999998
 20
419.0163039999998
 30
0.0
 40
19.0
100
AcDbArc
 50
232.818892
 51
255.416531
  0
LINE
  5
9F3B
330
9C4C
100
AcDbEntity
  8
1
  6
Continuous
100
AcDbLine
 10
186.086048
 20
399.3784489999999
 30
0.0
 11
186.086048
 21
399.6284489999999
 31
0.0
  0
LINE
  5
9F3C
330
9C4C
100
AcDbEntity
  8
1
  6
Continuous
100
AcDbLine
 10
187.586048
 20
399.0612239999999
 30
0.0
 11
187.586048
 21
399.3784489999999
 31
0.0
  0
LINE
  5
9F3D
330
9C4C
100
AcDbEntity
  8
1
  6
Continuous
100
AcDbLine
 10
186.086048
 20
399.3784489999999
 30
0.0
 11
191.35873
 21
399.3784489999999
 31
0.0
  0
LINE
  5
9F3E
330
9C4C
100
AcDbEntity
  8
1
  6
Continuous
100
AcDbLine
 10
191.283548
 20
399.6284489999999
 30
0.0
 11
184.086048
 21
399.6284489999999
 31
0.0
  0
LINE
  5
9F3F
330
9C4C
100
AcDbEntity
  8
1
  6
Continuous
100
AcDbLine
 10
190.996065
 20
400.6284489999998
 30
0.0
 11
182.7844279999999
 21
400.6284489999998
 31
0.0
  0
LINE
  5
9F40
330
9C4C
100
AcDbEntity
  8
1
  6
Continuous
100
AcDbLine
 10
191.456052
 20
399.0612239999999
 30
0.0
 11
180.836444
 21
399.0612239999999
 31
0.0
  0
LINE
  5
9F41
330
9C4C
100
AcDbEntity
  8
1
  6
Continuous
100
AcDbLine
 10
184.5860479999998
 20
435.6218959999998
 30
0.0
 11
184.5860479999998
 21
433.295658
 31
0.0
  0
LINE
  5
9F42
330
9C4C
100
AcDbEntity
  8
1
  6
Continuous
100
AcDbLine
 10
180.836444
 20
430.6956579999998
 30
0.0
 11
180.836444
 21
433.295658
 31
0.0
  0
ARC
  5
9F43
330
9C4C
100
AcDbEntity
  8
1
  6
Continuous
100
AcDbCircle
 10
187.5684409999998
 20
410.7405939999998
 30
0.0
 40
19.0
100
AcDbArc
 50
104.5834689999998
 51
127.181108
  0
ARC
  5
9F44
330
9C4C
100
AcDbEntity
  8
1
  6
Continuous
100
AcDbCircle
 10
184.546392
 20
428.1821489999998
 30
0.0
 40
2.0
100
AcDbArc
 50
103.307181
 51
151.761033
  0
LINE
  5
9F45
330
9C4C
100
AcDbEntity
  8
1
  6
Continuous
100
AcDbLine
 10
186.086048
 20
430.3784489999999
 30
0.0
 11
186.086048
 21
430.1284489999998
 31
0.0
  0
LINE
  5
9F46
330
9C4C
100
AcDbEntity
  8
1
  6
Continuous
100
AcDbLine
 10
187.586048
 20
430.3784489999999
 30
0.0
 11
187.586048
 21
430.6956579999998
 31
0.0
  0
LINE
  5
9F47
330
9C4C
100
AcDbEntity
  8
1
  6
Continuous
100
AcDbLine
 10
186.086048
 20
430.3784489999999
 30
0.0
 11
191.358735
 21
430.3784489999999
 31
0.0
  0
LINE
  5
9F48
330
9C4C
100
AcDbEntity
  8
1
  6
Continuous
100
AcDbLine
 10
191.283553
 20
430.1284489999998
 30
0.0
 11
184.086048
 21
430.1284489999998
 31
0.0
  0
LINE
  5
9F49
330
9C4C
100
AcDbEntity
  8
1
  6
Continuous
100
AcDbLine
 10
190.996069
 20
429.1284489999998
 30
0.0
 11
182.7844279999999
 21
429.1284489999998
 31
0.0
  0
LINE
  5
9F4A
330
9C4C
100
AcDbEntity
  8
1
  6
Continuous
100
AcDbLine
 10
191.456052
 20
430.6956579999998
 30
0.0
 11
180.8364479999999
 21
430.6956579999998
 31
0.0
  0
ARC
  5
9F4B
330
9C4C
100
AcDbEntity
  8
1
  6
Continuous
100
AcDbCircle
 10
200.605284
 20
387.461224
 30
0.0
 40
9.0
100
AcDbArc
 50
48.82510899999999
 51
90.0
  0
LINE
  5
9F4C
330
9C4C
100
AcDbEntity
  8
1
  6
Continuous
100
AcDbLine
 10
199.086048
 20
396.4612409999999
 30
0.0
 11
199.086048
 21
394.4612409999999
 31
0.0
  0
LINE
  5
9F4D
330
9C4C
100
AcDbEntity
  8
1
  6
Continuous
100
AcDbLine
 10
193.586048
 20
394.4612409999999
 30
0.0
 11
191.586048
 21
396.4612409999999
 31
0.0
  0
CIRCLE
  5
9F4E
330
9C4C
100
AcDbEntity
  8
1
  6
Continuous
100
AcDbCircle
 10
224.586035
 20
414.8784489999998
 30
0.0
 40
25.0
  0
LINE
  5
9F4F
330
9C4C
100
AcDbEntity
  8
1
  6
Continuous
100
AcDbLine
 10
194.920483
 20
387.995676
 30
0.0
 11
195.586048
 21
388.661241
 31
0.0
  0
ARC
  5
9F50
330
9C4C
100
AcDbEntity
  8
1
  6
Continuous
100
AcDbCircle
 10
194.586048
 20
385.796177
 30
0.0
 40
8.665063999999999
100
AcDbArc
 50
69.743842
 51
110.256158
  0
ARC
  5
9F51
330
9C4C
100
AcDbEntity
  8
1
  6
Continuous
100
AcDbCircle
 10
194.586048
 20
398.1263039999999
 30
0.0
 40
8.665063999999999
100
AcDbArc
 50
249.7438419999999
 51
290.256158
  0
LINE
  5
9F52
330
9C4C
100
AcDbEntity
  8
1
  6
Continuous
100
AcDbLine
 10
197.586048
 20
389.4612409999999
 30
0.0
 11
197.586048
 21
394.4612409999999
 31
0.0
  0
LINE
  5
9F53
330
9C4C
100
AcDbEntity
  8
1
  6
Continuous
100
AcDbLine
 10
191.586048
 20
393.925342
 30
0.0
 11
191.586048
 21
389.997139
 31
0.0
  0
LINE
  5
9F54
330
9C4C
100
AcDbEntity
  8
2
  6
Continuous
100
AcDbLine
 10
194.909548
 20
389.4612409999999
 30
0.0
 11
194.909548
 21
387.995676
 31
0.0
  0
LINE
  5
9F55
330
9C4C
100
AcDbEntity
  8
1
  6
Continuous
100
AcDbLine
 10
195.586048
 20
389.4612409999999
 30
0.0
 11
195.586048
 21
388.661241
 31
0.0
  0
ARC
  5
9F56
330
9C4C
100
AcDbEntity
  8
1
  6
Continuous
100
AcDbCircle
 10
224.586035
 20
414.8784489999998
 30
0.0
 40
10.5
100
AcDbArc
 50
248.213211
 51
291.786789
  0
ARC
  5
9F57
330
9C4C
100
AcDbEntity
  8
1
  6
Continuous
100
AcDbCircle
 10
224.586035
 20
414.8784489999998
 30
0.0
 40
10.5
100
AcDbArc
 50
68.213211
 51
111.7867889999999
  0
LINE
  5
9F58
330
9C4C
100
AcDbEntity
  8
1
  6
Continuous
100
AcDbLine
 10
220.1783709999999
 20
424.6284489999998
 30
0.0
 11
228.9936979999999
 21
424.6284489999998
 31
0.0
  0
LINE
  5
9F59
330
9C4C
100
AcDbEntity
  8
1
  6
Continuous
100
AcDbLine
 10
228.9936979999999
 20
405.1284489999998
 30
0.0
 11
220.1783709999999
 21
405.1284489999998
 31
0.0
  0
CIRCLE
  5
9F5A
330
9C4C
100
AcDbEntity
  8
2
  6
Continuous
100
AcDbCircle
 10
224.586035
 20
414.8784489999998
 30
0.0
 40
5.052999999999999
  0
LINE
  5
9F5B
330
9C4C
100
AcDbEntity
  8
1
  6
Continuous
100
AcDbLine
 10
232.6689389999999
 20
428.878449
 30
0.0
 11
216.503132
 21
428.878449
 31
0.0
  0
LINE
  5
9F5C
330
9C4C
100
AcDbEntity
  8
1
  6
Continuous
100
AcDbLine
 10
232.6689389999999
 20
400.878449
 30
0.0
 11
216.503132
 21
400.878449
 31
0.0
  0
CIRCLE
  5
9F5D
330
9C4C
100
AcDbEntity
  8
1
  6
Continuous
100
AcDbCircle
 10
224.586035
 20
414.8784489999998
 30
0.0
 40
6.0
  0
CIRCLE
  5
9F5E
330
9C4C
100
AcDbEntity
  8
1
  6
Continuous
100
AcDbCircle
 10
224.586035
 20
414.8784489999998
 30
0.0
 40
4.499976
  0
ARC
  5
9F5F
330
9C4C
100
AcDbEntity
  8
1
  6
Continuous
100
AcDbCircle
 10
224.586035
 20
414.8784489999998
 30
0.0
 40
10.7
100
AcDbArc
 50
114.326207
 51
245.673793
  0
ARC
  5
9F60
330
9C4C
100
AcDbEntity
  8
1
  6
Continuous
100
AcDbCircle
 10
225.279254
 20
414.8784489999998
 30
0.0
 40
28.865452
100
AcDbArc
 50
139.0925329999998
 51
220.5077509999999
  0
LINE
  5
9F61
330
9C4C
100
AcDbEntity
  8
1
  6
Continuous
100
AcDbLine
 10
216.503132
 20
428.878449
 30
0.0
 11
208.4202279999999
 21
414.8784489999998
 31
0.0
  0
LINE
  5
9F62
330
9C4C
100
AcDbEntity
  8
1
  6
Continuous
100
AcDbLine
 10
216.503132
 20
400.878449
 30
0.0
 11
208.4202279999999
 21
414.8784489999998
 31
0.0
  0
LINE
  5
9F63
330
9C4C
100
AcDbEntity
  8
1
  6
Continuous
100
AcDbLine
 10
198.586048
 20
435.6218959999998
 30
0.0
 11
198.586048
 21
433.295658
 31
0.0
  0
ARC
  5
9F64
330
9C4C
100
AcDbEntity
  8
1
  6
Continuous
100
AcDbCircle
 10
200.6052659999999
 20
442.295658
 30
0.0
 40
9.0
100
AcDbArc
 50
270.0
 51
311.174929
  0
ARC
  5
9F65
330
9C4C
100
AcDbEntity
  8
1
  6
Continuous
100
AcDbCircle
 10
224.586035
 20
414.8784489999998
 30
0.0
 40
10.7
100
AcDbArc
 50
294.326207
 51
65.673793
  0
LINE
  5
9F66
330
9C4C
100
AcDbEntity
  8
1
  6
Continuous
100
AcDbLine
 10
240.751843
 20
414.8784489999998
 30
0.0
 11
232.6689389999999
 21
428.878449
 31
0.0
  0
LINE
  5
9F67
330
9C4C
100
AcDbEntity
  8
1
  6
Continuous
100
AcDbLine
 10
240.751843
 20
414.8784489999998
 30
0.0
 11
232.6689389999999
 21
400.878449
 31
0.0
  0
LINE
  5
9F68
330
9C4C
100
AcDbEntity
  8
1
  6
Continuous
100
AcDbLine
 10
224.586035
 20
428.878449
 30
0.0
 11
228.8067739999999
 21
428.878449
 31
0.0
  0
LINE
  5
9F69
330
9C4C
100
AcDbEntity
  8
4
  6
CENTER
100
AcDbLine
 10
191.5864479999999
 20
148.3371629999998
 30
0.0
 11
191.5864479999999
 21
258.001771
 31
0.0
  0
LINE
  5
9F6A
330
9C4C
100
AcDbEntity
  8
4
  6
CENTER
100
AcDbLine
 10
249.5864479999999
 20
206.4271629999999
 30
0.0
 11
134.3562379999999
 21
206.4441629999998
 31
0.0
  0
ENDSEC
  0
SECTION
  2
OBJECTS
  0
DICTIONARY
  5
9C3A
330
0
100
AcDbDictionary
281
     1
  3
ACAD_CIP_PREVIOUS_PRODUCT_INFO
350
9FCC
  3
ACAD_COLOR
350
9FAE
  3
ACAD_DETAILVIEWSTYLE
350
9FC7
  3
ACAD_GROUP
350
9C3B
  3
ACAD_LAYOUT
350
9C47
  3
ACAD_MATERIAL
350
9F7C
  3
ACAD_MLEADERSTYLE
350
9FC3
  3
ACAD_MLINESTYLE
350
9C44
  3
ACAD_PLOTSETTINGS
350
9C46
  3
ACAD_PLOTSTYLENAME
350
9F7A
  3
ACAD_SCALELIST
350
9FB1
  3
ACAD_SECTIONVIEWSTYLE
350
9FC5
  3
ACAD_TABLESTYLE
350
9FAF
  3
ACAD_VISUALSTYLE
350
9F95
  3
ACDB_RECOMPOSE_DATA
350
9FEA
  3
AcDbVariableDictionary
350
9FDD
  3
DWGPROPS
350
9FEB
  0
DICTIONARY
  5
9FCD
330
9C3E
100
AcDbDictionary
280
     1
281
     1
  3
ADSK_XREC_LAYER_RECONCILED
360
9FCE
  0
DICTIONARY
  5
9FCF
330
9C54
100
AcDbDictionary
280
     1
281
     1
  3
ADSK_XREC_LAYER_RECONCILED
360
9FD0
  0
DICTIONARY
  5
9FD1
330
9C55
100
AcDbDictionary
280
     1
281
     1
  3
ADSK_XREC_LAYER_RECONCILED
360
9FD2
  0
DICTIONARY
  5
9FD3
330
9C56
100
AcDbDictionary
280
     1
281
     1
  3
ADSK_XREC_LAYER_RECONCILED
360
9FD4
  0
DICTIONARY
  5
9FD5
330
9C57
100
AcDbDictionary
280
     1
281
     1
  3
ADSK_XREC_LAYER_RECONCILED
360
9FD6
  0
DICTIONARY
  5
9FD7
330
9C58
100
AcDbDictionary
280
     1
281
     1
  3
ADSK_XREC_LAYER_RECONCILED
360
9FD8
  0
DICTIONARY
  5
9FD9
330
9C59
100
AcDbDictionary
280
     1
281
     1
  3
ADSK_XREC_LAYER_RECONCILED
360
9FDA
  0
DICTIONARY
  5
9FDB
330
9C5A
100
AcDbDictionary
280
     1
281
     1
  3
ADSK_XREC_LAYER_RECONCILED
360
9FDC
  0
DICTIONARY
  5
9F75
330
9C4C
100
AcDbDictionary
281
     1
  3
ACAD_LAYOUTSELFREF
350
9F76
  0
DICTIONARY
  5
9F73
330
9C48
100
AcDbDictionary
281
     1
  3
ACAD_LAYOUTSELFREF
350
9F74
  0
XRECORD
  5
9FCC
102
{ACAD_REACTORS
330
9C3A
102
}
330
9C3A
100
AcDbXrecord
280
     1
300
ACDLT
300
2014
300
ACDLT_F_S
  0
DICTIONARY
  5
9FAE
102
{ACAD_REACTORS
330
9C3A
102
}
330
9C3A
100
AcDbDictionary
281
     1
  0
DICTIONARY
  5
9FC7
102
{ACAD_REACTORS
330
9C3A
102
}
330
9C3A
100
AcDbDictionary
281
     1
  3
Imperial24
350
9FC8
  0
DICTIONARY
  5
9C3B
102
{ACAD_REACTORS
330
9C3A
102
}
330
9C3A
100
AcDbDictionary
281
     1
  0
DICTIONARY
  5
9C47
102
{ACAD_REACTORS
330
9C3A
102
}
330
9C3A
100
AcDbDictionary
281
     1
  3
Model
350
9FC9
  3
レイアウト1
350
9FCA
  0
DICTIONARY
  5
9F7C
102
{ACAD_REACTORS
330
9C3A
102
}
330
9C3A
100
AcDbDictionary
281
     1
  3
ByBlock
350
9F85
  3
ByLayer
350
9F7D
  3
Global
350
9F8D
  0
DICTIONARY
  5
9FC3
102
{ACAD_REACTORS
330
9C3A
102
}
330
9C3A
100
AcDbDictionary
281
     1
  3
Standard
350
9FC4
  0
DICTIONARY
  5
9C44
102
{ACAD_REACTORS
330
9C3A
102
}
330
9C3A
100
AcDbDictionary
281
     1
  3
STANDARD
350
9C45
  0
DICTIONARY
  5
9C46
102
{ACAD_REACTORS
330
9C3A
102
}
330
9C3A
100
AcDbDictionary
281
     1
  0
ACDBDICTIONARYWDFLT
  5
9F7A
102
{ACAD_REACTORS
330
9C3A
102
}
330
9C3A
100
AcDbDictionary
281
     1
  3
Normal
350
9F7B
100
AcDbDictionaryWithDefault
340
9F7B
  0
DICTIONARY
  5
9FB1
102
{ACAD_REACTORS
330
9C3A
102
}
330
9C3A
100
AcDbDictionary
281
     1
  3
A0
350
9FB2
  3
A1
350
9FB3
  3
A2
350
9FB4
  3
A3
350
9FB5
  3
A4
350
9FB6
  3
A5
350
9FB7
  3
A6
350
9FB8
  3
A7
350
9FB9
  3
A8
350
9FBA
  3
A9
350
9FBB
  3
B0
350
9FBC
  3
B1
350
9FBD
  3
B2
350
9FBE
  3
B3
350
9FBF
  3
B4
350
9FC0
  3
B5
350
9FC1
  3
B6
350
9FC2
  0
DICTIONARY
  5
9FC5
102
{ACAD_REACTORS
330
9C3A
102
}
330
9C3A
100
AcDbDictionary
281
     1
  3
Imperial24
350
9FC6
  0
DICTIONARY
  5
9FAF
102
{ACAD_REACTORS
330
9C3A
102
}
330
9C3A
100
AcDbDictionary
281
     1
  3
Standard
350
9FB0
  0
DICTIONARY
  5
9F95
102
{ACAD_REACTORS
330
9C3A
102
}
330
9C3A
100
AcDbDictionary
281
     1
  3
2dWireframe
350
9F9B
  3
Basic
350
9F9A
  3
Brighten
350
9FA1
  3
ColorChange
350
9FA5
  3
Conceptual
350
9F9E
  3
Dim
350
9FA0
  3
EdgeColorOff
350
9FAD
  3
Facepattern
350
9FA4
  3
Flat
350
9F96
  3
FlatWithEdges
350
9F97
  3
Gouraud
350
9F98
  3
GouraudWithEdges
350
9F99
  3
Hidden
350
9F9D
  3
JitterOff
350
9FAB
  3
Linepattern
350
9FA3
  3
OverhangOff
350
9FAC
  3
Realistic
350
9F9F
  3
Shaded
350
9FAA
  3
Shaded with edges
350
9FA9
  3
Shades of Gray
350
9FA6
  3
Sketchy
350
9FA7
  3
Thicken
350
9FA2
  3
Wireframe
350
9F9C
  3
X-Ray
350
9FA8
  0
XRECORD
  5
9FEA
102
{ACAD_REACTORS
330
9C3A
102
}
330
9C3A
100
AcDbXrecord
280
     1
 90
        1
330
9FB0
  0
DICTIONARY
  5
9FDD
102
{ACAD_REACTORS
330
9C3A
102
}
330
9C3A
100
AcDbDictionary
281
     1
  3
CANNOSCALE
350
9FE2
  3
CMLEADERSTYLE
350
9FDF
  3
CTABLESTYLE
350
9FDE
  3
CVIEWDETAILSTYLE
350
9FE0
  3
CVIEWSECTIONSTYLE
350
9FE1
  3
DIMASSOC
350
9FE5
  3
INDEXCTL
350
9FE4
  3
SORTENTS
350
9FE3
  3
XCLIPFRAME
350
9FE6
  0
XRECORD
  5
9FEB
102
{ACAD_REACTORS
330
9C3A
102
}
330
9C3A
100
AcDbXrecord
280
     1
  1
DWGPROPS COOKIE
  2

  3

  4

  6

  7

  8
Yoshitsune
  9

300
=
301
=
302
=
303
=
304
=
305
=
306
=
307
=
308
=
309
=
 40
0.0000106712962963
 41
2451301.5762625
 42
2457192.687808761
  1

 90
        0
  0
XRECORD
  5
9FCE
102
{ACAD_REACTORS
330
9FCD
102
}
330
9FCD
100
AcDbXrecord
280
     1
290
     1
  0
XRECORD
  5
9FD0
102
{ACAD_REACTORS
330
9FCF
102
}
330
9FCF
100
AcDbXrecord
280
     1
290
     1
  0
XRECORD
  5
9FD2
102
{ACAD_REACTORS
330
9FD1
102
}
330
9FD1
100
AcDbXrecord
280
     1
290
     1
  0
XRECORD
  5
9FD4
102
{ACAD_REACTORS
330
9FD3
102
}
330
9FD3
100
AcDbXrecord
280
     1
290
     1
  0
XRECORD
  5
9FD6
102
{ACAD_REACTORS
330
9FD5
102
}
330
9FD5
100
AcDbXrecord
280
     1
290
     1
  0
XRECORD
  5
9FD8
102
{ACAD_REACTORS
330
9FD7
102
}
330
9FD7
100
AcDbXrecord
280
     1
290
     1
  0
XRECORD
  5
9FDA
102
{ACAD_REACTORS
330
9FD9
102
}
330
9FD9
100
AcDbXrecord
280
     1
290
     1
  0
XRECORD
  5
9FDC
102
{ACAD_REACTORS
330
9FDB
102
}
330
9FDB
100
AcDbXrecord
280
     1
290
     1
  0
XRECORD
  5
9F76
102
{ACAD_REACTORS
330
9F75
102
}
330
9F75
100
AcDbXrecord
280
     1
340
9C4C
  0
XRECORD
  5
9F74
102
{ACAD_REACTORS
330
9F73
102
}
330
9F73
100
AcDbXrecord
280
     1
340
9C48
  0
ACDBDETAILVIEWSTYLE
  5
9FC8
102
{ACAD_XDICTIONARY
360
A023
102
}
102
{ACAD_REACTORS
330
9FC7
102
}
330
9FC7
100
AcDbModelDocViewStyle
 70
     0
  3
Imperial24
290
     0
100
AcDbDetailViewStyle
 70
     0
 71
     0
 90
        3
 71
     1
340
9C3F
 40
0.24
340
0
 40
0.24
300

 40
0.36
280
     3
 71
     2
340
9C43
 90
       25
 71
     3
340
9C3F
 40
0.24
 90
        1
 40
0.75
 90
        1
300
%<\AcVar ViewType \f "%tc1">% %<\AcVar ViewDetailId>%\PSCALE %<\AcVar ViewScale \f "%sn">%
 71
     4
340
9C43
 90
       25
340
9C43
 90
       25
280
     0
  0
LAYOUT
  5
9FC9
102
{ACAD_XDICTIONARY
360
A025
102
}
102
{ACAD_REACTORS
330
9C47
102
}
330
9C47
100
AcDbPlotSettings
  1

  2
Canon LBP9100C
  4

  6

 40
0.0
 41
0.0
 42
0.0
 43
0.0
 44
0.0
 45
0.0
 46
0.0
 47
0.0
 48
0.0
 49
0.0
140
0.0
141
0.0
142
1.0
143
1.0
 70
  1712
 72
     0
 73
     0
 74
     0
  7

 75
     0
147
1.0
148
0.0
149
0.0
100
AcDbLayout
  1
Model
 70
     1
 71
     0
 10
0.0
 20
0.0
 11
12.0
 21
9.0
 12
0.0
 22
0.0
 32
0.0
 14
0.0
 24
0.0
 34
0.0
 15
0.0
 25
0.0
 35
0.0
146
0.0
 13
0.0
 23
0.0
 33
0.0
 16
1.0
 26
0.0
 36
0.0
 17
0.0
 27
1.0
 37
0.0
 76
     0
330
9C4C
331
9F72
  0
LAYOUT
  5
9FCA
102
{ACAD_XDICTIONARY
360
A027
102
}
102
{ACAD_REACTORS
330
9C47
102
}
330
9C47
100
AcDbPlotSettings
  1

  2
Canon LBP9100C
  4

  6

 40
0.0
 41
0.0
 42
0.0
 43
0.0
 44
0.0
 45
0.0
 46
0.0
 47
0.0
 48
0.0
 49
0.0
140
0.0
141
0.0
142
1.0
143
1.0
 70
   688
 72
     0
 73
     0
 74
     5
  7

 75
    16
147
1.0
148
0.0
149
0.0
100
AcDbLayout
  1
レイアウト1
 70
     0
 71
     1
 10
0.0
 20
0.0
 11
420.0
 21
297.0
 12
0.0
 22
0.0
 32
0.0
 14
1.000000000000000E+20
 24
1.000000000000000E+20
 34
1.000000000000000E+20
 15
-1.000000000000000E+20
 25
-1.000000000000000E+20
 35
-1.000000000000000E+20
146
0.0
 13
0.0
 23
0.0
 33
0.0
 16
1.0
 26
0.0
 36
0.0
 17
0.0
 27
1.0
 37
0.0
 76
     0
330
9C48
  0
MATERIAL
  5
9F85
102
{ACAD_XDICTIONARY
360
9F86
102
}
102
{ACAD_REACTORS
330
9F7C
102
}
330
9F7C
100
AcDbMaterial
  1
ByBlock
 72
     0
 43
0.0208333333333333
 43
0.0
 43
0.0
 43
0.0
 43
0.0
 43
0.0208333333333333
 43
0.0
 43
0.0
 43
0.0
 43
0.0
 43
1.0
 43
0.0
 43
0.0
 43
0.0
 43
0.0
 43
1.0
 77
     0
 47
0.0208333333333333
 47
0.0
 47
0.0
 47
0.0
 47
0.0
 47
0.0208333333333333
 47
0.0
 47
0.0
 47
0.0
 47
0.0
 47
1.0
 47
0.0
 47
0.0
 47
0.0
 47
0.0
 47
1.0
171
     0
 49
0.0208333333333333
 49
0.0
 49
0.0
 49
0.0
 49
0.0
 49
0.0208333333333333
 49
0.0
 49
0.0
 49
0.0
 49
0.0
 49
1.0
 49
0.0
 49
0.0
 49
0.0
 49
0.0
 49
1.0
175
     0
142
0.0208333333333333
142
0.0
142
0.0
142
0.0
142
0.0
142
0.0208333333333333
142
0.0
142
0.0
142
0.0
142
0.0
142
1.0
142
0.0
142
0.0
142
0.0
142
0.0
142
1.0
179
     0
144
0.0208333333333333
144
0.0
144
0.0
144
0.0
144
0.0
144
0.0208333333333333
144
0.0
144
0.0
144
0.0
144
0.0
144
1.0
144
0.0
144
0.0
144
0.0
144
0.0
144
1.0
147
0.0208333333333333
147
0.0
147
0.0
147
0.0
147
0.0
147
0.0208333333333333
147
0.0
147
0.0
147
0.0
147
0.0
147
1.0
147
0.0
147
0.0
147
0.0
147
0.0
147
1.0
  0
MATERIAL
  5
9F7D
102
{ACAD_XDICTIONARY
360
9F7E
102
}
102
{ACAD_REACTORS
330
9F7C
102
}
330
9F7C
100
AcDbMaterial
  1
ByLayer
 72
     0
 43
0.0208333333333333
 43
0.0
 43
0.0
 43
0.0
 43
0.0
 43
0.0208333333333333
 43
0.0
 43
0.0
 43
0.0
 43
0.0
 43
1.0
 43
0.0
 43
0.0
 43
0.0
 43
0.0
 43
1.0
 77
     0
 47
0.0208333333333333
 47
0.0
 47
0.0
 47
0.0
 47
0.0
 47
0.0208333333333333
 47
0.0
 47
0.0
 47
0.0
 47
0.0
 47
1.0
 47
0.0
 47
0.0
 47
0.0
 47
0.0
 47
1.0
171
     0
 49
0.0208333333333333
 49
0.0
 49
0.0
 49
0.0
 49
0.0
 49
0.0208333333333333
 49
0.0
 49
0.0
 49
0.0
 49
0.0
 49
1.0
 49
0.0
 49
0.0
 49
0.0
 49
0.0
 49
1.0
175
     0
142
0.0208333333333333
142
0.0
142
0.0
142
0.0
142
0.0
142
0.0208333333333333
142
0.0
142
0.0
142
0.0
142
0.0
142
1.0
142
0.0
142
0.0
142
0.0
142
0.0
142
1.0
179
     0
144
0.0208333333333333
144
0.0
144
0.0
144
0.0
144
0.0
144
0.0208333333333333
144
0.0
144
0.0
144
0.0
144
0.0
144
1.0
144
0.0
144
0.0
144
0.0
144
0.0
144
1.0
147
0.0208333333333333
147
0.0
147
0.0
147
0.0
147
0.0
147
0.0208333333333333
147
0.0
147
0.0
147
0.0
147
0.0
147
1.0
147
0.0
147
0.0
147
0.0
147
0.0
147
1.0
  0
MATERIAL
  5
9F8D
102
{ACAD_XDICTIONARY
360
9F8E
102
}
102
{ACAD_REACTORS
330
9F7C
102
}
330
9F7C
100
AcDbMaterial
  1
Global
 72
     0
 43
0.0208333333333333
 43
0.0
 43
0.0
 43
0.0
 43
0.0
 43
0.0208333333333333
 43
0.0
 43
0.0
 43
0.0
 43
0.0
 43
1.0
 43
0.0
 43
0.0
 43
0.0
 43
0.0
 43
1.0
 77
     0
 47
0.0208333333333333
 47
0.0
 47
0.0
 47
0.0
 47
0.0
 47
0.0208333333333333
 47
0.0
 47
0.0
 47
0.0
 47
0.0
 47
1.0
 47
0.0
 47
0.0
 47
0.0
 47
0.0
 47
1.0
171
     0
 49
0.0208333333333333
 49
0.0
 49
0.0
 49
0.0
 49
0.0
 49
0.0208333333333333
 49
0.0
 49
0.0
 49
0.0
 49
0.0
 49
1.0
 49
0.0
 49
0.0
 49
0.0
 49
0.0
 49
1.0
175
     0
142
0.0208333333333333
142
0.0
142
0.0
142
0.0
142
0.0
142
0.0208333333333333
142
0.0
142
0.0
142
0.0
142
0.0
142
1.0
142
0.0
142
0.0
142
0.0
142
0.0
142
1.0
179
     0
144
0.0208333333333333
144
0.0
144
0.0
144
0.0
144
0.0
144
0.0208333333333333
144
0.0
144
0.0
144
0.0
144
0.0
144
1.0
144
0.0
144
0.0
144
0.0
144
0.0
144
1.0
147
0.0208333333333333
147
0.0
147
0.0
147
0.0
147
0.0
147
0.0208333333333333
147
0.0
147
0.0
147
0.0
147
0.0
147
1.0
147
0.0
147
0.0
147
0.0
147
0.0
147
1.0
  0
MLEADERSTYLE
  5
9FC4
102
{ACAD_REACTORS
330
9FC3
102
}
330
9FC3
100
AcDbMLeaderStyle
170
     2
171
     1
172
     0
 90
        2
 40
0.0
 41
0.0
173
     1
 91
-1056964608
340
9C41
 92
       -2
290
     1
 42
0.09
291
     1
 43
0.36
  3
Standard
 44
0.18
300

342
9C3F
174
     1
178
     6
175
     1
176
     0
 93
-1056964608
 45
0.18
292
     0
297
     0
 46
0.18
 94
-1056964608
 47
1.0
 49
1.0
140
1.0
293
     1
141
0.0
294
     1
177
     0
142
1.0
295
     0
296
     0
143
0.125
1001
ACAD_MLEADERVER
1070
     2
  0
MLINESTYLE
  5
9C45
102
{ACAD_REACTORS
330
9C44
102
}
330
9C44
100
AcDbMlineStyle
  2
STANDARD
 70
     0
  3

 62
   256
 51
90.0
 52
90.0
 71
     2
 49
0.5
 62
   256
  6
BYLAYER
 49
-0.5
 62
   256
  6
BYLAYER
  0
ACDBPLACEHOLDER
  5
9F7B
102
{ACAD_REACTORS
330
9F7A
102
}
330
9F7A
  0
SCALE
  5
9FB2
102
{ACAD_REACTORS
330
9FB1
102
}
330
9FB1
100
AcDbScale
 70
     0
300
1:1
140
1.0
141
1.0
290
     1
  0
SCALE
  5
9FB3
102
{ACAD_REACTORS
330
9FB1
102
}
330
9FB1
100
AcDbScale
 70
     0
300
1/128" = 1'-0"
140
0.0078125
141
12.0
290
     0
  0
SCALE
  5
9FB4
102
{ACAD_REACTORS
330
9FB1
102
}
330
9FB1
100
AcDbScale
 70
     0
300
1/64" = 1'-0"
140
0.015625
141
12.0
290
     0
  0
SCALE
  5
9FB5
102
{ACAD_REACTORS
330
9FB1
102
}
330
9FB1
100
AcDbScale
 70
     0
300
1/32" = 1'-0"
140
0.03125
141
12.0
290
     0
  0
SCALE
  5
9FB6
102
{ACAD_REACTORS
330
9FB1
102
}
330
9FB1
100
AcDbScale
 70
     0
300
1/16" = 1'-0"
140
0.0625
141
12.0
290
     0
  0
SCALE
  5
9FB7
102
{ACAD_REACTORS
330
9FB1
102
}
330
9FB1
100
AcDbScale
 70
     0
300
3/32" = 1'-0"
140
0.09375
141
12.0
290
     0
  0
SCALE
  5
9FB8
102
{ACAD_REACTORS
330
9FB1
102
}
330
9FB1
100
AcDbScale
 70
     0
300
1/8" = 1'-0"
140
0.125
141
12.0
290
     0
  0
SCALE
  5
9FB9
102
{ACAD_REACTORS
330
9FB1
102
}
330
9FB1
100
AcDbScale
 70
     0
300
3/16" = 1'-0"
140
0.1875
141
12.0
290
     0
  0
SCALE
  5
9FBA
102
{ACAD_REACTORS
330
9FB1
102
}
330
9FB1
100
AcDbScale
 70
     0
300
1/4" = 1'-0"
140
0.25
141
12.0
290
     0
  0
SCALE
  5
9FBB
102
{ACAD_REACTORS
330
9FB1
102
}
330
9FB1
100
AcDbScale
 70
     0
300
3/8" = 1'-0"
140
0.375
141
12.0
290
     0
  0
SCALE
  5
9FBC
102
{ACAD_REACTORS
330
9FB1
102
}
330
9FB1
100
AcDbScale
 70
     0
300
1/2" = 1'-0"
140
0.5
141
12.0
290
     0
  0
SCALE
  5
9FBD
102
{ACAD_REACTORS
330
9FB1
102
}
330
9FB1
100
AcDbScale
 70
     0
300
3/4" = 1'-0"
140
0.75
141
12.0
290
     0
  0
SCALE
  5
9FBE
102
{ACAD_REACTORS
330
9FB1
102
}
330
9FB1
100
AcDbScale
 70
     0
300
1" = 1'-0"
140
1.0
141
12.0
290
     0
  0
SCALE
  5
9FBF
102
{ACAD_REACTORS
330
9FB1
102
}
330
9FB1
100
AcDbScale
 70
     0
300
1-1/2" = 1'-0"
140
1.5
141
12.0
290
     0
  0
SCALE
  5
9FC0
102
{ACAD_REACTORS
330
9FB1
102
}
330
9FB1
100
AcDbScale
 70
     0
300
3" = 1'-0"
140
3.0
141
12.0
290
     0
  0
SCALE
  5
9FC1
102
{ACAD_REACTORS
330
9FB1
102
}
330
9FB1
100
AcDbScale
 70
     0
300
6" = 1'-0"
140
6.0
141
12.0
290
     0
  0
SCALE
  5
9FC2
102
{ACAD_REACTORS
330
9FB1
102
}
330
9FB1
100
AcDbScale
 70
     0
300
1'-0" = 1'-0"
140
12.0
141
12.0
290
     0
  0
ACDBSECTIONVIEWSTYLE
  5
9FC6
102
{ACAD_XDICTIONARY
360
A021
102
}
102
{ACAD_REACTORS
330
9FC5
102
}
330
9FC5
100
AcDbModelDocViewStyle
 70
     0
  3
Imperial24
290
     0
100
AcDbSectionViewStyle
 70
     0
 71
     0
 90
       78
 71
     1
340
9C3F
 40
0.24
340
0
340
0
 40
0.24
300
I, O, Q, S, X, Z
 40
0.48
 90
        3
 40
0.18
 90
        1
 71
     2
340
9C43
 90
       25
340
9C43
 90
       50
 40
0.24
 40
0.0
 40
0.24
 71
     3
340
9C3F
 40
0.24
 90
        1
 40
0.75
 90
        1
300
%<\AcVar ViewType \f "%tc1">% %<\AcVar ViewSectionStartId>%-%<\AcVar ViewSectionEndId>%\PSCALE %<\AcVar ViewScale \f "%sn">%
 71
     4
300
ANSI31
 40
1.0
 90
        0
290
     0
290
     0
 90
        6
 40
0.0
 40
1.570796326794896
 40
0.2617993877991494
 40
1.308996938995747
 40
-0.2617993877991494
 40
1.832595714594046
  0
TABLESTYLE
  5
9FB0
102
{ACAD_XDICTIONARY
360
9FE8
102
}
102
{ACAD_REACTORS
330
9FAF
102
}
330
9FAF
100
AcDbTableStyle
  3
Standard
 70
     0
 71
     0
 40
0.06
 41
0.06
280
     0
281
     0
  7
STANDARD
140
0.18
170
     2
 62
     0
 63
     7
283
     0
274
    -2
284
     1
 64
     0
275
    -2
285
     1
 65
     0
276
    -2
286
     1
 66
     0
277
    -2
287
     1
 67
     0
278
    -2
288
     1
 68
     0
279
    -2
289
     1
 69
     0
  7
STANDARD
140
0.25
170
     5
 62
     0
 63
     7
283
     0
274
    -2
284
     1
 64
     0
275
    -2
285
     1
 65
     0
276
    -2
286
     1
 66
     0
277
    -2
287
     1
 67
     0
278
    -2
288
     1
 68
     0
279
    -2
289
     1
 69
     0
  7
STANDARD
140
0.18
170
     5
 62
     0
 63
     7
283
     0
274
    -2
284
     1
 64
     0
275
    -2
285
     1
 65
     0
276
    -2
286
     1
 66
     0
277
    -2
287
     1
 67
     0
278
    -2
288
     1
 68
     0
279
    -2
289
     1
 69
     0
  0
VISUALSTYLE
  5
9F9B
102
{ACAD_XDICTIONARY
360
9FF9
102
}
102
{ACAD_REACTORS
330
9F95
102
}
330
9F95
100
AcDbVisualStyle
  2
2dWireframe
 70
     4
 71
     0
 72
     2
 73
     0
 90
        0
 40
-0.6
 41
-30.0
 62
     5
 63
     7
 74
     1
 91
        4
 64
     7
 65
   257
 75
     1
175
     1
 42
1.0
 92
        0
 66
   257
 43
1.0
 76
     1
 77
     6
 78
     2
 67
     7
 79
     5
170
     0
171
     0
290
     0
174
     0
 93
        1
 44
0.0
173
     0
291
     0
 45
0.0
1001
ACAD
1000
AcDbSavedByObjectVersion
1070
     0
  0
VISUALSTYLE
  5
9F9A
102
{ACAD_XDICTIONARY
360
9FF7
102
}
102
{ACAD_REACTORS
330
9F95
102
}
330
9F95
100
AcDbVisualStyle
  2
Basic
 70
     7
 71
     1
 72
     0
 73
     1
 90
        0
 40
-0.6
 41
-30.0
 62
     5
 63
     7
 74
     0
 91
        4
 64
     7
 65
   257
 75
     1
175
     1
 42
1.0
 92
        8
 66
     7
 43
1.0
 76
     1
 77
     6
 78
     2
 67
     7
 79
     5
170
     0
171
     0
290
     0
174
     0
 93
        1
 44
0.0
173
     0
291
     1
 45
0.0
1001
ACAD
1000
AcDbSavedByObjectVersion
1070
     0
  0
VISUALSTYLE
  5
9FA1
102
{ACAD_XDICTIONARY
360
A005
102
}
102
{ACAD_REACTORS
330
9F95
102
}
330
9F95
100
AcDbVisualStyle
  2
Brighten
 70
    12
 71
     2
 72
     2
 73
     0
 90
        0
 40
-0.6
 41
-30.0
 62
     5
 63
     7
 74
     1
 91
        4
 64
     7
 65
   257
 75
     1
175
     1
 42
1.0
 92
        8
 66
     7
 43
1.0
 76
     1
 77
     6
 78
     2
 67
     7
 79
     5
170
     0
171
     0
290
     0
174
     0
 93
        1
 44
50.0
173
     0
291
     1
 45
0.0
1001
ACAD
1000
AcDbSavedByObjectVersion
1070
     0
  0
VISUALSTYLE
  5
9FA5
102
{ACAD_XDICTIONARY
360
A00D
102
}
102
{ACAD_REACTORS
330
9F95
102
}
330
9F95
100
AcDbVisualStyle
  2
ColorChange
 70
    16
 71
     2
 72
     2
 73
     3
 90
        0
 40
-0.6
 41
-30.0
 62
     5
 63
     8
 74
     1
 91
        4
 64
     7
 65
   257
 75
     1
175
     1
 42
1.0
 92
        8
 66
     8
 43
1.0
 76
     1
 77
     6
 78
     2
 67
     7
 79
     5
170
     0
171
     0
290
     0
174
     0
 93
        1
 44
0.0
173
     0
291
     1
 45
0.0
1001
ACAD
1000
AcDbSavedByObjectVersion
1070
     0
  0
VISUALSTYLE
  5
9F9E
102
{ACAD_XDICTIONARY
360
9FFF
102
}
102
{ACAD_REACTORS
330
9F95
102
}
330
9F95
100
AcDbVisualStyle
  2
Conceptual
 70
     9
 71
     3
 72
     2
 73
     0
 90
        0
 40
-0.6
 41
-30.0
 62
     5
 63
     7
 74
     2
 91
        2
 64
     7
 65
   257
 75
     1
175
     1
 42
179.0
 92
        8
 66
     7
 43
1.0
 76
     1
 77
     6
 78
     2
 67
     7
 79
     3
170
     0
171
     0
290
     0
174
     0
 93
        1
 44
0.0
173
     0
291
     0
 45
0.0
1001
ACAD
1000
AcDbSavedByObjectVersion
1070
     0
  0
VISUALSTYLE
  5
9FA0
102
{ACAD_XDICTIONARY
360
A003
102
}
102
{ACAD_REACTORS
330
9F95
102
}
330
9F95
100
AcDbVisualStyle
  2
Dim
 70
    11
 71
     2
 72
     2
 73
     0
 90
        0
 40
-0.6
 41
-30.0
 62
     5
 63
     7
 74
     1
 91
        4
 64
     7
 65
   257
 75
     1
175
     1
 42
1.0
 92
        8
 66
     7
 43
1.0
 76
     1
 77
     6
 78
     2
 67
     7
 79
     5
170
     0
171
     0
290
     0
174
     0
 93
        1
 44
-50.0
173
     0
291
     1
 45
0.0
1001
ACAD
1000
AcDbSavedByObjectVersion
1070
     0
  0
VISUALSTYLE
  5
9FAD
102
{ACAD_XDICTIONARY
360
A01D
102
}
102
{ACAD_REACTORS
330
9F95
102
}
330
9F95
100
AcDbVisualStyle
  2
EdgeColorOff
 70
    22
 71
     2
 72
     2
 73
     0
 90
        0
 40
-0.6
 41
-30.0
 62
     5
 63
     7
 74
     1
 91
        4
 64
     7
 65
   257
 75
     1
175
     1
 42
1.0
 92
        8
 66
     7
 43
1.0
 76
     1
 77
     6
 78
     2
 67
     7
 79
     5
170
     0
171
     0
290
     0
174
     0
 93
        1
 44
0.0
173
     0
291
     1
 45
0.0
1001
ACAD
1000
AcDbSavedByObjectVersion
1070
     0
  0
VISUALSTYLE
  5
9FA4
102
{ACAD_XDICTIONARY
360
A00B
102
}
102
{ACAD_REACTORS
330
9F95
102
}
330
9F95
100
AcDbVisualStyle
  2
Facepattern
 70
    15
 71
     2
 72
     2
 73
     0
 90
        0
 40
-0.6
 41
-30.0
 62
     5
 63
     7
 74
     1
 91
        4
 64
     7
 65
   257
 75
     1
175
     1
 42
1.0
 92
        8
 66
     7
 43
1.0
 76
     1
 77
     6
 78
     2
 67
     7
 79
     5
170
     0
171
     0
290
     0
174
     0
 93
        1
 44
0.0
173
     0
291
     1
 45
0.0
1001
ACAD
1000
AcDbSavedByObjectVersion
1070
     0
  0
VISUALSTYLE
  5
9F96
102
{ACAD_XDICTIONARY
360
9FEF
102
}
102
{ACAD_REACTORS
330
9F95
102
}
330
9F95
100
AcDbVisualStyle
  2
Flat
 70
     0
 71
     2
 72
     1
 73
     1
 90
        2
 40
-0.6
 41
30.0
 62
     5
 63
     7
 74
     0
 91
        0
 64
     7
 65
   257
 75
     1
175
     1
 42
1.0
 92
        8
 66
     7
 43
1.0
 76
     1
 77
     6
 78
     2
 67
     7
 79
     5
170
     0
171
     0
290
     0
174
     0
 93
       13
 44
0.0
173
     0
291
     1
 45
0.0
1001
ACAD
1000
AcDbSavedByObjectVersion
1070
     0
  0
VISUALSTYLE
  5
9F97
102
{ACAD_XDICTIONARY
360
9FF1
102
}
102
{ACAD_REACTORS
330
9F95
102
}
330
9F95
100
AcDbVisualStyle
  2
FlatWithEdges
 70
     1
 71
     2
 72
     1
 73
     1
 90
        2
 40
-0.6
 41
30.0
 62
     5
 63
     7
 74
     1
 91
        0
 64
     7
 65
   257
 75
     1
175
     1
 42
1.0
 92
        0
 66
   257
 43
1.0
 76
     1
 77
     6
 78
     2
 67
     7
 79
     5
170
     0
171
     0
290
     0
174
     0
 93
       13
 44
0.0
173
     0
291
     1
 45
0.0
1001
ACAD
1000
AcDbSavedByObjectVersion
1070
     0
  0
VISUALSTYLE
  5
9F98
102
{ACAD_XDICTIONARY
360
9FF3
102
}
102
{ACAD_REACTORS
330
9F95
102
}
330
9F95
100
AcDbVisualStyle
  2
Gouraud
 70
     2
 71
     2
 72
     2
 73
     1
 90
        2
 40
-0.6
 41
30.0
 62
     5
 63
     7
 74
     0
 91
        0
 64
     7
 65
   257
 75
     1
175
     1
 42
1.0
 92
        0
 66
     7
 43
1.0
 76
     1
 77
     6
 78
     2
 67
     7
 79
     5
170
     0
171
     0
290
     0
174
     0
 93
       13
 44
0.0
173
     0
291
     1
 45
0.0
1001
ACAD
1000
AcDbSavedByObjectVersion
1070
     0
  0
VISUALSTYLE
  5
9F99
102
{ACAD_XDICTIONARY
360
9FF5
102
}
102
{ACAD_REACTORS
330
9F95
102
}
330
9F95
100
AcDbVisualStyle
  2
GouraudWithEdges
 70
     3
 71
     2
 72
     2
 73
     1
 90
        2
 40
-0.6
 41
30.0
 62
     5
 63
     7
 74
     1
 91
        0
 64
     7
 65
   257
 75
     1
175
     1
 42
1.0
 92
        0
 66
   257
 43
1.0
 76
     1
 77
     6
 78
     2
 67
     7
 79
     5
170
     0
171
     0
290
     0
174
     0
 93
       13
 44
0.0
173
     0
291
     1
 45
0.0
1001
ACAD
1000
AcDbSavedByObjectVersion
1070
     0
  0
VISUALSTYLE
  5
9F9D
102
{ACAD_XDICTIONARY
360
9FFD
102
}
102
{ACAD_REACTORS
330
9F95
102
}
330
9F95
100
AcDbVisualStyle
  2
Hidden
 70
     6
 71
     1
 72
     2
 73
     2
 90
        0
 40
-0.6
 41
-30.0
 62
     5
 63
     7
 74
     2
 91
        2
 64
     7
 65
   257
 75
     2
175
     1
 42
40.0
 92
        0
 66
   257
 43
1.0
 76
     1
 77
     6
 78
     2
 67
     7
 79
     3
170
     0
171
     0
290
     0
174
     0
 93
        1
 44
0.0
173
     0
291
     0
 45
0.0
1001
ACAD
1000
AcDbSavedByObjectVersion
1070
     0
  0
VISUALSTYLE
  5
9FAB
102
{ACAD_XDICTIONARY
360
A019
102
}
102
{ACAD_REACTORS
330
9F95
102
}
330
9F95
100
AcDbVisualStyle
  2
JitterOff
 70
    20
 71
     2
 72
     2
 73
     0
 90
        0
 40
-0.6
 41
-30.0
 62
     5
 63
     7
 74
     1
 91
        4
 64
     7
 65
   257
 75
     1
175
     1
 42
1.0
 92
       10
 66
     7
 43
1.0
 76
     1
 77
     6
 78
     2
 67
     7
 79
     5
170
     0
171
     0
290
     0
174
     0
 93
        1
 44
0.0
173
     0
291
     1
 45
0.0
1001
ACAD
1000
AcDbSavedByObjectVersion
1070
     0
  0
VISUALSTYLE
  5
9FA3
102
{ACAD_XDICTIONARY
360
A009
102
}
102
{ACAD_REACTORS
330
9F95
102
}
330
9F95
100
AcDbVisualStyle
  2
Linepattern
 70
    14
 71
     2
 72
     2
 73
     0
 90
        0
 40
-0.6
 41
-30.0
 62
     5
 63
     7
 74
     1
 91
        4
 64
     7
 65
   257
 75
     7
175
     7
 42
1.0
 92
        8
 66
     7
 43
1.0
 76
     1
 77
     6
 78
     2
 67
     7
 79
     5
170
     0
171
     0
290
     0
174
     0
 93
        1
 44
0.0
173
     0
291
     1
 45
0.0
1001
ACAD
1000
AcDbSavedByObjectVersion
1070
     0
  0
VISUALSTYLE
  5
9FAC
102
{ACAD_XDICTIONARY
360
A01B
102
}
102
{ACAD_REACTORS
330
9F95
102
}
330
9F95
100
AcDbVisualStyle
  2
OverhangOff
 70
    21
 71
     2
 72
     2
 73
     0
 90
        0
 40
-0.6
 41
-30.0
 62
     5
 63
     7
 74
     1
 91
        4
 64
     7
 65
   257
 75
     1
175
     1
 42
1.0
 92
        9
 66
     7
 43
1.0
 76
     1
 77
     6
 78
     2
 67
     7
 79
     5
170
     0
171
     0
290
     0
174
     0
 93
        1
 44
0.0
173
     0
291
     1
 45
0.0
1001
ACAD
1000
AcDbSavedByObjectVersion
1070
     0
  0
VISUALSTYLE
  5
9F9F
102
{ACAD_XDICTIONARY
360
A001
102
}
102
{ACAD_REACTORS
330
9F95
102
}
330
9F95
100
AcDbVisualStyle
  2
Realistic
 70
     8
 71
     2
 72
     3
 73
     0
 90
        2
 40
-0.6
 41
30.0
 62
     5
 63
     7
 74
     0
 91
        0
 64
     7
 65
   257
 75
     1
175
     1
 42
1.0
 92
        8
 66
   257
 43
1.0
 76
     1
 77
     6
 78
     2
 67
     7
 79
     3
170
     0
171
     0
290
     0
174
     0
 93
       13
 44
0.0
173
     0
291
     0
 45
0.0
1001
ACAD
1000
AcDbSavedByObjectVersion
1070
     0
  0
VISUALSTYLE
  5
9FAA
102
{ACAD_XDICTIONARY
360
A017
102
}
102
{ACAD_REACTORS
330
9F95
102
}
330
9F95
100
AcDbVisualStyle
  2
Shaded
 70
    27
 71
     2
 72
     2
 73
     1
 90
        2
 40
-0.6
 41
30.0
 62
     5
 63
     7
 74
     0
 91
        4
 64
     7
 65
   257
 75
     1
175
     1
 42
1.0
 92
        8
 66
   257
 43
1.0
 76
     1
 77
     6
 78
     2
 67
     8
 79
     3
170
     0
171
     0
290
     0
174
     0
 93
        5
 44
0.0
173
     0
291
     0
 45
0.0
1001
ACAD
1000
AcDbSavedByObjectVersion
1070
     0
  0
VISUALSTYLE
  5
9FA9
102
{ACAD_XDICTIONARY
360
A015
102
}
102
{ACAD_REACTORS
330
9F95
102
}
330
9F95
100
AcDbVisualStyle
  2
Shaded with edges
 70
    26
 71
     2
 72
     2
 73
     1
 90
        2
 40
-0.6
 41
30.0
 62
     5
 63
     7
 74
     1
 91
       10
 64
     7
 65
   257
 75
     2
175
     1
 42
1.0
 92
        8
 66
   257
 43
1.0
 76
     1
 77
     6
 78
     2
 67
     7
 79
     3
170
     0
171
     0
290
     0
174
     0
 93
        5
 44
0.0
173
     0
291
     0
 45
0.0
1001
ACAD
1000
AcDbSavedByObjectVersion
1070
     0
  0
VISUALSTYLE
  5
9FA6
102
{ACAD_XDICTIONARY
360
A00F
102
}
102
{ACAD_REACTORS
330
9F95
102
}
330
9F95
100
AcDbVisualStyle
  2
Shades of Gray
 70
    23
 71
     2
 72
     2
 73
     3
 90
        0
 40
-0.6
 41
-30.0
 62
     5
 63
     7
 74
     2
 91
        2
 64
     7
 65
     7
 75
     1
175
     1
 42
40.0
 92
        8
 66
     7
 43
1.0
 76
     1
 77
     6
 78
     2
 67
     7
 79
     3
170
     0
171
     0
290
     0
174
     0
 93
        1
 44
0.0
173
     0
291
     0
 45
0.0
1001
ACAD
1000
AcDbSavedByObjectVersion
1070
     0
  0
VISUALSTYLE
  5
9FA7
102
{ACAD_XDICTIONARY
360
A011
102
}
102
{ACAD_REACTORS
330
9F95
102
}
330
9F95
100
AcDbVisualStyle
  2
Sketchy
 70
    24
 71
     1
 72
     2
 73
     2
 90
        0
 40
-0.6
 41
-30.0
 62
     5
 63
     7
 74
     2
 91
        2
 64
     7
 65
     7
 75
     1
175
     1
 42
40.0
 92
       11
 66
     7
 43
1.0
 76
     1
 77
     6
 78
     2
 67
     7
 79
     6
170
     0
171
     0
290
     0
174
     0
 93
        1
 44
0.0
173
     0
291
     0
 45
0.0
1001
ACAD
1000
AcDbSavedByObjectVersion
1070
     0
  0
VISUALSTYLE
  5
9FA2
102
{ACAD_XDICTIONARY
360
A007
102
}
102
{ACAD_REACTORS
330
9F95
102
}
330
9F95
100
AcDbVisualStyle
  2
Thicken
 70
    13
 71
     2
 72
     2
 73
     0
 90
        0
 40
-0.6
 41
-30.0
 62
     5
 63
     7
 74
     1
 91
        4
 64
     7
 65
   257
 75
     1
175
     1
 42
1.0
 92
       12
 66
     7
 43
1.0
 76
     1
 77
     6
 78
     2
 67
     7
 79
     5
170
     0
171
     0
290
     0
174
     0
 93
        1
 44
0.0
173
     0
291
     1
 45
0.0
1001
ACAD
1000
AcDbSavedByObjectVersion
1070
     0
  0
VISUALSTYLE
  5
9F9C
102
{ACAD_XDICTIONARY
360
9FFB
102
}
102
{ACAD_REACTORS
330
9F95
102
}
330
9F95
100
AcDbVisualStyle
  2
Wireframe
 70
     5
 71
     0
 72
     2
 73
     0
 90
        0
 40
-0.6
 41
-30.0
 62
     5
 63
     7
 74
     1
 91
        4
 64
     7
 65
   257
 75
     1
175
     1
 42
1.0
 92
        0
 66
   257
 43
1.0
 76
     1
 77
     6
 78
     2
 67
     7
 79
     3
170
     0
171
     0
290
     0
174
     0
 93
        1
 44
0.0
173
     0
291
     0
 45
0.0
1001
ACAD
1000
AcDbSavedByObjectVersion
1070
     0
  0
VISUALSTYLE
  5
9FA8
102
{ACAD_XDICTIONARY
360
A013
102
}
102
{ACAD_REACTORS
330
9F95
102
}
330
9F95
100
AcDbVisualStyle
  2
X-Ray
 70
    25
 71
     2
 72
     2
 73
     1
 90
        1
 40
0.5
 41
-30.0
 62
     5
 63
     7
 74
     1
 91
        0
 64
     7
 65
   257
 75
     1
175
     1
 42
1.0
 92
        8
 66
     7
 43
1.0
 76
     1
 77
     6
 78
     2
 67
     7
 79
     3
170
     0
171
     0
290
     0
174
     0
 93
       13
 44
0.0
173
     0
291
     0
 45
0.0
1001
ACAD
1000
AcDbSavedByObjectVersion
1070
     0
  0
DICTIONARYVAR
  5
9FE2
102
{ACAD_REACTORS
330
9FDD
102
}
330
9FDD
100
DictionaryVariables
280
     0
  1
1:1
  0
DICTIONARYVAR
  5
9FDF
102
{ACAD_REACTORS
330
9FDD
102
}
330
9FDD
100
DictionaryVariables
280
     0
  1
STANDARD
  0
DICTIONARYVAR
  5
9FDE
102
{ACAD_REACTORS
330
9FDD
102
}
330
9FDD
100
DictionaryVariables
280
     0
  1
STANDARD
  0
DICTIONARYVAR
  5
9FE0
102
{ACAD_REACTORS
330
9FDD
102
}
330
9FDD
100
DictionaryVariables
280
     0
  1
Imperial24
  0
DICTIONARYVAR
  5
9FE1
102
{ACAD_REACTORS
330
9FDD
102
}
330
9FDD
100
DictionaryVariables
280
     0
  1
Imperial24
  0
DICTIONARYVAR
  5
9FE5
102
{ACAD_REACTORS
330
9FDD
102
}
330
9FDD
100
DictionaryVariables
280
     0
  1
1
  0
DICTIONARYVAR
  5
9FE4
102
{ACAD_REACTORS
330
9FDD
102
}
330
9FDD
100
DictionaryVariables
280
     0
  1
0
  0
DICTIONARYVAR
  5
9FE3
102
{ACAD_REACTORS
330
9FDD
102
}
330
9FDD
100
DictionaryVariables
280
     0
  1
127
  0
DICTIONARYVAR
  5
9FE6
102
{ACAD_REACTORS
330
9FDD
102
}
330
9FDD
100
DictionaryVariables
280
     0
  1
2
  0
DICTIONARY
  5
A023
330
9FC8
100
AcDbDictionary
280
     1
281
     1
  3
ACAD_XREC_ROUNDTRIP
360
A024
  0
DICTIONARY
  5
A025
330
9FC9
100
AcDbDictionary
280
     1
281
     1
  3
ACAD_XREC_ROUNDTRIP
360
A026
  0
DICTIONARY
  5
A027
330
9FCA
100
AcDbDictionary
280
     1
281
     1
  3
ACAD_XREC_ROUNDTRIP
360
A028
  0
DICTIONARY
  5
9F86
330
9F85
100
AcDbDictionary
280
     1
281
     1
  3
ACAD_XREC_ROUNDTRIP
360
9FED
  3
BUMPTILE
360
9F88
  3
DIFFUSETILE
360
9F87
  3
OPACITYTILE
360
9F8B
  3
REFLECTIONTILE
360
9F8A
  3
REFRACTIONTILE
360
9F8C
  3
SPECULARTILE
360
9F89
  0
DICTIONARY
  5
9F7E
330
9F7D
100
AcDbDictionary
280
     1
281
     1
  3
ACAD_XREC_ROUNDTRIP
360
9FEC
  3
BUMPTILE
360
9F80
  3
DIFFUSETILE
360
9F7F
  3
OPACITYTILE
360
9F83
  3
REFLECTIONTILE
360
9F82
  3
REFRACTIONTILE
360
9F84
  3
SPECULARTILE
360
9F81
  0
DICTIONARY
  5
9F8E
330
9F8D
100
AcDbDictionary
280
     1
281
     1
  3
ACAD_XREC_ROUNDTRIP
360
9FEE
  3
BUMPTILE
360
9F90
  3
DIFFUSETILE
360
9F8F
  3
OPACITYTILE
360
9F93
  3
REFLECTIONTILE
360
9F92
  3
REFRACTIONTILE
360
9F94
  3
SPECULARTILE
360
9F91
  0
DICTIONARY
  5
A021
330
9FC6
100
AcDbDictionary
280
     1
281
     1
  3
ACAD_XREC_ROUNDTRIP
360
A022
  0
DICTIONARY
  5
9FE8
330
9FB0
100
AcDbDictionary
280
     1
281
     1
  3
ACAD_ROUNDTRIP_2008_TABLESTYLE_CELLSTYLEMAP
360
9FE9
  3
ACAD_XREC_ROUNDTRIP
360
A01F
  0
DICTIONARY
  5
9FF9
330
9F9B
100
AcDbDictionary
280
     1
281
     1
  3
ACAD_XREC_ROUNDTRIP
360
9FFA
  0
DICTIONARY
  5
9FF7
330
9F9A
100
AcDbDictionary
280
     1
281
     1
  3
ACAD_XREC_ROUNDTRIP
360
9FF8
  0
DICTIONARY
  5
A005
330
9FA1
100
AcDbDictionary
280
     1
281
     1
  3
ACAD_XREC_ROUNDTRIP
360
A006
  0
DICTIONARY
  5
A00D
330
9FA5
100
AcDbDictionary
280
     1
281
     1
  3
ACAD_XREC_ROUNDTRIP
360
A00E
  0
DICTIONARY
  5
9FFF
330
9F9E
100
AcDbDictionary
280
     1
281
     1
  3
ACAD_XREC_ROUNDTRIP
360
A000
  0
DICTIONARY
  5
A003
330
9FA0
100
AcDbDictionary
280
     1
281
     1
  3
ACAD_XREC_ROUNDTRIP
360
A004
  0
DICTIONARY
  5
A01D
330
9FAD
100
AcDbDictionary
280
     1
281
     1
  3
ACAD_XREC_ROUNDTRIP
360
A01E
  0
DICTIONARY
  5
A00B
330
9FA4
100
AcDbDictionary
280
     1
281
     1
  3
ACAD_XREC_ROUNDTRIP
360
A00C
  0
DICTIONARY
  5
9FEF
330
9F96
100
AcDbDictionary
280
     1
281
     1
  3
ACAD_XREC_ROUNDTRIP
360
9FF0
  0
DICTIONARY
  5
9FF1
330
9F97
100
AcDbDictionary
280
     1
281
     1
  3
ACAD_XREC_ROUNDTRIP
360
9FF2
  0
DICTIONARY
  5
9FF3
330
9F98
100
AcDbDictionary
280
     1
281
     1
  3
ACAD_XREC_ROUNDTRIP
360
9FF4
  0
DICTIONARY
  5
9FF5
330
9F99
100
AcDbDictionary
280
     1
281
     1
  3
ACAD_XREC_ROUNDTRIP
360
9FF6
  0
DICTIONARY
  5
9FFD
330
9F9D
100
AcDbDictionary
280
     1
281
     1
  3
ACAD_XREC_ROUNDTRIP
360
9FFE
  0
DICTIONARY
  5
A019
330
9FAB
100
AcDbDictionary
280
     1
281
     1
  3
ACAD_XREC_ROUNDTRIP
360
A01A
  0
DICTIONARY
  5
A009
330
9FA3
100
AcDbDictionary
280
     1
281
     1
  3
ACAD_XREC_ROUNDTRIP
360
A00A
  0
DICTIONARY
  5
A01B
330
9FAC
100
AcDbDictionary
280
     1
281
     1
  3
ACAD_XREC_ROUNDTRIP
360
A01C
  0
DICTIONARY
  5
A001
330
9F9F
100
AcDbDictionary
280
     1
281
     1
  3
ACAD_XREC_ROUNDTRIP
360
A002
  0
DICTIONARY
  5
A017
330
9FAA
100
AcDbDictionary
280
     1
281
     1
  3
ACAD_XREC_ROUNDTRIP
360
A018
  0
DICTIONARY
  5
A015
330
9FA9
100
AcDbDictionary
280
     1
281
     1
  3
ACAD_XREC_ROUNDTRIP
360
A016
  0
DICTIONARY
  5
A00F
330
9FA6
100
AcDbDictionary
280
     1
281
     1
  3
ACAD_XREC_ROUNDTRIP
360
A010
  0
DICTIONARY
  5
A011
330
9FA7
100
AcDbDictionary
280
     1
281
     1
  3
ACAD_XREC_ROUNDTRIP
360
A012
  0
DICTIONARY
  5
A007
330
9FA2
100
AcDbDictionary
280
     1
281
     1
  3
ACAD_XREC_ROUNDTRIP
360
A008
  0
DICTIONARY
  5
9FFB
330
9F9C
100
AcDbDictionary
280
     1
281
     1
  3
ACAD_XREC_ROUNDTRIP
360
9FFC
  0
DICTIONARY
  5
A013
330
9FA8
100
AcDbDictionary
280
     1
281
     1
  3
ACAD_XREC_ROUNDTRIP
360
A014
  0
XRECORD
  5
A024
102
{ACAD_REACTORS
330
A023
102
}
330
A023
100
AcDbXrecord
280
     1
102
DISPLAYNAME
  1
Imperial24
102
FLAGS
 90
        0
  0
XRECORD
  5
A026
102
{ACAD_REACTORS
330
A025
102
}
330
A025
100
AcDbXrecord
280
     1
102
SHADEPLOT
 70
     0
102
SHADEPLOTRESLEVEL
 70
     2
102
SHADEPLOTCUSTOMDPI
 70
   300
  0
XRECORD
  5
A028
102
{ACAD_REACTORS
330
A027
102
}
330
A027
100
AcDbXrecord
280
     1
102
SHADEPLOT
 70
     0
102
SHADEPLOTRESLEVEL
 70
     2
102
SHADEPLOTCUSTOMDPI
 70
   300
  0
XRECORD
  5
9FED
102
{ACAD_REACTORS
330
9F86
102
}
330
9F86
100
AcDbXrecord
280
     1
102
MATERIAL
148
0.0
149
0.0
149
0.0
 93
        0
 94
      127
282
     0
 72
     0
 77
     0
171
     0
175
     0
179
     0
273
     0
  0
XRECORD
  5
9F88
102
{ACAD_REACTORS
330
9F86
102
}
330
9F86
100
AcDbXrecord
280
     1
270
     1
271
     1
  0
XRECORD
  5
9F87
102
{ACAD_REACTORS
330
9F86
102
}
330
9F86
100
AcDbXrecord
280
     1
270
     1
271
     1
  0
XRECORD
  5
9F8B
102
{ACAD_REACTORS
330
9F86
102
}
330
9F86
100
AcDbXrecord
280
     1
270
     1
271
     1
  0
XRECORD
  5
9F8A
102
{ACAD_REACTORS
330
9F86
102
}
330
9F86
100
AcDbXrecord
280
     1
270
     1
271
     1
  0
XRECORD
  5
9F8C
102
{ACAD_REACTORS
330
9F86
102
}
330
9F86
100
AcDbXrecord
280
     1
270
     1
271
     1
  0
XRECORD
  5
9F89
102
{ACAD_REACTORS
330
9F86
102
}
330
9F86
100
AcDbXrecord
280
     1
270
     1
271
     1
  0
XRECORD
  5
9FEC
102
{ACAD_REACTORS
330
9F7E
102
}
330
9F7E
100
AcDbXrecord
280
     1
102
MATERIAL
148
0.0
149
0.0
149
0.0
 93
        0
 94
      127
282
     0
 72
     0
 77
     0
171
     0
175
     0
179
     0
273
     0
  0
XRECORD
  5
9F80
102
{ACAD_REACTORS
330
9F7E
102
}
330
9F7E
100
AcDbXrecord
280
     1
270
     1
271
     1
  0
XRECORD
  5
9F7F
102
{ACAD_REACTORS
330
9F7E
102
}
330
9F7E
100
AcDbXrecord
280
     1
270
     1
271
     1
  0
XRECORD
  5
9F83
102
{ACAD_REACTORS
330
9F7E
102
}
330
9F7E
100
AcDbXrecord
280
     1
270
     1
271
     1
  0
XRECORD
  5
9F82
102
{ACAD_REACTORS
330
9F7E
102
}
330
9F7E
100
AcDbXrecord
280
     1
270
     1
271
     1
  0
XRECORD
  5
9F84
102
{ACAD_REACTORS
330
9F7E
102
}
330
9F7E
100
AcDbXrecord
280
     1
270
     1
271
     1
  0
XRECORD
  5
9F81
102
{ACAD_REACTORS
330
9F7E
102
}
330
9F7E
100
AcDbXrecord
280
     1
270
     1
271
     1
  0
XRECORD
  5
9FEE
102
{ACAD_REACTORS
330
9F8E
102
}
330
9F8E
100
AcDbXrecord
280
     1
102
MATERIAL
148
0.0
149
0.0
149
0.0
 93
        0
 94
      127
282
     0
 72
     0
 77
     0
171
     0
175
     0
179
     0
273
     0
  0
XRECORD
  5
9F90
102
{ACAD_REACTORS
330
9F8E
102
}
330
9F8E
100
AcDbXrecord
280
     1
270
     1
271
     1
  0
XRECORD
  5
9F8F
102
{ACAD_REACTORS
330
9F8E
102
}
330
9F8E
100
AcDbXrecord
280
     1
270
     1
271
     1
  0
XRECORD
  5
9F93
102
{ACAD_REACTORS
330
9F8E
102
}
330
9F8E
100
AcDbXrecord
280
     1
270
     1
271
     1
  0
XRECORD
  5
9F92
102
{ACAD_REACTORS
330
9F8E
102
}
330
9F8E
100
AcDbXrecord
280
     1
270
     1
271
     1
  0
XRECORD
  5
9F94
102
{ACAD_REACTORS
330
9F8E
102
}
330
9F8E
100
AcDbXrecord
280
     1
270
     1
271
     1
  0
XRECORD
  5
9F91
102
{ACAD_REACTORS
330
9F8E
102
}
330
9F8E
100
AcDbXrecord
280
     1
270
     1
271
     1
  0
XRECORD
  5
A022
102
{ACAD_REACTORS
330
A021
102
}
330
A021
100
AcDbXrecord
280
     1
102
DISPLAYNAME
  1
Imperial24
102
FLAGS
 90
        0
  0
CELLSTYLEMAP
  5
9FE9
102
{ACAD_REACTORS
330
9FE8
102
}
330
9FE8
100
AcDbCellStyleMap
 90
        3
300
CELLSTYLE
  1
TABLEFORMAT_BEGIN
 90
        5
170
     1
 91
        0
 92
    32768
 62
   257
 93
        1
300
CONTENTFORMAT
  1
CONTENTFORMAT_BEGIN
 90
        0
 91
        0
 92
      512
 93
        0
300

 40
0.0
140
1.0
 94
        5
 62
     0
340
9C3F
144
0.25
309
CONTENTFORMAT_END
171
     0
 94
        0
309
TABLEFORMAT_END
  1
CELLSTYLE_BEGIN
 90
        1
 91
        1
300
_TITLE
309
CELLSTYLE_END
300
CELLSTYLE
  1
TABLEFORMAT_BEGIN
 90
        5
170
     1
 91
        0
 92
        0
 62
   257
 93
        1
300
CONTENTFORMAT
  1
CONTENTFORMAT_BEGIN
 90
        0
 91
        0
 92
      512
 93
        0
300

 40
0.0
140
1.0
 94
        5
 62
     0
340
9C3F
144
0.18
309
CONTENTFORMAT_END
171
     0
 94
        0
309
TABLEFORMAT_END
  1
CELLSTYLE_BEGIN
 90
        2
 91
        1
300
_HEADER
309
CELLSTYLE_END
300
CELLSTYLE
  1
TABLEFORMAT_BEGIN
 90
        5
170
     1
 91
        0
 92
        0
 62
   257
 93
        1
300
CONTENTFORMAT
  1
CONTENTFORMAT_BEGIN
 90
        0
 91
        0
 92
      512
 93
        0
300

 40
0.0
140
1.0
 94
        2
 62
     0
340
9C3F
144
0.18
309
CONTENTFORMAT_END
171
     0
 94
        0
309
TABLEFORMAT_END
  1
CELLSTYLE_BEGIN
 90
        3
 91
        2
300
_DATA
309
CELLSTYLE_END
  0
XRECORD
  5
A01F
102
{ACAD_REACTORS
330
9FE8
102
}
330
9FE8
100
AcDbXrecord
280
     1
102
ACAD_ROUNDTRIP_PRE2007_TABLESTYLE
 90
      512
 91
        0
  1

 92
      512
 93
        0
  2

 94
      512
 95
        0
  3

  0
XRECORD
  5
9FFA
102
{ACAD_REACTORS
330
9FF9
102
}
330
9FF9
100
AcDbXrecord
280
     1
102
RTVSPost2010Prop28
280
     1
102
RTVSPost2010PropOp28
 70
     1
102
RTVSPost2010Prop29
280
     1
102
RTVSPost2010PropOp29
 70
     1
102
RTVSPost2010Prop30
280
     0
102
RTVSPost2010PropOp30
 70
     1
102
RTVSPost2010Prop31
280
     0
102
RTVSPost2010PropOp31
 70
     1
102
RTVSPost2010Prop32
280
     0
102
RTVSPost2010PropOp32
 70
     1
102
RTVSPost2010Prop33
280
     0
102
RTVSPost2010PropOp33
 70
     1
102
RTVSPost2010Prop34
280
     0
102
RTVSPost2010PropOp34
 70
     1
102
RTVSPost2010Prop35
280
     0
102
RTVSPost2010PropOp35
 70
     1
102
RTVSPost2010Prop36
280
     0
102
RTVSPost2010PropOp36
 70
     1
102
RTVSPost2010Prop37
 90
       50
102
RTVSPost2010PropOp37
 70
     1
102
RTVSPost2010Prop38
140
0.0
102
RTVSPost2010PropOp38
 70
     1
102
RTVSPost2010Prop39
140
1.0
102
RTVSPost2010PropOp39
 70
     1
102
RTVSPost2010Prop40
 90
        0
102
RTVSPost2010PropOp40
 70
     1
102
RTVSPost2010Prop41ColorIndex
 90
       18
102
RTVSPost2010Prop41ColorRGB
 90
        0
102
RTVSPost2010PropOp41
 70
     1
102
RTVSPost2010Prop42
 90
       50
102
RTVSPost2010PropOp42
 70
     1
102
RTVSPost2010Prop43
 90
        3
102
RTVSPost2010PropOp43
 70
     1
102
RTVSPost2010Prop44ColorIndex
 90
        5
102
RTVSPost2010Prop44ColorRGB
 90
      255
102
RTVSPost2010PropOp44
 70
     1
102
RTVSPost2010Prop45
280
     0
102
RTVSPost2010PropOp45
 70
     1
102
RTVSPost2010Prop46
 90
       50
102
RTVSPost2010PropOp46
 70
     1
102
RTVSPost2010Prop47
 90
       50
102
RTVSPost2010PropOp47
 70
     1
102
RTVSPost2010Prop48
 90
       50
102
RTVSPost2010PropOp48
 70
     1
102
RTVSPost2010Prop49
280
     0
102
RTVSPost2010PropOp49
 70
     1
102
RTVSPost2010Prop50
 90
       50
102
RTVSPost2010PropOp50
 70
     1
102
RTVSPost2010Prop51ColorIndex
 90
      256
102
RTVSPost2010Prop51ColorRGB
 90
-16777216
102
RTVSPost2010PropOp51
 70
     0
102
RTVSPost2010Prop52
140
1.0
102
RTVSPost2010PropOp52
 70
     0
102
RTVSPost2010Prop53
 90
        2
102
RTVSPost2010PropOp53
 70
     1
102
RTVSPost2010Prop54
  1
strokes_ogs.tif
102
RTVSPost2010PropOp54
 70
     1
102
RTVSPost2010Prop55
280
     0
102
RTVSPost2010PropOp55
 70
     1
102
RTVSPost2010Prop56
140
1.0
102
RTVSPost2010PropOp56
 70
     1
102
RTVSPost2010Prop57
140
1.0
102
RTVSPost2010PropOp57
 70
     1
102
RTVSPropertyOp0
 70
     1
102
RTVSPropertyOp1
 70
     1
102
RTVSPropertyOp2
 70
     1
102
RTVSPropertyOp3
 70
     1
102
RTVSPropertyOp4
 70
     1
102
RTVSPropertyOp5
 70
     1
102
RTVSPropertyOp6
 70
     1
102
RTVSPropertyOp7
 70
     1
102
RTVSPropertyOp8
 70
     1
102
RTVSPropertyOp9
 70
     1
102
RTVSPropertyOp10
 70
     1
102
RTVSPropertyOp11
 70
     1
102
RTVSPropertyOp12
 70
     1
102
RTVSPropertyOp13
 70
     1
102
RTVSPropertyOp14
 70
     1
102
RTVSPropertyOp15
 70
     1
102
RTVSPropertyOp16
 70
     1
102
RTVSPropertyOp17
 70
     1
102
RTVSPropertyOp18
 70
     1
102
RTVSPropertyOp19
 70
     1
102
RTVSPropertyOp20
 70
     1
102
RTVSPropertyOp21
 70
     1
102
RTVSPropertyOp22
 70
     1
102
RTVSPropertyOp23
 70
     1
102
RTVSPropertyOp24
 70
     1
102
RTVSPropertyOp25
 70
     1
102
RTVSPropertyOp26
 70
     1
102
RTVSPropertyOp27
 70
     1
102
RTVSPropertyOp28
 70
     1
102
RTVSPropertyOp29
 70
     1
102
RTVSPropertyOp30
 70
     1
102
RTVSPropertyOp31
 70
     1
102
RTVSPropertyOp32
 70
     1
102
RTVSPropertyOp33
 70
     1
102
RTVSPropertyOp34
 70
     1
102
RTVSPropertyOp35
 70
     1
102
RTVSPropertyOp36
 70
     1
102
RTVSPropertyOp37
 70
     1
102
RTVSPropertyOp38
 70
     1
102
RTVSPropertyOp39
 70
     1
102
RTVSPropertyOp40
 70
     1
102
RTVSPropertyOp41
 70
     1
102
RTVSPropertyOp42
 70
     1
102
RTVSPropertyOp43
 70
     1
102
RTVSPropertyOp44
 70
     1
102
RTVSPropertyOp45
 70
     1
102
RTVSPropertyOp46
 70
     1
102
RTVSPropertyOp47
 70
     1
102
RTVSPropertyOp48
 70
     1
102
RTVSPropertyOp49
 70
     1
102
RTVSPropertyOp50
 70
     1
102
RTVSPropertyOp51
 70
     0
102
RTVSPropertyOp52
 70
     0
102
RTVSPropertyOp53
 70
     1
102
RTVSPropertyOp54
 70
     1
102
RTVSPropertyOp55
 70
     1
102
RTVSPropertyOp56
 70
     1
102
RTVSPropertyOp57
 70
     1
102
RTVSPropertyOp58
 70
     1
102
RTVSPropertyOp59
 70
     1
102
RTVSPropertyOp60
 70
     1
102
RTVSPropertyOp61
 70
     1
102
RTVSPropertyOp62
 70
     1
  0
XRECORD
  5
9FF8
102
{ACAD_REACTORS
330
9FF7
102
}
330
9FF7
100
AcDbXrecord
280
     1
102
RTVSPost2010Prop28
280
     0
102
RTVSPost2010PropOp28
 70
     1
102
RTVSPost2010Prop29
280
     1
102
RTVSPost2010PropOp29
 70
     1
102
RTVSPost2010Prop30
280
     1
102
RTVSPost2010PropOp30
 70
     1
102
RTVSPost2010Prop31
280
     0
102
RTVSPost2010PropOp31
 70
     1
102
RTVSPost2010Prop32
280
     0
102
RTVSPost2010PropOp32
 70
     1
102
RTVSPost2010Prop33
280
     0
102
RTVSPost2010PropOp33
 70
     1
102
RTVSPost2010Prop34
280
     0
102
RTVSPost2010PropOp34
 70
     1
102
RTVSPost2010Prop35
280
     0
102
RTVSPost2010PropOp35
 70
     1
102
RTVSPost2010Prop36
280
     0
102
RTVSPost2010PropOp36
 70
     1
102
RTVSPost2010Prop37
 90
       50
102
RTVSPost2010PropOp37
 70
     1
102
RTVSPost2010Prop38
140
0.0
102
RTVSPost2010PropOp38
 70
     1
102
RTVSPost2010Prop39
140
1.0
102
RTVSPost2010PropOp39
 70
     1
102
RTVSPost2010Prop40
 90
        0
102
RTVSPost2010PropOp40
 70
     1
102
RTVSPost2010Prop41ColorIndex
 90
       18
102
RTVSPost2010Prop41ColorRGB
 90
        0
102
RTVSPost2010PropOp41
 70
     1
102
RTVSPost2010Prop42
 90
       50
102
RTVSPost2010PropOp42
 70
     1
102
RTVSPost2010Prop43
 90
        3
102
RTVSPost2010PropOp43
 70
     1
102
RTVSPost2010Prop44ColorIndex
 90
        5
102
RTVSPost2010Prop44ColorRGB
 90
      255
102
RTVSPost2010PropOp44
 70
     1
102
RTVSPost2010Prop45
280
     0
102
RTVSPost2010PropOp45
 70
     1
102
RTVSPost2010Prop46
 90
       50
102
RTVSPost2010PropOp46
 70
     1
102
RTVSPost2010Prop47
 90
       50
102
RTVSPost2010PropOp47
 70
     1
102
RTVSPost2010Prop48
 90
       50
102
RTVSPost2010PropOp48
 70
     1
102
RTVSPost2010Prop49
280
     0
102
RTVSPost2010PropOp49
 70
     1
102
RTVSPost2010Prop50
 90
       50
102
RTVSPost2010PropOp50
 70
     1
102
RTVSPost2010Prop51ColorIndex
 90
      256
102
RTVSPost2010Prop51ColorRGB
 90
-16777216
102
RTVSPost2010PropOp51
 70
     0
102
RTVSPost2010Prop52
140
1.0
102
RTVSPost2010PropOp52
 70
     0
102
RTVSPost2010Prop53
 90
        2
102
RTVSPost2010PropOp53
 70
     1
102
RTVSPost2010Prop54
  1
strokes_ogs.tif
102
RTVSPost2010PropOp54
 70
     1
102
RTVSPost2010Prop55
280
     0
102
RTVSPost2010PropOp55
 70
     1
102
RTVSPost2010Prop56
140
1.0
102
RTVSPost2010PropOp56
 70
     1
102
RTVSPost2010Prop57
140
1.0
102
RTVSPost2010PropOp57
 70
     1
102
RTVSPropertyOp0
 70
     1
102
RTVSPropertyOp1
 70
     1
102
RTVSPropertyOp2
 70
     1
102
RTVSPropertyOp3
 70
     1
102
RTVSPropertyOp4
 70
     1
102
RTVSPropertyOp5
 70
     1
102
RTVSPropertyOp6
 70
     1
102
RTVSPropertyOp7
 70
     1
102
RTVSPropertyOp8
 70
     1
102
RTVSPropertyOp9
 70
     1
102
RTVSPropertyOp10
 70
     1
102
RTVSPropertyOp11
 70
     1
102
RTVSPropertyOp12
 70
     1
102
RTVSPropertyOp13
 70
     1
102
RTVSPropertyOp14
 70
     1
102
RTVSPropertyOp15
 70
     1
102
RTVSPropertyOp16
 70
     1
102
RTVSPropertyOp17
 70
     1
102
RTVSPropertyOp18
 70
     1
102
RTVSPropertyOp19
 70
     1
102
RTVSPropertyOp20
 70
     1
102
RTVSPropertyOp21
 70
     1
102
RTVSPropertyOp22
 70
     1
102
RTVSPropertyOp23
 70
     1
102
RTVSPropertyOp24
 70
     1
102
RTVSPropertyOp25
 70
     1
102
RTVSPropertyOp26
 70
     1
102
RTVSPropertyOp27
 70
     1
102
RTVSPropertyOp28
 70
     1
102
RTVSPropertyOp29
 70
     1
102
RTVSPropertyOp30
 70
     1
102
RTVSPropertyOp31
 70
     1
102
RTVSPropertyOp32
 70
     1
102
RTVSPropertyOp33
 70
     1
102
RTVSPropertyOp34
 70
     1
102
RTVSPropertyOp35
 70
     1
102
RTVSPropertyOp36
 70
     1
102
RTVSPropertyOp37
 70
     1
102
RTVSPropertyOp38
 70
     1
102
RTVSPropertyOp39
 70
     1
102
RTVSPropertyOp40
 70
     1
102
RTVSPropertyOp41
 70
     1
102
RTVSPropertyOp42
 70
     1
102
RTVSPropertyOp43
 70
     1
102
RTVSPropertyOp44
 70
     1
102
RTVSPropertyOp45
 70
     1
102
RTVSPropertyOp46
 70
     1
102
RTVSPropertyOp47
 70
     1
102
RTVSPropertyOp48
 70
     1
102
RTVSPropertyOp49
 70
     1
102
RTVSPropertyOp50
 70
     1
102
RTVSPropertyOp51
 70
     0
102
RTVSPropertyOp52
 70
     0
102
RTVSPropertyOp53
 70
     1
102
RTVSPropertyOp54
 70
     1
102
RTVSPropertyOp55
 70
     1
102
RTVSPropertyOp56
 70
     1
102
RTVSPropertyOp57
 70
     1
102
RTVSPropertyOp58
 70
     1
102
RTVSPropertyOp59
 70
     1
102
RTVSPropertyOp60
 70
     1
102
RTVSPropertyOp61
 70
     1
102
RTVSPropertyOp62
 70
     1
  0
XRECORD
  5
A006
102
{ACAD_REACTORS
330
A005
102
}
330
A005
100
AcDbXrecord
280
     1
102
RTVSPost2010Prop28
280
     0
102
RTVSPost2010PropOp28
 70
     1
102
RTVSPost2010Prop29
280
     1
102
RTVSPost2010PropOp29
 70
     1
102
RTVSPost2010Prop30
280
     1
102
RTVSPost2010PropOp30
 70
     1
102
RTVSPost2010Prop31
280
     0
102
RTVSPost2010PropOp31
 70
     1
102
RTVSPost2010Prop32
280
     0
102
RTVSPost2010PropOp32
 70
     1
102
RTVSPost2010Prop33
280
     0
102
RTVSPost2010PropOp33
 70
     1
102
RTVSPost2010Prop34
280
     0
102
RTVSPost2010PropOp34
 70
     1
102
RTVSPost2010Prop35
280
     0
102
RTVSPost2010PropOp35
 70
     1
102
RTVSPost2010Prop36
280
     0
102
RTVSPost2010PropOp36
 70
     1
102
RTVSPost2010Prop37
 90
       50
102
RTVSPost2010PropOp37
 70
     1
102
RTVSPost2010Prop38
140
0.0
102
RTVSPost2010PropOp38
 70
     1
102
RTVSPost2010Prop39
140
1.0
102
RTVSPost2010PropOp39
 70
     1
102
RTVSPost2010Prop40
 90
        0
102
RTVSPost2010PropOp40
 70
     1
102
RTVSPost2010Prop41ColorIndex
 90
       18
102
RTVSPost2010Prop41ColorRGB
 90
        0
102
RTVSPost2010PropOp41
 70
     1
102
RTVSPost2010Prop42
 90
       50
102
RTVSPost2010PropOp42
 70
     1
102
RTVSPost2010Prop43
 90
        3
102
RTVSPost2010PropOp43
 70
     1
102
RTVSPost2010Prop44ColorIndex
 90
        5
102
RTVSPost2010Prop44ColorRGB
 90
      255
102
RTVSPost2010PropOp44
 70
     1
102
RTVSPost2010Prop45
280
     0
102
RTVSPost2010PropOp45
 70
     1
102
RTVSPost2010Prop46
 90
       50
102
RTVSPost2010PropOp46
 70
     1
102
RTVSPost2010Prop47
 90
       50
102
RTVSPost2010PropOp47
 70
     1
102
RTVSPost2010Prop48
 90
       50
102
RTVSPost2010PropOp48
 70
     1
102
RTVSPost2010Prop49
280
     0
102
RTVSPost2010PropOp49
 70
     1
102
RTVSPost2010Prop50
 90
       50
102
RTVSPost2010PropOp50
 70
     1
102
RTVSPost2010Prop51ColorIndex
 90
      256
102
RTVSPost2010Prop51ColorRGB
 90
-16777216
102
RTVSPost2010PropOp51
 70
     0
102
RTVSPost2010Prop52
140
1.0
102
RTVSPost2010PropOp52
 70
     0
102
RTVSPost2010Prop53
 90
        2
102
RTVSPost2010PropOp53
 70
     1
102
RTVSPost2010Prop54
  1
strokes_ogs.tif
102
RTVSPost2010PropOp54
 70
     1
102
RTVSPost2010Prop55
280
     0
102
RTVSPost2010PropOp55
 70
     1
102
RTVSPost2010Prop56
140
1.0
102
RTVSPost2010PropOp56
 70
     1
102
RTVSPost2010Prop57
140
1.0
102
RTVSPost2010PropOp57
 70
     1
102
RTVSPropertyOp0
 70
     1
102
RTVSPropertyOp1
 70
     1
102
RTVSPropertyOp2
 70
     1
102
RTVSPropertyOp3
 70
     1
102
RTVSPropertyOp4
 70
     1
102
RTVSPropertyOp5
 70
     1
102
RTVSPropertyOp6
 70
     1
102
RTVSPropertyOp7
 70
     1
102
RTVSPropertyOp8
 70
     1
102
RTVSPropertyOp9
 70
     1
102
RTVSPropertyOp10
 70
     1
102
RTVSPropertyOp11
 70
     1
102
RTVSPropertyOp12
 70
     1
102
RTVSPropertyOp13
 70
     1
102
RTVSPropertyOp14
 70
     1
102
RTVSPropertyOp15
 70
     1
102
RTVSPropertyOp16
 70
     1
102
RTVSPropertyOp17
 70
     1
102
RTVSPropertyOp18
 70
     1
102
RTVSPropertyOp19
 70
     1
102
RTVSPropertyOp20
 70
     1
102
RTVSPropertyOp21
 70
     1
102
RTVSPropertyOp22
 70
     1
102
RTVSPropertyOp23
 70
     1
102
RTVSPropertyOp24
 70
     1
102
RTVSPropertyOp25
 70
     1
102
RTVSPropertyOp26
 70
     1
102
RTVSPropertyOp27
 70
     1
102
RTVSPropertyOp28
 70
     1
102
RTVSPropertyOp29
 70
     1
102
RTVSPropertyOp30
 70
     1
102
RTVSPropertyOp31
 70
     1
102
RTVSPropertyOp32
 70
     1
102
RTVSPropertyOp33
 70
     1
102
RTVSPropertyOp34
 70
     1
102
RTVSPropertyOp35
 70
     1
102
RTVSPropertyOp36
 70
     1
102
RTVSPropertyOp37
 70
     1
102
RTVSPropertyOp38
 70
     1
102
RTVSPropertyOp39
 70
     1
102
RTVSPropertyOp40
 70
     1
102
RTVSPropertyOp41
 70
     1
102
RTVSPropertyOp42
 70
     1
102
RTVSPropertyOp43
 70
     1
102
RTVSPropertyOp44
 70
     1
102
RTVSPropertyOp45
 70
     1
102
RTVSPropertyOp46
 70
     1
102
RTVSPropertyOp47
 70
     1
102
RTVSPropertyOp48
 70
     1
102
RTVSPropertyOp49
 70
     1
102
RTVSPropertyOp50
 70
     1
102
RTVSPropertyOp51
 70
     0
102
RTVSPropertyOp52
 70
     0
102
RTVSPropertyOp53
 70
     1
102
RTVSPropertyOp54
 70
     1
102
RTVSPropertyOp55
 70
     1
102
RTVSPropertyOp56
 70
     1
102
RTVSPropertyOp57
 70
     1
102
RTVSPropertyOp58
 70
     1
102
RTVSPropertyOp59
 70
     1
102
RTVSPropertyOp60
 70
     1
102
RTVSPropertyOp61
 70
     1
102
RTVSPropertyOp62
 70
     1
  0
XRECORD
  5
A00E
102
{ACAD_REACTORS
330
A00D
102
}
330
A00D
100
AcDbXrecord
280
     1
102
RTVSPost2010Prop28
280
     0
102
RTVSPost2010PropOp28
 70
     1
102
RTVSPost2010Prop29
280
     1
102
RTVSPost2010PropOp29
 70
     1
102
RTVSPost2010Prop30
280
     1
102
RTVSPost2010PropOp30
 70
     1
102
RTVSPost2010Prop31
280
     0
102
RTVSPost2010PropOp31
 70
     1
102
RTVSPost2010Prop32
280
     0
102
RTVSPost2010PropOp32
 70
     1
102
RTVSPost2010Prop33
280
     0
102
RTVSPost2010PropOp33
 70
     1
102
RTVSPost2010Prop34
280
     0
102
RTVSPost2010PropOp34
 70
     1
102
RTVSPost2010Prop35
280
     0
102
RTVSPost2010PropOp35
 70
     1
102
RTVSPost2010Prop36
280
     0
102
RTVSPost2010PropOp36
 70
     1
102
RTVSPost2010Prop37
 90
       50
102
RTVSPost2010PropOp37
 70
     1
102
RTVSPost2010Prop38
140
0.0
102
RTVSPost2010PropOp38
 70
     1
102
RTVSPost2010Prop39
140
1.0
102
RTVSPost2010PropOp39
 70
     1
102
RTVSPost2010Prop40
 90
        0
102
RTVSPost2010PropOp40
 70
     1
102
RTVSPost2010Prop41ColorIndex
 90
       18
102
RTVSPost2010Prop41ColorRGB
 90
        0
102
RTVSPost2010PropOp41
 70
     1
102
RTVSPost2010Prop42
 90
       50
102
RTVSPost2010PropOp42
 70
     1
102
RTVSPost2010Prop43
 90
        3
102
RTVSPost2010PropOp43
 70
     1
102
RTVSPost2010Prop44ColorIndex
 90
        5
102
RTVSPost2010Prop44ColorRGB
 90
      255
102
RTVSPost2010PropOp44
 70
     1
102
RTVSPost2010Prop45
280
     0
102
RTVSPost2010PropOp45
 70
     1
102
RTVSPost2010Prop46
 90
       50
102
RTVSPost2010PropOp46
 70
     1
102
RTVSPost2010Prop47
 90
       50
102
RTVSPost2010PropOp47
 70
     1
102
RTVSPost2010Prop48
 90
       50
102
RTVSPost2010PropOp48
 70
     1
102
RTVSPost2010Prop49
280
     0
102
RTVSPost2010PropOp49
 70
     1
102
RTVSPost2010Prop50
 90
       50
102
RTVSPost2010PropOp50
 70
     1
102
RTVSPost2010Prop51ColorIndex
 90
      256
102
RTVSPost2010Prop51ColorRGB
 90
-16777216
102
RTVSPost2010PropOp51
 70
     0
102
RTVSPost2010Prop52
140
1.0
102
RTVSPost2010PropOp52
 70
     0
102
RTVSPost2010Prop53
 90
        2
102
RTVSPost2010PropOp53
 70
     1
102
RTVSPost2010Prop54
  1
strokes_ogs.tif
102
RTVSPost2010PropOp54
 70
     1
102
RTVSPost2010Prop55
280
     0
102
RTVSPost2010PropOp55
 70
     1
102
RTVSPost2010Prop56
140
1.0
102
RTVSPost2010PropOp56
 70
     1
102
RTVSPost2010Prop57
140
1.0
102
RTVSPost2010PropOp57
 70
     1
102
RTVSPropertyOp0
 70
     1
102
RTVSPropertyOp1
 70
     1
102
RTVSPropertyOp2
 70
     1
102
RTVSPropertyOp3
 70
     1
102
RTVSPropertyOp4
 70
     1
102
RTVSPropertyOp5
 70
     1
102
RTVSPropertyOp6
 70
     1
102
RTVSPropertyOp7
 70
     1
102
RTVSPropertyOp8
 70
     1
102
RTVSPropertyOp9
 70
     1
102
RTVSPropertyOp10
 70
     1
102
RTVSPropertyOp11
 70
     1
102
RTVSPropertyOp12
 70
     1
102
RTVSPropertyOp13
 70
     1
102
RTVSPropertyOp14
 70
     1
102
RTVSPropertyOp15
 70
     1
102
RTVSPropertyOp16
 70
     1
102
RTVSPropertyOp17
 70
     1
102
RTVSPropertyOp18
 70
     1
102
RTVSPropertyOp19
 70
     1
102
RTVSPropertyOp20
 70
     1
102
RTVSPropertyOp21
 70
     1
102
RTVSPropertyOp22
 70
     1
102
RTVSPropertyOp23
 70
     1
102
RTVSPropertyOp24
 70
     1
102
RTVSPropertyOp25
 70
     1
102
RTVSPropertyOp26
 70
     1
102
RTVSPropertyOp27
 70
     1
102
RTVSPropertyOp28
 70
     1
102
RTVSPropertyOp29
 70
     1
102
RTVSPropertyOp30
 70
     1
102
RTVSPropertyOp31
 70
     1
102
RTVSPropertyOp32
 70
     1
102
RTVSPropertyOp33
 70
     1
102
RTVSPropertyOp34
 70
     1
102
RTVSPropertyOp35
 70
     1
102
RTVSPropertyOp36
 70
     1
102
RTVSPropertyOp37
 70
     1
102
RTVSPropertyOp38
 70
     1
102
RTVSPropertyOp39
 70
     1
102
RTVSPropertyOp40
 70
     1
102
RTVSPropertyOp41
 70
     1
102
RTVSPropertyOp42
 70
     1
102
RTVSPropertyOp43
 70
     1
102
RTVSPropertyOp44
 70
     1
102
RTVSPropertyOp45
 70
     1
102
RTVSPropertyOp46
 70
     1
102
RTVSPropertyOp47
 70
     1
102
RTVSPropertyOp48
 70
     1
102
RTVSPropertyOp49
 70
     1
102
RTVSPropertyOp50
 70
     1
102
RTVSPropertyOp51
 70
     0
102
RTVSPropertyOp52
 70
     0
102
RTVSPropertyOp53
 70
     1
102
RTVSPropertyOp54
 70
     1
102
RTVSPropertyOp55
 70
     1
102
RTVSPropertyOp56
 70
     1
102
RTVSPropertyOp57
 70
     1
102
RTVSPropertyOp58
 70
     1
102
RTVSPropertyOp59
 70
     1
102
RTVSPropertyOp60
 70
     1
102
RTVSPropertyOp61
 70
     1
102
RTVSPropertyOp62
 70
     1
  0
XRECORD
  5
A000
102
{ACAD_REACTORS
330
9FFF
102
}
330
9FFF
100
AcDbXrecord
280
     1
102
RTVSPost2010Prop28
280
     0
102
RTVSPost2010PropOp28
 70
     1
102
RTVSPost2010Prop29
280
     1
102
RTVSPost2010PropOp29
 70
     1
102
RTVSPost2010Prop30
280
     1
102
RTVSPost2010PropOp30
 70
     1
102
RTVSPost2010Prop31
280
     0
102
RTVSPost2010PropOp31
 70
     1
102
RTVSPost2010Prop32
280
     0
102
RTVSPost2010PropOp32
 70
     1
102
RTVSPost2010Prop33
280
     0
102
RTVSPost2010PropOp33
 70
     1
102
RTVSPost2010Prop34
280
     0
102
RTVSPost2010PropOp34
 70
     1
102
RTVSPost2010Prop35
280
     0
102
RTVSPost2010PropOp35
 70
     1
102
RTVSPost2010Prop36
280
     0
102
RTVSPost2010PropOp36
 70
     1
102
RTVSPost2010Prop37
 90
       50
102
RTVSPost2010PropOp37
 70
     1
102
RTVSPost2010Prop38
140
0.0
102
RTVSPost2010PropOp38
 70
     1
102
RTVSPost2010Prop39
140
1.0
102
RTVSPost2010PropOp39
 70
     1
102
RTVSPost2010Prop40
 90
        0
102
RTVSPost2010PropOp40
 70
     1
102
RTVSPost2010Prop41ColorIndex
 90
       18
102
RTVSPost2010Prop41ColorRGB
 90
        0
102
RTVSPost2010PropOp41
 70
     1
102
RTVSPost2010Prop42
 90
       50
102
RTVSPost2010PropOp42
 70
     1
102
RTVSPost2010Prop43
 90
        3
102
RTVSPost2010PropOp43
 70
     1
102
RTVSPost2010Prop44ColorIndex
 90
        5
102
RTVSPost2010Prop44ColorRGB
 90
      255
102
RTVSPost2010PropOp44
 70
     1
102
RTVSPost2010Prop45
280
     0
102
RTVSPost2010PropOp45
 70
     1
102
RTVSPost2010Prop46
 90
       50
102
RTVSPost2010PropOp46
 70
     1
102
RTVSPost2010Prop47
 90
       50
102
RTVSPost2010PropOp47
 70
     1
102
RTVSPost2010Prop48
 90
       50
102
RTVSPost2010PropOp48
 70
     1
102
RTVSPost2010Prop49
280
     0
102
RTVSPost2010PropOp49
 70
     1
102
RTVSPost2010Prop50
 90
       50
102
RTVSPost2010PropOp50
 70
     1
102
RTVSPost2010Prop51ColorIndex
 90
      256
102
RTVSPost2010Prop51ColorRGB
 90
-16777216
102
RTVSPost2010PropOp51
 70
     0
102
RTVSPost2010Prop52
140
1.0
102
RTVSPost2010PropOp52
 70
     0
102
RTVSPost2010Prop53
 90
        2
102
RTVSPost2010PropOp53
 70
     1
102
RTVSPost2010Prop54
  1
strokes_ogs.tif
102
RTVSPost2010PropOp54
 70
     1
102
RTVSPost2010Prop55
280
     0
102
RTVSPost2010PropOp55
 70
     1
102
RTVSPost2010Prop56
140
1.0
102
RTVSPost2010PropOp56
 70
     1
102
RTVSPost2010Prop57
140
1.0
102
RTVSPost2010PropOp57
 70
     1
102
RTVSPropertyOp0
 70
     1
102
RTVSPropertyOp1
 70
     1
102
RTVSPropertyOp2
 70
     1
102
RTVSPropertyOp3
 70
     1
102
RTVSPropertyOp4
 70
     1
102
RTVSPropertyOp5
 70
     1
102
RTVSPropertyOp6
 70
     1
102
RTVSPropertyOp7
 70
     1
102
RTVSPropertyOp8
 70
     1
102
RTVSPropertyOp9
 70
     1
102
RTVSPropertyOp10
 70
     1
102
RTVSPropertyOp11
 70
     1
102
RTVSPropertyOp12
 70
     1
102
RTVSPropertyOp13
 70
     1
102
RTVSPropertyOp14
 70
     1
102
RTVSPropertyOp15
 70
     1
102
RTVSPropertyOp16
 70
     1
102
RTVSPropertyOp17
 70
     1
102
RTVSPropertyOp18
 70
     1
102
RTVSPropertyOp19
 70
     1
102
RTVSPropertyOp20
 70
     1
102
RTVSPropertyOp21
 70
     1
102
RTVSPropertyOp22
 70
     1
102
RTVSPropertyOp23
 70
     1
102
RTVSPropertyOp24
 70
     1
102
RTVSPropertyOp25
 70
     1
102
RTVSPropertyOp26
 70
     1
102
RTVSPropertyOp27
 70
     1
102
RTVSPropertyOp28
 70
     1
102
RTVSPropertyOp29
 70
     1
102
RTVSPropertyOp30
 70
     1
102
RTVSPropertyOp31
 70
     1
102
RTVSPropertyOp32
 70
     1
102
RTVSPropertyOp33
 70
     1
102
RTVSPropertyOp34
 70
     1
102
RTVSPropertyOp35
 70
     1
102
RTVSPropertyOp36
 70
     1
102
RTVSPropertyOp37
 70
     1
102
RTVSPropertyOp38
 70
     1
102
RTVSPropertyOp39
 70
     1
102
RTVSPropertyOp40
 70
     1
102
RTVSPropertyOp41
 70
     1
102
RTVSPropertyOp42
 70
     1
102
RTVSPropertyOp43
 70
     1
102
RTVSPropertyOp44
 70
     1
102
RTVSPropertyOp45
 70
     1
102
RTVSPropertyOp46
 70
     1
102
RTVSPropertyOp47
 70
     1
102
RTVSPropertyOp48
 70
     1
102
RTVSPropertyOp49
 70
     1
102
RTVSPropertyOp50
 70
     1
102
RTVSPropertyOp51
 70
     0
102
RTVSPropertyOp52
 70
     0
102
RTVSPropertyOp53
 70
     1
102
RTVSPropertyOp54
 70
     1
102
RTVSPropertyOp55
 70
     1
102
RTVSPropertyOp56
 70
     1
102
RTVSPropertyOp57
 70
     1
102
RTVSPropertyOp58
 70
     1
102
RTVSPropertyOp59
 70
     1
102
RTVSPropertyOp60
 70
     1
102
RTVSPropertyOp61
 70
     1
102
RTVSPropertyOp62
 70
     1
  0
XRECORD
  5
A004
102
{ACAD_REACTORS
330
A003
102
}
330
A003
100
AcDbXrecord
280
     1
102
RTVSPost2010Prop28
280
     0
102
RTVSPost2010PropOp28
 70
     1
102
RTVSPost2010Prop29
280
     1
102
RTVSPost2010PropOp29
 70
     1
102
RTVSPost2010Prop30
280
     1
102
RTVSPost2010PropOp30
 70
     1
102
RTVSPost2010Prop31
280
     0
102
RTVSPost2010PropOp31
 70
     1
102
RTVSPost2010Prop32
280
     0
102
RTVSPost2010PropOp32
 70
     1
102
RTVSPost2010Prop33
280
     0
102
RTVSPost2010PropOp33
 70
     1
102
RTVSPost2010Prop34
280
     0
102
RTVSPost2010PropOp34
 70
     1
102
RTVSPost2010Prop35
280
     0
102
RTVSPost2010PropOp35
 70
     1
102
RTVSPost2010Prop36
280
     0
102
RTVSPost2010PropOp36
 70
     1
102
RTVSPost2010Prop37
 90
       50
102
RTVSPost2010PropOp37
 70
     1
102
RTVSPost2010Prop38
140
0.0
102
RTVSPost2010PropOp38
 70
     1
102
RTVSPost2010Prop39
140
1.0
102
RTVSPost2010PropOp39
 70
     1
102
RTVSPost2010Prop40
 90
        0
102
RTVSPost2010PropOp40
 70
     1
102
RTVSPost2010Prop41ColorIndex
 90
       18
102
RTVSPost2010Prop41ColorRGB
 90
        0
102
RTVSPost2010PropOp41
 70
     1
102
RTVSPost2010Prop42
 90
       50
102
RTVSPost2010PropOp42
 70
     1
102
RTVSPost2010Prop43
 90
        3
102
RTVSPost2010PropOp43
 70
     1
102
RTVSPost2010Prop44ColorIndex
 90
        5
102
RTVSPost2010Prop44ColorRGB
 90
      255
102
RTVSPost2010PropOp44
 70
     1
102
RTVSPost2010Prop45
280
     0
102
RTVSPost2010PropOp45
 70
     1
102
RTVSPost2010Prop46
 90
       50
102
RTVSPost2010PropOp46
 70
     1
102
RTVSPost2010Prop47
 90
       50
102
RTVSPost2010PropOp47
 70
     1
102
RTVSPost2010Prop48
 90
       50
102
RTVSPost2010PropOp48
 70
     1
102
RTVSPost2010Prop49
280
     0
102
RTVSPost2010PropOp49
 70
     1
102
RTVSPost2010Prop50
 90
       50
102
RTVSPost2010PropOp50
 70
     1
102
RTVSPost2010Prop51ColorIndex
 90
      256
102
RTVSPost2010Prop51ColorRGB
 90
-16777216
102
RTVSPost2010PropOp51
 70
     0
102
RTVSPost2010Prop52
140
1.0
102
RTVSPost2010PropOp52
 70
     0
102
RTVSPost2010Prop53
 90
        2
102
RTVSPost2010PropOp53
 70
     1
102
RTVSPost2010Prop54
  1
strokes_ogs.tif
102
RTVSPost2010PropOp54
 70
     1
102
RTVSPost2010Prop55
280
     0
102
RTVSPost2010PropOp55
 70
     1
102
RTVSPost2010Prop56
140
1.0
102
RTVSPost2010PropOp56
 70
     1
102
RTVSPost2010Prop57
140
1.0
102
RTVSPost2010PropOp57
 70
     1
102
RTVSPropertyOp0
 70
     1
102
RTVSPropertyOp1
 70
     1
102
RTVSPropertyOp2
 70
     1
102
RTVSPropertyOp3
 70
     1
102
RTVSPropertyOp4
 70
     1
102
RTVSPropertyOp5
 70
     1
102
RTVSPropertyOp6
 70
     1
102
RTVSPropertyOp7
 70
     1
102
RTVSPropertyOp8
 70
     1
102
RTVSPropertyOp9
 70
     1
102
RTVSPropertyOp10
 70
     1
102
RTVSPropertyOp11
 70
     1
102
RTVSPropertyOp12
 70
     1
102
RTVSPropertyOp13
 70
     1
102
RTVSPropertyOp14
 70
     1
102
RTVSPropertyOp15
 70
     1
102
RTVSPropertyOp16
 70
     1
102
RTVSPropertyOp17
 70
     1
102
RTVSPropertyOp18
 70
     1
102
RTVSPropertyOp19
 70
     1
102
RTVSPropertyOp20
 70
     1
102
RTVSPropertyOp21
 70
     1
102
RTVSPropertyOp22
 70
     1
102
RTVSPropertyOp23
 70
     1
102
RTVSPropertyOp24
 70
     1
102
RTVSPropertyOp25
 70
     1
102
RTVSPropertyOp26
 70
     1
102
RTVSPropertyOp27
 70
     1
102
RTVSPropertyOp28
 70
     1
102
RTVSPropertyOp29
 70
     1
102
RTVSPropertyOp30
 70
     1
102
RTVSPropertyOp31
 70
     1
102
RTVSPropertyOp32
 70
     1
102
RTVSPropertyOp33
 70
     1
102
RTVSPropertyOp34
 70
     1
102
RTVSPropertyOp35
 70
     1
102
RTVSPropertyOp36
 70
     1
102
RTVSPropertyOp37
 70
     1
102
RTVSPropertyOp38
 70
     1
102
RTVSPropertyOp39
 70
     1
102
RTVSPropertyOp40
 70
     1
102
RTVSPropertyOp41
 70
     1
102
RTVSPropertyOp42
 70
     1
102
RTVSPropertyOp43
 70
     1
102
RTVSPropertyOp44
 70
     1
102
RTVSPropertyOp45
 70
     1
102
RTVSPropertyOp46
 70
     1
102
RTVSPropertyOp47
 70
     1
102
RTVSPropertyOp48
 70
     1
102
RTVSPropertyOp49
 70
     1
102
RTVSPropertyOp50
 70
     1
102
RTVSPropertyOp51
 70
     0
102
RTVSPropertyOp52
 70
     0
102
RTVSPropertyOp53
 70
     1
102
RTVSPropertyOp54
 70
     1
102
RTVSPropertyOp55
 70
     1
102
RTVSPropertyOp56
 70
     1
102
RTVSPropertyOp57
 70
     1
102
RTVSPropertyOp58
 70
     1
102
RTVSPropertyOp59
 70
     1
102
RTVSPropertyOp60
 70
     1
102
RTVSPropertyOp61
 70
     1
102
RTVSPropertyOp62
 70
     1
  0
XRECORD
  5
A01E
102
{ACAD_REACTORS
330
A01D
102
}
330
A01D
100
AcDbXrecord
280
     1
102
RTVSPost2010Prop28
280
     0
102
RTVSPost2010PropOp28
 70
     1
102
RTVSPost2010Prop29
280
     1
102
RTVSPost2010PropOp29
 70
     1
102
RTVSPost2010Prop30
280
     1
102
RTVSPost2010PropOp30
 70
     1
102
RTVSPost2010Prop31
280
     0
102
RTVSPost2010PropOp31
 70
     1
102
RTVSPost2010Prop32
280
     0
102
RTVSPost2010PropOp32
 70
     1
102
RTVSPost2010Prop33
280
     0
102
RTVSPost2010PropOp33
 70
     1
102
RTVSPost2010Prop34
280
     0
102
RTVSPost2010PropOp34
 70
     1
102
RTVSPost2010Prop35
280
     0
102
RTVSPost2010PropOp35
 70
     1
102
RTVSPost2010Prop36
280
     0
102
RTVSPost2010PropOp36
 70
     1
102
RTVSPost2010Prop37
 90
       50
102
RTVSPost2010PropOp37
 70
     0
102
RTVSPost2010Prop38
140
0.0
102
RTVSPost2010PropOp38
 70
     0
102
RTVSPost2010Prop39
140
1.0
102
RTVSPost2010PropOp39
 70
     0
102
RTVSPost2010Prop40
 90
        0
102
RTVSPost2010PropOp40
 70
     0
102
RTVSPost2010Prop41ColorIndex
 90
       18
102
RTVSPost2010Prop41ColorRGB
 90
        0
102
RTVSPost2010PropOp41
 70
     0
102
RTVSPost2010Prop42
 90
       50
102
RTVSPost2010PropOp42
 70
     0
102
RTVSPost2010Prop43
 90
        3
102
RTVSPost2010PropOp43
 70
     0
102
RTVSPost2010Prop44ColorIndex
 90
        5
102
RTVSPost2010Prop44ColorRGB
 90
      255
102
RTVSPost2010PropOp44
 70
     0
102
RTVSPost2010Prop45
280
     0
102
RTVSPost2010PropOp45
 70
     1
102
RTVSPost2010Prop46
 90
       50
102
RTVSPost2010PropOp46
 70
     0
102
RTVSPost2010Prop47
 90
       50
102
RTVSPost2010PropOp47
 70
     0
102
RTVSPost2010Prop48
 90
       50
102
RTVSPost2010PropOp48
 70
     0
102
RTVSPost2010Prop49
280
     0
102
RTVSPost2010PropOp49
 70
     1
102
RTVSPost2010Prop50
 90
       50
102
RTVSPost2010PropOp50
 70
     0
102
RTVSPost2010Prop51ColorIndex
 90
      256
102
RTVSPost2010Prop51ColorRGB
 90
-16777216
102
RTVSPost2010PropOp51
 70
     0
102
RTVSPost2010Prop52
140
1.0
102
RTVSPost2010PropOp52
 70
     0
102
RTVSPost2010Prop53
 90
        2
102
RTVSPost2010PropOp53
 70
     0
102
RTVSPost2010Prop54
  1
strokes_ogs.tif
102
RTVSPost2010PropOp54
 70
     0
102
RTVSPost2010Prop55
280
     0
102
RTVSPost2010PropOp55
 70
     1
102
RTVSPost2010Prop56
140
1.0
102
RTVSPost2010PropOp56
 70
     0
102
RTVSPost2010Prop57
140
1.0
102
RTVSPost2010PropOp57
 70
     0
102
RTVSPropertyOp0
 70
     0
102
RTVSPropertyOp1
 70
     0
102
RTVSPropertyOp2
 70
     0
102
RTVSPropertyOp3
 70
     0
102
RTVSPropertyOp4
 70
     0
102
RTVSPropertyOp5
 70
     0
102
RTVSPropertyOp6
 70
     0
102
RTVSPropertyOp7
 70
     0
102
RTVSPropertyOp8
 70
     0
102
RTVSPropertyOp9
 70
     0
102
RTVSPropertyOp10
 70
     0
102
RTVSPropertyOp11
 70
     0
102
RTVSPropertyOp12
 70
     0
102
RTVSPropertyOp13
 70
     0
102
RTVSPropertyOp14
 70
     2
102
RTVSPropertyOp15
 70
     0
102
RTVSPropertyOp16
 70
     0
102
RTVSPropertyOp17
 70
     0
102
RTVSPropertyOp18
 70
     0
102
RTVSPropertyOp19
 70
     0
102
RTVSPropertyOp20
 70
     0
102
RTVSPropertyOp21
 70
     0
102
RTVSPropertyOp22
 70
     0
102
RTVSPropertyOp23
 70
     0
102
RTVSPropertyOp24
 70
     0
102
RTVSPropertyOp25
 70
     0
102
RTVSPropertyOp26
 70
     0
102
RTVSPropertyOp27
 70
     0
102
RTVSPropertyOp28
 70
     1
102
RTVSPropertyOp29
 70
     1
102
RTVSPropertyOp30
 70
     1
102
RTVSPropertyOp31
 70
     1
102
RTVSPropertyOp32
 70
     1
102
RTVSPropertyOp33
 70
     1
102
RTVSPropertyOp34
 70
     1
102
RTVSPropertyOp35
 70
     1
102
RTVSPropertyOp36
 70
     1
102
RTVSPropertyOp37
 70
     0
102
RTVSPropertyOp38
 70
     0
102
RTVSPropertyOp39
 70
     0
102
RTVSPropertyOp40
 70
     0
102
RTVSPropertyOp41
 70
     0
102
RTVSPropertyOp42
 70
     0
102
RTVSPropertyOp43
 70
     0
102
RTVSPropertyOp44
 70
     0
102
RTVSPropertyOp45
 70
     1
102
RTVSPropertyOp46
 70
     0
102
RTVSPropertyOp47
 70
     0
102
RTVSPropertyOp48
 70
     0
102
RTVSPropertyOp49
 70
     1
102
RTVSPropertyOp50
 70
     0
102
RTVSPropertyOp51
 70
     0
102
RTVSPropertyOp52
 70
     0
102
RTVSPropertyOp53
 70
     0
102
RTVSPropertyOp54
 70
     0
102
RTVSPropertyOp55
 70
     1
102
RTVSPropertyOp56
 70
     0
102
RTVSPropertyOp57
 70
     0
102
RTVSPropertyOp58
 70
     0
102
RTVSPropertyOp59
 70
     0
102
RTVSPropertyOp60
 70
     0
102
RTVSPropertyOp61
 70
     0
102
RTVSPropertyOp62
 70
     0
  0
XRECORD
  5
A00C
102
{ACAD_REACTORS
330
A00B
102
}
330
A00B
100
AcDbXrecord
280
     1
102
RTVSPost2010Prop28
280
     0
102
RTVSPost2010PropOp28
 70
     1
102
RTVSPost2010Prop29
280
     1
102
RTVSPost2010PropOp29
 70
     1
102
RTVSPost2010Prop30
280
     1
102
RTVSPost2010PropOp30
 70
     1
102
RTVSPost2010Prop31
280
     0
102
RTVSPost2010PropOp31
 70
     1
102
RTVSPost2010Prop32
280
     0
102
RTVSPost2010PropOp32
 70
     1
102
RTVSPost2010Prop33
280
     0
102
RTVSPost2010PropOp33
 70
     1
102
RTVSPost2010Prop34
280
     0
102
RTVSPost2010PropOp34
 70
     1
102
RTVSPost2010Prop35
280
     0
102
RTVSPost2010PropOp35
 70
     1
102
RTVSPost2010Prop36
280
     0
102
RTVSPost2010PropOp36
 70
     1
102
RTVSPost2010Prop37
 90
       50
102
RTVSPost2010PropOp37
 70
     1
102
RTVSPost2010Prop38
140
0.0
102
RTVSPost2010PropOp38
 70
     1
102
RTVSPost2010Prop39
140
1.0
102
RTVSPost2010PropOp39
 70
     1
102
RTVSPost2010Prop40
 90
        0
102
RTVSPost2010PropOp40
 70
     1
102
RTVSPost2010Prop41ColorIndex
 90
       18
102
RTVSPost2010Prop41ColorRGB
 90
        0
102
RTVSPost2010PropOp41
 70
     1
102
RTVSPost2010Prop42
 90
       50
102
RTVSPost2010PropOp42
 70
     1
102
RTVSPost2010Prop43
 90
        3
102
RTVSPost2010PropOp43
 70
     1
102
RTVSPost2010Prop44ColorIndex
 90
        5
102
RTVSPost2010Prop44ColorRGB
 90
      255
102
RTVSPost2010PropOp44
 70
     1
102
RTVSPost2010Prop45
280
     0
102
RTVSPost2010PropOp45
 70
     1
102
RTVSPost2010Prop46
 90
       50
102
RTVSPost2010PropOp46
 70
     1
102
RTVSPost2010Prop47
 90
       50
102
RTVSPost2010PropOp47
 70
     1
102
RTVSPost2010Prop48
 90
       50
102
RTVSPost2010PropOp48
 70
     1
102
RTVSPost2010Prop49
280
     0
102
RTVSPost2010PropOp49
 70
     1
102
RTVSPost2010Prop50
 90
       50
102
RTVSPost2010PropOp50
 70
     1
102
RTVSPost2010Prop51ColorIndex
 90
      256
102
RTVSPost2010Prop51ColorRGB
 90
-16777216
102
RTVSPost2010PropOp51
 70
     0
102
RTVSPost2010Prop52
140
1.0
102
RTVSPost2010PropOp52
 70
     0
102
RTVSPost2010Prop53
 90
        2
102
RTVSPost2010PropOp53
 70
     1
102
RTVSPost2010Prop54
  1
strokes_ogs.tif
102
RTVSPost2010PropOp54
 70
     1
102
RTVSPost2010Prop55
280
     0
102
RTVSPost2010PropOp55
 70
     1
102
RTVSPost2010Prop56
140
1.0
102
RTVSPost2010PropOp56
 70
     1
102
RTVSPost2010Prop57
140
1.0
102
RTVSPost2010PropOp57
 70
     1
102
RTVSPropertyOp0
 70
     1
102
RTVSPropertyOp1
 70
     1
102
RTVSPropertyOp2
 70
     1
102
RTVSPropertyOp3
 70
     1
102
RTVSPropertyOp4
 70
     1
102
RTVSPropertyOp5
 70
     1
102
RTVSPropertyOp6
 70
     1
102
RTVSPropertyOp7
 70
     1
102
RTVSPropertyOp8
 70
     1
102
RTVSPropertyOp9
 70
     1
102
RTVSPropertyOp10
 70
     1
102
RTVSPropertyOp11
 70
     1
102
RTVSPropertyOp12
 70
     1
102
RTVSPropertyOp13
 70
     1
102
RTVSPropertyOp14
 70
     1
102
RTVSPropertyOp15
 70
     1
102
RTVSPropertyOp16
 70
     1
102
RTVSPropertyOp17
 70
     1
102
RTVSPropertyOp18
 70
     1
102
RTVSPropertyOp19
 70
     1
102
RTVSPropertyOp20
 70
     1
102
RTVSPropertyOp21
 70
     1
102
RTVSPropertyOp22
 70
     1
102
RTVSPropertyOp23
 70
     1
102
RTVSPropertyOp24
 70
     1
102
RTVSPropertyOp25
 70
     1
102
RTVSPropertyOp26
 70
     1
102
RTVSPropertyOp27
 70
     1
102
RTVSPropertyOp28
 70
     1
102
RTVSPropertyOp29
 70
     1
102
RTVSPropertyOp30
 70
     1
102
RTVSPropertyOp31
 70
     1
102
RTVSPropertyOp32
 70
     1
102
RTVSPropertyOp33
 70
     1
102
RTVSPropertyOp34
 70
     1
102
RTVSPropertyOp35
 70
     1
102
RTVSPropertyOp36
 70
     1
102
RTVSPropertyOp37
 70
     1
102
RTVSPropertyOp38
 70
     1
102
RTVSPropertyOp39
 70
     1
102
RTVSPropertyOp40
 70
     1
102
RTVSPropertyOp41
 70
     1
102
RTVSPropertyOp42
 70
     1
102
RTVSPropertyOp43
 70
     1
102
RTVSPropertyOp44
 70
     1
102
RTVSPropertyOp45
 70
     1
102
RTVSPropertyOp46
 70
     1
102
RTVSPropertyOp47
 70
     1
102
RTVSPropertyOp48
 70
     1
102
RTVSPropertyOp49
 70
     1
102
RTVSPropertyOp50
 70
     1
102
RTVSPropertyOp51
 70
     0
102
RTVSPropertyOp52
 70
     0
102
RTVSPropertyOp53
 70
     1
102
RTVSPropertyOp54
 70
     1
102
RTVSPropertyOp55
 70
     1
102
RTVSPropertyOp56
 70
     1
102
RTVSPropertyOp57
 70
     1
102
RTVSPropertyOp58
 70
     1
102
RTVSPropertyOp59
 70
     1
102
RTVSPropertyOp60
 70
     1
102
RTVSPropertyOp61
 70
     1
102
RTVSPropertyOp62
 70
     1
  0
XRECORD
  5
9FF0
102
{ACAD_REACTORS
330
9FEF
102
}
330
9FEF
100
AcDbXrecord
280
     1
102
RTVSPost2010Prop28
280
     0
102
RTVSPost2010PropOp28
 70
     1
102
RTVSPost2010Prop29
280
     1
102
RTVSPost2010PropOp29
 70
     1
102
RTVSPost2010Prop30
280
     1
102
RTVSPost2010PropOp30
 70
     1
102
RTVSPost2010Prop31
280
     0
102
RTVSPost2010PropOp31
 70
     1
102
RTVSPost2010Prop32
280
     0
102
RTVSPost2010PropOp32
 70
     1
102
RTVSPost2010Prop33
280
     0
102
RTVSPost2010PropOp33
 70
     1
102
RTVSPost2010Prop34
280
     0
102
RTVSPost2010PropOp34
 70
     1
102
RTVSPost2010Prop35
280
     0
102
RTVSPost2010PropOp35
 70
     1
102
RTVSPost2010Prop36
280
     0
102
RTVSPost2010PropOp36
 70
     1
102
RTVSPost2010Prop37
 90
       50
102
RTVSPost2010PropOp37
 70
     1
102
RTVSPost2010Prop38
140
0.0
102
RTVSPost2010PropOp38
 70
     1
102
RTVSPost2010Prop39
140
1.0
102
RTVSPost2010PropOp39
 70
     1
102
RTVSPost2010Prop40
 90
        0
102
RTVSPost2010PropOp40
 70
     1
102
RTVSPost2010Prop41ColorIndex
 90
       18
102
RTVSPost2010Prop41ColorRGB
 90
        0
102
RTVSPost2010PropOp41
 70
     1
102
RTVSPost2010Prop42
 90
       50
102
RTVSPost2010PropOp42
 70
     1
102
RTVSPost2010Prop43
 90
        3
102
RTVSPost2010PropOp43
 70
     1
102
RTVSPost2010Prop44ColorIndex
 90
        5
102
RTVSPost2010Prop44ColorRGB
 90
      255
102
RTVSPost2010PropOp44
 70
     1
102
RTVSPost2010Prop45
280
     0
102
RTVSPost2010PropOp45
 70
     1
102
RTVSPost2010Prop46
 90
       50
102
RTVSPost2010PropOp46
 70
     1
102
RTVSPost2010Prop47
 90
       50
102
RTVSPost2010PropOp47
 70
     1
102
RTVSPost2010Prop48
 90
       50
102
RTVSPost2010PropOp48
 70
     1
102
RTVSPost2010Prop49
280
     0
102
RTVSPost2010PropOp49
 70
     1
102
RTVSPost2010Prop50
 90
       50
102
RTVSPost2010PropOp50
 70
     1
102
RTVSPost2010Prop51ColorIndex
 90
      256
102
RTVSPost2010Prop51ColorRGB
 90
-16777216
102
RTVSPost2010PropOp51
 70
     0
102
RTVSPost2010Prop52
140
1.0
102
RTVSPost2010PropOp52
 70
     0
102
RTVSPost2010Prop53
 90
        2
102
RTVSPost2010PropOp53
 70
     1
102
RTVSPost2010Prop54
  1
strokes_ogs.tif
102
RTVSPost2010PropOp54
 70
     1
102
RTVSPost2010Prop55
280
     0
102
RTVSPost2010PropOp55
 70
     1
102
RTVSPost2010Prop56
140
1.0
102
RTVSPost2010PropOp56
 70
     1
102
RTVSPost2010Prop57
140
1.0
102
RTVSPost2010PropOp57
 70
     1
102
RTVSPropertyOp0
 70
     1
102
RTVSPropertyOp1
 70
     1
102
RTVSPropertyOp2
 70
     1
102
RTVSPropertyOp3
 70
     1
102
RTVSPropertyOp4
 70
     1
102
RTVSPropertyOp5
 70
     1
102
RTVSPropertyOp6
 70
     1
102
RTVSPropertyOp7
 70
     1
102
RTVSPropertyOp8
 70
     1
102
RTVSPropertyOp9
 70
     1
102
RTVSPropertyOp10
 70
     1
102
RTVSPropertyOp11
 70
     1
102
RTVSPropertyOp12
 70
     1
102
RTVSPropertyOp13
 70
     1
102
RTVSPropertyOp14
 70
     1
102
RTVSPropertyOp15
 70
     1
102
RTVSPropertyOp16
 70
     1
102
RTVSPropertyOp17
 70
     1
102
RTVSPropertyOp18
 70
     1
102
RTVSPropertyOp19
 70
     1
102
RTVSPropertyOp20
 70
     1
102
RTVSPropertyOp21
 70
     1
102
RTVSPropertyOp22
 70
     1
102
RTVSPropertyOp23
 70
     1
102
RTVSPropertyOp24
 70
     1
102
RTVSPropertyOp25
 70
     1
102
RTVSPropertyOp26
 70
     1
102
RTVSPropertyOp27
 70
     1
102
RTVSPropertyOp28
 70
     1
102
RTVSPropertyOp29
 70
     1
102
RTVSPropertyOp30
 70
     1
102
RTVSPropertyOp31
 70
     1
102
RTVSPropertyOp32
 70
     1
102
RTVSPropertyOp33
 70
     1
102
RTVSPropertyOp34
 70
     1
102
RTVSPropertyOp35
 70
     1
102
RTVSPropertyOp36
 70
     1
102
RTVSPropertyOp37
 70
     1
102
RTVSPropertyOp38
 70
     1
102
RTVSPropertyOp39
 70
     1
102
RTVSPropertyOp40
 70
     1
102
RTVSPropertyOp41
 70
     1
102
RTVSPropertyOp42
 70
     1
102
RTVSPropertyOp43
 70
     1
102
RTVSPropertyOp44
 70
     1
102
RTVSPropertyOp45
 70
     1
102
RTVSPropertyOp46
 70
     1
102
RTVSPropertyOp47
 70
     1
102
RTVSPropertyOp48
 70
     1
102
RTVSPropertyOp49
 70
     1
102
RTVSPropertyOp50
 70
     1
102
RTVSPropertyOp51
 70
     0
102
RTVSPropertyOp52
 70
     0
102
RTVSPropertyOp53
 70
     1
102
RTVSPropertyOp54
 70
     1
102
RTVSPropertyOp55
 70
     1
102
RTVSPropertyOp56
 70
     1
102
RTVSPropertyOp57
 70
     1
102
RTVSPropertyOp58
 70
     1
102
RTVSPropertyOp59
 70
     1
102
RTVSPropertyOp60
 70
     1
102
RTVSPropertyOp61
 70
     1
102
RTVSPropertyOp62
 70
     1
  0
XRECORD
  5
9FF2
102
{ACAD_REACTORS
330
9FF1
102
}
330
9FF1
100
AcDbXrecord
280
     1
102
RTVSPost2010Prop28
280
     0
102
RTVSPost2010PropOp28
 70
     1
102
RTVSPost2010Prop29
280
     1
102
RTVSPost2010PropOp29
 70
     1
102
RTVSPost2010Prop30
280
     1
102
RTVSPost2010PropOp30
 70
     1
102
RTVSPost2010Prop31
280
     0
102
RTVSPost2010PropOp31
 70
     1
102
RTVSPost2010Prop32
280
     0
102
RTVSPost2010PropOp32
 70
     1
102
RTVSPost2010Prop33
280
     0
102
RTVSPost2010PropOp33
 70
     1
102
RTVSPost2010Prop34
280
     0
102
RTVSPost2010PropOp34
 70
     1
102
RTVSPost2010Prop35
280
     0
102
RTVSPost2010PropOp35
 70
     1
102
RTVSPost2010Prop36
280
     0
102
RTVSPost2010PropOp36
 70
     1
102
RTVSPost2010Prop37
 90
       50
102
RTVSPost2010PropOp37
 70
     1
102
RTVSPost2010Prop38
140
0.0
102
RTVSPost2010PropOp38
 70
     1
102
RTVSPost2010Prop39
140
1.0
102
RTVSPost2010PropOp39
 70
     1
102
RTVSPost2010Prop40
 90
        0
102
RTVSPost2010PropOp40
 70
     1
102
RTVSPost2010Prop41ColorIndex
 90
       18
102
RTVSPost2010Prop41ColorRGB
 90
        0
102
RTVSPost2010PropOp41
 70
     1
102
RTVSPost2010Prop42
 90
       50
102
RTVSPost2010PropOp42
 70
     1
102
RTVSPost2010Prop43
 90
        3
102
RTVSPost2010PropOp43
 70
     1
102
RTVSPost2010Prop44ColorIndex
 90
        5
102
RTVSPost2010Prop44ColorRGB
 90
      255
102
RTVSPost2010PropOp44
 70
     1
102
RTVSPost2010Prop45
280
     0
102
RTVSPost2010PropOp45
 70
     1
102
RTVSPost2010Prop46
 90
       50
102
RTVSPost2010PropOp46
 70
     1
102
RTVSPost2010Prop47
 90
       50
102
RTVSPost2010PropOp47
 70
     1
102
RTVSPost2010Prop48
 90
       50
102
RTVSPost2010PropOp48
 70
     1
102
RTVSPost2010Prop49
280
     0
102
RTVSPost2010PropOp49
 70
     1
102
RTVSPost2010Prop50
 90
       50
102
RTVSPost2010PropOp50
 70
     1
102
RTVSPost2010Prop51ColorIndex
 90
      256
102
RTVSPost2010Prop51ColorRGB
 90
-16777216
102
RTVSPost2010PropOp51
 70
     0
102
RTVSPost2010Prop52
140
1.0
102
RTVSPost2010PropOp52
 70
     0
102
RTVSPost2010Prop53
 90
        2
102
RTVSPost2010PropOp53
 70
     1
102
RTVSPost2010Prop54
  1
strokes_ogs.tif
102
RTVSPost2010PropOp54
 70
     1
102
RTVSPost2010Prop55
280
     0
102
RTVSPost2010PropOp55
 70
     1
102
RTVSPost2010Prop56
140
1.0
102
RTVSPost2010PropOp56
 70
     1
102
RTVSPost2010Prop57
140
1.0
102
RTVSPost2010PropOp57
 70
     1
102
RTVSPropertyOp0
 70
     1
102
RTVSPropertyOp1
 70
     1
102
RTVSPropertyOp2
 70
     1
102
RTVSPropertyOp3
 70
     1
102
RTVSPropertyOp4
 70
     1
102
RTVSPropertyOp5
 70
     1
102
RTVSPropertyOp6
 70
     1
102
RTVSPropertyOp7
 70
     1
102
RTVSPropertyOp8
 70
     1
102
RTVSPropertyOp9
 70
     1
102
RTVSPropertyOp10
 70
     1
102
RTVSPropertyOp11
 70
     1
102
RTVSPropertyOp12
 70
     1
102
RTVSPropertyOp13
 70
     1
102
RTVSPropertyOp14
 70
     1
102
RTVSPropertyOp15
 70
     1
102
RTVSPropertyOp16
 70
     1
102
RTVSPropertyOp17
 70
     1
102
RTVSPropertyOp18
 70
     1
102
RTVSPropertyOp19
 70
     1
102
RTVSPropertyOp20
 70
     1
102
RTVSPropertyOp21
 70
     1
102
RTVSPropertyOp22
 70
     1
102
RTVSPropertyOp23
 70
     1
102
RTVSPropertyOp24
 70
     1
102
RTVSPropertyOp25
 70
     1
102
RTVSPropertyOp26
 70
     1
102
RTVSPropertyOp27
 70
     1
102
RTVSPropertyOp28
 70
     1
102
RTVSPropertyOp29
 70
     1
102
RTVSPropertyOp30
 70
     1
102
RTVSPropertyOp31
 70
     1
102
RTVSPropertyOp32
 70
     1
102
RTVSPropertyOp33
 70
     1
102
RTVSPropertyOp34
 70
     1
102
RTVSPropertyOp35
 70
     1
102
RTVSPropertyOp36
 70
     1
102
RTVSPropertyOp37
 70
     1
102
RTVSPropertyOp38
 70
     1
102
RTVSPropertyOp39
 70
     1
102
RTVSPropertyOp40
 70
     1
102
RTVSPropertyOp41
 70
     1
102
RTVSPropertyOp42
 70
     1
102
RTVSPropertyOp43
 70
     1
102
RTVSPropertyOp44
 70
     1
102
RTVSPropertyOp45
 70
     1
102
RTVSPropertyOp46
 70
     1
102
RTVSPropertyOp47
 70
     1
102
RTVSPropertyOp48
 70
     1
102
RTVSPropertyOp49
 70
     1
102
RTVSPropertyOp50
 70
     1
102
RTVSPropertyOp51
 70
     0
102
RTVSPropertyOp52
 70
     0
102
RTVSPropertyOp53
 70
     1
102
RTVSPropertyOp54
 70
     1
102
RTVSPropertyOp55
 70
     1
102
RTVSPropertyOp56
 70
     1
102
RTVSPropertyOp57
 70
     1
102
RTVSPropertyOp58
 70
     1
102
RTVSPropertyOp59
 70
     1
102
RTVSPropertyOp60
 70
     1
102
RTVSPropertyOp61
 70
     1
102
RTVSPropertyOp62
 70
     1
  0
XRECORD
  5
9FF4
102
{ACAD_REACTORS
330
9FF3
102
}
330
9FF3
100
AcDbXrecord
280
     1
102
RTVSPost2010Prop28
280
     0
102
RTVSPost2010PropOp28
 70
     1
102
RTVSPost2010Prop29
280
     1
102
RTVSPost2010PropOp29
 70
     1
102
RTVSPost2010Prop30
280
     1
102
RTVSPost2010PropOp30
 70
     1
102
RTVSPost2010Prop31
280
     0
102
RTVSPost2010PropOp31
 70
     1
102
RTVSPost2010Prop32
280
     0
102
RTVSPost2010PropOp32
 70
     1
102
RTVSPost2010Prop33
280
     0
102
RTVSPost2010PropOp33
 70
     1
102
RTVSPost2010Prop34
280
     0
102
RTVSPost2010PropOp34
 70
     1
102
RTVSPost2010Prop35
280
     0
102
RTVSPost2010PropOp35
 70
     1
102
RTVSPost2010Prop36
280
     0
102
RTVSPost2010PropOp36
 70
     1
102
RTVSPost2010Prop37
 90
       50
102
RTVSPost2010PropOp37
 70
     1
102
RTVSPost2010Prop38
140
0.0
102
RTVSPost2010PropOp38
 70
     1
102
RTVSPost2010Prop39
140
1.0
102
RTVSPost2010PropOp39
 70
     1
102
RTVSPost2010Prop40
 90
        0
102
RTVSPost2010PropOp40
 70
     1
102
RTVSPost2010Prop41ColorIndex
 90
       18
102
RTVSPost2010Prop41ColorRGB
 90
        0
102
RTVSPost2010PropOp41
 70
     1
102
RTVSPost2010Prop42
 90
       50
102
RTVSPost2010PropOp42
 70
     1
102
RTVSPost2010Prop43
 90
        3
102
RTVSPost2010PropOp43
 70
     1
102
RTVSPost2010Prop44ColorIndex
 90
        5
102
RTVSPost2010Prop44ColorRGB
 90
      255
102
RTVSPost2010PropOp44
 70
     1
102
RTVSPost2010Prop45
280
     0
102
RTVSPost2010PropOp45
 70
     1
102
RTVSPost2010Prop46
 90
       50
102
RTVSPost2010PropOp46
 70
     1
102
RTVSPost2010Prop47
 90
       50
102
RTVSPost2010PropOp47
 70
     1
102
RTVSPost2010Prop48
 90
       50
102
RTVSPost2010PropOp48
 70
     1
102
RTVSPost2010Prop49
280
     0
102
RTVSPost2010PropOp49
 70
     1
102
RTVSPost2010Prop50
 90
       50
102
RTVSPost2010PropOp50
 70
     1
102
RTVSPost2010Prop51ColorIndex
 90
      256
102
RTVSPost2010Prop51ColorRGB
 90
-16777216
102
RTVSPost2010PropOp51
 70
     0
102
RTVSPost2010Prop52
140
1.0
102
RTVSPost2010PropOp52
 70
     0
102
RTVSPost2010Prop53
 90
        2
102
RTVSPost2010PropOp53
 70
     1
102
RTVSPost2010Prop54
  1
strokes_ogs.tif
102
RTVSPost2010PropOp54
 70
     1
102
RTVSPost2010Prop55
280
     0
102
RTVSPost2010PropOp55
 70
     1
102
RTVSPost2010Prop56
140
1.0
102
RTVSPost2010PropOp56
 70
     1
102
RTVSPost2010Prop57
140
1.0
102
RTVSPost2010PropOp57
 70
     1
102
RTVSPropertyOp0
 70
     1
102
RTVSPropertyOp1
 70
     1
102
RTVSPropertyOp2
 70
     1
102
RTVSPropertyOp3
 70
     1
102
RTVSPropertyOp4
 70
     1
102
RTVSPropertyOp5
 70
     1
102
RTVSPropertyOp6
 70
     1
102
RTVSPropertyOp7
 70
     1
102
RTVSPropertyOp8
 70
     1
102
RTVSPropertyOp9
 70
     1
102
RTVSPropertyOp10
 70
     1
102
RTVSPropertyOp11
 70
     1
102
RTVSPropertyOp12
 70
     1
102
RTVSPropertyOp13
 70
     1
102
RTVSPropertyOp14
 70
     1
102
RTVSPropertyOp15
 70
     1
102
RTVSPropertyOp16
 70
     1
102
RTVSPropertyOp17
 70
     1
102
RTVSPropertyOp18
 70
     1
102
RTVSPropertyOp19
 70
     1
102
RTVSPropertyOp20
 70
     1
102
RTVSPropertyOp21
 70
     1
102
RTVSPropertyOp22
 70
     1
102
RTVSPropertyOp23
 70
     1
102
RTVSPropertyOp24
 70
     1
102
RTVSPropertyOp25
 70
     1
102
RTVSPropertyOp26
 70
     1
102
RTVSPropertyOp27
 70
     1
102
RTVSPropertyOp28
 70
     1
102
RTVSPropertyOp29
 70
     1
102
RTVSPropertyOp30
 70
     1
102
RTVSPropertyOp31
 70
     1
102
RTVSPropertyOp32
 70
     1
102
RTVSPropertyOp33
 70
     1
102
RTVSPropertyOp34
 70
     1
102
RTVSPropertyOp35
 70
     1
102
RTVSPropertyOp36
 70
     1
102
RTVSPropertyOp37
 70
     1
102
RTVSPropertyOp38
 70
     1
102
RTVSPropertyOp39
 70
     1
102
RTVSPropertyOp40
 70
     1
102
RTVSPropertyOp41
 70
     1
102
RTVSPropertyOp42
 70
     1
102
RTVSPropertyOp43
 70
     1
102
RTVSPropertyOp44
 70
     1
102
RTVSPropertyOp45
 70
     1
102
RTVSPropertyOp46
 70
     1
102
RTVSPropertyOp47
 70
     1
102
RTVSPropertyOp48
 70
     1
102
RTVSPropertyOp49
 70
     1
102
RTVSPropertyOp50
 70
     1
102
RTVSPropertyOp51
 70
     0
102
RTVSPropertyOp52
 70
     0
102
RTVSPropertyOp53
 70
     1
102
RTVSPropertyOp54
 70
     1
102
RTVSPropertyOp55
 70
     1
102
RTVSPropertyOp56
 70
     1
102
RTVSPropertyOp57
 70
     1
102
RTVSPropertyOp58
 70
     1
102
RTVSPropertyOp59
 70
     1
102
RTVSPropertyOp60
 70
     1
102
RTVSPropertyOp61
 70
     1
102
RTVSPropertyOp62
 70
     1
  0
XRECORD
  5
9FF6
102
{ACAD_REACTORS
330
9FF5
102
}
330
9FF5
100
AcDbXrecord
280
     1
102
RTVSPost2010Prop28
280
     0
102
RTVSPost2010PropOp28
 70
     1
102
RTVSPost2010Prop29
280
     1
102
RTVSPost2010PropOp29
 70
     1
102
RTVSPost2010Prop30
280
     1
102
RTVSPost2010PropOp30
 70
     1
102
RTVSPost2010Prop31
280
     0
102
RTVSPost2010PropOp31
 70
     1
102
RTVSPost2010Prop32
280
     0
102
RTVSPost2010PropOp32
 70
     1
102
RTVSPost2010Prop33
280
     0
102
RTVSPost2010PropOp33
 70
     1
102
RTVSPost2010Prop34
280
     0
102
RTVSPost2010PropOp34
 70
     1
102
RTVSPost2010Prop35
280
     0
102
RTVSPost2010PropOp35
 70
     1
102
RTVSPost2010Prop36
280
     0
102
RTVSPost2010PropOp36
 70
     1
102
RTVSPost2010Prop37
 90
       50
102
RTVSPost2010PropOp37
 70
     1
102
RTVSPost2010Prop38
140
0.0
102
RTVSPost2010PropOp38
 70
     1
102
RTVSPost2010Prop39
140
1.0
102
RTVSPost2010PropOp39
 70
     1
102
RTVSPost2010Prop40
 90
        0
102
RTVSPost2010PropOp40
 70
     1
102
RTVSPost2010Prop41ColorIndex
 90
       18
102
RTVSPost2010Prop41ColorRGB
 90
        0
102
RTVSPost2010PropOp41
 70
     1
102
RTVSPost2010Prop42
 90
       50
102
RTVSPost2010PropOp42
 70
     1
102
RTVSPost2010Prop43
 90
        3
102
RTVSPost2010PropOp43
 70
     1
102
RTVSPost2010Prop44ColorIndex
 90
        5
102
RTVSPost2010Prop44ColorRGB
 90
      255
102
RTVSPost2010PropOp44
 70
     1
102
RTVSPost2010Prop45
280
     0
102
RTVSPost2010PropOp45
 70
     1
102
RTVSPost2010Prop46
 90
       50
102
RTVSPost2010PropOp46
 70
     1
102
RTVSPost2010Prop47
 90
       50
102
RTVSPost2010PropOp47
 70
     1
102
RTVSPost2010Prop48
 90
       50
102
RTVSPost2010PropOp48
 70
     1
102
RTVSPost2010Prop49
280
     0
102
RTVSPost2010PropOp49
 70
     1
102
RTVSPost2010Prop50
 90
       50
102
RTVSPost2010PropOp50
 70
     1
102
RTVSPost2010Prop51ColorIndex
 90
      256
102
RTVSPost2010Prop51ColorRGB
 90
-16777216
102
RTVSPost2010PropOp51
 70
     0
102
RTVSPost2010Prop52
140
1.0
102
RTVSPost2010PropOp52
 70
     0
102
RTVSPost2010Prop53
 90
        2
102
RTVSPost2010PropOp53
 70
     1
102
RTVSPost2010Prop54
  1
strokes_ogs.tif
102
RTVSPost2010PropOp54
 70
     1
102
RTVSPost2010Prop55
280
     0
102
RTVSPost2010PropOp55
 70
     1
102
RTVSPost2010Prop56
140
1.0
102
RTVSPost2010PropOp56
 70
     1
102
RTVSPost2010Prop57
140
1.0
102
RTVSPost2010PropOp57
 70
     1
102
RTVSPropertyOp0
 70
     1
102
RTVSPropertyOp1
 70
     1
102
RTVSPropertyOp2
 70
     1
102
RTVSPropertyOp3
 70
     1
102
RTVSPropertyOp4
 70
     1
102
RTVSPropertyOp5
 70
     1
102
RTVSPropertyOp6
 70
     1
102
RTVSPropertyOp7
 70
     1
102
RTVSPropertyOp8
 70
     1
102
RTVSPropertyOp9
 70
     1
102
RTVSPropertyOp10
 70
     1
102
RTVSPropertyOp11
 70
     1
102
RTVSPropertyOp12
 70
     1
102
RTVSPropertyOp13
 70
     1
102
RTVSPropertyOp14
 70
     1
102
RTVSPropertyOp15
 70
     1
102
RTVSPropertyOp16
 70
     1
102
RTVSPropertyOp17
 70
     1
102
RTVSPropertyOp18
 70
     1
102
RTVSPropertyOp19
 70
     1
102
RTVSPropertyOp20
 70
     1
102
RTVSPropertyOp21
 70
     1
102
RTVSPropertyOp22
 70
     1
102
RTVSPropertyOp23
 70
     1
102
RTVSPropertyOp24
 70
     1
102
RTVSPropertyOp25
 70
     1
102
RTVSPropertyOp26
 70
     1
102
RTVSPropertyOp27
 70
     1
102
RTVSPropertyOp28
 70
     1
102
RTVSPropertyOp29
 70
     1
102
RTVSPropertyOp30
 70
     1
102
RTVSPropertyOp31
 70
     1
102
RTVSPropertyOp32
 70
     1
102
RTVSPropertyOp33
 70
     1
102
RTVSPropertyOp34
 70
     1
102
RTVSPropertyOp35
 70
     1
102
RTVSPropertyOp36
 70
     1
102
RTVSPropertyOp37
 70
     1
102
RTVSPropertyOp38
 70
     1
102
RTVSPropertyOp39
 70
     1
102
RTVSPropertyOp40
 70
     1
102
RTVSPropertyOp41
 70
     1
102
RTVSPropertyOp42
 70
     1
102
RTVSPropertyOp43
 70
     1
102
RTVSPropertyOp44
 70
     1
102
RTVSPropertyOp45
 70
     1
102
RTVSPropertyOp46
 70
     1
102
RTVSPropertyOp47
 70
     1
102
RTVSPropertyOp48
 70
     1
102
RTVSPropertyOp49
 70
     1
102
RTVSPropertyOp50
 70
     1
102
RTVSPropertyOp51
 70
     0
102
RTVSPropertyOp52
 70
     0
102
RTVSPropertyOp53
 70
     1
102
RTVSPropertyOp54
 70
     1
102
RTVSPropertyOp55
 70
     1
102
RTVSPropertyOp56
 70
     1
102
RTVSPropertyOp57
 70
     1
102
RTVSPropertyOp58
 70
     1
102
RTVSPropertyOp59
 70
     1
102
RTVSPropertyOp60
 70
     1
102
RTVSPropertyOp61
 70
     1
102
RTVSPropertyOp62
 70
     1
  0
XRECORD
  5
9FFE
102
{ACAD_REACTORS
330
9FFD
102
}
330
9FFD
100
AcDbXrecord
280
     1
102
RTVSPost2010Prop28
280
     0
102
RTVSPost2010PropOp28
 70
     1
102
RTVSPost2010Prop29
280
     1
102
RTVSPost2010PropOp29
 70
     1
102
RTVSPost2010Prop30
280
     1
102
RTVSPost2010PropOp30
 70
     1
102
RTVSPost2010Prop31
280
     0
102
RTVSPost2010PropOp31
 70
     1
102
RTVSPost2010Prop32
280
     0
102
RTVSPost2010PropOp32
 70
     1
102
RTVSPost2010Prop33
280
     0
102
RTVSPost2010PropOp33
 70
     1
102
RTVSPost2010Prop34
280
     0
102
RTVSPost2010PropOp34
 70
     1
102
RTVSPost2010Prop35
280
     0
102
RTVSPost2010PropOp35
 70
     1
102
RTVSPost2010Prop36
280
     0
102
RTVSPost2010PropOp36
 70
     1
102
RTVSPost2010Prop37
 90
       50
102
RTVSPost2010PropOp37
 70
     1
102
RTVSPost2010Prop38
140
0.0
102
RTVSPost2010PropOp38
 70
     1
102
RTVSPost2010Prop39
140
1.0
102
RTVSPost2010PropOp39
 70
     1
102
RTVSPost2010Prop40
 90
        0
102
RTVSPost2010PropOp40
 70
     1
102
RTVSPost2010Prop41ColorIndex
 90
       18
102
RTVSPost2010Prop41ColorRGB
 90
        0
102
RTVSPost2010PropOp41
 70
     1
102
RTVSPost2010Prop42
 90
       50
102
RTVSPost2010PropOp42
 70
     1
102
RTVSPost2010Prop43
 90
        3
102
RTVSPost2010PropOp43
 70
     1
102
RTVSPost2010Prop44ColorIndex
 90
        5
102
RTVSPost2010Prop44ColorRGB
 90
      255
102
RTVSPost2010PropOp44
 70
     1
102
RTVSPost2010Prop45
280
     0
102
RTVSPost2010PropOp45
 70
     1
102
RTVSPost2010Prop46
 90
       50
102
RTVSPost2010PropOp46
 70
     1
102
RTVSPost2010Prop47
 90
       50
102
RTVSPost2010PropOp47
 70
     1
102
RTVSPost2010Prop48
 90
       50
102
RTVSPost2010PropOp48
 70
     1
102
RTVSPost2010Prop49
280
     0
102
RTVSPost2010PropOp49
 70
     1
102
RTVSPost2010Prop50
 90
       50
102
RTVSPost2010PropOp50
 70
     1
102
RTVSPost2010Prop51ColorIndex
 90
      256
102
RTVSPost2010Prop51ColorRGB
 90
-16777216
102
RTVSPost2010PropOp51
 70
     0
102
RTVSPost2010Prop52
140
1.0
102
RTVSPost2010PropOp52
 70
     0
102
RTVSPost2010Prop53
 90
        2
102
RTVSPost2010PropOp53
 70
     1
102
RTVSPost2010Prop54
  1
strokes_ogs.tif
102
RTVSPost2010PropOp54
 70
     1
102
RTVSPost2010Prop55
280
     0
102
RTVSPost2010PropOp55
 70
     1
102
RTVSPost2010Prop56
140
1.0
102
RTVSPost2010PropOp56
 70
     1
102
RTVSPost2010Prop57
140
1.0
102
RTVSPost2010PropOp57
 70
     1
102
RTVSPropertyOp0
 70
     1
102
RTVSPropertyOp1
 70
     1
102
RTVSPropertyOp2
 70
     1
102
RTVSPropertyOp3
 70
     1
102
RTVSPropertyOp4
 70
     1
102
RTVSPropertyOp5
 70
     1
102
RTVSPropertyOp6
 70
     1
102
RTVSPropertyOp7
 70
     1
102
RTVSPropertyOp8
 70
     1
102
RTVSPropertyOp9
 70
     1
102
RTVSPropertyOp10
 70
     1
102
RTVSPropertyOp11
 70
     1
102
RTVSPropertyOp12
 70
     1
102
RTVSPropertyOp13
 70
     1
102
RTVSPropertyOp14
 70
     1
102
RTVSPropertyOp15
 70
     1
102
RTVSPropertyOp16
 70
     1
102
RTVSPropertyOp17
 70
     1
102
RTVSPropertyOp18
 70
     1
102
RTVSPropertyOp19
 70
     1
102
RTVSPropertyOp20
 70
     1
102
RTVSPropertyOp21
 70
     1
102
RTVSPropertyOp22
 70
     1
102
RTVSPropertyOp23
 70
     1
102
RTVSPropertyOp24
 70
     1
102
RTVSPropertyOp25
 70
     1
102
RTVSPropertyOp26
 70
     1
102
RTVSPropertyOp27
 70
     1
102
RTVSPropertyOp28
 70
     1
102
RTVSPropertyOp29
 70
     1
102
RTVSPropertyOp30
 70
     1
102
RTVSPropertyOp31
 70
     1
102
RTVSPropertyOp32
 70
     1
102
RTVSPropertyOp33
 70
     1
102
RTVSPropertyOp34
 70
     1
102
RTVSPropertyOp35
 70
     1
102
RTVSPropertyOp36
 70
     1
102
RTVSPropertyOp37
 70
     1
102
RTVSPropertyOp38
 70
     1
102
RTVSPropertyOp39
 70
     1
102
RTVSPropertyOp40
 70
     1
102
RTVSPropertyOp41
 70
     1
102
RTVSPropertyOp42
 70
     1
102
RTVSPropertyOp43
 70
     1
102
RTVSPropertyOp44
 70
     1
102
RTVSPropertyOp45
 70
     1
102
RTVSPropertyOp46
 70
     1
102
RTVSPropertyOp47
 70
     1
102
RTVSPropertyOp48
 70
     1
102
RTVSPropertyOp49
 70
     1
102
RTVSPropertyOp50
 70
     1
102
RTVSPropertyOp51
 70
     0
102
RTVSPropertyOp52
 70
     0
102
RTVSPropertyOp53
 70
     1
102
RTVSPropertyOp54
 70
     1
102
RTVSPropertyOp55
 70
     1
102
RTVSPropertyOp56
 70
     1
102
RTVSPropertyOp57
 70
     1
102
RTVSPropertyOp58
 70
     1
102
RTVSPropertyOp59
 70
     1
102
RTVSPropertyOp60
 70
     1
102
RTVSPropertyOp61
 70
     1
102
RTVSPropertyOp62
 70
     1
  0
XRECORD
  5
A01A
102
{ACAD_REACTORS
330
A019
102
}
330
A019
100
AcDbXrecord
280
     1
102
RTVSPost2010Prop28
280
     0
102
RTVSPost2010PropOp28
 70
     1
102
RTVSPost2010Prop29
280
     1
102
RTVSPost2010PropOp29
 70
     1
102
RTVSPost2010Prop30
280
     1
102
RTVSPost2010PropOp30
 70
     1
102
RTVSPost2010Prop31
280
     0
102
RTVSPost2010PropOp31
 70
     1
102
RTVSPost2010Prop32
280
     0
102
RTVSPost2010PropOp32
 70
     1
102
RTVSPost2010Prop33
280
     0
102
RTVSPost2010PropOp33
 70
     1
102
RTVSPost2010Prop34
280
     0
102
RTVSPost2010PropOp34
 70
     1
102
RTVSPost2010Prop35
280
     0
102
RTVSPost2010PropOp35
 70
     1
102
RTVSPost2010Prop36
280
     0
102
RTVSPost2010PropOp36
 70
     1
102
RTVSPost2010Prop37
 90
       50
102
RTVSPost2010PropOp37
 70
     0
102
RTVSPost2010Prop38
140
0.0
102
RTVSPost2010PropOp38
 70
     0
102
RTVSPost2010Prop39
140
1.0
102
RTVSPost2010PropOp39
 70
     0
102
RTVSPost2010Prop40
 90
        0
102
RTVSPost2010PropOp40
 70
     0
102
RTVSPost2010Prop41ColorIndex
 90
       18
102
RTVSPost2010Prop41ColorRGB
 90
        0
102
RTVSPost2010PropOp41
 70
     0
102
RTVSPost2010Prop42
 90
       50
102
RTVSPost2010PropOp42
 70
     0
102
RTVSPost2010Prop43
 90
        3
102
RTVSPost2010PropOp43
 70
     0
102
RTVSPost2010Prop44ColorIndex
 90
        5
102
RTVSPost2010Prop44ColorRGB
 90
      255
102
RTVSPost2010PropOp44
 70
     0
102
RTVSPost2010Prop45
280
     0
102
RTVSPost2010PropOp45
 70
     1
102
RTVSPost2010Prop46
 90
       50
102
RTVSPost2010PropOp46
 70
     0
102
RTVSPost2010Prop47
 90
       50
102
RTVSPost2010PropOp47
 70
     0
102
RTVSPost2010Prop48
 90
       50
102
RTVSPost2010PropOp48
 70
     0
102
RTVSPost2010Prop49
280
     0
102
RTVSPost2010PropOp49
 70
     1
102
RTVSPost2010Prop50
 90
       50
102
RTVSPost2010PropOp50
 70
     0
102
RTVSPost2010Prop51ColorIndex
 90
      256
102
RTVSPost2010Prop51ColorRGB
 90
-16777216
102
RTVSPost2010PropOp51
 70
     0
102
RTVSPost2010Prop52
140
1.0
102
RTVSPost2010PropOp52
 70
     0
102
RTVSPost2010Prop53
 90
        2
102
RTVSPost2010PropOp53
 70
     0
102
RTVSPost2010Prop54
  1
strokes_ogs.tif
102
RTVSPost2010PropOp54
 70
     0
102
RTVSPost2010Prop55
280
     0
102
RTVSPost2010PropOp55
 70
     1
102
RTVSPost2010Prop56
140
1.0
102
RTVSPost2010PropOp56
 70
     0
102
RTVSPost2010Prop57
140
1.0
102
RTVSPost2010PropOp57
 70
     0
102
RTVSPropertyOp0
 70
     0
102
RTVSPropertyOp1
 70
     0
102
RTVSPropertyOp2
 70
     0
102
RTVSPropertyOp3
 70
     0
102
RTVSPropertyOp4
 70
     0
102
RTVSPropertyOp5
 70
     0
102
RTVSPropertyOp6
 70
     0
102
RTVSPropertyOp7
 70
     0
102
RTVSPropertyOp8
 70
     0
102
RTVSPropertyOp9
 70
     0
102
RTVSPropertyOp10
 70
     0
102
RTVSPropertyOp11
 70
     0
102
RTVSPropertyOp12
 70
     0
102
RTVSPropertyOp13
 70
     0
102
RTVSPropertyOp14
 70
     2
102
RTVSPropertyOp15
 70
     0
102
RTVSPropertyOp16
 70
     0
102
RTVSPropertyOp17
 70
     0
102
RTVSPropertyOp18
 70
     0
102
RTVSPropertyOp19
 70
     0
102
RTVSPropertyOp20
 70
     0
102
RTVSPropertyOp21
 70
     0
102
RTVSPropertyOp22
 70
     0
102
RTVSPropertyOp23
 70
     0
102
RTVSPropertyOp24
 70
     0
102
RTVSPropertyOp25
 70
     0
102
RTVSPropertyOp26
 70
     0
102
RTVSPropertyOp27
 70
     0
102
RTVSPropertyOp28
 70
     1
102
RTVSPropertyOp29
 70
     1
102
RTVSPropertyOp30
 70
     1
102
RTVSPropertyOp31
 70
     1
102
RTVSPropertyOp32
 70
     1
102
RTVSPropertyOp33
 70
     1
102
RTVSPropertyOp34
 70
     1
102
RTVSPropertyOp35
 70
     1
102
RTVSPropertyOp36
 70
     1
102
RTVSPropertyOp37
 70
     0
102
RTVSPropertyOp38
 70
     0
102
RTVSPropertyOp39
 70
     0
102
RTVSPropertyOp40
 70
     0
102
RTVSPropertyOp41
 70
     0
102
RTVSPropertyOp42
 70
     0
102
RTVSPropertyOp43
 70
     0
102
RTVSPropertyOp44
 70
     0
102
RTVSPropertyOp45
 70
     1
102
RTVSPropertyOp46
 70
     0
102
RTVSPropertyOp47
 70
     0
102
RTVSPropertyOp48
 70
     0
102
RTVSPropertyOp49
 70
     1
102
RTVSPropertyOp50
 70
     0
102
RTVSPropertyOp51
 70
     0
102
RTVSPropertyOp52
 70
     0
102
RTVSPropertyOp53
 70
     0
102
RTVSPropertyOp54
 70
     0
102
RTVSPropertyOp55
 70
     1
102
RTVSPropertyOp56
 70
     0
102
RTVSPropertyOp57
 70
     0
102
RTVSPropertyOp58
 70
     0
102
RTVSPropertyOp59
 70
     0
102
RTVSPropertyOp60
 70
     0
102
RTVSPropertyOp61
 70
     0
102
RTVSPropertyOp62
 70
     0
  0
XRECORD
  5
A00A
102
{ACAD_REACTORS
330
A009
102
}
330
A009
100
AcDbXrecord
280
     1
102
RTVSPost2010Prop28
280
     0
102
RTVSPost2010PropOp28
 70
     1
102
RTVSPost2010Prop29
280
     1
102
RTVSPost2010PropOp29
 70
     1
102
RTVSPost2010Prop30
280
     1
102
RTVSPost2010PropOp30
 70
     1
102
RTVSPost2010Prop31
280
     0
102
RTVSPost2010PropOp31
 70
     1
102
RTVSPost2010Prop32
280
     0
102
RTVSPost2010PropOp32
 70
     1
102
RTVSPost2010Prop33
280
     0
102
RTVSPost2010PropOp33
 70
     1
102
RTVSPost2010Prop34
280
     0
102
RTVSPost2010PropOp34
 70
     1
102
RTVSPost2010Prop35
280
     0
102
RTVSPost2010PropOp35
 70
     1
102
RTVSPost2010Prop36
280
     0
102
RTVSPost2010PropOp36
 70
     1
102
RTVSPost2010Prop37
 90
       50
102
RTVSPost2010PropOp37
 70
     1
102
RTVSPost2010Prop38
140
0.0
102
RTVSPost2010PropOp38
 70
     1
102
RTVSPost2010Prop39
140
1.0
102
RTVSPost2010PropOp39
 70
     1
102
RTVSPost2010Prop40
 90
        0
102
RTVSPost2010PropOp40
 70
     1
102
RTVSPost2010Prop41ColorIndex
 90
       18
102
RTVSPost2010Prop41ColorRGB
 90
        0
102
RTVSPost2010PropOp41
 70
     1
102
RTVSPost2010Prop42
 90
       50
102
RTVSPost2010PropOp42
 70
     1
102
RTVSPost2010Prop43
 90
        3
102
RTVSPost2010PropOp43
 70
     1
102
RTVSPost2010Prop44ColorIndex
 90
        5
102
RTVSPost2010Prop44ColorRGB
 90
      255
102
RTVSPost2010PropOp44
 70
     1
102
RTVSPost2010Prop45
280
     0
102
RTVSPost2010PropOp45
 70
     1
102
RTVSPost2010Prop46
 90
       50
102
RTVSPost2010PropOp46
 70
     1
102
RTVSPost2010Prop47
 90
       50
102
RTVSPost2010PropOp47
 70
     1
102
RTVSPost2010Prop48
 90
       50
102
RTVSPost2010PropOp48
 70
     1
102
RTVSPost2010Prop49
280
     0
102
RTVSPost2010PropOp49
 70
     1
102
RTVSPost2010Prop50
 90
       50
102
RTVSPost2010PropOp50
 70
     1
102
RTVSPost2010Prop51ColorIndex
 90
      256
102
RTVSPost2010Prop51ColorRGB
 90
-16777216
102
RTVSPost2010PropOp51
 70
     0
102
RTVSPost2010Prop52
140
1.0
102
RTVSPost2010PropOp52
 70
     0
102
RTVSPost2010Prop53
 90
        2
102
RTVSPost2010PropOp53
 70
     1
102
RTVSPost2010Prop54
  1
strokes_ogs.tif
102
RTVSPost2010PropOp54
 70
     1
102
RTVSPost2010Prop55
280
     0
102
RTVSPost2010PropOp55
 70
     1
102
RTVSPost2010Prop56
140
1.0
102
RTVSPost2010PropOp56
 70
     1
102
RTVSPost2010Prop57
140
1.0
102
RTVSPost2010PropOp57
 70
     1
102
RTVSPropertyOp0
 70
     1
102
RTVSPropertyOp1
 70
     1
102
RTVSPropertyOp2
 70
     1
102
RTVSPropertyOp3
 70
     1
102
RTVSPropertyOp4
 70
     1
102
RTVSPropertyOp5
 70
     1
102
RTVSPropertyOp6
 70
     1
102
RTVSPropertyOp7
 70
     1
102
RTVSPropertyOp8
 70
     1
102
RTVSPropertyOp9
 70
     1
102
RTVSPropertyOp10
 70
     1
102
RTVSPropertyOp11
 70
     1
102
RTVSPropertyOp12
 70
     1
102
RTVSPropertyOp13
 70
     1
102
RTVSPropertyOp14
 70
     1
102
RTVSPropertyOp15
 70
     1
102
RTVSPropertyOp16
 70
     1
102
RTVSPropertyOp17
 70
     1
102
RTVSPropertyOp18
 70
     1
102
RTVSPropertyOp19
 70
     1
102
RTVSPropertyOp20
 70
     1
102
RTVSPropertyOp21
 70
     1
102
RTVSPropertyOp22
 70
     1
102
RTVSPropertyOp23
 70
     1
102
RTVSPropertyOp24
 70
     1
102
RTVSPropertyOp25
 70
     1
102
RTVSPropertyOp26
 70
     1
102
RTVSPropertyOp27
 70
     1
102
RTVSPropertyOp28
 70
     1
102
RTVSPropertyOp29
 70
     1
102
RTVSPropertyOp30
 70
     1
102
RTVSPropertyOp31
 70
     1
102
RTVSPropertyOp32
 70
     1
102
RTVSPropertyOp33
 70
     1
102
RTVSPropertyOp34
 70
     1
102
RTVSPropertyOp35
 70
     1
102
RTVSPropertyOp36
 70
     1
102
RTVSPropertyOp37
 70
     1
102
RTVSPropertyOp38
 70
     1
102
RTVSPropertyOp39
 70
     1
102
RTVSPropertyOp40
 70
     1
102
RTVSPropertyOp41
 70
     1
102
RTVSPropertyOp42
 70
     1
102
RTVSPropertyOp43
 70
     1
102
RTVSPropertyOp44
 70
     1
102
RTVSPropertyOp45
 70
     1
102
RTVSPropertyOp46
 70
     1
102
RTVSPropertyOp47
 70
     1
102
RTVSPropertyOp48
 70
     1
102
RTVSPropertyOp49
 70
     1
102
RTVSPropertyOp50
 70
     1
102
RTVSPropertyOp51
 70
     0
102
RTVSPropertyOp52
 70
     0
102
RTVSPropertyOp53
 70
     1
102
RTVSPropertyOp54
 70
     1
102
RTVSPropertyOp55
 70
     1
102
RTVSPropertyOp56
 70
     1
102
RTVSPropertyOp57
 70
     1
102
RTVSPropertyOp58
 70
     1
102
RTVSPropertyOp59
 70
     1
102
RTVSPropertyOp60
 70
     1
102
RTVSPropertyOp61
 70
     1
102
RTVSPropertyOp62
 70
     1
  0
XRECORD
  5
A01C
102
{ACAD_REACTORS
330
A01B
102
}
330
A01B
100
AcDbXrecord
280
     1
102
RTVSPost2010Prop28
280
     0
102
RTVSPost2010PropOp28
 70
     1
102
RTVSPost2010Prop29
280
     1
102
RTVSPost2010PropOp29
 70
     1
102
RTVSPost2010Prop30
280
     1
102
RTVSPost2010PropOp30
 70
     1
102
RTVSPost2010Prop31
280
     0
102
RTVSPost2010PropOp31
 70
     1
102
RTVSPost2010Prop32
280
     0
102
RTVSPost2010PropOp32
 70
     1
102
RTVSPost2010Prop33
280
     0
102
RTVSPost2010PropOp33
 70
     1
102
RTVSPost2010Prop34
280
     0
102
RTVSPost2010PropOp34
 70
     1
102
RTVSPost2010Prop35
280
     0
102
RTVSPost2010PropOp35
 70
     1
102
RTVSPost2010Prop36
280
     0
102
RTVSPost2010PropOp36
 70
     1
102
RTVSPost2010Prop37
 90
       50
102
RTVSPost2010PropOp37
 70
     0
102
RTVSPost2010Prop38
140
0.0
102
RTVSPost2010PropOp38
 70
     0
102
RTVSPost2010Prop39
140
1.0
102
RTVSPost2010PropOp39
 70
     0
102
RTVSPost2010Prop40
 90
        0
102
RTVSPost2010PropOp40
 70
     0
102
RTVSPost2010Prop41ColorIndex
 90
       18
102
RTVSPost2010Prop41ColorRGB
 90
        0
102
RTVSPost2010PropOp41
 70
     0
102
RTVSPost2010Prop42
 90
       50
102
RTVSPost2010PropOp42
 70
     0
102
RTVSPost2010Prop43
 90
        3
102
RTVSPost2010PropOp43
 70
     0
102
RTVSPost2010Prop44ColorIndex
 90
        5
102
RTVSPost2010Prop44ColorRGB
 90
      255
102
RTVSPost2010PropOp44
 70
     0
102
RTVSPost2010Prop45
280
     0
102
RTVSPost2010PropOp45
 70
     1
102
RTVSPost2010Prop46
 90
       50
102
RTVSPost2010PropOp46
 70
     0
102
RTVSPost2010Prop47
 90
       50
102
RTVSPost2010PropOp47
 70
     0
102
RTVSPost2010Prop48
 90
       50
102
RTVSPost2010PropOp48
 70
     0
102
RTVSPost2010Prop49
280
     0
102
RTVSPost2010PropOp49
 70
     1
102
RTVSPost2010Prop50
 90
       50
102
RTVSPost2010PropOp50
 70
     0
102
RTVSPost2010Prop51ColorIndex
 90
      256
102
RTVSPost2010Prop51ColorRGB
 90
-16777216
102
RTVSPost2010PropOp51
 70
     0
102
RTVSPost2010Prop52
140
1.0
102
RTVSPost2010PropOp52
 70
     0
102
RTVSPost2010Prop53
 90
        2
102
RTVSPost2010PropOp53
 70
     0
102
RTVSPost2010Prop54
  1
strokes_ogs.tif
102
RTVSPost2010PropOp54
 70
     0
102
RTVSPost2010Prop55
280
     0
102
RTVSPost2010PropOp55
 70
     1
102
RTVSPost2010Prop56
140
1.0
102
RTVSPost2010PropOp56
 70
     0
102
RTVSPost2010Prop57
140
1.0
102
RTVSPost2010PropOp57
 70
     0
102
RTVSPropertyOp0
 70
     0
102
RTVSPropertyOp1
 70
     0
102
RTVSPropertyOp2
 70
     0
102
RTVSPropertyOp3
 70
     0
102
RTVSPropertyOp4
 70
     0
102
RTVSPropertyOp5
 70
     0
102
RTVSPropertyOp6
 70
     0
102
RTVSPropertyOp7
 70
     0
102
RTVSPropertyOp8
 70
     0
102
RTVSPropertyOp9
 70
     0
102
RTVSPropertyOp10
 70
     0
102
RTVSPropertyOp11
 70
     0
102
RTVSPropertyOp12
 70
     0
102
RTVSPropertyOp13
 70
     0
102
RTVSPropertyOp14
 70
     2
102
RTVSPropertyOp15
 70
     0
102
RTVSPropertyOp16
 70
     0
102
RTVSPropertyOp17
 70
     0
102
RTVSPropertyOp18
 70
     0
102
RTVSPropertyOp19
 70
     0
102
RTVSPropertyOp20
 70
     0
102
RTVSPropertyOp21
 70
     0
102
RTVSPropertyOp22
 70
     0
102
RTVSPropertyOp23
 70
     0
102
RTVSPropertyOp24
 70
     0
102
RTVSPropertyOp25
 70
     0
102
RTVSPropertyOp26
 70
     0
102
RTVSPropertyOp27
 70
     0
102
RTVSPropertyOp28
 70
     1
102
RTVSPropertyOp29
 70
     1
102
RTVSPropertyOp30
 70
     1
102
RTVSPropertyOp31
 70
     1
102
RTVSPropertyOp32
 70
     1
102
RTVSPropertyOp33
 70
     1
102
RTVSPropertyOp34
 70
     1
102
RTVSPropertyOp35
 70
     1
102
RTVSPropertyOp36
 70
     1
102
RTVSPropertyOp37
 70
     0
102
RTVSPropertyOp38
 70
     0
102
RTVSPropertyOp39
 70
     0
102
RTVSPropertyOp40
 70
     0
102
RTVSPropertyOp41
 70
     0
102
RTVSPropertyOp42
 70
     0
102
RTVSPropertyOp43
 70
     0
102
RTVSPropertyOp44
 70
     0
102
RTVSPropertyOp45
 70
     1
102
RTVSPropertyOp46
 70
     0
102
RTVSPropertyOp47
 70
     0
102
RTVSPropertyOp48
 70
     0
102
RTVSPropertyOp49
 70
     1
102
RTVSPropertyOp50
 70
     0
102
RTVSPropertyOp51
 70
     0
102
RTVSPropertyOp52
 70
     0
102
RTVSPropertyOp53
 70
     0
102
RTVSPropertyOp54
 70
     0
102
RTVSPropertyOp55
 70
     1
102
RTVSPropertyOp56
 70
     0
102
RTVSPropertyOp57
 70
     0
102
RTVSPropertyOp58
 70
     0
102
RTVSPropertyOp59
 70
     0
102
RTVSPropertyOp60
 70
     0
102
RTVSPropertyOp61
 70
     0
102
RTVSPropertyOp62
 70
     0
  0
XRECORD
  5
A002
102
{ACAD_REACTORS
330
A001
102
}
330
A001
100
AcDbXrecord
280
     1
102
RTVSPost2010Prop28
280
     0
102
RTVSPost2010PropOp28
 70
     1
102
RTVSPost2010Prop29
280
     1
102
RTVSPost2010PropOp29
 70
     1
102
RTVSPost2010Prop30
280
     1
102
RTVSPost2010PropOp30
 70
     1
102
RTVSPost2010Prop31
280
     0
102
RTVSPost2010PropOp31
 70
     1
102
RTVSPost2010Prop32
280
     0
102
RTVSPost2010PropOp32
 70
     1
102
RTVSPost2010Prop33
280
     0
102
RTVSPost2010PropOp33
 70
     1
102
RTVSPost2010Prop34
280
     0
102
RTVSPost2010PropOp34
 70
     1
102
RTVSPost2010Prop35
280
     0
102
RTVSPost2010PropOp35
 70
     1
102
RTVSPost2010Prop36
280
     0
102
RTVSPost2010PropOp36
 70
     1
102
RTVSPost2010Prop37
 90
       50
102
RTVSPost2010PropOp37
 70
     1
102
RTVSPost2010Prop38
140
0.0
102
RTVSPost2010PropOp38
 70
     1
102
RTVSPost2010Prop39
140
1.0
102
RTVSPost2010PropOp39
 70
     1
102
RTVSPost2010Prop40
 90
        0
102
RTVSPost2010PropOp40
 70
     1
102
RTVSPost2010Prop41ColorIndex
 90
       18
102
RTVSPost2010Prop41ColorRGB
 90
        0
102
RTVSPost2010PropOp41
 70
     1
102
RTVSPost2010Prop42
 90
       50
102
RTVSPost2010PropOp42
 70
     1
102
RTVSPost2010Prop43
 90
        3
102
RTVSPost2010PropOp43
 70
     1
102
RTVSPost2010Prop44ColorIndex
 90
        5
102
RTVSPost2010Prop44ColorRGB
 90
      255
102
RTVSPost2010PropOp44
 70
     1
102
RTVSPost2010Prop45
280
     0
102
RTVSPost2010PropOp45
 70
     1
102
RTVSPost2010Prop46
 90
       50
102
RTVSPost2010PropOp46
 70
     1
102
RTVSPost2010Prop47
 90
       50
102
RTVSPost2010PropOp47
 70
     1
102
RTVSPost2010Prop48
 90
       50
102
RTVSPost2010PropOp48
 70
     1
102
RTVSPost2010Prop49
280
     0
102
RTVSPost2010PropOp49
 70
     1
102
RTVSPost2010Prop50
 90
       50
102
RTVSPost2010PropOp50
 70
     1
102
RTVSPost2010Prop51ColorIndex
 90
      256
102
RTVSPost2010Prop51ColorRGB
 90
-16777216
102
RTVSPost2010PropOp51
 70
     0
102
RTVSPost2010Prop52
140
1.0
102
RTVSPost2010PropOp52
 70
     0
102
RTVSPost2010Prop53
 90
        2
102
RTVSPost2010PropOp53
 70
     1
102
RTVSPost2010Prop54
  1
strokes_ogs.tif
102
RTVSPost2010PropOp54
 70
     1
102
RTVSPost2010Prop55
280
     0
102
RTVSPost2010PropOp55
 70
     1
102
RTVSPost2010Prop56
140
1.0
102
RTVSPost2010PropOp56
 70
     1
102
RTVSPost2010Prop57
140
1.0
102
RTVSPost2010PropOp57
 70
     1
102
RTVSPropertyOp0
 70
     1
102
RTVSPropertyOp1
 70
     1
102
RTVSPropertyOp2
 70
     1
102
RTVSPropertyOp3
 70
     1
102
RTVSPropertyOp4
 70
     1
102
RTVSPropertyOp5
 70
     1
102
RTVSPropertyOp6
 70
     1
102
RTVSPropertyOp7
 70
     1
102
RTVSPropertyOp8
 70
     1
102
RTVSPropertyOp9
 70
     1
102
RTVSPropertyOp10
 70
     1
102
RTVSPropertyOp11
 70
     1
102
RTVSPropertyOp12
 70
     1
102
RTVSPropertyOp13
 70
     1
102
RTVSPropertyOp14
 70
     1
102
RTVSPropertyOp15
 70
     1
102
RTVSPropertyOp16
 70
     1
102
RTVSPropertyOp17
 70
     1
102
RTVSPropertyOp18
 70
     1
102
RTVSPropertyOp19
 70
     1
102
RTVSPropertyOp20
 70
     1
102
RTVSPropertyOp21
 70
     1
102
RTVSPropertyOp22
 70
     1
102
RTVSPropertyOp23
 70
     1
102
RTVSPropertyOp24
 70
     1
102
RTVSPropertyOp25
 70
     1
102
RTVSPropertyOp26
 70
     1
102
RTVSPropertyOp27
 70
     1
102
RTVSPropertyOp28
 70
     1
102
RTVSPropertyOp29
 70
     1
102
RTVSPropertyOp30
 70
     1
102
RTVSPropertyOp31
 70
     1
102
RTVSPropertyOp32
 70
     1
102
RTVSPropertyOp33
 70
     1
102
RTVSPropertyOp34
 70
     1
102
RTVSPropertyOp35
 70
     1
102
RTVSPropertyOp36
 70
     1
102
RTVSPropertyOp37
 70
     1
102
RTVSPropertyOp38
 70
     1
102
RTVSPropertyOp39
 70
     1
102
RTVSPropertyOp40
 70
     1
102
RTVSPropertyOp41
 70
     1
102
RTVSPropertyOp42
 70
     1
102
RTVSPropertyOp43
 70
     1
102
RTVSPropertyOp44
 70
     1
102
RTVSPropertyOp45
 70
     1
102
RTVSPropertyOp46
 70
     1
102
RTVSPropertyOp47
 70
     1
102
RTVSPropertyOp48
 70
     1
102
RTVSPropertyOp49
 70
     1
102
RTVSPropertyOp50
 70
     1
102
RTVSPropertyOp51
 70
     0
102
RTVSPropertyOp52
 70
     0
102
RTVSPropertyOp53
 70
     1
102
RTVSPropertyOp54
 70
     1
102
RTVSPropertyOp55
 70
     1
102
RTVSPropertyOp56
 70
     1
102
RTVSPropertyOp57
 70
     1
102
RTVSPropertyOp58
 70
     1
102
RTVSPropertyOp59
 70
     1
102
RTVSPropertyOp60
 70
     1
102
RTVSPropertyOp61
 70
     1
102
RTVSPropertyOp62
 70
     1
  0
XRECORD
  5
A018
102
{ACAD_REACTORS
330
A017
102
}
330
A017
100
AcDbXrecord
280
     1
102
RTVSPost2010Prop28
280
     0
102
RTVSPost2010PropOp28
 70
     1
102
RTVSPost2010Prop29
280
     1
102
RTVSPost2010PropOp29
 70
     1
102
RTVSPost2010Prop30
280
     1
102
RTVSPost2010PropOp30
 70
     1
102
RTVSPost2010Prop31
280
     0
102
RTVSPost2010PropOp31
 70
     1
102
RTVSPost2010Prop32
280
     0
102
RTVSPost2010PropOp32
 70
     1
102
RTVSPost2010Prop33
280
     0
102
RTVSPost2010PropOp33
 70
     1
102
RTVSPost2010Prop34
280
     0
102
RTVSPost2010PropOp34
 70
     1
102
RTVSPost2010Prop35
280
     0
102
RTVSPost2010PropOp35
 70
     1
102
RTVSPost2010Prop36
280
     0
102
RTVSPost2010PropOp36
 70
     1
102
RTVSPost2010Prop37
 90
       50
102
RTVSPost2010PropOp37
 70
     1
102
RTVSPost2010Prop38
140
0.0
102
RTVSPost2010PropOp38
 70
     1
102
RTVSPost2010Prop39
140
1.0
102
RTVSPost2010PropOp39
 70
     1
102
RTVSPost2010Prop40
 90
        0
102
RTVSPost2010PropOp40
 70
     1
102
RTVSPost2010Prop41ColorIndex
 90
       18
102
RTVSPost2010Prop41ColorRGB
 90
        0
102
RTVSPost2010PropOp41
 70
     1
102
RTVSPost2010Prop42
 90
       50
102
RTVSPost2010PropOp42
 70
     1
102
RTVSPost2010Prop43
 90
        3
102
RTVSPost2010PropOp43
 70
     1
102
RTVSPost2010Prop44ColorIndex
 90
        5
102
RTVSPost2010Prop44ColorRGB
 90
      255
102
RTVSPost2010PropOp44
 70
     1
102
RTVSPost2010Prop45
280
     0
102
RTVSPost2010PropOp45
 70
     1
102
RTVSPost2010Prop46
 90
       50
102
RTVSPost2010PropOp46
 70
     1
102
RTVSPost2010Prop47
 90
       50
102
RTVSPost2010PropOp47
 70
     1
102
RTVSPost2010Prop48
 90
       50
102
RTVSPost2010PropOp48
 70
     1
102
RTVSPost2010Prop49
280
     0
102
RTVSPost2010PropOp49
 70
     1
102
RTVSPost2010Prop50
 90
       50
102
RTVSPost2010PropOp50
 70
     1
102
RTVSPost2010Prop51ColorIndex
 90
      256
102
RTVSPost2010Prop51ColorRGB
 90
-16777216
102
RTVSPost2010PropOp51
 70
     0
102
RTVSPost2010Prop52
140
1.0
102
RTVSPost2010PropOp52
 70
     0
102
RTVSPost2010Prop53
 90
        2
102
RTVSPost2010PropOp53
 70
     1
102
RTVSPost2010Prop54
  1
strokes_ogs.tif
102
RTVSPost2010PropOp54
 70
     1
102
RTVSPost2010Prop55
280
     0
102
RTVSPost2010PropOp55
 70
     1
102
RTVSPost2010Prop56
140
1.0
102
RTVSPost2010PropOp56
 70
     1
102
RTVSPost2010Prop57
140
1.0
102
RTVSPost2010PropOp57
 70
     1
102
RTVSPropertyOp0
 70
     1
102
RTVSPropertyOp1
 70
     1
102
RTVSPropertyOp2
 70
     1
102
RTVSPropertyOp3
 70
     1
102
RTVSPropertyOp4
 70
     1
102
RTVSPropertyOp5
 70
     1
102
RTVSPropertyOp6
 70
     1
102
RTVSPropertyOp7
 70
     1
102
RTVSPropertyOp8
 70
     1
102
RTVSPropertyOp9
 70
     1
102
RTVSPropertyOp10
 70
     1
102
RTVSPropertyOp11
 70
     1
102
RTVSPropertyOp12
 70
     1
102
RTVSPropertyOp13
 70
     1
102
RTVSPropertyOp14
 70
     1
102
RTVSPropertyOp15
 70
     1
102
RTVSPropertyOp16
 70
     1
102
RTVSPropertyOp17
 70
     1
102
RTVSPropertyOp18
 70
     1
102
RTVSPropertyOp19
 70
     1
102
RTVSPropertyOp20
 70
     1
102
RTVSPropertyOp21
 70
     1
102
RTVSPropertyOp22
 70
     1
102
RTVSPropertyOp23
 70
     1
102
RTVSPropertyOp24
 70
     1
102
RTVSPropertyOp25
 70
     1
102
RTVSPropertyOp26
 70
     1
102
RTVSPropertyOp27
 70
     1
102
RTVSPropertyOp28
 70
     1
102
RTVSPropertyOp29
 70
     1
102
RTVSPropertyOp30
 70
     1
102
RTVSPropertyOp31
 70
     1
102
RTVSPropertyOp32
 70
     1
102
RTVSPropertyOp33
 70
     1
102
RTVSPropertyOp34
 70
     1
102
RTVSPropertyOp35
 70
     1
102
RTVSPropertyOp36
 70
     1
102
RTVSPropertyOp37
 70
     1
102
RTVSPropertyOp38
 70
     1
102
RTVSPropertyOp39
 70
     1
102
RTVSPropertyOp40
 70
     1
102
RTVSPropertyOp41
 70
     1
102
RTVSPropertyOp42
 70
     1
102
RTVSPropertyOp43
 70
     1
102
RTVSPropertyOp44
 70
     1
102
RTVSPropertyOp45
 70
     1
102
RTVSPropertyOp46
 70
     1
102
RTVSPropertyOp47
 70
     1
102
RTVSPropertyOp48
 70
     1
102
RTVSPropertyOp49
 70
     1
102
RTVSPropertyOp50
 70
     1
102
RTVSPropertyOp51
 70
     0
102
RTVSPropertyOp52
 70
     0
102
RTVSPropertyOp53
 70
     1
102
RTVSPropertyOp54
 70
     1
102
RTVSPropertyOp55
 70
     1
102
RTVSPropertyOp56
 70
     1
102
RTVSPropertyOp57
 70
     1
102
RTVSPropertyOp58
 70
     1
102
RTVSPropertyOp59
 70
     1
102
RTVSPropertyOp60
 70
     1
102
RTVSPropertyOp61
 70
     1
102
RTVSPropertyOp62
 70
     1
  0
XRECORD
  5
A016
102
{ACAD_REACTORS
330
A015
102
}
330
A015
100
AcDbXrecord
280
     1
102
RTVSPost2010Prop28
280
     0
102
RTVSPost2010PropOp28
 70
     1
102
RTVSPost2010Prop29
280
     1
102
RTVSPost2010PropOp29
 70
     1
102
RTVSPost2010Prop30
280
     1
102
RTVSPost2010PropOp30
 70
     1
102
RTVSPost2010Prop31
280
     0
102
RTVSPost2010PropOp31
 70
     1
102
RTVSPost2010Prop32
280
     0
102
RTVSPost2010PropOp32
 70
     1
102
RTVSPost2010Prop33
280
     0
102
RTVSPost2010PropOp33
 70
     1
102
RTVSPost2010Prop34
280
     0
102
RTVSPost2010PropOp34
 70
     1
102
RTVSPost2010Prop35
280
     0
102
RTVSPost2010PropOp35
 70
     1
102
RTVSPost2010Prop36
280
     0
102
RTVSPost2010PropOp36
 70
     1
102
RTVSPost2010Prop37
 90
       50
102
RTVSPost2010PropOp37
 70
     1
102
RTVSPost2010Prop38
140
0.0
102
RTVSPost2010PropOp38
 70
     1
102
RTVSPost2010Prop39
140
1.0
102
RTVSPost2010PropOp39
 70
     1
102
RTVSPost2010Prop40
 90
        0
102
RTVSPost2010PropOp40
 70
     1
102
RTVSPost2010Prop41ColorIndex
 90
       18
102
RTVSPost2010Prop41ColorRGB
 90
        0
102
RTVSPost2010PropOp41
 70
     1
102
RTVSPost2010Prop42
 90
       50
102
RTVSPost2010PropOp42
 70
     1
102
RTVSPost2010Prop43
 90
        3
102
RTVSPost2010PropOp43
 70
     1
102
RTVSPost2010Prop44ColorIndex
 90
        5
102
RTVSPost2010Prop44ColorRGB
 90
      255
102
RTVSPost2010PropOp44
 70
     1
102
RTVSPost2010Prop45
280
     0
102
RTVSPost2010PropOp45
 70
     1
102
RTVSPost2010Prop46
 90
       50
102
RTVSPost2010PropOp46
 70
     1
102
RTVSPost2010Prop47
 90
       50
102
RTVSPost2010PropOp47
 70
     1
102
RTVSPost2010Prop48
 90
       50
102
RTVSPost2010PropOp48
 70
     1
102
RTVSPost2010Prop49
280
     0
102
RTVSPost2010PropOp49
 70
     1
102
RTVSPost2010Prop50
 90
       50
102
RTVSPost2010PropOp50
 70
     1
102
RTVSPost2010Prop51ColorIndex
 90
      256
102
RTVSPost2010Prop51ColorRGB
 90
-16777216
102
RTVSPost2010PropOp51
 70
     0
102
RTVSPost2010Prop52
140
1.0
102
RTVSPost2010PropOp52
 70
     0
102
RTVSPost2010Prop53
 90
        2
102
RTVSPost2010PropOp53
 70
     1
102
RTVSPost2010Prop54
  1
strokes_ogs.tif
102
RTVSPost2010PropOp54
 70
     1
102
RTVSPost2010Prop55
280
     0
102
RTVSPost2010PropOp55
 70
     1
102
RTVSPost2010Prop56
140
1.0
102
RTVSPost2010PropOp56
 70
     1
102
RTVSPost2010Prop57
140
1.0
102
RTVSPost2010PropOp57
 70
     1
102
RTVSPropertyOp0
 70
     1
102
RTVSPropertyOp1
 70
     1
102
RTVSPropertyOp2
 70
     1
102
RTVSPropertyOp3
 70
     1
102
RTVSPropertyOp4
 70
     1
102
RTVSPropertyOp5
 70
     1
102
RTVSPropertyOp6
 70
     1
102
RTVSPropertyOp7
 70
     1
102
RTVSPropertyOp8
 70
     1
102
RTVSPropertyOp9
 70
     1
102
RTVSPropertyOp10
 70
     1
102
RTVSPropertyOp11
 70
     1
102
RTVSPropertyOp12
 70
     1
102
RTVSPropertyOp13
 70
     1
102
RTVSPropertyOp14
 70
     1
102
RTVSPropertyOp15
 70
     1
102
RTVSPropertyOp16
 70
     1
102
RTVSPropertyOp17
 70
     1
102
RTVSPropertyOp18
 70
     1
102
RTVSPropertyOp19
 70
     1
102
RTVSPropertyOp20
 70
     1
102
RTVSPropertyOp21
 70
     1
102
RTVSPropertyOp22
 70
     1
102
RTVSPropertyOp23
 70
     1
102
RTVSPropertyOp24
 70
     1
102
RTVSPropertyOp25
 70
     1
102
RTVSPropertyOp26
 70
     1
102
RTVSPropertyOp27
 70
     1
102
RTVSPropertyOp28
 70
     1
102
RTVSPropertyOp29
 70
     1
102
RTVSPropertyOp30
 70
     1
102
RTVSPropertyOp31
 70
     1
102
RTVSPropertyOp32
 70
     1
102
RTVSPropertyOp33
 70
     1
102
RTVSPropertyOp34
 70
     1
102
RTVSPropertyOp35
 70
     1
102
RTVSPropertyOp36
 70
     1
102
RTVSPropertyOp37
 70
     1
102
RTVSPropertyOp38
 70
     1
102
RTVSPropertyOp39
 70
     1
102
RTVSPropertyOp40
 70
     1
102
RTVSPropertyOp41
 70
     1
102
RTVSPropertyOp42
 70
     1
102
RTVSPropertyOp43
 70
     1
102
RTVSPropertyOp44
 70
     1
102
RTVSPropertyOp45
 70
     1
102
RTVSPropertyOp46
 70
     1
102
RTVSPropertyOp47
 70
     1
102
RTVSPropertyOp48
 70
     1
102
RTVSPropertyOp49
 70
     1
102
RTVSPropertyOp50
 70
     1
102
RTVSPropertyOp51
 70
     0
102
RTVSPropertyOp52
 70
     0
102
RTVSPropertyOp53
 70
     1
102
RTVSPropertyOp54
 70
     1
102
RTVSPropertyOp55
 70
     1
102
RTVSPropertyOp56
 70
     1
102
RTVSPropertyOp57
 70
     1
102
RTVSPropertyOp58
 70
     1
102
RTVSPropertyOp59
 70
     1
102
RTVSPropertyOp60
 70
     1
102
RTVSPropertyOp61
 70
     1
102
RTVSPropertyOp62
 70
     1
  0
XRECORD
  5
A010
102
{ACAD_REACTORS
330
A00F
102
}
330
A00F
100
AcDbXrecord
280
     1
102
RTVSPost2010Prop28
280
     0
102
RTVSPost2010PropOp28
 70
     1
102
RTVSPost2010Prop29
280
     1
102
RTVSPost2010PropOp29
 70
     1
102
RTVSPost2010Prop30
280
     1
102
RTVSPost2010PropOp30
 70
     1
102
RTVSPost2010Prop31
280
     0
102
RTVSPost2010PropOp31
 70
     1
102
RTVSPost2010Prop32
280
     0
102
RTVSPost2010PropOp32
 70
     1
102
RTVSPost2010Prop33
280
     0
102
RTVSPost2010PropOp33
 70
     1
102
RTVSPost2010Prop34
280
     0
102
RTVSPost2010PropOp34
 70
     1
102
RTVSPost2010Prop35
280
     0
102
RTVSPost2010PropOp35
 70
     1
102
RTVSPost2010Prop36
280
     0
102
RTVSPost2010PropOp36
 70
     1
102
RTVSPost2010Prop37
 90
       50
102
RTVSPost2010PropOp37
 70
     1
102
RTVSPost2010Prop38
140
0.0
102
RTVSPost2010PropOp38
 70
     1
102
RTVSPost2010Prop39
140
1.0
102
RTVSPost2010PropOp39
 70
     1
102
RTVSPost2010Prop40
 90
        0
102
RTVSPost2010PropOp40
 70
     1
102
RTVSPost2010Prop41ColorIndex
 90
       18
102
RTVSPost2010Prop41ColorRGB
 90
        0
102
RTVSPost2010PropOp41
 70
     1
102
RTVSPost2010Prop42
 90
       50
102
RTVSPost2010PropOp42
 70
     1
102
RTVSPost2010Prop43
 90
        3
102
RTVSPost2010PropOp43
 70
     1
102
RTVSPost2010Prop44ColorIndex
 90
        5
102
RTVSPost2010Prop44ColorRGB
 90
      255
102
RTVSPost2010PropOp44
 70
     1
102
RTVSPost2010Prop45
280
     0
102
RTVSPost2010PropOp45
 70
     1
102
RTVSPost2010Prop46
 90
       50
102
RTVSPost2010PropOp46
 70
     1
102
RTVSPost2010Prop47
 90
       50
102
RTVSPost2010PropOp47
 70
     1
102
RTVSPost2010Prop48
 90
       50
102
RTVSPost2010PropOp48
 70
     1
102
RTVSPost2010Prop49
280
     0
102
RTVSPost2010PropOp49
 70
     1
102
RTVSPost2010Prop50
 90
       50
102
RTVSPost2010PropOp50
 70
     1
102
RTVSPost2010Prop51ColorIndex
 90
      256
102
RTVSPost2010Prop51ColorRGB
 90
-16777216
102
RTVSPost2010PropOp51
 70
     0
102
RTVSPost2010Prop52
140
1.0
102
RTVSPost2010PropOp52
 70
     0
102
RTVSPost2010Prop53
 90
        2
102
RTVSPost2010PropOp53
 70
     1
102
RTVSPost2010Prop54
  1
strokes_ogs.tif
102
RTVSPost2010PropOp54
 70
     1
102
RTVSPost2010Prop55
280
     0
102
RTVSPost2010PropOp55
 70
     1
102
RTVSPost2010Prop56
140
1.0
102
RTVSPost2010PropOp56
 70
     1
102
RTVSPost2010Prop57
140
1.0
102
RTVSPost2010PropOp57
 70
     1
102
RTVSPropertyOp0
 70
     1
102
RTVSPropertyOp1
 70
     1
102
RTVSPropertyOp2
 70
     1
102
RTVSPropertyOp3
 70
     1
102
RTVSPropertyOp4
 70
     1
102
RTVSPropertyOp5
 70
     1
102
RTVSPropertyOp6
 70
     1
102
RTVSPropertyOp7
 70
     1
102
RTVSPropertyOp8
 70
     1
102
RTVSPropertyOp9
 70
     1
102
RTVSPropertyOp10
 70
     1
102
RTVSPropertyOp11
 70
     1
102
RTVSPropertyOp12
 70
     1
102
RTVSPropertyOp13
 70
     1
102
RTVSPropertyOp14
 70
     1
102
RTVSPropertyOp15
 70
     1
102
RTVSPropertyOp16
 70
     1
102
RTVSPropertyOp17
 70
     1
102
RTVSPropertyOp18
 70
     1
102
RTVSPropertyOp19
 70
     1
102
RTVSPropertyOp20
 70
     1
102
RTVSPropertyOp21
 70
     1
102
RTVSPropertyOp22
 70
     1
102
RTVSPropertyOp23
 70
     1
102
RTVSPropertyOp24
 70
     1
102
RTVSPropertyOp25
 70
     1
102
RTVSPropertyOp26
 70
     1
102
RTVSPropertyOp27
 70
     1
102
RTVSPropertyOp28
 70
     1
102
RTVSPropertyOp29
 70
     1
102
RTVSPropertyOp30
 70
     1
102
RTVSPropertyOp31
 70
     1
102
RTVSPropertyOp32
 70
     1
102
RTVSPropertyOp33
 70
     1
102
RTVSPropertyOp34
 70
     1
102
RTVSPropertyOp35
 70
     1
102
RTVSPropertyOp36
 70
     1
102
RTVSPropertyOp37
 70
     1
102
RTVSPropertyOp38
 70
     1
102
RTVSPropertyOp39
 70
     1
102
RTVSPropertyOp40
 70
     1
102
RTVSPropertyOp41
 70
     1
102
RTVSPropertyOp42
 70
     1
102
RTVSPropertyOp43
 70
     1
102
RTVSPropertyOp44
 70
     1
102
RTVSPropertyOp45
 70
     1
102
RTVSPropertyOp46
 70
     1
102
RTVSPropertyOp47
 70
     1
102
RTVSPropertyOp48
 70
     1
102
RTVSPropertyOp49
 70
     1
102
RTVSPropertyOp50
 70
     1
102
RTVSPropertyOp51
 70
     0
102
RTVSPropertyOp52
 70
     0
102
RTVSPropertyOp53
 70
     1
102
RTVSPropertyOp54
 70
     1
102
RTVSPropertyOp55
 70
     1
102
RTVSPropertyOp56
 70
     1
102
RTVSPropertyOp57
 70
     1
102
RTVSPropertyOp58
 70
     1
102
RTVSPropertyOp59
 70
     1
102
RTVSPropertyOp60
 70
     1
102
RTVSPropertyOp61
 70
     1
102
RTVSPropertyOp62
 70
     1
  0
XRECORD
  5
A012
102
{ACAD_REACTORS
330
A011
102
}
330
A011
100
AcDbXrecord
280
     1
102
RTVSPost2010Prop28
280
     0
102
RTVSPost2010PropOp28
 70
     1
102
RTVSPost2010Prop29
280
     1
102
RTVSPost2010PropOp29
 70
     1
102
RTVSPost2010Prop30
280
     1
102
RTVSPost2010PropOp30
 70
     1
102
RTVSPost2010Prop31
280
     0
102
RTVSPost2010PropOp31
 70
     1
102
RTVSPost2010Prop32
280
     0
102
RTVSPost2010PropOp32
 70
     1
102
RTVSPost2010Prop33
280
     0
102
RTVSPost2010PropOp33
 70
     1
102
RTVSPost2010Prop34
280
     0
102
RTVSPost2010PropOp34
 70
     1
102
RTVSPost2010Prop35
280
     0
102
RTVSPost2010PropOp35
 70
     1
102
RTVSPost2010Prop36
280
     0
102
RTVSPost2010PropOp36
 70
     1
102
RTVSPost2010Prop37
 90
       50
102
RTVSPost2010PropOp37
 70
     1
102
RTVSPost2010Prop38
140
0.0
102
RTVSPost2010PropOp38
 70
     1
102
RTVSPost2010Prop39
140
1.0
102
RTVSPost2010PropOp39
 70
     1
102
RTVSPost2010Prop40
 90
        0
102
RTVSPost2010PropOp40
 70
     1
102
RTVSPost2010Prop41ColorIndex
 90
       18
102
RTVSPost2010Prop41ColorRGB
 90
        0
102
RTVSPost2010PropOp41
 70
     1
102
RTVSPost2010Prop42
 90
       50
102
RTVSPost2010PropOp42
 70
     1
102
RTVSPost2010Prop43
 90
        3
102
RTVSPost2010PropOp43
 70
     1
102
RTVSPost2010Prop44ColorIndex
 90
        5
102
RTVSPost2010Prop44ColorRGB
 90
      255
102
RTVSPost2010PropOp44
 70
     1
102
RTVSPost2010Prop45
280
     0
102
RTVSPost2010PropOp45
 70
     1
102
RTVSPost2010Prop46
 90
       50
102
RTVSPost2010PropOp46
 70
     1
102
RTVSPost2010Prop47
 90
       50
102
RTVSPost2010PropOp47
 70
     1
102
RTVSPost2010Prop48
 90
       50
102
RTVSPost2010PropOp48
 70
     1
102
RTVSPost2010Prop49
280
     0
102
RTVSPost2010PropOp49
 70
     1
102
RTVSPost2010Prop50
 90
       50
102
RTVSPost2010PropOp50
 70
     1
102
RTVSPost2010Prop51ColorIndex
 90
      256
102
RTVSPost2010Prop51ColorRGB
 90
-16777216
102
RTVSPost2010PropOp51
 70
     0
102
RTVSPost2010Prop52
140
1.0
102
RTVSPost2010PropOp52
 70
     0
102
RTVSPost2010Prop53
 90
        2
102
RTVSPost2010PropOp53
 70
     1
102
RTVSPost2010Prop54
  1
strokes_ogs.tif
102
RTVSPost2010PropOp54
 70
     1
102
RTVSPost2010Prop55
280
     0
102
RTVSPost2010PropOp55
 70
     1
102
RTVSPost2010Prop56
140
1.0
102
RTVSPost2010PropOp56
 70
     1
102
RTVSPost2010Prop57
140
1.0
102
RTVSPost2010PropOp57
 70
     1
102
RTVSPropertyOp0
 70
     1
102
RTVSPropertyOp1
 70
     1
102
RTVSPropertyOp2
 70
     1
102
RTVSPropertyOp3
 70
     1
102
RTVSPropertyOp4
 70
     1
102
RTVSPropertyOp5
 70
     1
102
RTVSPropertyOp6
 70
     1
102
RTVSPropertyOp7
 70
     1
102
RTVSPropertyOp8
 70
     1
102
RTVSPropertyOp9
 70
     1
102
RTVSPropertyOp10
 70
     1
102
RTVSPropertyOp11
 70
     1
102
RTVSPropertyOp12
 70
     1
102
RTVSPropertyOp13
 70
     1
102
RTVSPropertyOp14
 70
     1
102
RTVSPropertyOp15
 70
     1
102
RTVSPropertyOp16
 70
     1
102
RTVSPropertyOp17
 70
     1
102
RTVSPropertyOp18
 70
     1
102
RTVSPropertyOp19
 70
     1
102
RTVSPropertyOp20
 70
     1
102
RTVSPropertyOp21
 70
     1
102
RTVSPropertyOp22
 70
     1
102
RTVSPropertyOp23
 70
     1
102
RTVSPropertyOp24
 70
     1
102
RTVSPropertyOp25
 70
     1
102
RTVSPropertyOp26
 70
     1
102
RTVSPropertyOp27
 70
     1
102
RTVSPropertyOp28
 70
     1
102
RTVSPropertyOp29
 70
     1
102
RTVSPropertyOp30
 70
     1
102
RTVSPropertyOp31
 70
     1
102
RTVSPropertyOp32
 70
     1
102
RTVSPropertyOp33
 70
     1
102
RTVSPropertyOp34
 70
     1
102
RTVSPropertyOp35
 70
     1
102
RTVSPropertyOp36
 70
     1
102
RTVSPropertyOp37
 70
     1
102
RTVSPropertyOp38
 70
     1
102
RTVSPropertyOp39
 70
     1
102
RTVSPropertyOp40
 70
     1
102
RTVSPropertyOp41
 70
     1
102
RTVSPropertyOp42
 70
     1
102
RTVSPropertyOp43
 70
     1
102
RTVSPropertyOp44
 70
     1
102
RTVSPropertyOp45
 70
     1
102
RTVSPropertyOp46
 70
     1
102
RTVSPropertyOp47
 70
     1
102
RTVSPropertyOp48
 70
     1
102
RTVSPropertyOp49
 70
     1
102
RTVSPropertyOp50
 70
     1
102
RTVSPropertyOp51
 70
     0
102
RTVSPropertyOp52
 70
     0
102
RTVSPropertyOp53
 70
     1
102
RTVSPropertyOp54
 70
     1
102
RTVSPropertyOp55
 70
     1
102
RTVSPropertyOp56
 70
     1
102
RTVSPropertyOp57
 70
     1
102
RTVSPropertyOp58
 70
     1
102
RTVSPropertyOp59
 70
     1
102
RTVSPropertyOp60
 70
     1
102
RTVSPropertyOp61
 70
     1
102
RTVSPropertyOp62
 70
     1
  0
XRECORD
  5
A008
102
{ACAD_REACTORS
330
A007
102
}
330
A007
100
AcDbXrecord
280
     1
102
RTVSPost2010Prop28
280
     0
102
RTVSPost2010PropOp28
 70
     1
102
RTVSPost2010Prop29
280
     1
102
RTVSPost2010PropOp29
 70
     1
102
RTVSPost2010Prop30
280
     1
102
RTVSPost2010PropOp30
 70
     1
102
RTVSPost2010Prop31
280
     0
102
RTVSPost2010PropOp31
 70
     1
102
RTVSPost2010Prop32
280
     0
102
RTVSPost2010PropOp32
 70
     1
102
RTVSPost2010Prop33
280
     0
102
RTVSPost2010PropOp33
 70
     1
102
RTVSPost2010Prop34
280
     0
102
RTVSPost2010PropOp34
 70
     1
102
RTVSPost2010Prop35
280
     0
102
RTVSPost2010PropOp35
 70
     1
102
RTVSPost2010Prop36
280
     0
102
RTVSPost2010PropOp36
 70
     1
102
RTVSPost2010Prop37
 90
       50
102
RTVSPost2010PropOp37
 70
     1
102
RTVSPost2010Prop38
140
0.0
102
RTVSPost2010PropOp38
 70
     1
102
RTVSPost2010Prop39
140
1.0
102
RTVSPost2010PropOp39
 70
     1
102
RTVSPost2010Prop40
 90
        0
102
RTVSPost2010PropOp40
 70
     1
102
RTVSPost2010Prop41ColorIndex
 90
       18
102
RTVSPost2010Prop41ColorRGB
 90
        0
102
RTVSPost2010PropOp41
 70
     1
102
RTVSPost2010Prop42
 90
       50
102
RTVSPost2010PropOp42
 70
     1
102
RTVSPost2010Prop43
 90
        3
102
RTVSPost2010PropOp43
 70
     1
102
RTVSPost2010Prop44ColorIndex
 90
        5
102
RTVSPost2010Prop44ColorRGB
 90
      255
102
RTVSPost2010PropOp44
 70
     1
102
RTVSPost2010Prop45
280
     0
102
RTVSPost2010PropOp45
 70
     1
102
RTVSPost2010Prop46
 90
       50
102
RTVSPost2010PropOp46
 70
     1
102
RTVSPost2010Prop47
 90
       50
102
RTVSPost2010PropOp47
 70
     1
102
RTVSPost2010Prop48
 90
       50
102
RTVSPost2010PropOp48
 70
     1
102
RTVSPost2010Prop49
280
     0
102
RTVSPost2010PropOp49
 70
     1
102
RTVSPost2010Prop50
 90
       50
102
RTVSPost2010PropOp50
 70
     1
102
RTVSPost2010Prop51ColorIndex
 90
      256
102
RTVSPost2010Prop51ColorRGB
 90
-16777216
102
RTVSPost2010PropOp51
 70
     0
102
RTVSPost2010Prop52
140
1.0
102
RTVSPost2010PropOp52
 70
     0
102
RTVSPost2010Prop53
 90
        2
102
RTVSPost2010PropOp53
 70
     1
102
RTVSPost2010Prop54
  1
strokes_ogs.tif
102
RTVSPost2010PropOp54
 70
     1
102
RTVSPost2010Prop55
280
     0
102
RTVSPost2010PropOp55
 70
     1
102
RTVSPost2010Prop56
140
1.0
102
RTVSPost2010PropOp56
 70
     1
102
RTVSPost2010Prop57
140
1.0
102
RTVSPost2010PropOp57
 70
     1
102
RTVSPropertyOp0
 70
     1
102
RTVSPropertyOp1
 70
     1
102
RTVSPropertyOp2
 70
     1
102
RTVSPropertyOp3
 70
     1
102
RTVSPropertyOp4
 70
     1
102
RTVSPropertyOp5
 70
     1
102
RTVSPropertyOp6
 70
     1
102
RTVSPropertyOp7
 70
     1
102
RTVSPropertyOp8
 70
     1
102
RTVSPropertyOp9
 70
     1
102
RTVSPropertyOp10
 70
     1
102
RTVSPropertyOp11
 70
     1
102
RTVSPropertyOp12
 70
     1
102
RTVSPropertyOp13
 70
     1
102
RTVSPropertyOp14
 70
     1
102
RTVSPropertyOp15
 70
     1
102
RTVSPropertyOp16
 70
     1
102
RTVSPropertyOp17
 70
     1
102
RTVSPropertyOp18
 70
     1
102
RTVSPropertyOp19
 70
     1
102
RTVSPropertyOp20
 70
     1
102
RTVSPropertyOp21
 70
     1
102
RTVSPropertyOp22
 70
     1
102
RTVSPropertyOp23
 70
     1
102
RTVSPropertyOp24
 70
     1
102
RTVSPropertyOp25
 70
     1
102
RTVSPropertyOp26
 70
     1
102
RTVSPropertyOp27
 70
     1
102
RTVSPropertyOp28
 70
     1
102
RTVSPropertyOp29
 70
     1
102
RTVSPropertyOp30
 70
     1
102
RTVSPropertyOp31
 70
     1
102
RTVSPropertyOp32
 70
     1
102
RTVSPropertyOp33
 70
     1
102
RTVSPropertyOp34
 70
     1
102
RTVSPropertyOp35
 70
     1
102
RTVSPropertyOp36
 70
     1
102
RTVSPropertyOp37
 70
     1
102
RTVSPropertyOp38
 70
     1
102
RTVSPropertyOp39
 70
     1
102
RTVSPropertyOp40
 70
     1
102
RTVSPropertyOp41
 70
     1
102
RTVSPropertyOp42
 70
     1
102
RTVSPropertyOp43
 70
     1
102
RTVSPropertyOp44
 70
     1
102
RTVSPropertyOp45
 70
     1
102
RTVSPropertyOp46
 70
     1
102
RTVSPropertyOp47
 70
     1
102
RTVSPropertyOp48
 70
     1
102
RTVSPropertyOp49
 70
     1
102
RTVSPropertyOp50
 70
     1
102
RTVSPropertyOp51
 70
     0
102
RTVSPropertyOp52
 70
     0
102
RTVSPropertyOp53
 70
     1
102
RTVSPropertyOp54
 70
     1
102
RTVSPropertyOp55
 70
     1
102
RTVSPropertyOp56
 70
     1
102
RTVSPropertyOp57
 70
     1
102
RTVSPropertyOp58
 70
     1
102
RTVSPropertyOp59
 70
     1
102
RTVSPropertyOp60
 70
     1
102
RTVSPropertyOp61
 70
     1
102
RTVSPropertyOp62
 70
     1
  0
XRECORD
  5
9FFC
102
{ACAD_REACTORS
330
9FFB
102
}
330
9FFB
100
AcDbXrecord
280
     1
102
RTVSPost2010Prop28
280
     0
102
RTVSPost2010PropOp28
 70
     1
102
RTVSPost2010Prop29
280
     1
102
RTVSPost2010PropOp29
 70
     1
102
RTVSPost2010Prop30
280
     1
102
RTVSPost2010PropOp30
 70
     1
102
RTVSPost2010Prop31
280
     0
102
RTVSPost2010PropOp31
 70
     1
102
RTVSPost2010Prop32
280
     0
102
RTVSPost2010PropOp32
 70
     1
102
RTVSPost2010Prop33
280
     0
102
RTVSPost2010PropOp33
 70
     1
102
RTVSPost2010Prop34
280
     0
102
RTVSPost2010PropOp34
 70
     1
102
RTVSPost2010Prop35
280
     0
102
RTVSPost2010PropOp35
 70
     1
102
RTVSPost2010Prop36
280
     0
102
RTVSPost2010PropOp36
 70
     1
102
RTVSPost2010Prop37
 90
       50
102
RTVSPost2010PropOp37
 70
     1
102
RTVSPost2010Prop38
140
0.0
102
RTVSPost2010PropOp38
 70
     1
102
RTVSPost2010Prop39
140
1.0
102
RTVSPost2010PropOp39
 70
     1
102
RTVSPost2010Prop40
 90
        0
102
RTVSPost2010PropOp40
 70
     1
102
RTVSPost2010Prop41ColorIndex
 90
       18
102
RTVSPost2010Prop41ColorRGB
 90
        0
102
RTVSPost2010PropOp41
 70
     1
102
RTVSPost2010Prop42
 90
       50
102
RTVSPost2010PropOp42
 70
     1
102
RTVSPost2010Prop43
 90
        3
102
RTVSPost2010PropOp43
 70
     1
102
RTVSPost2010Prop44ColorIndex
 90
        5
102
RTVSPost2010Prop44ColorRGB
 90
      255
102
RTVSPost2010PropOp44
 70
     1
102
RTVSPost2010Prop45
280
     0
102
RTVSPost2010PropOp45
 70
     1
102
RTVSPost2010Prop46
 90
       50
102
RTVSPost2010PropOp46
 70
     1
102
RTVSPost2010Prop47
 90
       50
102
RTVSPost2010PropOp47
 70
     1
102
RTVSPost2010Prop48
 90
       50
102
RTVSPost2010PropOp48
 70
     1
102
RTVSPost2010Prop49
280
     0
102
RTVSPost2010PropOp49
 70
     1
102
RTVSPost2010Prop50
 90
       50
102
RTVSPost2010PropOp50
 70
     1
102
RTVSPost2010Prop51ColorIndex
 90
      256
102
RTVSPost2010Prop51ColorRGB
 90
-16777216
102
RTVSPost2010PropOp51
 70
     0
102
RTVSPost2010Prop52
140
1.0
102
RTVSPost2010PropOp52
 70
     0
102
RTVSPost2010Prop53
 90
        2
102
RTVSPost2010PropOp53
 70
     1
102
RTVSPost2010Prop54
  1
strokes_ogs.tif
102
RTVSPost2010PropOp54
 70
     1
102
RTVSPost2010Prop55
280
     0
102
RTVSPost2010PropOp55
 70
     1
102
RTVSPost2010Prop56
140
1.0
102
RTVSPost2010PropOp56
 70
     1
102
RTVSPost2010Prop57
140
1.0
102
RTVSPost2010PropOp57
 70
     1
102
RTVSPropertyOp0
 70
     1
102
RTVSPropertyOp1
 70
     1
102
RTVSPropertyOp2
 70
     1
102
RTVSPropertyOp3
 70
     1
102
RTVSPropertyOp4
 70
     1
102
RTVSPropertyOp5
 70
     1
102
RTVSPropertyOp6
 70
     1
102
RTVSPropertyOp7
 70
     1
102
RTVSPropertyOp8
 70
     1
102
RTVSPropertyOp9
 70
     1
102
RTVSPropertyOp10
 70
     1
102
RTVSPropertyOp11
 70
     1
102
RTVSPropertyOp12
 70
     1
102
RTVSPropertyOp13
 70
     1
102
RTVSPropertyOp14
 70
     1
102
RTVSPropertyOp15
 70
     1
102
RTVSPropertyOp16
 70
     1
102
RTVSPropertyOp17
 70
     1
102
RTVSPropertyOp18
 70
     1
102
RTVSPropertyOp19
 70
     1
102
RTVSPropertyOp20
 70
     1
102
RTVSPropertyOp21
 70
     1
102
RTVSPropertyOp22
 70
     1
102
RTVSPropertyOp23
 70
     1
102
RTVSPropertyOp24
 70
     1
102
RTVSPropertyOp25
 70
     1
102
RTVSPropertyOp26
 70
     1
102
RTVSPropertyOp27
 70
     1
102
RTVSPropertyOp28
 70
     1
102
RTVSPropertyOp29
 70
     1
102
RTVSPropertyOp30
 70
     1
102
RTVSPropertyOp31
 70
     1
102
RTVSPropertyOp32
 70
     1
102
RTVSPropertyOp33
 70
     1
102
RTVSPropertyOp34
 70
     1
102
RTVSPropertyOp35
 70
     1
102
RTVSPropertyOp36
 70
     1
102
RTVSPropertyOp37
 70
     1
102
RTVSPropertyOp38
 70
     1
102
RTVSPropertyOp39
 70
     1
102
RTVSPropertyOp40
 70
     1
102
RTVSPropertyOp41
 70
     1
102
RTVSPropertyOp42
 70
     1
102
RTVSPropertyOp43
 70
     1
102
RTVSPropertyOp44
 70
     1
102
RTVSPropertyOp45
 70
     1
102
RTVSPropertyOp46
 70
     1
102
RTVSPropertyOp47
 70
     1
102
RTVSPropertyOp48
 70
     1
102
RTVSPropertyOp49
 70
     1
102
RTVSPropertyOp50
 70
     1
102
RTVSPropertyOp51
 70
     0
102
RTVSPropertyOp52
 70
     0
102
RTVSPropertyOp53
 70
     1
102
RTVSPropertyOp54
 70
     1
102
RTVSPropertyOp55
 70
     1
102
RTVSPropertyOp56
 70
     1
102
RTVSPropertyOp57
 70
     1
102
RTVSPropertyOp58
 70
     1
102
RTVSPropertyOp59
 70
     1
102
RTVSPropertyOp60
 70
     1
102
RTVSPropertyOp61
 70
     1
102
RTVSPropertyOp62
 70
     1
  0
XRECORD
  5
A014
102
{ACAD_REACTORS
330
A013
102
}
330
A013
100
AcDbXrecord
280
     1
102
RTVSPost2010Prop28
280
     0
102
RTVSPost2010PropOp28
 70
     1
102
RTVSPost2010Prop29
280
     1
102
RTVSPost2010PropOp29
 70
     1
102
RTVSPost2010Prop30
280
     1
102
RTVSPost2010PropOp30
 70
     1
102
RTVSPost2010Prop31
280
     0
102
RTVSPost2010PropOp31
 70
     1
102
RTVSPost2010Prop32
280
     0
102
RTVSPost2010PropOp32
 70
     1
102
RTVSPost2010Prop33
280
     0
102
RTVSPost2010PropOp33
 70
     1
102
RTVSPost2010Prop34
280
     0
102
RTVSPost2010PropOp34
 70
     1
102
RTVSPost2010Prop35
280
     0
102
RTVSPost2010PropOp35
 70
     1
102
RTVSPost2010Prop36
280
     0
102
RTVSPost2010PropOp36
 70
     1
102
RTVSPost2010Prop37
 90
       50
102
RTVSPost2010PropOp37
 70
     1
102
RTVSPost2010Prop38
140
0.0
102
RTVSPost2010PropOp38
 70
     1
102
RTVSPost2010Prop39
140
1.0
102
RTVSPost2010PropOp39
 70
     1
102
RTVSPost2010Prop40
 90
        0
102
RTVSPost2010PropOp40
 70
     1
102
RTVSPost2010Prop41ColorIndex
 90
       18
102
RTVSPost2010Prop41ColorRGB
 90
        0
102
RTVSPost2010PropOp41
 70
     1
102
RTVSPost2010Prop42
 90
       50
102
RTVSPost2010PropOp42
 70
     1
102
RTVSPost2010Prop43
 90
        3
102
RTVSPost2010PropOp43
 70
     1
102
RTVSPost2010Prop44ColorIndex
 90
        5
102
RTVSPost2010Prop44ColorRGB
 90
      255
102
RTVSPost2010PropOp44
 70
     1
102
RTVSPost2010Prop45
280
     0
102
RTVSPost2010PropOp45
 70
     1
102
RTVSPost2010Prop46
 90
       50
102
RTVSPost2010PropOp46
 70
     1
102
RTVSPost2010Prop47
 90
       50
102
RTVSPost2010PropOp47
 70
     1
102
RTVSPost2010Prop48
 90
       50
102
RTVSPost2010PropOp48
 70
     1
102
RTVSPost2010Prop49
280
     0
102
RTVSPost2010PropOp49
 70
     1
102
RTVSPost2010Prop50
 90
       50
102
RTVSPost2010PropOp50
 70
     1
102
RTVSPost2010Prop51ColorIndex
 90
      256
102
RTVSPost2010Prop51ColorRGB
 90
-16777216
102
RTVSPost2010PropOp51
 70
     0
102
RTVSPost2010Prop52
140
1.0
102
RTVSPost2010PropOp52
 70
     0
102
RTVSPost2010Prop53
 90
        2
102
RTVSPost2010PropOp53
 70
     1
102
RTVSPost2010Prop54
  1
strokes_ogs.tif
102
RTVSPost2010PropOp54
 70
     1
102
RTVSPost2010Prop55
280
     0
102
RTVSPost2010PropOp55
 70
     1
102
RTVSPost2010Prop56
140
1.0
102
RTVSPost2010PropOp56
 70
     1
102
RTVSPost2010Prop57
140
1.0
102
RTVSPost2010PropOp57
 70
     1
102
RTVSPropertyOp0
 70
     1
102
RTVSPropertyOp1
 70
     1
102
RTVSPropertyOp2
 70
     1
102
RTVSPropertyOp3
 70
     1
102
RTVSPropertyOp4
 70
     1
102
RTVSPropertyOp5
 70
     1
102
RTVSPropertyOp6
 70
     1
102
RTVSPropertyOp7
 70
     1
102
RTVSPropertyOp8
 70
     1
102
RTVSPropertyOp9
 70
     1
102
RTVSPropertyOp10
 70
     1
102
RTVSPropertyOp11
 70
     1
102
RTVSPropertyOp12
 70
     1
102
RTVSPropertyOp13
 70
     1
102
RTVSPropertyOp14
 70
     1
102
RTVSPropertyOp15
 70
     1
102
RTVSPropertyOp16
 70
     1
102
RTVSPropertyOp17
 70
     1
102
RTVSPropertyOp18
 70
     1
102
RTVSPropertyOp19
 70
     1
102
RTVSPropertyOp20
 70
     1
102
RTVSPropertyOp21
 70
     1
102
RTVSPropertyOp22
 70
     1
102
RTVSPropertyOp23
 70
     1
102
RTVSPropertyOp24
 70
     1
102
RTVSPropertyOp25
 70
     1
102
RTVSPropertyOp26
 70
     1
102
RTVSPropertyOp27
 70
     1
102
RTVSPropertyOp28
 70
     1
102
RTVSPropertyOp29
 70
     1
102
RTVSPropertyOp30
 70
     1
102
RTVSPropertyOp31
 70
     1
102
RTVSPropertyOp32
 70
     1
102
RTVSPropertyOp33
 70
     1
102
RTVSPropertyOp34
 70
     1
102
RTVSPropertyOp35
 70
     1
102
RTVSPropertyOp36
 70
     1
102
RTVSPropertyOp37
 70
     1
102
RTVSPropertyOp38
 70
     1
102
RTVSPropertyOp39
 70
     1
102
RTVSPropertyOp40
 70
     1
102
RTVSPropertyOp41
 70
     1
102
RTVSPropertyOp42
 70
     1
102
RTVSPropertyOp43
 70
     1
102
RTVSPropertyOp44
 70
     1
102
RTVSPropertyOp45
 70
     1
102
RTVSPropertyOp46
 70
     1
102
RTVSPropertyOp47
 70
     1
102
RTVSPropertyOp48
 70
     1
102
RTVSPropertyOp49
 70
     1
102
RTVSPropertyOp50
 70
     1
102
RTVSPropertyOp51
 70
     0
102
RTVSPropertyOp52
 70
     0
102
RTVSPropertyOp53
 70
     1
102
RTVSPropertyOp54
 70
     1
102
RTVSPropertyOp55
 70
     1
102
RTVSPropertyOp56
 70
     1
102
RTVSPropertyOp57
 70
     1
102
RTVSPropertyOp58
 70
     1
102
RTVSPropertyOp59
 70
     1
102
RTVSPropertyOp60
 70
     1
102
RTVSPropertyOp61
 70
     1
102
RTVSPropertyOp62
 70
     1
  0
ENDSEC
  0
EOF
