  0
SECTION
  2
HEADER
  9
$ACADVER
  1
AC1015
  9
$ACADMAINTVER
 70
    20
  9
$DWGCODEPAGE
  3
ANSI_932
  9
$INSBASE
 10
0.0
 20
0.0
 30
0.0
  9
$EXTMIN
 10
10.0
 20
9.999999999999998
 30
0.0
  9
$EXTMAX
 10
775.165695
 20
519.198598
 30
0.0
  9
$LIMMIN
 10
0.0
 20
0.0
  9
$LIMMAX
 10
792.0
 20
546.0
  9
$ORTHOMODE
 70
     1
  9
$REGENMODE
 70
     1
  9
$FILLMODE
 70
     1
  9
$QTEXTMODE
 70
     0
  9
$MIRRTEXT
 70
     1
  9
$LTSCALE
 40
20.0
  9
$ATTMODE
 70
     1
  9
$TEXTSIZE
 40
5.0
  9
$TRACEWID
 40
1.0
  9
$TEXTSTYLE
  7
STANDARD
  9
$CLAYER
  8
0
  9
$CELTYPE
  6
BYLAYER
  9
$CECOLOR
 62
   256
  9
$CELTSCALE
 40
1.0
  9
$DISPSILH
 70
     0
  9
$DIMSCALE
 40
1.0
  9
$DIMASZ
 40
3.0
  9
$DIMEXO
 40
1.0
  9
$DIMDLI
 40
10.0
  9
$DIMRND
 40
0.0
  9
$DIMDLE
 40
0.0
  9
$DIMEXE
 40
1.0
  9
$DIMTP
 40
0.0
  9
$DIMTM
 40
0.0
  9
$DIMTXT
 40
3.2
  9
$DIMCEN
 40
0.0
  9
$DIMTSZ
 40
0.0
  9
$DIMTOL
 70
     0
  9
$DIMLIM
 70
     0
  9
$DIMTIH
 70
     0
  9
$DIMTOH
 70
     0
  9
$DIMSE1
 70
     0
  9
$DIMSE2
 70
     0
  9
$DIMTAD
 70
     3
  9
$DIMZIN
 70
     8
  9
$DIMBLK
  1

  9
$DIMASO
 70
     1
  9
$DIMSHO
 70
     1
  9
$DIMPOST
  1

  9
$DIMAPOST
  1

  9
$DIMALT
 70
     0
  9
$DIMALTD
 70
     2
  9
$DIMALTF
 40
25.4
  9
$DIMLFAC
 40
1.0
  9
$DIMTOFL
 70
     1
  9
$DIMTVP
 40
0.0
  9
$DIMTIX
 70
     0
  9
$DIMSOXD
 70
     0
  9
$DIMSAH
 70
     1
  9
$DIMBLK1
  1
OPEN
  9
$DIMBLK2
  1
OPEN
  9
$DIMSTYLE
  2
STANDARD
  9
$DIMCLRD
 70
     0
  9
$DIMCLRE
 70
     0
  9
$DIMCLRT
 70
     0
  9
$DIMTFAC
 40
1.0
  9
$DIMGAP
 40
1.0
  9
$DIMJUST
 70
     0
  9
$DIMSD1
 70
     0
  9
$DIMSD2
 70
     0
  9
$DIMTOLJ
 70
     1
  9
$DIMTZIN
 70
     0
  9
$DIMALTZ
 70
     0
  9
$DIMALTTZ
 70
     0
  9
$DIMUPT
 70
     0
  9
$DIMDEC
 70
     4
  9
$DIMTDEC
 70
     4
  9
$DIMALTU
 70
     2
  9
$DIMALTTD
 70
     2
  9
$DIMTXSTY
  7
STANDARD
  9
$DIMAUNIT
 70
     0
  9
$DIMADEC
 70
     0
  9
$DIMALTRND
 40
0.0
  9
$DIMAZIN
 70
     0
  9
$DIMDSEP
 70
    46
  9
$DIMATFIT
 70
     3
  9
$DIMFRAC
 70
     0
  9
$DIMLDRBLK
  1
OPEN
  9
$DIMLUNIT
 70
     2
  9
$DIMLWD
 70
    -2
  9
$DIMLWE
 70
    -2
  9
$DIMTMOVE
 70
     0
  9
$LUNITS
 70
     2
  9
$LUPREC
 70
     4
  9
$SKETCHINC
 40
1.0
  9
$FILLETRAD
 40
12.3
  9
$AUNITS
 70
     0
  9
$AUPREC
 70
     2
  9
$MENU
  1
.
  9
$ELEVATION
 40
0.0
  9
$PELEVATION
 40
0.0
  9
$THICKNESS
 40
0.0
  9
$LIMCHECK
 70
     0
  9
$CHAMFERA
 40
1.0
  9
$CHAMFERB
 40
1.0
  9
$CHAMFERC
 40
0.0
  9
$CHAMFERD
 40
0.0
  9
$SKPOLY
 70
     0
  9
$TDCREATE
 40
2451301.773670602
  9
$TDUCREATE
 40
2451301.398670602
  9
$TDUPDATE
 40
2457618.723895521
  9
$TDUUPDATE
 40
2457618.348895521
  9
$TDINDWG
 40
0.0004418634
  9
$TDUSRTIMER
 40
0.0004415741
  9
$USRTIMER
 70
     1
  9
$ANGBASE
 50
0.0
  9
$ANGDIR
 70
     0
  9
$PDMODE
 70
     0
  9
$PDSIZE
 40
0.0
  9
$PLINEWID
 40
0.0
  9
$SPLFRAME
 70
     0
  9
$SPLINETYPE
 70
     6
  9
$SPLINESEGS
 70
     8
  9
$HANDSEED
  5
BF5C
  9
$SURFTAB1
 70
     6
  9
$SURFTAB2
 70
     6
  9
$SURFTYPE
 70
     6
  9
$SURFU
 70
     6
  9
$SURFV
 70
     6
  9
$UCSBASE
  2

  9
$UCSNAME
  2

  9
$UCSORG
 10
0.0
 20
0.0
 30
0.0
  9
$UCSXDIR
 10
1.0
 20
0.0
 30
0.0
  9
$UCSYDIR
 10
0.0
 20
1.0
 30
0.0
  9
$UCSORTHOREF
  2

  9
$UCSORTHOVIEW
 70
     0
  9
$UCSORGTOP
 10
0.0
 20
0.0
 30
0.0
  9
$UCSORGBOTTOM
 10
0.0
 20
0.0
 30
0.0
  9
$UCSORGLEFT
 10
0.0
 20
0.0
 30
0.0
  9
$UCSORGRIGHT
 10
0.0
 20
0.0
 30
0.0
  9
$UCSORGFRONT
 10
0.0
 20
0.0
 30
0.0
  9
$UCSORGBACK
 10
0.0
 20
0.0
 30
0.0
  9
$PUCSBASE
  2

  9
$PUCSNAME
  2

  9
$PUCSORG
 10
0.0
 20
0.0
 30
0.0
  9
$PUCSXDIR
 10
1.0
 20
0.0
 30
0.0
  9
$PUCSYDIR
 10
0.0
 20
1.0
 30
0.0
  9
$PUCSORTHOREF
  2

  9
$PUCSORTHOVIEW
 70
     0
  9
$PUCSORGTOP
 10
0.0
 20
0.0
 30
0.0
  9
$PUCSORGBOTTOM
 10
0.0
 20
0.0
 30
0.0
  9
$PUCSORGLEFT
 10
0.0
 20
0.0
 30
0.0
  9
$PUCSORGRIGHT
 10
0.0
 20
0.0
 30
0.0
  9
$PUCSORGFRONT
 10
0.0
 20
0.0
 30
0.0
  9
$PUCSORGBACK
 10
0.0
 20
0.0
 30
0.0
  9
$USERI1
 70
     0
  9
$USERI2
 70
     0
  9
$USERI3
 70
     0
  9
$USERI4
 70
     0
  9
$USERI5
 70
     0
  9
$USERR1
 40
0.0
  9
$USERR2
 40
0.0
  9
$USERR3
 40
0.0
  9
$USERR4
 40
0.0
  9
$USERR5
 40
0.0
  9
$WORLDVIEW
 70
     1
  9
$SHADEDGE
 70
     3
  9
$SHADEDIF
 70
    70
  9
$TILEMODE
 70
     1
  9
$MAXACTVP
 70
    16
  9
$PINSBASE
 10
0.0
 20
0.0
 30
0.0
  9
$PLIMCHECK
 70
     0
  9
$PEXTMIN
 10
1.000000000000000E+20
 20
1.000000000000000E+20
 30
1.000000000000000E+20
  9
$PEXTMAX
 10
-1.000000000000000E+20
 20
-1.000000000000000E+20
 30
-1.000000000000000E+20
  9
$PLIMMIN
 10
0.0
 20
0.0
  9
$PLIMMAX
 10
420.0
 20
297.0
  9
$UNITMODE
 70
     0
  9
$VISRETAIN
 70
     0
  9
$PLINEGEN
 70
     0
  9
$PSLTSCALE
 70
     0
  9
$TREEDEPTH
 70
  3020
  9
$CMLSTYLE
  2
STANDARD
  9
$CMLJUST
 70
     0
  9
$CMLSCALE
 40
1.0
  9
$PROXYGRAPHICS
 70
     1
  9
$MEASUREMENT
 70
     0
  9
$CELWEIGHT
370
    -1
  9
$ENDCAPS
280
     0
  9
$JOINSTYLE
280
     0
  9
$LWDISPLAY
290
     0
  9
$INSUNITS
 70
     0
  9
$HYPERLINKBASE
  1

  9
$STYLESHEET
  1

  9
$XEDIT
290
     1
  9
$CEPSNTYPE
380
     0
  9
$PSTYLEMODE
290
     1
  9
$FINGERPRINTGUID
  2
{C54E19B9-4A4E-463B-969A-C539F6DA6E9C}
  9
$VERSIONGUID
  2
{5977A108-14BC-484D-ADDD-AFE856F0E3B8}
  9
$EXTNAMES
290
     1
  9
$PSVPSCALE
 40
0.0
  9
$OLESTARTUP
290
     0
  0
ENDSEC
  0
SECTION
  2
CLASSES
  0
CLASS
  1
ACDBDICTIONARYWDFLT
  2
AcDbDictionaryWithDefault
  3
ObjectDBX Classes
 90
        0
280
     0
281
     0
  0
CLASS
  1
ACDBPLACEHOLDER
  2
AcDbPlaceHolder
  3
ObjectDBX Classes
 90
        0
280
     0
281
     0
  0
CLASS
  1
LAYOUT
  2
AcDbLayout
  3
ObjectDBX Classes
 90
        0
280
     0
281
     0
  0
CLASS
  1
DICTIONARYVAR
  2
AcDbDictionaryVar
  3
ObjectDBX Classes
 90
        0
280
     0
281
     0
  0
CLASS
  1
MATERIAL
  2
AcDbMaterial
  3
ObjectDBX Classes
 90
     1153
280
     0
281
     0
  0
CLASS
  1
VISUALSTYLE
  2
AcDbVisualStyle
  3
ObjectDBX Classes
 90
     4095
280
     0
281
     0
  0
CLASS
  1
TABLESTYLE
  2
AcDbTableStyle
  3
ObjectDBX Classes
 90
     4095
280
     0
281
     0
  0
CLASS
  1
SCALE
  2
AcDbScale
  3
ObjectDBX Classes
 90
     1153
280
     0
281
     0
  0
CLASS
  1
MLEADERSTYLE
  2
AcDbMLeaderStyle
  3
ACDB_MLEADERSTYLE_CLASS
 90
     4095
280
     0
281
     0
  0
CLASS
  1
ACDBSECTIONVIEWSTYLE
  2
AcDbSectionViewStyle
  3
ObjectDBX Classes
 90
     1025
280
     0
281
     0
  0
CLASS
  1
ACDBDETAILVIEWSTYLE
  2
AcDbDetailViewStyle
  3
ObjectDBX Classes
 90
     1025
280
     0
281
     0
  0
CLASS
  1
CELLSTYLEMAP
  2
AcDbCellStyleMap
  3
ObjectDBX Classes
 90
     1152
280
     0
281
     0
  0
ENDSEC
  0
SECTION
  2
TABLES
  0
TABLE
  2
VPORT
  5
BA84
330
0
100
AcDbSymbolTable
 70
     1
  0
VPORT
  5
BEA5
330
BA84
100
AcDbSymbolTableRecord
100
AcDbViewportTableRecord
  2
*ACTIVE
 70
     0
 10
0.0
 20
0.0
 11
1.0
 21
1.0
 12
602.686791833474
 22
264.4187634682966
 13
0.0
 23
0.0
 14
10.0
 24
10.0
 15
10.0
 25
10.0
 16
0.0
 26
0.0
 36
1.0
 17
0.0
 27
0.0
 37
0.0
 40
514.5102905721762
 41
2.567642956764295
 42
50.0
 43
0.0
 44
0.0
 50
0.0
 51
0.0
 71
     0
 72
   100
 73
     1
 74
     0
 75
     0
 76
     0
 77
     0
 78
     0
281
     0
 65
     1
110
0.0
120
0.0
130
0.0
111
1.0
121
0.0
131
0.0
112
0.0
122
1.0
132
0.0
 79
     0
146
0.0
1001
ACAD_NAV_VCDISPLAY
1070
     3
  0
ENDTAB
  0
TABLE
  2
LTYPE
  5
BA81
330
0
100
AcDbSymbolTable
 70
     4
  0
LTYPE
  5
BA8F
330
BA81
100
AcDbSymbolTableRecord
100
AcDbLinetypeTableRecord
  2
BYBLOCK
 70
     0
  3

 72
    65
 73
     0
 40
0.0
  0
LTYPE
  5
BA90
330
BA81
100
AcDbSymbolTableRecord
100
AcDbLinetypeTableRecord
  2
BYLAYER
 70
     0
  3

 72
    65
 73
     0
 40
0.0
  0
LTYPE
  5
BA91
330
BA81
100
AcDbSymbolTableRecord
100
AcDbLinetypeTableRecord
  2
CONTINUOUS
 70
     0
  3
Solid line
 72
    65
 73
     0
 40
0.0
  0
LTYPE
  5
BA9F
330
BA81
100
AcDbSymbolTableRecord
100
AcDbLinetypeTableRecord
  2
DASHED
 70
     0
  3
__ __ __ __ __ __ __ __ __ __ __ __ __ __ __ __
 72
    65
 73
     2
 40
0.75
 49
0.5
 74
     0
 49
-0.25
 74
     0
  0
LTYPE
  5
BAA0
330
BA81
100
AcDbSymbolTableRecord
100
AcDbLinetypeTableRecord
  2
CENTER
 70
     0
  3
____ _ ____ _ ____ _ ____ _ ____ _ ____ _ ____ 
 72
    65
 73
     4
 40
2.0
 49
1.25
 74
     0
 49
-0.25
 74
     0
 49
0.25
 74
     0
 49
-0.25
 74
     0
  0
LTYPE
  5
BAA1
330
BA81
100
AcDbSymbolTableRecord
100
AcDbLinetypeTableRecord
  2
PHANTOM
 70
     0
  3
______  __  __  ______  __  __  ______  __  __ 
 72
    65
 73
     6
 40
2.5
 49
1.25
 74
     0
 49
-0.25
 74
     0
 49
0.25
 74
     0
 49
-0.25
 74
     0
 49
0.25
 74
     0
 49
-0.25
 74
     0
  0
ENDTAB
  0
TABLE
  2
LAYER
  5
BA7E
330
0
100
AcDbSymbolTable
 70
     8
  0
LAYER
  5
BA8C
102
{ACAD_XDICTIONARY
360
BF00
102
}
330
BA7E
100
AcDbSymbolTableRecord
100
AcDbLayerTableRecord
  2
0
 70
     0
 62
     7
  6
CONTINUOUS
370
    -3
390
BEAE
  0
LAYER
  5
BAA2
102
{ACAD_XDICTIONARY
360
BF02
102
}
330
BA7E
100
AcDbSymbolTableRecord
100
AcDbLayerTableRecord
  2
4
 70
     0
 62
     1
  6
CENTER
370
    -3
390
BEAE
  0
LAYER
  5
BAA3
102
{ACAD_XDICTIONARY
360
BF04
102
}
330
BA7E
100
AcDbSymbolTableRecord
100
AcDbLayerTableRecord
  2
5
 70
     0
 62
     6
  6
PHANTOM
370
    -3
390
BEAE
  0
LAYER
  5
BAA4
102
{ACAD_XDICTIONARY
360
BF06
102
}
330
BA7E
100
AcDbSymbolTableRecord
100
AcDbLayerTableRecord
  2
1
 70
     0
 62
     7
  6
CONTINUOUS
370
    -3
390
BEAE
  0
LAYER
  5
BAA5
102
{ACAD_XDICTIONARY
360
BF08
102
}
330
BA7E
100
AcDbSymbolTableRecord
100
AcDbLayerTableRecord
  2
2
 70
     0
 62
     4
  6
CONTINUOUS
370
    -3
390
BEAE
  0
LAYER
  5
BAA6
102
{ACAD_XDICTIONARY
360
BF0A
102
}
330
BA7E
100
AcDbSymbolTableRecord
100
AcDbLayerTableRecord
  2
3
 70
     0
 62
     2
  6
DASHED
370
    -3
390
BEAE
  0
LAYER
  5
BAA7
102
{ACAD_XDICTIONARY
360
BF0C
102
}
330
BA7E
100
AcDbSymbolTableRecord
100
AcDbLayerTableRecord
  2
6
 70
     0
 62
     5
  6
CONTINUOUS
370
    -3
390
BEAE
  0
LAYER
  5
BAA8
102
{ACAD_XDICTIONARY
360
BF0E
102
}
330
BA7E
100
AcDbSymbolTableRecord
100
AcDbLayerTableRecord
  2
7
 70
     0
 62
     3
  6
CONTINUOUS
370
    -3
390
BEAE
  0
ENDTAB
  0
TABLE
  2
STYLE
  5
BA7F
330
0
100
AcDbSymbolTable
 70
     1
  0
STYLE
  5
BA8D
330
BA7F
100
AcDbSymbolTableRecord
100
AcDbTextStyleTableRecord
  2
STANDARD
 70
     0
 40
0.0
 41
1.0
 50
0.0
 71
     0
 42
5.0
  3
txt
  4

  0
ENDTAB
  0
TABLE
  2
VIEW
  5
BA82
330
0
100
AcDbSymbolTable
 70
     0
  0
ENDTAB
  0
TABLE
  2
UCS
  5
BA83
330
0
100
AcDbSymbolTable
 70
     0
  0
ENDTAB
  0
TABLE
  2
APPID
  5
BA85
330
0
100
AcDbSymbolTable
 70
     3
  0
APPID
  5
BA8E
330
BA85
100
AcDbSymbolTableRecord
100
AcDbRegAppTableRecord
  2
ACAD
 70
     0
  0
APPID
  5
BF1A
330
BA85
100
AcDbSymbolTableRecord
100
AcDbRegAppTableRecord
  2
ACAD_NAV_VCDISPLAY
 70
     0
  0
APPID
  5
BF53
330
BA85
100
AcDbSymbolTableRecord
100
AcDbRegAppTableRecord
  2
ACAD_MLEADERVER
 70
     0
  0
ENDTAB
  0
TABLE
  2
DIMSTYLE
  5
BA86
330
0
100
AcDbSymbolTable
 70
     1
100
AcDbDimStyleTable
 71
     0
  0
DIMSTYLE
105
BAAA
330
BA86
100
AcDbSymbolTableRecord
100
AcDbDimStyleTableRecord
  2
STANDARD
 70
     0
 41
3.0
 42
1.0
 43
10.0
 44
1.0
 73
     0
 74
     0
 77
     3
 78
     8
140
3.2
141
0.0
147
1.0
172
     1
173
     1
284
     8
285
     8
286
     8
340
BA8D
  0
ENDTAB
  0
TABLE
  2
BLOCK_RECORD
  5
BA7D
330
0
100
AcDbSymbolTable
 70
     1
  0
BLOCK_RECORD
  5
BA9A
102
{ACAD_XDICTIONARY
360
BEA8
102
}
330
BA7D
100
AcDbSymbolTableRecord
100
AcDbBlockTableRecord
  2
*MODEL_SPACE
340
BEFC
  0
BLOCK_RECORD
  5
BA96
102
{ACAD_XDICTIONARY
360
BEA6
102
}
330
BA7D
100
AcDbSymbolTableRecord
100
AcDbBlockTableRecord
  2
*PAPER_SPACE
340
BEFD
  0
BLOCK_RECORD
  5
BAB2
330
BA7D
100
AcDbSymbolTableRecord
100
AcDbBlockTableRecord
  2
_OPEN
340
0
  0
ENDTAB
  0
ENDSEC
  0
SECTION
  2
BLOCKS
  0
BLOCK
  5
BA9B
330
BA9A
100
AcDbEntity
  8
0
100
AcDbBlockBegin
  2
*MODEL_SPACE
 70
     0
 10
0.0
 20
0.0
 30
0.0
  3
*MODEL_SPACE
  1

  0
ENDBLK
  5
BA9C
330
BA9A
100
AcDbEntity
  8
0
100
AcDbBlockEnd
  0
BLOCK
  5
BA97
330
BA96
100
AcDbEntity
 67
     1
  8
0
100
AcDbBlockBegin
  2
*PAPER_SPACE
 70
     0
 10
0.0
 20
0.0
 30
0.0
  3
*PAPER_SPACE
  1

  0
ENDBLK
  5
BA98
330
BA96
100
AcDbEntity
 67
     1
  8
0
100
AcDbBlockEnd
  0
BLOCK
  5
BAB3
330
BAB2
100
AcDbEntity
  8
0
100
AcDbBlockBegin
  2
_OPEN
 70
     0
 10
0.0
 20
0.0
 30
0.0
  3
_OPEN
  1

  0
LINE
  5
BAB4
330
BAB2
100
AcDbEntity
  8
0
  6
ByBlock
 62
     0
100
AcDbLine
 10
-1.0
 20
0.166667
 30
0.0
 11
0.0
 21
0.0
 31
0.0
  0
LINE
  5
BAB5
330
BAB2
100
AcDbEntity
  8
0
  6
ByBlock
 62
     0
100
AcDbLine
 10
0.0
 20
0.0
 30
0.0
 11
-1.0
 21
-0.166667
 31
0.0
  0
LINE
  5
BAB6
330
BAB2
100
AcDbEntity
  8
0
  6
ByBlock
 62
     0
100
AcDbLine
 10
0.0
 20
0.0
 30
0.0
 11
-1.0
 21
0.0
 31
0.0
  0
ENDBLK
  5
BAB7
330
BAB2
100
AcDbEntity
  8
0
100
AcDbBlockEnd
  0
ENDSEC
  0
SECTION
  2
ENTITIES
  0
TEXT
  5
BABC
330
BA9A
100
AcDbEntity
  8
7
  6
Continuous
100
AcDbText
 10
10.0
 20
18.0
 30
0.0
 40
3.0
  1
TYPE No.208MS d=21
100
AcDbText
  0
TEXT
  5
BABD
330
BA9A
100
AcDbEntity
  8
7
  6
Continuous
100
AcDbText
 10
10.0
 20
26.0
 30
0.0
 40
3.0
  1
CODE No.9198
100
AcDbText
  0
TEXT
  5
BABE
330
BA9A
100
AcDbEntity
  8
1
  6
Continuous
100
AcDbText
 10
10.0
 20
10.0
 30
0.0
 40
1.399999999999999
  1
LAYER
100
AcDbText
  0
TEXT
  5
BABF
330
BA9A
100
AcDbEntity
  8
1
  6
Continuous
100
AcDbText
 10
17.97951099999998
 20
10.04873699999998
 30
0.0
 40
1.399999999999999
  1
1
100
AcDbText
  0
TEXT
  5
BAC0
330
BA9A
100
AcDbEntity
  8
7
  6
Continuous
100
AcDbText
 10
29.97951099999999
 20
10.04873699999998
 30
0.0
 40
1.399999999999999
  1
7
100
AcDbText
  0
TEXT
  5
BAC1
330
BA9A
100
AcDbEntity
  8
4
  6
CENTER
100
AcDbText
 10
23.97951099999999
 20
10.04873699999998
 30
0.0
 40
1.399999999999999
  1
4
100
AcDbText
  0
TEXT
  5
BAC2
330
BA9A
100
AcDbEntity
  8
3
  6
DASHED
100
AcDbText
 10
21.979511
 20
10.04873699999998
 30
0.0
 40
1.399999999999999
  1
3
100
AcDbText
  0
TEXT
  5
BAC3
330
BA9A
100
AcDbEntity
  8
2
  6
Continuous
100
AcDbText
 10
19.97951099999999
 20
10.04873699999998
 30
0.0
 40
1.399999999999999
  1
2
100
AcDbText
  0
TEXT
  5
BAC4
330
BA9A
100
AcDbEntity
  8
6
  6
Continuous
100
AcDbText
 10
27.979511
 20
10.04873699999998
 30
0.0
 40
1.399999999999999
  1
6
100
AcDbText
  0
TEXT
  5
BAC5
330
BA9A
100
AcDbEntity
  8
5
  6
PHANTOM
100
AcDbText
 10
25.97951099999999
 20
10.04873699999998
 30
0.0
 40
1.399999999999999
  1
5
100
AcDbText
  0
LINE
  5
BAC6
330
BA9A
100
AcDbEntity
  8
4
  6
CENTER
100
AcDbLine
 10
312.6143379999998
 20
403.7947649999998
 30
0.0
 11
312.6143379999998
 21
250.3780359999999
 31
0.0
  0
LINE
  5
BAC7
330
BA9A
100
AcDbEntity
  8
1
  6
Continuous
100
AcDbLine
 10
325.264338
 20
318.2477749999998
 30
0.0
 11
299.964338
 21
318.2477749999998
 31
0.0
  0
LINE
  5
BAC8
330
BA9A
100
AcDbEntity
  8
4
  6
CENTER
100
AcDbLine
 10
312.6143379999998
 20
511.120723
 30
0.0
 11
312.6143379999998
 21
454.387935
 31
0.0
  0
LINE
  5
BAC9
330
BA9A
100
AcDbEntity
  8
4
  6
CENTER
100
AcDbLine
 10
267.6143379999999
 20
517.954158
 30
0.0
 11
267.6143379999999
 21
445.3776659999999
 31
0.0
  0
LINE
  5
BACA
330
BA9A
100
AcDbEntity
  8
4
  6
CENTER
100
AcDbLine
 10
360.5298639999999
 20
482.0485979999999
 30
0.0
 11
196.260159
 21
482.0485979999999
 31
0.0
  0
ARC
  5
BACB
330
BA9A
100
AcDbEntity
  8
1
  6
Continuous
100
AcDbCircle
 10
249.9427649999999
 20
467.2985979999999
 30
0.0
 40
3.0
100
AcDbArc
 50
199.4712209999999
 51
270.0
  0
ARC
  5
BACC
330
BA9A
100
AcDbEntity
  8
1
  6
Continuous
100
AcDbCircle
 10
249.9427649999999
 20
496.798598
 30
0.0
 40
3.0
100
AcDbArc
 50
90.0
 51
160.528779
  0
LINE
  5
BACD
330
BA9A
100
AcDbEntity
  8
1
  6
Continuous
100
AcDbLine
 10
288.1143379999999
 20
466.298598
 30
0.0
 11
247.114338
 21
466.298598
 31
0.0
  0
LINE
  5
BACE
330
BA9A
100
AcDbEntity
  8
1
  6
Continuous
100
AcDbLine
 10
288.1143379999999
 20
497.798598
 30
0.0
 11
247.114338
 21
497.798598
 31
0.0
  0
CIRCLE
  5
BACF
330
BA9A
100
AcDbEntity
  8
1
  6
Continuous
100
AcDbCircle
 10
312.6143379999998
 20
482.0485979999999
 30
0.0
 40
19.15
  0
CIRCLE
  5
BAD0
330
BA9A
100
AcDbEntity
  8
1
  6
Continuous
100
AcDbCircle
 10
312.6143379999998
 20
482.0485979999999
 30
0.0
 40
6.0
  0
LINE
  5
BAD1
330
BA9A
100
AcDbEntity
  8
1
  6
Continuous
100
AcDbLine
 10
274.3782700000001
 20
501.948598
 30
0.0
 11
260.850406
 21
501.948598
 31
0.0
  0
LINE
  5
BAD2
330
BA9A
100
AcDbEntity
  8
1
  6
Continuous
100
AcDbLine
 10
275.1143379999999
 20
507.548598
 30
0.0
 11
260.1143379999999
 21
507.548598
 31
0.0
  0
LINE
  5
BAD3
330
BA9A
100
AcDbEntity
  8
1
  6
Continuous
100
AcDbLine
 10
283.6143379999999
 20
501.848598
 30
0.0
 11
251.6143379999999
 21
501.848598
 31
0.0
  0
LINE
  5
BAD4
330
BA9A
100
AcDbEntity
  8
1
  6
Continuous
100
AcDbLine
 10
285.285911
 20
499.798598
 30
0.0
 11
249.9427649999999
 21
499.798598
 31
0.0
  0
ARC
  5
BAD5
330
BA9A
100
AcDbEntity
  8
1
  6
Continuous
100
AcDbCircle
 10
285.285911
 20
496.798598
 30
0.0
 40
3.0
100
AcDbArc
 50
19.47122099999998
 51
90.0
  0
LINE
  5
BAD6
330
BA9A
100
AcDbEntity
  8
1
  6
Continuous
100
AcDbLine
 10
283.6143379999999
 20
501.848598
 30
0.0
 11
283.6143379999999
 21
499.798598
 31
0.0
  0
ARC
  5
BAD7
330
BA9A
100
AcDbEntity
  8
1
  6
Continuous
100
AcDbCircle
 10
269.3718029999998
 20
471.2473759999999
 30
0.0
 40
32.5
100
AcDbArc
 50
42.12936699999999
 51
54.78169300000001
  0
LINE
  5
BAD8
330
BA9A
100
AcDbEntity
  8
1
  6
Continuous
100
AcDbLine
 10
273.5893379999998
 20
501.948598
 30
0.0
 11
273.5893379999998
 21
501.848598
 31
0.0
  0
ARC
  5
BAD9
330
BA9A
100
AcDbEntity
  8
1
  6
Continuous
100
AcDbCircle
 10
274.3782700000001
 20
504.948598
 30
0.0
 40
3.0
100
AcDbArc
 50
270.0
 51
318.189685
  0
LINE
  5
BADA
330
BA9A
100
AcDbEntity
  8
1
  6
Continuous
100
AcDbLine
 10
275.1143379999999
 20
507.548598
 30
0.0
 11
275.1143379999999
 21
506.572415
 31
0.0
  0
ARC
  5
BADB
330
BA9A
100
AcDbEntity
  8
1
  6
Continuous
100
AcDbCircle
 10
260.850406
 20
504.948598
 30
0.0
 40
3.0
100
AcDbArc
 50
221.810315
 51
270.0
  0
LINE
  5
BADC
330
BA9A
100
AcDbEntity
  8
1
  6
Continuous
100
AcDbLine
 10
261.639338
 20
501.948598
 30
0.0
 11
261.639338
 21
501.848598
 31
0.0
  0
LINE
  5
BADD
330
BA9A
100
AcDbEntity
  8
1
  6
Continuous
100
AcDbLine
 10
260.1143379999999
 20
507.548598
 30
0.0
 11
260.1143379999999
 21
505.2485980000001
 31
0.0
  0
LINE
  5
BADE
330
BA9A
100
AcDbEntity
  8
1
  6
Continuous
100
AcDbLine
 10
257.1143379999999
 20
505.2485980000001
 30
0.0
 11
257.1143379999999
 21
502.948598
 31
0.0
  0
LINE
  5
BADF
330
BA9A
100
AcDbEntity
  8
1
  6
Continuous
100
AcDbLine
 10
251.6143379999999
 20
501.848598
 30
0.0
 11
251.6143379999999
 21
499.798598
 31
0.0
  0
LINE
  5
BAE0
330
BA9A
100
AcDbEntity
  8
1
  6
Continuous
100
AcDbLine
 10
274.3782700000001
 20
462.148598
 30
0.0
 11
260.850406
 21
462.148598
 31
0.0
  0
LINE
  5
BAE1
330
BA9A
100
AcDbEntity
  8
1
  6
Continuous
100
AcDbLine
 10
275.1143379999999
 20
456.548598
 30
0.0
 11
260.1143379999999
 21
456.548598
 31
0.0
  0
LINE
  5
BAE2
330
BA9A
100
AcDbEntity
  8
1
  6
Continuous
100
AcDbLine
 10
283.6143379999999
 20
462.248598
 30
0.0
 11
251.6143379999999
 21
462.248598
 31
0.0
  0
LINE
  5
BAE3
330
BA9A
100
AcDbEntity
  8
1
  6
Continuous
100
AcDbLine
 10
285.285911
 20
464.298598
 30
0.0
 11
249.9427649999999
 21
464.298598
 31
0.0
  0
ARC
  5
BAE4
330
BA9A
100
AcDbEntity
  8
1
  6
Continuous
100
AcDbCircle
 10
269.3718029999998
 20
492.8498199999999
 30
0.0
 40
32.5
100
AcDbArc
 50
305.2183069999998
 51
317.870633
  0
LINE
  5
BAE5
330
BA9A
100
AcDbEntity
  8
1
  6
Continuous
100
AcDbLine
 10
283.6143379999999
 20
464.298598
 30
0.0
 11
283.6143379999999
 21
462.248598
 31
0.0
  0
ARC
  5
BAE6
330
BA9A
100
AcDbEntity
  8
1
  6
Continuous
100
AcDbCircle
 10
285.285911
 20
467.2985979999999
 30
0.0
 40
3.0
100
AcDbArc
 50
270.0
 51
340.528779
  0
LINE
  5
BAE7
330
BA9A
100
AcDbEntity
  8
1
  6
Continuous
100
AcDbLine
 10
273.5893379999998
 20
462.248598
 30
0.0
 11
273.5893379999998
 21
462.148598
 31
0.0
  0
ARC
  5
BAE8
330
BA9A
100
AcDbEntity
  8
1
  6
Continuous
100
AcDbCircle
 10
274.3782700000001
 20
459.1485979999998
 30
0.0
 40
3.0
100
AcDbArc
 50
41.810315
 51
90.0
  0
LINE
  5
BAE9
330
BA9A
100
AcDbEntity
  8
1
  6
Continuous
100
AcDbLine
 10
275.1143379999999
 20
457.524782
 30
0.0
 11
275.1143379999999
 21
456.548598
 31
0.0
  0
LINE
  5
BAEA
330
BA9A
100
AcDbEntity
  8
1
  6
Continuous
100
AcDbLine
 10
260.1143379999999
 20
458.8485979999998
 30
0.0
 11
260.1143379999999
 21
456.548598
 31
0.0
  0
ARC
  5
BAEB
330
BA9A
100
AcDbEntity
  8
1
  6
Continuous
100
AcDbCircle
 10
260.850406
 20
459.1485979999998
 30
0.0
 40
3.0
100
AcDbArc
 50
90.0
 51
138.1896849999999
  0
LINE
  5
BAEC
330
BA9A
100
AcDbEntity
  8
1
  6
Continuous
100
AcDbLine
 10
261.639338
 20
462.248598
 30
0.0
 11
261.639338
 21
462.148598
 31
0.0
  0
LINE
  5
BAED
330
BA9A
100
AcDbEntity
  8
1
  6
Continuous
100
AcDbLine
 10
257.1143379999999
 20
461.148598
 30
0.0
 11
257.1143379999999
 21
458.8485979999998
 31
0.0
  0
LINE
  5
BAEE
330
BA9A
100
AcDbEntity
  8
1
  6
Continuous
100
AcDbLine
 10
251.6143379999999
 20
464.298598
 30
0.0
 11
251.6143379999999
 21
462.248598
 31
0.0
  0
ARC
  5
BAEF
330
BA9A
100
AcDbEntity
  8
1
  6
Continuous
100
AcDbCircle
 10
265.856873
 20
471.2473759999999
 30
0.0
 40
32.5
100
AcDbArc
 50
125.218307
 51
137.8706329999999
  0
ARC
  5
BAF0
330
BA9A
100
AcDbEntity
  8
1
  6
Continuous
100
AcDbCircle
 10
265.856873
 20
492.8498199999999
 30
0.0
 40
32.5
100
AcDbArc
 50
222.129367
 51
234.781693
  0
LINE
  5
BAF1
330
BA9A
100
AcDbEntity
  8
4
  6
CENTER
100
AcDbLine
 10
72.00595899999997
 20
403.7947649999998
 30
0.0
 11
72.00595899999997
 21
150.0885159999999
 31
0.0
  0
ARC
  5
BAF2
330
BA9A
100
AcDbEntity
  8
1
  6
Continuous
100
AcDbCircle
 10
61.204737
 20
222.49031
 30
0.0
 40
32.5
100
AcDbArc
 50
312.129367
 51
324.781693
  0
ARC
  5
BAF3
330
BA9A
100
AcDbEntity
  8
1
  6
Continuous
100
AcDbCircle
 10
82.80718099999999
 20
222.49031
 30
0.0
 40
32.5
100
AcDbArc
 50
215.2183069999999
 51
227.8706329999999
  0
LINE
  5
BAF4
330
BA9A
100
AcDbEntity
  8
4
  6
CENTER
100
AcDbLine
 10
35.48353999999999
 20
224.2477749999999
 30
0.0
 11
108.0783009999999
 21
224.2477749999999
 31
0.0
  0
ARC
  5
BAF5
330
BA9A
100
AcDbEntity
  8
1
  6
Continuous
100
AcDbCircle
 10
82.80718099999999
 20
226.0052399999999
 30
0.0
 40
32.5
100
AcDbArc
 50
132.1293669999998
 51
144.7816929999999
  0
ARC
  5
BAF6
330
BA9A
100
AcDbEntity
  8
1
  6
Continuous
100
AcDbCircle
 10
59.20099399999998
 20
285.447775
 30
0.0
 40
3.0
100
AcDbArc
 50
90.0
 51
179.431016
  0
ARC
  5
BAF7
330
BA9A
100
AcDbEntity
  8
1
  6
Continuous
100
AcDbCircle
 10
-41.49404099999999
 20
286.4477749999998
 30
0.0
 40
97.70000000000001
100
AcDbArc
 50
343.708766
 51
359.431016
  0
ARC
  5
BAF8
330
BA9A
100
AcDbEntity
  8
1
  6
Continuous
100
AcDbCircle
 10
-41.49404099999999
 20
286.4477749999998
 30
0.0
 40
100.0
100
AcDbArc
 50
343.708766
 51
0.0
  0
ARC
  5
BAF9
330
BA9A
100
AcDbEntity
  8
1
  6
Continuous
100
AcDbCircle
 10
59.355959
 20
311.7477749999999
 30
0.0
 40
6.5
100
AcDbArc
 50
90.0
 51
180.0
  0
LINE
  5
BAFA
330
BA9A
100
AcDbEntity
  8
1
  6
Continuous
100
AcDbLine
 10
52.855959
 20
302.247775
 30
0.0
 11
91.155959
 21
302.247775
 31
0.0
  0
ARC
  5
BAFB
330
BA9A
100
AcDbEntity
  8
1
  6
Continuous
100
AcDbCircle
 10
1.505959
 20
277.4477749999999
 30
0.0
 40
50.0
100
AcDbArc
 50
348.7530469999999
 51
0.0
  0
LINE
  5
BAFC
330
BA9A
100
AcDbEntity
  8
1
  6
Continuous
100
AcDbLine
 10
52.205959
 20
240.247775
 30
0.0
 11
52.205959
 21
208.2477749999999
 31
0.0
  0
ARC
  5
BAFD
330
BA9A
100
AcDbEntity
  8
1
  6
Continuous
100
AcDbCircle
 10
295.7446549999999
 20
218.936324
 30
0.0
 40
250.0
100
AcDbArc
 50
168.753047
 51
177.193756
  0
ARC
  5
BAFE
330
BA9A
100
AcDbEntity
  8
1
  6
Continuous
100
AcDbCircle
 10
135.4066349999999
 20
234.7477749999999
 30
0.0
 40
86.60067600000003
100
AcDbArc
 50
163.7087659999999
 51
180.0
  0
ARC
  5
BAFF
330
BA9A
100
AcDbEntity
  8
1
  6
Continuous
100
AcDbCircle
 10
135.4066349999999
 20
234.7477749999999
 30
0.0
 40
84.30067599999999
100
AcDbArc
 50
163.7087659999999
 51
180.0
  0
LINE
  5
BB00
330
BA9A
100
AcDbEntity
  8
1
  6
Continuous
100
AcDbLine
 10
56.255959
 20
244.747775
 30
0.0
 11
56.255959
 21
203.7477749999999
 31
0.0
  0
LINE
  5
BB01
330
BA9A
100
AcDbEntity
  8
1
  6
Continuous
100
AcDbLine
 10
54.255959
 20
241.919348
 30
0.0
 11
54.255959
 21
206.576203
 31
0.0
  0
LINE
  5
BB02
330
BA9A
100
AcDbEntity
  8
1
  6
Continuous
100
AcDbLine
 10
52.10595900000001
 20
231.0117069999999
 30
0.0
 11
52.10595900000001
 21
217.483843
 31
0.0
  0
LINE
  5
BB03
330
BA9A
100
AcDbEntity
  8
1
  6
Continuous
100
AcDbLine
 10
46.50595899999999
 20
231.747775
 30
0.0
 11
46.50595899999999
 21
216.7477749999999
 31
0.0
  0
LINE
  5
BB04
330
BA9A
100
AcDbEntity
  8
1
  6
Continuous
100
AcDbLine
 10
48.805959
 20
234.7477749999999
 30
0.0
 11
48.805959
 21
213.7477749999999
 31
0.0
  0
LINE
  5
BB05
330
BA9A
100
AcDbEntity
  8
1
  6
Continuous
100
AcDbLine
 10
51.10595899999999
 20
234.7477749999999
 30
0.0
 11
51.10595899999999
 21
213.7477749999999
 31
0.0
  0
LINE
  5
BB06
330
BA9A
100
AcDbEntity
  8
1
  6
Continuous
100
AcDbLine
 10
52.205959
 20
208.2477749999999
 30
0.0
 11
54.255959
 21
208.2477749999999
 31
0.0
  0
ARC
  5
BB07
330
BA9A
100
AcDbEntity
  8
1
  6
Continuous
100
AcDbCircle
 10
57.255959
 20
206.576203
 30
0.0
 40
3.0
100
AcDbArc
 50
180.0
 51
250.5287789999999
  0
LINE
  5
BB08
330
BA9A
100
AcDbEntity
  8
1
  6
Continuous
100
AcDbLine
 10
48.805959
 20
213.7477749999999
 30
0.0
 11
51.10595899999999
 21
213.7477749999999
 31
0.0
  0
LINE
  5
BB09
330
BA9A
100
AcDbEntity
  8
1
  6
Continuous
100
AcDbLine
 10
46.50595899999999
 20
216.7477749999999
 30
0.0
 11
48.805959
 21
216.7477749999999
 31
0.0
  0
ARC
  5
BB0A
330
BA9A
100
AcDbEntity
  8
1
  6
Continuous
100
AcDbCircle
 10
65.680959
 20
224.2477749999999
 30
0.0
 40
19.875
100
AcDbArc
 50
202.170157
 51
211.8907919999998
  0
LINE
  5
BB0B
330
BA9A
100
AcDbEntity
  8
1
  6
Continuous
100
AcDbLine
 10
52.10595900000001
 20
218.272775
 30
0.0
 11
52.205959
 21
218.272775
 31
0.0
  0
ARC
  5
BB0C
330
BA9A
100
AcDbEntity
  8
1
  6
Continuous
100
AcDbCircle
 10
49.105959
 20
217.483843
 30
0.0
 40
3.0
100
AcDbArc
 50
311.810315
 51
0.0
  0
ARC
  5
BB0D
330
BA9A
100
AcDbEntity
  8
1
  6
Continuous
100
AcDbCircle
 10
65.680959
 20
224.2477749999999
 30
0.0
 40
19.875
100
AcDbArc
 50
148.1092079999999
 51
157.8298429999998
  0
LINE
  5
BB0E
330
BA9A
100
AcDbEntity
  8
1
  6
Continuous
100
AcDbLine
 10
46.50595899999999
 20
231.747775
 30
0.0
 11
48.805959
 21
231.747775
 31
0.0
  0
LINE
  5
BB0F
330
BA9A
100
AcDbEntity
  8
1
  6
Continuous
100
AcDbLine
 10
52.10595900000001
 20
230.222775
 30
0.0
 11
52.205959
 21
230.222775
 31
0.0
  0
ARC
  5
BB10
330
BA9A
100
AcDbEntity
  8
1
  6
Continuous
100
AcDbCircle
 10
49.105959
 20
231.0117069999999
 30
0.0
 40
3.0
100
AcDbArc
 50
0.0
 51
48.189685
  0
ARC
  5
BB11
330
BA9A
100
AcDbEntity
  8
1
  6
Continuous
100
AcDbCircle
 10
57.255959
 20
241.919348
 30
0.0
 40
3.0
100
AcDbArc
 50
109.4712209999999
 51
180.0
  0
LINE
  5
BB12
330
BA9A
100
AcDbEntity
  8
1
  6
Continuous
100
AcDbLine
 10
52.205959
 20
240.247775
 30
0.0
 11
54.255959
 21
240.247775
 31
0.0
  0
ARC
  5
BB13
330
BA9A
100
AcDbEntity
  8
1
  6
Continuous
100
AcDbCircle
 10
56.255959
 20
297.6977749999999
 30
0.0
 40
4.75
100
AcDbArc
 50
106.6855899999999
 51
180.0
  0
LINE
  5
BB14
330
BA9A
100
AcDbEntity
  8
1
  6
Continuous
100
AcDbLine
 10
51.50595899999999
 20
297.6977749999999
 30
0.0
 11
51.50595899999999
 21
277.4477749999999
 31
0.0
  0
LINE
  5
BB15
330
BA9A
100
AcDbEntity
  8
1
  6
Continuous
100
AcDbLine
 10
52.855959
 20
302.247775
 30
0.0
 11
52.855959
 21
311.7477749999999
 31
0.0
  0
ARC
  5
BB16
330
BA9A
100
AcDbEntity
  8
1
  6
Continuous
100
AcDbCircle
 10
142.5059589999999
 20
277.4477749999999
 30
0.0
 40
50.0
100
AcDbArc
 50
180.0
 51
191.2469529999999
  0
ARC
  5
BB17
330
BA9A
100
AcDbEntity
  8
1
  6
Continuous
100
AcDbCircle
 10
185.5059589999999
 20
286.4477749999998
 30
0.0
 40
97.70000000000001
100
AcDbArc
 50
180.568984
 51
196.291234
  0
ARC
  5
BB18
330
BA9A
100
AcDbEntity
  8
1
  6
Continuous
100
AcDbCircle
 10
185.5059589999999
 20
286.4477749999998
 30
0.0
 40
100.0
100
AcDbArc
 50
180.0
 51
196.291234
  0
LINE
  5
BB19
330
BA9A
100
AcDbEntity
  8
1
  6
Continuous
100
AcDbLine
 10
91.805959
 20
240.247775
 30
0.0
 11
91.805959
 21
208.2477749999999
 31
0.0
  0
ARC
  5
BB1A
330
BA9A
100
AcDbEntity
  8
1
  6
Continuous
100
AcDbCircle
 10
-151.7327369999999
 20
218.936324
 30
0.0
 40
250.0
100
AcDbArc
 50
2.778982
 51
11.24695299999999
  0
ARC
  5
BB1B
330
BA9A
100
AcDbEntity
  8
1
  6
Continuous
100
AcDbCircle
 10
8.605283999999999
 20
234.7477749999999
 30
0.0
 40
86.60067600000003
100
AcDbArc
 50
0.0
 51
16.291234
  0
ARC
  5
BB1C
330
BA9A
100
AcDbEntity
  8
1
  6
Continuous
100
AcDbCircle
 10
8.605283999999999
 20
234.7477749999999
 30
0.0
 40
84.30067599999999
100
AcDbArc
 50
0.0
 51
16.291234
  0
LINE
  5
BB1D
330
BA9A
100
AcDbEntity
  8
1
  6
Continuous
100
AcDbLine
 10
87.75595899999997
 20
244.747775
 30
0.0
 11
87.75595899999997
 21
203.7477749999999
 31
0.0
  0
LINE
  5
BB1E
330
BA9A
100
AcDbEntity
  8
1
  6
Continuous
100
AcDbLine
 10
89.755959
 20
241.919348
 30
0.0
 11
89.755959
 21
206.576203
 31
0.0
  0
LINE
  5
BB1F
330
BA9A
100
AcDbEntity
  8
1
  6
Continuous
100
AcDbLine
 10
91.90595899999999
 20
231.0117069999999
 30
0.0
 11
91.90595899999999
 21
217.483843
 31
0.0
  0
LINE
  5
BB20
330
BA9A
100
AcDbEntity
  8
1
  6
Continuous
100
AcDbLine
 10
97.505959
 20
231.747775
 30
0.0
 11
97.505959
 21
216.7477749999999
 31
0.0
  0
LINE
  5
BB21
330
BA9A
100
AcDbEntity
  8
1
  6
Continuous
100
AcDbLine
 10
95.205959
 20
234.7477749999999
 30
0.0
 11
95.205959
 21
213.7477749999999
 31
0.0
  0
LINE
  5
BB22
330
BA9A
100
AcDbEntity
  8
1
  6
Continuous
100
AcDbLine
 10
92.90595899999999
 20
234.7477749999999
 30
0.0
 11
92.90595899999999
 21
213.7477749999999
 31
0.0
  0
LINE
  5
BB23
330
BA9A
100
AcDbEntity
  8
1
  6
Continuous
100
AcDbLine
 10
89.755959
 20
208.2477749999999
 30
0.0
 11
91.805959
 21
208.2477749999999
 31
0.0
  0
ARC
  5
BB24
330
BA9A
100
AcDbEntity
  8
1
  6
Continuous
100
AcDbCircle
 10
86.75595899999995
 20
206.576203
 30
0.0
 40
3.0
100
AcDbArc
 50
289.471221
 51
0.0
  0
LINE
  5
BB25
330
BA9A
100
AcDbEntity
  8
1
  6
Continuous
100
AcDbLine
 10
95.205959
 20
216.7477749999999
 30
0.0
 11
97.505959
 21
216.7477749999999
 31
0.0
  0
LINE
  5
BB26
330
BA9A
100
AcDbEntity
  8
1
  6
Continuous
100
AcDbLine
 10
91.805959
 20
218.272775
 30
0.0
 11
91.90595899999999
 21
218.272775
 31
0.0
  0
ARC
  5
BB27
330
BA9A
100
AcDbEntity
  8
1
  6
Continuous
100
AcDbCircle
 10
94.905959
 20
217.483843
 30
0.0
 40
3.0
100
AcDbArc
 50
180.0
 51
228.1896849999998
  0
ARC
  5
BB28
330
BA9A
100
AcDbEntity
  8
1
  6
Continuous
100
AcDbCircle
 10
78.33095899999998
 20
224.2477749999999
 30
0.0
 40
19.875
100
AcDbArc
 50
328.109208
 51
337.829843
  0
LINE
  5
BB29
330
BA9A
100
AcDbEntity
  8
1
  6
Continuous
100
AcDbLine
 10
92.90595899999999
 20
213.7477749999999
 30
0.0
 11
95.205959
 21
213.7477749999999
 31
0.0
  0
LINE
  5
BB2A
330
BA9A
100
AcDbEntity
  8
1
  6
Continuous
100
AcDbLine
 10
95.205959
 20
231.747775
 30
0.0
 11
97.505959
 21
231.747775
 31
0.0
  0
ARC
  5
BB2B
330
BA9A
100
AcDbEntity
  8
1
  6
Continuous
100
AcDbCircle
 10
78.33095899999998
 20
224.2477749999999
 30
0.0
 40
19.875
100
AcDbArc
 50
22.170157
 51
31.890792
  0
LINE
  5
BB2C
330
BA9A
100
AcDbEntity
  8
1
  6
Continuous
100
AcDbLine
 10
91.805959
 20
230.222775
 30
0.0
 11
91.90595899999999
 21
230.222775
 31
0.0
  0
ARC
  5
BB2D
330
BA9A
100
AcDbEntity
  8
1
  6
Continuous
100
AcDbCircle
 10
94.905959
 20
231.0117069999999
 30
0.0
 40
3.0
100
AcDbArc
 50
131.810315
 51
180.0
  0
LINE
  5
BB2E
330
BA9A
100
AcDbEntity
  8
1
  6
Continuous
100
AcDbLine
 10
89.755959
 20
240.247775
 30
0.0
 11
91.805959
 21
240.247775
 31
0.0
  0
ARC
  5
BB2F
330
BA9A
100
AcDbEntity
  8
1
  6
Continuous
100
AcDbCircle
 10
86.75595899999995
 20
241.919348
 30
0.0
 40
3.0
100
AcDbArc
 50
0.0
 51
70.528779
  0
ARC
  5
BB30
330
BA9A
100
AcDbEntity
  8
1
  6
Continuous
100
AcDbCircle
 10
61.204737
 20
226.0052399999999
 30
0.0
 40
32.5
100
AcDbArc
 50
35.21830700000001
 51
47.87063300000001
  0
ARC
  5
BB31
330
BA9A
100
AcDbEntity
  8
1
  6
Continuous
100
AcDbCircle
 10
87.75595899999997
 20
297.6977749999999
 30
0.0
 40
4.75
100
AcDbArc
 50
0.0
 51
73.31440999999998
  0
LINE
  5
BB32
330
BA9A
100
AcDbEntity
  8
1
  6
Continuous
100
AcDbLine
 10
76.124211
 20
288.4477749999998
 30
0.0
 11
84.81092499999999
 21
288.4477749999998
 31
0.0
  0
LINE
  5
BB33
330
BA9A
100
AcDbEntity
  8
1
  6
Continuous
100
AcDbLine
 10
59.20099399999998
 20
288.4477749999998
 30
0.0
 11
67.88770699999999
 21
288.4477749999998
 31
0.0
  0
ARC
  5
BB34
330
BA9A
100
AcDbEntity
  8
1
  6
Continuous
100
AcDbCircle
 10
60.505959
 20
286.4477749999998
 30
0.0
 40
2.0
100
AcDbArc
 50
90.0
 51
180.0
  0
LINE
  5
BB35
330
BA9A
100
AcDbEntity
  8
1
  6
Continuous
100
AcDbLine
 10
92.50595899999996
 20
297.6977749999999
 30
0.0
 11
92.50595899999996
 21
277.4477749999999
 31
0.0
  0
ARC
  5
BB36
330
BA9A
100
AcDbEntity
  8
1
  6
Continuous
100
AcDbCircle
 10
84.81092499999999
 20
285.447775
 30
0.0
 40
3.0
100
AcDbArc
 50
0.5689840000000001
 51
90.0
  0
ARC
  5
BB37
330
BA9A
100
AcDbEntity
  8
1
  6
Continuous
100
AcDbCircle
 10
83.505959
 20
286.4477749999998
 30
0.0
 40
2.0
100
AcDbArc
 50
0.0
 51
90.0
  0
LINE
  5
BB38
330
BA9A
100
AcDbEntity
  8
1
  6
Continuous
100
AcDbLine
 10
59.355959
 20
318.2477749999998
 30
0.0
 11
84.65595899999998
 21
318.2477749999998
 31
0.0
  0
ARC
  5
BB39
330
BA9A
100
AcDbEntity
  8
1
  6
Continuous
100
AcDbCircle
 10
84.65595899999998
 20
311.7477749999999
 30
0.0
 40
6.5
100
AcDbArc
 50
0.0
 51
90.0
  0
LINE
  5
BB3A
330
BA9A
100
AcDbEntity
  8
1
  6
Continuous
100
AcDbLine
 10
91.155959
 20
302.247775
 30
0.0
 11
91.155959
 21
311.7477749999999
 31
0.0
  0
LINE
  5
BB3B
330
BA9A
100
AcDbEntity
  8
1
  6
Continuous
100
AcDbLine
 10
493.1151089999998
 20
318.2477749999998
 30
0.0
 11
467.815109
 21
318.2477749999998
 31
0.0
  0
LINE
  5
BB3C
330
BA9A
100
AcDbEntity
  8
4
  6
CENTER
100
AcDbLine
 10
360.5298639999999
 20
76.03216299999998
 30
0.0
 11
196.260159
 21
76.03216299999998
 31
0.0
  0
LINE
  5
BB3D
330
BA9A
100
AcDbEntity
  8
4
  6
CENTER
100
AcDbLine
 10
312.6143379999998
 20
46.96003799999998
 30
0.0
 11
312.6143379999998
 21
103.692826
 31
0.0
  0
LINE
  5
BB3E
330
BA9A
100
AcDbEntity
  8
1
  6
Continuous
100
AcDbLine
 10
295.315494
 20
493.048598
 30
0.0
 11
213.8143379999999
 21
493.048598
 31
0.0
  0
LINE
  5
BB3F
330
BA9A
100
AcDbEntity
  8
1
  6
Continuous
100
AcDbLine
 10
295.315494
 20
471.048598
 30
0.0
 11
213.8143379999999
 21
471.048598
 31
0.0
  0
ARC
  5
BB40
330
BA9A
100
AcDbEntity
  8
1
  6
Continuous
100
AcDbCircle
 10
213.8143379999999
 20
482.0485979999999
 30
0.0
 40
11.0
100
AcDbArc
 50
90.0
 51
270.0
  0
CIRCLE
  5
BB41
330
BA9A
100
AcDbEntity
  8
2
  6
Continuous
100
AcDbCircle
 10
312.6143379999998
 20
482.0485979999999
 30
0.0
 40
5.3235
  0
CIRCLE
  5
BB42
330
BA9A
100
AcDbEntity
  8
1
  6
Continuous
100
AcDbCircle
 10
312.6143379999998
 20
482.0485979999999
 30
0.0
 40
4.5
  0
ARC
  5
BB43
330
BA9A
100
AcDbEntity
  8
1
  6
Continuous
100
AcDbCircle
 10
72.00595899999997
 20
278.2477749999998
 30
0.0
 40
11.0
100
AcDbArc
 50
0.0
 51
180.0
  0
LINE
  5
BB44
330
BA9A
100
AcDbEntity
  8
1
  6
Continuous
100
AcDbLine
 10
61.005959
 20
278.2477749999998
 30
0.0
 11
61.005959
 21
170.2477749999999
 31
0.0
  0
LINE
  5
BB45
330
BA9A
100
AcDbEntity
  8
1
  6
Continuous
100
AcDbLine
 10
83.00595899999997
 20
278.2477749999998
 30
0.0
 11
83.00595899999997
 21
170.2477749999999
 31
0.0
  0
ARC
  5
BB46
330
BA9A
100
AcDbEntity
  8
1
  6
Continuous
100
AcDbCircle
 10
72.00595899999997
 20
170.2477749999999
 30
0.0
 40
11.0
100
AcDbArc
 50
180.0
 51
0.0
  0
LINE
  5
BB47
330
BA9A
100
AcDbEntity
  8
1
  6
Continuous
100
AcDbLine
 10
274.5425419999999
 20
507.548598
 30
0.0
 11
260.6861349999999
 21
507.548598
 31
0.0
  0
LINE
  5
BB48
330
BA9A
100
AcDbEntity
  8
1
  6
Continuous
100
AcDbLine
 10
46.50595899999999
 20
231.175978
 30
0.0
 11
46.50595899999999
 21
217.3195719999999
 31
0.0
  0
ARC
  5
BB49
330
BA9A
100
AcDbEntity
  8
1
  6
Continuous
100
AcDbCircle
 10
44.072947
 20
219.051623
 30
0.0
 40
3.066986999999998
100
AcDbArc
 50
145.615753
 51
205.615753
  0
LINE
  5
BB4A
330
BA9A
100
AcDbEntity
  8
1
  6
Continuous
100
AcDbLine
 10
41.005959
 20
230.2477749999999
 30
0.0
 11
41.005959
 21
218.2477749999999
 31
0.0
  0
LINE
  5
BB4B
330
BA9A
100
AcDbEntity
  8
1
  6
Continuous
100
AcDbLine
 10
41.54185799999999
 20
217.3195719999999
 30
0.0
 11
41.005959
 21
218.2477749999999
 31
0.0
  0
LINE
  5
BB4C
330
BA9A
100
AcDbEntity
  8
1
  6
Continuous
100
AcDbLine
 10
41.54185799999999
 20
217.3195719999999
 30
0.0
 11
46.50595899999999
 21
217.3195719999999
 31
0.0
  0
LINE
  5
BB4D
330
BA9A
100
AcDbEntity
  8
1
  6
Continuous
100
AcDbLine
 10
41.54185799999999
 20
231.175978
 30
0.0
 11
41.005959
 21
230.2477749999999
 31
0.0
  0
ARC
  5
BB4E
330
BA9A
100
AcDbEntity
  8
1
  6
Continuous
100
AcDbCircle
 10
44.072947
 20
229.4439279999998
 30
0.0
 40
3.066986999999998
100
AcDbArc
 50
154.3842469999999
 51
214.384247
  0
ARC
  5
BB4F
330
BA9A
100
AcDbEntity
  8
1
  6
Continuous
100
AcDbCircle
 10
52.470061
 20
224.2477749999999
 30
0.0
 40
11.464102
100
AcDbArc
 50
162.412046
 51
197.5879539999999
  0
LINE
  5
BB50
330
BA9A
100
AcDbEntity
  8
1
  6
Continuous
100
AcDbLine
 10
41.54185799999999
 20
231.175978
 30
0.0
 11
46.50595899999999
 21
231.175978
 31
0.0
  0
LINE
  5
BB51
330
BA9A
100
AcDbEntity
  8
1
  6
Continuous
100
AcDbLine
 10
41.54185799999999
 20
227.7118769999999
 30
0.0
 11
46.50595899999999
 21
227.7118769999999
 31
0.0
  0
LINE
  5
BB52
330
BA9A
100
AcDbEntity
  8
1
  6
Continuous
100
AcDbLine
 10
41.54185799999999
 20
220.7836739999999
 30
0.0
 11
46.50595899999999
 21
220.7836739999999
 31
0.0
  0
LINE
  5
BB53
330
BA9A
100
AcDbEntity
  8
1
  6
Continuous
100
AcDbLine
 10
101.970061
 20
231.175978
 30
0.0
 11
102.5059589999999
 21
230.2477749999999
 31
0.0
  0
LINE
  5
BB54
330
BA9A
100
AcDbEntity
  8
1
  6
Continuous
100
AcDbLine
 10
98.04185799999999
 20
231.175978
 30
0.0
 11
97.505959
 21
230.2477749999999
 31
0.0
  0
LINE
  5
BB55
330
BA9A
100
AcDbEntity
  8
1
  6
Continuous
100
AcDbLine
 10
98.04185799999999
 20
231.175978
 30
0.0
 11
101.970061
 21
231.175978
 31
0.0
  0
LINE
  5
BB56
330
BA9A
100
AcDbEntity
  8
1
  6
Continuous
100
AcDbLine
 10
98.04185799999999
 20
227.7118769999999
 30
0.0
 11
101.970061
 21
227.7118769999999
 31
0.0
  0
ARC
  5
BB57
330
BA9A
100
AcDbEntity
  8
1
  6
Continuous
100
AcDbCircle
 10
99.43897200000002
 20
229.4439279999998
 30
0.0
 40
3.066986999999998
100
AcDbArc
 50
325.6157529999999
 51
25.615753
  0
ARC
  5
BB58
330
BA9A
100
AcDbEntity
  8
1
  6
Continuous
100
AcDbCircle
 10
100.5729469999999
 20
229.4439279999998
 30
0.0
 40
3.066986999999998
100
AcDbArc
 50
154.3842469999999
 51
214.384247
  0
ARC
  5
BB59
330
BA9A
100
AcDbEntity
  8
1
  6
Continuous
100
AcDbCircle
 10
99.43897200000002
 20
219.051623
 30
0.0
 40
3.066986999999998
100
AcDbArc
 50
334.384247
 51
34.38424699999998
  0
ARC
  5
BB5A
330
BA9A
100
AcDbEntity
  8
1
  6
Continuous
100
AcDbCircle
 10
100.5729469999999
 20
219.051623
 30
0.0
 40
3.066986999999998
100
AcDbArc
 50
145.615753
 51
205.615753
  0
LINE
  5
BB5B
330
BA9A
100
AcDbEntity
  8
1
  6
Continuous
100
AcDbLine
 10
98.04185799999999
 20
220.7836739999999
 30
0.0
 11
101.970061
 21
220.7836739999999
 31
0.0
  0
LINE
  5
BB5C
330
BA9A
100
AcDbEntity
  8
1
  6
Continuous
100
AcDbLine
 10
98.04185799999999
 20
217.3195719999999
 30
0.0
 11
101.970061
 21
217.3195719999999
 31
0.0
  0
LINE
  5
BB5D
330
BA9A
100
AcDbEntity
  8
1
  6
Continuous
100
AcDbLine
 10
101.970061
 20
217.3195719999999
 30
0.0
 11
102.5059589999999
 21
218.2477749999999
 31
0.0
  0
LINE
  5
BB5E
330
BA9A
100
AcDbEntity
  8
1
  6
Continuous
100
AcDbLine
 10
98.04185799999999
 20
217.3195719999999
 30
0.0
 11
97.505959
 21
218.2477749999999
 31
0.0
  0
LINE
  5
BB5F
330
BA9A
100
AcDbEntity
  8
1
  6
Continuous
100
AcDbLine
 10
102.5059589999999
 20
230.2477749999999
 30
0.0
 11
102.5059589999999
 21
218.2477749999999
 31
0.0
  0
ARC
  5
BB60
330
BA9A
100
AcDbEntity
  8
1
  6
Continuous
100
AcDbCircle
 10
91.04185800000001
 20
224.2477749999999
 30
0.0
 40
11.464102
100
AcDbArc
 50
342.4120459999999
 51
17.587954
  0
ARC
  5
BB61
330
BA9A
100
AcDbEntity
  8
1
  6
Continuous
100
AcDbCircle
 10
108.970061
 20
224.2477749999999
 30
0.0
 40
11.464102
100
AcDbArc
 50
162.412046
 51
197.5879539999999
  0
LINE
  5
BB62
330
BA9A
100
AcDbEntity
  8
1
  6
Continuous
100
AcDbLine
 10
97.505959
 20
230.2477749999999
 30
0.0
 11
97.505959
 21
218.2477749999999
 31
0.0
  0
ARC
  5
BB63
330
BA9A
100
AcDbEntity
  8
1
  6
Continuous
100
AcDbCircle
 10
270.6143379999999
 20
447.8835349999997
 30
0.0
 40
8.665063999999999
100
AcDbArc
 50
69.743842
 51
110.256158
  0
ARC
  5
BB64
330
BA9A
100
AcDbEntity
  8
1
  6
Continuous
100
AcDbCircle
 10
270.6143379999999
 20
460.213662
 30
0.0
 40
8.665063999999999
100
AcDbArc
 50
249.7438419999999
 51
290.256158
  0
LINE
  5
BB65
330
BA9A
100
AcDbEntity
  8
1
  6
Continuous
100
AcDbLine
 10
273.6143379999999
 20
456.548598
 30
0.0
 11
261.614338
 21
456.548598
 31
0.0
  0
LINE
  5
BB66
330
BA9A
100
AcDbEntity
  8
1
  6
Continuous
100
AcDbLine
 10
273.6143379999999
 20
451.548598
 30
0.0
 11
261.614338
 21
451.548598
 31
0.0
  0
LINE
  5
BB67
330
BA9A
100
AcDbEntity
  8
1
  6
Continuous
100
AcDbLine
 10
261.614338
 20
451.548598
 30
0.0
 11
261.614338
 21
456.548598
 31
0.0
  0
ARC
  5
BB68
330
BA9A
100
AcDbEntity
  8
1
  6
Continuous
100
AcDbCircle
 10
264.6143379999999
 20
447.8835349999997
 30
0.0
 40
8.665063999999999
100
AcDbArc
 50
69.743842
 51
110.256158
  0
LINE
  5
BB69
330
BA9A
100
AcDbEntity
  8
1
  6
Continuous
100
AcDbLine
 10
267.6143379999999
 20
456.0127
 30
0.0
 11
267.6143379999999
 21
452.0844969999997
 31
0.0
  0
ARC
  5
BB6A
330
BA9A
100
AcDbEntity
  8
1
  6
Continuous
100
AcDbCircle
 10
264.6143379999999
 20
460.213662
 30
0.0
 40
8.665063999999999
100
AcDbArc
 50
249.7438419999999
 51
290.256158
  0
LINE
  5
BB6B
330
BA9A
100
AcDbEntity
  8
1
  6
Continuous
100
AcDbLine
 10
273.6143379999999
 20
451.548598
 30
0.0
 11
273.6143379999999
 21
456.548598
 31
0.0
  0
LINE
  5
BB6C
330
BA9A
100
AcDbEntity
  8
1
  6
Continuous
100
AcDbLine
 10
273.6143379999999
 20
507.548598
 30
0.0
 11
261.614338
 21
507.548598
 31
0.0
  0
ARC
  5
BB6D
330
BA9A
100
AcDbEntity
  8
1
  6
Continuous
100
AcDbCircle
 10
270.6143379999999
 20
504.3835349999998
 30
0.0
 40
8.665063999999999
100
AcDbArc
 50
69.743842
 51
110.256158
  0
LINE
  5
BB6E
330
BA9A
100
AcDbEntity
  8
1
  6
Continuous
100
AcDbLine
 10
273.6143379999999
 20
513.0485980000002
 30
0.0
 11
261.614338
 21
513.0485980000002
 31
0.0
  0
ARC
  5
BB6F
330
BA9A
100
AcDbEntity
  8
1
  6
Continuous
100
AcDbCircle
 10
264.6143379999999
 20
504.3835349999998
 30
0.0
 40
8.665063999999999
100
AcDbArc
 50
69.743842
 51
110.256158
  0
LINE
  5
BB70
330
BA9A
100
AcDbEntity
  8
1
  6
Continuous
100
AcDbLine
 10
261.614338
 20
507.548598
 30
0.0
 11
261.614338
 21
513.0485980000002
 31
0.0
  0
LINE
  5
BB71
330
BA9A
100
AcDbEntity
  8
1
  6
Continuous
100
AcDbLine
 10
267.6143379999999
 20
512.5126999999999
 30
0.0
 11
267.6143379999999
 21
507.548598
 31
0.0
  0
LINE
  5
BB72
330
BA9A
100
AcDbEntity
  8
1
  6
Continuous
100
AcDbLine
 10
273.6143379999999
 20
507.548598
 30
0.0
 11
273.6143379999999
 21
513.0485980000002
 31
0.0
  0
LINE
  5
BB73
330
BA9A
100
AcDbEntity
  8
4
  6
CENTER
100
AcDbLine
 10
658.3158799999997
 20
403.7947649999998
 30
0.0
 11
658.3158799999997
 21
250.3780359999999
 31
0.0
  0
LINE
  5
BB74
330
BA9A
100
AcDbEntity
  8
1
  6
Continuous
100
AcDbLine
 10
645.66588
 20
318.2477749999998
 30
0.0
 11
670.9658799999997
 21
318.2477749999998
 31
0.0
  0
LINE
  5
BB75
330
BA9A
100
AcDbEntity
  8
2
  6
Continuous
100
AcDbLine
 10
475.1416089999998
 20
396.424254
 30
0.0
 11
475.1416089999998
 21
395.2477749999998
 31
0.0
  0
LINE
  5
BB76
330
BA9A
100
AcDbEntity
  8
2
  6
Continuous
100
AcDbLine
 10
485.788609
 20
396.424254
 30
0.0
 11
485.788609
 21
395.2477749999998
 31
0.0
  0
LINE
  5
BB77
330
BA9A
100
AcDbEntity
  8
1
  6
Continuous
100
AcDbLine
 10
104.0059589999999
 20
227.2477749999999
 30
0.0
 11
104.0059589999999
 21
221.247775
 31
0.0
  0
LINE
  5
BB78
330
BA9A
100
AcDbEntity
  8
1
  6
Continuous
100
AcDbLine
 10
102.5059589999999
 20
228.2477749999999
 30
0.0
 11
103.005959
 21
228.2477749999999
 31
0.0
  0
LINE
  5
BB79
330
BA9A
100
AcDbEntity
  8
1
  6
Continuous
100
AcDbLine
 10
103.005959
 20
228.2477749999999
 30
0.0
 11
104.0059589999999
 21
227.2477749999999
 31
0.0
  0
LINE
  5
BB7A
330
BA9A
100
AcDbEntity
  8
2
  6
Continuous
100
AcDbLine
 10
102.5059589999999
 20
227.571275
 30
0.0
 11
103.6824589999998
 21
227.571275
 31
0.0
  0
LINE
  5
BB7B
330
BA9A
100
AcDbEntity
  8
2
  6
Continuous
100
AcDbLine
 10
102.5059589999999
 20
220.924275
 30
0.0
 11
103.6824589999998
 21
220.924275
 31
0.0
  0
LINE
  5
BB7C
330
BA9A
100
AcDbEntity
  8
1
  6
Continuous
100
AcDbLine
 10
102.5059589999999
 20
220.2477749999999
 30
0.0
 11
103.005959
 21
220.2477749999999
 31
0.0
  0
LINE
  5
BB7D
330
BA9A
100
AcDbEntity
  8
1
  6
Continuous
100
AcDbLine
 10
103.005959
 20
220.2477749999999
 30
0.0
 11
104.0059589999999
 21
221.247775
 31
0.0
  0
LINE
  5
BB7E
330
BA9A
100
AcDbEntity
  8
1
  6
Continuous
100
AcDbLine
 10
270.6143379999999
 20
450.048598
 30
0.0
 11
264.6143379999999
 21
450.048598
 31
0.0
  0
LINE
  5
BB7F
330
BA9A
100
AcDbEntity
  8
1
  6
Continuous
100
AcDbLine
 10
263.6143379999999
 20
451.048598
 30
0.0
 11
264.6143379999999
 21
450.048598
 31
0.0
  0
LINE
  5
BB80
330
BA9A
100
AcDbEntity
  8
1
  6
Continuous
100
AcDbLine
 10
263.6143379999999
 20
451.548598
 30
0.0
 11
263.6143379999999
 21
451.048598
 31
0.0
  0
LINE
  5
BB81
330
BA9A
100
AcDbEntity
  8
2
  6
Continuous
100
AcDbLine
 10
264.290838
 20
451.548598
 30
0.0
 11
264.290838
 21
450.3720979999997
 31
0.0
  0
LINE
  5
BB82
330
BA9A
100
AcDbEntity
  8
1
  6
Continuous
100
AcDbLine
 10
271.6143379999999
 20
451.548598
 30
0.0
 11
271.6143379999999
 21
451.048598
 31
0.0
  0
LINE
  5
BB83
330
BA9A
100
AcDbEntity
  8
1
  6
Continuous
100
AcDbLine
 10
271.6143379999999
 20
451.048598
 30
0.0
 11
270.6143379999999
 21
450.048598
 31
0.0
  0
LINE
  5
BB84
330
BA9A
100
AcDbEntity
  8
2
  6
Continuous
100
AcDbLine
 10
270.9378379999999
 20
451.548598
 30
0.0
 11
270.9378379999999
 21
450.3720979999997
 31
0.0
  0
CIRCLE
  5
BB85
330
BA9A
100
AcDbEntity
  8
1
  6
Continuous
100
AcDbCircle
 10
312.6143379999998
 20
482.0485979999999
 30
0.0
 40
13.0
  0
ARC
  5
BB86
330
BA9A
100
AcDbEntity
  8
1
  6
Continuous
100
AcDbCircle
 10
312.6143379999998
 20
482.0485979999999
 30
0.0
 40
10.7
100
AcDbArc
 50
114.326207
 51
245.673793
  0
ARC
  5
BB87
330
BA9A
100
AcDbEntity
  8
1
  6
Continuous
100
AcDbCircle
 10
312.6143379999998
 20
482.0485979999999
 30
0.0
 40
10.7
100
AcDbArc
 50
294.326207
 51
65.673793
  0
LINE
  5
BB88
330
BA9A
100
AcDbEntity
  8
1
  6
Continuous
100
AcDbLine
 10
308.206674
 20
472.298598
 30
0.0
 11
317.0220019999998
 21
472.298598
 31
0.0
  0
LINE
  5
BB89
330
BA9A
100
AcDbEntity
  8
1
  6
Continuous
100
AcDbLine
 10
308.206674
 20
491.798598
 30
0.0
 11
317.0220019999998
 21
491.798598
 31
0.0
  0
ARC
  5
BB8A
330
BA9A
100
AcDbEntity
  8
1
  6
Continuous
100
AcDbCircle
 10
312.6143379999998
 20
482.0485979999999
 30
0.0
 40
10.5
100
AcDbArc
 50
248.213211
 51
291.786789
  0
ARC
  5
BB8B
330
BA9A
100
AcDbEntity
  8
1
  6
Continuous
100
AcDbCircle
 10
312.6143379999998
 20
482.0485979999999
 30
0.0
 40
10.5
100
AcDbArc
 50
68.213211
 51
111.7867889999999
  0
ARC
  5
BB8C
330
BA9A
100
AcDbEntity
  8
1
  6
Continuous
100
AcDbCircle
 10
196.2984419999999
 20
342.4477749999998
 30
0.0
 40
294.9666669999999
100
AcDbArc
 50
357.415666
 51
2.584334
  0
ARC
  5
BB8D
330
BA9A
100
AcDbEntity
  8
1
  6
Continuous
100
AcDbCircle
 10
764.6317749999997
 20
342.4477749999998
 30
0.0
 40
294.9666669999999
100
AcDbArc
 50
177.3980899999999
 51
182.584334
  0
ARC
  5
BB8E
330
BA9A
100
AcDbEntity
  8
1
  6
Continuous
100
AcDbCircle
 10
470.965109
 20
324.847775
 30
0.0
 40
1.0
100
AcDbArc
 50
180.0
 51
270.0
  0
LINE
  5
BB8F
330
BA9A
100
AcDbEntity
  8
1
  6
Continuous
100
AcDbLine
 10
493.465109
 20
323.847775
 30
0.0
 11
467.465109
 21
323.847775
 31
0.0
  0
LINE
  5
BB90
330
BA9A
100
AcDbEntity
  8
1
  6
Continuous
100
AcDbLine
 10
493.465109
 20
322.2477749999999
 30
0.0
 11
467.465109
 21
322.2477749999999
 31
0.0
  0
LINE
  5
BB91
330
BA9A
100
AcDbEntity
  8
1
  6
Continuous
100
AcDbLine
 10
467.465109
 20
323.847775
 30
0.0
 11
467.465109
 21
322.2477749999999
 31
0.0
  0
LINE
  5
BB92
330
BA9A
100
AcDbEntity
  8
1
  6
Continuous
100
AcDbLine
 10
469.9651089999998
 20
318.2477749999998
 30
0.0
 11
469.9651089999998
 21
322.2477749999999
 31
0.0
  0
LINE
  5
BB93
330
BA9A
100
AcDbEntity
  8
1
  6
Continuous
100
AcDbLine
 10
490.9651089999998
 20
318.2477749999998
 30
0.0
 11
490.9651089999998
 21
322.2477749999999
 31
0.0
  0
LINE
  5
BB94
330
BA9A
100
AcDbEntity
  8
1
  6
Continuous
100
AcDbLine
 10
469.9651089999998
 20
329.147775
 30
0.0
 11
490.9651089999998
 21
329.147775
 31
0.0
  0
LINE
  5
BB95
330
BA9A
100
AcDbEntity
  8
1
  6
Continuous
100
AcDbLine
 10
469.9651089999998
 20
324.847775
 30
0.0
 11
469.9651089999998
 21
329.147775
 31
0.0
  0
LINE
  5
BB96
330
BA9A
100
AcDbEntity
  8
1
  6
Continuous
100
AcDbLine
 10
490.9651089999998
 20
324.847775
 30
0.0
 11
490.9651089999998
 21
329.147775
 31
0.0
  0
ARC
  5
BB97
330
BA9A
100
AcDbEntity
  8
1
  6
Continuous
100
AcDbCircle
 10
489.9651089999998
 20
324.847775
 30
0.0
 40
1.0
100
AcDbArc
 50
270.0
 51
0.0
  0
LINE
  5
BB98
330
BA9A
100
AcDbEntity
  8
1
  6
Continuous
100
AcDbLine
 10
493.465109
 20
322.2477749999999
 30
0.0
 11
493.465109
 21
323.847775
 31
0.0
  0
ARC
  5
BB99
330
BA9A
100
AcDbEntity
  8
1
  6
Continuous
100
AcDbCircle
 10
470.965109
 20
359.347775
 30
0.0
 40
1.0
100
AcDbArc
 50
180.0
 51
270.0
  0
ARC
  5
BB9A
330
BA9A
100
AcDbEntity
  8
1
  6
Continuous
100
AcDbCircle
 10
470.965109
 20
355.7477749999998
 30
0.0
 40
1.0
100
AcDbArc
 50
90.0
 51
180.0
  0
ARC
  5
BB9B
330
BA9A
100
AcDbEntity
  8
1
  6
Continuous
100
AcDbCircle
 10
805.8817749999999
 20
373.547775
 30
0.0
 40
336.2166669999999
100
AcDbArc
 50
177.579412
 51
182.4350259999999
  0
ARC
  5
BB9C
330
BA9A
100
AcDbEntity
  8
1
  6
Continuous
100
AcDbCircle
 10
155.048442
 20
373.547775
 30
0.0
 40
336.2166669999999
100
AcDbArc
 50
357.564974
 51
2.420587999999999
  0
LINE
  5
BB9D
330
BA9A
100
AcDbEntity
  8
1
  6
Continuous
100
AcDbLine
 10
470.965109
 20
358.347775
 30
0.0
 11
489.9651089999998
 21
358.347775
 31
0.0
  0
LINE
  5
BB9E
330
BA9A
100
AcDbEntity
  8
1
  6
Continuous
100
AcDbLine
 10
470.965109
 20
356.747775
 30
0.0
 11
489.9651089999998
 21
356.747775
 31
0.0
  0
LINE
  5
BB9F
330
BA9A
100
AcDbEntity
  8
1
  6
Continuous
100
AcDbLine
 10
471.565109
 20
356.747775
 30
0.0
 11
471.565109
 21
358.347775
 31
0.0
  0
ARC
  5
BBA0
330
BA9A
100
AcDbEntity
  8
1
  6
Continuous
100
AcDbCircle
 10
489.9651089999998
 20
359.347775
 30
0.0
 40
1.0
100
AcDbArc
 50
270.0
 51
0.0
  0
LINE
  5
BBA1
330
BA9A
100
AcDbEntity
  8
1
  6
Continuous
100
AcDbLine
 10
489.3651089999998
 20
358.347775
 30
0.0
 11
489.3651089999998
 21
356.747775
 31
0.0
  0
ARC
  5
BBA2
330
BA9A
100
AcDbEntity
  8
1
  6
Continuous
100
AcDbCircle
 10
489.9651089999998
 20
355.7477749999998
 30
0.0
 40
1.0
100
AcDbArc
 50
0.0
 51
90.0
  0
LINE
  5
BBA3
330
BA9A
100
AcDbEntity
  8
1
  6
Continuous
100
AcDbLine
 10
484.965109
 20
397.2477749999998
 30
0.0
 11
486.4651089999998
 21
395.7477749999998
 31
0.0
  0
LINE
  5
BBA4
330
BA9A
100
AcDbEntity
  8
1
  6
Continuous
100
AcDbLine
 10
470.7151089999999
 20
395.2477749999998
 30
0.0
 11
490.215109
 21
395.2477749999998
 31
0.0
  0
LINE
  5
BBA5
330
BA9A
100
AcDbEntity
  8
1
  6
Continuous
100
AcDbLine
 10
469.9651089999998
 20
387.747775
 30
0.0
 11
490.9651089999998
 21
387.747775
 31
0.0
  0
LINE
  5
BBA6
330
BA9A
100
AcDbEntity
  8
1
  6
Continuous
100
AcDbLine
 10
470.7151089999999
 20
391.2477749999998
 30
0.0
 11
490.215109
 21
391.2477749999998
 31
0.0
  0
LINE
  5
BBA7
330
BA9A
100
AcDbEntity
  8
1
  6
Continuous
100
AcDbLine
 10
486.4651089999998
 20
395.7477749999998
 30
0.0
 11
474.4651089999998
 21
395.7477749999998
 31
0.0
  0
LINE
  5
BBA8
330
BA9A
100
AcDbEntity
  8
1
  6
Continuous
100
AcDbLine
 10
475.965109
 20
397.2477749999998
 30
0.0
 11
474.4651089999998
 21
395.7477749999998
 31
0.0
  0
LINE
  5
BBA9
330
BA9A
100
AcDbEntity
  8
1
  6
Continuous
100
AcDbLine
 10
474.4651089999998
 20
395.2477749999998
 30
0.0
 11
474.4651089999998
 21
395.7477749999998
 31
0.0
  0
LINE
  5
BBAA
330
BA9A
100
AcDbEntity
  8
1
  6
Continuous
100
AcDbLine
 10
470.965109
 20
391.2477749999998
 30
0.0
 11
470.965109
 21
387.747775
 31
0.0
  0
LINE
  5
BBAB
330
BA9A
100
AcDbEntity
  8
1
  6
Continuous
100
AcDbLine
 10
470.7151089999999
 20
391.2477749999998
 30
0.0
 11
470.7151089999999
 21
395.2477749999998
 31
0.0
  0
LINE
  5
BBAC
330
BA9A
100
AcDbEntity
  8
1
  6
Continuous
100
AcDbLine
 10
484.965109
 20
397.2477749999998
 30
0.0
 11
475.965109
 21
397.2477749999998
 31
0.0
  0
LINE
  5
BBAD
330
BA9A
100
AcDbEntity
  8
1
  6
Continuous
100
AcDbLine
 10
489.9651089999998
 20
391.2477749999998
 30
0.0
 11
489.9651089999998
 21
387.747775
 31
0.0
  0
LINE
  5
BBAE
330
BA9A
100
AcDbEntity
  8
1
  6
Continuous
100
AcDbLine
 10
490.215109
 20
391.2477749999998
 30
0.0
 11
490.215109
 21
395.2477749999998
 31
0.0
  0
LINE
  5
BBAF
330
BA9A
100
AcDbEntity
  8
1
  6
Continuous
100
AcDbLine
 10
486.4651089999998
 20
395.2477749999998
 30
0.0
 11
486.4651089999998
 21
395.7477749999998
 31
0.0
  0
ARC
  5
BBB0
330
BA9A
100
AcDbEntity
  8
1
  6
Continuous
100
AcDbCircle
 10
596.781025
 20
342.4477749999998
 30
0.0
 40
294.9666669999999
100
AcDbArc
 50
177.3980899999999
 51
182.584334
  0
ARC
  5
BBB1
330
BA9A
100
AcDbEntity
  8
1
  6
Continuous
100
AcDbCircle
 10
28.44769199999999
 20
342.4477749999998
 30
0.0
 40
294.9666669999999
100
AcDbArc
 50
357.415666
 51
2.584334
  0
LINE
  5
BBB2
330
BA9A
100
AcDbEntity
  8
1
  6
Continuous
100
AcDbLine
 10
325.6143589999999
 20
323.847775
 30
0.0
 11
299.6143589999999
 21
323.847775
 31
0.0
  0
LINE
  5
BBB3
330
BA9A
100
AcDbEntity
  8
1
  6
Continuous
100
AcDbLine
 10
325.6143589999999
 20
322.2477749999999
 30
0.0
 11
299.6143589999999
 21
322.2477749999999
 31
0.0
  0
LINE
  5
BBB4
330
BA9A
100
AcDbEntity
  8
1
  6
Continuous
100
AcDbLine
 10
324.7388379999998
 20
322.2477749999999
 30
0.0
 11
300.4898379999999
 21
322.2477749999999
 31
0.0
  0
LINE
  5
BBB5
330
BA9A
100
AcDbEntity
  8
1
  6
Continuous
100
AcDbLine
 10
300.4898379999999
 20
322.2477749999999
 30
0.0
 11
300.4898379999999
 21
318.2477749999998
 31
0.0
  0
LINE
  5
BBB6
330
BA9A
100
AcDbEntity
  8
1
  6
Continuous
100
AcDbLine
 10
318.6763379999998
 20
322.2477749999999
 30
0.0
 11
318.6763379999998
 21
318.2477749999998
 31
0.0
  0
LINE
  5
BBB7
330
BA9A
100
AcDbEntity
  8
1
  6
Continuous
100
AcDbLine
 10
306.5523379999999
 20
322.2477749999999
 30
0.0
 11
306.5523379999999
 21
318.2477749999998
 31
0.0
  0
LINE
  5
BBB8
330
BA9A
100
AcDbEntity
  8
1
  6
Continuous
100
AcDbLine
 10
302.1143589999998
 20
329.147775
 30
0.0
 11
323.1143589999998
 21
329.147775
 31
0.0
  0
LINE
  5
BBB9
330
BA9A
100
AcDbEntity
  8
1
  6
Continuous
100
AcDbLine
 10
299.6143589999999
 20
323.847775
 30
0.0
 11
299.6143589999999
 21
322.2477749999999
 31
0.0
  0
LINE
  5
BBBA
330
BA9A
100
AcDbEntity
  8
1
  6
Continuous
100
AcDbLine
 10
302.1143589999998
 20
324.847775
 30
0.0
 11
302.1143589999998
 21
329.147775
 31
0.0
  0
ARC
  5
BBBB
330
BA9A
100
AcDbEntity
  8
1
  6
Continuous
100
AcDbCircle
 10
303.1143589999999
 20
324.847775
 30
0.0
 40
1.0
100
AcDbArc
 50
180.0
 51
270.0
  0
LINE
  5
BBBC
330
BA9A
100
AcDbEntity
  8
1
  6
Continuous
100
AcDbLine
 10
323.1143589999998
 20
324.847775
 30
0.0
 11
323.1143589999998
 21
329.147775
 31
0.0
  0
ARC
  5
BBBD
330
BA9A
100
AcDbEntity
  8
1
  6
Continuous
100
AcDbCircle
 10
322.114359
 20
324.847775
 30
0.0
 40
1.0
100
AcDbArc
 50
270.0
 51
0.0
  0
LINE
  5
BBBE
330
BA9A
100
AcDbEntity
  8
1
  6
Continuous
100
AcDbLine
 10
324.7388379999998
 20
322.2477749999999
 30
0.0
 11
324.7388379999998
 21
318.2477749999998
 31
0.0
  0
LINE
  5
BBBF
330
BA9A
100
AcDbEntity
  8
1
  6
Continuous
100
AcDbLine
 10
325.6143589999999
 20
322.2477749999999
 30
0.0
 11
325.6143589999999
 21
323.847775
 31
0.0
  0
ARC
  5
BBC0
330
BA9A
100
AcDbEntity
  8
1
  6
Continuous
100
AcDbCircle
 10
638.0310249999999
 20
373.547775
 30
0.0
 40
336.2166669999999
100
AcDbArc
 50
177.579412
 51
182.4350259999999
  0
ARC
  5
BBC1
330
BA9A
100
AcDbEntity
  8
1
  6
Continuous
100
AcDbCircle
 10
-12.802308
 20
373.547775
 30
0.0
 40
336.2166669999999
100
AcDbArc
 50
357.5794119999998
 51
2.420587999999999
  0
LINE
  5
BBC2
330
BA9A
100
AcDbEntity
  8
1
  6
Continuous
100
AcDbLine
 10
303.1143589999999
 20
358.347775
 30
0.0
 11
322.114359
 21
358.347775
 31
0.0
  0
LINE
  5
BBC3
330
BA9A
100
AcDbEntity
  8
1
  6
Continuous
100
AcDbLine
 10
303.1143589999999
 20
356.747775
 30
0.0
 11
322.114359
 21
356.747775
 31
0.0
  0
ARC
  5
BBC4
330
BA9A
100
AcDbEntity
  8
1
  6
Continuous
100
AcDbCircle
 10
303.1143589999999
 20
359.347775
 30
0.0
 40
1.0
100
AcDbArc
 50
180.0
 51
270.0
  0
LINE
  5
BBC5
330
BA9A
100
AcDbEntity
  8
1
  6
Continuous
100
AcDbLine
 10
303.7143589999999
 20
356.747775
 30
0.0
 11
303.7143589999999
 21
358.347775
 31
0.0
  0
ARC
  5
BBC6
330
BA9A
100
AcDbEntity
  8
1
  6
Continuous
100
AcDbCircle
 10
303.1143589999999
 20
355.7477749999998
 30
0.0
 40
1.0
100
AcDbArc
 50
90.0
 51
180.0
  0
ARC
  5
BBC7
330
BA9A
100
AcDbEntity
  8
1
  6
Continuous
100
AcDbCircle
 10
322.114359
 20
359.347775
 30
0.0
 40
1.0
100
AcDbArc
 50
270.0
 51
0.0
  0
LINE
  5
BBC8
330
BA9A
100
AcDbEntity
  8
1
  6
Continuous
100
AcDbLine
 10
321.514359
 20
358.347775
 30
0.0
 11
321.514359
 21
356.747775
 31
0.0
  0
ARC
  5
BBC9
330
BA9A
100
AcDbEntity
  8
1
  6
Continuous
100
AcDbCircle
 10
322.114359
 20
355.7477749999998
 30
0.0
 40
1.0
100
AcDbArc
 50
0.0
 51
90.0
  0
LINE
  5
BBCA
330
BA9A
100
AcDbEntity
  8
1
  6
Continuous
100
AcDbLine
 10
308.1143589999999
 20
397.2477749999998
 30
0.0
 11
306.6143589999999
 21
395.7477749999998
 31
0.0
  0
LINE
  5
BBCB
330
BA9A
100
AcDbEntity
  8
1
  6
Continuous
100
AcDbLine
 10
318.6143589999999
 20
395.7477749999998
 30
0.0
 11
306.6143589999999
 21
395.7477749999998
 31
0.0
  0
LINE
  5
BBCC
330
BA9A
100
AcDbEntity
  8
1
  6
Continuous
100
AcDbLine
 10
301.914338
 20
395.2477749999998
 30
0.0
 11
323.3143379999999
 21
395.2477749999998
 31
0.0
  0
LINE
  5
BBCD
330
BA9A
100
AcDbEntity
  8
1
  6
Continuous
100
AcDbLine
 10
302.1143589999998
 20
387.747775
 30
0.0
 11
323.1143589999998
 21
387.747775
 31
0.0
  0
LINE
  5
BBCE
330
BA9A
100
AcDbEntity
  8
1
  6
Continuous
100
AcDbLine
 10
301.914338
 20
391.2477749999998
 30
0.0
 11
323.3143379999999
 21
391.2477749999998
 31
0.0
  0
LINE
  5
BBCF
330
BA9A
100
AcDbEntity
  8
1
  6
Continuous
100
AcDbLine
 10
306.6143589999999
 20
395.2477749999998
 30
0.0
 11
306.6143589999999
 21
395.7477749999998
 31
0.0
  0
LINE
  5
BBD0
330
BA9A
100
AcDbEntity
  8
1
  6
Continuous
100
AcDbLine
 10
303.1143589999999
 20
391.2477749999998
 30
0.0
 11
303.1143589999999
 21
387.747775
 31
0.0
  0
LINE
  5
BBD1
330
BA9A
100
AcDbEntity
  8
1
  6
Continuous
100
AcDbLine
 10
301.914338
 20
395.2477749999998
 30
0.0
 11
301.914338
 21
391.2477749999998
 31
0.0
  0
LINE
  5
BBD2
330
BA9A
100
AcDbEntity
  8
1
  6
Continuous
100
AcDbLine
 10
317.1143589999999
 20
397.2477749999998
 30
0.0
 11
308.1143589999999
 21
397.2477749999998
 31
0.0
  0
LINE
  5
BBD3
330
BA9A
100
AcDbEntity
  8
1
  6
Continuous
100
AcDbLine
 10
317.0220019999998
 20
395.2477749999998
 30
0.0
 11
317.0220019999998
 21
391.2477749999998
 31
0.0
  0
LINE
  5
BBD4
330
BA9A
100
AcDbEntity
  8
1
  6
Continuous
100
AcDbLine
 10
308.206674
 20
395.2477749999998
 30
0.0
 11
308.206674
 21
391.2477749999998
 31
0.0
  0
LINE
  5
BBD5
330
BA9A
100
AcDbEntity
  8
1
  6
Continuous
100
AcDbLine
 10
322.114359
 20
391.2477749999998
 30
0.0
 11
322.114359
 21
387.747775
 31
0.0
  0
LINE
  5
BBD6
330
BA9A
100
AcDbEntity
  8
1
  6
Continuous
100
AcDbLine
 10
323.3143379999999
 20
395.2477749999998
 30
0.0
 11
323.3143379999999
 21
391.2477749999998
 31
0.0
  0
LINE
  5
BBD7
330
BA9A
100
AcDbEntity
  8
1
  6
Continuous
100
AcDbLine
 10
318.6143589999999
 20
395.2477749999998
 30
0.0
 11
318.6143589999999
 21
395.7477749999998
 31
0.0
  0
LINE
  5
BBD8
330
BA9A
100
AcDbEntity
  8
1
  6
Continuous
100
AcDbLine
 10
317.1143589999999
 20
397.2477749999998
 30
0.0
 11
318.6143589999999
 21
395.7477749999998
 31
0.0
  0
LINE
  5
BBD9
330
BA9A
100
AcDbEntity
  8
2
  6
Continuous
100
AcDbLine
 10
307.290838
 20
396.424254
 30
0.0
 11
307.290838
 21
395.2477749999998
 31
0.0
  0
LINE
  5
BBDA
330
BA9A
100
AcDbEntity
  8
2
  6
Continuous
100
AcDbLine
 10
317.937838
 20
396.424254
 30
0.0
 11
317.937838
 21
395.2477749999998
 31
0.0
  0
ARC
  5
BBDB
330
BA9A
100
AcDbEntity
  8
1
  6
Continuous
100
AcDbCircle
 10
374.1492339999999
 20
342.4477749999998
 30
0.0
 40
294.9666669999999
100
AcDbArc
 50
357.415666
 51
2.584334
  0
LINE
  5
BBDC
330
BA9A
100
AcDbEntity
  8
1
  6
Continuous
100
AcDbLine
 10
671.3159009999999
 20
323.847775
 30
0.0
 11
645.3159009999999
 21
323.847775
 31
0.0
  0
LINE
  5
BBDD
330
BA9A
100
AcDbEntity
  8
1
  6
Continuous
100
AcDbLine
 10
671.3159009999999
 20
322.2477749999999
 30
0.0
 11
645.3159009999999
 21
322.2477749999999
 31
0.0
  0
LINE
  5
BBDE
330
BA9A
100
AcDbEntity
  8
1
  6
Continuous
100
AcDbLine
 10
670.44038
 20
322.2477749999999
 30
0.0
 11
646.1913799999997
 21
322.2477749999999
 31
0.0
  0
LINE
  5
BBDF
330
BA9A
100
AcDbEntity
  8
1
  6
Continuous
100
AcDbLine
 10
647.8159009999999
 20
329.147775
 30
0.0
 11
668.8159009999999
 21
329.147775
 31
0.0
  0
LINE
  5
BBE0
330
BA9A
100
AcDbEntity
  8
1
  6
Continuous
100
AcDbLine
 10
664.3778799999997
 20
322.2477749999999
 30
0.0
 11
664.3778799999997
 21
318.2477749999998
 31
0.0
  0
ARC
  5
BBE1
330
BA9A
100
AcDbEntity
  8
1
  6
Continuous
100
AcDbCircle
 10
667.8159009999999
 20
324.847775
 30
0.0
 40
1.0
100
AcDbArc
 50
270.0
 51
0.0
  0
LINE
  5
BBE2
330
BA9A
100
AcDbEntity
  8
1
  6
Continuous
100
AcDbLine
 10
670.44038
 20
322.2477749999999
 30
0.0
 11
670.44038
 21
318.2477749999998
 31
0.0
  0
LINE
  5
BBE3
330
BA9A
100
AcDbEntity
  8
1
  6
Continuous
100
AcDbLine
 10
671.3159009999999
 20
322.2477749999999
 30
0.0
 11
671.3159009999999
 21
323.847775
 31
0.0
  0
LINE
  5
BBE4
330
BA9A
100
AcDbEntity
  8
1
  6
Continuous
100
AcDbLine
 10
668.8159009999999
 20
324.847775
 30
0.0
 11
668.8159009999999
 21
329.147775
 31
0.0
  0
LINE
  5
BBE5
330
BA9A
100
AcDbEntity
  8
2
  6
Continuous
100
AcDbLine
 10
663.6393799999997
 20
396.424254
 30
0.0
 11
663.6393799999997
 21
395.2477749999998
 31
0.0
  0
LINE
  5
BBE6
330
BA9A
100
AcDbEntity
  8
1
  6
Continuous
100
AcDbLine
 10
662.8159009999999
 20
397.2477749999998
 30
0.0
 11
664.3159009999999
 21
395.7477749999998
 31
0.0
  0
ARC
  5
BBE7
330
BA9A
100
AcDbEntity
  8
1
  6
Continuous
100
AcDbCircle
 10
332.8992339999999
 20
373.547775
 30
0.0
 40
336.2166669999999
100
AcDbArc
 50
357.5794119999998
 51
2.420587999999999
  0
LINE
  5
BBE8
330
BA9A
100
AcDbEntity
  8
1
  6
Continuous
100
AcDbLine
 10
648.8159009999999
 20
358.347775
 30
0.0
 11
667.8159009999999
 21
358.347775
 31
0.0
  0
LINE
  5
BBE9
330
BA9A
100
AcDbEntity
  8
1
  6
Continuous
100
AcDbLine
 10
648.8159009999999
 20
356.747775
 30
0.0
 11
667.8159009999999
 21
356.747775
 31
0.0
  0
ARC
  5
BBEA
330
BA9A
100
AcDbEntity
  8
1
  6
Continuous
100
AcDbCircle
 10
667.8159009999999
 20
359.347775
 30
0.0
 40
1.0
100
AcDbArc
 50
270.0
 51
0.0
  0
LINE
  5
BBEB
330
BA9A
100
AcDbEntity
  8
1
  6
Continuous
100
AcDbLine
 10
667.215901
 20
358.347775
 30
0.0
 11
667.215901
 21
356.747775
 31
0.0
  0
ARC
  5
BBEC
330
BA9A
100
AcDbEntity
  8
1
  6
Continuous
100
AcDbCircle
 10
667.8159009999999
 20
355.7477749999998
 30
0.0
 40
1.0
100
AcDbArc
 50
0.0
 51
90.0
  0
LINE
  5
BBED
330
BA9A
100
AcDbEntity
  8
1
  6
Continuous
100
AcDbLine
 10
664.3159009999999
 20
395.7477749999998
 30
0.0
 11
652.3159009999999
 21
395.7477749999998
 31
0.0
  0
LINE
  5
BBEE
330
BA9A
100
AcDbEntity
  8
1
  6
Continuous
100
AcDbLine
 10
647.6158799999998
 20
395.2477749999998
 30
0.0
 11
669.0158799999998
 21
395.2477749999998
 31
0.0
  0
LINE
  5
BBEF
330
BA9A
100
AcDbEntity
  8
1
  6
Continuous
100
AcDbLine
 10
647.8159009999999
 20
387.747775
 30
0.0
 11
668.8159009999999
 21
387.747775
 31
0.0
  0
LINE
  5
BBF0
330
BA9A
100
AcDbEntity
  8
1
  6
Continuous
100
AcDbLine
 10
647.6158799999998
 20
391.2477749999998
 30
0.0
 11
669.0158799999998
 21
391.2477749999998
 31
0.0
  0
LINE
  5
BBF1
330
BA9A
100
AcDbEntity
  8
1
  6
Continuous
100
AcDbLine
 10
662.7235439999998
 20
395.2477749999998
 30
0.0
 11
662.7235439999998
 21
391.2477749999998
 31
0.0
  0
LINE
  5
BBF2
330
BA9A
100
AcDbEntity
  8
1
  6
Continuous
100
AcDbLine
 10
664.3159009999999
 20
395.2477749999998
 30
0.0
 11
664.3159009999999
 21
395.7477749999998
 31
0.0
  0
LINE
  5
BBF3
330
BA9A
100
AcDbEntity
  8
1
  6
Continuous
100
AcDbLine
 10
667.8159009999999
 20
391.2477749999998
 30
0.0
 11
667.8159009999999
 21
387.747775
 31
0.0
  0
LINE
  5
BBF4
330
BA9A
100
AcDbEntity
  8
1
  6
Continuous
100
AcDbLine
 10
669.0158799999998
 20
395.2477749999998
 30
0.0
 11
669.0158799999998
 21
391.2477749999998
 31
0.0
  0
LINE
  5
BBF5
330
BA9A
100
AcDbEntity
  8
1
  6
Continuous
100
AcDbLine
 10
662.8159009999999
 20
397.2477749999998
 30
0.0
 11
653.8159010000001
 21
397.2477749999998
 31
0.0
  0
ARC
  5
BBF6
330
BA9A
100
AcDbEntity
  8
1
  6
Continuous
100
AcDbCircle
 10
942.482567
 20
342.4477749999998
 30
0.0
 40
294.9666669999999
100
AcDbArc
 50
177.3980899999999
 51
182.584334
  0
LINE
  5
BBF7
330
BA9A
100
AcDbEntity
  8
1
  6
Continuous
100
AcDbLine
 10
646.1913799999997
 20
322.2477749999999
 30
0.0
 11
646.1913799999997
 21
318.2477749999998
 31
0.0
  0
LINE
  5
BBF8
330
BA9A
100
AcDbEntity
  8
1
  6
Continuous
100
AcDbLine
 10
645.3159009999999
 20
323.847775
 30
0.0
 11
645.3159009999999
 21
322.2477749999999
 31
0.0
  0
LINE
  5
BBF9
330
BA9A
100
AcDbEntity
  8
1
  6
Continuous
100
AcDbLine
 10
652.2538799999997
 20
322.2477749999999
 30
0.0
 11
652.2538799999997
 21
318.2477749999998
 31
0.0
  0
ARC
  5
BBFA
330
BA9A
100
AcDbEntity
  8
1
  6
Continuous
100
AcDbCircle
 10
648.8159009999999
 20
324.847775
 30
0.0
 40
1.0
100
AcDbArc
 50
180.0
 51
270.0
  0
LINE
  5
BBFB
330
BA9A
100
AcDbEntity
  8
1
  6
Continuous
100
AcDbLine
 10
647.8159009999999
 20
324.847775
 30
0.0
 11
647.8159009999999
 21
329.147775
 31
0.0
  0
LINE
  5
BBFC
330
BA9A
100
AcDbEntity
  8
2
  6
Continuous
100
AcDbLine
 10
652.99238
 20
396.424254
 30
0.0
 11
652.99238
 21
395.2477749999998
 31
0.0
  0
LINE
  5
BBFD
330
BA9A
100
AcDbEntity
  8
1
  6
Continuous
100
AcDbLine
 10
653.8159010000001
 20
397.2477749999998
 30
0.0
 11
652.3159009999999
 21
395.7477749999998
 31
0.0
  0
ARC
  5
BBFE
330
BA9A
100
AcDbEntity
  8
1
  6
Continuous
100
AcDbCircle
 10
983.732567
 20
373.547775
 30
0.0
 40
336.2166669999999
100
AcDbArc
 50
177.579412
 51
182.4350259999999
  0
ARC
  5
BBFF
330
BA9A
100
AcDbEntity
  8
1
  6
Continuous
100
AcDbCircle
 10
648.8159009999999
 20
359.347775
 30
0.0
 40
1.0
100
AcDbArc
 50
180.0
 51
270.0
  0
LINE
  5
BC00
330
BA9A
100
AcDbEntity
  8
1
  6
Continuous
100
AcDbLine
 10
649.4159009999997
 20
356.747775
 30
0.0
 11
649.4159009999997
 21
358.347775
 31
0.0
  0
ARC
  5
BC01
330
BA9A
100
AcDbEntity
  8
1
  6
Continuous
100
AcDbCircle
 10
648.8159009999999
 20
355.7477749999998
 30
0.0
 40
1.0
100
AcDbArc
 50
90.0
 51
180.0
  0
LINE
  5
BC02
330
BA9A
100
AcDbEntity
  8
1
  6
Continuous
100
AcDbLine
 10
652.3159009999999
 20
395.2477749999998
 30
0.0
 11
652.3159009999999
 21
395.7477749999998
 31
0.0
  0
LINE
  5
BC03
330
BA9A
100
AcDbEntity
  8
1
  6
Continuous
100
AcDbLine
 10
648.8159009999999
 20
391.2477749999998
 30
0.0
 11
648.8159009999999
 21
387.747775
 31
0.0
  0
LINE
  5
BC04
330
BA9A
100
AcDbEntity
  8
1
  6
Continuous
100
AcDbLine
 10
647.6158799999998
 20
395.2477749999998
 30
0.0
 11
647.6158799999998
 21
391.2477749999998
 31
0.0
  0
LINE
  5
BC05
330
BA9A
100
AcDbEntity
  8
1
  6
Continuous
100
AcDbLine
 10
653.908216
 20
395.2477749999998
 30
0.0
 11
653.908216
 21
391.2477749999998
 31
0.0
  0
LINE
  5
BC06
330
BA9A
100
AcDbEntity
  8
1
  6
Continuous
100
AcDbLine
 10
61.50595899999999
 20
387.747775
 30
0.0
 11
82.50595899999998
 21
387.747775
 31
0.0
  0
ARC
  5
BC07
330
BA9A
100
AcDbEntity
  8
1
  6
Continuous
100
AcDbCircle
 10
81.50595899999997
 20
359.347775
 30
0.0
 40
1.0
100
AcDbArc
 50
270.0
 51
0.0
  0
ARC
  5
BC08
330
BA9A
100
AcDbEntity
  8
1
  6
Continuous
100
AcDbCircle
 10
81.50595899999997
 20
355.7477749999998
 30
0.0
 40
1.0
100
AcDbArc
 50
0.0
 51
90.0
  0
ARC
  5
BC09
330
BA9A
100
AcDbEntity
  8
1
  6
Continuous
100
AcDbCircle
 10
81.50595899999997
 20
324.847775
 30
0.0
 40
1.0
100
AcDbArc
 50
270.0
 51
0.0
  0
LINE
  5
BC0A
330
BA9A
100
AcDbEntity
  8
1
  6
Continuous
100
AcDbLine
 10
85.00595899999998
 20
323.847775
 30
0.0
 11
59.00595899999999
 21
323.847775
 31
0.0
  0
LINE
  5
BC0B
330
BA9A
100
AcDbEntity
  8
1
  6
Continuous
100
AcDbLine
 10
85.00595899999998
 20
322.2477749999999
 30
0.0
 11
59.00595899999999
 21
322.2477749999999
 31
0.0
  0
LINE
  5
BC0C
330
BA9A
100
AcDbEntity
  8
1
  6
Continuous
100
AcDbLine
 10
61.50595899999999
 20
329.147775
 30
0.0
 11
82.50595899999998
 21
329.147775
 31
0.0
  0
LINE
  5
BC0D
330
BA9A
100
AcDbEntity
  8
2
  6
Continuous
100
AcDbLine
 10
77.329459
 20
396.424254
 30
0.0
 11
77.329459
 21
395.2477749999998
 31
0.0
  0
LINE
  5
BC0E
330
BA9A
100
AcDbEntity
  8
1
  6
Continuous
100
AcDbLine
 10
76.50595899999998
 20
397.2477749999998
 30
0.0
 11
78.00595899999997
 21
395.7477749999998
 31
0.0
  0
LINE
  5
BC0F
330
BA9A
100
AcDbEntity
  8
1
  6
Continuous
100
AcDbLine
 10
62.505959
 20
358.347775
 30
0.0
 11
81.50595899999997
 21
358.347775
 31
0.0
  0
LINE
  5
BC10
330
BA9A
100
AcDbEntity
  8
1
  6
Continuous
100
AcDbLine
 10
62.505959
 20
356.747775
 30
0.0
 11
81.50595899999997
 21
356.747775
 31
0.0
  0
LINE
  5
BC11
330
BA9A
100
AcDbEntity
  8
1
  6
Continuous
100
AcDbLine
 10
80.90595899999998
 20
358.347775
 30
0.0
 11
80.90595899999998
 21
356.747775
 31
0.0
  0
LINE
  5
BC12
330
BA9A
100
AcDbEntity
  8
1
  6
Continuous
100
AcDbLine
 10
62.255959
 20
395.2477749999998
 30
0.0
 11
81.75595899999997
 21
395.2477749999998
 31
0.0
  0
LINE
  5
BC13
330
BA9A
100
AcDbEntity
  8
1
  6
Continuous
100
AcDbLine
 10
62.255959
 20
391.2477749999998
 30
0.0
 11
81.75595899999997
 21
391.2477749999998
 31
0.0
  0
LINE
  5
BC14
330
BA9A
100
AcDbEntity
  8
1
  6
Continuous
100
AcDbLine
 10
78.00595899999997
 20
395.7477749999998
 30
0.0
 11
66.00595899999999
 21
395.7477749999998
 31
0.0
  0
LINE
  5
BC15
330
BA9A
100
AcDbEntity
  8
1
  6
Continuous
100
AcDbLine
 10
81.50595899999997
 20
391.2477749999998
 30
0.0
 11
81.50595899999997
 21
387.747775
 31
0.0
  0
LINE
  5
BC16
330
BA9A
100
AcDbEntity
  8
1
  6
Continuous
100
AcDbLine
 10
81.75595899999997
 20
391.2477749999998
 30
0.0
 11
81.75595899999997
 21
395.2477749999998
 31
0.0
  0
LINE
  5
BC17
330
BA9A
100
AcDbEntity
  8
1
  6
Continuous
100
AcDbLine
 10
78.00595899999997
 20
395.2477749999998
 30
0.0
 11
78.00595899999997
 21
395.7477749999998
 31
0.0
  0
LINE
  5
BC18
330
BA9A
100
AcDbEntity
  8
1
  6
Continuous
100
AcDbLine
 10
76.50595899999998
 20
397.2477749999998
 30
0.0
 11
67.50595899999999
 21
397.2477749999998
 31
0.0
  0
ARC
  5
BC19
330
BA9A
100
AcDbEntity
  8
1
  6
Continuous
100
AcDbCircle
 10
-212.1607079999999
 20
342.4477749999998
 30
0.0
 40
294.9666669999999
100
AcDbArc
 50
357.415666
 51
2.584334
  0
LINE
  5
BC1A
330
BA9A
100
AcDbEntity
  8
1
  6
Continuous
100
AcDbLine
 10
82.50595899999998
 20
324.847775
 30
0.0
 11
82.50595899999998
 21
329.147775
 31
0.0
  0
LINE
  5
BC1B
330
BA9A
100
AcDbEntity
  8
1
  6
Continuous
100
AcDbLine
 10
85.00595899999998
 20
322.2477749999999
 30
0.0
 11
85.00595899999998
 21
323.847775
 31
0.0
  0
LINE
  5
BC1C
330
BA9A
100
AcDbEntity
  8
1
  6
Continuous
100
AcDbLine
 10
82.50595899999998
 20
318.2477749999998
 30
0.0
 11
82.50595899999998
 21
322.2477749999999
 31
0.0
  0
ARC
  5
BC1D
330
BA9A
100
AcDbEntity
  8
1
  6
Continuous
100
AcDbCircle
 10
-253.410708
 20
373.547775
 30
0.0
 40
336.2166669999999
100
AcDbArc
 50
357.564974
 51
2.420587999999999
  0
ARC
  5
BC1E
330
BA9A
100
AcDbEntity
  8
1
  6
Continuous
100
AcDbCircle
 10
356.1726249999999
 20
342.4477749999998
 30
0.0
 40
294.9666669999999
100
AcDbArc
 50
177.3980899999999
 51
182.584334
  0
ARC
  5
BC1F
330
BA9A
100
AcDbEntity
  8
1
  6
Continuous
100
AcDbCircle
 10
62.505959
 20
324.847775
 30
0.0
 40
1.0
100
AcDbArc
 50
180.0
 51
270.0
  0
LINE
  5
BC20
330
BA9A
100
AcDbEntity
  8
1
  6
Continuous
100
AcDbLine
 10
59.00595899999999
 20
323.847775
 30
0.0
 11
59.00595899999999
 21
322.2477749999999
 31
0.0
  0
LINE
  5
BC21
330
BA9A
100
AcDbEntity
  8
1
  6
Continuous
100
AcDbLine
 10
61.50595899999999
 20
324.847775
 30
0.0
 11
61.50595899999999
 21
329.147775
 31
0.0
  0
LINE
  5
BC22
330
BA9A
100
AcDbEntity
  8
1
  6
Continuous
100
AcDbLine
 10
61.50595899999999
 20
318.2477749999998
 30
0.0
 11
61.50595899999999
 21
322.2477749999999
 31
0.0
  0
LINE
  5
BC23
330
BA9A
100
AcDbEntity
  8
2
  6
Continuous
100
AcDbLine
 10
66.68245899999999
 20
396.424254
 30
0.0
 11
66.68245899999999
 21
395.2477749999998
 31
0.0
  0
LINE
  5
BC24
330
BA9A
100
AcDbEntity
  8
1
  6
Continuous
100
AcDbLine
 10
67.50595899999999
 20
397.2477749999998
 30
0.0
 11
66.00595899999999
 21
395.7477749999998
 31
0.0
  0
ARC
  5
BC25
330
BA9A
100
AcDbEntity
  8
1
  6
Continuous
100
AcDbCircle
 10
397.422625
 20
373.547775
 30
0.0
 40
336.2166669999999
100
AcDbArc
 50
177.579412
 51
182.4350259999999
  0
ARC
  5
BC26
330
BA9A
100
AcDbEntity
  8
1
  6
Continuous
100
AcDbCircle
 10
62.505959
 20
359.347775
 30
0.0
 40
1.0
100
AcDbArc
 50
180.0
 51
270.0
  0
ARC
  5
BC27
330
BA9A
100
AcDbEntity
  8
1
  6
Continuous
100
AcDbCircle
 10
62.505959
 20
355.7477749999998
 30
0.0
 40
1.0
100
AcDbArc
 50
90.0
 51
180.0
  0
LINE
  5
BC28
330
BA9A
100
AcDbEntity
  8
1
  6
Continuous
100
AcDbLine
 10
63.105959
 20
356.747775
 30
0.0
 11
63.105959
 21
358.347775
 31
0.0
  0
LINE
  5
BC29
330
BA9A
100
AcDbEntity
  8
1
  6
Continuous
100
AcDbLine
 10
66.00595899999999
 20
395.2477749999998
 30
0.0
 11
66.00595899999999
 21
395.7477749999998
 31
0.0
  0
LINE
  5
BC2A
330
BA9A
100
AcDbEntity
  8
1
  6
Continuous
100
AcDbLine
 10
62.505959
 20
391.2477749999998
 30
0.0
 11
62.505959
 21
387.747775
 31
0.0
  0
LINE
  5
BC2B
330
BA9A
100
AcDbEntity
  8
1
  6
Continuous
100
AcDbLine
 10
62.255959
 20
391.2477749999998
 30
0.0
 11
62.255959
 21
395.2477749999998
 31
0.0
  0
LINE
  5
BC2C
330
BA9A
100
AcDbEntity
  8
1
  6
Continuous
100
AcDbLine
 10
103.005959
 20
228.2477749999999
 30
0.0
 11
103.005959
 21
220.2477749999999
 31
0.0
  0
LINE
  5
BC2D
330
BA9A
100
AcDbEntity
  8
1
  6
Continuous
100
AcDbLine
 10
263.6143379999999
 20
451.048598
 30
0.0
 11
271.6143379999999
 21
451.048598
 31
0.0
  0
ARC
  5
BC2E
330
BA9A
100
AcDbEntity
  8
1
  6
Continuous
100
AcDbCircle
 10
290.136247
 20
523.520054
 30
0.0
 40
67.671456
100
AcDbArc
 50
289.4002369999999
 51
298.4582930000001
  0
ARC
  5
BC2F
330
BA9A
100
AcDbEntity
  8
1
  6
Continuous
100
AcDbCircle
 10
290.136247
 20
440.5771419999998
 30
0.0
 40
67.671456
100
AcDbArc
 50
61.54170699999998
 51
70.59976299999998
  0
ARC
  5
BC30
330
BA9A
100
AcDbEntity
  8
1
  6
Continuous
100
AcDbCircle
 10
312.6143379999998
 20
482.0485979999999
 30
0.0
 40
20.5
100
AcDbArc
 50
118.233118
 51
241.7668819999998
  0
LINE
  5
BC31
330
BA9A
100
AcDbEntity
  8
1
  6
Continuous
100
AcDbLine
 10
312.6143379999998
 20
459.690896
 30
0.0
 11
282.949381
 21
456.5000069999999
 31
0.0
  0
LINE
  5
BC32
330
BA9A
100
AcDbEntity
  8
1
  6
Continuous
100
AcDbLine
 10
305.426849
 20
464.298598
 30
0.0
 11
285.564025
 21
459.699754
 31
0.0
  0
LINE
  5
BC33
330
BA9A
100
AcDbEntity
  8
1
  6
Continuous
100
AcDbLine
 10
305.426849
 20
464.298598
 30
0.0
 11
281.893715
 21
461.381913
 31
0.0
  0
LINE
  5
BC34
330
BA9A
100
AcDbEntity
  8
1
  6
Continuous
100
AcDbLine
 10
278.1143379999999
 20
461.148598
 30
0.0
 11
257.1143379999999
 21
461.148598
 31
0.0
  0
LINE
  5
BC35
330
BA9A
100
AcDbEntity
  8
1
  6
Continuous
100
AcDbLine
 10
278.1143379999999
 20
458.8485979999998
 30
0.0
 11
257.1143379999999
 21
458.8485979999998
 31
0.0
  0
ARC
  5
BC36
330
BA9A
100
AcDbEntity
  8
1
  6
Continuous
100
AcDbCircle
 10
261.7428129999999
 20
390.6555389999999
 30
0.0
 40
68.19305799999999
100
AcDbArc
 50
77.93721399999999
 51
90.0
  0
ARC
  5
BC37
330
BA9A
100
AcDbEntity
  8
1
  6
Continuous
100
AcDbCircle
 10
281.879907
 20
466.442653
 30
0.0
 40
10.0
100
AcDbArc
 50
261.7691619999998
 51
276.1393739999999
  0
ARC
  5
BC38
330
BA9A
100
AcDbEntity
  8
1
  6
Continuous
100
AcDbCircle
 10
278.1143379999999
 20
491.875625
 30
0.0
 40
30.72702700000001
100
AcDbArc
 50
270.0
 51
277.0651829999998
  0
ARC
  5
BC39
330
BA9A
100
AcDbEntity
  8
1
  6
Continuous
100
AcDbCircle
 10
278.1143379999999
 20
491.875625
 30
0.0
 40
33.02702699999999
100
AcDbArc
 50
270.0
 51
283.0360069999999
  0
ARC
  5
BC3A
330
BA9A
100
AcDbEntity
  8
1
  6
Continuous
100
AcDbCircle
 10
290.136247
 20
523.520054
 30
0.0
 40
67.671456
100
AcDbArc
 50
257.937214
 51
261.7691619999998
  0
LINE
  5
BC3B
330
BA9A
100
AcDbEntity
  8
1
  6
Continuous
100
AcDbLine
 10
312.6143379999998
 20
504.4063
 30
0.0
 11
282.949381
 21
507.5971899999998
 31
0.0
  0
LINE
  5
BC3C
330
BA9A
100
AcDbEntity
  8
1
  6
Continuous
100
AcDbLine
 10
305.426849
 20
499.798598
 30
0.0
 11
281.893715
 21
502.715284
 31
0.0
  0
LINE
  5
BC3D
330
BA9A
100
AcDbEntity
  8
1
  6
Continuous
100
AcDbLine
 10
305.426849
 20
499.798598
 30
0.0
 11
285.564025
 21
504.397442
 31
0.0
  0
ARC
  5
BC3E
330
BA9A
100
AcDbEntity
  8
1
  6
Continuous
100
AcDbCircle
 10
261.7428129999999
 20
573.4416569999998
 30
0.0
 40
68.19305799999999
100
AcDbArc
 50
270.0
 51
282.0627859999999
  0
LINE
  5
BC3F
330
BA9A
100
AcDbEntity
  8
1
  6
Continuous
100
AcDbLine
 10
278.1143379999999
 20
502.948598
 30
0.0
 11
257.1143379999999
 21
502.948598
 31
0.0
  0
LINE
  5
BC40
330
BA9A
100
AcDbEntity
  8
1
  6
Continuous
100
AcDbLine
 10
278.1143379999999
 20
505.2485980000001
 30
0.0
 11
257.1143379999999
 21
505.2485980000001
 31
0.0
  0
ARC
  5
BC41
330
BA9A
100
AcDbEntity
  8
1
  6
Continuous
100
AcDbCircle
 10
278.1143379999999
 20
472.2215709999998
 30
0.0
 40
30.72702700000001
100
AcDbArc
 50
82.93481699999999
 51
90.0
  0
ARC
  5
BC42
330
BA9A
100
AcDbEntity
  8
1
  6
Continuous
100
AcDbCircle
 10
278.1143379999999
 20
472.2215709999998
 30
0.0
 40
33.02702699999999
100
AcDbArc
 50
76.96399300000002
 51
90.0
  0
ARC
  5
BC43
330
BA9A
100
AcDbEntity
  8
1
  6
Continuous
100
AcDbCircle
 10
281.879907
 20
497.6545429999998
 30
0.0
 40
10.0
100
AcDbArc
 50
83.86062599999998
 51
98.23083800000004
  0
ARC
  5
BC44
330
BA9A
100
AcDbEntity
  8
1
  6
Continuous
100
AcDbCircle
 10
290.136247
 20
440.5771419999998
 30
0.0
 40
67.671456
100
AcDbArc
 50
98.23083800000004
 51
102.0627859999998
  0
ARC
  5
BC45
330
BA9A
100
AcDbEntity
  8
1
  6
Continuous
100
AcDbCircle
 10
312.6143379999998
 20
482.0485979999999
 30
0.0
 40
20.5
100
AcDbArc
 50
298.4582939999999
 51
61.54170699999998
  0
LINE
  5
BC46
330
BA9A
100
AcDbEntity
  8
1
  6
Continuous
100
AcDbLine
 10
340.1143379999999
 20
503.748598
 30
0.0
 11
340.1143379999999
 21
460.348598
 31
0.0
  0
ARC
  5
BC47
330
BA9A
100
AcDbEntity
  8
1
  6
Continuous
100
AcDbCircle
 10
294.961838
 20
503.748598
 30
0.0
 40
45.1525
100
AcDbArc
 50
0.0
 51
9.606972
  0
ARC
  5
BC48
330
BA9A
100
AcDbEntity
  8
1
  6
Continuous
100
AcDbCircle
 10
330.1143379999999
 20
509.698598
 30
0.0
 40
9.5
100
AcDbArc
 50
9.606972
 51
170.3930279999999
  0
CIRCLE
  5
BC49
330
BA9A
100
AcDbEntity
  8
1
  6
Continuous
100
AcDbCircle
 10
330.1143379999999
 20
512.2985980000001
 30
0.0
 40
4.898978999999997
  0
ARC
  5
BC4A
330
BA9A
100
AcDbEntity
  8
1
  6
Continuous
100
AcDbCircle
 10
330.1143379999999
 20
454.398598
 30
0.0
 40
9.5
100
AcDbArc
 50
189.6069719999998
 51
350.3930279999999
  0
CIRCLE
  5
BC4B
330
BA9A
100
AcDbEntity
  8
1
  6
Continuous
100
AcDbCircle
 10
330.1143379999999
 20
451.798598
 30
0.0
 40
4.898978999999997
  0
ARC
  5
BC4C
330
BA9A
100
AcDbEntity
  8
1
  6
Continuous
100
AcDbCircle
 10
294.961838
 20
460.348598
 30
0.0
 40
45.1525
100
AcDbArc
 50
350.3930279999999
 51
0.0
  0
ARC
  5
BC4D
330
BA9A
100
AcDbEntity
  8
1
  6
Continuous
100
AcDbCircle
 10
324.7643379999999
 20
472.5658519999998
 30
0.0
 40
9.0
100
AcDbArc
 50
301.7230549999998
 51
0.0
  0
LINE
  5
BC4E
330
BA9A
100
AcDbEntity
  8
1
  6
Continuous
100
AcDbLine
 10
321.6334049999999
 20
460.049636
 30
0.0
 11
329.496664
 21
464.9104559999998
 31
0.0
  0
ARC
  5
BC4F
330
BA9A
100
AcDbEntity
  8
1
  6
Continuous
100
AcDbCircle
 10
365.266838
 20
460.348598
 30
0.0
 40
45.1525
100
AcDbArc
 50
183.877856
 51
189.6069719999998
  0
ARC
  5
BC50
330
BA9A
100
AcDbEntity
  8
1
  6
Continuous
100
AcDbCircle
 10
323.210847
 20
457.497837
 30
0.0
 40
3.0
100
AcDbArc
 50
121.723055
 51
183.877856
  0
LINE
  5
BC51
330
BA9A
100
AcDbEntity
  8
1
  6
Continuous
100
AcDbLine
 10
333.764338
 20
494.2485979999998
 30
0.0
 11
333.764338
 21
472.5658519999998
 31
0.0
  0
ARC
  5
BC52
330
BA9A
100
AcDbEntity
  8
1
  6
Continuous
100
AcDbCircle
 10
329.764338
 20
494.2485979999998
 30
0.0
 40
4.0
100
AcDbArc
 50
0.0
 51
71.867154
  0
LINE
  5
BC53
330
BA9A
100
AcDbEntity
  8
1
  6
Continuous
100
AcDbLine
 10
321.667015
 20
501.109381
 30
0.0
 11
331.009223
 21
498.0499479999998
 31
0.0
  0
ARC
  5
BC54
330
BA9A
100
AcDbEntity
  8
1
  6
Continuous
100
AcDbCircle
 10
365.266838
 20
503.748598
 30
0.0
 40
45.1525
100
AcDbArc
 50
170.3930279999999
 51
180.669038
  0
ARC
  5
BC55
330
BA9A
100
AcDbEntity
  8
1
  6
Continuous
100
AcDbCircle
 10
322.3672629999999
 20
503.247641
 30
0.0
 40
2.25
100
AcDbArc
 50
180.669038
 51
251.867154
  0
ARC
  5
BC56
330
BA9A
100
AcDbEntity
  8
1
  6
Continuous
100
AcDbCircle
 10
261.7428129999999
 20
167.4252219999999
 30
0.0
 40
68.19305799999999
100
AcDbArc
 50
270.0
 51
282.0627859999999
  0
ARC
  5
BC57
330
BA9A
100
AcDbEntity
  8
1
  6
Continuous
100
AcDbCircle
 10
270.6143379999999
 20
97.86709899999999
 30
0.0
 40
8.665063999999999
100
AcDbArc
 50
69.743842
 51
110.256158
  0
LINE
  5
BC58
330
BA9A
100
AcDbEntity
  8
1
  6
Continuous
100
AcDbLine
 10
273.6143379999999
 20
106.5321629999999
 30
0.0
 11
261.614338
 21
106.5321629999999
 31
0.0
  0
ARC
  5
BC59
330
BA9A
100
AcDbEntity
  8
1
  6
Continuous
100
AcDbCircle
 10
270.6143379999999
 20
110.1972259999999
 30
0.0
 40
8.665063999999999
100
AcDbArc
 50
249.7438419999999
 51
290.256158
  0
LINE
  5
BC5A
330
BA9A
100
AcDbEntity
  8
1
  6
Continuous
100
AcDbLine
 10
273.6143379999999
 20
101.532163
 30
0.0
 11
261.614338
 21
101.532163
 31
0.0
  0
LINE
  5
BC5B
330
BA9A
100
AcDbEntity
  8
1
  6
Continuous
100
AcDbLine
 10
274.3782700000001
 20
95.93216299999999
 30
0.0
 11
260.850406
 21
95.93216299999999
 31
0.0
  0
LINE
  5
BC5C
330
BA9A
100
AcDbEntity
  8
1
  6
Continuous
100
AcDbLine
 10
278.1143379999999
 20
96.93216300000001
 30
0.0
 11
257.1143379999999
 21
96.93216300000001
 31
0.0
  0
LINE
  5
BC5D
330
BA9A
100
AcDbEntity
  8
1
  6
Continuous
100
AcDbLine
 10
275.1143379999999
 20
101.532163
 30
0.0
 11
260.1143379999999
 21
101.532163
 31
0.0
  0
LINE
  5
BC5E
330
BA9A
100
AcDbEntity
  8
1
  6
Continuous
100
AcDbLine
 10
276.8833939999999
 20
99.23216299999999
 30
0.0
 11
257.1143379999999
 21
99.23216299999999
 31
0.0
  0
LINE
  5
BC5F
330
BA9A
100
AcDbEntity
  8
1
  6
Continuous
100
AcDbLine
 10
321.6143379999999
 20
87.03216299999999
 30
0.0
 11
213.8143379999999
 21
87.03216299999999
 31
0.0
  0
LINE
  5
BC60
330
BA9A
100
AcDbEntity
  8
1
  6
Continuous
100
AcDbLine
 10
288.1143379999999
 20
91.782163
 30
0.0
 11
247.114338
 21
91.782163
 31
0.0
  0
LINE
  5
BC61
330
BA9A
100
AcDbEntity
  8
1
  6
Continuous
100
AcDbLine
 10
283.6143379999999
 20
95.832163
 30
0.0
 11
251.6143379999999
 21
95.832163
 31
0.0
  0
LINE
  5
BC62
330
BA9A
100
AcDbEntity
  8
1
  6
Continuous
100
AcDbLine
 10
285.285911
 20
93.782163
 30
0.0
 11
249.9427649999999
 21
93.782163
 31
0.0
  0
ARC
  5
BC63
330
BA9A
100
AcDbEntity
  8
1
  6
Continuous
100
AcDbCircle
 10
261.7428129999999
 20
-15.36089599999999
 30
0.0
 40
68.19305799999999
100
AcDbArc
 50
77.93721399999999
 51
90.0
  0
LINE
  5
BC64
330
BA9A
100
AcDbEntity
  8
1
  6
Continuous
100
AcDbLine
 10
261.614338
 20
45.032163
 30
0.0
 11
273.6143379999999
 21
45.032163
 31
0.0
  0
LINE
  5
BC65
330
BA9A
100
AcDbEntity
  8
1
  6
Continuous
100
AcDbLine
 10
261.614338
 20
50.53216299999998
 30
0.0
 11
273.6143379999999
 21
50.53216299999998
 31
0.0
  0
ARC
  5
BC66
330
BA9A
100
AcDbEntity
  8
1
  6
Continuous
100
AcDbCircle
 10
270.6143379999999
 20
53.697226
 30
0.0
 40
8.665063999999999
100
AcDbArc
 50
249.7438419999999
 51
290.256158
  0
LINE
  5
BC67
330
BA9A
100
AcDbEntity
  8
1
  6
Continuous
100
AcDbLine
 10
274.3782700000001
 20
56.132163
 30
0.0
 11
260.850406
 21
56.132163
 31
0.0
  0
LINE
  5
BC68
330
BA9A
100
AcDbEntity
  8
1
  6
Continuous
100
AcDbLine
 10
278.1143379999999
 20
55.13216299999999
 30
0.0
 11
257.1143379999999
 21
55.13216299999999
 31
0.0
  0
ARC
  5
BC69
330
BA9A
100
AcDbEntity
  8
1
  6
Continuous
100
AcDbCircle
 10
261.7428129999999
 20
-15.36089599999999
 30
0.0
 40
68.19305799999999
100
AcDbArc
 50
77.93721399999999
 51
90.0
  0
LINE
  5
BC6A
330
BA9A
100
AcDbEntity
  8
1
  6
Continuous
100
AcDbLine
 10
275.1143379999999
 20
50.53216299999998
 30
0.0
 11
260.1143379999999
 21
50.53216299999998
 31
0.0
  0
LINE
  5
BC6B
330
BA9A
100
AcDbEntity
  8
1
  6
Continuous
100
AcDbLine
 10
276.8833939999999
 20
52.832163
 30
0.0
 11
257.1143379999999
 21
52.832163
 31
0.0
  0
LINE
  5
BC6C
330
BA9A
100
AcDbEntity
  8
1
  6
Continuous
100
AcDbLine
 10
321.6143379999999
 20
65.032163
 30
0.0
 11
213.8143379999999
 21
65.032163
 31
0.0
  0
LINE
  5
BC6D
330
BA9A
100
AcDbEntity
  8
1
  6
Continuous
100
AcDbLine
 10
288.1143379999999
 20
60.282163
 30
0.0
 11
247.114338
 21
60.282163
 31
0.0
  0
LINE
  5
BC6E
330
BA9A
100
AcDbEntity
  8
1
  6
Continuous
100
AcDbLine
 10
283.6143379999999
 20
56.232163
 30
0.0
 11
251.6143379999999
 21
56.232163
 31
0.0
  0
LINE
  5
BC6F
330
BA9A
100
AcDbEntity
  8
1
  6
Continuous
100
AcDbLine
 10
285.285911
 20
58.282163
 30
0.0
 11
249.9427649999999
 21
58.282163
 31
0.0
  0
LINE
  5
BC70
330
BA9A
100
AcDbEntity
  8
4
  6
CENTER
100
AcDbLine
 10
267.6143379999999
 20
40.126603
 30
0.0
 11
267.6143379999999
 21
112.7030949999999
 31
0.0
  0
ARC
  5
BC71
330
BA9A
100
AcDbEntity
  8
1
  6
Continuous
100
AcDbCircle
 10
213.6143379999999
 20
76.03216299999998
 30
0.0
 40
11.0
100
AcDbArc
 50
90.0
 51
270.0
  0
LINE
  5
BC72
330
BA9A
100
AcDbEntity
  8
1
  6
Continuous
100
AcDbLine
 10
257.1143379999999
 20
52.832163
 30
0.0
 11
257.1143379999999
 21
55.13216299999999
 31
0.0
  0
ARC
  5
BC73
330
BA9A
100
AcDbEntity
  8
1
  6
Continuous
100
AcDbCircle
 10
264.6143379999999
 20
53.697226
 30
0.0
 40
8.665063999999999
100
AcDbArc
 50
249.7438419999999
 51
290.256158
  0
LINE
  5
BC74
330
BA9A
100
AcDbEntity
  8
1
  6
Continuous
100
AcDbLine
 10
267.6143379999999
 20
45.568061
 30
0.0
 11
267.6143379999999
 21
50.53216299999998
 31
0.0
  0
LINE
  5
BC75
330
BA9A
100
AcDbEntity
  8
1
  6
Continuous
100
AcDbLine
 10
261.614338
 20
50.53216299999998
 30
0.0
 11
261.614338
 21
45.032163
 31
0.0
  0
LINE
  5
BC76
330
BA9A
100
AcDbEntity
  8
1
  6
Continuous
100
AcDbLine
 10
260.1143379999999
 20
50.53216299999998
 30
0.0
 11
260.1143379999999
 21
52.832163
 31
0.0
  0
ARC
  5
BC77
330
BA9A
100
AcDbEntity
  8
1
  6
Continuous
100
AcDbCircle
 10
249.9427649999999
 20
61.282163
 30
0.0
 40
3.0
100
AcDbArc
 50
199.4712209999999
 51
270.0
  0
ARC
  5
BC78
330
BA9A
100
AcDbEntity
  8
1
  6
Continuous
100
AcDbCircle
 10
265.856873
 20
86.83338499999996
 30
0.0
 40
32.5
100
AcDbArc
 50
222.129367
 51
234.781693
  0
LINE
  5
BC79
330
BA9A
100
AcDbEntity
  8
1
  6
Continuous
100
AcDbLine
 10
261.639338
 20
56.132163
 30
0.0
 11
261.639338
 21
56.232163
 31
0.0
  0
ARC
  5
BC7A
330
BA9A
100
AcDbEntity
  8
1
  6
Continuous
100
AcDbCircle
 10
260.850406
 20
53.132163
 30
0.0
 40
3.0
100
AcDbArc
 50
90.0
 51
138.1896849999999
  0
LINE
  5
BC7B
330
BA9A
100
AcDbEntity
  8
1
  6
Continuous
100
AcDbLine
 10
251.6143379999999
 20
56.232163
 30
0.0
 11
251.6143379999999
 21
58.282163
 31
0.0
  0
ARC
  5
BC7C
330
BA9A
100
AcDbEntity
  8
1
  6
Continuous
100
AcDbCircle
 10
249.9427649999999
 20
90.78216299999999
 30
0.0
 40
3.0
100
AcDbArc
 50
90.0
 51
160.528779
  0
ARC
  5
BC7D
330
BA9A
100
AcDbEntity
  8
1
  6
Continuous
100
AcDbCircle
 10
265.856873
 20
65.230941
 30
0.0
 40
32.5
100
AcDbArc
 50
125.218307
 51
137.632473
  0
LINE
  5
BC7E
330
BA9A
100
AcDbEntity
  8
1
  6
Continuous
100
AcDbLine
 10
271.6143379999999
 20
106.5321629999999
 30
0.0
 11
271.6143379999999
 21
107.0321629999998
 31
0.0
  0
LINE
  5
BC7F
330
BA9A
100
AcDbEntity
  8
1
  6
Continuous
100
AcDbLine
 10
271.6143379999999
 20
107.0321629999998
 30
0.0
 11
270.6143379999999
 21
108.0321629999998
 31
0.0
  0
LINE
  5
BC80
330
BA9A
100
AcDbEntity
  8
1
  6
Continuous
100
AcDbLine
 10
263.6143379999999
 20
106.5321629999999
 30
0.0
 11
263.6143379999999
 21
107.0321629999998
 31
0.0
  0
ARC
  5
BC81
330
BA9A
100
AcDbEntity
  8
1
  6
Continuous
100
AcDbCircle
 10
264.6143379999999
 20
97.86709899999999
 30
0.0
 40
8.665063999999999
100
AcDbArc
 50
69.743842
 51
110.256158
  0
ARC
  5
BC82
330
BA9A
100
AcDbEntity
  8
1
  6
Continuous
100
AcDbCircle
 10
264.6143379999999
 20
110.1972259999999
 30
0.0
 40
8.665063999999999
100
AcDbArc
 50
249.7438419999999
 51
290.256158
  0
LINE
  5
BC83
330
BA9A
100
AcDbEntity
  8
1
  6
Continuous
100
AcDbLine
 10
261.614338
 20
101.532163
 30
0.0
 11
261.614338
 21
106.5321629999999
 31
0.0
  0
LINE
  5
BC84
330
BA9A
100
AcDbEntity
  8
1
  6
Continuous
100
AcDbLine
 10
267.6143379999999
 20
105.9962649999998
 30
0.0
 11
267.6143379999999
 21
102.068061
 31
0.0
  0
LINE
  5
BC85
330
BA9A
100
AcDbEntity
  8
1
  6
Continuous
100
AcDbLine
 10
257.1143379999999
 20
96.93216300000001
 30
0.0
 11
257.1143379999999
 21
99.23216299999999
 31
0.0
  0
LINE
  5
BC86
330
BA9A
100
AcDbEntity
  8
1
  6
Continuous
100
AcDbLine
 10
261.639338
 20
95.832163
 30
0.0
 11
261.639338
 21
95.93216299999999
 31
0.0
  0
ARC
  5
BC87
330
BA9A
100
AcDbEntity
  8
1
  6
Continuous
100
AcDbCircle
 10
260.850406
 20
98.932163
 30
0.0
 40
3.0
100
AcDbArc
 50
221.810315
 51
270.0
  0
LINE
  5
BC88
330
BA9A
100
AcDbEntity
  8
1
  6
Continuous
100
AcDbLine
 10
260.1143379999999
 20
99.23216299999999
 30
0.0
 11
260.1143379999999
 21
101.532163
 31
0.0
  0
LINE
  5
BC89
330
BA9A
100
AcDbEntity
  8
1
  6
Continuous
100
AcDbLine
 10
251.6143379999999
 20
93.782163
 30
0.0
 11
251.6143379999999
 21
95.832163
 31
0.0
  0
LINE
  5
BC8A
330
BA9A
100
AcDbEntity
  8
1
  6
Continuous
100
AcDbLine
 10
263.6143379999999
 20
107.0321629999998
 30
0.0
 11
264.6143379999999
 21
108.0321629999998
 31
0.0
  0
LINE
  5
BC8B
330
BA9A
100
AcDbEntity
  8
1
  6
Continuous
100
AcDbLine
 10
264.6143379999999
 20
108.0321629999998
 30
0.0
 11
270.6143379999999
 21
108.0321629999998
 31
0.0
  0
LINE
  5
BC8C
330
BA9A
100
AcDbEntity
  8
1
  6
Continuous
100
AcDbLine
 10
336.842572
 20
57.59823299999999
 30
0.0
 11
336.842572
 21
90.03216299999998
 31
0.0
  0
LINE
  5
BC8D
330
BA9A
100
AcDbEntity
  8
1
  6
Continuous
100
AcDbLine
 10
342.2269120000001
 20
88.53216299999997
 30
0.0
 11
342.2269120000001
 21
63.53216299999999
 31
0.0
  0
LINE
  5
BC8E
330
BA9A
100
AcDbEntity
  8
1
  6
Continuous
100
AcDbLine
 10
336.842572
 20
94.466093
 30
0.0
 11
336.842572
 21
76.03216299999998
 31
0.0
  0
ARC
  5
BC8F
330
BA9A
100
AcDbEntity
  8
1
  6
Continuous
100
AcDbCircle
 10
317.752544
 20
76.03216299999998
 30
0.0
 40
17.962451
100
AcDbArc
 50
324.2285989999999
 51
35.77140099999999
  0
ARC
  5
BC90
330
BA9A
100
AcDbEntity
  8
1
  6
Continuous
100
AcDbCircle
 10
312.6143379999998
 20
76.03216299999998
 30
0.0
 40
20.5
100
AcDbArc
 50
10.613276
 51
61.558737
  0
LINE
  5
BC91
330
BA9A
100
AcDbEntity
  8
1
  6
Continuous
100
AcDbLine
 10
332.763639
 20
67.532163
 30
0.0
 11
332.763639
 21
84.53216299999999
 31
0.0
  0
ARC
  5
BC92
330
BA9A
100
AcDbEntity
  8
1
  6
Continuous
100
AcDbCircle
 10
324.7906449999999
 20
76.03216299999998
 30
0.0
 40
12.92435
100
AcDbArc
 50
21.172426
 51
54.333045
  0
ARC
  5
BC93
330
BA9A
100
AcDbEntity
  8
1
  6
Continuous
100
AcDbCircle
 10
337.73816
 20
76.03216299999998
 30
0.0
 40
10.190699
100
AcDbArc
 50
296.1342169999999
 51
63.86578299999999
  0
ARC
  5
BC94
330
BA9A
100
AcDbEntity
  8
1
  6
Continuous
100
AcDbCircle
 10
321.6143379999999
 20
76.03216299999998
 30
0.0
 40
11.0
100
AcDbArc
 50
270.0
 51
90.0
  0
ARC
  5
BC95
330
BA9A
100
AcDbEntity
  8
1
  6
Continuous
100
AcDbCircle
 10
330.1143379999999
 20
48.382163
 30
0.0
 40
9.5
100
AcDbArc
 50
189.6069719999998
 51
336.1150739999999
  0
ARC
  5
BC96
330
BA9A
100
AcDbEntity
  8
1
  6
Continuous
100
AcDbCircle
 10
312.6143379999998
 20
76.03216299999998
 30
0.0
 40
20.5
100
AcDbArc
 50
298.4582939999999
 51
349.386724
  0
LINE
  5
BC97
330
BA9A
100
AcDbEntity
  8
1
  6
Continuous
100
AcDbLine
 10
321.667015
 20
56.97138
 30
0.0
 11
331.009223
 21
60.030813
 31
0.0
  0
ARC
  5
BC98
330
BA9A
100
AcDbEntity
  8
1
  6
Continuous
100
AcDbCircle
 10
312.6143379999998
 20
76.03216299999998
 30
0.0
 40
18.2
100
AcDbArc
 50
217.185363
 51
332.7492299999998
  0
ARC
  5
BC99
330
BA9A
100
AcDbEntity
  8
1
  6
Continuous
100
AcDbCircle
 10
365.266838
 20
54.332163
 30
0.0
 40
45.1525
100
AcDbArc
 50
179.330962
 51
189.6069719999998
  0
LINE
  5
BC9A
330
BA9A
100
AcDbEntity
  8
1
  6
Continuous
100
AcDbLine
 10
311.4117289999999
 20
53.54510300000001
 30
0.0
 11
282.949381
 21
50.483571
 31
0.0
  0
ARC
  5
BC9B
330
BA9A
100
AcDbEntity
  8
1
  6
Continuous
100
AcDbCircle
 10
278.1143379999999
 20
85.85919
 30
0.0
 40
30.72702700000001
100
AcDbArc
 50
270.0
 51
313.614773
  0
ARC
  5
BC9C
330
BA9A
100
AcDbEntity
  8
1
  6
Continuous
100
AcDbCircle
 10
291.3875669999999
 20
130.3123809999999
 30
0.0
 40
76.42337499999998
100
AcDbArc
 50
260.821534
 51
290.0938029999998
  0
ARC
  5
BC9D
330
BA9A
100
AcDbEntity
  8
1
  6
Continuous
100
AcDbCircle
 10
287.9866859999999
 20
157.7033679999999
 30
0.0
 40
105.4609539999999
100
AcDbArc
 50
265.2354159999998
 51
289.0353769999999
  0
ARC
  5
BC9E
330
BA9A
100
AcDbEntity
  8
1
  6
Continuous
100
AcDbCircle
 10
276.8833939999999
 20
40.53216299999998
 30
0.0
 40
12.3
100
AcDbArc
 50
79.01634
 51
90.0
  0
ARC
  5
BC9F
330
BA9A
100
AcDbEntity
  8
1
  6
Continuous
100
AcDbCircle
 10
281.879907
 20
60.426218
 30
0.0
 40
10.0
100
AcDbArc
 50
261.7691619999998
 51
276.1393739999999
  0
ARC
  5
BCA0
330
BA9A
100
AcDbEntity
  8
1
  6
Continuous
100
AcDbCircle
 10
290.136247
 20
117.5036189999999
 30
0.0
 40
67.671456
100
AcDbArc
 50
257.937214
 51
261.7691619999998
  0
LINE
  5
BCA1
330
BA9A
100
AcDbEntity
  8
1
  6
Continuous
100
AcDbLine
 10
273.6143379999999
 20
50.53216299999998
 30
0.0
 11
273.6143379999999
 21
45.032163
 31
0.0
  0
LINE
  5
BCA2
330
BA9A
100
AcDbEntity
  8
1
  6
Continuous
100
AcDbLine
 10
275.1143379999999
 20
50.53216299999998
 30
0.0
 11
275.1143379999999
 21
51.508346
 31
0.0
  0
ARC
  5
BCA3
330
BA9A
100
AcDbEntity
  8
1
  6
Continuous
100
AcDbCircle
 10
312.6143379999998
 20
76.03216299999998
 30
0.0
 40
20.5
100
AcDbArc
 50
212.451491
 51
222.854158
  0
ARC
  5
BCA4
330
BA9A
100
AcDbEntity
  8
1
  6
Continuous
100
AcDbCircle
 10
285.285911
 20
61.282163
 30
0.0
 40
3.0
100
AcDbArc
 50
270.0
 51
340.528779
  0
ARC
  5
BCA5
330
BA9A
100
AcDbEntity
  8
1
  6
Continuous
100
AcDbCircle
 10
269.3718029999998
 20
86.83338499999996
 30
0.0
 40
32.5
100
AcDbArc
 50
305.2183069999998
 51
317.870633
  0
ARC
  5
BCA6
330
BA9A
100
AcDbEntity
  8
1
  6
Continuous
100
AcDbCircle
 10
276.911868
 20
45.13216299999998
 30
0.0
 40
10.0
100
AcDbArc
 50
76.78890799999997
 51
90.0
  0
LINE
  5
BCA7
330
BA9A
100
AcDbEntity
  8
1
  6
Continuous
100
AcDbLine
 10
273.5893379999998
 20
56.132163
 30
0.0
 11
273.5893379999998
 21
56.232163
 31
0.0
  0
ARC
  5
BCA8
330
BA9A
100
AcDbEntity
  8
1
  6
Continuous
100
AcDbCircle
 10
274.3782700000001
 20
53.132163
 30
0.0
 40
3.0
100
AcDbArc
 50
41.810315
 51
90.0
  0
LINE
  5
BCA9
330
BA9A
100
AcDbEntity
  8
1
  6
Continuous
100
AcDbLine
 10
283.6143379999999
 20
56.232163
 30
0.0
 11
283.6143379999999
 21
58.282163
 31
0.0
  0
ARC
  5
BCAA
330
BA9A
100
AcDbEntity
  8
1
  6
Continuous
100
AcDbCircle
 10
322.3672629999999
 20
54.833121
 30
0.0
 40
2.25
100
AcDbArc
 50
108.1328459999999
 51
179.330962
  0
ARC
  5
BCAB
330
BA9A
100
AcDbEntity
  8
1
  6
Continuous
100
AcDbCircle
 10
310.3422549999999
 20
63.48774999999999
 30
0.0
 40
10.0
100
AcDbArc
 50
276.1393739999999
 51
290.509587
  0
ARC
  5
BCAC
330
BA9A
100
AcDbEntity
  8
1
  6
Continuous
100
AcDbCircle
 10
290.136247
 20
117.5036189999999
 30
0.0
 40
67.671456
100
AcDbArc
 50
290.509587
 51
298.4582930000001
  0
ARC
  5
BCAD
330
BA9A
100
AcDbEntity
  8
1
  6
Continuous
100
AcDbCircle
 10
805.3669909999996
 20
56.53388299999999
 30
0.0
 40
463.19295
100
AcDbArc
 50
179.134298
 51
180.865702
  0
ARC
  5
BCAE
330
BA9A
100
AcDbEntity
  8
1
  6
Continuous
100
AcDbCircle
 10
379.3541339999999
 20
62.616098
 30
0.0
 40
42.896514
100
AcDbArc
 50
188.7738529999998
 51
199.5860689999999
  0
ARC
  5
BCAF
330
BA9A
100
AcDbEntity
  8
1
  6
Continuous
100
AcDbCircle
 10
331.374037
 20
51.124106
 30
0.0
 40
10.96851199999999
100
AcDbArc
 50
299.051391
 51
351.6729149999999
  0
ARC
  5
BCB0
330
BA9A
100
AcDbEntity
  8
1
  6
Continuous
100
AcDbCircle
 10
334.2289609999999
 20
46.56010799999999
 30
0.0
 40
5.0
100
AcDbArc
 50
336.1150739999999
 51
19.58606899999999
  0
CIRCLE
  5
BCB1
330
BA9A
100
AcDbEntity
  8
1
  6
Continuous
100
AcDbCircle
 10
330.1143379999999
 20
45.782163
 30
0.0
 40
4.898978999999997
  0
ARC
  5
BCB2
330
BA9A
100
AcDbEntity
  8
1
  6
Continuous
100
AcDbCircle
 10
346.842572
 20
57.59823299999999
 30
0.0
 40
10.0
100
AcDbArc
 50
180.0
 51
188.7738529999998
  0
LINE
  5
BCB3
330
BA9A
100
AcDbEntity
  8
1
  6
Continuous
100
AcDbLine
 10
342.2269120000001
 20
63.53216299999999
 30
0.0
 11
336.842572
 21
63.53216299999999
 31
0.0
  0
LINE
  5
BCB4
330
BA9A
100
AcDbEntity
  8
1
  6
Continuous
100
AcDbLine
 10
336.842572
 20
65.53216299999999
 30
0.0
 11
332.3264809999999
 21
65.53216299999999
 31
0.0
  0
LINE
  5
BCB5
330
BA9A
100
AcDbEntity
  8
1
  6
Continuous
100
AcDbLine
 10
333.764338
 20
63.832163
 30
0.0
 11
333.764338
 21
65.53216299999999
 31
0.0
  0
LINE
  5
BCB6
330
BA9A
100
AcDbEntity
  8
1
  6
Continuous
100
AcDbLine
 10
333.576565
 20
67.532163
 30
0.0
 11
332.763639
 21
67.532163
 31
0.0
  0
ARC
  5
BCB7
330
BA9A
100
AcDbEntity
  8
1
  6
Continuous
100
AcDbCircle
 10
324.7906449999999
 20
76.03216299999998
 30
0.0
 40
12.92435
100
AcDbArc
 50
305.6669549999999
 51
338.827574
  0
ARC
  5
BCB8
330
BA9A
100
AcDbEntity
  8
1
  6
Continuous
100
AcDbCircle
 10
329.764338
 20
63.832163
 30
0.0
 40
4.0
100
AcDbArc
 50
288.1328459999998
 51
0.0
  0
LINE
  5
BCB9
330
BA9A
100
AcDbEntity
  8
1
  6
Continuous
100
AcDbLine
 10
334.536027
 20
69.63182299999998
 30
0.0
 11
334.536027
 21
82.43250299999997
 31
0.0
  0
ARC
  5
BCBA
330
BA9A
100
AcDbEntity
  8
1
  6
Continuous
100
AcDbCircle
 10
330.1143379999999
 20
103.6821629999999
 30
0.0
 40
9.5
100
AcDbArc
 50
23.88492599999998
 51
170.3930279999999
  0
LINE
  5
BCBB
330
BA9A
100
AcDbEntity
  8
1
  6
Continuous
100
AcDbLine
 10
321.6334049999999
 20
98.03112500000001
 30
0.0
 11
329.496664
 21
93.17030499999999
 31
0.0
  0
ARC
  5
BCBC
330
BA9A
100
AcDbEntity
  8
1
  6
Continuous
100
AcDbCircle
 10
312.6143379999998
 20
76.03216299999998
 30
0.0
 40
18.2
100
AcDbArc
 50
27.25077000000001
 51
142.814637
  0
LINE
  5
BCBD
330
BA9A
100
AcDbEntity
  8
1
  6
Continuous
100
AcDbLine
 10
311.4117289999999
 20
98.519223
 30
0.0
 11
282.949381
 21
101.580755
 31
0.0
  0
ARC
  5
BCBE
330
BA9A
100
AcDbEntity
  8
1
  6
Continuous
100
AcDbCircle
 10
278.1143379999999
 20
66.20513599999999
 30
0.0
 40
30.72702700000001
100
AcDbArc
 50
46.38522700000001
 51
90.0
  0
ARC
  5
BCBF
330
BA9A
100
AcDbEntity
  8
1
  6
Continuous
100
AcDbCircle
 10
291.3875669999999
 20
21.75194499999999
 30
0.0
 40
76.42337499999998
100
AcDbArc
 50
69.90619699999999
 51
99.178466
  0
ARC
  5
BCC0
330
BA9A
100
AcDbEntity
  8
1
  6
Continuous
100
AcDbCircle
 10
287.9866859999999
 20
-5.639041999999997
 30
0.0
 40
105.4609539999999
100
AcDbArc
 50
70.964623
 51
94.76458400000002
  0
ARC
  5
BCC1
330
BA9A
100
AcDbEntity
  8
1
  6
Continuous
100
AcDbCircle
 10
312.6143379999998
 20
76.03216299999998
 30
0.0
 40
20.5
100
AcDbArc
 50
137.1458419999999
 51
147.548509
  0
ARC
  5
BCC2
330
BA9A
100
AcDbEntity
  8
1
  6
Continuous
100
AcDbCircle
 10
281.879907
 20
91.638108
 30
0.0
 40
10.0
100
AcDbArc
 50
83.86062599999998
 51
98.23083800000004
  0
ARC
  5
BCC3
330
BA9A
100
AcDbEntity
  8
1
  6
Continuous
100
AcDbCircle
 10
290.136247
 20
34.560707
 30
0.0
 40
67.671456
100
AcDbArc
 50
98.23083800000004
 51
102.0627859999998
  0
ARC
  5
BCC4
330
BA9A
100
AcDbEntity
  8
1
  6
Continuous
100
AcDbCircle
 10
276.8833939999999
 20
111.5321629999999
 30
0.0
 40
12.3
100
AcDbArc
 50
270.0
 51
280.98366
  0
ARC
  5
BCC5
330
BA9A
100
AcDbEntity
  8
1
  6
Continuous
100
AcDbCircle
 10
276.911868
 20
106.9321629999999
 30
0.0
 40
10.0
100
AcDbArc
 50
270.0
 51
283.211092
  0
LINE
  5
BCC6
330
BA9A
100
AcDbEntity
  8
1
  6
Continuous
100
AcDbLine
 10
273.6143379999999
 20
101.532163
 30
0.0
 11
273.6143379999999
 21
106.5321629999999
 31
0.0
  0
LINE
  5
BCC7
330
BA9A
100
AcDbEntity
  8
1
  6
Continuous
100
AcDbLine
 10
275.1143379999999
 20
100.5559789999999
 30
0.0
 11
275.1143379999999
 21
101.532163
 31
0.0
  0
LINE
  5
BCC8
330
BA9A
100
AcDbEntity
  8
1
  6
Continuous
100
AcDbLine
 10
273.5893379999998
 20
95.832163
 30
0.0
 11
273.5893379999998
 21
95.93216299999999
 31
0.0
  0
LINE
  5
BCC9
330
BA9A
100
AcDbEntity
  8
1
  6
Continuous
100
AcDbLine
 10
283.6143379999999
 20
93.782163
 30
0.0
 11
283.6143379999999
 21
95.832163
 31
0.0
  0
ARC
  5
BCCA
330
BA9A
100
AcDbEntity
  8
1
  6
Continuous
100
AcDbCircle
 10
274.3782700000001
 20
98.932163
 30
0.0
 40
3.0
100
AcDbArc
 50
270.0
 51
318.189685
  0
ARC
  5
BCCB
330
BA9A
100
AcDbEntity
  8
1
  6
Continuous
100
AcDbCircle
 10
285.285911
 20
90.78216299999999
 30
0.0
 40
3.0
100
AcDbArc
 50
19.47122099999998
 51
90.0
  0
ARC
  5
BCCC
330
BA9A
100
AcDbEntity
  8
1
  6
Continuous
100
AcDbCircle
 10
269.3718029999998
 20
65.230941
 30
0.0
 40
32.5
100
AcDbArc
 50
42.12936699999999
 51
54.78169300000001
  0
ARC
  5
BCCD
330
BA9A
100
AcDbEntity
  8
1
  6
Continuous
100
AcDbCircle
 10
365.266838
 20
97.73216300000001
 30
0.0
 40
45.1525
100
AcDbArc
 50
170.3930279999999
 51
176.1221439999999
  0
ARC
  5
BCCE
330
BA9A
100
AcDbEntity
  8
1
  6
Continuous
100
AcDbCircle
 10
323.210847
 20
100.582924
 30
0.0
 40
3.0
100
AcDbArc
 50
176.1221439999999
 51
238.276945
  0
ARC
  5
BCCF
330
BA9A
100
AcDbEntity
  8
1
  6
Continuous
100
AcDbCircle
 10
310.3422549999999
 20
88.57657600000001
 30
0.0
 40
10.0
100
AcDbArc
 50
69.49041300000001
 51
83.86062599999998
  0
ARC
  5
BCD0
330
BA9A
100
AcDbEntity
  8
1
  6
Continuous
100
AcDbCircle
 10
290.136247
 20
34.560707
 30
0.0
 40
67.671456
100
AcDbArc
 50
61.54170699999998
 51
69.49041300000001
  0
LINE
  5
BCD1
330
BA9A
100
AcDbEntity
  8
1
  6
Continuous
100
AcDbLine
 10
342.2269120000001
 20
88.53216299999997
 30
0.0
 11
336.842572
 21
88.53216299999997
 31
0.0
  0
ARC
  5
BCD2
330
BA9A
100
AcDbEntity
  8
1
  6
Continuous
100
AcDbCircle
 10
331.374037
 20
100.940219
 30
0.0
 40
10.96851199999999
100
AcDbArc
 50
8.327085
 51
60.948609
  0
ARC
  5
BCD3
330
BA9A
100
AcDbEntity
  8
1
  6
Continuous
100
AcDbCircle
 10
805.3669909999996
 20
95.53044300000001
 30
0.0
 40
463.19295
100
AcDbArc
 50
179.134298
 51
180.865702
  0
ARC
  5
BCD4
330
BA9A
100
AcDbEntity
  8
1
  6
Continuous
100
AcDbCircle
 10
334.2289609999999
 20
105.504218
 30
0.0
 40
5.0
100
AcDbArc
 50
340.413931
 51
23.88492599999998
  0
ARC
  5
BCD5
330
BA9A
100
AcDbEntity
  8
1
  6
Continuous
100
AcDbCircle
 10
379.3541339999999
 20
89.448228
 30
0.0
 40
42.896514
100
AcDbArc
 50
160.4139309999999
 51
171.226147
  0
ARC
  5
BCD6
330
BA9A
100
AcDbEntity
  8
1
  6
Continuous
100
AcDbCircle
 10
346.842572
 20
94.466093
 30
0.0
 40
10.0
100
AcDbArc
 50
171.226147
 51
180.0
  0
LINE
  5
BCD7
330
BA9A
100
AcDbEntity
  8
1
  6
Continuous
100
AcDbLine
 10
336.842572
 20
86.53216299999998
 30
0.0
 11
332.3264809999999
 21
86.53216299999998
 31
0.0
  0
ARC
  5
BCD8
330
BA9A
100
AcDbEntity
  8
1
  6
Continuous
100
AcDbCircle
 10
324.7643379999999
 20
85.51490900000002
 30
0.0
 40
9.0
100
AcDbArc
 50
6.48991
 51
58.27694499999999
  0
LINE
  5
BCD9
330
BA9A
100
AcDbEntity
  8
1
  6
Continuous
100
AcDbLine
 10
333.576565
 20
84.53216299999999
 30
0.0
 11
332.763639
 21
84.53216299999999
 31
0.0
  0
CIRCLE
  5
BCDA
330
BA9A
100
AcDbEntity
  8
1
  6
Continuous
100
AcDbCircle
 10
330.1143379999999
 20
106.2821629999999
 30
0.0
 40
4.898978999999997
  0
LINE
  5
BCDB
330
BA9A
100
AcDbEntity
  8
1
  6
Continuous
100
AcDbLine
 10
51.50595899999999
 20
281.747775
 30
0.0
 11
34.85595899999999
 21
281.747775
 31
0.0
  0
ARC
  5
BCDC
330
BA9A
100
AcDbEntity
  8
5
  6
PHANTOM
100
AcDbCircle
 10
39.62133
 20
280.716746
 30
0.0
 40
7.0
100
AcDbArc
 50
236.5846910000001
 51
325.4153089999999
  0
LINE
  5
BCDD
330
BA9A
100
AcDbEntity
  8
1
  6
Continuous
100
AcDbLine
 10
50.4421
 20
283.347775
 30
0.0
 11
34.85595899999999
 21
283.347775
 31
0.0
  0
ARC
  5
BCDE
330
BA9A
100
AcDbEntity
  8
1
  6
Continuous
100
AcDbCircle
 10
41.755959
 20
286.7477749999998
 30
0.0
 40
7.0
100
AcDbArc
 50
225.584691
 51
314.4153089999999
  0
LINE
  5
BCDF
330
BA9A
100
AcDbEntity
  8
5
  6
PHANTOM
100
AcDbLine
 10
48.796633
 20
279.036608
 30
0.0
 11
33.496853
 21
276.062632
 31
0.0
  0
LINE
  5
BCE0
330
BA9A
100
AcDbEntity
  8
5
  6
PHANTOM
100
AcDbLine
 10
50.224203
 20
277.684153
 30
0.0
 11
33.80214799999999
 21
274.492028
 31
0.0
  0
LINE
  5
BCE1
330
BA9A
100
AcDbEntity
  8
1
  6
Continuous
100
AcDbLine
 10
34.85595899999999
 20
283.347775
 30
0.0
 11
34.85595899999999
 21
281.747775
 31
0.0
  0
ARC
  5
BCE2
330
BA9A
100
AcDbEntity
  8
1
  6
Continuous
100
AcDbCircle
 10
36.25728499999999
 20
269.247775
 30
0.0
 40
12.5
100
AcDbArc
 50
11.49999999999998
 51
57.93454800000001
  0
ARC
  5
BCE3
330
BA9A
100
AcDbEntity
  8
1
  6
Continuous
100
AcDbCircle
 10
37.890064
 20
269.247775
 30
0.0
 40
12.5
100
AcDbArc
 50
11.49999999999998
 51
60.53191600000001
  0
ARC
  5
BCE4
330
BA9A
100
AcDbEntity
  8
5
  6
PHANTOM
100
AcDbCircle
 10
39.16561999999999
 20
262.8006229999999
 30
0.0
 40
12.5
100
AcDbArc
 50
22.5
 51
71.53191600000003
  0
ARC
  5
BCE5
330
BA9A
100
AcDbEntity
  8
5
  6
PHANTOM
100
AcDbCircle
 10
37.56284
 20
262.489074
 30
0.0
 40
12.5
100
AcDbArc
 50
22.5
 51
68.93454799999999
  0
LINE
  5
BCE6
330
BA9A
100
AcDbEntity
  8
5
  6
PHANTOM
100
AcDbLine
 10
106.7370469999999
 20
288.6691369999999
 30
0.0
 11
106.431753
 21
290.2397399999999
 31
0.0
  0
LINE
  5
BCE7
330
BA9A
100
AcDbEntity
  8
5
  6
PHANTOM
100
AcDbLine
 10
106.7370469999999
 20
288.6691369999999
 30
0.0
 11
92.50595899999996
 21
285.9028939999999
 31
0.0
  0
LINE
  5
BCE8
330
BA9A
100
AcDbEntity
  8
5
  6
PHANTOM
100
AcDbLine
 10
106.431753
 20
290.2397399999999
 30
0.0
 11
92.50595899999996
 21
287.5328399999999
 31
0.0
  0
ARC
  5
BCE9
330
BA9A
100
AcDbEntity
  8
5
  6
PHANTOM
100
AcDbCircle
 10
99.00977500000001
 20
292.260691
 30
0.0
 40
7.0
100
AcDbArc
 50
236.5846910000001
 51
325.4153089999999
  0
LINE
  5
BCEA
330
BA9A
100
AcDbEntity
  8
1
  6
Continuous
100
AcDbLine
 10
109.155959
 20
281.747775
 30
0.0
 11
109.155959
 21
283.347775
 31
0.0
  0
ARC
  5
BCEB
330
BA9A
100
AcDbEntity
  8
1
  6
Continuous
100
AcDbCircle
 10
107.754633
 20
269.247775
 30
0.0
 40
12.5
100
AcDbArc
 50
122.0654519999999
 51
168.5
  0
ARC
  5
BCEC
330
BA9A
100
AcDbEntity
  8
1
  6
Continuous
100
AcDbCircle
 10
106.121854
 20
269.247775
 30
0.0
 40
12.5
100
AcDbArc
 50
119.4680839999999
 51
168.5
  0
LINE
  5
BCED
330
BA9A
100
AcDbEntity
  8
1
  6
Continuous
100
AcDbLine
 10
109.155959
 20
281.747775
 30
0.0
 11
92.50595899999996
 21
281.747775
 31
0.0
  0
ARC
  5
BCEE
330
BA9A
100
AcDbEntity
  8
1
  6
Continuous
100
AcDbCircle
 10
102.2559589999999
 20
286.7477749999998
 30
0.0
 40
7.0
100
AcDbArc
 50
225.584691
 51
314.4153089999999
  0
LINE
  5
BCEF
330
BA9A
100
AcDbEntity
  8
1
  6
Continuous
100
AcDbLine
 10
109.155959
 20
283.347775
 30
0.0
 11
93.569817
 21
283.347775
 31
0.0
  0
ARC
  5
BCF0
330
BA9A
100
AcDbEntity
  8
5
  6
PHANTOM
100
AcDbCircle
 10
107.7465799999999
 20
276.131411
 30
0.0
 40
12.5
100
AcDbArc
 50
133.0654519999999
 51
179.4999999999998
  0
LINE
  5
BCF1
330
BA9A
100
AcDbEntity
  8
5
  6
PHANTOM
100
AcDbLine
 10
95.09350500000001
 20
258.645346
 30
0.0
 11
95.247056
 21
276.240494
 31
0.0
  0
LINE
  5
BCF2
330
BA9A
100
AcDbEntity
  8
5
  6
PHANTOM
100
AcDbLine
 10
93.56793600000001
 20
267.181323
 30
0.0
 11
93.64427499999999
 21
275.928945
 31
0.0
  0
ARC
  5
BCF3
330
BA9A
100
AcDbEntity
  8
5
  6
PHANTOM
100
AcDbCircle
 10
106.1438
 20
275.8198619999999
 30
0.0
 40
12.5
100
AcDbArc
 50
130.468084
 51
179.4999999999998
  0
LINE
  5
BCF4
330
BA9A
100
AcDbEntity
  8
1
  6
Continuous
100
AcDbLine
 10
94.05744199999999
 20
264.6220779999998
 30
0.0
 11
95.505574
 21
271.739875
 31
0.0
  0
LINE
  5
BCF5
330
BA9A
100
AcDbEntity
  8
1
  6
Continuous
100
AcDbLine
 10
88.32585599999999
 20
244.475796
 30
0.0
 11
90.45352800000001
 21
254.933638
 31
0.0
  0
LINE
  5
BCF6
330
BA9A
100
AcDbEntity
  8
1
  6
Continuous
100
AcDbLine
 10
89.62010999999998
 20
242.8118949999999
 30
0.0
 11
91.305557
 21
251.096133
 31
0.0
  0
ARC
  5
BCF7
330
BA9A
100
AcDbEntity
  8
5
  6
PHANTOM
100
AcDbCircle
 10
83.31439600000001
 20
238.1721119999999
 30
0.0
 40
10.0
100
AcDbArc
 50
328.1200269999998
 51
343.5264899999999
  0
ARC
  5
BCF8
330
BA9A
100
AcDbEntity
  8
5
  6
PHANTOM
100
AcDbCircle
 10
47.84258799999999
 20
283.944744
 30
0.0
 40
5.0
100
AcDbArc
 50
281.0
 51
317.111059
  0
ARC
  5
BCF9
330
BA9A
100
AcDbEntity
  8
5
  6
PHANTOM
100
AcDbCircle
 10
49.270158
 20
282.592289
 30
0.0
 40
5.0
100
AcDbArc
 50
281.0
 51
296.561635
  0
ARC
  5
BCFA
330
BA9A
100
AcDbEntity
  8
1
  6
Continuous
100
AcDbCircle
 10
50.4421
 20
288.347775
 30
0.0
 40
5.0
100
AcDbArc
 50
270.0
 51
282.284836
  0
LINE
  5
BCFB
330
BA9A
100
AcDbEntity
  8
5
  6
PHANTOM
100
AcDbLine
 10
50.033644
 20
265.045964
 30
0.0
 11
49.111334
 21
267.272618
 31
0.0
  0
LINE
  5
BCFC
330
BA9A
100
AcDbEntity
  8
1
  6
Continuous
100
AcDbLine
 10
49.95447699999999
 20
264.6220769999998
 30
0.0
 11
48.506344
 21
271.739875
 31
0.0
  0
LINE
  5
BCFD
330
BA9A
100
AcDbEntity
  8
1
  6
Continuous
100
AcDbLine
 10
50.745393
 20
268.759959
 30
0.0
 11
50.139122
 21
271.739875
 31
0.0
  0
LINE
  5
BCFE
330
BA9A
100
AcDbEntity
  8
5
  6
PHANTOM
100
AcDbLine
 10
58.84308199999999
 20
247.9591
 30
0.0
 11
54.502889
 21
258.437252
 31
0.0
  0
LINE
  5
BCFF
330
BA9A
100
AcDbEntity
  8
5
  6
PHANTOM
100
AcDbLine
 10
57.671275
 20
246.60709
 30
0.0
 11
53.810198
 21
255.9285549999999
 31
0.0
  0
LINE
  5
BD00
330
BA9A
100
AcDbEntity
  8
1
  6
Continuous
100
AcDbLine
 10
55.686062
 20
244.475795
 30
0.0
 11
53.558391
 21
254.933633
 31
0.0
  0
LINE
  5
BD01
330
BA9A
100
AcDbEntity
  8
1
  6
Continuous
100
AcDbLine
 10
54.39180799999999
 20
242.811894
 30
0.0
 11
52.706361
 21
251.096129
 31
0.0
  0
LINE
  5
BD02
330
BA9A
100
AcDbEntity
  8
5
  6
PHANTOM
100
AcDbLine
 10
33.80214799999999
 20
274.492028
 30
0.0
 11
33.496853
 21
276.062632
 31
0.0
  0
ARC
  5
BD03
330
BA9A
100
AcDbEntity
  8
1
  6
Continuous
100
AcDbCircle
 10
267.6143379999999
 20
224.2477749999999
 30
0.0
 40
25.860509
100
AcDbArc
 50
57.955344
 51
6.044658
  0
ARC
  5
BD04
330
BA9A
100
AcDbEntity
  8
1
  6
Continuous
100
AcDbCircle
 10
267.6143379999999
 20
224.2477749999999
 30
0.0
 40
45.0
100
AcDbArc
 50
51.324581
 51
16.50660199999999
  0
ARC
  5
BD05
330
BA9A
100
AcDbEntity
  8
1
  6
Continuous
100
AcDbCircle
 10
267.6143379999999
 20
224.2477749999999
 30
0.0
 40
48.75
100
AcDbArc
 50
52.673354
 51
17.612545
  0
ARC
  5
BD06
330
BA9A
100
AcDbEntity
  8
1
  6
Continuous
100
AcDbCircle
 10
267.6143379999999
 20
224.2477749999999
 30
0.0
 40
65.0
100
AcDbArc
 50
62.01562400000001
 51
3.383312
  0
LINE
  5
BD07
330
BA9A
100
AcDbEntity
  8
4
  6
CENTER
100
AcDbLine
 10
267.6143379999999
 20
151.0885159999999
 30
0.0
 11
267.6143379999999
 21
295.2477749999999
 31
0.0
  0
LINE
  5
BD0A
330
BA9A
100
AcDbEntity
  8
4
  6
CENTER
100
AcDbLine
 10
337.6143379999998
 20
224.2477749999999
 30
0.0
 11
197.6143379999999
 21
224.2477749999999
 31
0.0
  0
ARC
  5
BD0B
330
BA9A
100
AcDbEntity
  8
1
  6
Continuous
100
AcDbCircle
 10
271.8269869999999
 20
218.002267
 30
0.0
 40
18.033445
100
AcDbArc
 50
72.75188199999998
 51
93.470609
  0
LINE
  5
BD0C
330
BA9A
100
AcDbEntity
  8
1
  6
Continuous
100
AcDbLine
 10
272.8643379999999
 20
215.1545089999999
 30
0.0
 11
312.6143379999998
 21
238.1041819999999
 31
0.0
  0
LINE
  5
BD0D
330
BA9A
100
AcDbEntity
  8
1
  6
Continuous
100
AcDbLine
 10
273.6143379999999
 20
227.7118769999999
 30
0.0
 11
267.6143379999999
 21
231.175978
 31
0.0
  0
LINE
  5
BD0E
330
BA9A
100
AcDbEntity
  8
1
  6
Continuous
100
AcDbLine
 10
261.7428129999999
 20
232.95267
 30
0.0
 11
288.1961779999999
 21
250.7956899999999
 31
0.0
  0
LINE
  5
BD0F
330
BA9A
100
AcDbEntity
  8
1
  6
Continuous
100
AcDbLine
 10
267.6143379999999
 20
217.3195719999999
 30
0.0
 11
273.6143379999999
 21
220.7836739999999
 31
0.0
  0
CIRCLE
  5
BD10
330
BA9A
100
AcDbEntity
  8
1
  6
Continuous
100
AcDbCircle
 10
267.6143379999999
 20
224.2477749999999
 30
0.0
 40
7.5
  0
CIRCLE
  5
BD11
330
BA9A
100
AcDbEntity
  8
1
  6
Continuous
100
AcDbCircle
 10
267.6143379999999
 20
224.2477749999999
 30
0.0
 40
8.0
  0
ARC
  5
BD12
330
BA9A
100
AcDbEntity
  8
1
  6
Continuous
100
AcDbCircle
 10
267.6143379999999
 20
224.2477749999999
 30
0.0
 40
10.5
100
AcDbArc
 50
335.9505679999998
 51
88.04943199999998
  0
ARC
  5
BD13
330
BA9A
100
AcDbEntity
  8
1
  6
Continuous
100
AcDbCircle
 10
267.6143379999999
 20
224.2477749999999
 30
0.0
 40
16.0
100
AcDbArc
 50
75.0145
 51
348.9854999999999
  0
ARC
  5
BD14
330
BA9A
100
AcDbEntity
  8
1
  6
Continuous
100
AcDbCircle
 10
267.6143379999999
 20
224.2477749999999
 30
0.0
 40
20.5
100
AcDbArc
 50
64.81015699999999
 51
359.189843
  0
ARC
  5
BD16
330
BA9A
100
AcDbEntity
  8
1
  6
Continuous
100
AcDbCircle
 10
267.6143379999999
 20
224.2477749999999
 30
0.0
 40
10.5
100
AcDbArc
 50
124.0
 51
300.0
  0
LINE
  5
BD18
330
BA9A
100
AcDbEntity
  8
1
  6
Continuous
100
AcDbLine
 10
261.614338
 20
227.7118769999999
 30
0.0
 11
267.6143379999999
 21
231.175978
 31
0.0
  0
LINE
  5
BD19
330
BA9A
100
AcDbEntity
  8
1
  6
Continuous
100
AcDbLine
 10
261.614338
 20
227.7118769999999
 30
0.0
 11
261.614338
 21
220.7836739999999
 31
0.0
  0
LINE
  5
BD1A
330
BA9A
100
AcDbEntity
  8
1
  6
Continuous
100
AcDbLine
 10
267.6143379999999
 20
217.3195719999999
 30
0.0
 11
261.614338
 21
220.7836739999999
 31
0.0
  0
CIRCLE
  5
BD1B
330
BA9A
100
AcDbEntity
  8
1
  6
Continuous
100
AcDbCircle
 10
267.6143379999999
 20
224.2477749999999
 30
0.0
 40
4.0
  0
LINE
  5
BD1C
330
BA9A
100
AcDbEntity
  8
1
  6
Continuous
100
AcDbLine
 10
340.1081149999999
 20
265.350721
 30
0.0
 11
342.2220249999999
 21
228.363833
 31
0.0
  0
ARC
  5
BD1D
330
BA9A
100
AcDbEntity
  8
1
  6
Continuous
100
AcDbCircle
 10
306.3662069999999
 20
267.519914
 30
0.0
 40
27.7
100
AcDbArc
 50
348.2537049999999
 51
0.0
  0
ARC
  5
BD1E
330
BA9A
100
AcDbEntity
  8
1
  6
Continuous
100
AcDbCircle
 10
275.6143379999999
 20
269.4490359999999
 30
0.0
 40
22.5
100
AcDbArc
 50
304.0
 51
0.0
  0
ARC
  5
BD1F
330
BA9A
100
AcDbEntity
  8
1
  6
Continuous
100
AcDbCircle
 10
295.1143379999999
 20
268.415071
 30
0.0
 40
35.0
100
AcDbArc
 50
300.0
 51
1.917050999999998
  0
LINE
  5
BD20
330
BA9A
100
AcDbEntity
  8
1
  6
Continuous
100
AcDbLine
 10
334.557076
 20
265.0368919999999
 30
0.0
 11
336.842572
 21
225.0477749999999
 31
0.0
  0
ARC
  5
BD21
330
BA9A
100
AcDbEntity
  8
1
  6
Continuous
100
AcDbCircle
 10
275.246771
 20
229.0170489999999
 30
0.0
 40
6.5
100
AcDbArc
 50
351.2481179999999
 51
72.75188199999998
  0
LINE
  5
BD23
330
BA9A
100
AcDbEntity
  8
1
  6
Continuous
100
AcDbLine
 10
273.6143379999999
 20
227.7118769999999
 30
0.0
 11
273.6143379999999
 21
220.7836739999999
 31
0.0
  0
ARC
  5
BD24
330
BA9A
100
AcDbEntity
  8
1
  6
Continuous
100
AcDbCircle
 10
263.847616
 20
230.7719299999999
 30
0.0
 40
18.033445
100
AcDbArc
 50
330.5293909999999
 51
351.2481179999999
  0
ARC
  5
BD25
330
BA9A
100
AcDbEntity
  8
1
  6
Continuous
100
AcDbCircle
 10
267.6143379999999
 20
224.2477749999999
 30
0.0
 40
65.0
100
AcDbArc
 50
4.975423999999999
 51
25.631885
  0
ARC
  5
BD26
330
BA9A
100
AcDbEntity
  8
1
  6
Continuous
100
AcDbCircle
 10
339.226912
 20
228.192654
 30
0.0
 40
3.0
100
AcDbArc
 50
273.198911
 51
3.271063999999998
  0
LINE
  5
BD27
330
BA9A
100
AcDbEntity
  8
1
  6
Continuous
100
AcDbLine
 10
336.842572
 20
225.0547119999999
 30
0.0
 11
339.3943199999998
 21
225.1973279999999
 31
0.0
  0
LINE
  5
BD28
330
BA9A
100
AcDbEntity
  8
1
  6
Continuous
100
AcDbLine
 10
336.764119
 20
226.4204589999999
 30
0.0
 11
333.7328049999999
 21
227.1735069999998
 31
0.0
  0
LINE
  5
BD29
330
BA9A
100
AcDbEntity
  8
1
  6
Continuous
100
AcDbLine
 10
336.728276
 20
227.0475999999999
 30
0.0
 11
333.8774619999999
 21
227.7558079999999
 31
0.0
  0
ARC
  5
BD2A
330
BA9A
100
AcDbEntity
  8
1
  6
Continuous
100
AcDbCircle
 10
336.099099
 20
228.749495
 30
0.0
 40
1.5
100
AcDbArc
 50
72.537172
 51
256.0488159999998
  0
LINE
  5
BD2B
330
BA9A
100
AcDbEntity
  8
1
  6
Continuous
100
AcDbLine
 10
333.7246299999998
 20
230.425824
 30
0.0
 11
336.4763889999999
 21
231.454843
 31
0.0
  0
LINE
  5
BD2C
330
BA9A
100
AcDbEntity
  8
1
  6
Continuous
100
AcDbLine
 10
333.514474
 20
230.9878149999999
 30
0.0
 11
336.440544
 21
232.0820169999998
 31
0.0
  0
ARC
  5
BD2D
330
BA9A
100
AcDbEntity
  8
1
  6
Continuous
100
AcDbCircle
 10
334.214995
 20
229.11451
 30
0.0
 40
2.0
100
AcDbArc
 50
110.503255
 51
256.0488159999998
  0
ARC
  5
BD2E
330
BA9A
100
AcDbEntity
  8
1
  6
Continuous
100
AcDbCircle
 10
334.214995
 20
229.11451
 30
0.0
 40
1.399999999999999
100
AcDbArc
 50
110.503255
 51
256.0488159999998
  0
LINE
  5
BD30
330
BA9A
100
AcDbEntity
  8
1
  6
Continuous
100
AcDbLine
 10
336.842572
 20
225.0547119999999
 30
0.0
 11
336.842572
 21
225.0477749999999
 31
0.0
  0
LINE
  5
BD31
330
BA9A
100
AcDbEntity
  8
1
  6
Continuous
100
AcDbLine
 10
336.842572
 20
225.0547119999999
 30
0.0
 11
336.842572
 21
225.0477749999999
 31
0.0
  0
ARC
  5
BD32
330
BA9A
100
AcDbEntity
  8
1
  6
Continuous
100
AcDbCircle
 10
305.866207
 20
267.519914
 30
0.0
 40
30.0
100
AcDbArc
 50
342.874225
 51
345.091144
  0
LINE
  5
BD33
330
BA9A
100
AcDbEntity
  8
1
  6
Continuous
100
AcDbLine
 10
332.763639
 20
259.054344
 30
0.0
 11
334.536027
 21
258.685806
 31
0.0
  0
ARC
  5
BD34
330
BA9A
100
AcDbEntity
  8
1
  6
Continuous
100
AcDbCircle
 10
304.0938189999998
 20
267.8884519999999
 30
0.0
 40
30.0
100
AcDbArc
 50
342.874225
 51
348.448109
  0
LINE
  5
BD35
330
BA9A
100
AcDbEntity
  8
1
  6
Continuous
100
AcDbLine
 10
320.1143379999999
 20
281.747775
 30
0.0
 11
338.1081149999999
 21
281.747775
 31
0.0
  0
LINE
  5
BD36
330
BA9A
100
AcDbEntity
  8
1
  6
Continuous
100
AcDbLine
 10
320.1143379999999
 20
283.347775
 30
0.0
 11
337.0147919999999
 21
283.347775
 31
0.0
  0
LINE
  5
BD37
330
BA9A
100
AcDbEntity
  8
1
  6
Continuous
100
AcDbLine
 10
331.764338
 20
302.247775
 30
0.0
 11
293.464338
 21
302.247775
 31
0.0
  0
LINE
  5
BD38
330
BA9A
100
AcDbEntity
  8
1
  6
Continuous
100
AcDbLine
 10
320.1143379999999
 20
283.347775
 30
0.0
 11
326.7835289999998
 21
283.347775
 31
0.0
  0
LINE
  5
BD39
330
BA9A
100
AcDbEntity
  8
1
  6
Continuous
100
AcDbLine
 10
292.1143379999999
 20
297.6977749999999
 30
0.0
 11
292.1143379999999
 21
288.4477749999998
 31
0.0
  0
ARC
  5
BD3A
330
BA9A
100
AcDbEntity
  8
1
  6
Continuous
100
AcDbCircle
 10
296.1143379999999
 20
286.4477749999998
 30
0.0
 40
2.0
100
AcDbArc
 50
0.0
 51
90.0
  0
LINE
  5
BD3B
330
BA9A
100
AcDbEntity
  8
1
  6
Continuous
100
AcDbLine
 10
296.1143379999999
 20
288.4477749999998
 30
0.0
 11
292.1143379999999
 21
288.4477749999998
 31
0.0
  0
LINE
  5
BD3C
330
BA9A
100
AcDbEntity
  8
1
  6
Continuous
100
AcDbLine
 10
298.1143379999998
 20
286.4477749999998
 30
0.0
 11
298.1143379999998
 21
269.4490359999999
 31
0.0
  0
LINE
  5
BD3D
330
BA9A
100
AcDbEntity
  8
1
  6
Continuous
100
AcDbLine
 10
320.1143379999999
 20
283.347775
 30
0.0
 11
320.1143379999999
 21
281.747775
 31
0.0
  0
ARC
  5
BD3E
330
BA9A
100
AcDbEntity
  8
1
  6
Continuous
100
AcDbCircle
 10
299.964338
 20
311.7477749999999
 30
0.0
 40
6.5
100
AcDbArc
 50
90.0
 51
180.0
  0
ARC
  5
BD3F
330
BA9A
100
AcDbEntity
  8
1
  6
Continuous
100
AcDbCircle
 10
296.8643379999999
 20
297.6977749999999
 30
0.0
 40
4.75
100
AcDbArc
 50
106.6855899999999
 51
180.0
  0
LINE
  5
BD40
330
BA9A
100
AcDbEntity
  8
1
  6
Continuous
100
AcDbLine
 10
293.464338
 20
311.7477749999999
 30
0.0
 11
293.464338
 21
302.247775
 31
0.0
  0
LINE
  5
BD41
330
BA9A
100
AcDbEntity
  8
1
  6
Continuous
100
AcDbLine
 10
340.1081149999999
 20
295.3477759999998
 30
0.0
 11
340.1081149999999
 21
265.350721
 31
0.0
  0
LINE
  5
BD42
330
BA9A
100
AcDbEntity
  8
1
  6
Continuous
100
AcDbLine
 10
333.1143379999998
 20
297.6977749999999
 30
0.0
 11
333.1143379999998
 21
289.697834
 31
0.0
  0
ARC
  5
BD43
330
BA9A
100
AcDbEntity
  8
1
  6
Continuous
100
AcDbCircle
 10
315.786329
 20
296.178154
 30
0.0
 40
18.50011999999999
100
AcDbArc
 50
324.547848
 51
6.734927
  0
LINE
  5
BD44
330
BA9A
100
AcDbEntity
  8
4
  6
CENTER
100
AcDbLine
 10
359.165721
 20
272.647775
 30
0.0
 11
325.064679
 21
272.647775
 31
0.0
  0
ARC
  5
BD45
330
BA9A
100
AcDbEntity
  8
1
  6
Continuous
100
AcDbCircle
 10
336.395389
 20
279.9807399999999
 30
0.0
 40
3.719983
100
AcDbArc
 50
356.420663
 51
30.64942100000001
  0
ARC
  5
BD46
330
BA9A
100
AcDbEntity
  8
1
  6
Continuous
100
AcDbCircle
 10
337.0147919999999
 20
280.347775
 30
0.0
 40
3.0
100
AcDbArc
 50
30.64942100000001
 51
90.0
  0
ARC
  5
BD47
330
BA9A
100
AcDbEntity
  8
1
  6
Continuous
100
AcDbCircle
 10
338.1081149999999
 20
279.747775
 30
0.0
 40
2.0
100
AcDbArc
 50
0.020731
 51
90.0
  0
ARC
  5
BD48
330
BA9A
100
AcDbEntity
  8
1
  6
Continuous
100
AcDbCircle
 10
369.5432379999999
 20
265.594847
 30
0.0
 40
35.030068
100
AcDbArc
 50
155.129837
 51
177.776079
  0
ARC
  5
BD49
330
BA9A
100
AcDbEntity
  8
1
  6
Continuous
100
AcDbCircle
 10
331.1572249999999
 20
276.9491529999999
 30
0.0
 40
5.0
100
AcDbArc
 50
343.522163
 51
13.443612
  0
ARC
  5
BD4A
330
BA9A
100
AcDbEntity
  8
1
  6
Continuous
100
AcDbCircle
 10
284.3357629999998
 20
265.757039
 30
0.0
 40
53.140552
100
AcDbArc
 50
13.443612
 51
17.512508
  0
ARC
  5
BD4B
330
BA9A
100
AcDbEntity
  8
1
  6
Continuous
100
AcDbCircle
 10
331.4613539999998
 20
277.464514
 30
0.0
 40
1.0
100
AcDbArc
 50
73.770303
 51
172.7238059999999
  0
ARC
  5
BD4C
330
BA9A
100
AcDbEntity
  8
1
  6
Continuous
100
AcDbCircle
 10
380.0667639999998
 20
271.2585429999999
 30
0.0
 40
50.0
100
AcDbArc
 50
172.7238059999999
 51
181.917051
  0
LINE
  5
BD4D
330
BA9A
100
AcDbEntity
  8
1
  6
Continuous
100
AcDbLine
 10
333.3456959999999
 20
277.957508
 30
0.0
 11
331.7408429999999
 21
278.424663
 31
0.0
  0
ARC
  5
BD4E
330
BA9A
100
AcDbEntity
  8
1
  6
Continuous
100
AcDbCircle
 10
333.0662069999998
 20
276.9973589999998
 30
0.0
 40
1.0
100
AcDbArc
 50
0.0
 51
73.770303
  0
LINE
  5
BD4F
330
BA9A
100
AcDbEntity
  8
1
  6
Continuous
100
AcDbLine
 10
334.0662069999999
 20
267.519914
 30
0.0
 11
334.0662069999999
 21
276.9973589999998
 31
0.0
  0
ARC
  5
BD50
330
BA9A
100
AcDbEntity
  8
1
  6
Continuous
100
AcDbCircle
 10
342.3370409999999
 20
272.647775
 30
0.0
 40
11.770833
100
AcDbArc
 50
151.083369
 51
209.2417479999999
  0
LINE
  5
BD51
330
BA9A
100
AcDbEntity
  8
1
  6
Continuous
100
AcDbLine
 10
332.0662069999999
 20
266.897775
 30
0.0
 11
332.0662069999999
 21
278.3299529999998
 31
0.0
  0
LINE
  5
BD52
330
BA9A
100
AcDbEntity
  8
1
  6
Continuous
100
AcDbLine
 10
332.0662069999999
 20
266.897775
 30
0.0
 11
334.0637069999999
 21
266.897775
 31
0.0
  0
ARC
  5
BD53
330
BA9A
100
AcDbEntity
  8
1
  6
Continuous
100
AcDbCircle
 10
336.854486
 20
280.7477749999998
 30
0.0
 40
1.0
100
AcDbArc
 50
335.129837
 51
90.0
  0
ARC
  5
BD54
330
BA9A
100
AcDbEntity
  8
1
  6
Continuous
100
AcDbCircle
 10
354.524491
 20
266.178089
 30
0.0
 40
20.0
100
AcDbArc
 50
177.776079
 51
183.271064
  0
ARC
  5
BD55
330
BA9A
100
AcDbEntity
  8
1
  6
Continuous
100
AcDbCircle
 10
330.1143379999999
 20
286.7477749999998
 30
0.0
 40
7.0
100
AcDbArc
 50
225.584691
 51
314.4153089999999
  0
ARC
  5
BD56
330
BA9A
100
AcDbEntity
  8
1
  6
Continuous
100
AcDbCircle
 10
326.7835289999998
 20
288.347775
 30
0.0
 40
5.0
100
AcDbArc
 50
270.0
 51
324.547848
  0
ARC
  5
BD57
330
BA9A
100
AcDbEntity
  8
1
  6
Continuous
100
AcDbCircle
 10
337.108115
 20
295.3477759999998
 30
0.0
 40
3.0
100
AcDbArc
 50
0.0
 51
90.0
  0
LINE
  5
BD58
330
BA9A
100
AcDbEntity
  8
1
  6
Continuous
100
AcDbLine
 10
334.1587859999999
 20
298.3477759999999
 30
0.0
 11
337.108115
 21
298.3477759999999
 31
0.0
  0
ARC
  5
BD59
330
BA9A
100
AcDbEntity
  8
1
  6
Continuous
100
AcDbCircle
 10
325.264338
 20
311.7477749999999
 30
0.0
 40
6.5
100
AcDbArc
 50
0.0
 51
90.0
  0
ARC
  5
BD5A
330
BA9A
100
AcDbEntity
  8
1
  6
Continuous
100
AcDbCircle
 10
328.364338
 20
297.6977749999999
 30
0.0
 40
4.75
100
AcDbArc
 50
0.0
 51
73.31440999999998
  0
LINE
  5
BD5B
330
BA9A
100
AcDbEntity
  8
1
  6
Continuous
100
AcDbLine
 10
331.764338
 20
311.7477749999999
 30
0.0
 11
331.764338
 21
302.247775
 31
0.0
  0
LINE
  5
BD5C
330
BA9A
100
AcDbEntity
  8
4
  6
CENTER
100
AcDbLine
 10
492.465109
 20
272.647775
 30
0.0
 11
468.465109
 21
272.647775
 31
0.0
  0
ARC
  5
BD5D
330
BA9A
100
AcDbEntity
  8
5
  6
PHANTOM
100
AcDbCircle
 10
481.9220579999998
 20
275.032148
 30
0.0
 40
20.0
100
AcDbArc
 50
51.53291399999999
 51
83.23003699999999
  0
ARC
  5
BD5E
330
BA9A
100
AcDbEntity
  8
1
  6
Continuous
100
AcDbCircle
 10
481.4403299999998
 20
275.266339
 30
0.0
 40
20.0
100
AcDbArc
 50
62.532914
 51
94.230037
  0
LINE
  5
BD5F
330
BA9A
100
AcDbEntity
  8
1
  6
Continuous
100
AcDbLine
 10
499.6151089999998
 20
302.247775
 30
0.0
 11
461.315109
 21
302.247775
 31
0.0
  0
ARC
  5
BD60
330
BA9A
100
AcDbEntity
  8
1
  6
Continuous
100
AcDbCircle
 10
480.465109
 20
280.347775
 30
0.0
 40
18.0
100
AcDbArc
 50
20.354406
 51
159.645594
  0
CIRCLE
  5
BD61
330
BA9A
100
AcDbEntity
  8
1
  6
Continuous
100
AcDbCircle
 10
480.4319239999998
 20
243.7477749999999
 30
0.0
 40
10.0
  0
LINE
  5
BD62
330
BA9A
100
AcDbEntity
  8
1
  6
Continuous
100
AcDbLine
 10
474.6354519999998
 20
225.0477749999999
 30
0.0
 11
486.2947669999998
 21
225.0477749999999
 31
0.0
  0
ARC
  5
BD63
330
BA9A
100
AcDbEntity
  8
5
  6
PHANTOM
100
AcDbCircle
 10
479.0132419999998
 20
234.6262419999999
 30
0.0
 40
10.0
100
AcDbArc
 50
259.0
 51
337.5
  0
LINE
  5
BD64
330
BA9A
100
AcDbEntity
  8
4
  6
CENTER
100
AcDbLine
 10
516.987528
 20
224.2477749999999
 30
0.0
 11
444.3927669999998
 21
224.2477749999999
 31
0.0
  0
ARC
  5
BD65
330
BA9A
100
AcDbEntity
  8
1
  6
Continuous
100
AcDbCircle
 10
480.465109
 20
170.2477749999999
 30
0.0
 40
11.0
100
AcDbArc
 50
180.0
 51
0.0
  0
ARC
  5
BD66
330
BA9A
100
AcDbEntity
  8
5
  6
PHANTOM
100
AcDbCircle
 10
481.9220579999998
 20
275.032148
 30
0.0
 40
16.69999999999999
100
AcDbArc
 50
351.897406
 51
84.06791699999997
  0
ARC
  5
BD67
330
BA9A
100
AcDbEntity
  8
5
  6
PHANTOM
100
AcDbCircle
 10
481.9343379999998
 20
280.206305
 30
0.0
 40
18.0
100
AcDbArc
 50
9.354405999999999
 51
148.6455939999999
  0
ARC
  5
BD68
330
BA9A
100
AcDbEntity
  8
1
  6
Continuous
100
AcDbCircle
 10
481.4403299999998
 20
275.266339
 30
0.0
 40
16.69999999999999
100
AcDbArc
 50
2.897406
 51
95.06791699999999
  0
ARC
  5
BD69
330
BA9A
100
AcDbEntity
  8
1
  6
Continuous
100
AcDbCircle
 10
491.266331
 20
222.49031
 30
0.0
 40
32.5
100
AcDbArc
 50
215.2183069999999
 51
227.8706329999999
  0
LINE
  5
BD6A
330
BA9A
100
AcDbEntity
  8
1
  6
Continuous
100
AcDbLine
 10
469.4651089999998
 20
226.4881279999999
 30
0.0
 11
469.4651089999998
 21
170.2477749999999
 31
0.0
  0
LINE
  5
BD6B
330
BA9A
100
AcDbEntity
  8
4
  6
CENTER
100
AcDbLine
 10
480.465109
 20
403.7947649999998
 30
0.0
 11
480.465109
 21
150.0885159999999
 31
0.0
  0
LINE
  5
BD6C
330
BA9A
100
AcDbEntity
  8
5
  6
PHANTOM
100
AcDbLine
 10
457.5685219999998
 20
236.763679
 30
0.0
 11
457.2240129999998
 21
276.240494
 31
0.0
  0
ARC
  5
BD6D
330
BA9A
100
AcDbEntity
  8
1
  6
Continuous
100
AcDbCircle
 10
704.203805
 20
218.936324
 30
0.0
 40
250.0
100
AcDbArc
 50
169.4704259999998
 51
177.2210179999999
  0
LINE
  5
BD6E
330
BA9A
100
AcDbEntity
  8
1
  6
Continuous
100
AcDbLine
 10
464.836205
 20
233.0540959999999
 30
0.0
 11
456.9654939999998
 21
271.739875
 31
0.0
  0
LINE
  5
BD6F
330
BA9A
100
AcDbEntity
  8
1
  6
Continuous
100
AcDbLine
 10
464.715109
 20
233.649302
 30
0.0
 11
464.715109
 21
203.7477749999999
 31
0.0
  0
LINE
  5
BD70
330
BA9A
100
AcDbEntity
  8
1
  6
Continuous
100
AcDbLine
 10
460.6651089999998
 20
240.247775
 30
0.0
 11
460.6651089999998
 21
208.2477749999999
 31
0.0
  0
LINE
  5
BD71
330
BA9A
100
AcDbEntity
  8
1
  6
Continuous
100
AcDbLine
 10
462.7151089999999
 20
241.919348
 30
0.0
 11
462.7151089999999
 21
206.576203
 31
0.0
  0
LINE
  5
BD72
330
BA9A
100
AcDbEntity
  8
1
  6
Continuous
100
AcDbLine
 10
457.2651089999998
 20
234.7477749999999
 30
0.0
 11
457.2651089999998
 21
213.7477749999999
 31
0.0
  0
LINE
  5
BD73
330
BA9A
100
AcDbEntity
  8
1
  6
Continuous
100
AcDbLine
 10
459.565109
 20
234.7477749999999
 30
0.0
 11
459.565109
 21
213.7477749999999
 31
0.0
  0
ARC
  5
BD74
330
BA9A
100
AcDbEntity
  8
1
  6
Continuous
100
AcDbCircle
 10
474.140109
 20
224.2477749999999
 30
0.0
 40
19.875
100
AcDbArc
 50
148.1092079999999
 51
157.8298429999998
  0
ARC
  5
BD75
330
BA9A
100
AcDbEntity
  8
1
  6
Continuous
100
AcDbCircle
 10
457.565109
 20
231.0117069999999
 30
0.0
 40
3.0
100
AcDbArc
 50
0.0
 51
48.189685
  0
ARC
  5
BD76
330
BA9A
100
AcDbEntity
  8
5
  6
PHANTOM
100
AcDbCircle
 10
467.568141
 20
236.8509439999999
 30
0.0
 40
10.0
100
AcDbArc
 50
180.4999999999998
 51
259.0
  0
ARC
  5
BD77
330
BA9A
100
AcDbEntity
  8
1
  6
Continuous
100
AcDbCircle
 10
474.6354519999998
 20
235.047775
 30
0.0
 40
10.0
100
AcDbArc
 50
191.5
 51
270.0
  0
ARC
  5
BD78
330
BA9A
100
AcDbEntity
  8
1
  6
Continuous
100
AcDbCircle
 10
457.565109
 20
217.483843
 30
0.0
 40
3.0
100
AcDbArc
 50
311.810315
 51
0.0
  0
LINE
  5
BD79
330
BA9A
100
AcDbEntity
  8
1
  6
Continuous
100
AcDbLine
 10
448.4651089999998
 20
227.2477749999999
 30
0.0
 11
448.4651089999998
 21
221.247775
 31
0.0
  0
LINE
  5
BD7A
330
BA9A
100
AcDbEntity
  8
1
  6
Continuous
100
AcDbLine
 10
454.965109
 20
231.747775
 30
0.0
 11
454.965109
 21
216.7477749999999
 31
0.0
  0
ARC
  5
BD7B
330
BA9A
100
AcDbEntity
  8
1
  6
Continuous
100
AcDbCircle
 10
453.032096
 20
219.051623
 30
0.0
 40
3.066986999999998
100
AcDbArc
 50
145.615753
 51
205.615753
  0
ARC
  5
BD7C
330
BA9A
100
AcDbEntity
  8
1
  6
Continuous
100
AcDbCircle
 10
451.8981219999998
 20
219.051623
 30
0.0
 40
3.066986999999998
100
AcDbArc
 50
334.384247
 51
34.38424699999998
  0
LINE
  5
BD7D
330
BA9A
100
AcDbEntity
  8
1
  6
Continuous
100
AcDbLine
 10
449.9651089999998
 20
230.2477749999999
 30
0.0
 11
449.9651089999998
 21
218.2477749999999
 31
0.0
  0
LINE
  5
BD7E
330
BA9A
100
AcDbEntity
  8
1
  6
Continuous
100
AcDbLine
 10
454.965109
 20
230.2477749999999
 30
0.0
 11
454.965109
 21
218.2477749999999
 31
0.0
  0
LINE
  5
BD7F
330
BA9A
100
AcDbEntity
  8
1
  6
Continuous
100
AcDbLine
 10
457.2651089999998
 20
216.7477749999999
 30
0.0
 11
454.965109
 21
216.7477749999999
 31
0.0
  0
ARC
  5
BD80
330
BA9A
100
AcDbEntity
  8
1
  6
Continuous
100
AcDbCircle
 10
474.140109
 20
224.2477749999999
 30
0.0
 40
19.875
100
AcDbArc
 50
202.170157
 51
211.8907919999998
  0
LINE
  5
BD81
330
BA9A
100
AcDbEntity
  8
1
  6
Continuous
100
AcDbLine
 10
459.565109
 20
213.7477749999999
 30
0.0
 11
457.2651089999998
 21
213.7477749999999
 31
0.0
  0
LINE
  5
BD82
330
BA9A
100
AcDbEntity
  8
1
  6
Continuous
100
AcDbLine
 10
454.4292109999998
 20
217.3195719999999
 30
0.0
 11
450.5010079999998
 21
217.3195719999999
 31
0.0
  0
LINE
  5
BD83
330
BA9A
100
AcDbEntity
  8
1
  6
Continuous
100
AcDbLine
 10
450.5010079999998
 20
217.3195719999999
 30
0.0
 11
449.9651089999998
 21
218.2477749999999
 31
0.0
  0
LINE
  5
BD84
330
BA9A
100
AcDbEntity
  8
1
  6
Continuous
100
AcDbLine
 10
454.4292109999998
 20
217.3195719999999
 30
0.0
 11
454.965109
 21
218.2477749999999
 31
0.0
  0
LINE
  5
BD85
330
BA9A
100
AcDbEntity
  8
1
  6
Continuous
100
AcDbLine
 10
457.2651089999998
 20
231.747775
 30
0.0
 11
454.965109
 21
231.747775
 31
0.0
  0
LINE
  5
BD86
330
BA9A
100
AcDbEntity
  8
1
  6
Continuous
100
AcDbLine
 10
450.5010079999998
 20
231.175978
 30
0.0
 11
449.9651089999998
 21
230.2477749999999
 31
0.0
  0
LINE
  5
BD87
330
BA9A
100
AcDbEntity
  8
1
  6
Continuous
100
AcDbLine
 10
454.4292109999998
 20
231.175978
 30
0.0
 11
454.965109
 21
230.2477749999999
 31
0.0
  0
LINE
  5
BD88
330
BA9A
100
AcDbEntity
  8
1
  6
Continuous
100
AcDbLine
 10
454.4292109999998
 20
231.175978
 30
0.0
 11
450.5010079999998
 21
231.175978
 31
0.0
  0
LINE
  5
BD89
330
BA9A
100
AcDbEntity
  8
1
  6
Continuous
100
AcDbLine
 10
454.4292109999998
 20
227.7118769999999
 30
0.0
 11
450.5010079999998
 21
227.7118769999999
 31
0.0
  0
ARC
  5
BD8A
330
BA9A
100
AcDbEntity
  8
1
  6
Continuous
100
AcDbCircle
 10
453.032096
 20
229.4439279999998
 30
0.0
 40
3.066986999999998
100
AcDbArc
 50
154.3842469999999
 51
214.384247
  0
ARC
  5
BD8B
330
BA9A
100
AcDbEntity
  8
1
  6
Continuous
100
AcDbCircle
 10
451.8981219999998
 20
229.4439279999998
 30
0.0
 40
3.066986999999998
100
AcDbArc
 50
325.6157529999999
 51
25.615753
  0
LINE
  5
BD8C
330
BA9A
100
AcDbEntity
  8
1
  6
Continuous
100
AcDbLine
 10
454.4292109999998
 20
220.7836739999999
 30
0.0
 11
450.5010079999998
 21
220.7836739999999
 31
0.0
  0
ARC
  5
BD8D
330
BA9A
100
AcDbEntity
  8
1
  6
Continuous
100
AcDbCircle
 10
461.429211
 20
224.2477749999999
 30
0.0
 40
11.464102
100
AcDbArc
 50
162.412046
 51
197.5879539999999
  0
ARC
  5
BD8E
330
BA9A
100
AcDbEntity
  8
1
  6
Continuous
100
AcDbCircle
 10
443.501008
 20
224.2477749999999
 30
0.0
 40
11.464102
100
AcDbArc
 50
342.4120459999999
 51
17.587954
  0
LINE
  5
BD8F
330
BA9A
100
AcDbEntity
  8
1
  6
Continuous
100
AcDbLine
 10
449.9651089999998
 20
228.2477749999999
 30
0.0
 11
449.4651089999998
 21
228.2477749999999
 31
0.0
  0
LINE
  5
BD90
330
BA9A
100
AcDbEntity
  8
1
  6
Continuous
100
AcDbLine
 10
449.9651089999998
 20
220.2477749999999
 30
0.0
 11
449.4651089999998
 21
220.2477749999999
 31
0.0
  0
LINE
  5
BD91
330
BA9A
100
AcDbEntity
  8
1
  6
Continuous
100
AcDbLine
 10
449.4651089999998
 20
228.2477749999999
 30
0.0
 11
448.4651089999998
 21
227.2477749999999
 31
0.0
  0
LINE
  5
BD92
330
BA9A
100
AcDbEntity
  8
1
  6
Continuous
100
AcDbLine
 10
449.4651089999998
 20
220.2477749999999
 30
0.0
 11
448.4651089999998
 21
221.247775
 31
0.0
  0
LINE
  5
BD93
330
BA9A
100
AcDbEntity
  8
5
  6
PHANTOM
100
AcDbLine
 10
465.6600509999998
 20
227.034672
 30
0.0
 11
477.1051519999998
 21
224.80997
 31
0.0
  0
LINE
  5
BD94
330
BA9A
100
AcDbEntity
  8
1
  6
Continuous
100
AcDbLine
 10
460.565109
 20
231.0117069999999
 30
0.0
 11
460.565109
 21
217.483843
 31
0.0
  0
LINE
  5
BD95
330
BA9A
100
AcDbEntity
  8
1
  6
Continuous
100
AcDbLine
 10
462.7151089999999
 20
208.2477749999999
 30
0.0
 11
460.6651089999998
 21
208.2477749999999
 31
0.0
  0
LINE
  5
BD96
330
BA9A
100
AcDbEntity
  8
1
  6
Continuous
100
AcDbLine
 10
460.6651089999998
 20
218.272775
 30
0.0
 11
460.565109
 21
218.272775
 31
0.0
  0
LINE
  5
BD97
330
BA9A
100
AcDbEntity
  8
1
  6
Continuous
100
AcDbLine
 10
460.6651089999998
 20
230.222775
 30
0.0
 11
460.565109
 21
230.222775
 31
0.0
  0
ARC
  5
BD98
330
BA9A
100
AcDbEntity
  8
1
  6
Continuous
100
AcDbCircle
 10
465.715109
 20
206.576203
 30
0.0
 40
3.0
100
AcDbArc
 50
180.0
 51
250.5287789999999
  0
ARC
  5
BD99
330
BA9A
100
AcDbEntity
  8
1
  6
Continuous
100
AcDbCircle
 10
543.8657839999998
 20
234.7477749999999
 30
0.0
 40
84.30067599999999
100
AcDbArc
 50
168.817826
 51
180.0
  0
ARC
  5
BD9A
330
BA9A
100
AcDbEntity
  8
1
  6
Continuous
100
AcDbCircle
 10
543.8657839999998
 20
234.7477749999999
 30
0.0
 40
86.60067600000003
100
AcDbArc
 50
165.4164079999999
 51
180.0
  0
CIRCLE
  5
BD9B
330
BA9A
100
AcDbEntity
  8
5
  6
PHANTOM
100
AcDbCircle
 10
474.918154
 20
244.2850819999999
 30
0.0
 40
10.0
  0
ARC
  5
BD9C
330
BA9A
100
AcDbEntity
  8
1
  6
Continuous
100
AcDbCircle
 10
465.715109
 20
241.919348
 30
0.0
 40
3.0
100
AcDbArc
 50
162.6915469999999
 51
180.0
  0
LINE
  5
BD9D
330
BA9A
100
AcDbEntity
  8
1
  6
Continuous
100
AcDbLine
 10
462.7151089999999
 20
240.247775
 30
0.0
 11
460.6651089999998
 21
240.247775
 31
0.0
  0
LINE
  5
BD9E
330
BA9A
100
AcDbEntity
  8
1
  6
Continuous
100
AcDbLine
 10
459.965109
 20
297.6977749999999
 30
0.0
 11
459.965109
 21
283.462265
 31
0.0
  0
LINE
  5
BD9F
330
BA9A
100
AcDbEntity
  8
5
  6
PHANTOM
100
AcDbLine
 10
446.0393159999998
 20
290.2397399999999
 30
0.0
 11
461.339096
 21
287.2657639999999
 31
0.0
  0
ARC
  5
BDA0
330
BA9A
100
AcDbEntity
  8
1
  6
Continuous
100
AcDbCircle
 10
458.9012509999998
 20
288.347775
 30
0.0
 40
5.0
100
AcDbArc
 50
270.0
 51
339.645594
  0
ARC
  5
BDA1
330
BA9A
100
AcDbEntity
  8
5
  6
PHANTOM
100
AcDbCircle
 10
447.4543739999998
 20
286.9085309999999
 30
0.0
 40
3.0
100
AcDbArc
 50
22.981384
 51
79.0
  0
LINE
  5
BDA2
330
BA9A
100
AcDbEntity
  8
5
  6
PHANTOM
100
AcDbLine
 10
447.109601
 20
288.4017509999998
 30
0.0
 11
445.7340209999999
 21
288.6691369999999
 31
0.0
  0
ARC
  5
BDA3
330
BA9A
100
AcDbEntity
  8
5
  6
PHANTOM
100
AcDbCircle
 10
452.978165
 20
289.251123
 30
0.0
 40
3.0
100
AcDbArc
 50
202.981384
 51
237.825796
  0
ARC
  5
BDA4
330
BA9A
100
AcDbEntity
  8
5
  6
PHANTOM
100
AcDbCircle
 10
453.461294
 20
292.260691
 30
0.0
 40
7.0
100
AcDbArc
 50
214.5846909999999
 51
268.3513889999999
  0
LINE
  5
BDA5
330
BA9A
100
AcDbEntity
  8
5
  6
PHANTOM
100
AcDbLine
 10
445.7340209999999
 20
288.6691369999999
 30
0.0
 11
446.0393159999998
 21
290.2397399999999
 31
0.0
  0
LINE
  5
BDA6
330
BA9A
100
AcDbEntity
  8
1
  6
Continuous
100
AcDbLine
 10
444.716435
 20
281.747775
 30
0.0
 11
443.3151089999998
 21
281.747775
 31
0.0
  0
ARC
  5
BDA7
330
BA9A
100
AcDbEntity
  8
1
  6
Continuous
100
AcDbCircle
 10
450.315109
 20
283.701316
 30
0.0
 40
3.0
100
AcDbArc
 50
213.9813839999999
 51
248.8257959999998
  0
ARC
  5
BDA8
330
BA9A
100
AcDbEntity
  8
1
  6
Continuous
100
AcDbCircle
 10
450.2151089999999
 20
286.7477749999998
 30
0.0
 40
7.0
100
AcDbArc
 50
225.584691
 51
279.3513889999999
  0
LINE
  5
BDA9
330
BA9A
100
AcDbEntity
  8
1
  6
Continuous
100
AcDbLine
 10
443.3151089999998
 20
281.747775
 30
0.0
 11
443.3151089999998
 21
283.347775
 31
0.0
  0
LINE
  5
BDAA
330
BA9A
100
AcDbEntity
  8
1
  6
Continuous
100
AcDbLine
 10
443.3151089999998
 20
283.347775
 30
0.0
 11
458.9012509999998
 21
283.347775
 31
0.0
  0
ARC
  5
BDAB
330
BA9A
100
AcDbEntity
  8
1
  6
Continuous
100
AcDbCircle
 10
444.716435
 20
269.247775
 30
0.0
 40
12.5
100
AcDbArc
 50
11.49999999999998
 51
90.0
  0
ARC
  5
BDAC
330
BA9A
100
AcDbEntity
  8
5
  6
PHANTOM
100
AcDbCircle
 10
444.724488
 20
276.131411
 30
0.0
 40
12.5
100
AcDbArc
 50
0.5
 51
79.0
  0
ARC
  5
BDAD
330
BA9A
100
AcDbEntity
  8
1
  6
Continuous
100
AcDbCircle
 10
445.339794
 20
280.347775
 30
0.0
 40
3.0
100
AcDbArc
 50
33.98138400000001
 51
90.0
  0
ARC
  5
BDAE
330
BA9A
100
AcDbEntity
  8
5
  6
PHANTOM
100
AcDbCircle
 10
462.2931409999998
 20
292.1739
 30
0.0
 40
5.0
100
AcDbArc
 50
259.0
 51
328.645594
  0
ARC
  5
BDAF
330
BA9A
100
AcDbEntity
  8
1
  6
Continuous
100
AcDbCircle
 10
464.715109
 20
297.6977749999999
 30
0.0
 40
4.75
100
AcDbArc
 50
106.6855899999999
 51
180.0
  0
ARC
  5
BDB0
330
BA9A
100
AcDbEntity
  8
1
  6
Continuous
100
AcDbCircle
 10
467.815109
 20
311.7477749999999
 30
0.0
 40
6.5
100
AcDbArc
 50
90.0
 51
180.0
  0
LINE
  5
BDB1
330
BA9A
100
AcDbEntity
  8
1
  6
Continuous
100
AcDbLine
 10
461.315109
 20
302.247775
 30
0.0
 11
461.315109
 21
311.7477749999999
 31
0.0
  0
ARC
  5
BDB2
330
BA9A
100
AcDbEntity
  8
1
  6
Continuous
100
AcDbCircle
 10
469.663887
 20
222.49031
 30
0.0
 40
32.5
100
AcDbArc
 50
312.129367
 51
324.781693
  0
LINE
  5
BDB3
330
BA9A
100
AcDbEntity
  8
1
  6
Continuous
100
AcDbLine
 10
491.4651089999998
 20
226.4881279999999
 30
0.0
 11
491.4651089999998
 21
170.2477749999999
 31
0.0
  0
LINE
  5
BDB4
330
BA9A
100
AcDbEntity
  8
1
  6
Continuous
100
AcDbLine
 10
496.0940139999998
 20
233.0540959999999
 30
0.0
 11
503.9647239999998
 21
271.739875
 31
0.0
  0
LINE
  5
BDB5
330
BA9A
100
AcDbEntity
  8
5
  6
PHANTOM
100
AcDbLine
 10
488.2520369999999
 20
230.7994079999998
 30
0.0
 11
503.3597349999998
 21
267.272618
 31
0.0
  0
ARC
  5
BDB6
330
BA9A
100
AcDbEntity
  8
1
  6
Continuous
100
AcDbCircle
 10
256.7264129999999
 20
218.936324
 30
0.0
 40
250.0
100
AcDbArc
 50
2.806243999999998
 51
10.52957299999998
  0
LINE
  5
BDB7
330
BA9A
100
AcDbEntity
  8
1
  6
Continuous
100
AcDbLine
 10
496.2151089999998
 20
233.649297
 30
0.0
 11
496.2151089999998
 21
203.7477749999999
 31
0.0
  0
ARC
  5
BDB8
330
BA9A
100
AcDbEntity
  8
1
  6
Continuous
100
AcDbCircle
 10
486.2947669999998
 20
235.047775
 30
0.0
 40
10.0
100
AcDbArc
 50
270.0
 51
348.4999999999998
  0
LINE
  5
BDB9
330
BA9A
100
AcDbEntity
  8
1
  6
Continuous
100
AcDbLine
 10
500.2651089999998
 20
240.247775
 30
0.0
 11
500.2651089999998
 21
208.2477749999999
 31
0.0
  0
LINE
  5
BDBA
330
BA9A
100
AcDbEntity
  8
1
  6
Continuous
100
AcDbLine
 10
498.215109
 20
241.919348
 30
0.0
 11
498.215109
 21
206.576203
 31
0.0
  0
LINE
  5
BDBB
330
BA9A
100
AcDbEntity
  8
1
  6
Continuous
100
AcDbLine
 10
503.6651089999998
 20
234.7477749999999
 30
0.0
 11
503.6651089999998
 21
213.7477749999999
 31
0.0
  0
LINE
  5
BDBC
330
BA9A
100
AcDbEntity
  8
1
  6
Continuous
100
AcDbLine
 10
501.3651089999998
 20
234.7477749999999
 30
0.0
 11
501.3651089999998
 21
213.7477749999999
 31
0.0
  0
ARC
  5
BDBD
330
BA9A
100
AcDbEntity
  8
1
  6
Continuous
100
AcDbCircle
 10
486.790109
 20
224.2477749999999
 30
0.0
 40
19.875
100
AcDbArc
 50
22.170157
 51
31.890792
  0
ARC
  5
BDBE
330
BA9A
100
AcDbEntity
  8
1
  6
Continuous
100
AcDbCircle
 10
503.3651089999998
 20
231.0117069999999
 30
0.0
 40
3.0
100
AcDbArc
 50
131.810315
 51
180.0
  0
LINE
  5
BDBF
330
BA9A
100
AcDbEntity
  8
1
  6
Continuous
100
AcDbLine
 10
510.929211
 20
217.3195719999999
 30
0.0
 11
505.965109
 21
217.3195719999999
 31
0.0
  0
LINE
  5
BDC0
330
BA9A
100
AcDbEntity
  8
1
  6
Continuous
100
AcDbLine
 10
510.929211
 20
231.175978
 30
0.0
 11
505.965109
 21
231.175978
 31
0.0
  0
LINE
  5
BDC1
330
BA9A
100
AcDbEntity
  8
1
  6
Continuous
100
AcDbLine
 10
510.929211
 20
227.7118769999999
 30
0.0
 11
505.965109
 21
227.7118769999999
 31
0.0
  0
LINE
  5
BDC2
330
BA9A
100
AcDbEntity
  8
1
  6
Continuous
100
AcDbLine
 10
510.929211
 20
220.7836739999999
 30
0.0
 11
505.965109
 21
220.7836739999999
 31
0.0
  0
LINE
  5
BDC3
330
BA9A
100
AcDbEntity
  8
1
  6
Continuous
100
AcDbLine
 10
500.3651089999998
 20
231.0117069999999
 30
0.0
 11
500.3651089999998
 21
217.483843
 31
0.0
  0
LINE
  5
BDC4
330
BA9A
100
AcDbEntity
  8
1
  6
Continuous
100
AcDbLine
 10
505.965109
 20
231.747775
 30
0.0
 11
505.965109
 21
216.7477749999999
 31
0.0
  0
LINE
  5
BDC5
330
BA9A
100
AcDbEntity
  8
1
  6
Continuous
100
AcDbLine
 10
505.965109
 20
231.175978
 30
0.0
 11
505.965109
 21
217.3195719999999
 31
0.0
  0
LINE
  5
BDC6
330
BA9A
100
AcDbEntity
  8
1
  6
Continuous
100
AcDbLine
 10
500.2651089999998
 20
208.2477749999999
 30
0.0
 11
498.215109
 21
208.2477749999999
 31
0.0
  0
LINE
  5
BDC7
330
BA9A
100
AcDbEntity
  8
1
  6
Continuous
100
AcDbLine
 10
503.6651089999998
 20
213.7477749999999
 30
0.0
 11
501.3651089999998
 21
213.7477749999999
 31
0.0
  0
LINE
  5
BDC8
330
BA9A
100
AcDbEntity
  8
1
  6
Continuous
100
AcDbLine
 10
505.965109
 20
216.7477749999999
 30
0.0
 11
503.6651089999998
 21
216.7477749999999
 31
0.0
  0
ARC
  5
BDC9
330
BA9A
100
AcDbEntity
  8
1
  6
Continuous
100
AcDbCircle
 10
486.790109
 20
224.2477749999999
 30
0.0
 40
19.875
100
AcDbArc
 50
328.109208
 51
337.829843
  0
LINE
  5
BDCA
330
BA9A
100
AcDbEntity
  8
1
  6
Continuous
100
AcDbLine
 10
500.3651089999998
 20
218.272775
 30
0.0
 11
500.2651089999998
 21
218.272775
 31
0.0
  0
ARC
  5
BDCB
330
BA9A
100
AcDbEntity
  8
1
  6
Continuous
100
AcDbCircle
 10
503.3651089999998
 20
217.483843
 30
0.0
 40
3.0
100
AcDbArc
 50
180.0
 51
228.1896849999998
  0
LINE
  5
BDCC
330
BA9A
100
AcDbEntity
  8
1
  6
Continuous
100
AcDbLine
 10
505.965109
 20
231.747775
 30
0.0
 11
503.6651089999998
 21
231.747775
 31
0.0
  0
LINE
  5
BDCD
330
BA9A
100
AcDbEntity
  8
1
  6
Continuous
100
AcDbLine
 10
500.3651089999998
 20
230.222775
 30
0.0
 11
500.2651089999998
 21
230.222775
 31
0.0
  0
ARC
  5
BDCE
330
BA9A
100
AcDbEntity
  8
1
  6
Continuous
100
AcDbCircle
 10
495.215109
 20
206.576203
 30
0.0
 40
3.0
100
AcDbArc
 50
289.471221
 51
0.0
  0
ARC
  5
BDCF
330
BA9A
100
AcDbEntity
  8
1
  6
Continuous
100
AcDbCircle
 10
508.398122
 20
219.051623
 30
0.0
 40
3.066986999999998
100
AcDbArc
 50
334.384247
 51
34.38424699999998
  0
LINE
  5
BDD0
330
BA9A
100
AcDbEntity
  8
1
  6
Continuous
100
AcDbLine
 10
511.4651089999998
 20
230.2477749999999
 30
0.0
 11
511.4651089999998
 21
218.2477749999999
 31
0.0
  0
LINE
  5
BDD1
330
BA9A
100
AcDbEntity
  8
1
  6
Continuous
100
AcDbLine
 10
510.929211
 20
217.3195719999999
 30
0.0
 11
511.4651089999998
 21
218.2477749999999
 31
0.0
  0
LINE
  5
BDD2
330
BA9A
100
AcDbEntity
  8
1
  6
Continuous
100
AcDbLine
 10
510.929211
 20
231.175978
 30
0.0
 11
511.4651089999998
 21
230.2477749999999
 31
0.0
  0
ARC
  5
BDD3
330
BA9A
100
AcDbEntity
  8
1
  6
Continuous
100
AcDbCircle
 10
508.398122
 20
229.4439279999998
 30
0.0
 40
3.066986999999998
100
AcDbArc
 50
325.6157529999999
 51
25.615753
  0
ARC
  5
BDD4
330
BA9A
100
AcDbEntity
  8
1
  6
Continuous
100
AcDbCircle
 10
500.001008
 20
224.2477749999999
 30
0.0
 40
11.464102
100
AcDbArc
 50
342.4120459999999
 51
17.587954
  0
ARC
  5
BDD5
330
BA9A
100
AcDbEntity
  8
1
  6
Continuous
100
AcDbCircle
 10
495.215109
 20
241.919348
 30
0.0
 40
3.0
100
AcDbArc
 50
0.0
 51
17.308424
  0
ARC
  5
BDD6
330
BA9A
100
AcDbEntity
  8
1
  6
Continuous
100
AcDbCircle
 10
417.064433
 20
234.7477749999999
 30
0.0
 40
84.30067599999999
100
AcDbArc
 50
0.0
 51
11.182171
  0
ARC
  5
BDD7
330
BA9A
100
AcDbEntity
  8
1
  6
Continuous
100
AcDbCircle
 10
417.064433
 20
234.7477749999999
 30
0.0
 40
86.60067600000003
100
AcDbArc
 50
0.0
 51
14.58358999999999
  0
LINE
  5
BDD8
330
BA9A
100
AcDbEntity
  8
1
  6
Continuous
100
AcDbLine
 10
500.2651089999998
 20
240.247775
 30
0.0
 11
498.215109
 21
240.247775
 31
0.0
  0
LINE
  5
BDD9
330
BA9A
100
AcDbEntity
  8
1
  6
Continuous
100
AcDbLine
 10
500.965109
 20
297.6977749999999
 30
0.0
 11
500.965109
 21
283.4622659999999
 31
0.0
  0
LINE
  5
BDDA
330
BA9A
100
AcDbEntity
  8
1
  6
Continuous
100
AcDbLine
 10
490.6651089999998
 20
289.18731
 30
0.0
 11
490.6651089999998
 21
293.011858
 31
0.0
  0
ARC
  5
BDDB
330
BA9A
100
AcDbEntity
  8
5
  6
PHANTOM
100
AcDbCircle
 10
512.8497379999998
 20
280.716746
 30
0.0
 40
7.0
100
AcDbArc
 50
249.6486109999999
 51
303.4153089999999
  0
ARC
  5
BDDC
330
BA9A
100
AcDbEntity
  8
1
  6
Continuous
100
AcDbCircle
 10
510.715109
 20
286.7477749999998
 30
0.0
 40
7.0
100
AcDbArc
 50
260.6486109999999
 51
314.237863
  0
ARC
  5
BDDD
330
BA9A
100
AcDbEntity
  8
5
  6
PHANTOM
100
AcDbCircle
 10
514.9082289999999
 20
262.489074
 30
0.0
 40
12.5
100
AcDbArc
 50
100.174204
 51
157.5
  0
LINE
  5
BDDE
330
BA9A
100
AcDbEntity
  8
5
  6
PHANTOM
100
AcDbLine
 10
503.674436
 20
279.036608
 30
0.0
 11
518.9742149999998
 21
276.062632
 31
0.0
  0
LINE
  5
BDDF
330
BA9A
100
AcDbEntity
  8
1
  6
Continuous
100
AcDbLine
 10
502.0289679999998
 20
283.347775
 30
0.0
 11
517.6151089999998
 21
283.347775
 31
0.0
  0
ARC
  5
BDE0
330
BA9A
100
AcDbEntity
  8
1
  6
Continuous
100
AcDbCircle
 10
516.213783
 20
269.247775
 30
0.0
 40
12.5
100
AcDbArc
 50
92.746691
 51
168.5
  0
LINE
  5
BDE1
330
BA9A
100
AcDbEntity
  8
5
  6
PHANTOM
100
AcDbLine
 10
493.6335979999998
 20
286.937181
 30
0.0
 11
494.363357
 21
290.691461
 31
0.0
  0
LINE
  5
BDE2
330
BA9A
100
AcDbEntity
  8
5
  6
PHANTOM
100
AcDbLine
 10
498.553349
 20
276.5454649999999
 30
0.0
 11
501.1095599999999
 21
276.048588
 31
0.0
  0
LINE
  5
BDE3
330
BA9A
100
AcDbEntity
  8
5
  6
PHANTOM
100
AcDbLine
 10
501.1095599999999
 20
276.048588
 30
0.0
 11
498.4553459999998
 21
272.678349
 31
0.0
  0
ARC
  5
BDE4
330
BA9A
100
AcDbEntity
  8
5
  6
PHANTOM
100
AcDbCircle
 10
504.6284809999998
 20
283.944744
 30
0.0
 40
5.0
100
AcDbArc
 50
189.354406
 51
259.0
  0
LINE
  5
BDE5
330
BA9A
100
AcDbEntity
  8
1
  6
Continuous
100
AcDbLine
 10
500.0813579999998
 20
279.925252
 30
0.0
 11
498.118981
 21
276.1104859999999
 31
0.0
  0
LINE
  5
BDE6
330
BA9A
100
AcDbEntity
  8
1
  6
Continuous
100
AcDbLine
 10
497.477303
 20
279.925252
 30
0.0
 11
500.0813579999998
 21
279.925252
 31
0.0
  0
ARC
  5
BDE7
330
BA9A
100
AcDbEntity
  8
1
  6
Continuous
100
AcDbCircle
 10
502.0289679999998
 20
288.347775
 30
0.0
 40
5.0
100
AcDbArc
 50
200.354406
 51
270.0
  0
LINE
  5
BDE8
330
BA9A
100
AcDbEntity
  8
1
  6
Continuous
100
AcDbLine
 10
517.6151089999998
 20
281.747775
 30
0.0
 11
515.614778
 21
281.7334149999999
 31
0.0
  0
ARC
  5
BDE9
330
BA9A
100
AcDbEntity
  8
5
  6
PHANTOM
100
AcDbCircle
 10
512.170284
 20
277.74534
 30
0.0
 40
3.0
100
AcDbArc
 50
280.1742039999999
 51
315.018616
  0
ARC
  5
BDEA
330
BA9A
100
AcDbEntity
  8
5
  6
PHANTOM
100
AcDbCircle
 10
516.4143029999998
 20
273.5040779999998
 30
0.0
 40
3.0
100
AcDbArc
 50
79.0
 51
135.0186159999998
  0
LINE
  5
BDEB
330
BA9A
100
AcDbEntity
  8
5
  6
PHANTOM
100
AcDbLine
 10
514.0324689999999
 20
275.3932629999998
 30
0.0
 11
518.6689209999998
 21
274.492028
 31
0.0
  0
LINE
  5
BDEC
330
BA9A
100
AcDbEntity
  8
5
  6
PHANTOM
100
AcDbLine
 10
518.9742149999998
 20
276.062632
 30
0.0
 11
518.6689209999998
 21
274.492028
 31
0.0
  0
ARC
  5
BDED
330
BA9A
100
AcDbEntity
  8
1
  6
Continuous
100
AcDbCircle
 10
510.615109
 20
283.701316
 30
0.0
 40
3.0
100
AcDbArc
 50
291.1742039999999
 51
326.0186159999999
  0
LINE
  5
BDEE
330
BA9A
100
AcDbEntity
  8
1
  6
Continuous
100
AcDbLine
 10
517.6151089999998
 20
283.347775
 30
0.0
 11
517.6151089999998
 21
281.747775
 31
0.0
  0
ARC
  5
BDEF
330
BA9A
100
AcDbEntity
  8
1
  6
Continuous
100
AcDbCircle
 10
515.5904239999999
 20
280.347775
 30
0.0
 40
3.0
100
AcDbArc
 50
90.0
 51
146.0186159999998
  0
ARC
  5
BDF0
330
BA9A
100
AcDbEntity
  8
1
  6
Continuous
100
AcDbCircle
 10
493.1151089999998
 20
311.7477749999999
 30
0.0
 40
6.5
100
AcDbArc
 50
0.0
 51
90.0
  0
ARC
  5
BDF1
330
BA9A
100
AcDbEntity
  8
1
  6
Continuous
100
AcDbCircle
 10
496.2151089999998
 20
297.6977749999999
 30
0.0
 40
4.75
100
AcDbArc
 50
0.0
 51
73.31440999999998
  0
LINE
  5
BDF2
330
BA9A
100
AcDbEntity
  8
1
  6
Continuous
100
AcDbLine
 10
499.6151089999998
 20
302.247775
 30
0.0
 11
499.6151089999998
 21
311.7477749999999
 31
0.0
  0
LINE
  5
BDF3
330
BA9A
100
AcDbEntity
  8
4
  6
CENTER
100
AcDbLine
 10
703.3158799999996
 20
151.0885159999999
 30
0.0
 11
703.3158799999996
 21
295.2477749999999
 31
0.0
  0
ARC
  5
BDF4
330
BA9A
100
AcDbEntity
  8
1
  6
Continuous
100
AcDbCircle
 10
703.3158799999996
 20
224.2477749999999
 30
0.0
 40
65.0
100
AcDbArc
 50
176.6166879999999
 51
117.9843759999998
  0
ARC
  5
BDF5
330
BA9A
100
AcDbEntity
  8
1
  6
Continuous
100
AcDbCircle
 10
703.3158799999996
 20
224.2477749999999
 30
0.0
 40
48.75
100
AcDbArc
 50
162.387455
 51
127.3266459999999
  0
ARC
  5
BDF6
330
BA9A
100
AcDbEntity
  8
1
  6
Continuous
100
AcDbCircle
 10
703.3158799999996
 20
224.2477749999999
 30
0.0
 40
45.0
100
AcDbArc
 50
163.4933979999999
 51
128.675419
  0
ARC
  5
BDF7
330
BA9A
100
AcDbEntity
  8
1
  6
Continuous
100
AcDbCircle
 10
703.3158799999996
 20
224.2477749999999
 30
0.0
 40
25.860509
100
AcDbArc
 50
173.955342
 51
122.044656
  0
LINE
  5
BDF9
330
BA9A
100
AcDbEntity
  8
4
  6
CENTER
100
AcDbLine
 10
629.976166
 20
224.2477749999999
 30
0.0
 11
775.165695
 21
224.2477749999999
 31
0.0
  0
ARC
  5
BDFA
330
BA9A
100
AcDbEntity
  8
1
  6
Continuous
100
AcDbCircle
 10
703.3158799999996
 20
224.2477749999999
 30
0.0
 40
20.5
100
AcDbArc
 50
180.8101569999998
 51
115.1898429999999
  0
ARC
  5
BDFB
330
BA9A
100
AcDbEntity
  8
1
  6
Continuous
100
AcDbCircle
 10
703.3158799999996
 20
224.2477749999999
 30
0.0
 40
16.0
100
AcDbArc
 50
191.0144999999999
 51
104.9855
  0
LINE
  5
BDFC
330
BA9A
100
AcDbEntity
  8
1
  6
Continuous
100
AcDbLine
 10
709.187405
 20
232.95267
 30
0.0
 11
682.7340400000001
 21
250.7956899999999
 31
0.0
  0
LINE
  5
BDFD
330
BA9A
100
AcDbEntity
  8
1
  6
Continuous
100
AcDbLine
 10
698.06588
 20
215.1545089999999
 30
0.0
 11
658.3158799999997
 21
238.1041819999999
 31
0.0
  0
LINE
  5
BDFE
330
BA9A
100
AcDbEntity
  8
1
  6
Continuous
100
AcDbLine
 10
636.373142
 20
265.0368919999999
 30
0.0
 11
634.0876459999998
 21
225.0477749999999
 31
0.0
  0
ARC
  5
BDFF
330
BA9A
100
AcDbEntity
  8
1
  6
Continuous
100
AcDbCircle
 10
675.81588
 20
268.415071
 30
0.0
 40
35.0
100
AcDbArc
 50
178.0829489999999
 51
239.9999999999999
  0
ARC
  5
BE00
330
BA9A
100
AcDbEntity
  8
1
  6
Continuous
100
AcDbCircle
 10
695.3158799999997
 20
269.4490359999999
 30
0.0
 40
22.5
100
AcDbArc
 50
180.0
 51
236.0
  0
ARC
  5
BE01
330
BA9A
100
AcDbEntity
  8
1
  6
Continuous
100
AcDbCircle
 10
664.5640110000003
 20
267.519914
 30
0.0
 40
27.7
100
AcDbArc
 50
180.0
 51
191.7462949999998
  0
LINE
  5
BE02
330
BA9A
100
AcDbEntity
  8
1
  6
Continuous
100
AcDbLine
 10
630.8221029999997
 20
265.350721
 30
0.0
 11
628.7081940000001
 21
228.363833
 31
0.0
  0
LINE
  5
BE03
330
BA9A
100
AcDbEntity
  8
1
  6
Continuous
100
AcDbLine
 10
638.1665799999998
 20
259.054344
 30
0.0
 11
636.394192
 21
258.685806
 31
0.0
  0
ARC
  5
BE04
330
BA9A
100
AcDbEntity
  8
1
  6
Continuous
100
AcDbCircle
 10
636.715223
 20
229.11451
 30
0.0
 40
1.399999999999999
100
AcDbArc
 50
283.951184
 51
69.49674499999999
  0
LINE
  5
BE05
330
BA9A
100
AcDbEntity
  8
1
  6
Continuous
100
AcDbLine
 10
637.415744
 20
230.9878149999999
 30
0.0
 11
634.489674
 21
232.0820169999998
 31
0.0
  0
LINE
  5
BE06
330
BA9A
100
AcDbEntity
  8
1
  6
Continuous
100
AcDbLine
 10
637.205588
 20
230.425824
 30
0.0
 11
634.453829
 21
231.454843
 31
0.0
  0
LINE
  5
BE07
330
BA9A
100
AcDbEntity
  8
1
  6
Continuous
100
AcDbLine
 10
634.166099
 20
226.4204589999999
 30
0.0
 11
637.1974129999999
 21
227.1735069999998
 31
0.0
  0
LINE
  5
BE08
330
BA9A
100
AcDbEntity
  8
1
  6
Continuous
100
AcDbLine
 10
634.0876459999998
 20
225.0547119999999
 30
0.0
 11
634.0876459999998
 21
225.0477749999999
 31
0.0
  0
LINE
  5
BE09
330
BA9A
100
AcDbEntity
  8
1
  6
Continuous
100
AcDbLine
 10
634.0876459999998
 20
225.0547119999999
 30
0.0
 11
634.0876459999998
 21
225.0477749999999
 31
0.0
  0
ARC
  5
BE0B
330
BA9A
100
AcDbEntity
  8
1
  6
Continuous
100
AcDbCircle
 10
634.8311189999998
 20
228.749495
 30
0.0
 40
1.5
100
AcDbArc
 50
283.951184
 51
107.4628279999999
  0
LINE
  5
BE0C
330
BA9A
100
AcDbEntity
  8
1
  6
Continuous
100
AcDbLine
 10
634.201942
 20
227.0475999999999
 30
0.0
 11
637.0527559999998
 21
227.7558079999999
 31
0.0
  0
LINE
  5
BE0D
330
BA9A
100
AcDbEntity
  8
1
  6
Continuous
100
AcDbLine
 10
634.0876459999998
 20
225.0547119999999
 30
0.0
 11
631.535898
 21
225.1973279999999
 31
0.0
  0
ARC
  5
BE0E
330
BA9A
100
AcDbEntity
  8
1
  6
Continuous
100
AcDbCircle
 10
631.7033059999999
 20
228.192654
 30
0.0
 40
3.0
100
AcDbArc
 50
176.728936
 51
266.801089
  0
ARC
  5
BE0F
330
BA9A
100
AcDbEntity
  8
1
  6
Continuous
100
AcDbCircle
 10
665.0640110000002
 20
267.519914
 30
0.0
 40
30.0
100
AcDbArc
 50
194.9088559999999
 51
197.125775
  0
ARC
  5
BE10
330
BA9A
100
AcDbEntity
  8
1
  6
Continuous
100
AcDbCircle
 10
703.3158799999996
 20
224.2477749999999
 30
0.0
 40
65.0
100
AcDbArc
 50
154.3681149999999
 51
175.024576
  0
ARC
  5
BE12
330
BA9A
100
AcDbEntity
  8
1
  6
Continuous
100
AcDbCircle
 10
636.715223
 20
229.11451
 30
0.0
 40
2.0
100
AcDbArc
 50
283.951184
 51
69.49674499999999
  0
ARC
  5
BE13
330
BA9A
100
AcDbEntity
  8
1
  6
Continuous
100
AcDbCircle
 10
666.836399
 20
267.8884519999999
 30
0.0
 40
30.0
100
AcDbArc
 50
191.5518909999999
 51
197.125775
  0
LINE
  5
BE14
330
BA9A
100
AcDbEntity
  8
4
  6
CENTER
100
AcDbLine
 10
611.282588
 20
272.647775
 30
0.0
 11
645.695907
 21
272.647775
 31
0.0
  0
ARC
  5
BE15
330
BA9A
100
AcDbEntity
  8
1
  6
Continuous
100
AcDbCircle
 10
642.5658799999999
 20
297.6977749999999
 30
0.0
 40
4.75
100
AcDbArc
 50
106.6855899999999
 51
180.0
  0
ARC
  5
BE16
330
BA9A
100
AcDbEntity
  8
1
  6
Continuous
100
AcDbCircle
 10
640.8158799999998
 20
286.7477749999998
 30
0.0
 40
7.0
100
AcDbArc
 50
225.584691
 51
314.4153089999999
  0
LINE
  5
BE17
330
BA9A
100
AcDbEntity
  8
1
  6
Continuous
100
AcDbLine
 10
638.8640109999998
 20
266.897775
 30
0.0
 11
636.8665110000002
 21
266.897775
 31
0.0
  0
ARC
  5
BE18
330
BA9A
100
AcDbEntity
  8
1
  6
Continuous
100
AcDbCircle
 10
637.864011
 20
276.9973589999998
 30
0.0
 40
1.0
100
AcDbArc
 50
106.229697
 51
180.0
  0
ARC
  5
BE19
330
BA9A
100
AcDbEntity
  8
1
  6
Continuous
100
AcDbCircle
 10
655.143889
 20
296.178154
 30
0.0
 40
18.50011999999999
100
AcDbArc
 50
173.265073
 51
215.452152
  0
LINE
  5
BE1A
330
BA9A
100
AcDbEntity
  8
1
  6
Continuous
100
AcDbLine
 10
650.81588
 20
283.347775
 30
0.0
 11
633.915426
 21
283.347775
 31
0.0
  0
LINE
  5
BE1B
330
BA9A
100
AcDbEntity
  8
1
  6
Continuous
100
AcDbLine
 10
650.81588
 20
281.747775
 30
0.0
 11
632.8221029999999
 21
281.747775
 31
0.0
  0
LINE
  5
BE1C
330
BA9A
100
AcDbEntity
  8
1
  6
Continuous
100
AcDbLine
 10
630.8221029999997
 20
295.3477759999998
 30
0.0
 11
630.8221029999997
 21
265.350721
 31
0.0
  0
ARC
  5
BE1D
330
BA9A
100
AcDbEntity
  8
1
  6
Continuous
100
AcDbCircle
 10
616.4057269999998
 20
266.178089
 30
0.0
 40
20.0
100
AcDbArc
 50
356.7289359999999
 51
2.223920999999998
  0
ARC
  5
BE1E
330
BA9A
100
AcDbEntity
  8
1
  6
Continuous
100
AcDbCircle
 10
634.075733
 20
280.7477749999998
 30
0.0
 40
1.0
100
AcDbArc
 50
90.0
 51
204.870163
  0
LINE
  5
BE1F
330
BA9A
100
AcDbEntity
  8
1
  6
Continuous
100
AcDbLine
 10
636.864011
 20
267.519914
 30
0.0
 11
636.864011
 21
276.9973589999998
 31
0.0
  0
ARC
  5
BE20
330
BA9A
100
AcDbEntity
  8
1
  6
Continuous
100
AcDbCircle
 10
686.5944559999998
 20
265.757039
 30
0.0
 40
53.140552
100
AcDbArc
 50
162.487492
 51
166.556388
  0
ARC
  5
BE21
330
BA9A
100
AcDbEntity
  8
1
  6
Continuous
100
AcDbCircle
 10
639.772994
 20
276.9491529999999
 30
0.0
 40
5.0
100
AcDbArc
 50
166.556388
 51
196.4778369999999
  0
ARC
  5
BE22
330
BA9A
100
AcDbEntity
  8
1
  6
Continuous
100
AcDbCircle
 10
601.38698
 20
265.594847
 30
0.0
 40
35.030068
100
AcDbArc
 50
2.223920999999998
 51
24.870163
  0
ARC
  5
BE23
330
BA9A
100
AcDbEntity
  8
1
  6
Continuous
100
AcDbCircle
 10
632.8221029999999
 20
279.747775
 30
0.0
 40
2.0
100
AcDbArc
 50
90.0
 51
179.9792689999999
  0
ARC
  5
BE24
330
BA9A
100
AcDbEntity
  8
1
  6
Continuous
100
AcDbCircle
 10
633.915426
 20
280.347775
 30
0.0
 40
3.0
100
AcDbArc
 50
90.0
 51
149.350579
  0
ARC
  5
BE25
330
BA9A
100
AcDbEntity
  8
1
  6
Continuous
100
AcDbCircle
 10
634.5348299999999
 20
279.9807399999999
 30
0.0
 40
3.719983
100
AcDbArc
 50
149.350579
 51
183.579337
  0
LINE
  5
BE26
330
BA9A
100
AcDbEntity
  8
1
  6
Continuous
100
AcDbLine
 10
636.771432
 20
298.3477759999999
 30
0.0
 11
633.8221029999997
 21
298.3477759999999
 31
0.0
  0
ARC
  5
BE27
330
BA9A
100
AcDbEntity
  8
1
  6
Continuous
100
AcDbCircle
 10
633.8221029999997
 20
295.3477759999998
 30
0.0
 40
3.0
100
AcDbArc
 50
90.0
 51
180.0
  0
LINE
  5
BE28
330
BA9A
100
AcDbEntity
  8
1
  6
Continuous
100
AcDbLine
 10
637.81588
 20
297.6977749999999
 30
0.0
 11
637.81588
 21
289.697834
 31
0.0
  0
LINE
  5
BE29
330
BA9A
100
AcDbEntity
  8
1
  6
Continuous
100
AcDbLine
 10
678.8158799999997
 20
297.6977749999999
 30
0.0
 11
678.8158799999997
 21
288.4477749999998
 31
0.0
  0
ARC
  5
BE2A
330
BA9A
100
AcDbEntity
  8
1
  6
Continuous
100
AcDbCircle
 10
644.1466889999998
 20
288.347775
 30
0.0
 40
5.0
100
AcDbArc
 50
215.452152
 51
270.0
  0
LINE
  5
BE2B
330
BA9A
100
AcDbEntity
  8
1
  6
Continuous
100
AcDbLine
 10
638.8640109999998
 20
266.897775
 30
0.0
 11
638.8640109999998
 21
278.3299529999998
 31
0.0
  0
ARC
  5
BE2C
330
BA9A
100
AcDbEntity
  8
1
  6
Continuous
100
AcDbCircle
 10
628.5931780000002
 20
272.647775
 30
0.0
 40
11.770833
100
AcDbArc
 50
330.758252
 51
28.916631
  0
LINE
  5
BE2D
330
BA9A
100
AcDbEntity
  8
1
  6
Continuous
100
AcDbLine
 10
637.584522
 20
277.957508
 30
0.0
 11
639.1893759999998
 21
278.424663
 31
0.0
  0
ARC
  5
BE2E
330
BA9A
100
AcDbEntity
  8
1
  6
Continuous
100
AcDbCircle
 10
590.8634540000001
 20
271.2585429999999
 30
0.0
 40
50.0
100
AcDbArc
 50
358.0829489999999
 51
7.276194
  0
ARC
  5
BE2F
330
BA9A
100
AcDbEntity
  8
1
  6
Continuous
100
AcDbCircle
 10
639.4688639999999
 20
277.464514
 30
0.0
 40
1.0
100
AcDbArc
 50
7.276194
 51
106.229697
  0
LINE
  5
BE30
330
BA9A
100
AcDbEntity
  8
1
  6
Continuous
100
AcDbLine
 10
650.81588
 20
283.347775
 30
0.0
 11
650.81588
 21
281.747775
 31
0.0
  0
LINE
  5
BE31
330
BA9A
100
AcDbEntity
  8
1
  6
Continuous
100
AcDbLine
 10
650.81588
 20
283.347775
 30
0.0
 11
644.1466889999998
 21
283.347775
 31
0.0
  0
LINE
  5
BE32
330
BA9A
100
AcDbEntity
  8
1
  6
Continuous
100
AcDbLine
 10
672.81588
 20
286.4477749999998
 30
0.0
 11
672.81588
 21
269.4490359999999
 31
0.0
  0
LINE
  5
BE33
330
BA9A
100
AcDbEntity
  8
1
  6
Continuous
100
AcDbLine
 10
674.8158799999997
 20
288.4477749999998
 30
0.0
 11
678.8158799999997
 21
288.4477749999998
 31
0.0
  0
ARC
  5
BE34
330
BA9A
100
AcDbEntity
  8
1
  6
Continuous
100
AcDbCircle
 10
674.8158799999997
 20
286.4477749999998
 30
0.0
 40
2.0
100
AcDbArc
 50
90.0
 51
180.0
  0
LINE
  5
BE35
330
BA9A
100
AcDbEntity
  8
1
  6
Continuous
100
AcDbLine
 10
639.16588
 20
302.247775
 30
0.0
 11
677.46588
 21
302.247775
 31
0.0
  0
LINE
  5
BE36
330
BA9A
100
AcDbEntity
  8
1
  6
Continuous
100
AcDbLine
 10
639.16588
 20
311.7477749999999
 30
0.0
 11
639.16588
 21
302.247775
 31
0.0
  0
ARC
  5
BE37
330
BA9A
100
AcDbEntity
  8
1
  6
Continuous
100
AcDbCircle
 10
645.66588
 20
311.7477749999999
 30
0.0
 40
6.5
100
AcDbArc
 50
90.0
 51
180.0
  0
LINE
  5
BE38
330
BA9A
100
AcDbEntity
  8
1
  6
Continuous
100
AcDbLine
 10
677.46588
 20
311.7477749999999
 30
0.0
 11
677.46588
 21
302.247775
 31
0.0
  0
ARC
  5
BE39
330
BA9A
100
AcDbEntity
  8
1
  6
Continuous
100
AcDbCircle
 10
674.06588
 20
297.6977749999999
 30
0.0
 40
4.75
100
AcDbArc
 50
0.0
 51
73.31440999999998
  0
ARC
  5
BE3A
330
BA9A
100
AcDbEntity
  8
1
  6
Continuous
100
AcDbCircle
 10
670.9658799999997
 20
311.7477749999999
 30
0.0
 40
6.5
100
AcDbArc
 50
0.0
 51
90.0
  0
ARC
  5
BE3D
330
BA9A
100
AcDbEntity
  8
1
  6
Continuous
100
AcDbCircle
 10
695.683447
 20
229.0170489999999
 30
0.0
 40
6.5
100
AcDbArc
 50
107.248118
 51
188.751882
  0
ARC
  5
BE3E
330
BA9A
100
AcDbEntity
  8
1
  6
Continuous
100
AcDbCircle
 10
703.3158799999996
 20
224.2477749999999
 30
0.0
 40
10.5
100
AcDbArc
 50
239.9999999999999
 51
56.0
  0
ARC
  5
BE3F
330
BA9A
100
AcDbEntity
  8
1
  6
Continuous
100
AcDbCircle
 10
703.3158799999996
 20
224.2477749999999
 30
0.0
 40
10.5
100
AcDbArc
 50
91.95056800000001
 51
204.049432
  0
ARC
  5
BE40
330
BA9A
100
AcDbEntity
  8
1
  6
Continuous
100
AcDbCircle
 10
707.0826019999998
 20
230.7719299999999
 30
0.0
 40
18.033445
100
AcDbArc
 50
188.751882
 51
209.470609
  0
CIRCLE
  5
BE41
330
BA9A
100
AcDbEntity
  8
1
  6
Continuous
100
AcDbCircle
 10
703.3158799999996
 20
224.2477749999999
 30
0.0
 40
8.0
  0
CIRCLE
  5
BE42
330
BA9A
100
AcDbEntity
  8
1
  6
Continuous
100
AcDbCircle
 10
703.3158799999996
 20
224.2477749999999
 30
0.0
 40
7.5
  0
LINE
  5
BE43
330
BA9A
100
AcDbEntity
  8
1
  6
Continuous
100
AcDbLine
 10
709.31588
 20
227.7118769999999
 30
0.0
 11
703.3158799999996
 21
231.175978
 31
0.0
  0
LINE
  5
BE44
330
BA9A
100
AcDbEntity
  8
1
  6
Continuous
100
AcDbLine
 10
697.31588
 20
227.7118769999999
 30
0.0
 11
697.31588
 21
220.7836739999999
 31
0.0
  0
LINE
  5
BE45
330
BA9A
100
AcDbEntity
  8
1
  6
Continuous
100
AcDbLine
 10
697.31588
 20
227.7118769999999
 30
0.0
 11
703.3158799999996
 21
231.175978
 31
0.0
  0
LINE
  5
BE46
330
BA9A
100
AcDbEntity
  8
1
  6
Continuous
100
AcDbLine
 10
709.31588
 20
227.7118769999999
 30
0.0
 11
709.31588
 21
220.7836739999999
 31
0.0
  0
CIRCLE
  5
BE47
330
BA9A
100
AcDbEntity
  8
1
  6
Continuous
100
AcDbCircle
 10
703.3158799999996
 20
224.2477749999999
 30
0.0
 40
6.0
  0
LINE
  5
BE48
330
BA9A
100
AcDbEntity
  8
1
  6
Continuous
100
AcDbLine
 10
703.3158799999996
 20
217.3195719999999
 30
0.0
 11
709.31588
 21
220.7836739999999
 31
0.0
  0
LINE
  5
BE49
330
BA9A
100
AcDbEntity
  8
1
  6
Continuous
100
AcDbLine
 10
703.3158799999996
 20
217.3195719999999
 30
0.0
 11
697.31588
 21
220.7836739999999
 31
0.0
  0
ARC
  5
BE4A
330
BA9A
100
AcDbEntity
  8
1
  6
Continuous
100
AcDbCircle
 10
699.1032309999999
 20
218.002267
 30
0.0
 40
18.033445
100
AcDbArc
 50
86.52939100000002
 51
107.248118
  0
LINE
  5
BE4B
330
BA9A
100
AcDbEntity
  8
4
  6
CENTER
100
AcDbLine
 10
486.237015
 20
302.341658
 30
0.0
 11
470.385862
 21
220.794543
 31
0.0
  0
ARC
  5
BE4C
330
BA9A
100
AcDbEntity
  8
1
  6
Continuous
100
AcDbCircle
 10
480.465109
 20
272.647775
 30
0.0
 40
7.0
100
AcDbArc
 50
157.1358309999999
 51
202.8641689999998
  0
CIRCLE
  5
BE4D
330
BA9A
100
AcDbEntity
  8
1
  6
Continuous
100
AcDbCircle
 10
480.465109
 20
272.647775
 30
0.0
 40
5.7
  0
LINE
  5
BE4E
330
BA9A
100
AcDbEntity
  8
1
  6
Continuous
100
AcDbLine
 10
474.015109
 20
268.897775
 30
0.0
 11
474.0151099999998
 21
276.397775
 31
0.0
  0
LINE
  5
BE4F
330
BA9A
100
AcDbEntity
  8
1
  6
Continuous
100
AcDbLine
 10
486.9151099999998
 20
268.897775
 30
0.0
 11
486.9151089999999
 21
276.397775
 31
0.0
  0
ARC
  5
BE50
330
BA9A
100
AcDbEntity
  8
1
  6
Continuous
100
AcDbCircle
 10
480.465109
 20
272.647775
 30
0.0
 40
7.0
100
AcDbArc
 50
337.135831
 51
22.864169
  0
LINE
  5
BE51
330
BA9A
100
AcDbEntity
  8
1
  6
Continuous
100
AcDbLine
 10
480.46511
 20
265.3477759999999
 30
0.0
 11
474.015109
 21
268.897775
 31
0.0
  0
ARC
  5
BE52
330
BA9A
100
AcDbEntity
  8
1
  6
Continuous
100
AcDbCircle
 10
480.465109
 20
272.647775
 30
0.0
 40
7.0
100
AcDbArc
 50
217.182443
 51
265.161875
  0
LINE
  5
BE53
330
BA9A
100
AcDbEntity
  8
1
  6
Continuous
100
AcDbLine
 10
480.46511
 20
265.3477759999999
 30
0.0
 11
486.9151099999998
 21
268.897775
 31
0.0
  0
ARC
  5
BE54
330
BA9A
100
AcDbEntity
  8
1
  6
Continuous
100
AcDbCircle
 10
480.465109
 20
272.647775
 30
0.0
 40
7.0
100
AcDbArc
 50
274.8381249999998
 51
322.8175569999998
  0
LINE
  5
BE55
330
BA9A
100
AcDbEntity
  8
1
  6
Continuous
100
AcDbLine
 10
480.465109
 20
279.9477759999999
 30
0.0
 11
474.0151099999998
 21
276.397775
 31
0.0
  0
ARC
  5
BE56
330
BA9A
100
AcDbEntity
  8
1
  6
Continuous
100
AcDbCircle
 10
480.465109
 20
272.647775
 30
0.0
 40
7.0
100
AcDbArc
 50
94.838125
 51
142.817557
  0
LINE
  5
BE57
330
BA9A
100
AcDbEntity
  8
1
  6
Continuous
100
AcDbLine
 10
480.465109
 20
279.9477759999999
 30
0.0
 11
486.9151089999999
 21
276.397775
 31
0.0
  0
ARC
  5
BE58
330
BA9A
100
AcDbEntity
  8
1
  6
Continuous
100
AcDbCircle
 10
480.465109
 20
272.647775
 30
0.0
 40
7.0
100
AcDbArc
 50
37.182443
 51
85.16187499999999
  0
ARC
  5
BE59
330
BA9A
100
AcDbEntity
  8
1
  6
Continuous
100
AcDbCircle
 10
348.8143379999999
 20
272.647775
 30
0.0
 40
6.0
100
AcDbArc
 50
269.7492439999999
 51
90.25075599999999
  0
LINE
  5
BE5A
330
BA9A
100
AcDbEntity
  8
1
  6
Continuous
100
AcDbLine
 10
348.8143379999999
 20
278.1727609999999
 30
0.0
 11
348.8143379999999
 21
267.12279
 31
0.0
  0
ARC
  5
BE5B
330
BA9A
100
AcDbEntity
  8
1
  6
Continuous
100
AcDbCircle
 10
360.682303
 20
272.6477599999999
 30
0.0
 40
18.567964
100
AcDbArc
 50
168.3483579999999
 51
191.6516419999999
  0
ARC
  5
BE5C
330
BA9A
100
AcDbEntity
  8
1
  6
Continuous
100
AcDbCircle
 10
330.246374
 20
272.6477599999999
 30
0.0
 40
18.567964
100
AcDbArc
 50
348.348358
 51
11.651642
  0
LINE
  5
BE5D
330
BA9A
100
AcDbEntity
  8
1
  6
Continuous
100
AcDbLine
 10
342.1143379999999
 20
265.647775
 30
0.0
 11
342.1143379999999
 21
279.647775
 31
0.0
  0
LINE
  5
BE5E
330
BA9A
100
AcDbEntity
  8
1
  6
Continuous
100
AcDbLine
 10
348.431733
 20
268.89776
 30
0.0
 11
342.496957
 21
268.89776
 31
0.0
  0
ARC
  5
BE5F
330
BA9A
100
AcDbEntity
  8
1
  6
Continuous
100
AcDbCircle
 10
344.5058409999999
 20
267.12279
 30
0.0
 40
4.308498
100
AcDbArc
 50
335.6709369999999
 51
24.329063
  0
ARC
  5
BE60
330
BA9A
100
AcDbEntity
  8
1
  6
Continuous
100
AcDbCircle
 10
346.4228359999999
 20
267.12279
 30
0.0
 40
4.308498
100
AcDbArc
 50
155.670937
 51
204.3290629999999
  0
LINE
  5
BE61
330
BA9A
100
AcDbEntity
  8
1
  6
Continuous
100
AcDbLine
 10
348.374934
 20
265.3477609999999
 30
0.0
 11
342.5537429999998
 21
265.3477609999999
 31
0.0
  0
LINE
  5
BE62
330
BA9A
100
AcDbEntity
  8
1
  6
Continuous
100
AcDbLine
 10
348.43172
 20
276.39776
 30
0.0
 11
342.496957
 21
276.39776
 31
0.0
  0
ARC
  5
BE63
330
BA9A
100
AcDbEntity
  8
1
  6
Continuous
100
AcDbCircle
 10
344.5058409999999
 20
278.1727609999999
 30
0.0
 40
4.308498
100
AcDbArc
 50
335.6709369999999
 51
24.329063
  0
ARC
  5
BE64
330
BA9A
100
AcDbEntity
  8
1
  6
Continuous
100
AcDbCircle
 10
346.4228359999999
 20
278.1727609999999
 30
0.0
 40
4.308498
100
AcDbArc
 50
155.670937
 51
204.3290629999999
  0
LINE
  5
BE65
330
BA9A
100
AcDbEntity
  8
1
  6
Continuous
100
AcDbLine
 10
348.43172
 20
279.947761
 30
0.0
 11
342.496957
 21
279.947761
 31
0.0
  0
LINE
  5
BE66
330
BA9A
100
AcDbEntity
  8
1
  6
Continuous
100
AcDbLine
 10
342.1143379999999
 20
279.647775
 30
0.0
 11
340.1081149999999
 21
279.647775
 31
0.0
  0
LINE
  5
BE67
330
BA9A
100
AcDbEntity
  8
1
  6
Continuous
100
AcDbLine
 10
342.1143379999999
 20
265.647775
 30
0.0
 11
340.1081149999999
 21
265.647775
 31
0.0
  0
ARC
  5
BE68
330
BA9A
100
AcDbEntity
  8
1
  6
Continuous
100
AcDbCircle
 10
348.8143379999999
 20
482.0485979999999
 30
0.0
 40
6.0
100
AcDbArc
 50
267.3166399999999
 51
92.68335999999996
  0
LINE
  5
BE69
330
BA9A
100
AcDbEntity
  8
1
  6
Continuous
100
AcDbLine
 10
348.8143379999999
 20
485.273598
 30
0.0
 11
348.8143379999999
 21
478.823598
 31
0.0
  0
ARC
  5
BE6A
330
BA9A
100
AcDbEntity
  8
1
  6
Continuous
100
AcDbCircle
 10
335.0316569999999
 20
478.823598
 30
0.0
 40
13.782681
100
AcDbArc
 50
346.467948
 51
13.532053
  0
ARC
  5
BE6B
330
BA9A
100
AcDbEntity
  8
1
  6
Continuous
100
AcDbCircle
 10
355.89702
 20
478.823598
 30
0.0
 40
13.782681
100
AcDbArc
 50
166.467947
 51
193.5320519999999
  0
LINE
  5
BE6C
330
BA9A
100
AcDbEntity
  8
1
  6
Continuous
100
AcDbLine
 10
342.1143379999999
 20
489.048598
 30
0.0
 11
342.1143379999999
 21
475.048598
 31
0.0
  0
LINE
  5
BE6D
330
BA9A
100
AcDbEntity
  8
1
  6
Continuous
100
AcDbLine
 10
348.43172
 20
475.598599
 30
0.0
 11
342.496957
 21
475.598599
 31
0.0
  0
LINE
  5
BE6E
330
BA9A
100
AcDbEntity
  8
1
  6
Continuous
100
AcDbLine
 10
342.496957
 20
488.498598
 30
0.0
 11
348.43172
 21
488.498598
 31
0.0
  0
ARC
  5
BE6F
330
BA9A
100
AcDbEntity
  8
1
  6
Continuous
100
AcDbCircle
 10
355.89702
 20
485.273598
 30
0.0
 40
13.782681
100
AcDbArc
 50
166.467948
 51
193.532053
  0
ARC
  5
BE70
330
BA9A
100
AcDbEntity
  8
1
  6
Continuous
100
AcDbCircle
 10
335.0316569999999
 20
485.273598
 30
0.0
 40
13.782681
100
AcDbArc
 50
346.467947
 51
13.53205199999999
  0
LINE
  5
BE71
330
BA9A
100
AcDbEntity
  8
1
  6
Continuous
100
AcDbLine
 10
348.8143379999999
 20
482.0485979999999
 30
0.0
 11
342.1143379999999
 21
482.0485979999999
 31
0.0
  0
LINE
  5
BE72
330
BA9A
100
AcDbEntity
  8
1
  6
Continuous
100
AcDbLine
 10
342.1143379999999
 20
475.048598
 30
0.0
 11
340.1143379999999
 21
475.048598
 31
0.0
  0
LINE
  5
BE73
330
BA9A
100
AcDbEntity
  8
1
  6
Continuous
100
AcDbLine
 10
342.1143379999999
 20
489.048598
 30
0.0
 11
340.1143379999999
 21
489.048598
 31
0.0
  0
ARC
  5
BE74
330
BA9A
100
AcDbEntity
  8
1
  6
Continuous
100
AcDbCircle
 10
337.73816
 20
482.0485979999999
 30
0.0
 40
10.190699
100
AcDbArc
 50
39.26663099999998
 51
76.51615200000001
  0
ARC
  5
BE75
330
BA9A
100
AcDbEntity
  8
1
  6
Continuous
100
AcDbCircle
 10
337.73816
 20
482.0485979999999
 30
0.0
 40
10.190699
100
AcDbArc
 50
283.483848
 51
320.7333729999998
  0
ARC
  5
BE76
330
BA9A
100
AcDbEntity
  8
1
  6
Continuous
100
AcDbCircle
 10
622.1158799999998
 20
272.647775
 30
0.0
 40
6.0
100
AcDbArc
 50
89.74924399999997
 51
270.250756
  0
ARC
  5
BE77
330
BA9A
100
AcDbEntity
  8
1
  6
Continuous
100
AcDbCircle
 10
626.4243780000001
 20
267.12279
 30
0.0
 40
4.308498
100
AcDbArc
 50
155.670937
 51
204.3290629999999
  0
ARC
  5
BE78
330
BA9A
100
AcDbEntity
  8
1
  6
Continuous
100
AcDbCircle
 10
624.5073819999999
 20
267.12279
 30
0.0
 40
4.308498
100
AcDbArc
 50
335.6709369999999
 51
24.329063
  0
LINE
  5
BE79
330
BA9A
100
AcDbEntity
  8
1
  6
Continuous
100
AcDbLine
 10
622.498499
 20
268.8977899999998
 30
0.0
 11
628.4332609999998
 21
268.8977899999998
 31
0.0
  0
LINE
  5
BE7A
330
BA9A
100
AcDbEntity
  8
1
  6
Continuous
100
AcDbLine
 10
622.498499
 20
265.3477899999999
 30
0.0
 11
628.4332609999998
 21
265.3477899999999
 31
0.0
  0
ARC
  5
BE7B
330
BA9A
100
AcDbEntity
  8
1
  6
Continuous
100
AcDbCircle
 10
626.4243780000001
 20
278.1727609999999
 30
0.0
 40
4.308498
100
AcDbArc
 50
155.670937
 51
204.3290629999999
  0
ARC
  5
BE7C
330
BA9A
100
AcDbEntity
  8
1
  6
Continuous
100
AcDbCircle
 10
624.5073819999999
 20
278.1727609999999
 30
0.0
 40
4.308498
100
AcDbArc
 50
335.6709369999999
 51
24.329063
  0
LINE
  5
BE7D
330
BA9A
100
AcDbEntity
  8
1
  6
Continuous
100
AcDbLine
 10
622.4984849999997
 20
276.3977899999998
 30
0.0
 11
628.4332609999998
 21
276.3977899999998
 31
0.0
  0
LINE
  5
BE7E
330
BA9A
100
AcDbEntity
  8
1
  6
Continuous
100
AcDbLine
 10
622.555284
 20
279.9477899999998
 30
0.0
 11
628.376476
 21
279.9477899999998
 31
0.0
  0
LINE
  5
BE7F
330
BA9A
100
AcDbEntity
  8
1
  6
Continuous
100
AcDbLine
 10
622.1158799999998
 20
267.12279
 30
0.0
 11
622.1158799999998
 21
278.1727609999999
 31
0.0
  0
ARC
  5
BE80
330
BA9A
100
AcDbEntity
  8
1
  6
Continuous
100
AcDbCircle
 10
610.247916
 20
272.6477899999998
 30
0.0
 40
18.567964
100
AcDbArc
 50
348.348358
 51
11.651642
  0
ARC
  5
BE81
330
BA9A
100
AcDbEntity
  8
1
  6
Continuous
100
AcDbCircle
 10
640.683844
 20
272.6477899999998
 30
0.0
 40
18.567964
100
AcDbArc
 50
168.3483579999999
 51
191.6516419999999
  0
LINE
  5
BE82
330
BA9A
100
AcDbEntity
  8
1
  6
Continuous
100
AcDbLine
 10
628.8158799999997
 20
279.647775
 30
0.0
 11
628.8158799999997
 21
265.647775
 31
0.0
  0
LINE
  5
BE83
330
BA9A
100
AcDbEntity
  8
1
  6
Continuous
100
AcDbLine
 10
628.8158799999997
 20
279.647775
 30
0.0
 11
630.8221029999997
 21
279.647775
 31
0.0
  0
LINE
  5
BE84
330
BA9A
100
AcDbEntity
  8
1
  6
Continuous
100
AcDbLine
 10
628.8158799999997
 20
265.647775
 30
0.0
 11
630.8221029999997
 21
265.647775
 31
0.0
  0
ARC
  5
BE85
330
BA9A
100
AcDbEntity
  8
1
  6
Continuous
100
AcDbCircle
 10
348.8143379999999
 20
76.03216299999998
 30
0.0
 40
6.0
100
AcDbArc
 50
267.3166399999999
 51
92.68335999999996
  0
LINE
  5
BE86
330
BA9A
100
AcDbEntity
  8
1
  6
Continuous
100
AcDbLine
 10
348.8143379999999
 20
72.807163
 30
0.0
 11
348.8143379999999
 21
79.25716300000002
 31
0.0
  0
ARC
  5
BE87
330
BA9A
100
AcDbEntity
  8
1
  6
Continuous
100
AcDbCircle
 10
335.0316569999999
 20
72.807163
 30
0.0
 40
13.782681
100
AcDbArc
 50
346.467948
 51
13.532053
  0
ARC
  5
BE88
330
BA9A
100
AcDbEntity
  8
1
  6
Continuous
100
AcDbCircle
 10
335.0316569999999
 20
79.25716300000002
 30
0.0
 40
13.782681
100
AcDbArc
 50
346.467947
 51
13.53205199999999
  0
LINE
  5
BE89
330
BA9A
100
AcDbEntity
  8
1
  6
Continuous
100
AcDbLine
 10
348.43172
 20
82.48216199999998
 30
0.0
 11
345.6278909999999
 21
82.48216199999998
 31
0.0
  0
LINE
  5
BE8A
330
BA9A
100
AcDbEntity
  8
1
  6
Continuous
100
AcDbLine
 10
348.8143379999999
 20
76.03216299999998
 30
0.0
 11
347.9288589999999
 21
76.03216299999998
 31
0.0
  0
LINE
  5
BE8B
330
BA9A
100
AcDbEntity
  8
1
  6
Continuous
100
AcDbLine
 10
345.6278909999999
 20
69.582163
 30
0.0
 11
348.43172
 21
69.582163
 31
0.0
  0
ARC
  5
BE8C
330
BA9A
100
AcDbEntity
  8
1
  6
Continuous
100
AcDbCircle
 10
317.0774149999999
 20
262.6321779999999
 30
0.0
 40
36.55715
100
AcDbArc
 50
312.5582999999999
 51
325.8577339999998
  0
ARC
  5
BE8D
330
BA9A
100
AcDbEntity
  8
1
  6
Continuous
100
AcDbCircle
 10
326.1517659999999
 20
231.221608
 30
0.0
 40
25.455174
100
AcDbArc
 50
34.11052999999999
 51
54.67092399999999
  0
ARC
  5
BE8E
330
BA9A
100
AcDbEntity
  8
1
  6
Continuous
100
AcDbCircle
 10
345.441098
 20
243.7477749999999
 30
0.0
 40
2.5
100
AcDbArc
 50
319.208017
 51
44.39072699999999
  0
ARC
  5
BE8F
330
BA9A
100
AcDbEntity
  8
1
  6
Continuous
100
AcDbCircle
 10
653.852803
 20
262.6321779999999
 30
0.0
 40
36.55715
100
AcDbArc
 50
214.142266
 51
227.4417
  0
ARC
  5
BE90
330
BA9A
100
AcDbEntity
  8
1
  6
Continuous
100
AcDbCircle
 10
625.4891200000002
 20
243.7477749999999
 30
0.0
 40
2.5
100
AcDbArc
 50
135.609273
 51
220.791983
  0
ARC
  5
BE91
330
BA9A
100
AcDbEntity
  8
1
  6
Continuous
100
AcDbCircle
 10
644.7784519999999
 20
231.221608
 30
0.0
 40
25.455174
100
AcDbArc
 50
125.329076
 51
145.8894699999999
  0
CIRCLE
  5
BE97
330
BA9A
100
AcDbEntity
  8
1
  6
Continuous
100
AcDbCircle
 10
231.6143382388009
 20
224.2477752928931
 30
0.0
 40
3.5
  0
CIRCLE
  5
BE98
330
BA9A
100
AcDbEntity
  8
1
  6
Continuous
100
AcDbCircle
 10
267.6143387071066
 20
260.247775761199
 30
0.0
 40
3.5
  0
CIRCLE
  5
BE99
330
BA9A
100
AcDbEntity
  8
1
  6
Continuous
100
AcDbCircle
 10
303.6143387611989
 20
224.2477757071067
 30
0.0
 40
3.5
  0
CIRCLE
  5
BE9A
330
BA9A
100
AcDbEntity
  8
1
  6
Continuous
100
AcDbCircle
 10
267.6143387071066
 20
188.2477752388009
 30
0.0
 40
3.5
  0
CIRCLE
  5
BE9B
330
BA9A
100
AcDbEntity
  8
1
  6
Continuous
100
AcDbCircle
 10
667.3158792388008
 20
224.2477757071067
 30
0.0
 40
3.5
  0
CIRCLE
  5
BE9C
330
BA9A
100
AcDbEntity
  8
1
  6
Continuous
100
AcDbCircle
 10
703.315879292893
 20
260.247775761199
 30
0.0
 40
3.5
  0
CIRCLE
  5
BE9D
330
BA9A
100
AcDbEntity
  8
1
  6
Continuous
100
AcDbCircle
 10
739.3158807611988
 20
224.2477752928931
 30
0.0
 40
3.499999999999998
  0
CIRCLE
  5
BE9E
330
BA9A
100
AcDbEntity
  8
1
  6
Continuous
100
AcDbCircle
 10
703.315879292893
 20
188.2477752388009
 30
0.0
 40
3.5
  0
ENDSEC
  0
SECTION
  2
OBJECTS
  0
DICTIONARY
  5
BA88
330
0
100
AcDbDictionary
281
     1
  3
ACAD_CIP_PREVIOUS_PRODUCT_INFO
350
BEFF
  3
ACAD_COLOR
350
BEE1
  3
ACAD_DETAILVIEWSTYLE
350
BEFA
  3
ACAD_GROUP
350
BA89
  3
ACAD_LAYOUT
350
BA95
  3
ACAD_MATERIAL
350
BEAF
  3
ACAD_MLEADERSTYLE
350
BEF6
  3
ACAD_MLINESTYLE
350
BA92
  3
ACAD_PLOTSETTINGS
350
BA94
  3
ACAD_PLOTSTYLENAME
350
BEAD
  3
ACAD_SCALELIST
350
BEE4
  3
ACAD_SECTIONVIEWSTYLE
350
BEF8
  3
ACAD_TABLESTYLE
350
BEE2
  3
ACAD_VISUALSTYLE
350
BEC8
  3
ACDB_RECOMPOSE_DATA
350
BF1D
  3
AcDbVariableDictionary
350
BF10
  3
DWGPROPS
350
BF1E
  0
DICTIONARY
  5
BF00
330
BA8C
100
AcDbDictionary
280
     1
281
     1
  3
ADSK_XREC_LAYER_RECONCILED
360
BF01
  0
DICTIONARY
  5
BF02
330
BAA2
100
AcDbDictionary
280
     1
281
     1
  3
ADSK_XREC_LAYER_RECONCILED
360
BF03
  0
DICTIONARY
  5
BF04
330
BAA3
100
AcDbDictionary
280
     1
281
     1
  3
ADSK_XREC_LAYER_RECONCILED
360
BF05
  0
DICTIONARY
  5
BF06
330
BAA4
100
AcDbDictionary
280
     1
281
     1
  3
ADSK_XREC_LAYER_RECONCILED
360
BF07
  0
DICTIONARY
  5
BF08
330
BAA5
100
AcDbDictionary
280
     1
281
     1
  3
ADSK_XREC_LAYER_RECONCILED
360
BF09
  0
DICTIONARY
  5
BF0A
330
BAA6
100
AcDbDictionary
280
     1
281
     1
  3
ADSK_XREC_LAYER_RECONCILED
360
BF0B
  0
DICTIONARY
  5
BF0C
330
BAA7
100
AcDbDictionary
280
     1
281
     1
  3
ADSK_XREC_LAYER_RECONCILED
360
BF0D
  0
DICTIONARY
  5
BF0E
330
BAA8
100
AcDbDictionary
280
     1
281
     1
  3
ADSK_XREC_LAYER_RECONCILED
360
BF0F
  0
DICTIONARY
  5
BEA8
330
BA9A
100
AcDbDictionary
281
     1
  3
ACAD_LAYOUTSELFREF
350
BEA9
  0
DICTIONARY
  5
BEA6
330
BA96
100
AcDbDictionary
281
     1
  3
ACAD_LAYOUTSELFREF
350
BEA7
  0
XRECORD
  5
BEFF
102
{ACAD_REACTORS
330
BA88
102
}
330
BA88
100
AcDbXrecord
280
     1
300
ACDLT
300
2014
300
ACDLT_F_S
  0
DICTIONARY
  5
BEE1
102
{ACAD_REACTORS
330
BA88
102
}
330
BA88
100
AcDbDictionary
281
     1
  0
DICTIONARY
  5
BEFA
102
{ACAD_REACTORS
330
BA88
102
}
330
BA88
100
AcDbDictionary
281
     1
  3
Imperial24
350
BEFB
  0
DICTIONARY
  5
BA89
102
{ACAD_REACTORS
330
BA88
102
}
330
BA88
100
AcDbDictionary
281
     1
  0
DICTIONARY
  5
BA95
102
{ACAD_REACTORS
330
BA88
102
}
330
BA88
100
AcDbDictionary
281
     1
  3
Model
350
BEFC
  3
レイアウト1
350
BEFD
  0
DICTIONARY
  5
BEAF
102
{ACAD_REACTORS
330
BA88
102
}
330
BA88
100
AcDbDictionary
281
     1
  3
ByBlock
350
BEB8
  3
ByLayer
350
BEB0
  3
Global
350
BEC0
  0
DICTIONARY
  5
BEF6
102
{ACAD_REACTORS
330
BA88
102
}
330
BA88
100
AcDbDictionary
281
     1
  3
Standard
350
BEF7
  0
DICTIONARY
  5
BA92
102
{ACAD_REACTORS
330
BA88
102
}
330
BA88
100
AcDbDictionary
281
     1
  3
STANDARD
350
BA93
  0
DICTIONARY
  5
BA94
102
{ACAD_REACTORS
330
BA88
102
}
330
BA88
100
AcDbDictionary
281
     1
  0
ACDBDICTIONARYWDFLT
  5
BEAD
102
{ACAD_REACTORS
330
BA88
102
}
330
BA88
100
AcDbDictionary
281
     1
  3
Normal
350
BEAE
100
AcDbDictionaryWithDefault
340
BEAE
  0
DICTIONARY
  5
BEE4
102
{ACAD_REACTORS
330
BA88
102
}
330
BA88
100
AcDbDictionary
281
     1
  3
A0
350
BEE5
  3
A1
350
BEE6
  3
A2
350
BEE7
  3
A3
350
BEE8
  3
A4
350
BEE9
  3
A5
350
BEEA
  3
A6
350
BEEB
  3
A7
350
BEEC
  3
A8
350
BEED
  3
A9
350
BEEE
  3
B0
350
BEEF
  3
B1
350
BEF0
  3
B2
350
BEF1
  3
B3
350
BEF2
  3
B4
350
BEF3
  3
B5
350
BEF4
  3
B6
350
BEF5
  0
DICTIONARY
  5
BEF8
102
{ACAD_REACTORS
330
BA88
102
}
330
BA88
100
AcDbDictionary
281
     1
  3
Imperial24
350
BEF9
  0
DICTIONARY
  5
BEE2
102
{ACAD_REACTORS
330
BA88
102
}
330
BA88
100
AcDbDictionary
281
     1
  3
Standard
350
BEE3
  0
DICTIONARY
  5
BEC8
102
{ACAD_REACTORS
330
BA88
102
}
330
BA88
100
AcDbDictionary
281
     1
  3
2dWireframe
350
BECE
  3
Basic
350
BECD
  3
Brighten
350
BED4
  3
ColorChange
350
BED8
  3
Conceptual
350
BED1
  3
Dim
350
BED3
  3
EdgeColorOff
350
BEE0
  3
Facepattern
350
BED7
  3
Flat
350
BEC9
  3
FlatWithEdges
350
BECA
  3
Gouraud
350
BECB
  3
GouraudWithEdges
350
BECC
  3
Hidden
350
BED0
  3
JitterOff
350
BEDE
  3
Linepattern
350
BED6
  3
OverhangOff
350
BEDF
  3
Realistic
350
BED2
  3
Shaded
350
BEDD
  3
Shaded with edges
350
BEDC
  3
Shades of Gray
350
BED9
  3
Sketchy
350
BEDA
  3
Thicken
350
BED5
  3
Wireframe
350
BECF
  3
X-Ray
350
BEDB
  0
XRECORD
  5
BF1D
102
{ACAD_REACTORS
330
BA88
102
}
330
BA88
100
AcDbXrecord
280
     1
 90
        1
330
BEE3
  0
DICTIONARY
  5
BF10
102
{ACAD_REACTORS
330
BA88
102
}
330
BA88
100
AcDbDictionary
281
     1
  3
CANNOSCALE
350
BF15
  3
CMLEADERSTYLE
350
BF12
  3
CTABLESTYLE
350
BF11
  3
CVIEWDETAILSTYLE
350
BF13
  3
CVIEWSECTIONSTYLE
350
BF14
  3
DIMASSOC
350
BF18
  3
INDEXCTL
350
BF17
  3
SORTENTS
350
BF16
  3
XCLIPFRAME
350
BF19
  0
XRECORD
  5
BF1E
102
{ACAD_REACTORS
330
BA88
102
}
330
BA88
100
AcDbXrecord
280
     1
  1
DWGPROPS COOKIE
  2

  3

  4

  6

  7

  8
Yoshitsune
  9

300
=
301
=
302
=
303
=
304
=
305
=
306
=
307
=
308
=
309
=
 40
0.0004410069444444
 41
2451301.773670602
 42
2457618.723895521
  1

 90
        0
  0
XRECORD
  5
BF01
102
{ACAD_REACTORS
330
BF00
102
}
330
BF00
100
AcDbXrecord
280
     1
290
     1
  0
XRECORD
  5
BF03
102
{ACAD_REACTORS
330
BF02
102
}
330
BF02
100
AcDbXrecord
280
     1
290
     1
  0
XRECORD
  5
BF05
102
{ACAD_REACTORS
330
BF04
102
}
330
BF04
100
AcDbXrecord
280
     1
290
     1
  0
XRECORD
  5
BF07
102
{ACAD_REACTORS
330
BF06
102
}
330
BF06
100
AcDbXrecord
280
     1
290
     1
  0
XRECORD
  5
BF09
102
{ACAD_REACTORS
330
BF08
102
}
330
BF08
100
AcDbXrecord
280
     1
290
     1
  0
XRECORD
  5
BF0B
102
{ACAD_REACTORS
330
BF0A
102
}
330
BF0A
100
AcDbXrecord
280
     1
290
     1
  0
XRECORD
  5
BF0D
102
{ACAD_REACTORS
330
BF0C
102
}
330
BF0C
100
AcDbXrecord
280
     1
290
     1
  0
XRECORD
  5
BF0F
102
{ACAD_REACTORS
330
BF0E
102
}
330
BF0E
100
AcDbXrecord
280
     1
290
     1
  0
XRECORD
  5
BEA9
102
{ACAD_REACTORS
330
BEA8
102
}
330
BEA8
100
AcDbXrecord
280
     1
340
BA9A
  0
XRECORD
  5
BEA7
102
{ACAD_REACTORS
330
BEA6
102
}
330
BEA6
100
AcDbXrecord
280
     1
340
BA96
  0
ACDBDETAILVIEWSTYLE
  5
BEFB
102
{ACAD_XDICTIONARY
360
BF56
102
}
102
{ACAD_REACTORS
330
BEFA
102
}
330
BEFA
100
AcDbModelDocViewStyle
 70
     0
  3
Imperial24
290
     0
100
AcDbDetailViewStyle
 70
     0
 71
     0
 90
        3
 71
     1
340
BA8D
 40
0.24
340
0
 40
0.24
300

 40
0.36
280
     3
 71
     2
340
BA91
 90
       25
 71
     3
340
BA8D
 40
0.24
 90
        1
 40
0.75
 90
        1
300
%<\AcVar ViewType \f "%tc1">% %<\AcVar ViewDetailId>%\PSCALE %<\AcVar ViewScale \f "%sn">%
 71
     4
340
BA91
 90
       25
340
BA91
 90
       25
280
     0
  0
LAYOUT
  5
BEFC
102
{ACAD_XDICTIONARY
360
BF58
102
}
102
{ACAD_REACTORS
330
BA95
102
}
330
BA95
100
AcDbPlotSettings
  1

  2
Canon LBP9100C
  4

  6

 40
0.0
 41
0.0
 42
0.0
 43
0.0
 44
0.0
 45
0.0
 46
0.0
 47
0.0
 48
0.0
 49
0.0
140
0.0
141
0.0
142
1.0
143
1.0
 70
  1712
 72
     0
 73
     0
 74
     0
  7

 75
     0
147
1.0
148
0.0
149
0.0
100
AcDbLayout
  1
Model
 70
     1
 71
     0
 10
0.0
 20
0.0
 11
12.0
 21
9.0
 12
0.0
 22
0.0
 32
0.0
 14
0.0
 24
0.0
 34
0.0
 15
0.0
 25
0.0
 35
0.0
146
0.0
 13
0.0
 23
0.0
 33
0.0
 16
1.0
 26
0.0
 36
0.0
 17
0.0
 27
1.0
 37
0.0
 76
     0
330
BA9A
331
BEA5
  0
LAYOUT
  5
BEFD
102
{ACAD_XDICTIONARY
360
BF5A
102
}
102
{ACAD_REACTORS
330
BA95
102
}
330
BA95
100
AcDbPlotSettings
  1

  2
Canon LBP9100C
  4

  6

 40
0.0
 41
0.0
 42
0.0
 43
0.0
 44
0.0
 45
0.0
 46
0.0
 47
0.0
 48
0.0
 49
0.0
140
0.0
141
0.0
142
1.0
143
1.0
 70
   688
 72
     0
 73
     0
 74
     5
  7

 75
    16
147
1.0
148
0.0
149
0.0
100
AcDbLayout
  1
レイアウト1
 70
     0
 71
     1
 10
0.0
 20
0.0
 11
420.0
 21
297.0
 12
0.0
 22
0.0
 32
0.0
 14
1.000000000000000E+20
 24
1.000000000000000E+20
 34
1.000000000000000E+20
 15
-1.000000000000000E+20
 25
-1.000000000000000E+20
 35
-1.000000000000000E+20
146
0.0
 13
0.0
 23
0.0
 33
0.0
 16
1.0
 26
0.0
 36
0.0
 17
0.0
 27
1.0
 37
0.0
 76
     0
330
BA96
  0
MATERIAL
  5
BEB8
102
{ACAD_XDICTIONARY
360
BEB9
102
}
102
{ACAD_REACTORS
330
BEAF
102
}
330
BEAF
100
AcDbMaterial
  1
ByBlock
 72
     0
 43
0.0208333333333333
 43
0.0
 43
0.0
 43
0.0
 43
0.0
 43
0.0208333333333333
 43
0.0
 43
0.0
 43
0.0
 43
0.0
 43
1.0
 43
0.0
 43
0.0
 43
0.0
 43
0.0
 43
1.0
 77
     0
 47
0.0208333333333333
 47
0.0
 47
0.0
 47
0.0
 47
0.0
 47
0.0208333333333333
 47
0.0
 47
0.0
 47
0.0
 47
0.0
 47
1.0
 47
0.0
 47
0.0
 47
0.0
 47
0.0
 47
1.0
171
     0
 49
0.0208333333333333
 49
0.0
 49
0.0
 49
0.0
 49
0.0
 49
0.0208333333333333
 49
0.0
 49
0.0
 49
0.0
 49
0.0
 49
1.0
 49
0.0
 49
0.0
 49
0.0
 49
0.0
 49
1.0
175
     0
142
0.0208333333333333
142
0.0
142
0.0
142
0.0
142
0.0
142
0.0208333333333333
142
0.0
142
0.0
142
0.0
142
0.0
142
1.0
142
0.0
142
0.0
142
0.0
142
0.0
142
1.0
179
     0
144
0.0208333333333333
144
0.0
144
0.0
144
0.0
144
0.0
144
0.0208333333333333
144
0.0
144
0.0
144
0.0
144
0.0
144
1.0
144
0.0
144
0.0
144
0.0
144
0.0
144
1.0
147
0.0208333333333333
147
0.0
147
0.0
147
0.0
147
0.0
147
0.0208333333333333
147
0.0
147
0.0
147
0.0
147
0.0
147
1.0
147
0.0
147
0.0
147
0.0
147
0.0
147
1.0
  0
MATERIAL
  5
BEB0
102
{ACAD_XDICTIONARY
360
BEB1
102
}
102
{ACAD_REACTORS
330
BEAF
102
}
330
BEAF
100
AcDbMaterial
  1
ByLayer
 72
     0
 43
0.0208333333333333
 43
0.0
 43
0.0
 43
0.0
 43
0.0
 43
0.0208333333333333
 43
0.0
 43
0.0
 43
0.0
 43
0.0
 43
1.0
 43
0.0
 43
0.0
 43
0.0
 43
0.0
 43
1.0
 77
     0
 47
0.0208333333333333
 47
0.0
 47
0.0
 47
0.0
 47
0.0
 47
0.0208333333333333
 47
0.0
 47
0.0
 47
0.0
 47
0.0
 47
1.0
 47
0.0
 47
0.0
 47
0.0
 47
0.0
 47
1.0
171
     0
 49
0.0208333333333333
 49
0.0
 49
0.0
 49
0.0
 49
0.0
 49
0.0208333333333333
 49
0.0
 49
0.0
 49
0.0
 49
0.0
 49
1.0
 49
0.0
 49
0.0
 49
0.0
 49
0.0
 49
1.0
175
     0
142
0.0208333333333333
142
0.0
142
0.0
142
0.0
142
0.0
142
0.0208333333333333
142
0.0
142
0.0
142
0.0
142
0.0
142
1.0
142
0.0
142
0.0
142
0.0
142
0.0
142
1.0
179
     0
144
0.0208333333333333
144
0.0
144
0.0
144
0.0
144
0.0
144
0.0208333333333333
144
0.0
144
0.0
144
0.0
144
0.0
144
1.0
144
0.0
144
0.0
144
0.0
144
0.0
144
1.0
147
0.0208333333333333
147
0.0
147
0.0
147
0.0
147
0.0
147
0.0208333333333333
147
0.0
147
0.0
147
0.0
147
0.0
147
1.0
147
0.0
147
0.0
147
0.0
147
0.0
147
1.0
  0
MATERIAL
  5
BEC0
102
{ACAD_XDICTIONARY
360
BEC1
102
}
102
{ACAD_REACTORS
330
BEAF
102
}
330
BEAF
100
AcDbMaterial
  1
Global
 72
     0
 43
0.0208333333333333
 43
0.0
 43
0.0
 43
0.0
 43
0.0
 43
0.0208333333333333
 43
0.0
 43
0.0
 43
0.0
 43
0.0
 43
1.0
 43
0.0
 43
0.0
 43
0.0
 43
0.0
 43
1.0
 77
     0
 47
0.0208333333333333
 47
0.0
 47
0.0
 47
0.0
 47
0.0
 47
0.0208333333333333
 47
0.0
 47
0.0
 47
0.0
 47
0.0
 47
1.0
 47
0.0
 47
0.0
 47
0.0
 47
0.0
 47
1.0
171
     0
 49
0.0208333333333333
 49
0.0
 49
0.0
 49
0.0
 49
0.0
 49
0.0208333333333333
 49
0.0
 49
0.0
 49
0.0
 49
0.0
 49
1.0
 49
0.0
 49
0.0
 49
0.0
 49
0.0
 49
1.0
175
     0
142
0.0208333333333333
142
0.0
142
0.0
142
0.0
142
0.0
142
0.0208333333333333
142
0.0
142
0.0
142
0.0
142
0.0
142
1.0
142
0.0
142
0.0
142
0.0
142
0.0
142
1.0
179
     0
144
0.0208333333333333
144
0.0
144
0.0
144
0.0
144
0.0
144
0.0208333333333333
144
0.0
144
0.0
144
0.0
144
0.0
144
1.0
144
0.0
144
0.0
144
0.0
144
0.0
144
1.0
147
0.0208333333333333
147
0.0
147
0.0
147
0.0
147
0.0
147
0.0208333333333333
147
0.0
147
0.0
147
0.0
147
0.0
147
1.0
147
0.0
147
0.0
147
0.0
147
0.0
147
1.0
  0
MLEADERSTYLE
  5
BEF7
102
{ACAD_REACTORS
330
BEF6
102
}
330
BEF6
100
AcDbMLeaderStyle
170
     2
171
     1
172
     0
 90
        2
 40
0.0
 41
0.0
173
     1
 91
-1056964608
340
BA8F
 92
       -2
290
     1
 42
0.09
291
     1
 43
0.36
  3
Standard
 44
0.18
300

342
BA8D
174
     1
178
     6
175
     1
176
     0
 93
-1056964608
 45
0.18
292
     0
297
     0
 46
0.18
 94
-1056964608
 47
1.0
 49
1.0
140
1.0
293
     1
141
0.0
294
     1
177
     0
142
1.0
295
     0
296
     0
143
0.125
1001
ACAD_MLEADERVER
1070
     2
  0
MLINESTYLE
  5
BA93
102
{ACAD_REACTORS
330
BA92
102
}
330
BA92
100
AcDbMlineStyle
  2
STANDARD
 70
     0
  3

 62
   256
 51
90.0
 52
90.0
 71
     2
 49
0.5
 62
   256
  6
BYLAYER
 49
-0.5
 62
   256
  6
BYLAYER
  0
ACDBPLACEHOLDER
  5
BEAE
102
{ACAD_REACTORS
330
BEAD
102
}
330
BEAD
  0
SCALE
  5
BEE5
102
{ACAD_REACTORS
330
BEE4
102
}
330
BEE4
100
AcDbScale
 70
     0
300
1:1
140
1.0
141
1.0
290
     1
  0
SCALE
  5
BEE6
102
{ACAD_REACTORS
330
BEE4
102
}
330
BEE4
100
AcDbScale
 70
     0
300
1/128" = 1'-0"
140
0.0078125
141
12.0
290
     0
  0
SCALE
  5
BEE7
102
{ACAD_REACTORS
330
BEE4
102
}
330
BEE4
100
AcDbScale
 70
     0
300
1/64" = 1'-0"
140
0.015625
141
12.0
290
     0
  0
SCALE
  5
BEE8
102
{ACAD_REACTORS
330
BEE4
102
}
330
BEE4
100
AcDbScale
 70
     0
300
1/32" = 1'-0"
140
0.03125
141
12.0
290
     0
  0
SCALE
  5
BEE9
102
{ACAD_REACTORS
330
BEE4
102
}
330
BEE4
100
AcDbScale
 70
     0
300
1/16" = 1'-0"
140
0.0625
141
12.0
290
     0
  0
SCALE
  5
BEEA
102
{ACAD_REACTORS
330
BEE4
102
}
330
BEE4
100
AcDbScale
 70
     0
300
3/32" = 1'-0"
140
0.09375
141
12.0
290
     0
  0
SCALE
  5
BEEB
102
{ACAD_REACTORS
330
BEE4
102
}
330
BEE4
100
AcDbScale
 70
     0
300
1/8" = 1'-0"
140
0.125
141
12.0
290
     0
  0
SCALE
  5
BEEC
102
{ACAD_REACTORS
330
BEE4
102
}
330
BEE4
100
AcDbScale
 70
     0
300
3/16" = 1'-0"
140
0.1875
141
12.0
290
     0
  0
SCALE
  5
BEED
102
{ACAD_REACTORS
330
BEE4
102
}
330
BEE4
100
AcDbScale
 70
     0
300
1/4" = 1'-0"
140
0.25
141
12.0
290
     0
  0
SCALE
  5
BEEE
102
{ACAD_REACTORS
330
BEE4
102
}
330
BEE4
100
AcDbScale
 70
     0
300
3/8" = 1'-0"
140
0.375
141
12.0
290
     0
  0
SCALE
  5
BEEF
102
{ACAD_REACTORS
330
BEE4
102
}
330
BEE4
100
AcDbScale
 70
     0
300
1/2" = 1'-0"
140
0.5
141
12.0
290
     0
  0
SCALE
  5
BEF0
102
{ACAD_REACTORS
330
BEE4
102
}
330
BEE4
100
AcDbScale
 70
     0
300
3/4" = 1'-0"
140
0.75
141
12.0
290
     0
  0
SCALE
  5
BEF1
102
{ACAD_REACTORS
330
BEE4
102
}
330
BEE4
100
AcDbScale
 70
     0
300
1" = 1'-0"
140
1.0
141
12.0
290
     0
  0
SCALE
  5
BEF2
102
{ACAD_REACTORS
330
BEE4
102
}
330
BEE4
100
AcDbScale
 70
     0
300
1-1/2" = 1'-0"
140
1.5
141
12.0
290
     0
  0
SCALE
  5
BEF3
102
{ACAD_REACTORS
330
BEE4
102
}
330
BEE4
100
AcDbScale
 70
     0
300
3" = 1'-0"
140
3.0
141
12.0
290
     0
  0
SCALE
  5
BEF4
102
{ACAD_REACTORS
330
BEE4
102
}
330
BEE4
100
AcDbScale
 70
     0
300
6" = 1'-0"
140
6.0
141
12.0
290
     0
  0
SCALE
  5
BEF5
102
{ACAD_REACTORS
330
BEE4
102
}
330
BEE4
100
AcDbScale
 70
     0
300
1'-0" = 1'-0"
140
12.0
141
12.0
290
     0
  0
ACDBSECTIONVIEWSTYLE
  5
BEF9
102
{ACAD_XDICTIONARY
360
BF54
102
}
102
{ACAD_REACTORS
330
BEF8
102
}
330
BEF8
100
AcDbModelDocViewStyle
 70
     0
  3
Imperial24
290
     0
100
AcDbSectionViewStyle
 70
     0
 71
     0
 90
       78
 71
     1
340
BA8D
 40
0.24
340
0
340
0
 40
0.24
300
I, O, Q, S, X, Z
 40
0.48
 90
        3
 40
0.18
 90
        1
 71
     2
340
BA91
 90
       25
340
BA91
 90
       50
 40
0.24
 40
0.0
 40
0.24
 71
     3
340
BA8D
 40
0.24
 90
        1
 40
0.75
 90
        1
300
%<\AcVar ViewType \f "%tc1">% %<\AcVar ViewSectionStartId>%-%<\AcVar ViewSectionEndId>%\PSCALE %<\AcVar ViewScale \f "%sn">%
 71
     4
300
ANSI31
 40
1.0
 90
        0
290
     0
290
     0
 90
        6
 40
0.0
 40
1.570796326794896
 40
0.2617993877991494
 40
1.308996938995747
 40
-0.2617993877991494
 40
1.832595714594046
  0
TABLESTYLE
  5
BEE3
102
{ACAD_XDICTIONARY
360
BF1B
102
}
102
{ACAD_REACTORS
330
BEE2
102
}
330
BEE2
100
AcDbTableStyle
  3
Standard
 70
     0
 71
     0
 40
0.06
 41
0.06
280
     0
281
     0
  7
STANDARD
140
0.18
170
     2
 62
     0
 63
     7
283
     0
274
    -2
284
     1
 64
     0
275
    -2
285
     1
 65
     0
276
    -2
286
     1
 66
     0
277
    -2
287
     1
 67
     0
278
    -2
288
     1
 68
     0
279
    -2
289
     1
 69
     0
  7
STANDARD
140
0.25
170
     5
 62
     0
 63
     7
283
     0
274
    -2
284
     1
 64
     0
275
    -2
285
     1
 65
     0
276
    -2
286
     1
 66
     0
277
    -2
287
     1
 67
     0
278
    -2
288
     1
 68
     0
279
    -2
289
     1
 69
     0
  7
STANDARD
140
0.18
170
     5
 62
     0
 63
     7
283
     0
274
    -2
284
     1
 64
     0
275
    -2
285
     1
 65
     0
276
    -2
286
     1
 66
     0
277
    -2
287
     1
 67
     0
278
    -2
288
     1
 68
     0
279
    -2
289
     1
 69
     0
  0
VISUALSTYLE
  5
BECE
102
{ACAD_XDICTIONARY
360
BF2C
102
}
102
{ACAD_REACTORS
330
BEC8
102
}
330
BEC8
100
AcDbVisualStyle
  2
2dWireframe
 70
     4
 71
     0
 72
     2
 73
     0
 90
        0
 40
-0.6
 41
-30.0
 62
     5
 63
     7
 74
     1
 91
        4
 64
     7
 65
   257
 75
     1
175
     1
 42
1.0
 92
        0
 66
   257
 43
1.0
 76
     1
 77
     6
 78
     2
 67
     7
 79
     5
170
     0
171
     0
290
     0
174
     0
 93
        1
 44
0.0
173
     0
291
     0
 45
0.0
1001
ACAD
1000
AcDbSavedByObjectVersion
1070
     0
  0
VISUALSTYLE
  5
BECD
102
{ACAD_XDICTIONARY
360
BF2A
102
}
102
{ACAD_REACTORS
330
BEC8
102
}
330
BEC8
100
AcDbVisualStyle
  2
Basic
 70
     7
 71
     1
 72
     0
 73
     1
 90
        0
 40
-0.6
 41
-30.0
 62
     5
 63
     7
 74
     0
 91
        4
 64
     7
 65
   257
 75
     1
175
     1
 42
1.0
 92
        8
 66
     7
 43
1.0
 76
     1
 77
     6
 78
     2
 67
     7
 79
     5
170
     0
171
     0
290
     0
174
     0
 93
        1
 44
0.0
173
     0
291
     1
 45
0.0
1001
ACAD
1000
AcDbSavedByObjectVersion
1070
     0
  0
VISUALSTYLE
  5
BED4
102
{ACAD_XDICTIONARY
360
BF38
102
}
102
{ACAD_REACTORS
330
BEC8
102
}
330
BEC8
100
AcDbVisualStyle
  2
Brighten
 70
    12
 71
     2
 72
     2
 73
     0
 90
        0
 40
-0.6
 41
-30.0
 62
     5
 63
     7
 74
     1
 91
        4
 64
     7
 65
   257
 75
     1
175
     1
 42
1.0
 92
        8
 66
     7
 43
1.0
 76
     1
 77
     6
 78
     2
 67
     7
 79
     5
170
     0
171
     0
290
     0
174
     0
 93
        1
 44
50.0
173
     0
291
     1
 45
0.0
1001
ACAD
1000
AcDbSavedByObjectVersion
1070
     0
  0
VISUALSTYLE
  5
BED8
102
{ACAD_XDICTIONARY
360
BF40
102
}
102
{ACAD_REACTORS
330
BEC8
102
}
330
BEC8
100
AcDbVisualStyle
  2
ColorChange
 70
    16
 71
     2
 72
     2
 73
     3
 90
        0
 40
-0.6
 41
-30.0
 62
     5
 63
     8
 74
     1
 91
        4
 64
     7
 65
   257
 75
     1
175
     1
 42
1.0
 92
        8
 66
     8
 43
1.0
 76
     1
 77
     6
 78
     2
 67
     7
 79
     5
170
     0
171
     0
290
     0
174
     0
 93
        1
 44
0.0
173
     0
291
     1
 45
0.0
1001
ACAD
1000
AcDbSavedByObjectVersion
1070
     0
  0
VISUALSTYLE
  5
BED1
102
{ACAD_XDICTIONARY
360
BF32
102
}
102
{ACAD_REACTORS
330
BEC8
102
}
330
BEC8
100
AcDbVisualStyle
  2
Conceptual
 70
     9
 71
     3
 72
     2
 73
     0
 90
        0
 40
-0.6
 41
-30.0
 62
     5
 63
     7
 74
     2
 91
        2
 64
     7
 65
   257
 75
     1
175
     1
 42
179.0
 92
        8
 66
     7
 43
1.0
 76
     1
 77
     6
 78
     2
 67
     7
 79
     3
170
     0
171
     0
290
     0
174
     0
 93
        1
 44
0.0
173
     0
291
     0
 45
0.0
1001
ACAD
1000
AcDbSavedByObjectVersion
1070
     0
  0
VISUALSTYLE
  5
BED3
102
{ACAD_XDICTIONARY
360
BF36
102
}
102
{ACAD_REACTORS
330
BEC8
102
}
330
BEC8
100
AcDbVisualStyle
  2
Dim
 70
    11
 71
     2
 72
     2
 73
     0
 90
        0
 40
-0.6
 41
-30.0
 62
     5
 63
     7
 74
     1
 91
        4
 64
     7
 65
   257
 75
     1
175
     1
 42
1.0
 92
        8
 66
     7
 43
1.0
 76
     1
 77
     6
 78
     2
 67
     7
 79
     5
170
     0
171
     0
290
     0
174
     0
 93
        1
 44
-50.0
173
     0
291
     1
 45
0.0
1001
ACAD
1000
AcDbSavedByObjectVersion
1070
     0
  0
VISUALSTYLE
  5
BEE0
102
{ACAD_XDICTIONARY
360
BF50
102
}
102
{ACAD_REACTORS
330
BEC8
102
}
330
BEC8
100
AcDbVisualStyle
  2
EdgeColorOff
 70
    22
 71
     2
 72
     2
 73
     0
 90
        0
 40
-0.6
 41
-30.0
 62
     5
 63
     7
 74
     1
 91
        4
 64
     7
 65
   257
 75
     1
175
     1
 42
1.0
 92
        8
 66
     7
 43
1.0
 76
     1
 77
     6
 78
     2
 67
     7
 79
     5
170
     0
171
     0
290
     0
174
     0
 93
        1
 44
0.0
173
     0
291
     1
 45
0.0
1001
ACAD
1000
AcDbSavedByObjectVersion
1070
     0
  0
VISUALSTYLE
  5
BED7
102
{ACAD_XDICTIONARY
360
BF3E
102
}
102
{ACAD_REACTORS
330
BEC8
102
}
330
BEC8
100
AcDbVisualStyle
  2
Facepattern
 70
    15
 71
     2
 72
     2
 73
     0
 90
        0
 40
-0.6
 41
-30.0
 62
     5
 63
     7
 74
     1
 91
        4
 64
     7
 65
   257
 75
     1
175
     1
 42
1.0
 92
        8
 66
     7
 43
1.0
 76
     1
 77
     6
 78
     2
 67
     7
 79
     5
170
     0
171
     0
290
     0
174
     0
 93
        1
 44
0.0
173
     0
291
     1
 45
0.0
1001
ACAD
1000
AcDbSavedByObjectVersion
1070
     0
  0
VISUALSTYLE
  5
BEC9
102
{ACAD_XDICTIONARY
360
BF22
102
}
102
{ACAD_REACTORS
330
BEC8
102
}
330
BEC8
100
AcDbVisualStyle
  2
Flat
 70
     0
 71
     2
 72
     1
 73
     1
 90
        2
 40
-0.6
 41
30.0
 62
     5
 63
     7
 74
     0
 91
        0
 64
     7
 65
   257
 75
     1
175
     1
 42
1.0
 92
        8
 66
     7
 43
1.0
 76
     1
 77
     6
 78
     2
 67
     7
 79
     5
170
     0
171
     0
290
     0
174
     0
 93
       13
 44
0.0
173
     0
291
     1
 45
0.0
1001
ACAD
1000
AcDbSavedByObjectVersion
1070
     0
  0
VISUALSTYLE
  5
BECA
102
{ACAD_XDICTIONARY
360
BF24
102
}
102
{ACAD_REACTORS
330
BEC8
102
}
330
BEC8
100
AcDbVisualStyle
  2
FlatWithEdges
 70
     1
 71
     2
 72
     1
 73
     1
 90
        2
 40
-0.6
 41
30.0
 62
     5
 63
     7
 74
     1
 91
        0
 64
     7
 65
   257
 75
     1
175
     1
 42
1.0
 92
        0
 66
   257
 43
1.0
 76
     1
 77
     6
 78
     2
 67
     7
 79
     5
170
     0
171
     0
290
     0
174
     0
 93
       13
 44
0.0
173
     0
291
     1
 45
0.0
1001
ACAD
1000
AcDbSavedByObjectVersion
1070
     0
  0
VISUALSTYLE
  5
BECB
102
{ACAD_XDICTIONARY
360
BF26
102
}
102
{ACAD_REACTORS
330
BEC8
102
}
330
BEC8
100
AcDbVisualStyle
  2
Gouraud
 70
     2
 71
     2
 72
     2
 73
     1
 90
        2
 40
-0.6
 41
30.0
 62
     5
 63
     7
 74
     0
 91
        0
 64
     7
 65
   257
 75
     1
175
     1
 42
1.0
 92
        0
 66
     7
 43
1.0
 76
     1
 77
     6
 78
     2
 67
     7
 79
     5
170
     0
171
     0
290
     0
174
     0
 93
       13
 44
0.0
173
     0
291
     1
 45
0.0
1001
ACAD
1000
AcDbSavedByObjectVersion
1070
     0
  0
VISUALSTYLE
  5
BECC
102
{ACAD_XDICTIONARY
360
BF28
102
}
102
{ACAD_REACTORS
330
BEC8
102
}
330
BEC8
100
AcDbVisualStyle
  2
GouraudWithEdges
 70
     3
 71
     2
 72
     2
 73
     1
 90
        2
 40
-0.6
 41
30.0
 62
     5
 63
     7
 74
     1
 91
        0
 64
     7
 65
   257
 75
     1
175
     1
 42
1.0
 92
        0
 66
   257
 43
1.0
 76
     1
 77
     6
 78
     2
 67
     7
 79
     5
170
     0
171
     0
290
     0
174
     0
 93
       13
 44
0.0
173
     0
291
     1
 45
0.0
1001
ACAD
1000
AcDbSavedByObjectVersion
1070
     0
  0
VISUALSTYLE
  5
BED0
102
{ACAD_XDICTIONARY
360
BF30
102
}
102
{ACAD_REACTORS
330
BEC8
102
}
330
BEC8
100
AcDbVisualStyle
  2
Hidden
 70
     6
 71
     1
 72
     2
 73
     2
 90
        0
 40
-0.6
 41
-30.0
 62
     5
 63
     7
 74
     2
 91
        2
 64
     7
 65
   257
 75
     2
175
     1
 42
40.0
 92
        0
 66
   257
 43
1.0
 76
     1
 77
     6
 78
     2
 67
     7
 79
     3
170
     0
171
     0
290
     0
174
     0
 93
        1
 44
0.0
173
     0
291
     0
 45
0.0
1001
ACAD
1000
AcDbSavedByObjectVersion
1070
     0
  0
VISUALSTYLE
  5
BEDE
102
{ACAD_XDICTIONARY
360
BF4C
102
}
102
{ACAD_REACTORS
330
BEC8
102
}
330
BEC8
100
AcDbVisualStyle
  2
JitterOff
 70
    20
 71
     2
 72
     2
 73
     0
 90
        0
 40
-0.6
 41
-30.0
 62
     5
 63
     7
 74
     1
 91
        4
 64
     7
 65
   257
 75
     1
175
     1
 42
1.0
 92
       10
 66
     7
 43
1.0
 76
     1
 77
     6
 78
     2
 67
     7
 79
     5
170
     0
171
     0
290
     0
174
     0
 93
        1
 44
0.0
173
     0
291
     1
 45
0.0
1001
ACAD
1000
AcDbSavedByObjectVersion
1070
     0
  0
VISUALSTYLE
  5
BED6
102
{ACAD_XDICTIONARY
360
BF3C
102
}
102
{ACAD_REACTORS
330
BEC8
102
}
330
BEC8
100
AcDbVisualStyle
  2
Linepattern
 70
    14
 71
     2
 72
     2
 73
     0
 90
        0
 40
-0.6
 41
-30.0
 62
     5
 63
     7
 74
     1
 91
        4
 64
     7
 65
   257
 75
     7
175
     7
 42
1.0
 92
        8
 66
     7
 43
1.0
 76
     1
 77
     6
 78
     2
 67
     7
 79
     5
170
     0
171
     0
290
     0
174
     0
 93
        1
 44
0.0
173
     0
291
     1
 45
0.0
1001
ACAD
1000
AcDbSavedByObjectVersion
1070
     0
  0
VISUALSTYLE
  5
BEDF
102
{ACAD_XDICTIONARY
360
BF4E
102
}
102
{ACAD_REACTORS
330
BEC8
102
}
330
BEC8
100
AcDbVisualStyle
  2
OverhangOff
 70
    21
 71
     2
 72
     2
 73
     0
 90
        0
 40
-0.6
 41
-30.0
 62
     5
 63
     7
 74
     1
 91
        4
 64
     7
 65
   257
 75
     1
175
     1
 42
1.0
 92
        9
 66
     7
 43
1.0
 76
     1
 77
     6
 78
     2
 67
     7
 79
     5
170
     0
171
     0
290
     0
174
     0
 93
        1
 44
0.0
173
     0
291
     1
 45
0.0
1001
ACAD
1000
AcDbSavedByObjectVersion
1070
     0
  0
VISUALSTYLE
  5
BED2
102
{ACAD_XDICTIONARY
360
BF34
102
}
102
{ACAD_REACTORS
330
BEC8
102
}
330
BEC8
100
AcDbVisualStyle
  2
Realistic
 70
     8
 71
     2
 72
     3
 73
     0
 90
        2
 40
-0.6
 41
30.0
 62
     5
 63
     7
 74
     0
 91
        0
 64
     7
 65
   257
 75
     1
175
     1
 42
1.0
 92
        8
 66
   257
 43
1.0
 76
     1
 77
     6
 78
     2
 67
     7
 79
     3
170
     0
171
     0
290
     0
174
     0
 93
       13
 44
0.0
173
     0
291
     0
 45
0.0
1001
ACAD
1000
AcDbSavedByObjectVersion
1070
     0
  0
VISUALSTYLE
  5
BEDD
102
{ACAD_XDICTIONARY
360
BF4A
102
}
102
{ACAD_REACTORS
330
BEC8
102
}
330
BEC8
100
AcDbVisualStyle
  2
Shaded
 70
    27
 71
     2
 72
     2
 73
     1
 90
        2
 40
-0.6
 41
30.0
 62
     5
 63
     7
 74
     0
 91
        4
 64
     7
 65
   257
 75
     1
175
     1
 42
1.0
 92
        8
 66
   257
 43
1.0
 76
     1
 77
     6
 78
     2
 67
     8
 79
     3
170
     0
171
     0
290
     0
174
     0
 93
        5
 44
0.0
173
     0
291
     0
 45
0.0
1001
ACAD
1000
AcDbSavedByObjectVersion
1070
     0
  0
VISUALSTYLE
  5
BEDC
102
{ACAD_XDICTIONARY
360
BF48
102
}
102
{ACAD_REACTORS
330
BEC8
102
}
330
BEC8
100
AcDbVisualStyle
  2
Shaded with edges
 70
    26
 71
     2
 72
     2
 73
     1
 90
        2
 40
-0.6
 41
30.0
 62
     5
 63
     7
 74
     1
 91
       10
 64
     7
 65
   257
 75
     2
175
     1
 42
1.0
 92
        8
 66
   257
 43
1.0
 76
     1
 77
     6
 78
     2
 67
     7
 79
     3
170
     0
171
     0
290
     0
174
     0
 93
        5
 44
0.0
173
     0
291
     0
 45
0.0
1001
ACAD
1000
AcDbSavedByObjectVersion
1070
     0
  0
VISUALSTYLE
  5
BED9
102
{ACAD_XDICTIONARY
360
BF42
102
}
102
{ACAD_REACTORS
330
BEC8
102
}
330
BEC8
100
AcDbVisualStyle
  2
Shades of Gray
 70
    23
 71
     2
 72
     2
 73
     3
 90
        0
 40
-0.6
 41
-30.0
 62
     5
 63
     7
 74
     2
 91
        2
 64
     7
 65
     7
 75
     1
175
     1
 42
40.0
 92
        8
 66
     7
 43
1.0
 76
     1
 77
     6
 78
     2
 67
     7
 79
     3
170
     0
171
     0
290
     0
174
     0
 93
        1
 44
0.0
173
     0
291
     0
 45
0.0
1001
ACAD
1000
AcDbSavedByObjectVersion
1070
     0
  0
VISUALSTYLE
  5
BEDA
102
{ACAD_XDICTIONARY
360
BF44
102
}
102
{ACAD_REACTORS
330
BEC8
102
}
330
BEC8
100
AcDbVisualStyle
  2
Sketchy
 70
    24
 71
     1
 72
     2
 73
     2
 90
        0
 40
-0.6
 41
-30.0
 62
     5
 63
     7
 74
     2
 91
        2
 64
     7
 65
     7
 75
     1
175
     1
 42
40.0
 92
       11
 66
     7
 43
1.0
 76
     1
 77
     6
 78
     2
 67
     7
 79
     6
170
     0
171
     0
290
     0
174
     0
 93
        1
 44
0.0
173
     0
291
     0
 45
0.0
1001
ACAD
1000
AcDbSavedByObjectVersion
1070
     0
  0
VISUALSTYLE
  5
BED5
102
{ACAD_XDICTIONARY
360
BF3A
102
}
102
{ACAD_REACTORS
330
BEC8
102
}
330
BEC8
100
AcDbVisualStyle
  2
Thicken
 70
    13
 71
     2
 72
     2
 73
     0
 90
        0
 40
-0.6
 41
-30.0
 62
     5
 63
     7
 74
     1
 91
        4
 64
     7
 65
   257
 75
     1
175
     1
 42
1.0
 92
       12
 66
     7
 43
1.0
 76
     1
 77
     6
 78
     2
 67
     7
 79
     5
170
     0
171
     0
290
     0
174
     0
 93
        1
 44
0.0
173
     0
291
     1
 45
0.0
1001
ACAD
1000
AcDbSavedByObjectVersion
1070
     0
  0
VISUALSTYLE
  5
BECF
102
{ACAD_XDICTIONARY
360
BF2E
102
}
102
{ACAD_REACTORS
330
BEC8
102
}
330
BEC8
100
AcDbVisualStyle
  2
Wireframe
 70
     5
 71
     0
 72
     2
 73
     0
 90
        0
 40
-0.6
 41
-30.0
 62
     5
 63
     7
 74
     1
 91
        4
 64
     7
 65
   257
 75
     1
175
     1
 42
1.0
 92
        0
 66
   257
 43
1.0
 76
     1
 77
     6
 78
     2
 67
     7
 79
     3
170
     0
171
     0
290
     0
174
     0
 93
        1
 44
0.0
173
     0
291
     0
 45
0.0
1001
ACAD
1000
AcDbSavedByObjectVersion
1070
     0
  0
VISUALSTYLE
  5
BEDB
102
{ACAD_XDICTIONARY
360
BF46
102
}
102
{ACAD_REACTORS
330
BEC8
102
}
330
BEC8
100
AcDbVisualStyle
  2
X-Ray
 70
    25
 71
     2
 72
     2
 73
     1
 90
        1
 40
0.5
 41
-30.0
 62
     5
 63
     7
 74
     1
 91
        0
 64
     7
 65
   257
 75
     1
175
     1
 42
1.0
 92
        8
 66
     7
 43
1.0
 76
     1
 77
     6
 78
     2
 67
     7
 79
     3
170
     0
171
     0
290
     0
174
     0
 93
       13
 44
0.0
173
     0
291
     0
 45
0.0
1001
ACAD
1000
AcDbSavedByObjectVersion
1070
     0
  0
DICTIONARYVAR
  5
BF15
102
{ACAD_REACTORS
330
BF10
102
}
330
BF10
100
DictionaryVariables
280
     0
  1
1:1
  0
DICTIONARYVAR
  5
BF12
102
{ACAD_REACTORS
330
BF10
102
}
330
BF10
100
DictionaryVariables
280
     0
  1
STANDARD
  0
DICTIONARYVAR
  5
BF11
102
{ACAD_REACTORS
330
BF10
102
}
330
BF10
100
DictionaryVariables
280
     0
  1
STANDARD
  0
DICTIONARYVAR
  5
BF13
102
{ACAD_REACTORS
330
BF10
102
}
330
BF10
100
DictionaryVariables
280
     0
  1
Imperial24
  0
DICTIONARYVAR
  5
BF14
102
{ACAD_REACTORS
330
BF10
102
}
330
BF10
100
DictionaryVariables
280
     0
  1
Imperial24
  0
DICTIONARYVAR
  5
BF18
102
{ACAD_REACTORS
330
BF10
102
}
330
BF10
100
DictionaryVariables
280
     0
  1
1
  0
DICTIONARYVAR
  5
BF17
102
{ACAD_REACTORS
330
BF10
102
}
330
BF10
100
DictionaryVariables
280
     0
  1
0
  0
DICTIONARYVAR
  5
BF16
102
{ACAD_REACTORS
330
BF10
102
}
330
BF10
100
DictionaryVariables
280
     0
  1
127
  0
DICTIONARYVAR
  5
BF19
102
{ACAD_REACTORS
330
BF10
102
}
330
BF10
100
DictionaryVariables
280
     0
  1
2
  0
DICTIONARY
  5
BF56
330
BEFB
100
AcDbDictionary
280
     1
281
     1
  3
ACAD_XREC_ROUNDTRIP
360
BF57
  0
DICTIONARY
  5
BF58
330
BEFC
100
AcDbDictionary
280
     1
281
     1
  3
ACAD_XREC_ROUNDTRIP
360
BF59
  0
DICTIONARY
  5
BF5A
330
BEFD
100
AcDbDictionary
280
     1
281
     1
  3
ACAD_XREC_ROUNDTRIP
360
BF5B
  0
DICTIONARY
  5
BEB9
330
BEB8
100
AcDbDictionary
280
     1
281
     1
  3
ACAD_XREC_ROUNDTRIP
360
BF20
  3
BUMPTILE
360
BEBB
  3
DIFFUSETILE
360
BEBA
  3
OPACITYTILE
360
BEBE
  3
REFLECTIONTILE
360
BEBD
  3
REFRACTIONTILE
360
BEBF
  3
SPECULARTILE
360
BEBC
  0
DICTIONARY
  5
BEB1
330
BEB0
100
AcDbDictionary
280
     1
281
     1
  3
ACAD_XREC_ROUNDTRIP
360
BF1F
  3
BUMPTILE
360
BEB3
  3
DIFFUSETILE
360
BEB2
  3
OPACITYTILE
360
BEB6
  3
REFLECTIONTILE
360
BEB5
  3
REFRACTIONTILE
360
BEB7
  3
SPECULARTILE
360
BEB4
  0
DICTIONARY
  5
BEC1
330
BEC0
100
AcDbDictionary
280
     1
281
     1
  3
ACAD_XREC_ROUNDTRIP
360
BF21
  3
BUMPTILE
360
BEC3
  3
DIFFUSETILE
360
BEC2
  3
OPACITYTILE
360
BEC6
  3
REFLECTIONTILE
360
BEC5
  3
REFRACTIONTILE
360
BEC7
  3
SPECULARTILE
360
BEC4
  0
DICTIONARY
  5
BF54
330
BEF9
100
AcDbDictionary
280
     1
281
     1
  3
ACAD_XREC_ROUNDTRIP
360
BF55
  0
DICTIONARY
  5
BF1B
330
BEE3
100
AcDbDictionary
280
     1
281
     1
  3
ACAD_ROUNDTRIP_2008_TABLESTYLE_CELLSTYLEMAP
360
BF1C
  3
ACAD_XREC_ROUNDTRIP
360
BF52
  0
DICTIONARY
  5
BF2C
330
BECE
100
AcDbDictionary
280
     1
281
     1
  3
ACAD_XREC_ROUNDTRIP
360
BF2D
  0
DICTIONARY
  5
BF2A
330
BECD
100
AcDbDictionary
280
     1
281
     1
  3
ACAD_XREC_ROUNDTRIP
360
BF2B
  0
DICTIONARY
  5
BF38
330
BED4
100
AcDbDictionary
280
     1
281
     1
  3
ACAD_XREC_ROUNDTRIP
360
BF39
  0
DICTIONARY
  5
BF40
330
BED8
100
AcDbDictionary
280
     1
281
     1
  3
ACAD_XREC_ROUNDTRIP
360
BF41
  0
DICTIONARY
  5
BF32
330
BED1
100
AcDbDictionary
280
     1
281
     1
  3
ACAD_XREC_ROUNDTRIP
360
BF33
  0
DICTIONARY
  5
BF36
330
BED3
100
AcDbDictionary
280
     1
281
     1
  3
ACAD_XREC_ROUNDTRIP
360
BF37
  0
DICTIONARY
  5
BF50
330
BEE0
100
AcDbDictionary
280
     1
281
     1
  3
ACAD_XREC_ROUNDTRIP
360
BF51
  0
DICTIONARY
  5
BF3E
330
BED7
100
AcDbDictionary
280
     1
281
     1
  3
ACAD_XREC_ROUNDTRIP
360
BF3F
  0
DICTIONARY
  5
BF22
330
BEC9
100
AcDbDictionary
280
     1
281
     1
  3
ACAD_XREC_ROUNDTRIP
360
BF23
  0
DICTIONARY
  5
BF24
330
BECA
100
AcDbDictionary
280
     1
281
     1
  3
ACAD_XREC_ROUNDTRIP
360
BF25
  0
DICTIONARY
  5
BF26
330
BECB
100
AcDbDictionary
280
     1
281
     1
  3
ACAD_XREC_ROUNDTRIP
360
BF27
  0
DICTIONARY
  5
BF28
330
BECC
100
AcDbDictionary
280
     1
281
     1
  3
ACAD_XREC_ROUNDTRIP
360
BF29
  0
DICTIONARY
  5
BF30
330
BED0
100
AcDbDictionary
280
     1
281
     1
  3
ACAD_XREC_ROUNDTRIP
360
BF31
  0
DICTIONARY
  5
BF4C
330
BEDE
100
AcDbDictionary
280
     1
281
     1
  3
ACAD_XREC_ROUNDTRIP
360
BF4D
  0
DICTIONARY
  5
BF3C
330
BED6
100
AcDbDictionary
280
     1
281
     1
  3
ACAD_XREC_ROUNDTRIP
360
BF3D
  0
DICTIONARY
  5
BF4E
330
BEDF
100
AcDbDictionary
280
     1
281
     1
  3
ACAD_XREC_ROUNDTRIP
360
BF4F
  0
DICTIONARY
  5
BF34
330
BED2
100
AcDbDictionary
280
     1
281
     1
  3
ACAD_XREC_ROUNDTRIP
360
BF35
  0
DICTIONARY
  5
BF4A
330
BEDD
100
AcDbDictionary
280
     1
281
     1
  3
ACAD_XREC_ROUNDTRIP
360
BF4B
  0
DICTIONARY
  5
BF48
330
BEDC
100
AcDbDictionary
280
     1
281
     1
  3
ACAD_XREC_ROUNDTRIP
360
BF49
  0
DICTIONARY
  5
BF42
330
BED9
100
AcDbDictionary
280
     1
281
     1
  3
ACAD_XREC_ROUNDTRIP
360
BF43
  0
DICTIONARY
  5
BF44
330
BEDA
100
AcDbDictionary
280
     1
281
     1
  3
ACAD_XREC_ROUNDTRIP
360
BF45
  0
DICTIONARY
  5
BF3A
330
BED5
100
AcDbDictionary
280
     1
281
     1
  3
ACAD_XREC_ROUNDTRIP
360
BF3B
  0
DICTIONARY
  5
BF2E
330
BECF
100
AcDbDictionary
280
     1
281
     1
  3
ACAD_XREC_ROUNDTRIP
360
BF2F
  0
DICTIONARY
  5
BF46
330
BEDB
100
AcDbDictionary
280
     1
281
     1
  3
ACAD_XREC_ROUNDTRIP
360
BF47
  0
XRECORD
  5
BF57
102
{ACAD_REACTORS
330
BF56
102
}
330
BF56
100
AcDbXrecord
280
     1
102
DISPLAYNAME
  1
Imperial24
102
FLAGS
 90
        0
  0
XRECORD
  5
BF59
102
{ACAD_REACTORS
330
BF58
102
}
330
BF58
100
AcDbXrecord
280
     1
102
SHADEPLOT
 70
     0
102
SHADEPLOTRESLEVEL
 70
     2
102
SHADEPLOTCUSTOMDPI
 70
   300
  0
XRECORD
  5
BF5B
102
{ACAD_REACTORS
330
BF5A
102
}
330
BF5A
100
AcDbXrecord
280
     1
102
SHADEPLOT
 70
     0
102
SHADEPLOTRESLEVEL
 70
     2
102
SHADEPLOTCUSTOMDPI
 70
   300
  0
XRECORD
  5
BF20
102
{ACAD_REACTORS
330
BEB9
102
}
330
BEB9
100
AcDbXrecord
280
     1
102
MATERIAL
148
0.0
149
0.0
149
0.0
 93
        0
 94
      127
282
     0
 72
     0
 77
     0
171
     0
175
     0
179
     0
273
     0
  0
XRECORD
  5
BEBB
102
{ACAD_REACTORS
330
BEB9
102
}
330
BEB9
100
AcDbXrecord
280
     1
270
     1
271
     1
  0
XRECORD
  5
BEBA
102
{ACAD_REACTORS
330
BEB9
102
}
330
BEB9
100
AcDbXrecord
280
     1
270
     1
271
     1
  0
XRECORD
  5
BEBE
102
{ACAD_REACTORS
330
BEB9
102
}
330
BEB9
100
AcDbXrecord
280
     1
270
     1
271
     1
  0
XRECORD
  5
BEBD
102
{ACAD_REACTORS
330
BEB9
102
}
330
BEB9
100
AcDbXrecord
280
     1
270
     1
271
     1
  0
XRECORD
  5
BEBF
102
{ACAD_REACTORS
330
BEB9
102
}
330
BEB9
100
AcDbXrecord
280
     1
270
     1
271
     1
  0
XRECORD
  5
BEBC
102
{ACAD_REACTORS
330
BEB9
102
}
330
BEB9
100
AcDbXrecord
280
     1
270
     1
271
     1
  0
XRECORD
  5
BF1F
102
{ACAD_REACTORS
330
BEB1
102
}
330
BEB1
100
AcDbXrecord
280
     1
102
MATERIAL
148
0.0
149
0.0
149
0.0
 93
        0
 94
      127
282
     0
 72
     0
 77
     0
171
     0
175
     0
179
     0
273
     0
  0
XRECORD
  5
BEB3
102
{ACAD_REACTORS
330
BEB1
102
}
330
BEB1
100
AcDbXrecord
280
     1
270
     1
271
     1
  0
XRECORD
  5
BEB2
102
{ACAD_REACTORS
330
BEB1
102
}
330
BEB1
100
AcDbXrecord
280
     1
270
     1
271
     1
  0
XRECORD
  5
BEB6
102
{ACAD_REACTORS
330
BEB1
102
}
330
BEB1
100
AcDbXrecord
280
     1
270
     1
271
     1
  0
XRECORD
  5
BEB5
102
{ACAD_REACTORS
330
BEB1
102
}
330
BEB1
100
AcDbXrecord
280
     1
270
     1
271
     1
  0
XRECORD
  5
BEB7
102
{ACAD_REACTORS
330
BEB1
102
}
330
BEB1
100
AcDbXrecord
280
     1
270
     1
271
     1
  0
XRECORD
  5
BEB4
102
{ACAD_REACTORS
330
BEB1
102
}
330
BEB1
100
AcDbXrecord
280
     1
270
     1
271
     1
  0
XRECORD
  5
BF21
102
{ACAD_REACTORS
330
BEC1
102
}
330
BEC1
100
AcDbXrecord
280
     1
102
MATERIAL
148
0.0
149
0.0
149
0.0
 93
        0
 94
      127
282
     0
 72
     0
 77
     0
171
     0
175
     0
179
     0
273
     0
  0
XRECORD
  5
BEC3
102
{ACAD_REACTORS
330
BEC1
102
}
330
BEC1
100
AcDbXrecord
280
     1
270
     1
271
     1
  0
XRECORD
  5
BEC2
102
{ACAD_REACTORS
330
BEC1
102
}
330
BEC1
100
AcDbXrecord
280
     1
270
     1
271
     1
  0
XRECORD
  5
BEC6
102
{ACAD_REACTORS
330
BEC1
102
}
330
BEC1
100
AcDbXrecord
280
     1
270
     1
271
     1
  0
XRECORD
  5
BEC5
102
{ACAD_REACTORS
330
BEC1
102
}
330
BEC1
100
AcDbXrecord
280
     1
270
     1
271
     1
  0
XRECORD
  5
BEC7
102
{ACAD_REACTORS
330
BEC1
102
}
330
BEC1
100
AcDbXrecord
280
     1
270
     1
271
     1
  0
XRECORD
  5
BEC4
102
{ACAD_REACTORS
330
BEC1
102
}
330
BEC1
100
AcDbXrecord
280
     1
270
     1
271
     1
  0
XRECORD
  5
BF55
102
{ACAD_REACTORS
330
BF54
102
}
330
BF54
100
AcDbXrecord
280
     1
102
DISPLAYNAME
  1
Imperial24
102
FLAGS
 90
        0
  0
CELLSTYLEMAP
  5
BF1C
102
{ACAD_REACTORS
330
BF1B
102
}
330
BF1B
100
AcDbCellStyleMap
 90
        3
300
CELLSTYLE
  1
TABLEFORMAT_BEGIN
 90
        5
170
     1
 91
        0
 92
    32768
 62
   257
 93
        1
300
CONTENTFORMAT
  1
CONTENTFORMAT_BEGIN
 90
        0
 91
        0
 92
      512
 93
        0
300

 40
0.0
140
1.0
 94
        5
 62
     0
340
BA8D
144
0.25
309
CONTENTFORMAT_END
171
     0
 94
        0
309
TABLEFORMAT_END
  1
CELLSTYLE_BEGIN
 90
        1
 91
        1
300
_TITLE
309
CELLSTYLE_END
300
CELLSTYLE
  1
TABLEFORMAT_BEGIN
 90
        5
170
     1
 91
        0
 92
        0
 62
   257
 93
        1
300
CONTENTFORMAT
  1
CONTENTFORMAT_BEGIN
 90
        0
 91
        0
 92
      512
 93
        0
300

 40
0.0
140
1.0
 94
        5
 62
     0
340
BA8D
144
0.18
309
CONTENTFORMAT_END
171
     0
 94
        0
309
TABLEFORMAT_END
  1
CELLSTYLE_BEGIN
 90
        2
 91
        1
300
_HEADER
309
CELLSTYLE_END
300
CELLSTYLE
  1
TABLEFORMAT_BEGIN
 90
        5
170
     1
 91
        0
 92
        0
 62
   257
 93
        1
300
CONTENTFORMAT
  1
CONTENTFORMAT_BEGIN
 90
        0
 91
        0
 92
      512
 93
        0
300

 40
0.0
140
1.0
 94
        2
 62
     0
340
BA8D
144
0.18
309
CONTENTFORMAT_END
171
     0
 94
        0
309
TABLEFORMAT_END
  1
CELLSTYLE_BEGIN
 90
        3
 91
        2
300
_DATA
309
CELLSTYLE_END
  0
XRECORD
  5
BF52
102
{ACAD_REACTORS
330
BF1B
102
}
330
BF1B
100
AcDbXrecord
280
     1
102
ACAD_ROUNDTRIP_PRE2007_TABLESTYLE
 90
      512
 91
        0
  1

 92
      512
 93
        0
  2

 94
      512
 95
        0
  3

  0
XRECORD
  5
BF2D
102
{ACAD_REACTORS
330
BF2C
102
}
330
BF2C
100
AcDbXrecord
280
     1
102
RTVSPost2010Prop28
280
     1
102
RTVSPost2010PropOp28
 70
     1
102
RTVSPost2010Prop29
280
     1
102
RTVSPost2010PropOp29
 70
     1
102
RTVSPost2010Prop30
280
     0
102
RTVSPost2010PropOp30
 70
     1
102
RTVSPost2010Prop31
280
     0
102
RTVSPost2010PropOp31
 70
     1
102
RTVSPost2010Prop32
280
     0
102
RTVSPost2010PropOp32
 70
     1
102
RTVSPost2010Prop33
280
     0
102
RTVSPost2010PropOp33
 70
     1
102
RTVSPost2010Prop34
280
     0
102
RTVSPost2010PropOp34
 70
     1
102
RTVSPost2010Prop35
280
     0
102
RTVSPost2010PropOp35
 70
     1
102
RTVSPost2010Prop36
280
     0
102
RTVSPost2010PropOp36
 70
     1
102
RTVSPost2010Prop37
 90
       50
102
RTVSPost2010PropOp37
 70
     1
102
RTVSPost2010Prop38
140
0.0
102
RTVSPost2010PropOp38
 70
     1
102
RTVSPost2010Prop39
140
1.0
102
RTVSPost2010PropOp39
 70
     1
102
RTVSPost2010Prop40
 90
        0
102
RTVSPost2010PropOp40
 70
     1
102
RTVSPost2010Prop41ColorIndex
 90
       18
102
RTVSPost2010Prop41ColorRGB
 90
        0
102
RTVSPost2010PropOp41
 70
     1
102
RTVSPost2010Prop42
 90
       50
102
RTVSPost2010PropOp42
 70
     1
102
RTVSPost2010Prop43
 90
        3
102
RTVSPost2010PropOp43
 70
     1
102
RTVSPost2010Prop44ColorIndex
 90
        5
102
RTVSPost2010Prop44ColorRGB
 90
      255
102
RTVSPost2010PropOp44
 70
     1
102
RTVSPost2010Prop45
280
     0
102
RTVSPost2010PropOp45
 70
     1
102
RTVSPost2010Prop46
 90
       50
102
RTVSPost2010PropOp46
 70
     1
102
RTVSPost2010Prop47
 90
       50
102
RTVSPost2010PropOp47
 70
     1
102
RTVSPost2010Prop48
 90
       50
102
RTVSPost2010PropOp48
 70
     1
102
RTVSPost2010Prop49
280
     0
102
RTVSPost2010PropOp49
 70
     1
102
RTVSPost2010Prop50
 90
       50
102
RTVSPost2010PropOp50
 70
     1
102
RTVSPost2010Prop51ColorIndex
 90
      256
102
RTVSPost2010Prop51ColorRGB
 90
-16777216
102
RTVSPost2010PropOp51
 70
     0
102
RTVSPost2010Prop52
140
1.0
102
RTVSPost2010PropOp52
 70
     0
102
RTVSPost2010Prop53
 90
        2
102
RTVSPost2010PropOp53
 70
     1
102
RTVSPost2010Prop54
  1
strokes_ogs.tif
102
RTVSPost2010PropOp54
 70
     1
102
RTVSPost2010Prop55
280
     0
102
RTVSPost2010PropOp55
 70
     1
102
RTVSPost2010Prop56
140
1.0
102
RTVSPost2010PropOp56
 70
     1
102
RTVSPost2010Prop57
140
1.0
102
RTVSPost2010PropOp57
 70
     1
102
RTVSPropertyOp0
 70
     1
102
RTVSPropertyOp1
 70
     1
102
RTVSPropertyOp2
 70
     1
102
RTVSPropertyOp3
 70
     1
102
RTVSPropertyOp4
 70
     1
102
RTVSPropertyOp5
 70
     1
102
RTVSPropertyOp6
 70
     1
102
RTVSPropertyOp7
 70
     1
102
RTVSPropertyOp8
 70
     1
102
RTVSPropertyOp9
 70
     1
102
RTVSPropertyOp10
 70
     1
102
RTVSPropertyOp11
 70
     1
102
RTVSPropertyOp12
 70
     1
102
RTVSPropertyOp13
 70
     1
102
RTVSPropertyOp14
 70
     1
102
RTVSPropertyOp15
 70
     1
102
RTVSPropertyOp16
 70
     1
102
RTVSPropertyOp17
 70
     1
102
RTVSPropertyOp18
 70
     1
102
RTVSPropertyOp19
 70
     1
102
RTVSPropertyOp20
 70
     1
102
RTVSPropertyOp21
 70
     1
102
RTVSPropertyOp22
 70
     1
102
RTVSPropertyOp23
 70
     1
102
RTVSPropertyOp24
 70
     1
102
RTVSPropertyOp25
 70
     1
102
RTVSPropertyOp26
 70
     1
102
RTVSPropertyOp27
 70
     1
102
RTVSPropertyOp28
 70
     1
102
RTVSPropertyOp29
 70
     1
102
RTVSPropertyOp30
 70
     1
102
RTVSPropertyOp31
 70
     1
102
RTVSPropertyOp32
 70
     1
102
RTVSPropertyOp33
 70
     1
102
RTVSPropertyOp34
 70
     1
102
RTVSPropertyOp35
 70
     1
102
RTVSPropertyOp36
 70
     1
102
RTVSPropertyOp37
 70
     1
102
RTVSPropertyOp38
 70
     1
102
RTVSPropertyOp39
 70
     1
102
RTVSPropertyOp40
 70
     1
102
RTVSPropertyOp41
 70
     1
102
RTVSPropertyOp42
 70
     1
102
RTVSPropertyOp43
 70
     1
102
RTVSPropertyOp44
 70
     1
102
RTVSPropertyOp45
 70
     1
102
RTVSPropertyOp46
 70
     1
102
RTVSPropertyOp47
 70
     1
102
RTVSPropertyOp48
 70
     1
102
RTVSPropertyOp49
 70
     1
102
RTVSPropertyOp50
 70
     1
102
RTVSPropertyOp51
 70
     0
102
RTVSPropertyOp52
 70
     0
102
RTVSPropertyOp53
 70
     1
102
RTVSPropertyOp54
 70
     1
102
RTVSPropertyOp55
 70
     1
102
RTVSPropertyOp56
 70
     1
102
RTVSPropertyOp57
 70
     1
102
RTVSPropertyOp58
 70
     1
102
RTVSPropertyOp59
 70
     1
102
RTVSPropertyOp60
 70
     1
102
RTVSPropertyOp61
 70
     1
102
RTVSPropertyOp62
 70
     1
  0
XRECORD
  5
BF2B
102
{ACAD_REACTORS
330
BF2A
102
}
330
BF2A
100
AcDbXrecord
280
     1
102
RTVSPost2010Prop28
280
     0
102
RTVSPost2010PropOp28
 70
     1
102
RTVSPost2010Prop29
280
     1
102
RTVSPost2010PropOp29
 70
     1
102
RTVSPost2010Prop30
280
     1
102
RTVSPost2010PropOp30
 70
     1
102
RTVSPost2010Prop31
280
     0
102
RTVSPost2010PropOp31
 70
     1
102
RTVSPost2010Prop32
280
     0
102
RTVSPost2010PropOp32
 70
     1
102
RTVSPost2010Prop33
280
     0
102
RTVSPost2010PropOp33
 70
     1
102
RTVSPost2010Prop34
280
     0
102
RTVSPost2010PropOp34
 70
     1
102
RTVSPost2010Prop35
280
     0
102
RTVSPost2010PropOp35
 70
     1
102
RTVSPost2010Prop36
280
     0
102
RTVSPost2010PropOp36
 70
     1
102
RTVSPost2010Prop37
 90
       50
102
RTVSPost2010PropOp37
 70
     1
102
RTVSPost2010Prop38
140
0.0
102
RTVSPost2010PropOp38
 70
     1
102
RTVSPost2010Prop39
140
1.0
102
RTVSPost2010PropOp39
 70
     1
102
RTVSPost2010Prop40
 90
        0
102
RTVSPost2010PropOp40
 70
     1
102
RTVSPost2010Prop41ColorIndex
 90
       18
102
RTVSPost2010Prop41ColorRGB
 90
        0
102
RTVSPost2010PropOp41
 70
     1
102
RTVSPost2010Prop42
 90
       50
102
RTVSPost2010PropOp42
 70
     1
102
RTVSPost2010Prop43
 90
        3
102
RTVSPost2010PropOp43
 70
     1
102
RTVSPost2010Prop44ColorIndex
 90
        5
102
RTVSPost2010Prop44ColorRGB
 90
      255
102
RTVSPost2010PropOp44
 70
     1
102
RTVSPost2010Prop45
280
     0
102
RTVSPost2010PropOp45
 70
     1
102
RTVSPost2010Prop46
 90
       50
102
RTVSPost2010PropOp46
 70
     1
102
RTVSPost2010Prop47
 90
       50
102
RTVSPost2010PropOp47
 70
     1
102
RTVSPost2010Prop48
 90
       50
102
RTVSPost2010PropOp48
 70
     1
102
RTVSPost2010Prop49
280
     0
102
RTVSPost2010PropOp49
 70
     1
102
RTVSPost2010Prop50
 90
       50
102
RTVSPost2010PropOp50
 70
     1
102
RTVSPost2010Prop51ColorIndex
 90
      256
102
RTVSPost2010Prop51ColorRGB
 90
-16777216
102
RTVSPost2010PropOp51
 70
     0
102
RTVSPost2010Prop52
140
1.0
102
RTVSPost2010PropOp52
 70
     0
102
RTVSPost2010Prop53
 90
        2
102
RTVSPost2010PropOp53
 70
     1
102
RTVSPost2010Prop54
  1
strokes_ogs.tif
102
RTVSPost2010PropOp54
 70
     1
102
RTVSPost2010Prop55
280
     0
102
RTVSPost2010PropOp55
 70
     1
102
RTVSPost2010Prop56
140
1.0
102
RTVSPost2010PropOp56
 70
     1
102
RTVSPost2010Prop57
140
1.0
102
RTVSPost2010PropOp57
 70
     1
102
RTVSPropertyOp0
 70
     1
102
RTVSPropertyOp1
 70
     1
102
RTVSPropertyOp2
 70
     1
102
RTVSPropertyOp3
 70
     1
102
RTVSPropertyOp4
 70
     1
102
RTVSPropertyOp5
 70
     1
102
RTVSPropertyOp6
 70
     1
102
RTVSPropertyOp7
 70
     1
102
RTVSPropertyOp8
 70
     1
102
RTVSPropertyOp9
 70
     1
102
RTVSPropertyOp10
 70
     1
102
RTVSPropertyOp11
 70
     1
102
RTVSPropertyOp12
 70
     1
102
RTVSPropertyOp13
 70
     1
102
RTVSPropertyOp14
 70
     1
102
RTVSPropertyOp15
 70
     1
102
RTVSPropertyOp16
 70
     1
102
RTVSPropertyOp17
 70
     1
102
RTVSPropertyOp18
 70
     1
102
RTVSPropertyOp19
 70
     1
102
RTVSPropertyOp20
 70
     1
102
RTVSPropertyOp21
 70
     1
102
RTVSPropertyOp22
 70
     1
102
RTVSPropertyOp23
 70
     1
102
RTVSPropertyOp24
 70
     1
102
RTVSPropertyOp25
 70
     1
102
RTVSPropertyOp26
 70
     1
102
RTVSPropertyOp27
 70
     1
102
RTVSPropertyOp28
 70
     1
102
RTVSPropertyOp29
 70
     1
102
RTVSPropertyOp30
 70
     1
102
RTVSPropertyOp31
 70
     1
102
RTVSPropertyOp32
 70
     1
102
RTVSPropertyOp33
 70
     1
102
RTVSPropertyOp34
 70
     1
102
RTVSPropertyOp35
 70
     1
102
RTVSPropertyOp36
 70
     1
102
RTVSPropertyOp37
 70
     1
102
RTVSPropertyOp38
 70
     1
102
RTVSPropertyOp39
 70
     1
102
RTVSPropertyOp40
 70
     1
102
RTVSPropertyOp41
 70
     1
102
RTVSPropertyOp42
 70
     1
102
RTVSPropertyOp43
 70
     1
102
RTVSPropertyOp44
 70
     1
102
RTVSPropertyOp45
 70
     1
102
RTVSPropertyOp46
 70
     1
102
RTVSPropertyOp47
 70
     1
102
RTVSPropertyOp48
 70
     1
102
RTVSPropertyOp49
 70
     1
102
RTVSPropertyOp50
 70
     1
102
RTVSPropertyOp51
 70
     0
102
RTVSPropertyOp52
 70
     0
102
RTVSPropertyOp53
 70
     1
102
RTVSPropertyOp54
 70
     1
102
RTVSPropertyOp55
 70
     1
102
RTVSPropertyOp56
 70
     1
102
RTVSPropertyOp57
 70
     1
102
RTVSPropertyOp58
 70
     1
102
RTVSPropertyOp59
 70
     1
102
RTVSPropertyOp60
 70
     1
102
RTVSPropertyOp61
 70
     1
102
RTVSPropertyOp62
 70
     1
  0
XRECORD
  5
BF39
102
{ACAD_REACTORS
330
BF38
102
}
330
BF38
100
AcDbXrecord
280
     1
102
RTVSPost2010Prop28
280
     0
102
RTVSPost2010PropOp28
 70
     1
102
RTVSPost2010Prop29
280
     1
102
RTVSPost2010PropOp29
 70
     1
102
RTVSPost2010Prop30
280
     1
102
RTVSPost2010PropOp30
 70
     1
102
RTVSPost2010Prop31
280
     0
102
RTVSPost2010PropOp31
 70
     1
102
RTVSPost2010Prop32
280
     0
102
RTVSPost2010PropOp32
 70
     1
102
RTVSPost2010Prop33
280
     0
102
RTVSPost2010PropOp33
 70
     1
102
RTVSPost2010Prop34
280
     0
102
RTVSPost2010PropOp34
 70
     1
102
RTVSPost2010Prop35
280
     0
102
RTVSPost2010PropOp35
 70
     1
102
RTVSPost2010Prop36
280
     0
102
RTVSPost2010PropOp36
 70
     1
102
RTVSPost2010Prop37
 90
       50
102
RTVSPost2010PropOp37
 70
     1
102
RTVSPost2010Prop38
140
0.0
102
RTVSPost2010PropOp38
 70
     1
102
RTVSPost2010Prop39
140
1.0
102
RTVSPost2010PropOp39
 70
     1
102
RTVSPost2010Prop40
 90
        0
102
RTVSPost2010PropOp40
 70
     1
102
RTVSPost2010Prop41ColorIndex
 90
       18
102
RTVSPost2010Prop41ColorRGB
 90
        0
102
RTVSPost2010PropOp41
 70
     1
102
RTVSPost2010Prop42
 90
       50
102
RTVSPost2010PropOp42
 70
     1
102
RTVSPost2010Prop43
 90
        3
102
RTVSPost2010PropOp43
 70
     1
102
RTVSPost2010Prop44ColorIndex
 90
        5
102
RTVSPost2010Prop44ColorRGB
 90
      255
102
RTVSPost2010PropOp44
 70
     1
102
RTVSPost2010Prop45
280
     0
102
RTVSPost2010PropOp45
 70
     1
102
RTVSPost2010Prop46
 90
       50
102
RTVSPost2010PropOp46
 70
     1
102
RTVSPost2010Prop47
 90
       50
102
RTVSPost2010PropOp47
 70
     1
102
RTVSPost2010Prop48
 90
       50
102
RTVSPost2010PropOp48
 70
     1
102
RTVSPost2010Prop49
280
     0
102
RTVSPost2010PropOp49
 70
     1
102
RTVSPost2010Prop50
 90
       50
102
RTVSPost2010PropOp50
 70
     1
102
RTVSPost2010Prop51ColorIndex
 90
      256
102
RTVSPost2010Prop51ColorRGB
 90
-16777216
102
RTVSPost2010PropOp51
 70
     0
102
RTVSPost2010Prop52
140
1.0
102
RTVSPost2010PropOp52
 70
     0
102
RTVSPost2010Prop53
 90
        2
102
RTVSPost2010PropOp53
 70
     1
102
RTVSPost2010Prop54
  1
strokes_ogs.tif
102
RTVSPost2010PropOp54
 70
     1
102
RTVSPost2010Prop55
280
     0
102
RTVSPost2010PropOp55
 70
     1
102
RTVSPost2010Prop56
140
1.0
102
RTVSPost2010PropOp56
 70
     1
102
RTVSPost2010Prop57
140
1.0
102
RTVSPost2010PropOp57
 70
     1
102
RTVSPropertyOp0
 70
     1
102
RTVSPropertyOp1
 70
     1
102
RTVSPropertyOp2
 70
     1
102
RTVSPropertyOp3
 70
     1
102
RTVSPropertyOp4
 70
     1
102
RTVSPropertyOp5
 70
     1
102
RTVSPropertyOp6
 70
     1
102
RTVSPropertyOp7
 70
     1
102
RTVSPropertyOp8
 70
     1
102
RTVSPropertyOp9
 70
     1
102
RTVSPropertyOp10
 70
     1
102
RTVSPropertyOp11
 70
     1
102
RTVSPropertyOp12
 70
     1
102
RTVSPropertyOp13
 70
     1
102
RTVSPropertyOp14
 70
     1
102
RTVSPropertyOp15
 70
     1
102
RTVSPropertyOp16
 70
     1
102
RTVSPropertyOp17
 70
     1
102
RTVSPropertyOp18
 70
     1
102
RTVSPropertyOp19
 70
     1
102
RTVSPropertyOp20
 70
     1
102
RTVSPropertyOp21
 70
     1
102
RTVSPropertyOp22
 70
     1
102
RTVSPropertyOp23
 70
     1
102
RTVSPropertyOp24
 70
     1
102
RTVSPropertyOp25
 70
     1
102
RTVSPropertyOp26
 70
     1
102
RTVSPropertyOp27
 70
     1
102
RTVSPropertyOp28
 70
     1
102
RTVSPropertyOp29
 70
     1
102
RTVSPropertyOp30
 70
     1
102
RTVSPropertyOp31
 70
     1
102
RTVSPropertyOp32
 70
     1
102
RTVSPropertyOp33
 70
     1
102
RTVSPropertyOp34
 70
     1
102
RTVSPropertyOp35
 70
     1
102
RTVSPropertyOp36
 70
     1
102
RTVSPropertyOp37
 70
     1
102
RTVSPropertyOp38
 70
     1
102
RTVSPropertyOp39
 70
     1
102
RTVSPropertyOp40
 70
     1
102
RTVSPropertyOp41
 70
     1
102
RTVSPropertyOp42
 70
     1
102
RTVSPropertyOp43
 70
     1
102
RTVSPropertyOp44
 70
     1
102
RTVSPropertyOp45
 70
     1
102
RTVSPropertyOp46
 70
     1
102
RTVSPropertyOp47
 70
     1
102
RTVSPropertyOp48
 70
     1
102
RTVSPropertyOp49
 70
     1
102
RTVSPropertyOp50
 70
     1
102
RTVSPropertyOp51
 70
     0
102
RTVSPropertyOp52
 70
     0
102
RTVSPropertyOp53
 70
     1
102
RTVSPropertyOp54
 70
     1
102
RTVSPropertyOp55
 70
     1
102
RTVSPropertyOp56
 70
     1
102
RTVSPropertyOp57
 70
     1
102
RTVSPropertyOp58
 70
     1
102
RTVSPropertyOp59
 70
     1
102
RTVSPropertyOp60
 70
     1
102
RTVSPropertyOp61
 70
     1
102
RTVSPropertyOp62
 70
     1
  0
XRECORD
  5
BF41
102
{ACAD_REACTORS
330
BF40
102
}
330
BF40
100
AcDbXrecord
280
     1
102
RTVSPost2010Prop28
280
     0
102
RTVSPost2010PropOp28
 70
     1
102
RTVSPost2010Prop29
280
     1
102
RTVSPost2010PropOp29
 70
     1
102
RTVSPost2010Prop30
280
     1
102
RTVSPost2010PropOp30
 70
     1
102
RTVSPost2010Prop31
280
     0
102
RTVSPost2010PropOp31
 70
     1
102
RTVSPost2010Prop32
280
     0
102
RTVSPost2010PropOp32
 70
     1
102
RTVSPost2010Prop33
280
     0
102
RTVSPost2010PropOp33
 70
     1
102
RTVSPost2010Prop34
280
     0
102
RTVSPost2010PropOp34
 70
     1
102
RTVSPost2010Prop35
280
     0
102
RTVSPost2010PropOp35
 70
     1
102
RTVSPost2010Prop36
280
     0
102
RTVSPost2010PropOp36
 70
     1
102
RTVSPost2010Prop37
 90
       50
102
RTVSPost2010PropOp37
 70
     1
102
RTVSPost2010Prop38
140
0.0
102
RTVSPost2010PropOp38
 70
     1
102
RTVSPost2010Prop39
140
1.0
102
RTVSPost2010PropOp39
 70
     1
102
RTVSPost2010Prop40
 90
        0
102
RTVSPost2010PropOp40
 70
     1
102
RTVSPost2010Prop41ColorIndex
 90
       18
102
RTVSPost2010Prop41ColorRGB
 90
        0
102
RTVSPost2010PropOp41
 70
     1
102
RTVSPost2010Prop42
 90
       50
102
RTVSPost2010PropOp42
 70
     1
102
RTVSPost2010Prop43
 90
        3
102
RTVSPost2010PropOp43
 70
     1
102
RTVSPost2010Prop44ColorIndex
 90
        5
102
RTVSPost2010Prop44ColorRGB
 90
      255
102
RTVSPost2010PropOp44
 70
     1
102
RTVSPost2010Prop45
280
     0
102
RTVSPost2010PropOp45
 70
     1
102
RTVSPost2010Prop46
 90
       50
102
RTVSPost2010PropOp46
 70
     1
102
RTVSPost2010Prop47
 90
       50
102
RTVSPost2010PropOp47
 70
     1
102
RTVSPost2010Prop48
 90
       50
102
RTVSPost2010PropOp48
 70
     1
102
RTVSPost2010Prop49
280
     0
102
RTVSPost2010PropOp49
 70
     1
102
RTVSPost2010Prop50
 90
       50
102
RTVSPost2010PropOp50
 70
     1
102
RTVSPost2010Prop51ColorIndex
 90
      256
102
RTVSPost2010Prop51ColorRGB
 90
-16777216
102
RTVSPost2010PropOp51
 70
     0
102
RTVSPost2010Prop52
140
1.0
102
RTVSPost2010PropOp52
 70
     0
102
RTVSPost2010Prop53
 90
        2
102
RTVSPost2010PropOp53
 70
     1
102
RTVSPost2010Prop54
  1
strokes_ogs.tif
102
RTVSPost2010PropOp54
 70
     1
102
RTVSPost2010Prop55
280
     0
102
RTVSPost2010PropOp55
 70
     1
102
RTVSPost2010Prop56
140
1.0
102
RTVSPost2010PropOp56
 70
     1
102
RTVSPost2010Prop57
140
1.0
102
RTVSPost2010PropOp57
 70
     1
102
RTVSPropertyOp0
 70
     1
102
RTVSPropertyOp1
 70
     1
102
RTVSPropertyOp2
 70
     1
102
RTVSPropertyOp3
 70
     1
102
RTVSPropertyOp4
 70
     1
102
RTVSPropertyOp5
 70
     1
102
RTVSPropertyOp6
 70
     1
102
RTVSPropertyOp7
 70
     1
102
RTVSPropertyOp8
 70
     1
102
RTVSPropertyOp9
 70
     1
102
RTVSPropertyOp10
 70
     1
102
RTVSPropertyOp11
 70
     1
102
RTVSPropertyOp12
 70
     1
102
RTVSPropertyOp13
 70
     1
102
RTVSPropertyOp14
 70
     1
102
RTVSPropertyOp15
 70
     1
102
RTVSPropertyOp16
 70
     1
102
RTVSPropertyOp17
 70
     1
102
RTVSPropertyOp18
 70
     1
102
RTVSPropertyOp19
 70
     1
102
RTVSPropertyOp20
 70
     1
102
RTVSPropertyOp21
 70
     1
102
RTVSPropertyOp22
 70
     1
102
RTVSPropertyOp23
 70
     1
102
RTVSPropertyOp24
 70
     1
102
RTVSPropertyOp25
 70
     1
102
RTVSPropertyOp26
 70
     1
102
RTVSPropertyOp27
 70
     1
102
RTVSPropertyOp28
 70
     1
102
RTVSPropertyOp29
 70
     1
102
RTVSPropertyOp30
 70
     1
102
RTVSPropertyOp31
 70
     1
102
RTVSPropertyOp32
 70
     1
102
RTVSPropertyOp33
 70
     1
102
RTVSPropertyOp34
 70
     1
102
RTVSPropertyOp35
 70
     1
102
RTVSPropertyOp36
 70
     1
102
RTVSPropertyOp37
 70
     1
102
RTVSPropertyOp38
 70
     1
102
RTVSPropertyOp39
 70
     1
102
RTVSPropertyOp40
 70
     1
102
RTVSPropertyOp41
 70
     1
102
RTVSPropertyOp42
 70
     1
102
RTVSPropertyOp43
 70
     1
102
RTVSPropertyOp44
 70
     1
102
RTVSPropertyOp45
 70
     1
102
RTVSPropertyOp46
 70
     1
102
RTVSPropertyOp47
 70
     1
102
RTVSPropertyOp48
 70
     1
102
RTVSPropertyOp49
 70
     1
102
RTVSPropertyOp50
 70
     1
102
RTVSPropertyOp51
 70
     0
102
RTVSPropertyOp52
 70
     0
102
RTVSPropertyOp53
 70
     1
102
RTVSPropertyOp54
 70
     1
102
RTVSPropertyOp55
 70
     1
102
RTVSPropertyOp56
 70
     1
102
RTVSPropertyOp57
 70
     1
102
RTVSPropertyOp58
 70
     1
102
RTVSPropertyOp59
 70
     1
102
RTVSPropertyOp60
 70
     1
102
RTVSPropertyOp61
 70
     1
102
RTVSPropertyOp62
 70
     1
  0
XRECORD
  5
BF33
102
{ACAD_REACTORS
330
BF32
102
}
330
BF32
100
AcDbXrecord
280
     1
102
RTVSPost2010Prop28
280
     0
102
RTVSPost2010PropOp28
 70
     1
102
RTVSPost2010Prop29
280
     1
102
RTVSPost2010PropOp29
 70
     1
102
RTVSPost2010Prop30
280
     1
102
RTVSPost2010PropOp30
 70
     1
102
RTVSPost2010Prop31
280
     0
102
RTVSPost2010PropOp31
 70
     1
102
RTVSPost2010Prop32
280
     0
102
RTVSPost2010PropOp32
 70
     1
102
RTVSPost2010Prop33
280
     0
102
RTVSPost2010PropOp33
 70
     1
102
RTVSPost2010Prop34
280
     0
102
RTVSPost2010PropOp34
 70
     1
102
RTVSPost2010Prop35
280
     0
102
RTVSPost2010PropOp35
 70
     1
102
RTVSPost2010Prop36
280
     0
102
RTVSPost2010PropOp36
 70
     1
102
RTVSPost2010Prop37
 90
       50
102
RTVSPost2010PropOp37
 70
     1
102
RTVSPost2010Prop38
140
0.0
102
RTVSPost2010PropOp38
 70
     1
102
RTVSPost2010Prop39
140
1.0
102
RTVSPost2010PropOp39
 70
     1
102
RTVSPost2010Prop40
 90
        0
102
RTVSPost2010PropOp40
 70
     1
102
RTVSPost2010Prop41ColorIndex
 90
       18
102
RTVSPost2010Prop41ColorRGB
 90
        0
102
RTVSPost2010PropOp41
 70
     1
102
RTVSPost2010Prop42
 90
       50
102
RTVSPost2010PropOp42
 70
     1
102
RTVSPost2010Prop43
 90
        3
102
RTVSPost2010PropOp43
 70
     1
102
RTVSPost2010Prop44ColorIndex
 90
        5
102
RTVSPost2010Prop44ColorRGB
 90
      255
102
RTVSPost2010PropOp44
 70
     1
102
RTVSPost2010Prop45
280
     0
102
RTVSPost2010PropOp45
 70
     1
102
RTVSPost2010Prop46
 90
       50
102
RTVSPost2010PropOp46
 70
     1
102
RTVSPost2010Prop47
 90
       50
102
RTVSPost2010PropOp47
 70
     1
102
RTVSPost2010Prop48
 90
       50
102
RTVSPost2010PropOp48
 70
     1
102
RTVSPost2010Prop49
280
     0
102
RTVSPost2010PropOp49
 70
     1
102
RTVSPost2010Prop50
 90
       50
102
RTVSPost2010PropOp50
 70
     1
102
RTVSPost2010Prop51ColorIndex
 90
      256
102
RTVSPost2010Prop51ColorRGB
 90
-16777216
102
RTVSPost2010PropOp51
 70
     0
102
RTVSPost2010Prop52
140
1.0
102
RTVSPost2010PropOp52
 70
     0
102
RTVSPost2010Prop53
 90
        2
102
RTVSPost2010PropOp53
 70
     1
102
RTVSPost2010Prop54
  1
strokes_ogs.tif
102
RTVSPost2010PropOp54
 70
     1
102
RTVSPost2010Prop55
280
     0
102
RTVSPost2010PropOp55
 70
     1
102
RTVSPost2010Prop56
140
1.0
102
RTVSPost2010PropOp56
 70
     1
102
RTVSPost2010Prop57
140
1.0
102
RTVSPost2010PropOp57
 70
     1
102
RTVSPropertyOp0
 70
     1
102
RTVSPropertyOp1
 70
     1
102
RTVSPropertyOp2
 70
     1
102
RTVSPropertyOp3
 70
     1
102
RTVSPropertyOp4
 70
     1
102
RTVSPropertyOp5
 70
     1
102
RTVSPropertyOp6
 70
     1
102
RTVSPropertyOp7
 70
     1
102
RTVSPropertyOp8
 70
     1
102
RTVSPropertyOp9
 70
     1
102
RTVSPropertyOp10
 70
     1
102
RTVSPropertyOp11
 70
     1
102
RTVSPropertyOp12
 70
     1
102
RTVSPropertyOp13
 70
     1
102
RTVSPropertyOp14
 70
     1
102
RTVSPropertyOp15
 70
     1
102
RTVSPropertyOp16
 70
     1
102
RTVSPropertyOp17
 70
     1
102
RTVSPropertyOp18
 70
     1
102
RTVSPropertyOp19
 70
     1
102
RTVSPropertyOp20
 70
     1
102
RTVSPropertyOp21
 70
     1
102
RTVSPropertyOp22
 70
     1
102
RTVSPropertyOp23
 70
     1
102
RTVSPropertyOp24
 70
     1
102
RTVSPropertyOp25
 70
     1
102
RTVSPropertyOp26
 70
     1
102
RTVSPropertyOp27
 70
     1
102
RTVSPropertyOp28
 70
     1
102
RTVSPropertyOp29
 70
     1
102
RTVSPropertyOp30
 70
     1
102
RTVSPropertyOp31
 70
     1
102
RTVSPropertyOp32
 70
     1
102
RTVSPropertyOp33
 70
     1
102
RTVSPropertyOp34
 70
     1
102
RTVSPropertyOp35
 70
     1
102
RTVSPropertyOp36
 70
     1
102
RTVSPropertyOp37
 70
     1
102
RTVSPropertyOp38
 70
     1
102
RTVSPropertyOp39
 70
     1
102
RTVSPropertyOp40
 70
     1
102
RTVSPropertyOp41
 70
     1
102
RTVSPropertyOp42
 70
     1
102
RTVSPropertyOp43
 70
     1
102
RTVSPropertyOp44
 70
     1
102
RTVSPropertyOp45
 70
     1
102
RTVSPropertyOp46
 70
     1
102
RTVSPropertyOp47
 70
     1
102
RTVSPropertyOp48
 70
     1
102
RTVSPropertyOp49
 70
     1
102
RTVSPropertyOp50
 70
     1
102
RTVSPropertyOp51
 70
     0
102
RTVSPropertyOp52
 70
     0
102
RTVSPropertyOp53
 70
     1
102
RTVSPropertyOp54
 70
     1
102
RTVSPropertyOp55
 70
     1
102
RTVSPropertyOp56
 70
     1
102
RTVSPropertyOp57
 70
     1
102
RTVSPropertyOp58
 70
     1
102
RTVSPropertyOp59
 70
     1
102
RTVSPropertyOp60
 70
     1
102
RTVSPropertyOp61
 70
     1
102
RTVSPropertyOp62
 70
     1
  0
XRECORD
  5
BF37
102
{ACAD_REACTORS
330
BF36
102
}
330
BF36
100
AcDbXrecord
280
     1
102
RTVSPost2010Prop28
280
     0
102
RTVSPost2010PropOp28
 70
     1
102
RTVSPost2010Prop29
280
     1
102
RTVSPost2010PropOp29
 70
     1
102
RTVSPost2010Prop30
280
     1
102
RTVSPost2010PropOp30
 70
     1
102
RTVSPost2010Prop31
280
     0
102
RTVSPost2010PropOp31
 70
     1
102
RTVSPost2010Prop32
280
     0
102
RTVSPost2010PropOp32
 70
     1
102
RTVSPost2010Prop33
280
     0
102
RTVSPost2010PropOp33
 70
     1
102
RTVSPost2010Prop34
280
     0
102
RTVSPost2010PropOp34
 70
     1
102
RTVSPost2010Prop35
280
     0
102
RTVSPost2010PropOp35
 70
     1
102
RTVSPost2010Prop36
280
     0
102
RTVSPost2010PropOp36
 70
     1
102
RTVSPost2010Prop37
 90
       50
102
RTVSPost2010PropOp37
 70
     1
102
RTVSPost2010Prop38
140
0.0
102
RTVSPost2010PropOp38
 70
     1
102
RTVSPost2010Prop39
140
1.0
102
RTVSPost2010PropOp39
 70
     1
102
RTVSPost2010Prop40
 90
        0
102
RTVSPost2010PropOp40
 70
     1
102
RTVSPost2010Prop41ColorIndex
 90
       18
102
RTVSPost2010Prop41ColorRGB
 90
        0
102
RTVSPost2010PropOp41
 70
     1
102
RTVSPost2010Prop42
 90
       50
102
RTVSPost2010PropOp42
 70
     1
102
RTVSPost2010Prop43
 90
        3
102
RTVSPost2010PropOp43
 70
     1
102
RTVSPost2010Prop44ColorIndex
 90
        5
102
RTVSPost2010Prop44ColorRGB
 90
      255
102
RTVSPost2010PropOp44
 70
     1
102
RTVSPost2010Prop45
280
     0
102
RTVSPost2010PropOp45
 70
     1
102
RTVSPost2010Prop46
 90
       50
102
RTVSPost2010PropOp46
 70
     1
102
RTVSPost2010Prop47
 90
       50
102
RTVSPost2010PropOp47
 70
     1
102
RTVSPost2010Prop48
 90
       50
102
RTVSPost2010PropOp48
 70
     1
102
RTVSPost2010Prop49
280
     0
102
RTVSPost2010PropOp49
 70
     1
102
RTVSPost2010Prop50
 90
       50
102
RTVSPost2010PropOp50
 70
     1
102
RTVSPost2010Prop51ColorIndex
 90
      256
102
RTVSPost2010Prop51ColorRGB
 90
-16777216
102
RTVSPost2010PropOp51
 70
     0
102
RTVSPost2010Prop52
140
1.0
102
RTVSPost2010PropOp52
 70
     0
102
RTVSPost2010Prop53
 90
        2
102
RTVSPost2010PropOp53
 70
     1
102
RTVSPost2010Prop54
  1
strokes_ogs.tif
102
RTVSPost2010PropOp54
 70
     1
102
RTVSPost2010Prop55
280
     0
102
RTVSPost2010PropOp55
 70
     1
102
RTVSPost2010Prop56
140
1.0
102
RTVSPost2010PropOp56
 70
     1
102
RTVSPost2010Prop57
140
1.0
102
RTVSPost2010PropOp57
 70
     1
102
RTVSPropertyOp0
 70
     1
102
RTVSPropertyOp1
 70
     1
102
RTVSPropertyOp2
 70
     1
102
RTVSPropertyOp3
 70
     1
102
RTVSPropertyOp4
 70
     1
102
RTVSPropertyOp5
 70
     1
102
RTVSPropertyOp6
 70
     1
102
RTVSPropertyOp7
 70
     1
102
RTVSPropertyOp8
 70
     1
102
RTVSPropertyOp9
 70
     1
102
RTVSPropertyOp10
 70
     1
102
RTVSPropertyOp11
 70
     1
102
RTVSPropertyOp12
 70
     1
102
RTVSPropertyOp13
 70
     1
102
RTVSPropertyOp14
 70
     1
102
RTVSPropertyOp15
 70
     1
102
RTVSPropertyOp16
 70
     1
102
RTVSPropertyOp17
 70
     1
102
RTVSPropertyOp18
 70
     1
102
RTVSPropertyOp19
 70
     1
102
RTVSPropertyOp20
 70
     1
102
RTVSPropertyOp21
 70
     1
102
RTVSPropertyOp22
 70
     1
102
RTVSPropertyOp23
 70
     1
102
RTVSPropertyOp24
 70
     1
102
RTVSPropertyOp25
 70
     1
102
RTVSPropertyOp26
 70
     1
102
RTVSPropertyOp27
 70
     1
102
RTVSPropertyOp28
 70
     1
102
RTVSPropertyOp29
 70
     1
102
RTVSPropertyOp30
 70
     1
102
RTVSPropertyOp31
 70
     1
102
RTVSPropertyOp32
 70
     1
102
RTVSPropertyOp33
 70
     1
102
RTVSPropertyOp34
 70
     1
102
RTVSPropertyOp35
 70
     1
102
RTVSPropertyOp36
 70
     1
102
RTVSPropertyOp37
 70
     1
102
RTVSPropertyOp38
 70
     1
102
RTVSPropertyOp39
 70
     1
102
RTVSPropertyOp40
 70
     1
102
RTVSPropertyOp41
 70
     1
102
RTVSPropertyOp42
 70
     1
102
RTVSPropertyOp43
 70
     1
102
RTVSPropertyOp44
 70
     1
102
RTVSPropertyOp45
 70
     1
102
RTVSPropertyOp46
 70
     1
102
RTVSPropertyOp47
 70
     1
102
RTVSPropertyOp48
 70
     1
102
RTVSPropertyOp49
 70
     1
102
RTVSPropertyOp50
 70
     1
102
RTVSPropertyOp51
 70
     0
102
RTVSPropertyOp52
 70
     0
102
RTVSPropertyOp53
 70
     1
102
RTVSPropertyOp54
 70
     1
102
RTVSPropertyOp55
 70
     1
102
RTVSPropertyOp56
 70
     1
102
RTVSPropertyOp57
 70
     1
102
RTVSPropertyOp58
 70
     1
102
RTVSPropertyOp59
 70
     1
102
RTVSPropertyOp60
 70
     1
102
RTVSPropertyOp61
 70
     1
102
RTVSPropertyOp62
 70
     1
  0
XRECORD
  5
BF51
102
{ACAD_REACTORS
330
BF50
102
}
330
BF50
100
AcDbXrecord
280
     1
102
RTVSPost2010Prop28
280
     0
102
RTVSPost2010PropOp28
 70
     1
102
RTVSPost2010Prop29
280
     1
102
RTVSPost2010PropOp29
 70
     1
102
RTVSPost2010Prop30
280
     1
102
RTVSPost2010PropOp30
 70
     1
102
RTVSPost2010Prop31
280
     0
102
RTVSPost2010PropOp31
 70
     1
102
RTVSPost2010Prop32
280
     0
102
RTVSPost2010PropOp32
 70
     1
102
RTVSPost2010Prop33
280
     0
102
RTVSPost2010PropOp33
 70
     1
102
RTVSPost2010Prop34
280
     0
102
RTVSPost2010PropOp34
 70
     1
102
RTVSPost2010Prop35
280
     0
102
RTVSPost2010PropOp35
 70
     1
102
RTVSPost2010Prop36
280
     0
102
RTVSPost2010PropOp36
 70
     1
102
RTVSPost2010Prop37
 90
       50
102
RTVSPost2010PropOp37
 70
     0
102
RTVSPost2010Prop38
140
0.0
102
RTVSPost2010PropOp38
 70
     0
102
RTVSPost2010Prop39
140
1.0
102
RTVSPost2010PropOp39
 70
     0
102
RTVSPost2010Prop40
 90
        0
102
RTVSPost2010PropOp40
 70
     0
102
RTVSPost2010Prop41ColorIndex
 90
       18
102
RTVSPost2010Prop41ColorRGB
 90
        0
102
RTVSPost2010PropOp41
 70
     0
102
RTVSPost2010Prop42
 90
       50
102
RTVSPost2010PropOp42
 70
     0
102
RTVSPost2010Prop43
 90
        3
102
RTVSPost2010PropOp43
 70
     0
102
RTVSPost2010Prop44ColorIndex
 90
        5
102
RTVSPost2010Prop44ColorRGB
 90
      255
102
RTVSPost2010PropOp44
 70
     0
102
RTVSPost2010Prop45
280
     0
102
RTVSPost2010PropOp45
 70
     1
102
RTVSPost2010Prop46
 90
       50
102
RTVSPost2010PropOp46
 70
     0
102
RTVSPost2010Prop47
 90
       50
102
RTVSPost2010PropOp47
 70
     0
102
RTVSPost2010Prop48
 90
       50
102
RTVSPost2010PropOp48
 70
     0
102
RTVSPost2010Prop49
280
     0
102
RTVSPost2010PropOp49
 70
     1
102
RTVSPost2010Prop50
 90
       50
102
RTVSPost2010PropOp50
 70
     0
102
RTVSPost2010Prop51ColorIndex
 90
      256
102
RTVSPost2010Prop51ColorRGB
 90
-16777216
102
RTVSPost2010PropOp51
 70
     0
102
RTVSPost2010Prop52
140
1.0
102
RTVSPost2010PropOp52
 70
     0
102
RTVSPost2010Prop53
 90
        2
102
RTVSPost2010PropOp53
 70
     0
102
RTVSPost2010Prop54
  1
strokes_ogs.tif
102
RTVSPost2010PropOp54
 70
     0
102
RTVSPost2010Prop55
280
     0
102
RTVSPost2010PropOp55
 70
     1
102
RTVSPost2010Prop56
140
1.0
102
RTVSPost2010PropOp56
 70
     0
102
RTVSPost2010Prop57
140
1.0
102
RTVSPost2010PropOp57
 70
     0
102
RTVSPropertyOp0
 70
     0
102
RTVSPropertyOp1
 70
     0
102
RTVSPropertyOp2
 70
     0
102
RTVSPropertyOp3
 70
     0
102
RTVSPropertyOp4
 70
     0
102
RTVSPropertyOp5
 70
     0
102
RTVSPropertyOp6
 70
     0
102
RTVSPropertyOp7
 70
     0
102
RTVSPropertyOp8
 70
     0
102
RTVSPropertyOp9
 70
     0
102
RTVSPropertyOp10
 70
     0
102
RTVSPropertyOp11
 70
     0
102
RTVSPropertyOp12
 70
     0
102
RTVSPropertyOp13
 70
     0
102
RTVSPropertyOp14
 70
     2
102
RTVSPropertyOp15
 70
     0
102
RTVSPropertyOp16
 70
     0
102
RTVSPropertyOp17
 70
     0
102
RTVSPropertyOp18
 70
     0
102
RTVSPropertyOp19
 70
     0
102
RTVSPropertyOp20
 70
     0
102
RTVSPropertyOp21
 70
     0
102
RTVSPropertyOp22
 70
     0
102
RTVSPropertyOp23
 70
     0
102
RTVSPropertyOp24
 70
     0
102
RTVSPropertyOp25
 70
     0
102
RTVSPropertyOp26
 70
     0
102
RTVSPropertyOp27
 70
     0
102
RTVSPropertyOp28
 70
     1
102
RTVSPropertyOp29
 70
     1
102
RTVSPropertyOp30
 70
     1
102
RTVSPropertyOp31
 70
     1
102
RTVSPropertyOp32
 70
     1
102
RTVSPropertyOp33
 70
     1
102
RTVSPropertyOp34
 70
     1
102
RTVSPropertyOp35
 70
     1
102
RTVSPropertyOp36
 70
     1
102
RTVSPropertyOp37
 70
     0
102
RTVSPropertyOp38
 70
     0
102
RTVSPropertyOp39
 70
     0
102
RTVSPropertyOp40
 70
     0
102
RTVSPropertyOp41
 70
     0
102
RTVSPropertyOp42
 70
     0
102
RTVSPropertyOp43
 70
     0
102
RTVSPropertyOp44
 70
     0
102
RTVSPropertyOp45
 70
     1
102
RTVSPropertyOp46
 70
     0
102
RTVSPropertyOp47
 70
     0
102
RTVSPropertyOp48
 70
     0
102
RTVSPropertyOp49
 70
     1
102
RTVSPropertyOp50
 70
     0
102
RTVSPropertyOp51
 70
     0
102
RTVSPropertyOp52
 70
     0
102
RTVSPropertyOp53
 70
     0
102
RTVSPropertyOp54
 70
     0
102
RTVSPropertyOp55
 70
     1
102
RTVSPropertyOp56
 70
     0
102
RTVSPropertyOp57
 70
     0
102
RTVSPropertyOp58
 70
     0
102
RTVSPropertyOp59
 70
     0
102
RTVSPropertyOp60
 70
     0
102
RTVSPropertyOp61
 70
     0
102
RTVSPropertyOp62
 70
     0
  0
XRECORD
  5
BF3F
102
{ACAD_REACTORS
330
BF3E
102
}
330
BF3E
100
AcDbXrecord
280
     1
102
RTVSPost2010Prop28
280
     0
102
RTVSPost2010PropOp28
 70
     1
102
RTVSPost2010Prop29
280
     1
102
RTVSPost2010PropOp29
 70
     1
102
RTVSPost2010Prop30
280
     1
102
RTVSPost2010PropOp30
 70
     1
102
RTVSPost2010Prop31
280
     0
102
RTVSPost2010PropOp31
 70
     1
102
RTVSPost2010Prop32
280
     0
102
RTVSPost2010PropOp32
 70
     1
102
RTVSPost2010Prop33
280
     0
102
RTVSPost2010PropOp33
 70
     1
102
RTVSPost2010Prop34
280
     0
102
RTVSPost2010PropOp34
 70
     1
102
RTVSPost2010Prop35
280
     0
102
RTVSPost2010PropOp35
 70
     1
102
RTVSPost2010Prop36
280
     0
102
RTVSPost2010PropOp36
 70
     1
102
RTVSPost2010Prop37
 90
       50
102
RTVSPost2010PropOp37
 70
     1
102
RTVSPost2010Prop38
140
0.0
102
RTVSPost2010PropOp38
 70
     1
102
RTVSPost2010Prop39
140
1.0
102
RTVSPost2010PropOp39
 70
     1
102
RTVSPost2010Prop40
 90
        0
102
RTVSPost2010PropOp40
 70
     1
102
RTVSPost2010Prop41ColorIndex
 90
       18
102
RTVSPost2010Prop41ColorRGB
 90
        0
102
RTVSPost2010PropOp41
 70
     1
102
RTVSPost2010Prop42
 90
       50
102
RTVSPost2010PropOp42
 70
     1
102
RTVSPost2010Prop43
 90
        3
102
RTVSPost2010PropOp43
 70
     1
102
RTVSPost2010Prop44ColorIndex
 90
        5
102
RTVSPost2010Prop44ColorRGB
 90
      255
102
RTVSPost2010PropOp44
 70
     1
102
RTVSPost2010Prop45
280
     0
102
RTVSPost2010PropOp45
 70
     1
102
RTVSPost2010Prop46
 90
       50
102
RTVSPost2010PropOp46
 70
     1
102
RTVSPost2010Prop47
 90
       50
102
RTVSPost2010PropOp47
 70
     1
102
RTVSPost2010Prop48
 90
       50
102
RTVSPost2010PropOp48
 70
     1
102
RTVSPost2010Prop49
280
     0
102
RTVSPost2010PropOp49
 70
     1
102
RTVSPost2010Prop50
 90
       50
102
RTVSPost2010PropOp50
 70
     1
102
RTVSPost2010Prop51ColorIndex
 90
      256
102
RTVSPost2010Prop51ColorRGB
 90
-16777216
102
RTVSPost2010PropOp51
 70
     0
102
RTVSPost2010Prop52
140
1.0
102
RTVSPost2010PropOp52
 70
     0
102
RTVSPost2010Prop53
 90
        2
102
RTVSPost2010PropOp53
 70
     1
102
RTVSPost2010Prop54
  1
strokes_ogs.tif
102
RTVSPost2010PropOp54
 70
     1
102
RTVSPost2010Prop55
280
     0
102
RTVSPost2010PropOp55
 70
     1
102
RTVSPost2010Prop56
140
1.0
102
RTVSPost2010PropOp56
 70
     1
102
RTVSPost2010Prop57
140
1.0
102
RTVSPost2010PropOp57
 70
     1
102
RTVSPropertyOp0
 70
     1
102
RTVSPropertyOp1
 70
     1
102
RTVSPropertyOp2
 70
     1
102
RTVSPropertyOp3
 70
     1
102
RTVSPropertyOp4
 70
     1
102
RTVSPropertyOp5
 70
     1
102
RTVSPropertyOp6
 70
     1
102
RTVSPropertyOp7
 70
     1
102
RTVSPropertyOp8
 70
     1
102
RTVSPropertyOp9
 70
     1
102
RTVSPropertyOp10
 70
     1
102
RTVSPropertyOp11
 70
     1
102
RTVSPropertyOp12
 70
     1
102
RTVSPropertyOp13
 70
     1
102
RTVSPropertyOp14
 70
     1
102
RTVSPropertyOp15
 70
     1
102
RTVSPropertyOp16
 70
     1
102
RTVSPropertyOp17
 70
     1
102
RTVSPropertyOp18
 70
     1
102
RTVSPropertyOp19
 70
     1
102
RTVSPropertyOp20
 70
     1
102
RTVSPropertyOp21
 70
     1
102
RTVSPropertyOp22
 70
     1
102
RTVSPropertyOp23
 70
     1
102
RTVSPropertyOp24
 70
     1
102
RTVSPropertyOp25
 70
     1
102
RTVSPropertyOp26
 70
     1
102
RTVSPropertyOp27
 70
     1
102
RTVSPropertyOp28
 70
     1
102
RTVSPropertyOp29
 70
     1
102
RTVSPropertyOp30
 70
     1
102
RTVSPropertyOp31
 70
     1
102
RTVSPropertyOp32
 70
     1
102
RTVSPropertyOp33
 70
     1
102
RTVSPropertyOp34
 70
     1
102
RTVSPropertyOp35
 70
     1
102
RTVSPropertyOp36
 70
     1
102
RTVSPropertyOp37
 70
     1
102
RTVSPropertyOp38
 70
     1
102
RTVSPropertyOp39
 70
     1
102
RTVSPropertyOp40
 70
     1
102
RTVSPropertyOp41
 70
     1
102
RTVSPropertyOp42
 70
     1
102
RTVSPropertyOp43
 70
     1
102
RTVSPropertyOp44
 70
     1
102
RTVSPropertyOp45
 70
     1
102
RTVSPropertyOp46
 70
     1
102
RTVSPropertyOp47
 70
     1
102
RTVSPropertyOp48
 70
     1
102
RTVSPropertyOp49
 70
     1
102
RTVSPropertyOp50
 70
     1
102
RTVSPropertyOp51
 70
     0
102
RTVSPropertyOp52
 70
     0
102
RTVSPropertyOp53
 70
     1
102
RTVSPropertyOp54
 70
     1
102
RTVSPropertyOp55
 70
     1
102
RTVSPropertyOp56
 70
     1
102
RTVSPropertyOp57
 70
     1
102
RTVSPropertyOp58
 70
     1
102
RTVSPropertyOp59
 70
     1
102
RTVSPropertyOp60
 70
     1
102
RTVSPropertyOp61
 70
     1
102
RTVSPropertyOp62
 70
     1
  0
XRECORD
  5
BF23
102
{ACAD_REACTORS
330
BF22
102
}
330
BF22
100
AcDbXrecord
280
     1
102
RTVSPost2010Prop28
280
     0
102
RTVSPost2010PropOp28
 70
     1
102
RTVSPost2010Prop29
280
     1
102
RTVSPost2010PropOp29
 70
     1
102
RTVSPost2010Prop30
280
     1
102
RTVSPost2010PropOp30
 70
     1
102
RTVSPost2010Prop31
280
     0
102
RTVSPost2010PropOp31
 70
     1
102
RTVSPost2010Prop32
280
     0
102
RTVSPost2010PropOp32
 70
     1
102
RTVSPost2010Prop33
280
     0
102
RTVSPost2010PropOp33
 70
     1
102
RTVSPost2010Prop34
280
     0
102
RTVSPost2010PropOp34
 70
     1
102
RTVSPost2010Prop35
280
     0
102
RTVSPost2010PropOp35
 70
     1
102
RTVSPost2010Prop36
280
     0
102
RTVSPost2010PropOp36
 70
     1
102
RTVSPost2010Prop37
 90
       50
102
RTVSPost2010PropOp37
 70
     1
102
RTVSPost2010Prop38
140
0.0
102
RTVSPost2010PropOp38
 70
     1
102
RTVSPost2010Prop39
140
1.0
102
RTVSPost2010PropOp39
 70
     1
102
RTVSPost2010Prop40
 90
        0
102
RTVSPost2010PropOp40
 70
     1
102
RTVSPost2010Prop41ColorIndex
 90
       18
102
RTVSPost2010Prop41ColorRGB
 90
        0
102
RTVSPost2010PropOp41
 70
     1
102
RTVSPost2010Prop42
 90
       50
102
RTVSPost2010PropOp42
 70
     1
102
RTVSPost2010Prop43
 90
        3
102
RTVSPost2010PropOp43
 70
     1
102
RTVSPost2010Prop44ColorIndex
 90
        5
102
RTVSPost2010Prop44ColorRGB
 90
      255
102
RTVSPost2010PropOp44
 70
     1
102
RTVSPost2010Prop45
280
     0
102
RTVSPost2010PropOp45
 70
     1
102
RTVSPost2010Prop46
 90
       50
102
RTVSPost2010PropOp46
 70
     1
102
RTVSPost2010Prop47
 90
       50
102
RTVSPost2010PropOp47
 70
     1
102
RTVSPost2010Prop48
 90
       50
102
RTVSPost2010PropOp48
 70
     1
102
RTVSPost2010Prop49
280
     0
102
RTVSPost2010PropOp49
 70
     1
102
RTVSPost2010Prop50
 90
       50
102
RTVSPost2010PropOp50
 70
     1
102
RTVSPost2010Prop51ColorIndex
 90
      256
102
RTVSPost2010Prop51ColorRGB
 90
-16777216
102
RTVSPost2010PropOp51
 70
     0
102
RTVSPost2010Prop52
140
1.0
102
RTVSPost2010PropOp52
 70
     0
102
RTVSPost2010Prop53
 90
        2
102
RTVSPost2010PropOp53
 70
     1
102
RTVSPost2010Prop54
  1
strokes_ogs.tif
102
RTVSPost2010PropOp54
 70
     1
102
RTVSPost2010Prop55
280
     0
102
RTVSPost2010PropOp55
 70
     1
102
RTVSPost2010Prop56
140
1.0
102
RTVSPost2010PropOp56
 70
     1
102
RTVSPost2010Prop57
140
1.0
102
RTVSPost2010PropOp57
 70
     1
102
RTVSPropertyOp0
 70
     1
102
RTVSPropertyOp1
 70
     1
102
RTVSPropertyOp2
 70
     1
102
RTVSPropertyOp3
 70
     1
102
RTVSPropertyOp4
 70
     1
102
RTVSPropertyOp5
 70
     1
102
RTVSPropertyOp6
 70
     1
102
RTVSPropertyOp7
 70
     1
102
RTVSPropertyOp8
 70
     1
102
RTVSPropertyOp9
 70
     1
102
RTVSPropertyOp10
 70
     1
102
RTVSPropertyOp11
 70
     1
102
RTVSPropertyOp12
 70
     1
102
RTVSPropertyOp13
 70
     1
102
RTVSPropertyOp14
 70
     1
102
RTVSPropertyOp15
 70
     1
102
RTVSPropertyOp16
 70
     1
102
RTVSPropertyOp17
 70
     1
102
RTVSPropertyOp18
 70
     1
102
RTVSPropertyOp19
 70
     1
102
RTVSPropertyOp20
 70
     1
102
RTVSPropertyOp21
 70
     1
102
RTVSPropertyOp22
 70
     1
102
RTVSPropertyOp23
 70
     1
102
RTVSPropertyOp24
 70
     1
102
RTVSPropertyOp25
 70
     1
102
RTVSPropertyOp26
 70
     1
102
RTVSPropertyOp27
 70
     1
102
RTVSPropertyOp28
 70
     1
102
RTVSPropertyOp29
 70
     1
102
RTVSPropertyOp30
 70
     1
102
RTVSPropertyOp31
 70
     1
102
RTVSPropertyOp32
 70
     1
102
RTVSPropertyOp33
 70
     1
102
RTVSPropertyOp34
 70
     1
102
RTVSPropertyOp35
 70
     1
102
RTVSPropertyOp36
 70
     1
102
RTVSPropertyOp37
 70
     1
102
RTVSPropertyOp38
 70
     1
102
RTVSPropertyOp39
 70
     1
102
RTVSPropertyOp40
 70
     1
102
RTVSPropertyOp41
 70
     1
102
RTVSPropertyOp42
 70
     1
102
RTVSPropertyOp43
 70
     1
102
RTVSPropertyOp44
 70
     1
102
RTVSPropertyOp45
 70
     1
102
RTVSPropertyOp46
 70
     1
102
RTVSPropertyOp47
 70
     1
102
RTVSPropertyOp48
 70
     1
102
RTVSPropertyOp49
 70
     1
102
RTVSPropertyOp50
 70
     1
102
RTVSPropertyOp51
 70
     0
102
RTVSPropertyOp52
 70
     0
102
RTVSPropertyOp53
 70
     1
102
RTVSPropertyOp54
 70
     1
102
RTVSPropertyOp55
 70
     1
102
RTVSPropertyOp56
 70
     1
102
RTVSPropertyOp57
 70
     1
102
RTVSPropertyOp58
 70
     1
102
RTVSPropertyOp59
 70
     1
102
RTVSPropertyOp60
 70
     1
102
RTVSPropertyOp61
 70
     1
102
RTVSPropertyOp62
 70
     1
  0
XRECORD
  5
BF25
102
{ACAD_REACTORS
330
BF24
102
}
330
BF24
100
AcDbXrecord
280
     1
102
RTVSPost2010Prop28
280
     0
102
RTVSPost2010PropOp28
 70
     1
102
RTVSPost2010Prop29
280
     1
102
RTVSPost2010PropOp29
 70
     1
102
RTVSPost2010Prop30
280
     1
102
RTVSPost2010PropOp30
 70
     1
102
RTVSPost2010Prop31
280
     0
102
RTVSPost2010PropOp31
 70
     1
102
RTVSPost2010Prop32
280
     0
102
RTVSPost2010PropOp32
 70
     1
102
RTVSPost2010Prop33
280
     0
102
RTVSPost2010PropOp33
 70
     1
102
RTVSPost2010Prop34
280
     0
102
RTVSPost2010PropOp34
 70
     1
102
RTVSPost2010Prop35
280
     0
102
RTVSPost2010PropOp35
 70
     1
102
RTVSPost2010Prop36
280
     0
102
RTVSPost2010PropOp36
 70
     1
102
RTVSPost2010Prop37
 90
       50
102
RTVSPost2010PropOp37
 70
     1
102
RTVSPost2010Prop38
140
0.0
102
RTVSPost2010PropOp38
 70
     1
102
RTVSPost2010Prop39
140
1.0
102
RTVSPost2010PropOp39
 70
     1
102
RTVSPost2010Prop40
 90
        0
102
RTVSPost2010PropOp40
 70
     1
102
RTVSPost2010Prop41ColorIndex
 90
       18
102
RTVSPost2010Prop41ColorRGB
 90
        0
102
RTVSPost2010PropOp41
 70
     1
102
RTVSPost2010Prop42
 90
       50
102
RTVSPost2010PropOp42
 70
     1
102
RTVSPost2010Prop43
 90
        3
102
RTVSPost2010PropOp43
 70
     1
102
RTVSPost2010Prop44ColorIndex
 90
        5
102
RTVSPost2010Prop44ColorRGB
 90
      255
102
RTVSPost2010PropOp44
 70
     1
102
RTVSPost2010Prop45
280
     0
102
RTVSPost2010PropOp45
 70
     1
102
RTVSPost2010Prop46
 90
       50
102
RTVSPost2010PropOp46
 70
     1
102
RTVSPost2010Prop47
 90
       50
102
RTVSPost2010PropOp47
 70
     1
102
RTVSPost2010Prop48
 90
       50
102
RTVSPost2010PropOp48
 70
     1
102
RTVSPost2010Prop49
280
     0
102
RTVSPost2010PropOp49
 70
     1
102
RTVSPost2010Prop50
 90
       50
102
RTVSPost2010PropOp50
 70
     1
102
RTVSPost2010Prop51ColorIndex
 90
      256
102
RTVSPost2010Prop51ColorRGB
 90
-16777216
102
RTVSPost2010PropOp51
 70
     0
102
RTVSPost2010Prop52
140
1.0
102
RTVSPost2010PropOp52
 70
     0
102
RTVSPost2010Prop53
 90
        2
102
RTVSPost2010PropOp53
 70
     1
102
RTVSPost2010Prop54
  1
strokes_ogs.tif
102
RTVSPost2010PropOp54
 70
     1
102
RTVSPost2010Prop55
280
     0
102
RTVSPost2010PropOp55
 70
     1
102
RTVSPost2010Prop56
140
1.0
102
RTVSPost2010PropOp56
 70
     1
102
RTVSPost2010Prop57
140
1.0
102
RTVSPost2010PropOp57
 70
     1
102
RTVSPropertyOp0
 70
     1
102
RTVSPropertyOp1
 70
     1
102
RTVSPropertyOp2
 70
     1
102
RTVSPropertyOp3
 70
     1
102
RTVSPropertyOp4
 70
     1
102
RTVSPropertyOp5
 70
     1
102
RTVSPropertyOp6
 70
     1
102
RTVSPropertyOp7
 70
     1
102
RTVSPropertyOp8
 70
     1
102
RTVSPropertyOp9
 70
     1
102
RTVSPropertyOp10
 70
     1
102
RTVSPropertyOp11
 70
     1
102
RTVSPropertyOp12
 70
     1
102
RTVSPropertyOp13
 70
     1
102
RTVSPropertyOp14
 70
     1
102
RTVSPropertyOp15
 70
     1
102
RTVSPropertyOp16
 70
     1
102
RTVSPropertyOp17
 70
     1
102
RTVSPropertyOp18
 70
     1
102
RTVSPropertyOp19
 70
     1
102
RTVSPropertyOp20
 70
     1
102
RTVSPropertyOp21
 70
     1
102
RTVSPropertyOp22
 70
     1
102
RTVSPropertyOp23
 70
     1
102
RTVSPropertyOp24
 70
     1
102
RTVSPropertyOp25
 70
     1
102
RTVSPropertyOp26
 70
     1
102
RTVSPropertyOp27
 70
     1
102
RTVSPropertyOp28
 70
     1
102
RTVSPropertyOp29
 70
     1
102
RTVSPropertyOp30
 70
     1
102
RTVSPropertyOp31
 70
     1
102
RTVSPropertyOp32
 70
     1
102
RTVSPropertyOp33
 70
     1
102
RTVSPropertyOp34
 70
     1
102
RTVSPropertyOp35
 70
     1
102
RTVSPropertyOp36
 70
     1
102
RTVSPropertyOp37
 70
     1
102
RTVSPropertyOp38
 70
     1
102
RTVSPropertyOp39
 70
     1
102
RTVSPropertyOp40
 70
     1
102
RTVSPropertyOp41
 70
     1
102
RTVSPropertyOp42
 70
     1
102
RTVSPropertyOp43
 70
     1
102
RTVSPropertyOp44
 70
     1
102
RTVSPropertyOp45
 70
     1
102
RTVSPropertyOp46
 70
     1
102
RTVSPropertyOp47
 70
     1
102
RTVSPropertyOp48
 70
     1
102
RTVSPropertyOp49
 70
     1
102
RTVSPropertyOp50
 70
     1
102
RTVSPropertyOp51
 70
     0
102
RTVSPropertyOp52
 70
     0
102
RTVSPropertyOp53
 70
     1
102
RTVSPropertyOp54
 70
     1
102
RTVSPropertyOp55
 70
     1
102
RTVSPropertyOp56
 70
     1
102
RTVSPropertyOp57
 70
     1
102
RTVSPropertyOp58
 70
     1
102
RTVSPropertyOp59
 70
     1
102
RTVSPropertyOp60
 70
     1
102
RTVSPropertyOp61
 70
     1
102
RTVSPropertyOp62
 70
     1
  0
XRECORD
  5
BF27
102
{ACAD_REACTORS
330
BF26
102
}
330
BF26
100
AcDbXrecord
280
     1
102
RTVSPost2010Prop28
280
     0
102
RTVSPost2010PropOp28
 70
     1
102
RTVSPost2010Prop29
280
     1
102
RTVSPost2010PropOp29
 70
     1
102
RTVSPost2010Prop30
280
     1
102
RTVSPost2010PropOp30
 70
     1
102
RTVSPost2010Prop31
280
     0
102
RTVSPost2010PropOp31
 70
     1
102
RTVSPost2010Prop32
280
     0
102
RTVSPost2010PropOp32
 70
     1
102
RTVSPost2010Prop33
280
     0
102
RTVSPost2010PropOp33
 70
     1
102
RTVSPost2010Prop34
280
     0
102
RTVSPost2010PropOp34
 70
     1
102
RTVSPost2010Prop35
280
     0
102
RTVSPost2010PropOp35
 70
     1
102
RTVSPost2010Prop36
280
     0
102
RTVSPost2010PropOp36
 70
     1
102
RTVSPost2010Prop37
 90
       50
102
RTVSPost2010PropOp37
 70
     1
102
RTVSPost2010Prop38
140
0.0
102
RTVSPost2010PropOp38
 70
     1
102
RTVSPost2010Prop39
140
1.0
102
RTVSPost2010PropOp39
 70
     1
102
RTVSPost2010Prop40
 90
        0
102
RTVSPost2010PropOp40
 70
     1
102
RTVSPost2010Prop41ColorIndex
 90
       18
102
RTVSPost2010Prop41ColorRGB
 90
        0
102
RTVSPost2010PropOp41
 70
     1
102
RTVSPost2010Prop42
 90
       50
102
RTVSPost2010PropOp42
 70
     1
102
RTVSPost2010Prop43
 90
        3
102
RTVSPost2010PropOp43
 70
     1
102
RTVSPost2010Prop44ColorIndex
 90
        5
102
RTVSPost2010Prop44ColorRGB
 90
      255
102
RTVSPost2010PropOp44
 70
     1
102
RTVSPost2010Prop45
280
     0
102
RTVSPost2010PropOp45
 70
     1
102
RTVSPost2010Prop46
 90
       50
102
RTVSPost2010PropOp46
 70
     1
102
RTVSPost2010Prop47
 90
       50
102
RTVSPost2010PropOp47
 70
     1
102
RTVSPost2010Prop48
 90
       50
102
RTVSPost2010PropOp48
 70
     1
102
RTVSPost2010Prop49
280
     0
102
RTVSPost2010PropOp49
 70
     1
102
RTVSPost2010Prop50
 90
       50
102
RTVSPost2010PropOp50
 70
     1
102
RTVSPost2010Prop51ColorIndex
 90
      256
102
RTVSPost2010Prop51ColorRGB
 90
-16777216
102
RTVSPost2010PropOp51
 70
     0
102
RTVSPost2010Prop52
140
1.0
102
RTVSPost2010PropOp52
 70
     0
102
RTVSPost2010Prop53
 90
        2
102
RTVSPost2010PropOp53
 70
     1
102
RTVSPost2010Prop54
  1
strokes_ogs.tif
102
RTVSPost2010PropOp54
 70
     1
102
RTVSPost2010Prop55
280
     0
102
RTVSPost2010PropOp55
 70
     1
102
RTVSPost2010Prop56
140
1.0
102
RTVSPost2010PropOp56
 70
     1
102
RTVSPost2010Prop57
140
1.0
102
RTVSPost2010PropOp57
 70
     1
102
RTVSPropertyOp0
 70
     1
102
RTVSPropertyOp1
 70
     1
102
RTVSPropertyOp2
 70
     1
102
RTVSPropertyOp3
 70
     1
102
RTVSPropertyOp4
 70
     1
102
RTVSPropertyOp5
 70
     1
102
RTVSPropertyOp6
 70
     1
102
RTVSPropertyOp7
 70
     1
102
RTVSPropertyOp8
 70
     1
102
RTVSPropertyOp9
 70
     1
102
RTVSPropertyOp10
 70
     1
102
RTVSPropertyOp11
 70
     1
102
RTVSPropertyOp12
 70
     1
102
RTVSPropertyOp13
 70
     1
102
RTVSPropertyOp14
 70
     1
102
RTVSPropertyOp15
 70
     1
102
RTVSPropertyOp16
 70
     1
102
RTVSPropertyOp17
 70
     1
102
RTVSPropertyOp18
 70
     1
102
RTVSPropertyOp19
 70
     1
102
RTVSPropertyOp20
 70
     1
102
RTVSPropertyOp21
 70
     1
102
RTVSPropertyOp22
 70
     1
102
RTVSPropertyOp23
 70
     1
102
RTVSPropertyOp24
 70
     1
102
RTVSPropertyOp25
 70
     1
102
RTVSPropertyOp26
 70
     1
102
RTVSPropertyOp27
 70
     1
102
RTVSPropertyOp28
 70
     1
102
RTVSPropertyOp29
 70
     1
102
RTVSPropertyOp30
 70
     1
102
RTVSPropertyOp31
 70
     1
102
RTVSPropertyOp32
 70
     1
102
RTVSPropertyOp33
 70
     1
102
RTVSPropertyOp34
 70
     1
102
RTVSPropertyOp35
 70
     1
102
RTVSPropertyOp36
 70
     1
102
RTVSPropertyOp37
 70
     1
102
RTVSPropertyOp38
 70
     1
102
RTVSPropertyOp39
 70
     1
102
RTVSPropertyOp40
 70
     1
102
RTVSPropertyOp41
 70
     1
102
RTVSPropertyOp42
 70
     1
102
RTVSPropertyOp43
 70
     1
102
RTVSPropertyOp44
 70
     1
102
RTVSPropertyOp45
 70
     1
102
RTVSPropertyOp46
 70
     1
102
RTVSPropertyOp47
 70
     1
102
RTVSPropertyOp48
 70
     1
102
RTVSPropertyOp49
 70
     1
102
RTVSPropertyOp50
 70
     1
102
RTVSPropertyOp51
 70
     0
102
RTVSPropertyOp52
 70
     0
102
RTVSPropertyOp53
 70
     1
102
RTVSPropertyOp54
 70
     1
102
RTVSPropertyOp55
 70
     1
102
RTVSPropertyOp56
 70
     1
102
RTVSPropertyOp57
 70
     1
102
RTVSPropertyOp58
 70
     1
102
RTVSPropertyOp59
 70
     1
102
RTVSPropertyOp60
 70
     1
102
RTVSPropertyOp61
 70
     1
102
RTVSPropertyOp62
 70
     1
  0
XRECORD
  5
BF29
102
{ACAD_REACTORS
330
BF28
102
}
330
BF28
100
AcDbXrecord
280
     1
102
RTVSPost2010Prop28
280
     0
102
RTVSPost2010PropOp28
 70
     1
102
RTVSPost2010Prop29
280
     1
102
RTVSPost2010PropOp29
 70
     1
102
RTVSPost2010Prop30
280
     1
102
RTVSPost2010PropOp30
 70
     1
102
RTVSPost2010Prop31
280
     0
102
RTVSPost2010PropOp31
 70
     1
102
RTVSPost2010Prop32
280
     0
102
RTVSPost2010PropOp32
 70
     1
102
RTVSPost2010Prop33
280
     0
102
RTVSPost2010PropOp33
 70
     1
102
RTVSPost2010Prop34
280
     0
102
RTVSPost2010PropOp34
 70
     1
102
RTVSPost2010Prop35
280
     0
102
RTVSPost2010PropOp35
 70
     1
102
RTVSPost2010Prop36
280
     0
102
RTVSPost2010PropOp36
 70
     1
102
RTVSPost2010Prop37
 90
       50
102
RTVSPost2010PropOp37
 70
     1
102
RTVSPost2010Prop38
140
0.0
102
RTVSPost2010PropOp38
 70
     1
102
RTVSPost2010Prop39
140
1.0
102
RTVSPost2010PropOp39
 70
     1
102
RTVSPost2010Prop40
 90
        0
102
RTVSPost2010PropOp40
 70
     1
102
RTVSPost2010Prop41ColorIndex
 90
       18
102
RTVSPost2010Prop41ColorRGB
 90
        0
102
RTVSPost2010PropOp41
 70
     1
102
RTVSPost2010Prop42
 90
       50
102
RTVSPost2010PropOp42
 70
     1
102
RTVSPost2010Prop43
 90
        3
102
RTVSPost2010PropOp43
 70
     1
102
RTVSPost2010Prop44ColorIndex
 90
        5
102
RTVSPost2010Prop44ColorRGB
 90
      255
102
RTVSPost2010PropOp44
 70
     1
102
RTVSPost2010Prop45
280
     0
102
RTVSPost2010PropOp45
 70
     1
102
RTVSPost2010Prop46
 90
       50
102
RTVSPost2010PropOp46
 70
     1
102
RTVSPost2010Prop47
 90
       50
102
RTVSPost2010PropOp47
 70
     1
102
RTVSPost2010Prop48
 90
       50
102
RTVSPost2010PropOp48
 70
     1
102
RTVSPost2010Prop49
280
     0
102
RTVSPost2010PropOp49
 70
     1
102
RTVSPost2010Prop50
 90
       50
102
RTVSPost2010PropOp50
 70
     1
102
RTVSPost2010Prop51ColorIndex
 90
      256
102
RTVSPost2010Prop51ColorRGB
 90
-16777216
102
RTVSPost2010PropOp51
 70
     0
102
RTVSPost2010Prop52
140
1.0
102
RTVSPost2010PropOp52
 70
     0
102
RTVSPost2010Prop53
 90
        2
102
RTVSPost2010PropOp53
 70
     1
102
RTVSPost2010Prop54
  1
strokes_ogs.tif
102
RTVSPost2010PropOp54
 70
     1
102
RTVSPost2010Prop55
280
     0
102
RTVSPost2010PropOp55
 70
     1
102
RTVSPost2010Prop56
140
1.0
102
RTVSPost2010PropOp56
 70
     1
102
RTVSPost2010Prop57
140
1.0
102
RTVSPost2010PropOp57
 70
     1
102
RTVSPropertyOp0
 70
     1
102
RTVSPropertyOp1
 70
     1
102
RTVSPropertyOp2
 70
     1
102
RTVSPropertyOp3
 70
     1
102
RTVSPropertyOp4
 70
     1
102
RTVSPropertyOp5
 70
     1
102
RTVSPropertyOp6
 70
     1
102
RTVSPropertyOp7
 70
     1
102
RTVSPropertyOp8
 70
     1
102
RTVSPropertyOp9
 70
     1
102
RTVSPropertyOp10
 70
     1
102
RTVSPropertyOp11
 70
     1
102
RTVSPropertyOp12
 70
     1
102
RTVSPropertyOp13
 70
     1
102
RTVSPropertyOp14
 70
     1
102
RTVSPropertyOp15
 70
     1
102
RTVSPropertyOp16
 70
     1
102
RTVSPropertyOp17
 70
     1
102
RTVSPropertyOp18
 70
     1
102
RTVSPropertyOp19
 70
     1
102
RTVSPropertyOp20
 70
     1
102
RTVSPropertyOp21
 70
     1
102
RTVSPropertyOp22
 70
     1
102
RTVSPropertyOp23
 70
     1
102
RTVSPropertyOp24
 70
     1
102
RTVSPropertyOp25
 70
     1
102
RTVSPropertyOp26
 70
     1
102
RTVSPropertyOp27
 70
     1
102
RTVSPropertyOp28
 70
     1
102
RTVSPropertyOp29
 70
     1
102
RTVSPropertyOp30
 70
     1
102
RTVSPropertyOp31
 70
     1
102
RTVSPropertyOp32
 70
     1
102
RTVSPropertyOp33
 70
     1
102
RTVSPropertyOp34
 70
     1
102
RTVSPropertyOp35
 70
     1
102
RTVSPropertyOp36
 70
     1
102
RTVSPropertyOp37
 70
     1
102
RTVSPropertyOp38
 70
     1
102
RTVSPropertyOp39
 70
     1
102
RTVSPropertyOp40
 70
     1
102
RTVSPropertyOp41
 70
     1
102
RTVSPropertyOp42
 70
     1
102
RTVSPropertyOp43
 70
     1
102
RTVSPropertyOp44
 70
     1
102
RTVSPropertyOp45
 70
     1
102
RTVSPropertyOp46
 70
     1
102
RTVSPropertyOp47
 70
     1
102
RTVSPropertyOp48
 70
     1
102
RTVSPropertyOp49
 70
     1
102
RTVSPropertyOp50
 70
     1
102
RTVSPropertyOp51
 70
     0
102
RTVSPropertyOp52
 70
     0
102
RTVSPropertyOp53
 70
     1
102
RTVSPropertyOp54
 70
     1
102
RTVSPropertyOp55
 70
     1
102
RTVSPropertyOp56
 70
     1
102
RTVSPropertyOp57
 70
     1
102
RTVSPropertyOp58
 70
     1
102
RTVSPropertyOp59
 70
     1
102
RTVSPropertyOp60
 70
     1
102
RTVSPropertyOp61
 70
     1
102
RTVSPropertyOp62
 70
     1
  0
XRECORD
  5
BF31
102
{ACAD_REACTORS
330
BF30
102
}
330
BF30
100
AcDbXrecord
280
     1
102
RTVSPost2010Prop28
280
     0
102
RTVSPost2010PropOp28
 70
     1
102
RTVSPost2010Prop29
280
     1
102
RTVSPost2010PropOp29
 70
     1
102
RTVSPost2010Prop30
280
     1
102
RTVSPost2010PropOp30
 70
     1
102
RTVSPost2010Prop31
280
     0
102
RTVSPost2010PropOp31
 70
     1
102
RTVSPost2010Prop32
280
     0
102
RTVSPost2010PropOp32
 70
     1
102
RTVSPost2010Prop33
280
     0
102
RTVSPost2010PropOp33
 70
     1
102
RTVSPost2010Prop34
280
     0
102
RTVSPost2010PropOp34
 70
     1
102
RTVSPost2010Prop35
280
     0
102
RTVSPost2010PropOp35
 70
     1
102
RTVSPost2010Prop36
280
     0
102
RTVSPost2010PropOp36
 70
     1
102
RTVSPost2010Prop37
 90
       50
102
RTVSPost2010PropOp37
 70
     1
102
RTVSPost2010Prop38
140
0.0
102
RTVSPost2010PropOp38
 70
     1
102
RTVSPost2010Prop39
140
1.0
102
RTVSPost2010PropOp39
 70
     1
102
RTVSPost2010Prop40
 90
        0
102
RTVSPost2010PropOp40
 70
     1
102
RTVSPost2010Prop41ColorIndex
 90
       18
102
RTVSPost2010Prop41ColorRGB
 90
        0
102
RTVSPost2010PropOp41
 70
     1
102
RTVSPost2010Prop42
 90
       50
102
RTVSPost2010PropOp42
 70
     1
102
RTVSPost2010Prop43
 90
        3
102
RTVSPost2010PropOp43
 70
     1
102
RTVSPost2010Prop44ColorIndex
 90
        5
102
RTVSPost2010Prop44ColorRGB
 90
      255
102
RTVSPost2010PropOp44
 70
     1
102
RTVSPost2010Prop45
280
     0
102
RTVSPost2010PropOp45
 70
     1
102
RTVSPost2010Prop46
 90
       50
102
RTVSPost2010PropOp46
 70
     1
102
RTVSPost2010Prop47
 90
       50
102
RTVSPost2010PropOp47
 70
     1
102
RTVSPost2010Prop48
 90
       50
102
RTVSPost2010PropOp48
 70
     1
102
RTVSPost2010Prop49
280
     0
102
RTVSPost2010PropOp49
 70
     1
102
RTVSPost2010Prop50
 90
       50
102
RTVSPost2010PropOp50
 70
     1
102
RTVSPost2010Prop51ColorIndex
 90
      256
102
RTVSPost2010Prop51ColorRGB
 90
-16777216
102
RTVSPost2010PropOp51
 70
     0
102
RTVSPost2010Prop52
140
1.0
102
RTVSPost2010PropOp52
 70
     0
102
RTVSPost2010Prop53
 90
        2
102
RTVSPost2010PropOp53
 70
     1
102
RTVSPost2010Prop54
  1
strokes_ogs.tif
102
RTVSPost2010PropOp54
 70
     1
102
RTVSPost2010Prop55
280
     0
102
RTVSPost2010PropOp55
 70
     1
102
RTVSPost2010Prop56
140
1.0
102
RTVSPost2010PropOp56
 70
     1
102
RTVSPost2010Prop57
140
1.0
102
RTVSPost2010PropOp57
 70
     1
102
RTVSPropertyOp0
 70
     1
102
RTVSPropertyOp1
 70
     1
102
RTVSPropertyOp2
 70
     1
102
RTVSPropertyOp3
 70
     1
102
RTVSPropertyOp4
 70
     1
102
RTVSPropertyOp5
 70
     1
102
RTVSPropertyOp6
 70
     1
102
RTVSPropertyOp7
 70
     1
102
RTVSPropertyOp8
 70
     1
102
RTVSPropertyOp9
 70
     1
102
RTVSPropertyOp10
 70
     1
102
RTVSPropertyOp11
 70
     1
102
RTVSPropertyOp12
 70
     1
102
RTVSPropertyOp13
 70
     1
102
RTVSPropertyOp14
 70
     1
102
RTVSPropertyOp15
 70
     1
102
RTVSPropertyOp16
 70
     1
102
RTVSPropertyOp17
 70
     1
102
RTVSPropertyOp18
 70
     1
102
RTVSPropertyOp19
 70
     1
102
RTVSPropertyOp20
 70
     1
102
RTVSPropertyOp21
 70
     1
102
RTVSPropertyOp22
 70
     1
102
RTVSPropertyOp23
 70
     1
102
RTVSPropertyOp24
 70
     1
102
RTVSPropertyOp25
 70
     1
102
RTVSPropertyOp26
 70
     1
102
RTVSPropertyOp27
 70
     1
102
RTVSPropertyOp28
 70
     1
102
RTVSPropertyOp29
 70
     1
102
RTVSPropertyOp30
 70
     1
102
RTVSPropertyOp31
 70
     1
102
RTVSPropertyOp32
 70
     1
102
RTVSPropertyOp33
 70
     1
102
RTVSPropertyOp34
 70
     1
102
RTVSPropertyOp35
 70
     1
102
RTVSPropertyOp36
 70
     1
102
RTVSPropertyOp37
 70
     1
102
RTVSPropertyOp38
 70
     1
102
RTVSPropertyOp39
 70
     1
102
RTVSPropertyOp40
 70
     1
102
RTVSPropertyOp41
 70
     1
102
RTVSPropertyOp42
 70
     1
102
RTVSPropertyOp43
 70
     1
102
RTVSPropertyOp44
 70
     1
102
RTVSPropertyOp45
 70
     1
102
RTVSPropertyOp46
 70
     1
102
RTVSPropertyOp47
 70
     1
102
RTVSPropertyOp48
 70
     1
102
RTVSPropertyOp49
 70
     1
102
RTVSPropertyOp50
 70
     1
102
RTVSPropertyOp51
 70
     0
102
RTVSPropertyOp52
 70
     0
102
RTVSPropertyOp53
 70
     1
102
RTVSPropertyOp54
 70
     1
102
RTVSPropertyOp55
 70
     1
102
RTVSPropertyOp56
 70
     1
102
RTVSPropertyOp57
 70
     1
102
RTVSPropertyOp58
 70
     1
102
RTVSPropertyOp59
 70
     1
102
RTVSPropertyOp60
 70
     1
102
RTVSPropertyOp61
 70
     1
102
RTVSPropertyOp62
 70
     1
  0
XRECORD
  5
BF4D
102
{ACAD_REACTORS
330
BF4C
102
}
330
BF4C
100
AcDbXrecord
280
     1
102
RTVSPost2010Prop28
280
     0
102
RTVSPost2010PropOp28
 70
     1
102
RTVSPost2010Prop29
280
     1
102
RTVSPost2010PropOp29
 70
     1
102
RTVSPost2010Prop30
280
     1
102
RTVSPost2010PropOp30
 70
     1
102
RTVSPost2010Prop31
280
     0
102
RTVSPost2010PropOp31
 70
     1
102
RTVSPost2010Prop32
280
     0
102
RTVSPost2010PropOp32
 70
     1
102
RTVSPost2010Prop33
280
     0
102
RTVSPost2010PropOp33
 70
     1
102
RTVSPost2010Prop34
280
     0
102
RTVSPost2010PropOp34
 70
     1
102
RTVSPost2010Prop35
280
     0
102
RTVSPost2010PropOp35
 70
     1
102
RTVSPost2010Prop36
280
     0
102
RTVSPost2010PropOp36
 70
     1
102
RTVSPost2010Prop37
 90
       50
102
RTVSPost2010PropOp37
 70
     0
102
RTVSPost2010Prop38
140
0.0
102
RTVSPost2010PropOp38
 70
     0
102
RTVSPost2010Prop39
140
1.0
102
RTVSPost2010PropOp39
 70
     0
102
RTVSPost2010Prop40
 90
        0
102
RTVSPost2010PropOp40
 70
     0
102
RTVSPost2010Prop41ColorIndex
 90
       18
102
RTVSPost2010Prop41ColorRGB
 90
        0
102
RTVSPost2010PropOp41
 70
     0
102
RTVSPost2010Prop42
 90
       50
102
RTVSPost2010PropOp42
 70
     0
102
RTVSPost2010Prop43
 90
        3
102
RTVSPost2010PropOp43
 70
     0
102
RTVSPost2010Prop44ColorIndex
 90
        5
102
RTVSPost2010Prop44ColorRGB
 90
      255
102
RTVSPost2010PropOp44
 70
     0
102
RTVSPost2010Prop45
280
     0
102
RTVSPost2010PropOp45
 70
     1
102
RTVSPost2010Prop46
 90
       50
102
RTVSPost2010PropOp46
 70
     0
102
RTVSPost2010Prop47
 90
       50
102
RTVSPost2010PropOp47
 70
     0
102
RTVSPost2010Prop48
 90
       50
102
RTVSPost2010PropOp48
 70
     0
102
RTVSPost2010Prop49
280
     0
102
RTVSPost2010PropOp49
 70
     1
102
RTVSPost2010Prop50
 90
       50
102
RTVSPost2010PropOp50
 70
     0
102
RTVSPost2010Prop51ColorIndex
 90
      256
102
RTVSPost2010Prop51ColorRGB
 90
-16777216
102
RTVSPost2010PropOp51
 70
     0
102
RTVSPost2010Prop52
140
1.0
102
RTVSPost2010PropOp52
 70
     0
102
RTVSPost2010Prop53
 90
        2
102
RTVSPost2010PropOp53
 70
     0
102
RTVSPost2010Prop54
  1
strokes_ogs.tif
102
RTVSPost2010PropOp54
 70
     0
102
RTVSPost2010Prop55
280
     0
102
RTVSPost2010PropOp55
 70
     1
102
RTVSPost2010Prop56
140
1.0
102
RTVSPost2010PropOp56
 70
     0
102
RTVSPost2010Prop57
140
1.0
102
RTVSPost2010PropOp57
 70
     0
102
RTVSPropertyOp0
 70
     0
102
RTVSPropertyOp1
 70
     0
102
RTVSPropertyOp2
 70
     0
102
RTVSPropertyOp3
 70
     0
102
RTVSPropertyOp4
 70
     0
102
RTVSPropertyOp5
 70
     0
102
RTVSPropertyOp6
 70
     0
102
RTVSPropertyOp7
 70
     0
102
RTVSPropertyOp8
 70
     0
102
RTVSPropertyOp9
 70
     0
102
RTVSPropertyOp10
 70
     0
102
RTVSPropertyOp11
 70
     0
102
RTVSPropertyOp12
 70
     0
102
RTVSPropertyOp13
 70
     0
102
RTVSPropertyOp14
 70
     2
102
RTVSPropertyOp15
 70
     0
102
RTVSPropertyOp16
 70
     0
102
RTVSPropertyOp17
 70
     0
102
RTVSPropertyOp18
 70
     0
102
RTVSPropertyOp19
 70
     0
102
RTVSPropertyOp20
 70
     0
102
RTVSPropertyOp21
 70
     0
102
RTVSPropertyOp22
 70
     0
102
RTVSPropertyOp23
 70
     0
102
RTVSPropertyOp24
 70
     0
102
RTVSPropertyOp25
 70
     0
102
RTVSPropertyOp26
 70
     0
102
RTVSPropertyOp27
 70
     0
102
RTVSPropertyOp28
 70
     1
102
RTVSPropertyOp29
 70
     1
102
RTVSPropertyOp30
 70
     1
102
RTVSPropertyOp31
 70
     1
102
RTVSPropertyOp32
 70
     1
102
RTVSPropertyOp33
 70
     1
102
RTVSPropertyOp34
 70
     1
102
RTVSPropertyOp35
 70
     1
102
RTVSPropertyOp36
 70
     1
102
RTVSPropertyOp37
 70
     0
102
RTVSPropertyOp38
 70
     0
102
RTVSPropertyOp39
 70
     0
102
RTVSPropertyOp40
 70
     0
102
RTVSPropertyOp41
 70
     0
102
RTVSPropertyOp42
 70
     0
102
RTVSPropertyOp43
 70
     0
102
RTVSPropertyOp44
 70
     0
102
RTVSPropertyOp45
 70
     1
102
RTVSPropertyOp46
 70
     0
102
RTVSPropertyOp47
 70
     0
102
RTVSPropertyOp48
 70
     0
102
RTVSPropertyOp49
 70
     1
102
RTVSPropertyOp50
 70
     0
102
RTVSPropertyOp51
 70
     0
102
RTVSPropertyOp52
 70
     0
102
RTVSPropertyOp53
 70
     0
102
RTVSPropertyOp54
 70
     0
102
RTVSPropertyOp55
 70
     1
102
RTVSPropertyOp56
 70
     0
102
RTVSPropertyOp57
 70
     0
102
RTVSPropertyOp58
 70
     0
102
RTVSPropertyOp59
 70
     0
102
RTVSPropertyOp60
 70
     0
102
RTVSPropertyOp61
 70
     0
102
RTVSPropertyOp62
 70
     0
  0
XRECORD
  5
BF3D
102
{ACAD_REACTORS
330
BF3C
102
}
330
BF3C
100
AcDbXrecord
280
     1
102
RTVSPost2010Prop28
280
     0
102
RTVSPost2010PropOp28
 70
     1
102
RTVSPost2010Prop29
280
     1
102
RTVSPost2010PropOp29
 70
     1
102
RTVSPost2010Prop30
280
     1
102
RTVSPost2010PropOp30
 70
     1
102
RTVSPost2010Prop31
280
     0
102
RTVSPost2010PropOp31
 70
     1
102
RTVSPost2010Prop32
280
     0
102
RTVSPost2010PropOp32
 70
     1
102
RTVSPost2010Prop33
280
     0
102
RTVSPost2010PropOp33
 70
     1
102
RTVSPost2010Prop34
280
     0
102
RTVSPost2010PropOp34
 70
     1
102
RTVSPost2010Prop35
280
     0
102
RTVSPost2010PropOp35
 70
     1
102
RTVSPost2010Prop36
280
     0
102
RTVSPost2010PropOp36
 70
     1
102
RTVSPost2010Prop37
 90
       50
102
RTVSPost2010PropOp37
 70
     1
102
RTVSPost2010Prop38
140
0.0
102
RTVSPost2010PropOp38
 70
     1
102
RTVSPost2010Prop39
140
1.0
102
RTVSPost2010PropOp39
 70
     1
102
RTVSPost2010Prop40
 90
        0
102
RTVSPost2010PropOp40
 70
     1
102
RTVSPost2010Prop41ColorIndex
 90
       18
102
RTVSPost2010Prop41ColorRGB
 90
        0
102
RTVSPost2010PropOp41
 70
     1
102
RTVSPost2010Prop42
 90
       50
102
RTVSPost2010PropOp42
 70
     1
102
RTVSPost2010Prop43
 90
        3
102
RTVSPost2010PropOp43
 70
     1
102
RTVSPost2010Prop44ColorIndex
 90
        5
102
RTVSPost2010Prop44ColorRGB
 90
      255
102
RTVSPost2010PropOp44
 70
     1
102
RTVSPost2010Prop45
280
     0
102
RTVSPost2010PropOp45
 70
     1
102
RTVSPost2010Prop46
 90
       50
102
RTVSPost2010PropOp46
 70
     1
102
RTVSPost2010Prop47
 90
       50
102
RTVSPost2010PropOp47
 70
     1
102
RTVSPost2010Prop48
 90
       50
102
RTVSPost2010PropOp48
 70
     1
102
RTVSPost2010Prop49
280
     0
102
RTVSPost2010PropOp49
 70
     1
102
RTVSPost2010Prop50
 90
       50
102
RTVSPost2010PropOp50
 70
     1
102
RTVSPost2010Prop51ColorIndex
 90
      256
102
RTVSPost2010Prop51ColorRGB
 90
-16777216
102
RTVSPost2010PropOp51
 70
     0
102
RTVSPost2010Prop52
140
1.0
102
RTVSPost2010PropOp52
 70
     0
102
RTVSPost2010Prop53
 90
        2
102
RTVSPost2010PropOp53
 70
     1
102
RTVSPost2010Prop54
  1
strokes_ogs.tif
102
RTVSPost2010PropOp54
 70
     1
102
RTVSPost2010Prop55
280
     0
102
RTVSPost2010PropOp55
 70
     1
102
RTVSPost2010Prop56
140
1.0
102
RTVSPost2010PropOp56
 70
     1
102
RTVSPost2010Prop57
140
1.0
102
RTVSPost2010PropOp57
 70
     1
102
RTVSPropertyOp0
 70
     1
102
RTVSPropertyOp1
 70
     1
102
RTVSPropertyOp2
 70
     1
102
RTVSPropertyOp3
 70
     1
102
RTVSPropertyOp4
 70
     1
102
RTVSPropertyOp5
 70
     1
102
RTVSPropertyOp6
 70
     1
102
RTVSPropertyOp7
 70
     1
102
RTVSPropertyOp8
 70
     1
102
RTVSPropertyOp9
 70
     1
102
RTVSPropertyOp10
 70
     1
102
RTVSPropertyOp11
 70
     1
102
RTVSPropertyOp12
 70
     1
102
RTVSPropertyOp13
 70
     1
102
RTVSPropertyOp14
 70
     1
102
RTVSPropertyOp15
 70
     1
102
RTVSPropertyOp16
 70
     1
102
RTVSPropertyOp17
 70
     1
102
RTVSPropertyOp18
 70
     1
102
RTVSPropertyOp19
 70
     1
102
RTVSPropertyOp20
 70
     1
102
RTVSPropertyOp21
 70
     1
102
RTVSPropertyOp22
 70
     1
102
RTVSPropertyOp23
 70
     1
102
RTVSPropertyOp24
 70
     1
102
RTVSPropertyOp25
 70
     1
102
RTVSPropertyOp26
 70
     1
102
RTVSPropertyOp27
 70
     1
102
RTVSPropertyOp28
 70
     1
102
RTVSPropertyOp29
 70
     1
102
RTVSPropertyOp30
 70
     1
102
RTVSPropertyOp31
 70
     1
102
RTVSPropertyOp32
 70
     1
102
RTVSPropertyOp33
 70
     1
102
RTVSPropertyOp34
 70
     1
102
RTVSPropertyOp35
 70
     1
102
RTVSPropertyOp36
 70
     1
102
RTVSPropertyOp37
 70
     1
102
RTVSPropertyOp38
 70
     1
102
RTVSPropertyOp39
 70
     1
102
RTVSPropertyOp40
 70
     1
102
RTVSPropertyOp41
 70
     1
102
RTVSPropertyOp42
 70
     1
102
RTVSPropertyOp43
 70
     1
102
RTVSPropertyOp44
 70
     1
102
RTVSPropertyOp45
 70
     1
102
RTVSPropertyOp46
 70
     1
102
RTVSPropertyOp47
 70
     1
102
RTVSPropertyOp48
 70
     1
102
RTVSPropertyOp49
 70
     1
102
RTVSPropertyOp50
 70
     1
102
RTVSPropertyOp51
 70
     0
102
RTVSPropertyOp52
 70
     0
102
RTVSPropertyOp53
 70
     1
102
RTVSPropertyOp54
 70
     1
102
RTVSPropertyOp55
 70
     1
102
RTVSPropertyOp56
 70
     1
102
RTVSPropertyOp57
 70
     1
102
RTVSPropertyOp58
 70
     1
102
RTVSPropertyOp59
 70
     1
102
RTVSPropertyOp60
 70
     1
102
RTVSPropertyOp61
 70
     1
102
RTVSPropertyOp62
 70
     1
  0
XRECORD
  5
BF4F
102
{ACAD_REACTORS
330
BF4E
102
}
330
BF4E
100
AcDbXrecord
280
     1
102
RTVSPost2010Prop28
280
     0
102
RTVSPost2010PropOp28
 70
     1
102
RTVSPost2010Prop29
280
     1
102
RTVSPost2010PropOp29
 70
     1
102
RTVSPost2010Prop30
280
     1
102
RTVSPost2010PropOp30
 70
     1
102
RTVSPost2010Prop31
280
     0
102
RTVSPost2010PropOp31
 70
     1
102
RTVSPost2010Prop32
280
     0
102
RTVSPost2010PropOp32
 70
     1
102
RTVSPost2010Prop33
280
     0
102
RTVSPost2010PropOp33
 70
     1
102
RTVSPost2010Prop34
280
     0
102
RTVSPost2010PropOp34
 70
     1
102
RTVSPost2010Prop35
280
     0
102
RTVSPost2010PropOp35
 70
     1
102
RTVSPost2010Prop36
280
     0
102
RTVSPost2010PropOp36
 70
     1
102
RTVSPost2010Prop37
 90
       50
102
RTVSPost2010PropOp37
 70
     0
102
RTVSPost2010Prop38
140
0.0
102
RTVSPost2010PropOp38
 70
     0
102
RTVSPost2010Prop39
140
1.0
102
RTVSPost2010PropOp39
 70
     0
102
RTVSPost2010Prop40
 90
        0
102
RTVSPost2010PropOp40
 70
     0
102
RTVSPost2010Prop41ColorIndex
 90
       18
102
RTVSPost2010Prop41ColorRGB
 90
        0
102
RTVSPost2010PropOp41
 70
     0
102
RTVSPost2010Prop42
 90
       50
102
RTVSPost2010PropOp42
 70
     0
102
RTVSPost2010Prop43
 90
        3
102
RTVSPost2010PropOp43
 70
     0
102
RTVSPost2010Prop44ColorIndex
 90
        5
102
RTVSPost2010Prop44ColorRGB
 90
      255
102
RTVSPost2010PropOp44
 70
     0
102
RTVSPost2010Prop45
280
     0
102
RTVSPost2010PropOp45
 70
     1
102
RTVSPost2010Prop46
 90
       50
102
RTVSPost2010PropOp46
 70
     0
102
RTVSPost2010Prop47
 90
       50
102
RTVSPost2010PropOp47
 70
     0
102
RTVSPost2010Prop48
 90
       50
102
RTVSPost2010PropOp48
 70
     0
102
RTVSPost2010Prop49
280
     0
102
RTVSPost2010PropOp49
 70
     1
102
RTVSPost2010Prop50
 90
       50
102
RTVSPost2010PropOp50
 70
     0
102
RTVSPost2010Prop51ColorIndex
 90
      256
102
RTVSPost2010Prop51ColorRGB
 90
-16777216
102
RTVSPost2010PropOp51
 70
     0
102
RTVSPost2010Prop52
140
1.0
102
RTVSPost2010PropOp52
 70
     0
102
RTVSPost2010Prop53
 90
        2
102
RTVSPost2010PropOp53
 70
     0
102
RTVSPost2010Prop54
  1
strokes_ogs.tif
102
RTVSPost2010PropOp54
 70
     0
102
RTVSPost2010Prop55
280
     0
102
RTVSPost2010PropOp55
 70
     1
102
RTVSPost2010Prop56
140
1.0
102
RTVSPost2010PropOp56
 70
     0
102
RTVSPost2010Prop57
140
1.0
102
RTVSPost2010PropOp57
 70
     0
102
RTVSPropertyOp0
 70
     0
102
RTVSPropertyOp1
 70
     0
102
RTVSPropertyOp2
 70
     0
102
RTVSPropertyOp3
 70
     0
102
RTVSPropertyOp4
 70
     0
102
RTVSPropertyOp5
 70
     0
102
RTVSPropertyOp6
 70
     0
102
RTVSPropertyOp7
 70
     0
102
RTVSPropertyOp8
 70
     0
102
RTVSPropertyOp9
 70
     0
102
RTVSPropertyOp10
 70
     0
102
RTVSPropertyOp11
 70
     0
102
RTVSPropertyOp12
 70
     0
102
RTVSPropertyOp13
 70
     0
102
RTVSPropertyOp14
 70
     2
102
RTVSPropertyOp15
 70
     0
102
RTVSPropertyOp16
 70
     0
102
RTVSPropertyOp17
 70
     0
102
RTVSPropertyOp18
 70
     0
102
RTVSPropertyOp19
 70
     0
102
RTVSPropertyOp20
 70
     0
102
RTVSPropertyOp21
 70
     0
102
RTVSPropertyOp22
 70
     0
102
RTVSPropertyOp23
 70
     0
102
RTVSPropertyOp24
 70
     0
102
RTVSPropertyOp25
 70
     0
102
RTVSPropertyOp26
 70
     0
102
RTVSPropertyOp27
 70
     0
102
RTVSPropertyOp28
 70
     1
102
RTVSPropertyOp29
 70
     1
102
RTVSPropertyOp30
 70
     1
102
RTVSPropertyOp31
 70
     1
102
RTVSPropertyOp32
 70
     1
102
RTVSPropertyOp33
 70
     1
102
RTVSPropertyOp34
 70
     1
102
RTVSPropertyOp35
 70
     1
102
RTVSPropertyOp36
 70
     1
102
RTVSPropertyOp37
 70
     0
102
RTVSPropertyOp38
 70
     0
102
RTVSPropertyOp39
 70
     0
102
RTVSPropertyOp40
 70
     0
102
RTVSPropertyOp41
 70
     0
102
RTVSPropertyOp42
 70
     0
102
RTVSPropertyOp43
 70
     0
102
RTVSPropertyOp44
 70
     0
102
RTVSPropertyOp45
 70
     1
102
RTVSPropertyOp46
 70
     0
102
RTVSPropertyOp47
 70
     0
102
RTVSPropertyOp48
 70
     0
102
RTVSPropertyOp49
 70
     1
102
RTVSPropertyOp50
 70
     0
102
RTVSPropertyOp51
 70
     0
102
RTVSPropertyOp52
 70
     0
102
RTVSPropertyOp53
 70
     0
102
RTVSPropertyOp54
 70
     0
102
RTVSPropertyOp55
 70
     1
102
RTVSPropertyOp56
 70
     0
102
RTVSPropertyOp57
 70
     0
102
RTVSPropertyOp58
 70
     0
102
RTVSPropertyOp59
 70
     0
102
RTVSPropertyOp60
 70
     0
102
RTVSPropertyOp61
 70
     0
102
RTVSPropertyOp62
 70
     0
  0
XRECORD
  5
BF35
102
{ACAD_REACTORS
330
BF34
102
}
330
BF34
100
AcDbXrecord
280
     1
102
RTVSPost2010Prop28
280
     0
102
RTVSPost2010PropOp28
 70
     1
102
RTVSPost2010Prop29
280
     1
102
RTVSPost2010PropOp29
 70
     1
102
RTVSPost2010Prop30
280
     1
102
RTVSPost2010PropOp30
 70
     1
102
RTVSPost2010Prop31
280
     0
102
RTVSPost2010PropOp31
 70
     1
102
RTVSPost2010Prop32
280
     0
102
RTVSPost2010PropOp32
 70
     1
102
RTVSPost2010Prop33
280
     0
102
RTVSPost2010PropOp33
 70
     1
102
RTVSPost2010Prop34
280
     0
102
RTVSPost2010PropOp34
 70
     1
102
RTVSPost2010Prop35
280
     0
102
RTVSPost2010PropOp35
 70
     1
102
RTVSPost2010Prop36
280
     0
102
RTVSPost2010PropOp36
 70
     1
102
RTVSPost2010Prop37
 90
       50
102
RTVSPost2010PropOp37
 70
     1
102
RTVSPost2010Prop38
140
0.0
102
RTVSPost2010PropOp38
 70
     1
102
RTVSPost2010Prop39
140
1.0
102
RTVSPost2010PropOp39
 70
     1
102
RTVSPost2010Prop40
 90
        0
102
RTVSPost2010PropOp40
 70
     1
102
RTVSPost2010Prop41ColorIndex
 90
       18
102
RTVSPost2010Prop41ColorRGB
 90
        0
102
RTVSPost2010PropOp41
 70
     1
102
RTVSPost2010Prop42
 90
       50
102
RTVSPost2010PropOp42
 70
     1
102
RTVSPost2010Prop43
 90
        3
102
RTVSPost2010PropOp43
 70
     1
102
RTVSPost2010Prop44ColorIndex
 90
        5
102
RTVSPost2010Prop44ColorRGB
 90
      255
102
RTVSPost2010PropOp44
 70
     1
102
RTVSPost2010Prop45
280
     0
102
RTVSPost2010PropOp45
 70
     1
102
RTVSPost2010Prop46
 90
       50
102
RTVSPost2010PropOp46
 70
     1
102
RTVSPost2010Prop47
 90
       50
102
RTVSPost2010PropOp47
 70
     1
102
RTVSPost2010Prop48
 90
       50
102
RTVSPost2010PropOp48
 70
     1
102
RTVSPost2010Prop49
280
     0
102
RTVSPost2010PropOp49
 70
     1
102
RTVSPost2010Prop50
 90
       50
102
RTVSPost2010PropOp50
 70
     1
102
RTVSPost2010Prop51ColorIndex
 90
      256
102
RTVSPost2010Prop51ColorRGB
 90
-16777216
102
RTVSPost2010PropOp51
 70
     0
102
RTVSPost2010Prop52
140
1.0
102
RTVSPost2010PropOp52
 70
     0
102
RTVSPost2010Prop53
 90
        2
102
RTVSPost2010PropOp53
 70
     1
102
RTVSPost2010Prop54
  1
strokes_ogs.tif
102
RTVSPost2010PropOp54
 70
     1
102
RTVSPost2010Prop55
280
     0
102
RTVSPost2010PropOp55
 70
     1
102
RTVSPost2010Prop56
140
1.0
102
RTVSPost2010PropOp56
 70
     1
102
RTVSPost2010Prop57
140
1.0
102
RTVSPost2010PropOp57
 70
     1
102
RTVSPropertyOp0
 70
     1
102
RTVSPropertyOp1
 70
     1
102
RTVSPropertyOp2
 70
     1
102
RTVSPropertyOp3
 70
     1
102
RTVSPropertyOp4
 70
     1
102
RTVSPropertyOp5
 70
     1
102
RTVSPropertyOp6
 70
     1
102
RTVSPropertyOp7
 70
     1
102
RTVSPropertyOp8
 70
     1
102
RTVSPropertyOp9
 70
     1
102
RTVSPropertyOp10
 70
     1
102
RTVSPropertyOp11
 70
     1
102
RTVSPropertyOp12
 70
     1
102
RTVSPropertyOp13
 70
     1
102
RTVSPropertyOp14
 70
     1
102
RTVSPropertyOp15
 70
     1
102
RTVSPropertyOp16
 70
     1
102
RTVSPropertyOp17
 70
     1
102
RTVSPropertyOp18
 70
     1
102
RTVSPropertyOp19
 70
     1
102
RTVSPropertyOp20
 70
     1
102
RTVSPropertyOp21
 70
     1
102
RTVSPropertyOp22
 70
     1
102
RTVSPropertyOp23
 70
     1
102
RTVSPropertyOp24
 70
     1
102
RTVSPropertyOp25
 70
     1
102
RTVSPropertyOp26
 70
     1
102
RTVSPropertyOp27
 70
     1
102
RTVSPropertyOp28
 70
     1
102
RTVSPropertyOp29
 70
     1
102
RTVSPropertyOp30
 70
     1
102
RTVSPropertyOp31
 70
     1
102
RTVSPropertyOp32
 70
     1
102
RTVSPropertyOp33
 70
     1
102
RTVSPropertyOp34
 70
     1
102
RTVSPropertyOp35
 70
     1
102
RTVSPropertyOp36
 70
     1
102
RTVSPropertyOp37
 70
     1
102
RTVSPropertyOp38
 70
     1
102
RTVSPropertyOp39
 70
     1
102
RTVSPropertyOp40
 70
     1
102
RTVSPropertyOp41
 70
     1
102
RTVSPropertyOp42
 70
     1
102
RTVSPropertyOp43
 70
     1
102
RTVSPropertyOp44
 70
     1
102
RTVSPropertyOp45
 70
     1
102
RTVSPropertyOp46
 70
     1
102
RTVSPropertyOp47
 70
     1
102
RTVSPropertyOp48
 70
     1
102
RTVSPropertyOp49
 70
     1
102
RTVSPropertyOp50
 70
     1
102
RTVSPropertyOp51
 70
     0
102
RTVSPropertyOp52
 70
     0
102
RTVSPropertyOp53
 70
     1
102
RTVSPropertyOp54
 70
     1
102
RTVSPropertyOp55
 70
     1
102
RTVSPropertyOp56
 70
     1
102
RTVSPropertyOp57
 70
     1
102
RTVSPropertyOp58
 70
     1
102
RTVSPropertyOp59
 70
     1
102
RTVSPropertyOp60
 70
     1
102
RTVSPropertyOp61
 70
     1
102
RTVSPropertyOp62
 70
     1
  0
XRECORD
  5
BF4B
102
{ACAD_REACTORS
330
BF4A
102
}
330
BF4A
100
AcDbXrecord
280
     1
102
RTVSPost2010Prop28
280
     0
102
RTVSPost2010PropOp28
 70
     1
102
RTVSPost2010Prop29
280
     1
102
RTVSPost2010PropOp29
 70
     1
102
RTVSPost2010Prop30
280
     1
102
RTVSPost2010PropOp30
 70
     1
102
RTVSPost2010Prop31
280
     0
102
RTVSPost2010PropOp31
 70
     1
102
RTVSPost2010Prop32
280
     0
102
RTVSPost2010PropOp32
 70
     1
102
RTVSPost2010Prop33
280
     0
102
RTVSPost2010PropOp33
 70
     1
102
RTVSPost2010Prop34
280
     0
102
RTVSPost2010PropOp34
 70
     1
102
RTVSPost2010Prop35
280
     0
102
RTVSPost2010PropOp35
 70
     1
102
RTVSPost2010Prop36
280
     0
102
RTVSPost2010PropOp36
 70
     1
102
RTVSPost2010Prop37
 90
       50
102
RTVSPost2010PropOp37
 70
     1
102
RTVSPost2010Prop38
140
0.0
102
RTVSPost2010PropOp38
 70
     1
102
RTVSPost2010Prop39
140
1.0
102
RTVSPost2010PropOp39
 70
     1
102
RTVSPost2010Prop40
 90
        0
102
RTVSPost2010PropOp40
 70
     1
102
RTVSPost2010Prop41ColorIndex
 90
       18
102
RTVSPost2010Prop41ColorRGB
 90
        0
102
RTVSPost2010PropOp41
 70
     1
102
RTVSPost2010Prop42
 90
       50
102
RTVSPost2010PropOp42
 70
     1
102
RTVSPost2010Prop43
 90
        3
102
RTVSPost2010PropOp43
 70
     1
102
RTVSPost2010Prop44ColorIndex
 90
        5
102
RTVSPost2010Prop44ColorRGB
 90
      255
102
RTVSPost2010PropOp44
 70
     1
102
RTVSPost2010Prop45
280
     0
102
RTVSPost2010PropOp45
 70
     1
102
RTVSPost2010Prop46
 90
       50
102
RTVSPost2010PropOp46
 70
     1
102
RTVSPost2010Prop47
 90
       50
102
RTVSPost2010PropOp47
 70
     1
102
RTVSPost2010Prop48
 90
       50
102
RTVSPost2010PropOp48
 70
     1
102
RTVSPost2010Prop49
280
     0
102
RTVSPost2010PropOp49
 70
     1
102
RTVSPost2010Prop50
 90
       50
102
RTVSPost2010PropOp50
 70
     1
102
RTVSPost2010Prop51ColorIndex
 90
      256
102
RTVSPost2010Prop51ColorRGB
 90
-16777216
102
RTVSPost2010PropOp51
 70
     0
102
RTVSPost2010Prop52
140
1.0
102
RTVSPost2010PropOp52
 70
     0
102
RTVSPost2010Prop53
 90
        2
102
RTVSPost2010PropOp53
 70
     1
102
RTVSPost2010Prop54
  1
strokes_ogs.tif
102
RTVSPost2010PropOp54
 70
     1
102
RTVSPost2010Prop55
280
     0
102
RTVSPost2010PropOp55
 70
     1
102
RTVSPost2010Prop56
140
1.0
102
RTVSPost2010PropOp56
 70
     1
102
RTVSPost2010Prop57
140
1.0
102
RTVSPost2010PropOp57
 70
     1
102
RTVSPropertyOp0
 70
     1
102
RTVSPropertyOp1
 70
     1
102
RTVSPropertyOp2
 70
     1
102
RTVSPropertyOp3
 70
     1
102
RTVSPropertyOp4
 70
     1
102
RTVSPropertyOp5
 70
     1
102
RTVSPropertyOp6
 70
     1
102
RTVSPropertyOp7
 70
     1
102
RTVSPropertyOp8
 70
     1
102
RTVSPropertyOp9
 70
     1
102
RTVSPropertyOp10
 70
     1
102
RTVSPropertyOp11
 70
     1
102
RTVSPropertyOp12
 70
     1
102
RTVSPropertyOp13
 70
     1
102
RTVSPropertyOp14
 70
     1
102
RTVSPropertyOp15
 70
     1
102
RTVSPropertyOp16
 70
     1
102
RTVSPropertyOp17
 70
     1
102
RTVSPropertyOp18
 70
     1
102
RTVSPropertyOp19
 70
     1
102
RTVSPropertyOp20
 70
     1
102
RTVSPropertyOp21
 70
     1
102
RTVSPropertyOp22
 70
     1
102
RTVSPropertyOp23
 70
     1
102
RTVSPropertyOp24
 70
     1
102
RTVSPropertyOp25
 70
     1
102
RTVSPropertyOp26
 70
     1
102
RTVSPropertyOp27
 70
     1
102
RTVSPropertyOp28
 70
     1
102
RTVSPropertyOp29
 70
     1
102
RTVSPropertyOp30
 70
     1
102
RTVSPropertyOp31
 70
     1
102
RTVSPropertyOp32
 70
     1
102
RTVSPropertyOp33
 70
     1
102
RTVSPropertyOp34
 70
     1
102
RTVSPropertyOp35
 70
     1
102
RTVSPropertyOp36
 70
     1
102
RTVSPropertyOp37
 70
     1
102
RTVSPropertyOp38
 70
     1
102
RTVSPropertyOp39
 70
     1
102
RTVSPropertyOp40
 70
     1
102
RTVSPropertyOp41
 70
     1
102
RTVSPropertyOp42
 70
     1
102
RTVSPropertyOp43
 70
     1
102
RTVSPropertyOp44
 70
     1
102
RTVSPropertyOp45
 70
     1
102
RTVSPropertyOp46
 70
     1
102
RTVSPropertyOp47
 70
     1
102
RTVSPropertyOp48
 70
     1
102
RTVSPropertyOp49
 70
     1
102
RTVSPropertyOp50
 70
     1
102
RTVSPropertyOp51
 70
     0
102
RTVSPropertyOp52
 70
     0
102
RTVSPropertyOp53
 70
     1
102
RTVSPropertyOp54
 70
     1
102
RTVSPropertyOp55
 70
     1
102
RTVSPropertyOp56
 70
     1
102
RTVSPropertyOp57
 70
     1
102
RTVSPropertyOp58
 70
     1
102
RTVSPropertyOp59
 70
     1
102
RTVSPropertyOp60
 70
     1
102
RTVSPropertyOp61
 70
     1
102
RTVSPropertyOp62
 70
     1
  0
XRECORD
  5
BF49
102
{ACAD_REACTORS
330
BF48
102
}
330
BF48
100
AcDbXrecord
280
     1
102
RTVSPost2010Prop28
280
     0
102
RTVSPost2010PropOp28
 70
     1
102
RTVSPost2010Prop29
280
     1
102
RTVSPost2010PropOp29
 70
     1
102
RTVSPost2010Prop30
280
     1
102
RTVSPost2010PropOp30
 70
     1
102
RTVSPost2010Prop31
280
     0
102
RTVSPost2010PropOp31
 70
     1
102
RTVSPost2010Prop32
280
     0
102
RTVSPost2010PropOp32
 70
     1
102
RTVSPost2010Prop33
280
     0
102
RTVSPost2010PropOp33
 70
     1
102
RTVSPost2010Prop34
280
     0
102
RTVSPost2010PropOp34
 70
     1
102
RTVSPost2010Prop35
280
     0
102
RTVSPost2010PropOp35
 70
     1
102
RTVSPost2010Prop36
280
     0
102
RTVSPost2010PropOp36
 70
     1
102
RTVSPost2010Prop37
 90
       50
102
RTVSPost2010PropOp37
 70
     1
102
RTVSPost2010Prop38
140
0.0
102
RTVSPost2010PropOp38
 70
     1
102
RTVSPost2010Prop39
140
1.0
102
RTVSPost2010PropOp39
 70
     1
102
RTVSPost2010Prop40
 90
        0
102
RTVSPost2010PropOp40
 70
     1
102
RTVSPost2010Prop41ColorIndex
 90
       18
102
RTVSPost2010Prop41ColorRGB
 90
        0
102
RTVSPost2010PropOp41
 70
     1
102
RTVSPost2010Prop42
 90
       50
102
RTVSPost2010PropOp42
 70
     1
102
RTVSPost2010Prop43
 90
        3
102
RTVSPost2010PropOp43
 70
     1
102
RTVSPost2010Prop44ColorIndex
 90
        5
102
RTVSPost2010Prop44ColorRGB
 90
      255
102
RTVSPost2010PropOp44
 70
     1
102
RTVSPost2010Prop45
280
     0
102
RTVSPost2010PropOp45
 70
     1
102
RTVSPost2010Prop46
 90
       50
102
RTVSPost2010PropOp46
 70
     1
102
RTVSPost2010Prop47
 90
       50
102
RTVSPost2010PropOp47
 70
     1
102
RTVSPost2010Prop48
 90
       50
102
RTVSPost2010PropOp48
 70
     1
102
RTVSPost2010Prop49
280
     0
102
RTVSPost2010PropOp49
 70
     1
102
RTVSPost2010Prop50
 90
       50
102
RTVSPost2010PropOp50
 70
     1
102
RTVSPost2010Prop51ColorIndex
 90
      256
102
RTVSPost2010Prop51ColorRGB
 90
-16777216
102
RTVSPost2010PropOp51
 70
     0
102
RTVSPost2010Prop52
140
1.0
102
RTVSPost2010PropOp52
 70
     0
102
RTVSPost2010Prop53
 90
        2
102
RTVSPost2010PropOp53
 70
     1
102
RTVSPost2010Prop54
  1
strokes_ogs.tif
102
RTVSPost2010PropOp54
 70
     1
102
RTVSPost2010Prop55
280
     0
102
RTVSPost2010PropOp55
 70
     1
102
RTVSPost2010Prop56
140
1.0
102
RTVSPost2010PropOp56
 70
     1
102
RTVSPost2010Prop57
140
1.0
102
RTVSPost2010PropOp57
 70
     1
102
RTVSPropertyOp0
 70
     1
102
RTVSPropertyOp1
 70
     1
102
RTVSPropertyOp2
 70
     1
102
RTVSPropertyOp3
 70
     1
102
RTVSPropertyOp4
 70
     1
102
RTVSPropertyOp5
 70
     1
102
RTVSPropertyOp6
 70
     1
102
RTVSPropertyOp7
 70
     1
102
RTVSPropertyOp8
 70
     1
102
RTVSPropertyOp9
 70
     1
102
RTVSPropertyOp10
 70
     1
102
RTVSPropertyOp11
 70
     1
102
RTVSPropertyOp12
 70
     1
102
RTVSPropertyOp13
 70
     1
102
RTVSPropertyOp14
 70
     1
102
RTVSPropertyOp15
 70
     1
102
RTVSPropertyOp16
 70
     1
102
RTVSPropertyOp17
 70
     1
102
RTVSPropertyOp18
 70
     1
102
RTVSPropertyOp19
 70
     1
102
RTVSPropertyOp20
 70
     1
102
RTVSPropertyOp21
 70
     1
102
RTVSPropertyOp22
 70
     1
102
RTVSPropertyOp23
 70
     1
102
RTVSPropertyOp24
 70
     1
102
RTVSPropertyOp25
 70
     1
102
RTVSPropertyOp26
 70
     1
102
RTVSPropertyOp27
 70
     1
102
RTVSPropertyOp28
 70
     1
102
RTVSPropertyOp29
 70
     1
102
RTVSPropertyOp30
 70
     1
102
RTVSPropertyOp31
 70
     1
102
RTVSPropertyOp32
 70
     1
102
RTVSPropertyOp33
 70
     1
102
RTVSPropertyOp34
 70
     1
102
RTVSPropertyOp35
 70
     1
102
RTVSPropertyOp36
 70
     1
102
RTVSPropertyOp37
 70
     1
102
RTVSPropertyOp38
 70
     1
102
RTVSPropertyOp39
 70
     1
102
RTVSPropertyOp40
 70
     1
102
RTVSPropertyOp41
 70
     1
102
RTVSPropertyOp42
 70
     1
102
RTVSPropertyOp43
 70
     1
102
RTVSPropertyOp44
 70
     1
102
RTVSPropertyOp45
 70
     1
102
RTVSPropertyOp46
 70
     1
102
RTVSPropertyOp47
 70
     1
102
RTVSPropertyOp48
 70
     1
102
RTVSPropertyOp49
 70
     1
102
RTVSPropertyOp50
 70
     1
102
RTVSPropertyOp51
 70
     0
102
RTVSPropertyOp52
 70
     0
102
RTVSPropertyOp53
 70
     1
102
RTVSPropertyOp54
 70
     1
102
RTVSPropertyOp55
 70
     1
102
RTVSPropertyOp56
 70
     1
102
RTVSPropertyOp57
 70
     1
102
RTVSPropertyOp58
 70
     1
102
RTVSPropertyOp59
 70
     1
102
RTVSPropertyOp60
 70
     1
102
RTVSPropertyOp61
 70
     1
102
RTVSPropertyOp62
 70
     1
  0
XRECORD
  5
BF43
102
{ACAD_REACTORS
330
BF42
102
}
330
BF42
100
AcDbXrecord
280
     1
102
RTVSPost2010Prop28
280
     0
102
RTVSPost2010PropOp28
 70
     1
102
RTVSPost2010Prop29
280
     1
102
RTVSPost2010PropOp29
 70
     1
102
RTVSPost2010Prop30
280
     1
102
RTVSPost2010PropOp30
 70
     1
102
RTVSPost2010Prop31
280
     0
102
RTVSPost2010PropOp31
 70
     1
102
RTVSPost2010Prop32
280
     0
102
RTVSPost2010PropOp32
 70
     1
102
RTVSPost2010Prop33
280
     0
102
RTVSPost2010PropOp33
 70
     1
102
RTVSPost2010Prop34
280
     0
102
RTVSPost2010PropOp34
 70
     1
102
RTVSPost2010Prop35
280
     0
102
RTVSPost2010PropOp35
 70
     1
102
RTVSPost2010Prop36
280
     0
102
RTVSPost2010PropOp36
 70
     1
102
RTVSPost2010Prop37
 90
       50
102
RTVSPost2010PropOp37
 70
     1
102
RTVSPost2010Prop38
140
0.0
102
RTVSPost2010PropOp38
 70
     1
102
RTVSPost2010Prop39
140
1.0
102
RTVSPost2010PropOp39
 70
     1
102
RTVSPost2010Prop40
 90
        0
102
RTVSPost2010PropOp40
 70
     1
102
RTVSPost2010Prop41ColorIndex
 90
       18
102
RTVSPost2010Prop41ColorRGB
 90
        0
102
RTVSPost2010PropOp41
 70
     1
102
RTVSPost2010Prop42
 90
       50
102
RTVSPost2010PropOp42
 70
     1
102
RTVSPost2010Prop43
 90
        3
102
RTVSPost2010PropOp43
 70
     1
102
RTVSPost2010Prop44ColorIndex
 90
        5
102
RTVSPost2010Prop44ColorRGB
 90
      255
102
RTVSPost2010PropOp44
 70
     1
102
RTVSPost2010Prop45
280
     0
102
RTVSPost2010PropOp45
 70
     1
102
RTVSPost2010Prop46
 90
       50
102
RTVSPost2010PropOp46
 70
     1
102
RTVSPost2010Prop47
 90
       50
102
RTVSPost2010PropOp47
 70
     1
102
RTVSPost2010Prop48
 90
       50
102
RTVSPost2010PropOp48
 70
     1
102
RTVSPost2010Prop49
280
     0
102
RTVSPost2010PropOp49
 70
     1
102
RTVSPost2010Prop50
 90
       50
102
RTVSPost2010PropOp50
 70
     1
102
RTVSPost2010Prop51ColorIndex
 90
      256
102
RTVSPost2010Prop51ColorRGB
 90
-16777216
102
RTVSPost2010PropOp51
 70
     0
102
RTVSPost2010Prop52
140
1.0
102
RTVSPost2010PropOp52
 70
     0
102
RTVSPost2010Prop53
 90
        2
102
RTVSPost2010PropOp53
 70
     1
102
RTVSPost2010Prop54
  1
strokes_ogs.tif
102
RTVSPost2010PropOp54
 70
     1
102
RTVSPost2010Prop55
280
     0
102
RTVSPost2010PropOp55
 70
     1
102
RTVSPost2010Prop56
140
1.0
102
RTVSPost2010PropOp56
 70
     1
102
RTVSPost2010Prop57
140
1.0
102
RTVSPost2010PropOp57
 70
     1
102
RTVSPropertyOp0
 70
     1
102
RTVSPropertyOp1
 70
     1
102
RTVSPropertyOp2
 70
     1
102
RTVSPropertyOp3
 70
     1
102
RTVSPropertyOp4
 70
     1
102
RTVSPropertyOp5
 70
     1
102
RTVSPropertyOp6
 70
     1
102
RTVSPropertyOp7
 70
     1
102
RTVSPropertyOp8
 70
     1
102
RTVSPropertyOp9
 70
     1
102
RTVSPropertyOp10
 70
     1
102
RTVSPropertyOp11
 70
     1
102
RTVSPropertyOp12
 70
     1
102
RTVSPropertyOp13
 70
     1
102
RTVSPropertyOp14
 70
     1
102
RTVSPropertyOp15
 70
     1
102
RTVSPropertyOp16
 70
     1
102
RTVSPropertyOp17
 70
     1
102
RTVSPropertyOp18
 70
     1
102
RTVSPropertyOp19
 70
     1
102
RTVSPropertyOp20
 70
     1
102
RTVSPropertyOp21
 70
     1
102
RTVSPropertyOp22
 70
     1
102
RTVSPropertyOp23
 70
     1
102
RTVSPropertyOp24
 70
     1
102
RTVSPropertyOp25
 70
     1
102
RTVSPropertyOp26
 70
     1
102
RTVSPropertyOp27
 70
     1
102
RTVSPropertyOp28
 70
     1
102
RTVSPropertyOp29
 70
     1
102
RTVSPropertyOp30
 70
     1
102
RTVSPropertyOp31
 70
     1
102
RTVSPropertyOp32
 70
     1
102
RTVSPropertyOp33
 70
     1
102
RTVSPropertyOp34
 70
     1
102
RTVSPropertyOp35
 70
     1
102
RTVSPropertyOp36
 70
     1
102
RTVSPropertyOp37
 70
     1
102
RTVSPropertyOp38
 70
     1
102
RTVSPropertyOp39
 70
     1
102
RTVSPropertyOp40
 70
     1
102
RTVSPropertyOp41
 70
     1
102
RTVSPropertyOp42
 70
     1
102
RTVSPropertyOp43
 70
     1
102
RTVSPropertyOp44
 70
     1
102
RTVSPropertyOp45
 70
     1
102
RTVSPropertyOp46
 70
     1
102
RTVSPropertyOp47
 70
     1
102
RTVSPropertyOp48
 70
     1
102
RTVSPropertyOp49
 70
     1
102
RTVSPropertyOp50
 70
     1
102
RTVSPropertyOp51
 70
     0
102
RTVSPropertyOp52
 70
     0
102
RTVSPropertyOp53
 70
     1
102
RTVSPropertyOp54
 70
     1
102
RTVSPropertyOp55
 70
     1
102
RTVSPropertyOp56
 70
     1
102
RTVSPropertyOp57
 70
     1
102
RTVSPropertyOp58
 70
     1
102
RTVSPropertyOp59
 70
     1
102
RTVSPropertyOp60
 70
     1
102
RTVSPropertyOp61
 70
     1
102
RTVSPropertyOp62
 70
     1
  0
XRECORD
  5
BF45
102
{ACAD_REACTORS
330
BF44
102
}
330
BF44
100
AcDbXrecord
280
     1
102
RTVSPost2010Prop28
280
     0
102
RTVSPost2010PropOp28
 70
     1
102
RTVSPost2010Prop29
280
     1
102
RTVSPost2010PropOp29
 70
     1
102
RTVSPost2010Prop30
280
     1
102
RTVSPost2010PropOp30
 70
     1
102
RTVSPost2010Prop31
280
     0
102
RTVSPost2010PropOp31
 70
     1
102
RTVSPost2010Prop32
280
     0
102
RTVSPost2010PropOp32
 70
     1
102
RTVSPost2010Prop33
280
     0
102
RTVSPost2010PropOp33
 70
     1
102
RTVSPost2010Prop34
280
     0
102
RTVSPost2010PropOp34
 70
     1
102
RTVSPost2010Prop35
280
     0
102
RTVSPost2010PropOp35
 70
     1
102
RTVSPost2010Prop36
280
     0
102
RTVSPost2010PropOp36
 70
     1
102
RTVSPost2010Prop37
 90
       50
102
RTVSPost2010PropOp37
 70
     1
102
RTVSPost2010Prop38
140
0.0
102
RTVSPost2010PropOp38
 70
     1
102
RTVSPost2010Prop39
140
1.0
102
RTVSPost2010PropOp39
 70
     1
102
RTVSPost2010Prop40
 90
        0
102
RTVSPost2010PropOp40
 70
     1
102
RTVSPost2010Prop41ColorIndex
 90
       18
102
RTVSPost2010Prop41ColorRGB
 90
        0
102
RTVSPost2010PropOp41
 70
     1
102
RTVSPost2010Prop42
 90
       50
102
RTVSPost2010PropOp42
 70
     1
102
RTVSPost2010Prop43
 90
        3
102
RTVSPost2010PropOp43
 70
     1
102
RTVSPost2010Prop44ColorIndex
 90
        5
102
RTVSPost2010Prop44ColorRGB
 90
      255
102
RTVSPost2010PropOp44
 70
     1
102
RTVSPost2010Prop45
280
     0
102
RTVSPost2010PropOp45
 70
     1
102
RTVSPost2010Prop46
 90
       50
102
RTVSPost2010PropOp46
 70
     1
102
RTVSPost2010Prop47
 90
       50
102
RTVSPost2010PropOp47
 70
     1
102
RTVSPost2010Prop48
 90
       50
102
RTVSPost2010PropOp48
 70
     1
102
RTVSPost2010Prop49
280
     0
102
RTVSPost2010PropOp49
 70
     1
102
RTVSPost2010Prop50
 90
       50
102
RTVSPost2010PropOp50
 70
     1
102
RTVSPost2010Prop51ColorIndex
 90
      256
102
RTVSPost2010Prop51ColorRGB
 90
-16777216
102
RTVSPost2010PropOp51
 70
     0
102
RTVSPost2010Prop52
140
1.0
102
RTVSPost2010PropOp52
 70
     0
102
RTVSPost2010Prop53
 90
        2
102
RTVSPost2010PropOp53
 70
     1
102
RTVSPost2010Prop54
  1
strokes_ogs.tif
102
RTVSPost2010PropOp54
 70
     1
102
RTVSPost2010Prop55
280
     0
102
RTVSPost2010PropOp55
 70
     1
102
RTVSPost2010Prop56
140
1.0
102
RTVSPost2010PropOp56
 70
     1
102
RTVSPost2010Prop57
140
1.0
102
RTVSPost2010PropOp57
 70
     1
102
RTVSPropertyOp0
 70
     1
102
RTVSPropertyOp1
 70
     1
102
RTVSPropertyOp2
 70
     1
102
RTVSPropertyOp3
 70
     1
102
RTVSPropertyOp4
 70
     1
102
RTVSPropertyOp5
 70
     1
102
RTVSPropertyOp6
 70
     1
102
RTVSPropertyOp7
 70
     1
102
RTVSPropertyOp8
 70
     1
102
RTVSPropertyOp9
 70
     1
102
RTVSPropertyOp10
 70
     1
102
RTVSPropertyOp11
 70
     1
102
RTVSPropertyOp12
 70
     1
102
RTVSPropertyOp13
 70
     1
102
RTVSPropertyOp14
 70
     1
102
RTVSPropertyOp15
 70
     1
102
RTVSPropertyOp16
 70
     1
102
RTVSPropertyOp17
 70
     1
102
RTVSPropertyOp18
 70
     1
102
RTVSPropertyOp19
 70
     1
102
RTVSPropertyOp20
 70
     1
102
RTVSPropertyOp21
 70
     1
102
RTVSPropertyOp22
 70
     1
102
RTVSPropertyOp23
 70
     1
102
RTVSPropertyOp24
 70
     1
102
RTVSPropertyOp25
 70
     1
102
RTVSPropertyOp26
 70
     1
102
RTVSPropertyOp27
 70
     1
102
RTVSPropertyOp28
 70
     1
102
RTVSPropertyOp29
 70
     1
102
RTVSPropertyOp30
 70
     1
102
RTVSPropertyOp31
 70
     1
102
RTVSPropertyOp32
 70
     1
102
RTVSPropertyOp33
 70
     1
102
RTVSPropertyOp34
 70
     1
102
RTVSPropertyOp35
 70
     1
102
RTVSPropertyOp36
 70
     1
102
RTVSPropertyOp37
 70
     1
102
RTVSPropertyOp38
 70
     1
102
RTVSPropertyOp39
 70
     1
102
RTVSPropertyOp40
 70
     1
102
RTVSPropertyOp41
 70
     1
102
RTVSPropertyOp42
 70
     1
102
RTVSPropertyOp43
 70
     1
102
RTVSPropertyOp44
 70
     1
102
RTVSPropertyOp45
 70
     1
102
RTVSPropertyOp46
 70
     1
102
RTVSPropertyOp47
 70
     1
102
RTVSPropertyOp48
 70
     1
102
RTVSPropertyOp49
 70
     1
102
RTVSPropertyOp50
 70
     1
102
RTVSPropertyOp51
 70
     0
102
RTVSPropertyOp52
 70
     0
102
RTVSPropertyOp53
 70
     1
102
RTVSPropertyOp54
 70
     1
102
RTVSPropertyOp55
 70
     1
102
RTVSPropertyOp56
 70
     1
102
RTVSPropertyOp57
 70
     1
102
RTVSPropertyOp58
 70
     1
102
RTVSPropertyOp59
 70
     1
102
RTVSPropertyOp60
 70
     1
102
RTVSPropertyOp61
 70
     1
102
RTVSPropertyOp62
 70
     1
  0
XRECORD
  5
BF3B
102
{ACAD_REACTORS
330
BF3A
102
}
330
BF3A
100
AcDbXrecord
280
     1
102
RTVSPost2010Prop28
280
     0
102
RTVSPost2010PropOp28
 70
     1
102
RTVSPost2010Prop29
280
     1
102
RTVSPost2010PropOp29
 70
     1
102
RTVSPost2010Prop30
280
     1
102
RTVSPost2010PropOp30
 70
     1
102
RTVSPost2010Prop31
280
     0
102
RTVSPost2010PropOp31
 70
     1
102
RTVSPost2010Prop32
280
     0
102
RTVSPost2010PropOp32
 70
     1
102
RTVSPost2010Prop33
280
     0
102
RTVSPost2010PropOp33
 70
     1
102
RTVSPost2010Prop34
280
     0
102
RTVSPost2010PropOp34
 70
     1
102
RTVSPost2010Prop35
280
     0
102
RTVSPost2010PropOp35
 70
     1
102
RTVSPost2010Prop36
280
     0
102
RTVSPost2010PropOp36
 70
     1
102
RTVSPost2010Prop37
 90
       50
102
RTVSPost2010PropOp37
 70
     1
102
RTVSPost2010Prop38
140
0.0
102
RTVSPost2010PropOp38
 70
     1
102
RTVSPost2010Prop39
140
1.0
102
RTVSPost2010PropOp39
 70
     1
102
RTVSPost2010Prop40
 90
        0
102
RTVSPost2010PropOp40
 70
     1
102
RTVSPost2010Prop41ColorIndex
 90
       18
102
RTVSPost2010Prop41ColorRGB
 90
        0
102
RTVSPost2010PropOp41
 70
     1
102
RTVSPost2010Prop42
 90
       50
102
RTVSPost2010PropOp42
 70
     1
102
RTVSPost2010Prop43
 90
        3
102
RTVSPost2010PropOp43
 70
     1
102
RTVSPost2010Prop44ColorIndex
 90
        5
102
RTVSPost2010Prop44ColorRGB
 90
      255
102
RTVSPost2010PropOp44
 70
     1
102
RTVSPost2010Prop45
280
     0
102
RTVSPost2010PropOp45
 70
     1
102
RTVSPost2010Prop46
 90
       50
102
RTVSPost2010PropOp46
 70
     1
102
RTVSPost2010Prop47
 90
       50
102
RTVSPost2010PropOp47
 70
     1
102
RTVSPost2010Prop48
 90
       50
102
RTVSPost2010PropOp48
 70
     1
102
RTVSPost2010Prop49
280
     0
102
RTVSPost2010PropOp49
 70
     1
102
RTVSPost2010Prop50
 90
       50
102
RTVSPost2010PropOp50
 70
     1
102
RTVSPost2010Prop51ColorIndex
 90
      256
102
RTVSPost2010Prop51ColorRGB
 90
-16777216
102
RTVSPost2010PropOp51
 70
     0
102
RTVSPost2010Prop52
140
1.0
102
RTVSPost2010PropOp52
 70
     0
102
RTVSPost2010Prop53
 90
        2
102
RTVSPost2010PropOp53
 70
     1
102
RTVSPost2010Prop54
  1
strokes_ogs.tif
102
RTVSPost2010PropOp54
 70
     1
102
RTVSPost2010Prop55
280
     0
102
RTVSPost2010PropOp55
 70
     1
102
RTVSPost2010Prop56
140
1.0
102
RTVSPost2010PropOp56
 70
     1
102
RTVSPost2010Prop57
140
1.0
102
RTVSPost2010PropOp57
 70
     1
102
RTVSPropertyOp0
 70
     1
102
RTVSPropertyOp1
 70
     1
102
RTVSPropertyOp2
 70
     1
102
RTVSPropertyOp3
 70
     1
102
RTVSPropertyOp4
 70
     1
102
RTVSPropertyOp5
 70
     1
102
RTVSPropertyOp6
 70
     1
102
RTVSPropertyOp7
 70
     1
102
RTVSPropertyOp8
 70
     1
102
RTVSPropertyOp9
 70
     1
102
RTVSPropertyOp10
 70
     1
102
RTVSPropertyOp11
 70
     1
102
RTVSPropertyOp12
 70
     1
102
RTVSPropertyOp13
 70
     1
102
RTVSPropertyOp14
 70
     1
102
RTVSPropertyOp15
 70
     1
102
RTVSPropertyOp16
 70
     1
102
RTVSPropertyOp17
 70
     1
102
RTVSPropertyOp18
 70
     1
102
RTVSPropertyOp19
 70
     1
102
RTVSPropertyOp20
 70
     1
102
RTVSPropertyOp21
 70
     1
102
RTVSPropertyOp22
 70
     1
102
RTVSPropertyOp23
 70
     1
102
RTVSPropertyOp24
 70
     1
102
RTVSPropertyOp25
 70
     1
102
RTVSPropertyOp26
 70
     1
102
RTVSPropertyOp27
 70
     1
102
RTVSPropertyOp28
 70
     1
102
RTVSPropertyOp29
 70
     1
102
RTVSPropertyOp30
 70
     1
102
RTVSPropertyOp31
 70
     1
102
RTVSPropertyOp32
 70
     1
102
RTVSPropertyOp33
 70
     1
102
RTVSPropertyOp34
 70
     1
102
RTVSPropertyOp35
 70
     1
102
RTVSPropertyOp36
 70
     1
102
RTVSPropertyOp37
 70
     1
102
RTVSPropertyOp38
 70
     1
102
RTVSPropertyOp39
 70
     1
102
RTVSPropertyOp40
 70
     1
102
RTVSPropertyOp41
 70
     1
102
RTVSPropertyOp42
 70
     1
102
RTVSPropertyOp43
 70
     1
102
RTVSPropertyOp44
 70
     1
102
RTVSPropertyOp45
 70
     1
102
RTVSPropertyOp46
 70
     1
102
RTVSPropertyOp47
 70
     1
102
RTVSPropertyOp48
 70
     1
102
RTVSPropertyOp49
 70
     1
102
RTVSPropertyOp50
 70
     1
102
RTVSPropertyOp51
 70
     0
102
RTVSPropertyOp52
 70
     0
102
RTVSPropertyOp53
 70
     1
102
RTVSPropertyOp54
 70
     1
102
RTVSPropertyOp55
 70
     1
102
RTVSPropertyOp56
 70
     1
102
RTVSPropertyOp57
 70
     1
102
RTVSPropertyOp58
 70
     1
102
RTVSPropertyOp59
 70
     1
102
RTVSPropertyOp60
 70
     1
102
RTVSPropertyOp61
 70
     1
102
RTVSPropertyOp62
 70
     1
  0
XRECORD
  5
BF2F
102
{ACAD_REACTORS
330
BF2E
102
}
330
BF2E
100
AcDbXrecord
280
     1
102
RTVSPost2010Prop28
280
     0
102
RTVSPost2010PropOp28
 70
     1
102
RTVSPost2010Prop29
280
     1
102
RTVSPost2010PropOp29
 70
     1
102
RTVSPost2010Prop30
280
     1
102
RTVSPost2010PropOp30
 70
     1
102
RTVSPost2010Prop31
280
     0
102
RTVSPost2010PropOp31
 70
     1
102
RTVSPost2010Prop32
280
     0
102
RTVSPost2010PropOp32
 70
     1
102
RTVSPost2010Prop33
280
     0
102
RTVSPost2010PropOp33
 70
     1
102
RTVSPost2010Prop34
280
     0
102
RTVSPost2010PropOp34
 70
     1
102
RTVSPost2010Prop35
280
     0
102
RTVSPost2010PropOp35
 70
     1
102
RTVSPost2010Prop36
280
     0
102
RTVSPost2010PropOp36
 70
     1
102
RTVSPost2010Prop37
 90
       50
102
RTVSPost2010PropOp37
 70
     1
102
RTVSPost2010Prop38
140
0.0
102
RTVSPost2010PropOp38
 70
     1
102
RTVSPost2010Prop39
140
1.0
102
RTVSPost2010PropOp39
 70
     1
102
RTVSPost2010Prop40
 90
        0
102
RTVSPost2010PropOp40
 70
     1
102
RTVSPost2010Prop41ColorIndex
 90
       18
102
RTVSPost2010Prop41ColorRGB
 90
        0
102
RTVSPost2010PropOp41
 70
     1
102
RTVSPost2010Prop42
 90
       50
102
RTVSPost2010PropOp42
 70
     1
102
RTVSPost2010Prop43
 90
        3
102
RTVSPost2010PropOp43
 70
     1
102
RTVSPost2010Prop44ColorIndex
 90
        5
102
RTVSPost2010Prop44ColorRGB
 90
      255
102
RTVSPost2010PropOp44
 70
     1
102
RTVSPost2010Prop45
280
     0
102
RTVSPost2010PropOp45
 70
     1
102
RTVSPost2010Prop46
 90
       50
102
RTVSPost2010PropOp46
 70
     1
102
RTVSPost2010Prop47
 90
       50
102
RTVSPost2010PropOp47
 70
     1
102
RTVSPost2010Prop48
 90
       50
102
RTVSPost2010PropOp48
 70
     1
102
RTVSPost2010Prop49
280
     0
102
RTVSPost2010PropOp49
 70
     1
102
RTVSPost2010Prop50
 90
       50
102
RTVSPost2010PropOp50
 70
     1
102
RTVSPost2010Prop51ColorIndex
 90
      256
102
RTVSPost2010Prop51ColorRGB
 90
-16777216
102
RTVSPost2010PropOp51
 70
     0
102
RTVSPost2010Prop52
140
1.0
102
RTVSPost2010PropOp52
 70
     0
102
RTVSPost2010Prop53
 90
        2
102
RTVSPost2010PropOp53
 70
     1
102
RTVSPost2010Prop54
  1
strokes_ogs.tif
102
RTVSPost2010PropOp54
 70
     1
102
RTVSPost2010Prop55
280
     0
102
RTVSPost2010PropOp55
 70
     1
102
RTVSPost2010Prop56
140
1.0
102
RTVSPost2010PropOp56
 70
     1
102
RTVSPost2010Prop57
140
1.0
102
RTVSPost2010PropOp57
 70
     1
102
RTVSPropertyOp0
 70
     1
102
RTVSPropertyOp1
 70
     1
102
RTVSPropertyOp2
 70
     1
102
RTVSPropertyOp3
 70
     1
102
RTVSPropertyOp4
 70
     1
102
RTVSPropertyOp5
 70
     1
102
RTVSPropertyOp6
 70
     1
102
RTVSPropertyOp7
 70
     1
102
RTVSPropertyOp8
 70
     1
102
RTVSPropertyOp9
 70
     1
102
RTVSPropertyOp10
 70
     1
102
RTVSPropertyOp11
 70
     1
102
RTVSPropertyOp12
 70
     1
102
RTVSPropertyOp13
 70
     1
102
RTVSPropertyOp14
 70
     1
102
RTVSPropertyOp15
 70
     1
102
RTVSPropertyOp16
 70
     1
102
RTVSPropertyOp17
 70
     1
102
RTVSPropertyOp18
 70
     1
102
RTVSPropertyOp19
 70
     1
102
RTVSPropertyOp20
 70
     1
102
RTVSPropertyOp21
 70
     1
102
RTVSPropertyOp22
 70
     1
102
RTVSPropertyOp23
 70
     1
102
RTVSPropertyOp24
 70
     1
102
RTVSPropertyOp25
 70
     1
102
RTVSPropertyOp26
 70
     1
102
RTVSPropertyOp27
 70
     1
102
RTVSPropertyOp28
 70
     1
102
RTVSPropertyOp29
 70
     1
102
RTVSPropertyOp30
 70
     1
102
RTVSPropertyOp31
 70
     1
102
RTVSPropertyOp32
 70
     1
102
RTVSPropertyOp33
 70
     1
102
RTVSPropertyOp34
 70
     1
102
RTVSPropertyOp35
 70
     1
102
RTVSPropertyOp36
 70
     1
102
RTVSPropertyOp37
 70
     1
102
RTVSPropertyOp38
 70
     1
102
RTVSPropertyOp39
 70
     1
102
RTVSPropertyOp40
 70
     1
102
RTVSPropertyOp41
 70
     1
102
RTVSPropertyOp42
 70
     1
102
RTVSPropertyOp43
 70
     1
102
RTVSPropertyOp44
 70
     1
102
RTVSPropertyOp45
 70
     1
102
RTVSPropertyOp46
 70
     1
102
RTVSPropertyOp47
 70
     1
102
RTVSPropertyOp48
 70
     1
102
RTVSPropertyOp49
 70
     1
102
RTVSPropertyOp50
 70
     1
102
RTVSPropertyOp51
 70
     0
102
RTVSPropertyOp52
 70
     0
102
RTVSPropertyOp53
 70
     1
102
RTVSPropertyOp54
 70
     1
102
RTVSPropertyOp55
 70
     1
102
RTVSPropertyOp56
 70
     1
102
RTVSPropertyOp57
 70
     1
102
RTVSPropertyOp58
 70
     1
102
RTVSPropertyOp59
 70
     1
102
RTVSPropertyOp60
 70
     1
102
RTVSPropertyOp61
 70
     1
102
RTVSPropertyOp62
 70
     1
  0
XRECORD
  5
BF47
102
{ACAD_REACTORS
330
BF46
102
}
330
BF46
100
AcDbXrecord
280
     1
102
RTVSPost2010Prop28
280
     0
102
RTVSPost2010PropOp28
 70
     1
102
RTVSPost2010Prop29
280
     1
102
RTVSPost2010PropOp29
 70
     1
102
RTVSPost2010Prop30
280
     1
102
RTVSPost2010PropOp30
 70
     1
102
RTVSPost2010Prop31
280
     0
102
RTVSPost2010PropOp31
 70
     1
102
RTVSPost2010Prop32
280
     0
102
RTVSPost2010PropOp32
 70
     1
102
RTVSPost2010Prop33
280
     0
102
RTVSPost2010PropOp33
 70
     1
102
RTVSPost2010Prop34
280
     0
102
RTVSPost2010PropOp34
 70
     1
102
RTVSPost2010Prop35
280
     0
102
RTVSPost2010PropOp35
 70
     1
102
RTVSPost2010Prop36
280
     0
102
RTVSPost2010PropOp36
 70
     1
102
RTVSPost2010Prop37
 90
       50
102
RTVSPost2010PropOp37
 70
     1
102
RTVSPost2010Prop38
140
0.0
102
RTVSPost2010PropOp38
 70
     1
102
RTVSPost2010Prop39
140
1.0
102
RTVSPost2010PropOp39
 70
     1
102
RTVSPost2010Prop40
 90
        0
102
RTVSPost2010PropOp40
 70
     1
102
RTVSPost2010Prop41ColorIndex
 90
       18
102
RTVSPost2010Prop41ColorRGB
 90
        0
102
RTVSPost2010PropOp41
 70
     1
102
RTVSPost2010Prop42
 90
       50
102
RTVSPost2010PropOp42
 70
     1
102
RTVSPost2010Prop43
 90
        3
102
RTVSPost2010PropOp43
 70
     1
102
RTVSPost2010Prop44ColorIndex
 90
        5
102
RTVSPost2010Prop44ColorRGB
 90
      255
102
RTVSPost2010PropOp44
 70
     1
102
RTVSPost2010Prop45
280
     0
102
RTVSPost2010PropOp45
 70
     1
102
RTVSPost2010Prop46
 90
       50
102
RTVSPost2010PropOp46
 70
     1
102
RTVSPost2010Prop47
 90
       50
102
RTVSPost2010PropOp47
 70
     1
102
RTVSPost2010Prop48
 90
       50
102
RTVSPost2010PropOp48
 70
     1
102
RTVSPost2010Prop49
280
     0
102
RTVSPost2010PropOp49
 70
     1
102
RTVSPost2010Prop50
 90
       50
102
RTVSPost2010PropOp50
 70
     1
102
RTVSPost2010Prop51ColorIndex
 90
      256
102
RTVSPost2010Prop51ColorRGB
 90
-16777216
102
RTVSPost2010PropOp51
 70
     0
102
RTVSPost2010Prop52
140
1.0
102
RTVSPost2010PropOp52
 70
     0
102
RTVSPost2010Prop53
 90
        2
102
RTVSPost2010PropOp53
 70
     1
102
RTVSPost2010Prop54
  1
strokes_ogs.tif
102
RTVSPost2010PropOp54
 70
     1
102
RTVSPost2010Prop55
280
     0
102
RTVSPost2010PropOp55
 70
     1
102
RTVSPost2010Prop56
140
1.0
102
RTVSPost2010PropOp56
 70
     1
102
RTVSPost2010Prop57
140
1.0
102
RTVSPost2010PropOp57
 70
     1
102
RTVSPropertyOp0
 70
     1
102
RTVSPropertyOp1
 70
     1
102
RTVSPropertyOp2
 70
     1
102
RTVSPropertyOp3
 70
     1
102
RTVSPropertyOp4
 70
     1
102
RTVSPropertyOp5
 70
     1
102
RTVSPropertyOp6
 70
     1
102
RTVSPropertyOp7
 70
     1
102
RTVSPropertyOp8
 70
     1
102
RTVSPropertyOp9
 70
     1
102
RTVSPropertyOp10
 70
     1
102
RTVSPropertyOp11
 70
     1
102
RTVSPropertyOp12
 70
     1
102
RTVSPropertyOp13
 70
     1
102
RTVSPropertyOp14
 70
     1
102
RTVSPropertyOp15
 70
     1
102
RTVSPropertyOp16
 70
     1
102
RTVSPropertyOp17
 70
     1
102
RTVSPropertyOp18
 70
     1
102
RTVSPropertyOp19
 70
     1
102
RTVSPropertyOp20
 70
     1
102
RTVSPropertyOp21
 70
     1
102
RTVSPropertyOp22
 70
     1
102
RTVSPropertyOp23
 70
     1
102
RTVSPropertyOp24
 70
     1
102
RTVSPropertyOp25
 70
     1
102
RTVSPropertyOp26
 70
     1
102
RTVSPropertyOp27
 70
     1
102
RTVSPropertyOp28
 70
     1
102
RTVSPropertyOp29
 70
     1
102
RTVSPropertyOp30
 70
     1
102
RTVSPropertyOp31
 70
     1
102
RTVSPropertyOp32
 70
     1
102
RTVSPropertyOp33
 70
     1
102
RTVSPropertyOp34
 70
     1
102
RTVSPropertyOp35
 70
     1
102
RTVSPropertyOp36
 70
     1
102
RTVSPropertyOp37
 70
     1
102
RTVSPropertyOp38
 70
     1
102
RTVSPropertyOp39
 70
     1
102
RTVSPropertyOp40
 70
     1
102
RTVSPropertyOp41
 70
     1
102
RTVSPropertyOp42
 70
     1
102
RTVSPropertyOp43
 70
     1
102
RTVSPropertyOp44
 70
     1
102
RTVSPropertyOp45
 70
     1
102
RTVSPropertyOp46
 70
     1
102
RTVSPropertyOp47
 70
     1
102
RTVSPropertyOp48
 70
     1
102
RTVSPropertyOp49
 70
     1
102
RTVSPropertyOp50
 70
     1
102
RTVSPropertyOp51
 70
     0
102
RTVSPropertyOp52
 70
     0
102
RTVSPropertyOp53
 70
     1
102
RTVSPropertyOp54
 70
     1
102
RTVSPropertyOp55
 70
     1
102
RTVSPropertyOp56
 70
     1
102
RTVSPropertyOp57
 70
     1
102
RTVSPropertyOp58
 70
     1
102
RTVSPropertyOp59
 70
     1
102
RTVSPropertyOp60
 70
     1
102
RTVSPropertyOp61
 70
     1
102
RTVSPropertyOp62
 70
     1
  0
ENDSEC
  0
EOF
