  0
SECTION
  2
HEADER
  9
$ACADVER
  1
AC1015
  9
$ACADMAINTVER
 70
    20
  9
$DWGCODEPAGE
  3
ANSI_932
  9
$INSBASE
 10
0.0
 20
0.0
 30
0.0
  9
$EXTMIN
 10
10.0
 20
9.999999999999998
 30
0.0
  9
$EXTMAX
 10
775.165695
 20
517.954158
 30
0.0
  9
$LIMMIN
 10
0.0
 20
0.0
  9
$LIMMAX
 10
792.0
 20
546.0
  9
$ORTHOMODE
 70
     0
  9
$REGENMODE
 70
     1
  9
$FILLMODE
 70
     1
  9
$QTEXTMODE
 70
     0
  9
$MIRRTEXT
 70
     1
  9
$LTSCALE
 40
20.0
  9
$ATTMODE
 70
     1
  9
$TEXTSIZE
 40
5.0
  9
$TRACEWID
 40
1.0
  9
$TEXTSTYLE
  7
STANDARD
  9
$CLAYER
  8
0
  9
$CELTYPE
  6
BYLAYER
  9
$CECOLOR
 62
   256
  9
$CELTSCALE
 40
1.0
  9
$DISPSILH
 70
     0
  9
$DIMSCALE
 40
1.0
  9
$DIMASZ
 40
3.0
  9
$DIMEXO
 40
1.0
  9
$DIMDLI
 40
10.0
  9
$DIMRND
 40
0.0
  9
$DIMDLE
 40
0.0
  9
$DIMEXE
 40
1.0
  9
$DIMTP
 40
0.0
  9
$DIMTM
 40
0.0
  9
$DIMTXT
 40
3.2
  9
$DIMCEN
 40
0.0
  9
$DIMTSZ
 40
0.0
  9
$DIMTOL
 70
     0
  9
$DIMLIM
 70
     0
  9
$DIMTIH
 70
     0
  9
$DIMTOH
 70
     0
  9
$DIMSE1
 70
     0
  9
$DIMSE2
 70
     0
  9
$DIMTAD
 70
     3
  9
$DIMZIN
 70
     8
  9
$DIMBLK
  1

  9
$DIMASO
 70
     1
  9
$DIMSHO
 70
     1
  9
$DIMPOST
  1

  9
$DIMAPOST
  1

  9
$DIMALT
 70
     0
  9
$DIMALTD
 70
     2
  9
$DIMALTF
 40
25.4
  9
$DIMLFAC
 40
1.0
  9
$DIMTOFL
 70
     1
  9
$DIMTVP
 40
0.0
  9
$DIMTIX
 70
     0
  9
$DIMSOXD
 70
     0
  9
$DIMSAH
 70
     1
  9
$DIMBLK1
  1
OPEN
  9
$DIMBLK2
  1
OPEN
  9
$DIMSTYLE
  2
STANDARD
  9
$DIMCLRD
 70
     0
  9
$DIMCLRE
 70
     0
  9
$DIMCLRT
 70
     0
  9
$DIMTFAC
 40
1.0
  9
$DIMGAP
 40
1.0
  9
$DIMJUST
 70
     0
  9
$DIMSD1
 70
     0
  9
$DIMSD2
 70
     0
  9
$DIMTOLJ
 70
     1
  9
$DIMTZIN
 70
     0
  9
$DIMALTZ
 70
     0
  9
$DIMALTTZ
 70
     0
  9
$DIMUPT
 70
     0
  9
$DIMDEC
 70
     4
  9
$DIMTDEC
 70
     4
  9
$DIMALTU
 70
     2
  9
$DIMALTTD
 70
     2
  9
$DIMTXSTY
  7
STANDARD
  9
$DIMAUNIT
 70
     0
  9
$DIMADEC
 70
     0
  9
$DIMALTRND
 40
0.0
  9
$DIMAZIN
 70
     0
  9
$DIMDSEP
 70
    46
  9
$DIMATFIT
 70
     3
  9
$DIMFRAC
 70
     0
  9
$DIMLDRBLK
  1
OPEN
  9
$DIMLUNIT
 70
     2
  9
$DIMLWD
 70
    -2
  9
$DIMLWE
 70
    -2
  9
$DIMTMOVE
 70
     0
  9
$LUNITS
 70
     2
  9
$LUPREC
 70
     4
  9
$SKETCHINC
 40
1.0
  9
$FILLETRAD
 40
12.3
  9
$AUNITS
 70
     0
  9
$AUPREC
 70
     2
  9
$MENU
  1
.
  9
$ELEVATION
 40
0.0
  9
$PELEVATION
 40
0.0
  9
$THICKNESS
 40
0.0
  9
$LIMCHECK
 70
     0
  9
$CHAMFERA
 40
1.0
  9
$CHAMFERB
 40
1.0
  9
$CHAMFERC
 40
0.0
  9
$CHAMFERD
 40
0.0
  9
$SKPOLY
 70
     0
  9
$TDCREATE
 40
2451301.773230787
  9
$TDUCREATE
 40
2451301.398230787
  9
$TDUPDATE
 40
2457618.723869618
  9
$TDUUPDATE
 40
2457618.348869618
  9
$TDINDWG
 40
0.0003212384
  9
$TDUSRTIMER
 40
0.0003209028
  9
$USRTIMER
 70
     1
  9
$ANGBASE
 50
0.0
  9
$ANGDIR
 70
     0
  9
$PDMODE
 70
     0
  9
$PDSIZE
 40
0.0
  9
$PLINEWID
 40
0.0
  9
$SPLFRAME
 70
     0
  9
$SPLINETYPE
 70
     6
  9
$SPLINESEGS
 70
     8
  9
$HANDSEED
  5
B650
  9
$SURFTAB1
 70
     6
  9
$SURFTAB2
 70
     6
  9
$SURFTYPE
 70
     6
  9
$SURFU
 70
     6
  9
$SURFV
 70
     6
  9
$UCSBASE
  2

  9
$UCSNAME
  2

  9
$UCSORG
 10
0.0
 20
0.0
 30
0.0
  9
$UCSXDIR
 10
1.0
 20
0.0
 30
0.0
  9
$UCSYDIR
 10
0.0
 20
1.0
 30
0.0
  9
$UCSORTHOREF
  2

  9
$UCSORTHOVIEW
 70
     0
  9
$UCSORGTOP
 10
0.0
 20
0.0
 30
0.0
  9
$UCSORGBOTTOM
 10
0.0
 20
0.0
 30
0.0
  9
$UCSORGLEFT
 10
0.0
 20
0.0
 30
0.0
  9
$UCSORGRIGHT
 10
0.0
 20
0.0
 30
0.0
  9
$UCSORGFRONT
 10
0.0
 20
0.0
 30
0.0
  9
$UCSORGBACK
 10
0.0
 20
0.0
 30
0.0
  9
$PUCSBASE
  2

  9
$PUCSNAME
  2

  9
$PUCSORG
 10
0.0
 20
0.0
 30
0.0
  9
$PUCSXDIR
 10
1.0
 20
0.0
 30
0.0
  9
$PUCSYDIR
 10
0.0
 20
1.0
 30
0.0
  9
$PUCSORTHOREF
  2

  9
$PUCSORTHOVIEW
 70
     0
  9
$PUCSORGTOP
 10
0.0
 20
0.0
 30
0.0
  9
$PUCSORGBOTTOM
 10
0.0
 20
0.0
 30
0.0
  9
$PUCSORGLEFT
 10
0.0
 20
0.0
 30
0.0
  9
$PUCSORGRIGHT
 10
0.0
 20
0.0
 30
0.0
  9
$PUCSORGFRONT
 10
0.0
 20
0.0
 30
0.0
  9
$PUCSORGBACK
 10
0.0
 20
0.0
 30
0.0
  9
$USERI1
 70
     0
  9
$USERI2
 70
     0
  9
$USERI3
 70
     0
  9
$USERI4
 70
     0
  9
$USERI5
 70
     0
  9
$USERR1
 40
0.0
  9
$USERR2
 40
0.0
  9
$USERR3
 40
0.0
  9
$USERR4
 40
0.0
  9
$USERR5
 40
0.0
  9
$WORLDVIEW
 70
     1
  9
$SHADEDGE
 70
     3
  9
$SHADEDIF
 70
    70
  9
$TILEMODE
 70
     1
  9
$MAXACTVP
 70
    16
  9
$PINSBASE
 10
0.0
 20
0.0
 30
0.0
  9
$PLIMCHECK
 70
     0
  9
$PEXTMIN
 10
1.000000000000000E+20
 20
1.000000000000000E+20
 30
1.000000000000000E+20
  9
$PEXTMAX
 10
-1.000000000000000E+20
 20
-1.000000000000000E+20
 30
-1.000000000000000E+20
  9
$PLIMMIN
 10
0.0
 20
0.0
  9
$PLIMMAX
 10
420.0
 20
297.0
  9
$UNITMODE
 70
     0
  9
$VISRETAIN
 70
     0
  9
$PLINEGEN
 70
     0
  9
$PSLTSCALE
 70
     0
  9
$TREEDEPTH
 70
  3020
  9
$CMLSTYLE
  2
STANDARD
  9
$CMLJUST
 70
     0
  9
$CMLSCALE
 40
1.0
  9
$PROXYGRAPHICS
 70
     1
  9
$MEASUREMENT
 70
     0
  9
$CELWEIGHT
370
    -1
  9
$ENDCAPS
280
     0
  9
$JOINSTYLE
280
     0
  9
$LWDISPLAY
290
     0
  9
$INSUNITS
 70
     0
  9
$HYPERLINKBASE
  1

  9
$STYLESHEET
  1

  9
$XEDIT
290
     1
  9
$CEPSNTYPE
380
     0
  9
$PSTYLEMODE
290
     1
  9
$FINGERPRINTGUID
  2
{58A83433-20C9-4AE4-8676-9B924F5FC1A5}
  9
$VERSIONGUID
  2
{76F690B0-350E-4A51-B85A-938CCDC47BEC}
  9
$EXTNAMES
290
     1
  9
$PSVPSCALE
 40
0.0
  9
$OLESTARTUP
290
     0
  0
ENDSEC
  0
SECTION
  2
CLASSES
  0
CLASS
  1
ACDBDICTIONARYWDFLT
  2
AcDbDictionaryWithDefault
  3
ObjectDBX Classes
 90
        0
280
     0
281
     0
  0
CLASS
  1
ACDBPLACEHOLDER
  2
AcDbPlaceHolder
  3
ObjectDBX Classes
 90
        0
280
     0
281
     0
  0
CLASS
  1
LAYOUT
  2
AcDbLayout
  3
ObjectDBX Classes
 90
        0
280
     0
281
     0
  0
CLASS
  1
DICTIONARYVAR
  2
AcDbDictionaryVar
  3
ObjectDBX Classes
 90
        0
280
     0
281
     0
  0
CLASS
  1
MATERIAL
  2
AcDbMaterial
  3
ObjectDBX Classes
 90
     1153
280
     0
281
     0
  0
CLASS
  1
VISUALSTYLE
  2
AcDbVisualStyle
  3
ObjectDBX Classes
 90
     4095
280
     0
281
     0
  0
CLASS
  1
TABLESTYLE
  2
AcDbTableStyle
  3
ObjectDBX Classes
 90
     4095
280
     0
281
     0
  0
CLASS
  1
SCALE
  2
AcDbScale
  3
ObjectDBX Classes
 90
     1153
280
     0
281
     0
  0
CLASS
  1
MLEADERSTYLE
  2
AcDbMLeaderStyle
  3
ACDB_MLEADERSTYLE_CLASS
 90
     4095
280
     0
281
     0
  0
CLASS
  1
ACDBSECTIONVIEWSTYLE
  2
AcDbSectionViewStyle
  3
ObjectDBX Classes
 90
     1025
280
     0
281
     0
  0
CLASS
  1
ACDBDETAILVIEWSTYLE
  2
AcDbDetailViewStyle
  3
ObjectDBX Classes
 90
     1025
280
     0
281
     0
  0
CLASS
  1
CELLSTYLEMAP
  2
AcDbCellStyleMap
  3
ObjectDBX Classes
 90
     1152
280
     0
281
     0
  0
ENDSEC
  0
SECTION
  2
TABLES
  0
TABLE
  2
VPORT
  5
B2A1
330
0
100
AcDbSymbolTable
 70
     1
  0
VPORT
  5
B599
330
B2A1
100
AcDbSymbolTableRecord
100
AcDbViewportTableRecord
  2
*ACTIVE
 70
     0
 10
0.0
 20
0.0
 11
1.0
 21
1.0
 12
602.3256166021269
 22
263.9813702793109
 13
0.0
 23
0.0
 14
10.0
 24
10.0
 15
10.0
 25
10.0
 16
0.0
 26
0.0
 36
1.0
 17
0.0
 27
0.0
 37
0.0
 40
513.9449698353075
 41
2.567642956764295
 42
50.0
 43
0.0
 44
0.0
 50
0.0
 51
0.0
 71
     0
 72
   100
 73
     1
 74
     0
 75
     0
 76
     0
 77
     0
 78
     0
281
     0
 65
     1
110
0.0
120
0.0
130
0.0
111
1.0
121
0.0
131
0.0
112
0.0
122
1.0
132
0.0
 79
     0
146
0.0
1001
ACAD_NAV_VCDISPLAY
1070
     3
  0
ENDTAB
  0
TABLE
  2
LTYPE
  5
B29E
330
0
100
AcDbSymbolTable
 70
     4
  0
LTYPE
  5
B2AC
330
B29E
100
AcDbSymbolTableRecord
100
AcDbLinetypeTableRecord
  2
BYBLOCK
 70
     0
  3

 72
    65
 73
     0
 40
0.0
  0
LTYPE
  5
B2AD
330
B29E
100
AcDbSymbolTableRecord
100
AcDbLinetypeTableRecord
  2
BYLAYER
 70
     0
  3

 72
    65
 73
     0
 40
0.0
  0
LTYPE
  5
B2AE
330
B29E
100
AcDbSymbolTableRecord
100
AcDbLinetypeTableRecord
  2
CONTINUOUS
 70
     0
  3
Solid line
 72
    65
 73
     0
 40
0.0
  0
LTYPE
  5
B2BC
330
B29E
100
AcDbSymbolTableRecord
100
AcDbLinetypeTableRecord
  2
DASHED
 70
     0
  3
__ __ __ __ __ __ __ __ __ __ __ __ __ __ __ __
 72
    65
 73
     2
 40
0.75
 49
0.5
 74
     0
 49
-0.25
 74
     0
  0
LTYPE
  5
B2BD
330
B29E
100
AcDbSymbolTableRecord
100
AcDbLinetypeTableRecord
  2
CENTER
 70
     0
  3
____ _ ____ _ ____ _ ____ _ ____ _ ____ _ ____ 
 72
    65
 73
     4
 40
2.0
 49
1.25
 74
     0
 49
-0.25
 74
     0
 49
0.25
 74
     0
 49
-0.25
 74
     0
  0
LTYPE
  5
B2BE
330
B29E
100
AcDbSymbolTableRecord
100
AcDbLinetypeTableRecord
  2
PHANTOM
 70
     0
  3
______  __  __  ______  __  __  ______  __  __ 
 72
    65
 73
     6
 40
2.5
 49
1.25
 74
     0
 49
-0.25
 74
     0
 49
0.25
 74
     0
 49
-0.25
 74
     0
 49
0.25
 74
     0
 49
-0.25
 74
     0
  0
ENDTAB
  0
TABLE
  2
LAYER
  5
B29B
330
0
100
AcDbSymbolTable
 70
     8
  0
LAYER
  5
B2A9
102
{ACAD_XDICTIONARY
360
B5F4
102
}
330
B29B
100
AcDbSymbolTableRecord
100
AcDbLayerTableRecord
  2
0
 70
     0
 62
     7
  6
CONTINUOUS
370
    -3
390
B5A2
  0
LAYER
  5
B2BF
102
{ACAD_XDICTIONARY
360
B5F6
102
}
330
B29B
100
AcDbSymbolTableRecord
100
AcDbLayerTableRecord
  2
4
 70
     0
 62
     1
  6
CENTER
370
    -3
390
B5A2
  0
LAYER
  5
B2C0
102
{ACAD_XDICTIONARY
360
B5F8
102
}
330
B29B
100
AcDbSymbolTableRecord
100
AcDbLayerTableRecord
  2
5
 70
     0
 62
     6
  6
PHANTOM
370
    -3
390
B5A2
  0
LAYER
  5
B2C1
102
{ACAD_XDICTIONARY
360
B5FA
102
}
330
B29B
100
AcDbSymbolTableRecord
100
AcDbLayerTableRecord
  2
1
 70
     0
 62
     7
  6
CONTINUOUS
370
    -3
390
B5A2
  0
LAYER
  5
B2C2
102
{ACAD_XDICTIONARY
360
B5FC
102
}
330
B29B
100
AcDbSymbolTableRecord
100
AcDbLayerTableRecord
  2
2
 70
     0
 62
     4
  6
CONTINUOUS
370
    -3
390
B5A2
  0
LAYER
  5
B2C3
102
{ACAD_XDICTIONARY
360
B5FE
102
}
330
B29B
100
AcDbSymbolTableRecord
100
AcDbLayerTableRecord
  2
3
 70
     0
 62
     2
  6
DASHED
370
    -3
390
B5A2
  0
LAYER
  5
B2C4
102
{ACAD_XDICTIONARY
360
B600
102
}
330
B29B
100
AcDbSymbolTableRecord
100
AcDbLayerTableRecord
  2
6
 70
     0
 62
     5
  6
CONTINUOUS
370
    -3
390
B5A2
  0
LAYER
  5
B2C5
102
{ACAD_XDICTIONARY
360
B602
102
}
330
B29B
100
AcDbSymbolTableRecord
100
AcDbLayerTableRecord
  2
7
 70
     0
 62
     3
  6
CONTINUOUS
370
    -3
390
B5A2
  0
ENDTAB
  0
TABLE
  2
STYLE
  5
B29C
330
0
100
AcDbSymbolTable
 70
     1
  0
STYLE
  5
B2AA
330
B29C
100
AcDbSymbolTableRecord
100
AcDbTextStyleTableRecord
  2
STANDARD
 70
     0
 40
0.0
 41
1.0
 50
0.0
 71
     0
 42
5.0
  3
txt
  4

  0
ENDTAB
  0
TABLE
  2
VIEW
  5
B29F
330
0
100
AcDbSymbolTable
 70
     0
  0
ENDTAB
  0
TABLE
  2
UCS
  5
B2A0
330
0
100
AcDbSymbolTable
 70
     0
  0
ENDTAB
  0
TABLE
  2
APPID
  5
B2A2
330
0
100
AcDbSymbolTable
 70
     3
  0
APPID
  5
B2AB
330
B2A2
100
AcDbSymbolTableRecord
100
AcDbRegAppTableRecord
  2
ACAD
 70
     0
  0
APPID
  5
B60E
330
B2A2
100
AcDbSymbolTableRecord
100
AcDbRegAppTableRecord
  2
ACAD_NAV_VCDISPLAY
 70
     0
  0
APPID
  5
B647
330
B2A2
100
AcDbSymbolTableRecord
100
AcDbRegAppTableRecord
  2
ACAD_MLEADERVER
 70
     0
  0
ENDTAB
  0
TABLE
  2
DIMSTYLE
  5
B2A3
330
0
100
AcDbSymbolTable
 70
     1
100
AcDbDimStyleTable
 71
     0
  0
DIMSTYLE
105
B2C7
330
B2A3
100
AcDbSymbolTableRecord
100
AcDbDimStyleTableRecord
  2
STANDARD
 70
     0
 41
3.0
 42
1.0
 43
10.0
 44
1.0
 73
     0
 74
     0
 77
     3
 78
     8
140
3.2
141
0.0
147
1.0
172
     1
173
     1
284
     8
285
     8
286
     8
340
B2AA
  0
ENDTAB
  0
TABLE
  2
BLOCK_RECORD
  5
B29A
330
0
100
AcDbSymbolTable
 70
     1
  0
BLOCK_RECORD
  5
B2B7
102
{ACAD_XDICTIONARY
360
B59C
102
}
330
B29A
100
AcDbSymbolTableRecord
100
AcDbBlockTableRecord
  2
*MODEL_SPACE
340
B5F0
  0
BLOCK_RECORD
  5
B2B3
102
{ACAD_XDICTIONARY
360
B59A
102
}
330
B29A
100
AcDbSymbolTableRecord
100
AcDbBlockTableRecord
  2
*PAPER_SPACE
340
B5F1
  0
BLOCK_RECORD
  5
B2CF
330
B29A
100
AcDbSymbolTableRecord
100
AcDbBlockTableRecord
  2
_OPEN
340
0
  0
ENDTAB
  0
ENDSEC
  0
SECTION
  2
BLOCKS
  0
BLOCK
  5
B2B8
330
B2B7
100
AcDbEntity
  8
0
100
AcDbBlockBegin
  2
*MODEL_SPACE
 70
     0
 10
0.0
 20
0.0
 30
0.0
  3
*MODEL_SPACE
  1

  0
ENDBLK
  5
B2B9
330
B2B7
100
AcDbEntity
  8
0
100
AcDbBlockEnd
  0
BLOCK
  5
B2B4
330
B2B3
100
AcDbEntity
 67
     1
  8
0
100
AcDbBlockBegin
  2
*PAPER_SPACE
 70
     0
 10
0.0
 20
0.0
 30
0.0
  3
*PAPER_SPACE
  1

  0
ENDBLK
  5
B2B5
330
B2B3
100
AcDbEntity
 67
     1
  8
0
100
AcDbBlockEnd
  0
BLOCK
  5
B2D0
330
B2CF
100
AcDbEntity
  8
0
100
AcDbBlockBegin
  2
_OPEN
 70
     0
 10
0.0
 20
0.0
 30
0.0
  3
_OPEN
  1

  0
LINE
  5
B2D1
330
B2CF
100
AcDbEntity
  8
0
  6
ByBlock
 62
     0
100
AcDbLine
 10
-1.0
 20
0.166667
 30
0.0
 11
0.0
 21
0.0
 31
0.0
  0
LINE
  5
B2D2
330
B2CF
100
AcDbEntity
  8
0
  6
ByBlock
 62
     0
100
AcDbLine
 10
0.0
 20
0.0
 30
0.0
 11
-1.0
 21
-0.166667
 31
0.0
  0
LINE
  5
B2D3
330
B2CF
100
AcDbEntity
  8
0
  6
ByBlock
 62
     0
100
AcDbLine
 10
0.0
 20
0.0
 30
0.0
 11
-1.0
 21
0.0
 31
0.0
  0
ENDBLK
  5
B2D4
330
B2CF
100
AcDbEntity
  8
0
100
AcDbBlockEnd
  0
ENDSEC
  0
SECTION
  2
ENTITIES
  0
TEXT
  5
B2D9
330
B2B7
100
AcDbEntity
  8
7
  6
Continuous
100
AcDbText
 10
10.0
 20
18.0
 30
0.0
 40
3.0
  1
TYPE No.208M d=21
100
AcDbText
  0
TEXT
  5
B2DA
330
B2B7
100
AcDbEntity
  8
7
  6
Continuous
100
AcDbText
 10
10.0
 20
26.0
 30
0.0
 40
3.0
  1
CODE No.9190
100
AcDbText
  0
TEXT
  5
B2DB
330
B2B7
100
AcDbEntity
  8
1
  6
Continuous
100
AcDbText
 10
10.0
 20
10.0
 30
0.0
 40
1.399999999999999
  1
LAYER
100
AcDbText
  0
TEXT
  5
B2DC
330
B2B7
100
AcDbEntity
  8
1
  6
Continuous
100
AcDbText
 10
17.97951099999998
 20
10.04873699999998
 30
0.0
 40
1.399999999999999
  1
1
100
AcDbText
  0
TEXT
  5
B2DD
330
B2B7
100
AcDbEntity
  8
7
  6
Continuous
100
AcDbText
 10
29.97951099999999
 20
10.04873699999998
 30
0.0
 40
1.399999999999999
  1
7
100
AcDbText
  0
TEXT
  5
B2DE
330
B2B7
100
AcDbEntity
  8
4
  6
CENTER
100
AcDbText
 10
23.97951099999999
 20
10.04873699999998
 30
0.0
 40
1.399999999999999
  1
4
100
AcDbText
  0
TEXT
  5
B2DF
330
B2B7
100
AcDbEntity
  8
3
  6
DASHED
100
AcDbText
 10
21.979511
 20
10.04873699999998
 30
0.0
 40
1.399999999999999
  1
3
100
AcDbText
  0
TEXT
  5
B2E0
330
B2B7
100
AcDbEntity
  8
2
  6
Continuous
100
AcDbText
 10
19.97951099999999
 20
10.04873699999998
 30
0.0
 40
1.399999999999999
  1
2
100
AcDbText
  0
TEXT
  5
B2E1
330
B2B7
100
AcDbEntity
  8
6
  6
Continuous
100
AcDbText
 10
27.979511
 20
10.04873699999998
 30
0.0
 40
1.399999999999999
  1
6
100
AcDbText
  0
TEXT
  5
B2E2
330
B2B7
100
AcDbEntity
  8
5
  6
PHANTOM
100
AcDbText
 10
25.97951099999999
 20
10.04873699999998
 30
0.0
 40
1.399999999999999
  1
5
100
AcDbText
  0
LINE
  5
B2E3
330
B2B7
100
AcDbEntity
  8
4
  6
CENTER
100
AcDbLine
 10
312.6143379999998
 20
403.7947649999998
 30
0.0
 11
312.6143379999998
 21
250.3780359999999
 31
0.0
  0
LINE
  5
B2E4
330
B2B7
100
AcDbEntity
  8
4
  6
CENTER
100
AcDbLine
 10
340.954052
 20
224.2477749999999
 30
0.0
 11
195.7645229999999
 21
224.2477749999999
 31
0.0
  0
LINE
  5
B2E5
330
B2B7
100
AcDbEntity
  8
4
  6
CENTER
100
AcDbLine
 10
267.6143379999999
 20
151.0885159999999
 30
0.0
 11
267.6143379999999
 21
295.2477749999999
 31
0.0
  0
ARC
  5
B2E6
330
B2B7
100
AcDbEntity
  8
1
  6
Continuous
100
AcDbCircle
 10
267.6143379999999
 20
224.2477749999999
 30
0.0
 40
48.75
100
AcDbArc
 50
52.673354
 51
17.612545
  0
ARC
  5
B2E8
330
B2B7
100
AcDbEntity
  8
1
  6
Continuous
100
AcDbCircle
 10
267.6143379999999
 20
224.2477749999999
 30
0.0
 40
20.5
100
AcDbArc
 50
64.81015699999999
 51
359.189843
  0
ARC
  5
B2E9
330
B2B7
100
AcDbEntity
  8
1
  6
Continuous
100
AcDbCircle
 10
295.1143379999999
 20
268.415071
 30
0.0
 40
35.0
100
AcDbArc
 50
300.0
 51
1.917050999999998
  0
ARC
  5
B2EA
330
B2B7
100
AcDbEntity
  8
1
  6
Continuous
100
AcDbCircle
 10
275.6143379999999
 20
269.4490359999999
 30
0.0
 40
22.5
100
AcDbArc
 50
304.0
 51
0.0
  0
LINE
  5
B2EB
330
B2B7
100
AcDbEntity
  8
1
  6
Continuous
100
AcDbLine
 10
272.8643379999999
 20
215.1545089999999
 30
0.0
 11
312.6143379999998
 21
238.1041819999999
 31
0.0
  0
ARC
  5
B2EC
330
B2B7
100
AcDbEntity
  8
1
  6
Continuous
100
AcDbCircle
 10
267.6143379999999
 20
224.2477749999999
 30
0.0
 40
10.5
100
AcDbArc
 50
335.9505679999998
 51
88.04943199999998
  0
ARC
  5
B2ED
330
B2B7
100
AcDbEntity
  8
1
  6
Continuous
100
AcDbCircle
 10
275.246771
 20
229.0170489999999
 30
0.0
 40
6.5
100
AcDbArc
 50
351.2481179999999
 51
72.75188199999998
  0
ARC
  5
B2EE
330
B2B7
100
AcDbEntity
  8
1
  6
Continuous
100
AcDbCircle
 10
267.6143379999999
 20
224.2477749999999
 30
0.0
 40
16.0
100
AcDbArc
 50
75.0145
 51
348.9854999999999
  0
LINE
  5
B2EF
330
B2B7
100
AcDbEntity
  8
1
  6
Continuous
100
AcDbLine
 10
261.7428129999999
 20
232.95267
 30
0.0
 11
288.1961779999999
 21
250.7956899999999
 31
0.0
  0
CIRCLE
  5
B2F0
330
B2B7
100
AcDbEntity
  8
1
  6
Continuous
100
AcDbCircle
 10
267.6143379999999
 20
224.2477749999999
 30
0.0
 40
8.0
  0
CIRCLE
  5
B2F1
330
B2B7
100
AcDbEntity
  8
1
  6
Continuous
100
AcDbCircle
 10
267.6143379999999
 20
224.2477749999999
 30
0.0
 40
7.5
  0
ARC
  5
B2F2
330
B2B7
100
AcDbEntity
  8
1
  6
Continuous
100
AcDbCircle
 10
267.6143379999999
 20
224.2477749999999
 30
0.0
 40
10.5
100
AcDbArc
 50
124.0
 51
300.0
  0
ARC
  5
B2F3
330
B2B7
100
AcDbEntity
  8
1
  6
Continuous
100
AcDbCircle
 10
263.847616
 20
230.7719299999999
 30
0.0
 40
18.033445
100
AcDbArc
 50
330.5293909999999
 51
351.2481179999999
  0
ARC
  5
B2F4
330
B2B7
100
AcDbEntity
  8
1
  6
Continuous
100
AcDbCircle
 10
271.8269869999999
 20
218.002267
 30
0.0
 40
18.033445
100
AcDbArc
 50
72.75188199999998
 51
93.470609
  0
ARC
  5
B2F5
330
B2B7
100
AcDbEntity
  8
1
  6
Continuous
100
AcDbCircle
 10
299.964338
 20
311.7477749999999
 30
0.0
 40
6.5
100
AcDbArc
 50
90.0
 51
180.0
  0
ARC
  5
B2F6
330
B2B7
100
AcDbEntity
  8
1
  6
Continuous
100
AcDbCircle
 10
296.8643379999999
 20
297.6977749999999
 30
0.0
 40
4.75
100
AcDbArc
 50
106.6855899999999
 51
180.0
  0
LINE
  5
B2F7
330
B2B7
100
AcDbEntity
  8
1
  6
Continuous
100
AcDbLine
 10
296.1143379999999
 20
288.4477749999998
 30
0.0
 11
292.1143379999999
 21
288.4477749999998
 31
0.0
  0
LINE
  5
B2F8
330
B2B7
100
AcDbEntity
  8
1
  6
Continuous
100
AcDbLine
 10
331.764338
 20
302.247775
 30
0.0
 11
293.464338
 21
302.247775
 31
0.0
  0
ARC
  5
B2F9
330
B2B7
100
AcDbEntity
  8
1
  6
Continuous
100
AcDbCircle
 10
328.364338
 20
297.6977749999999
 30
0.0
 40
4.75
100
AcDbArc
 50
0.0
 51
73.31440999999998
  0
ARC
  5
B2FA
330
B2B7
100
AcDbEntity
  8
1
  6
Continuous
100
AcDbCircle
 10
380.0667639999998
 20
271.2585429999999
 30
0.0
 40
50.0
100
AcDbArc
 50
159.892376
 51
181.917051
  0
LINE
  5
B2FB
330
B2B7
100
AcDbEntity
  8
1
  6
Continuous
100
AcDbLine
 10
333.1143379999998
 20
297.6977749999999
 30
0.0
 11
333.1143379999998
 21
288.4477749999998
 31
0.0
  0
LINE
  5
B2FC
330
B2B7
100
AcDbEntity
  8
1
  6
Continuous
100
AcDbLine
 10
298.1143379999998
 20
286.4477749999998
 30
0.0
 11
298.1143379999998
 21
269.4490359999999
 31
0.0
  0
ARC
  5
B2FD
330
B2B7
100
AcDbEntity
  8
1
  6
Continuous
100
AcDbCircle
 10
296.1143379999999
 20
286.4477749999998
 30
0.0
 40
2.0
100
AcDbArc
 50
0.0
 51
90.0
  0
LINE
  5
B2FE
330
B2B7
100
AcDbEntity
  8
1
  6
Continuous
100
AcDbLine
 10
325.264338
 20
318.2477749999998
 30
0.0
 11
299.964338
 21
318.2477749999998
 31
0.0
  0
ARC
  5
B2FF
330
B2B7
100
AcDbEntity
  8
1
  6
Continuous
100
AcDbCircle
 10
325.264338
 20
311.7477749999999
 30
0.0
 40
6.5
100
AcDbArc
 50
0.0
 51
90.0
  0
LINE
  5
B300
330
B2B7
100
AcDbEntity
  8
1
  6
Continuous
100
AcDbLine
 10
331.764338
 20
311.7477749999999
 30
0.0
 11
331.764338
 21
302.247775
 31
0.0
  0
LINE
  5
B301
330
B2B7
100
AcDbEntity
  8
1
  6
Continuous
100
AcDbLine
 10
292.1143379999999
 20
297.6977749999999
 30
0.0
 11
292.1143379999999
 21
288.4477749999998
 31
0.0
  0
LINE
  5
B302
330
B2B7
100
AcDbEntity
  8
1
  6
Continuous
100
AcDbLine
 10
293.464338
 20
311.7477749999999
 30
0.0
 11
293.464338
 21
302.247775
 31
0.0
  0
LINE
  5
B303
330
B2B7
100
AcDbEntity
  8
4
  6
CENTER
100
AcDbLine
 10
312.6143379999998
 20
511.120723
 30
0.0
 11
312.6143379999998
 21
454.387935
 31
0.0
  0
LINE
  5
B304
330
B2B7
100
AcDbEntity
  8
4
  6
CENTER
100
AcDbLine
 10
267.6143379999999
 20
517.954158
 30
0.0
 11
267.6143379999999
 21
445.3776659999999
 31
0.0
  0
LINE
  5
B305
330
B2B7
100
AcDbEntity
  8
4
  6
CENTER
100
AcDbLine
 10
339.7003899999999
 20
482.0485979999999
 30
0.0
 11
196.260159
 21
482.0485979999999
 31
0.0
  0
ARC
  5
B306
330
B2B7
100
AcDbEntity
  8
1
  6
Continuous
100
AcDbCircle
 10
249.9427649999999
 20
467.2985979999999
 30
0.0
 40
3.0
100
AcDbArc
 50
199.4712209999999
 51
270.0
  0
ARC
  5
B307
330
B2B7
100
AcDbEntity
  8
1
  6
Continuous
100
AcDbCircle
 10
249.9427649999999
 20
496.798598
 30
0.0
 40
3.0
100
AcDbArc
 50
90.0
 51
160.528779
  0
LINE
  5
B308
330
B2B7
100
AcDbEntity
  8
1
  6
Continuous
100
AcDbLine
 10
288.1143379999999
 20
466.298598
 30
0.0
 11
247.114338
 21
466.298598
 31
0.0
  0
LINE
  5
B309
330
B2B7
100
AcDbEntity
  8
1
  6
Continuous
100
AcDbLine
 10
288.1143379999999
 20
497.798598
 30
0.0
 11
247.114338
 21
497.798598
 31
0.0
  0
CIRCLE
  5
B30A
330
B2B7
100
AcDbEntity
  8
1
  6
Continuous
100
AcDbCircle
 10
312.6143379999998
 20
482.0485979999999
 30
0.0
 40
19.15
  0
CIRCLE
  5
B30B
330
B2B7
100
AcDbEntity
  8
1
  6
Continuous
100
AcDbCircle
 10
312.6143379999998
 20
482.0485979999999
 30
0.0
 40
6.0
  0
LINE
  5
B30C
330
B2B7
100
AcDbEntity
  8
1
  6
Continuous
100
AcDbLine
 10
274.3782700000001
 20
501.948598
 30
0.0
 11
260.850406
 21
501.948598
 31
0.0
  0
LINE
  5
B30D
330
B2B7
100
AcDbEntity
  8
1
  6
Continuous
100
AcDbLine
 10
275.1143379999999
 20
507.548598
 30
0.0
 11
260.1143379999999
 21
507.548598
 31
0.0
  0
LINE
  5
B30E
330
B2B7
100
AcDbEntity
  8
1
  6
Continuous
100
AcDbLine
 10
283.6143379999999
 20
501.848598
 30
0.0
 11
251.6143379999999
 21
501.848598
 31
0.0
  0
LINE
  5
B30F
330
B2B7
100
AcDbEntity
  8
1
  6
Continuous
100
AcDbLine
 10
285.285911
 20
499.798598
 30
0.0
 11
249.9427649999999
 21
499.798598
 31
0.0
  0
ARC
  5
B310
330
B2B7
100
AcDbEntity
  8
1
  6
Continuous
100
AcDbCircle
 10
285.285911
 20
496.798598
 30
0.0
 40
3.0
100
AcDbArc
 50
19.47122099999998
 51
90.0
  0
LINE
  5
B311
330
B2B7
100
AcDbEntity
  8
1
  6
Continuous
100
AcDbLine
 10
283.6143379999999
 20
501.848598
 30
0.0
 11
283.6143379999999
 21
499.798598
 31
0.0
  0
ARC
  5
B312
330
B2B7
100
AcDbEntity
  8
1
  6
Continuous
100
AcDbCircle
 10
269.3718029999998
 20
471.2473759999999
 30
0.0
 40
32.5
100
AcDbArc
 50
42.12936699999999
 51
54.78169300000001
  0
LINE
  5
B313
330
B2B7
100
AcDbEntity
  8
1
  6
Continuous
100
AcDbLine
 10
273.5893379999998
 20
501.948598
 30
0.0
 11
273.5893379999998
 21
501.848598
 31
0.0
  0
ARC
  5
B314
330
B2B7
100
AcDbEntity
  8
1
  6
Continuous
100
AcDbCircle
 10
274.3782700000001
 20
504.948598
 30
0.0
 40
3.0
100
AcDbArc
 50
270.0
 51
318.189685
  0
LINE
  5
B315
330
B2B7
100
AcDbEntity
  8
1
  6
Continuous
100
AcDbLine
 10
275.1143379999999
 20
507.548598
 30
0.0
 11
275.1143379999999
 21
506.572415
 31
0.0
  0
ARC
  5
B316
330
B2B7
100
AcDbEntity
  8
1
  6
Continuous
100
AcDbCircle
 10
260.850406
 20
504.948598
 30
0.0
 40
3.0
100
AcDbArc
 50
221.810315
 51
270.0
  0
LINE
  5
B317
330
B2B7
100
AcDbEntity
  8
1
  6
Continuous
100
AcDbLine
 10
261.639338
 20
501.948598
 30
0.0
 11
261.639338
 21
501.848598
 31
0.0
  0
LINE
  5
B318
330
B2B7
100
AcDbEntity
  8
1
  6
Continuous
100
AcDbLine
 10
260.1143379999999
 20
507.548598
 30
0.0
 11
260.1143379999999
 21
505.2485980000001
 31
0.0
  0
LINE
  5
B319
330
B2B7
100
AcDbEntity
  8
1
  6
Continuous
100
AcDbLine
 10
257.1143379999999
 20
505.2485980000001
 30
0.0
 11
257.1143379999999
 21
502.948598
 31
0.0
  0
LINE
  5
B31A
330
B2B7
100
AcDbEntity
  8
1
  6
Continuous
100
AcDbLine
 10
251.6143379999999
 20
501.848598
 30
0.0
 11
251.6143379999999
 21
499.798598
 31
0.0
  0
LINE
  5
B31B
330
B2B7
100
AcDbEntity
  8
1
  6
Continuous
100
AcDbLine
 10
274.3782700000001
 20
462.148598
 30
0.0
 11
260.850406
 21
462.148598
 31
0.0
  0
LINE
  5
B31C
330
B2B7
100
AcDbEntity
  8
1
  6
Continuous
100
AcDbLine
 10
275.1143379999999
 20
456.548598
 30
0.0
 11
260.1143379999999
 21
456.548598
 31
0.0
  0
LINE
  5
B31D
330
B2B7
100
AcDbEntity
  8
1
  6
Continuous
100
AcDbLine
 10
283.6143379999999
 20
462.248598
 30
0.0
 11
251.6143379999999
 21
462.248598
 31
0.0
  0
LINE
  5
B31E
330
B2B7
100
AcDbEntity
  8
1
  6
Continuous
100
AcDbLine
 10
285.285911
 20
464.298598
 30
0.0
 11
249.9427649999999
 21
464.298598
 31
0.0
  0
ARC
  5
B31F
330
B2B7
100
AcDbEntity
  8
1
  6
Continuous
100
AcDbCircle
 10
269.3718029999998
 20
492.8498199999999
 30
0.0
 40
32.5
100
AcDbArc
 50
305.2183069999998
 51
317.870633
  0
LINE
  5
B320
330
B2B7
100
AcDbEntity
  8
1
  6
Continuous
100
AcDbLine
 10
283.6143379999999
 20
464.298598
 30
0.0
 11
283.6143379999999
 21
462.248598
 31
0.0
  0
ARC
  5
B321
330
B2B7
100
AcDbEntity
  8
1
  6
Continuous
100
AcDbCircle
 10
285.285911
 20
467.2985979999999
 30
0.0
 40
3.0
100
AcDbArc
 50
270.0
 51
340.528779
  0
LINE
  5
B322
330
B2B7
100
AcDbEntity
  8
1
  6
Continuous
100
AcDbLine
 10
273.5893379999998
 20
462.248598
 30
0.0
 11
273.5893379999998
 21
462.148598
 31
0.0
  0
ARC
  5
B323
330
B2B7
100
AcDbEntity
  8
1
  6
Continuous
100
AcDbCircle
 10
274.3782700000001
 20
459.1485979999998
 30
0.0
 40
3.0
100
AcDbArc
 50
41.810315
 51
90.0
  0
LINE
  5
B324
330
B2B7
100
AcDbEntity
  8
1
  6
Continuous
100
AcDbLine
 10
275.1143379999999
 20
457.524782
 30
0.0
 11
275.1143379999999
 21
456.548598
 31
0.0
  0
LINE
  5
B325
330
B2B7
100
AcDbEntity
  8
1
  6
Continuous
100
AcDbLine
 10
260.1143379999999
 20
458.8485979999998
 30
0.0
 11
260.1143379999999
 21
456.548598
 31
0.0
  0
ARC
  5
B326
330
B2B7
100
AcDbEntity
  8
1
  6
Continuous
100
AcDbCircle
 10
260.850406
 20
459.1485979999998
 30
0.0
 40
3.0
100
AcDbArc
 50
90.0
 51
138.1896849999999
  0
LINE
  5
B327
330
B2B7
100
AcDbEntity
  8
1
  6
Continuous
100
AcDbLine
 10
261.639338
 20
462.248598
 30
0.0
 11
261.639338
 21
462.148598
 31
0.0
  0
LINE
  5
B328
330
B2B7
100
AcDbEntity
  8
1
  6
Continuous
100
AcDbLine
 10
257.1143379999999
 20
461.148598
 30
0.0
 11
257.1143379999999
 21
458.8485979999998
 31
0.0
  0
LINE
  5
B329
330
B2B7
100
AcDbEntity
  8
1
  6
Continuous
100
AcDbLine
 10
251.6143379999999
 20
464.298598
 30
0.0
 11
251.6143379999999
 21
462.248598
 31
0.0
  0
ARC
  5
B32A
330
B2B7
100
AcDbEntity
  8
1
  6
Continuous
100
AcDbCircle
 10
265.856873
 20
471.2473759999999
 30
0.0
 40
32.5
100
AcDbArc
 50
125.218307
 51
137.8706329999999
  0
ARC
  5
B32B
330
B2B7
100
AcDbEntity
  8
1
  6
Continuous
100
AcDbCircle
 10
265.856873
 20
492.8498199999999
 30
0.0
 40
32.5
100
AcDbArc
 50
222.129367
 51
234.781693
  0
LINE
  5
B32C
330
B2B7
100
AcDbEntity
  8
4
  6
CENTER
100
AcDbLine
 10
72.00595899999997
 20
403.7947649999998
 30
0.0
 11
72.00595899999997
 21
150.0885159999999
 31
0.0
  0
ARC
  5
B32D
330
B2B7
100
AcDbEntity
  8
1
  6
Continuous
100
AcDbCircle
 10
61.204737
 20
222.49031
 30
0.0
 40
32.5
100
AcDbArc
 50
312.129367
 51
324.781693
  0
ARC
  5
B32E
330
B2B7
100
AcDbEntity
  8
1
  6
Continuous
100
AcDbCircle
 10
82.80718099999999
 20
222.49031
 30
0.0
 40
32.5
100
AcDbArc
 50
215.2183069999999
 51
227.8706329999999
  0
LINE
  5
B32F
330
B2B7
100
AcDbEntity
  8
4
  6
CENTER
100
AcDbLine
 10
35.48353999999999
 20
224.2477749999999
 30
0.0
 11
108.0783009999999
 21
224.2477749999999
 31
0.0
  0
ARC
  5
B330
330
B2B7
100
AcDbEntity
  8
1
  6
Continuous
100
AcDbCircle
 10
82.80718099999999
 20
226.0052399999999
 30
0.0
 40
32.5
100
AcDbArc
 50
132.1293669999998
 51
144.7816929999999
  0
ARC
  5
B331
330
B2B7
100
AcDbEntity
  8
1
  6
Continuous
100
AcDbCircle
 10
59.20099399999998
 20
285.447775
 30
0.0
 40
3.0
100
AcDbArc
 50
90.0
 51
179.431016
  0
ARC
  5
B332
330
B2B7
100
AcDbEntity
  8
1
  6
Continuous
100
AcDbCircle
 10
-41.49404099999999
 20
286.4477749999998
 30
0.0
 40
97.70000000000001
100
AcDbArc
 50
343.708766
 51
359.431016
  0
ARC
  5
B333
330
B2B7
100
AcDbEntity
  8
1
  6
Continuous
100
AcDbCircle
 10
-41.49404099999999
 20
286.4477749999998
 30
0.0
 40
100.0
100
AcDbArc
 50
343.708766
 51
0.0
  0
ARC
  5
B334
330
B2B7
100
AcDbEntity
  8
1
  6
Continuous
100
AcDbCircle
 10
59.355959
 20
311.7477749999999
 30
0.0
 40
6.5
100
AcDbArc
 50
90.0
 51
180.0
  0
LINE
  5
B335
330
B2B7
100
AcDbEntity
  8
1
  6
Continuous
100
AcDbLine
 10
52.855959
 20
302.247775
 30
0.0
 11
91.155959
 21
302.247775
 31
0.0
  0
ARC
  5
B336
330
B2B7
100
AcDbEntity
  8
1
  6
Continuous
100
AcDbCircle
 10
1.505959
 20
277.4477749999999
 30
0.0
 40
50.0
100
AcDbArc
 50
348.7530469999999
 51
0.0
  0
LINE
  5
B337
330
B2B7
100
AcDbEntity
  8
1
  6
Continuous
100
AcDbLine
 10
52.205959
 20
240.247775
 30
0.0
 11
52.205959
 21
208.2477749999999
 31
0.0
  0
ARC
  5
B338
330
B2B7
100
AcDbEntity
  8
1
  6
Continuous
100
AcDbCircle
 10
295.7446549999999
 20
218.936324
 30
0.0
 40
250.0
100
AcDbArc
 50
168.753047
 51
177.193756
  0
ARC
  5
B339
330
B2B7
100
AcDbEntity
  8
1
  6
Continuous
100
AcDbCircle
 10
135.4066349999999
 20
234.7477749999999
 30
0.0
 40
86.60067600000003
100
AcDbArc
 50
163.7087659999999
 51
180.0
  0
ARC
  5
B33A
330
B2B7
100
AcDbEntity
  8
1
  6
Continuous
100
AcDbCircle
 10
135.4066349999999
 20
234.7477749999999
 30
0.0
 40
84.30067599999999
100
AcDbArc
 50
163.7087659999999
 51
180.0
  0
LINE
  5
B33B
330
B2B7
100
AcDbEntity
  8
1
  6
Continuous
100
AcDbLine
 10
56.255959
 20
244.747775
 30
0.0
 11
56.255959
 21
203.7477749999999
 31
0.0
  0
LINE
  5
B33C
330
B2B7
100
AcDbEntity
  8
1
  6
Continuous
100
AcDbLine
 10
54.255959
 20
241.919348
 30
0.0
 11
54.255959
 21
206.576203
 31
0.0
  0
LINE
  5
B33D
330
B2B7
100
AcDbEntity
  8
1
  6
Continuous
100
AcDbLine
 10
52.10595900000001
 20
231.0117069999999
 30
0.0
 11
52.10595900000001
 21
217.483843
 31
0.0
  0
LINE
  5
B33E
330
B2B7
100
AcDbEntity
  8
1
  6
Continuous
100
AcDbLine
 10
46.50595899999999
 20
231.747775
 30
0.0
 11
46.50595899999999
 21
216.7477749999999
 31
0.0
  0
LINE
  5
B33F
330
B2B7
100
AcDbEntity
  8
1
  6
Continuous
100
AcDbLine
 10
48.805959
 20
234.7477749999999
 30
0.0
 11
48.805959
 21
213.7477749999999
 31
0.0
  0
LINE
  5
B340
330
B2B7
100
AcDbEntity
  8
1
  6
Continuous
100
AcDbLine
 10
51.10595899999999
 20
234.7477749999999
 30
0.0
 11
51.10595899999999
 21
213.7477749999999
 31
0.0
  0
LINE
  5
B341
330
B2B7
100
AcDbEntity
  8
1
  6
Continuous
100
AcDbLine
 10
52.205959
 20
208.2477749999999
 30
0.0
 11
54.255959
 21
208.2477749999999
 31
0.0
  0
ARC
  5
B342
330
B2B7
100
AcDbEntity
  8
1
  6
Continuous
100
AcDbCircle
 10
57.255959
 20
206.576203
 30
0.0
 40
3.0
100
AcDbArc
 50
180.0
 51
250.5287789999999
  0
LINE
  5
B343
330
B2B7
100
AcDbEntity
  8
1
  6
Continuous
100
AcDbLine
 10
48.805959
 20
213.7477749999999
 30
0.0
 11
51.10595899999999
 21
213.7477749999999
 31
0.0
  0
LINE
  5
B344
330
B2B7
100
AcDbEntity
  8
1
  6
Continuous
100
AcDbLine
 10
46.50595899999999
 20
216.7477749999999
 30
0.0
 11
48.805959
 21
216.7477749999999
 31
0.0
  0
ARC
  5
B345
330
B2B7
100
AcDbEntity
  8
1
  6
Continuous
100
AcDbCircle
 10
65.680959
 20
224.2477749999999
 30
0.0
 40
19.875
100
AcDbArc
 50
202.170157
 51
211.8907919999998
  0
LINE
  5
B346
330
B2B7
100
AcDbEntity
  8
1
  6
Continuous
100
AcDbLine
 10
52.10595900000001
 20
218.272775
 30
0.0
 11
52.205959
 21
218.272775
 31
0.0
  0
ARC
  5
B347
330
B2B7
100
AcDbEntity
  8
1
  6
Continuous
100
AcDbCircle
 10
49.105959
 20
217.483843
 30
0.0
 40
3.0
100
AcDbArc
 50
311.810315
 51
0.0
  0
ARC
  5
B348
330
B2B7
100
AcDbEntity
  8
1
  6
Continuous
100
AcDbCircle
 10
65.680959
 20
224.2477749999999
 30
0.0
 40
19.875
100
AcDbArc
 50
148.1092079999999
 51
157.8298429999998
  0
LINE
  5
B349
330
B2B7
100
AcDbEntity
  8
1
  6
Continuous
100
AcDbLine
 10
46.50595899999999
 20
231.747775
 30
0.0
 11
48.805959
 21
231.747775
 31
0.0
  0
LINE
  5
B34A
330
B2B7
100
AcDbEntity
  8
1
  6
Continuous
100
AcDbLine
 10
52.10595900000001
 20
230.222775
 30
0.0
 11
52.205959
 21
230.222775
 31
0.0
  0
ARC
  5
B34B
330
B2B7
100
AcDbEntity
  8
1
  6
Continuous
100
AcDbCircle
 10
49.105959
 20
231.0117069999999
 30
0.0
 40
3.0
100
AcDbArc
 50
0.0
 51
48.189685
  0
ARC
  5
B34C
330
B2B7
100
AcDbEntity
  8
1
  6
Continuous
100
AcDbCircle
 10
57.255959
 20
241.919348
 30
0.0
 40
3.0
100
AcDbArc
 50
109.4712209999999
 51
180.0
  0
LINE
  5
B34D
330
B2B7
100
AcDbEntity
  8
1
  6
Continuous
100
AcDbLine
 10
52.205959
 20
240.247775
 30
0.0
 11
54.255959
 21
240.247775
 31
0.0
  0
ARC
  5
B34E
330
B2B7
100
AcDbEntity
  8
1
  6
Continuous
100
AcDbCircle
 10
56.255959
 20
297.6977749999999
 30
0.0
 40
4.75
100
AcDbArc
 50
106.6855899999999
 51
180.0
  0
LINE
  5
B34F
330
B2B7
100
AcDbEntity
  8
1
  6
Continuous
100
AcDbLine
 10
51.50595899999999
 20
297.6977749999999
 30
0.0
 11
51.50595899999999
 21
277.4477749999999
 31
0.0
  0
LINE
  5
B350
330
B2B7
100
AcDbEntity
  8
1
  6
Continuous
100
AcDbLine
 10
52.855959
 20
302.247775
 30
0.0
 11
52.855959
 21
311.7477749999999
 31
0.0
  0
ARC
  5
B351
330
B2B7
100
AcDbEntity
  8
1
  6
Continuous
100
AcDbCircle
 10
142.5059589999999
 20
277.4477749999999
 30
0.0
 40
50.0
100
AcDbArc
 50
180.0
 51
191.2469529999999
  0
ARC
  5
B352
330
B2B7
100
AcDbEntity
  8
1
  6
Continuous
100
AcDbCircle
 10
185.5059589999999
 20
286.4477749999998
 30
0.0
 40
97.70000000000001
100
AcDbArc
 50
180.568984
 51
196.291234
  0
ARC
  5
B353
330
B2B7
100
AcDbEntity
  8
1
  6
Continuous
100
AcDbCircle
 10
185.5059589999999
 20
286.4477749999998
 30
0.0
 40
100.0
100
AcDbArc
 50
180.0
 51
196.291234
  0
LINE
  5
B354
330
B2B7
100
AcDbEntity
  8
1
  6
Continuous
100
AcDbLine
 10
91.805959
 20
240.247775
 30
0.0
 11
91.805959
 21
208.2477749999999
 31
0.0
  0
ARC
  5
B355
330
B2B7
100
AcDbEntity
  8
1
  6
Continuous
100
AcDbCircle
 10
-151.7327369999999
 20
218.936324
 30
0.0
 40
250.0
100
AcDbArc
 50
2.778982
 51
11.24695299999999
  0
ARC
  5
B356
330
B2B7
100
AcDbEntity
  8
1
  6
Continuous
100
AcDbCircle
 10
8.605283999999999
 20
234.7477749999999
 30
0.0
 40
86.60067600000003
100
AcDbArc
 50
0.0
 51
16.291234
  0
ARC
  5
B357
330
B2B7
100
AcDbEntity
  8
1
  6
Continuous
100
AcDbCircle
 10
8.605283999999999
 20
234.7477749999999
 30
0.0
 40
84.30067599999999
100
AcDbArc
 50
0.0
 51
16.291234
  0
LINE
  5
B358
330
B2B7
100
AcDbEntity
  8
1
  6
Continuous
100
AcDbLine
 10
87.75595899999997
 20
244.747775
 30
0.0
 11
87.75595899999997
 21
203.7477749999999
 31
0.0
  0
LINE
  5
B359
330
B2B7
100
AcDbEntity
  8
1
  6
Continuous
100
AcDbLine
 10
89.755959
 20
241.919348
 30
0.0
 11
89.755959
 21
206.576203
 31
0.0
  0
LINE
  5
B35A
330
B2B7
100
AcDbEntity
  8
1
  6
Continuous
100
AcDbLine
 10
91.90595899999999
 20
231.0117069999999
 30
0.0
 11
91.90595899999999
 21
217.483843
 31
0.0
  0
LINE
  5
B35B
330
B2B7
100
AcDbEntity
  8
1
  6
Continuous
100
AcDbLine
 10
97.505959
 20
231.747775
 30
0.0
 11
97.505959
 21
216.7477749999999
 31
0.0
  0
LINE
  5
B35C
330
B2B7
100
AcDbEntity
  8
1
  6
Continuous
100
AcDbLine
 10
95.205959
 20
234.7477749999999
 30
0.0
 11
95.205959
 21
213.7477749999999
 31
0.0
  0
LINE
  5
B35D
330
B2B7
100
AcDbEntity
  8
1
  6
Continuous
100
AcDbLine
 10
92.90595899999999
 20
234.7477749999999
 30
0.0
 11
92.90595899999999
 21
213.7477749999999
 31
0.0
  0
LINE
  5
B35E
330
B2B7
100
AcDbEntity
  8
1
  6
Continuous
100
AcDbLine
 10
89.755959
 20
208.2477749999999
 30
0.0
 11
91.805959
 21
208.2477749999999
 31
0.0
  0
ARC
  5
B35F
330
B2B7
100
AcDbEntity
  8
1
  6
Continuous
100
AcDbCircle
 10
86.75595899999995
 20
206.576203
 30
0.0
 40
3.0
100
AcDbArc
 50
289.471221
 51
0.0
  0
LINE
  5
B360
330
B2B7
100
AcDbEntity
  8
1
  6
Continuous
100
AcDbLine
 10
95.205959
 20
216.7477749999999
 30
0.0
 11
97.505959
 21
216.7477749999999
 31
0.0
  0
LINE
  5
B361
330
B2B7
100
AcDbEntity
  8
1
  6
Continuous
100
AcDbLine
 10
91.805959
 20
218.272775
 30
0.0
 11
91.90595899999999
 21
218.272775
 31
0.0
  0
ARC
  5
B362
330
B2B7
100
AcDbEntity
  8
1
  6
Continuous
100
AcDbCircle
 10
94.905959
 20
217.483843
 30
0.0
 40
3.0
100
AcDbArc
 50
180.0
 51
228.1896849999998
  0
ARC
  5
B363
330
B2B7
100
AcDbEntity
  8
1
  6
Continuous
100
AcDbCircle
 10
78.33095899999998
 20
224.2477749999999
 30
0.0
 40
19.875
100
AcDbArc
 50
328.109208
 51
337.829843
  0
LINE
  5
B364
330
B2B7
100
AcDbEntity
  8
1
  6
Continuous
100
AcDbLine
 10
92.90595899999999
 20
213.7477749999999
 30
0.0
 11
95.205959
 21
213.7477749999999
 31
0.0
  0
LINE
  5
B365
330
B2B7
100
AcDbEntity
  8
1
  6
Continuous
100
AcDbLine
 10
95.205959
 20
231.747775
 30
0.0
 11
97.505959
 21
231.747775
 31
0.0
  0
ARC
  5
B366
330
B2B7
100
AcDbEntity
  8
1
  6
Continuous
100
AcDbCircle
 10
78.33095899999998
 20
224.2477749999999
 30
0.0
 40
19.875
100
AcDbArc
 50
22.170157
 51
31.890792
  0
LINE
  5
B367
330
B2B7
100
AcDbEntity
  8
1
  6
Continuous
100
AcDbLine
 10
91.805959
 20
230.222775
 30
0.0
 11
91.90595899999999
 21
230.222775
 31
0.0
  0
ARC
  5
B368
330
B2B7
100
AcDbEntity
  8
1
  6
Continuous
100
AcDbCircle
 10
94.905959
 20
231.0117069999999
 30
0.0
 40
3.0
100
AcDbArc
 50
131.810315
 51
180.0
  0
LINE
  5
B369
330
B2B7
100
AcDbEntity
  8
1
  6
Continuous
100
AcDbLine
 10
89.755959
 20
240.247775
 30
0.0
 11
91.805959
 21
240.247775
 31
0.0
  0
ARC
  5
B36A
330
B2B7
100
AcDbEntity
  8
1
  6
Continuous
100
AcDbCircle
 10
86.75595899999995
 20
241.919348
 30
0.0
 40
3.0
100
AcDbArc
 50
0.0
 51
70.528779
  0
ARC
  5
B36B
330
B2B7
100
AcDbEntity
  8
1
  6
Continuous
100
AcDbCircle
 10
61.204737
 20
226.0052399999999
 30
0.0
 40
32.5
100
AcDbArc
 50
35.21830700000001
 51
47.87063300000001
  0
ARC
  5
B36C
330
B2B7
100
AcDbEntity
  8
1
  6
Continuous
100
AcDbCircle
 10
87.75595899999997
 20
297.6977749999999
 30
0.0
 40
4.75
100
AcDbArc
 50
0.0
 51
73.31440999999998
  0
LINE
  5
B36D
330
B2B7
100
AcDbEntity
  8
1
  6
Continuous
100
AcDbLine
 10
76.124211
 20
288.4477749999998
 30
0.0
 11
84.81092499999999
 21
288.4477749999998
 31
0.0
  0
LINE
  5
B36E
330
B2B7
100
AcDbEntity
  8
1
  6
Continuous
100
AcDbLine
 10
59.20099399999998
 20
288.4477749999998
 30
0.0
 11
67.88770699999999
 21
288.4477749999998
 31
0.0
  0
ARC
  5
B36F
330
B2B7
100
AcDbEntity
  8
1
  6
Continuous
100
AcDbCircle
 10
60.505959
 20
286.4477749999998
 30
0.0
 40
2.0
100
AcDbArc
 50
90.0
 51
180.0
  0
LINE
  5
B370
330
B2B7
100
AcDbEntity
  8
1
  6
Continuous
100
AcDbLine
 10
92.50595899999996
 20
297.6977749999999
 30
0.0
 11
92.50595899999996
 21
277.4477749999999
 31
0.0
  0
ARC
  5
B371
330
B2B7
100
AcDbEntity
  8
1
  6
Continuous
100
AcDbCircle
 10
84.81092499999999
 20
285.447775
 30
0.0
 40
3.0
100
AcDbArc
 50
0.5689840000000001
 51
90.0
  0
ARC
  5
B372
330
B2B7
100
AcDbEntity
  8
1
  6
Continuous
100
AcDbCircle
 10
83.505959
 20
286.4477749999998
 30
0.0
 40
2.0
100
AcDbArc
 50
0.0
 51
90.0
  0
LINE
  5
B373
330
B2B7
100
AcDbEntity
  8
1
  6
Continuous
100
AcDbLine
 10
59.355959
 20
318.2477749999998
 30
0.0
 11
84.65595899999998
 21
318.2477749999998
 31
0.0
  0
ARC
  5
B374
330
B2B7
100
AcDbEntity
  8
1
  6
Continuous
100
AcDbCircle
 10
84.65595899999998
 20
311.7477749999999
 30
0.0
 40
6.5
100
AcDbArc
 50
0.0
 51
90.0
  0
LINE
  5
B375
330
B2B7
100
AcDbEntity
  8
1
  6
Continuous
100
AcDbLine
 10
91.155959
 20
302.247775
 30
0.0
 11
91.155959
 21
311.7477749999999
 31
0.0
  0
LINE
  5
B376
330
B2B7
100
AcDbEntity
  8
4
  6
CENTER
100
AcDbLine
 10
480.465109
 20
403.7947649999998
 30
0.0
 11
480.465109
 21
151.0885159999999
 31
0.0
  0
LINE
  5
B377
330
B2B7
100
AcDbEntity
  8
4
  6
CENTER
100
AcDbLine
 10
516.987528
 20
224.2477749999999
 30
0.0
 11
444.3927669999998
 21
224.2477749999999
 31
0.0
  0
ARC
  5
B378
330
B2B7
100
AcDbEntity
  8
1
  6
Continuous
100
AcDbCircle
 10
550.965109
 20
277.4477749999999
 30
0.0
 40
50.0
100
AcDbArc
 50
180.0
 51
191.2469529999999
  0
ARC
  5
B379
330
B2B7
100
AcDbEntity
  8
1
  6
Continuous
100
AcDbCircle
 10
409.965109
 20
277.4477749999999
 30
0.0
 40
50.0
100
AcDbArc
 50
348.7530469999999
 51
0.0
  0
LINE
  5
B37A
330
B2B7
100
AcDbEntity
  8
1
  6
Continuous
100
AcDbLine
 10
503.6651089999998
 20
234.7477749999999
 30
0.0
 11
503.6651089999998
 21
213.7477749999999
 31
0.0
  0
LINE
  5
B37B
330
B2B7
100
AcDbEntity
  8
1
  6
Continuous
100
AcDbLine
 10
501.3651089999998
 20
234.7477749999999
 30
0.0
 11
501.3651089999998
 21
213.7477749999999
 31
0.0
  0
LINE
  5
B37C
330
B2B7
100
AcDbEntity
  8
1
  6
Continuous
100
AcDbLine
 10
500.3651089999998
 20
231.0117069999999
 30
0.0
 11
500.3651089999998
 21
217.483843
 31
0.0
  0
LINE
  5
B37D
330
B2B7
100
AcDbEntity
  8
1
  6
Continuous
100
AcDbLine
 10
498.215109
 20
241.919348
 30
0.0
 11
498.215109
 21
206.576203
 31
0.0
  0
LINE
  5
B37E
330
B2B7
100
AcDbEntity
  8
1
  6
Continuous
100
AcDbLine
 10
500.2651089999998
 20
240.247775
 30
0.0
 11
500.2651089999998
 21
208.2477749999999
 31
0.0
  0
ARC
  5
B37F
330
B2B7
100
AcDbEntity
  8
1
  6
Continuous
100
AcDbCircle
 10
452.8847289999998
 20
229.4439279999998
 30
0.0
 40
2.080379
100
AcDbArc
 50
303.6368749999998
 51
314.235875
  0
ARC
  5
B380
330
B2B7
100
AcDbEntity
  8
1
  6
Continuous
100
AcDbCircle
 10
452.0454879999999
 20
229.4439279999998
 30
0.0
 40
2.080379
100
AcDbArc
 50
123.636875
 51
236.363125
  0
LINE
  5
B381
330
B2B7
100
AcDbEntity
  8
1
  6
Continuous
100
AcDbLine
 10
449.9651089999998
 20
229.4439279999998
 30
0.0
 11
449.9651089999998
 21
219.051623
 31
0.0
  0
LINE
  5
B382
330
B2B7
100
AcDbEntity
  8
1
  6
Continuous
100
AcDbLine
 10
459.565109
 20
234.7477749999999
 30
0.0
 11
459.565109
 21
213.7477749999999
 31
0.0
  0
LINE
  5
B383
330
B2B7
100
AcDbEntity
  8
1
  6
Continuous
100
AcDbLine
 10
457.2651089999998
 20
234.7477749999999
 30
0.0
 11
457.2651089999998
 21
213.7477749999999
 31
0.0
  0
LINE
  5
B384
330
B2B7
100
AcDbEntity
  8
1
  6
Continuous
100
AcDbLine
 10
454.965109
 20
221.6806309999999
 30
0.0
 11
454.965109
 21
216.7477749999999
 31
0.0
  0
LINE
  5
B385
330
B2B7
100
AcDbEntity
  8
1
  6
Continuous
100
AcDbLine
 10
460.565109
 20
231.0117069999999
 30
0.0
 11
460.565109
 21
217.483843
 31
0.0
  0
LINE
  5
B386
330
B2B7
100
AcDbEntity
  8
1
  6
Continuous
100
AcDbLine
 10
462.7151089999999
 20
241.919348
 30
0.0
 11
462.7151089999999
 21
206.576203
 31
0.0
  0
LINE
  5
B387
330
B2B7
100
AcDbEntity
  8
1
  6
Continuous
100
AcDbLine
 10
460.6651089999998
 20
240.247775
 30
0.0
 11
460.6651089999998
 21
208.2477749999999
 31
0.0
  0
LINE
  5
B388
330
B2B7
100
AcDbEntity
  8
1
  6
Continuous
100
AcDbLine
 10
496.2151089999998
 20
244.747775
 30
0.0
 11
496.2151089999998
 21
203.7477749999999
 31
0.0
  0
LINE
  5
B389
330
B2B7
100
AcDbEntity
  8
1
  6
Continuous
100
AcDbLine
 10
464.715109
 20
244.747775
 30
0.0
 11
464.715109
 21
203.7477749999999
 31
0.0
  0
ARC
  5
B38A
330
B2B7
100
AcDbEntity
  8
1
  6
Continuous
100
AcDbCircle
 10
465.715109
 20
206.576203
 30
0.0
 40
3.0
100
AcDbArc
 50
180.0
 51
250.5287789999999
  0
ARC
  5
B38B
330
B2B7
100
AcDbEntity
  8
1
  6
Continuous
100
AcDbCircle
 10
491.266331
 20
222.49031
 30
0.0
 40
32.5
100
AcDbArc
 50
215.2183069999999
 51
227.8706329999999
  0
LINE
  5
B38C
330
B2B7
100
AcDbEntity
  8
1
  6
Continuous
100
AcDbLine
 10
454.0371089999998
 20
227.7118769999999
 30
0.0
 11
450.8931089999999
 21
227.7118769999999
 31
0.0
  0
ARC
  5
B38D
330
B2B7
100
AcDbEntity
  8
1
  6
Continuous
100
AcDbCircle
 10
452.8847289999998
 20
219.051623
 30
0.0
 40
2.080379
100
AcDbArc
 50
303.6368749999998
 51
56.36312499999998
  0
LINE
  5
B38E
330
B2B7
100
AcDbEntity
  8
1
  6
Continuous
100
AcDbLine
 10
459.565109
 20
213.7477749999999
 30
0.0
 11
457.2651089999998
 21
213.7477749999999
 31
0.0
  0
ARC
  5
B38F
330
B2B7
100
AcDbEntity
  8
1
  6
Continuous
100
AcDbCircle
 10
457.565109
 20
217.483843
 30
0.0
 40
3.0
100
AcDbArc
 50
311.810315
 51
0.0
  0
LINE
  5
B390
330
B2B7
100
AcDbEntity
  8
1
  6
Continuous
100
AcDbLine
 10
460.6651089999998
 20
218.272775
 30
0.0
 11
460.565109
 21
218.272775
 31
0.0
  0
LINE
  5
B391
330
B2B7
100
AcDbEntity
  8
1
  6
Continuous
100
AcDbLine
 10
456.1845149999999
 20
216.7477749999999
 30
0.0
 11
454.965109
 21
216.7477749999999
 31
0.0
  0
LINE
  5
B392
330
B2B7
100
AcDbEntity
  8
1
  6
Continuous
100
AcDbLine
 10
462.7151089999999
 20
208.2477749999999
 30
0.0
 11
460.6651089999998
 21
208.2477749999999
 31
0.0
  0
LINE
  5
B393
330
B2B7
100
AcDbEntity
  8
1
  6
Continuous
100
AcDbLine
 10
454.0371089999998
 20
220.7836739999999
 30
0.0
 11
450.8931089999999
 21
220.7836739999999
 31
0.0
  0
LINE
  5
B394
330
B2B7
100
AcDbEntity
  8
1
  6
Continuous
100
AcDbLine
 10
454.0371089999998
 20
217.3195719999999
 30
0.0
 11
450.8931089999999
 21
217.3195719999999
 31
0.0
  0
ARC
  5
B395
330
B2B7
100
AcDbEntity
  8
1
  6
Continuous
100
AcDbCircle
 10
452.0454879999999
 20
219.051623
 30
0.0
 40
2.080379
100
AcDbArc
 50
123.636875
 51
236.363125
  0
ARC
  5
B396
330
B2B7
100
AcDbEntity
  8
1
  6
Continuous
100
AcDbCircle
 10
448.035592
 20
224.2477749999999
 30
0.0
 40
6.929516999999997
100
AcDbArc
 50
330.006273
 51
347.191006
  0
ARC
  5
B397
330
B2B7
100
AcDbEntity
  8
1
  6
Continuous
100
AcDbCircle
 10
456.8946259999998
 20
224.2477749999999
 30
0.0
 40
6.929516999999997
100
AcDbArc
 50
150.0062729999999
 51
209.993727
  0
ARC
  5
B398
330
B2B7
100
AcDbEntity
  8
1
  6
Continuous
100
AcDbCircle
 10
469.663887
 20
222.49031
 30
0.0
 40
32.5
100
AcDbArc
 50
312.367527
 51
324.781693
  0
ARC
  5
B399
330
B2B7
100
AcDbEntity
  8
1
  6
Continuous
100
AcDbCircle
 10
495.215109
 20
206.576203
 30
0.0
 40
3.0
100
AcDbArc
 50
289.471221
 51
0.0
  0
LINE
  5
B39A
330
B2B7
100
AcDbEntity
  8
1
  6
Continuous
100
AcDbLine
 10
503.6651089999998
 20
213.7477749999999
 30
0.0
 11
501.3651089999998
 21
213.7477749999999
 31
0.0
  0
ARC
  5
B39B
330
B2B7
100
AcDbEntity
  8
1
  6
Continuous
100
AcDbCircle
 10
503.3651089999998
 20
217.483843
 30
0.0
 40
3.0
100
AcDbArc
 50
180.0
 51
228.1896849999998
  0
LINE
  5
B39C
330
B2B7
100
AcDbEntity
  8
1
  6
Continuous
100
AcDbLine
 10
500.3651089999998
 20
218.272775
 30
0.0
 11
500.2651089999998
 21
218.272775
 31
0.0
  0
LINE
  5
B39D
330
B2B7
100
AcDbEntity
  8
1
  6
Continuous
100
AcDbLine
 10
500.2651089999998
 20
208.2477749999999
 30
0.0
 11
498.215109
 21
208.2477749999999
 31
0.0
  0
ARC
  5
B39E
330
B2B7
100
AcDbEntity
  8
1
  6
Continuous
100
AcDbCircle
 10
543.8657839999998
 20
234.7477749999999
 30
0.0
 40
84.30067599999999
100
AcDbArc
 50
165.242145
 51
180.0
  0
ARC
  5
B39F
330
B2B7
100
AcDbEntity
  8
1
  6
Continuous
100
AcDbCircle
 10
543.8657839999998
 20
234.7477749999999
 30
0.0
 40
86.60067600000003
100
AcDbArc
 50
163.970181
 51
180.0
  0
ARC
  5
B3A0
330
B2B7
100
AcDbEntity
  8
1
  6
Continuous
100
AcDbCircle
 10
704.203805
 20
218.936324
 30
0.0
 40
250.0
100
AcDbArc
 50
168.753047
 51
177.2859479999999
  0
ARC
  5
B3A1
330
B2B7
100
AcDbEntity
  8
1
  6
Continuous
100
AcDbCircle
 10
465.715109
 20
241.919348
 30
0.0
 40
3.0
100
AcDbArc
 50
109.4712209999999
 51
180.0
  0
LINE
  5
B3A2
330
B2B7
100
AcDbEntity
  8
1
  6
Continuous
100
AcDbLine
 10
462.7151089999999
 20
240.247775
 30
0.0
 11
460.6651089999998
 21
240.247775
 31
0.0
  0
ARC
  5
B3A3
330
B2B7
100
AcDbEntity
  8
1
  6
Continuous
100
AcDbCircle
 10
457.565109
 20
231.0117069999999
 30
0.0
 40
3.0
100
AcDbArc
 50
0.0
 51
48.189685
  0
LINE
  5
B3A4
330
B2B7
100
AcDbEntity
  8
1
  6
Continuous
100
AcDbLine
 10
460.6651089999998
 20
230.222775
 30
0.0
 11
460.565109
 21
230.222775
 31
0.0
  0
LINE
  5
B3A5
330
B2B7
100
AcDbEntity
  8
1
  6
Continuous
100
AcDbLine
 10
454.0371089999998
 20
231.1759789999999
 30
0.0
 11
450.8931089999999
 21
231.1759789999999
 31
0.0
  0
ARC
  5
B3A6
330
B2B7
100
AcDbEntity
  8
1
  6
Continuous
100
AcDbCircle
 10
491.266331
 20
226.0052399999999
 30
0.0
 40
32.5
100
AcDbArc
 50
132.1293669999998
 51
144.7816929999999
  0
ARC
  5
B3A7
330
B2B7
100
AcDbEntity
  8
1
  6
Continuous
100
AcDbCircle
 10
417.064433
 20
234.7477749999999
 30
0.0
 40
84.30067599999999
100
AcDbArc
 50
0.0
 51
16.291234
  0
ARC
  5
B3A8
330
B2B7
100
AcDbEntity
  8
1
  6
Continuous
100
AcDbCircle
 10
417.064433
 20
234.7477749999999
 30
0.0
 40
86.60067600000003
100
AcDbArc
 50
0.0
 51
16.02982699999999
  0
ARC
  5
B3A9
330
B2B7
100
AcDbEntity
  8
1
  6
Continuous
100
AcDbCircle
 10
256.7264129999999
 20
218.936324
 30
0.0
 40
250.0
100
AcDbArc
 50
3.425658999999998
 51
11.24695299999999
  0
ARC
  5
B3AA
330
B2B7
100
AcDbEntity
  8
1
  6
Continuous
100
AcDbCircle
 10
469.663887
 20
226.0052399999999
 30
0.0
 40
32.5
100
AcDbArc
 50
35.21830700000001
 51
47.87063300000001
  0
LINE
  5
B3AB
330
B2B7
100
AcDbEntity
  8
1
  6
Continuous
100
AcDbLine
 10
500.2651089999998
 20
240.247775
 30
0.0
 11
498.215109
 21
240.247775
 31
0.0
  0
ARC
  5
B3AC
330
B2B7
100
AcDbEntity
  8
1
  6
Continuous
100
AcDbCircle
 10
495.215109
 20
241.919348
 30
0.0
 40
3.0
100
AcDbArc
 50
0.0
 51
70.528779
  0
ARC
  5
B3AD
330
B2B7
100
AcDbEntity
  8
1
  6
Continuous
100
AcDbCircle
 10
503.3651089999998
 20
231.0117069999999
 30
0.0
 40
3.0
100
AcDbArc
 50
131.810315
 51
180.0
  0
LINE
  5
B3AE
330
B2B7
100
AcDbEntity
  8
1
  6
Continuous
100
AcDbLine
 10
500.3651089999998
 20
230.222775
 30
0.0
 11
500.2651089999998
 21
230.222775
 31
0.0
  0
ARC
  5
B3AF
330
B2B7
100
AcDbEntity
  8
1
  6
Continuous
100
AcDbCircle
 10
493.1151089999998
 20
311.7477749999999
 30
0.0
 40
6.5
100
AcDbArc
 50
0.0
 51
90.0
  0
ARC
  5
B3B0
330
B2B7
100
AcDbEntity
  8
1
  6
Continuous
100
AcDbCircle
 10
467.815109
 20
311.7477749999999
 30
0.0
 40
6.5
100
AcDbArc
 50
90.0
 51
180.0
  0
LINE
  5
B3B1
330
B2B7
100
AcDbEntity
  8
1
  6
Continuous
100
AcDbLine
 10
499.6151089999998
 20
302.247775
 30
0.0
 11
461.315109
 21
302.247775
 31
0.0
  0
LINE
  5
B3B2
330
B2B7
100
AcDbEntity
  8
1
  6
Continuous
100
AcDbLine
 10
459.965109
 20
297.6977749999999
 30
0.0
 11
459.965109
 21
277.4477749999999
 31
0.0
  0
ARC
  5
B3B3
330
B2B7
100
AcDbEntity
  8
1
  6
Continuous
100
AcDbCircle
 10
464.715109
 20
297.6977749999999
 30
0.0
 40
4.75
100
AcDbArc
 50
106.6855899999999
 51
180.0
  0
LINE
  5
B3B4
330
B2B7
100
AcDbEntity
  8
1
  6
Continuous
100
AcDbLine
 10
461.315109
 20
302.247775
 30
0.0
 11
461.315109
 21
311.7477749999999
 31
0.0
  0
LINE
  5
B3B5
330
B2B7
100
AcDbEntity
  8
1
  6
Continuous
100
AcDbLine
 10
500.965109
 20
297.6977749999999
 30
0.0
 11
500.965109
 21
277.4477749999999
 31
0.0
  0
LINE
  5
B3B6
330
B2B7
100
AcDbEntity
  8
1
  6
Continuous
100
AcDbLine
 10
499.6151089999998
 20
302.247775
 30
0.0
 11
499.6151089999998
 21
311.7477749999999
 31
0.0
  0
ARC
  5
B3B7
330
B2B7
100
AcDbEntity
  8
1
  6
Continuous
100
AcDbCircle
 10
496.2151089999998
 20
297.6977749999999
 30
0.0
 40
4.75
100
AcDbArc
 50
0.0
 51
73.31440999999998
  0
LINE
  5
B3B8
330
B2B7
100
AcDbEntity
  8
1
  6
Continuous
100
AcDbLine
 10
493.1151089999998
 20
318.2477749999998
 30
0.0
 11
467.815109
 21
318.2477749999998
 31
0.0
  0
LINE
  5
B3B9
330
B2B7
100
AcDbEntity
  8
4
  6
CENTER
100
AcDbLine
 10
339.7003899999999
 20
76.03216299999998
 30
0.0
 11
196.260159
 21
76.03216299999998
 31
0.0
  0
LINE
  5
B3BA
330
B2B7
100
AcDbEntity
  8
1
  6
Continuous
100
AcDbLine
 10
275.1143379999999
 20
101.532163
 30
0.0
 11
260.1143379999999
 21
101.532163
 31
0.0
  0
ARC
  5
B3BB
330
B2B7
100
AcDbEntity
  8
1
  6
Continuous
100
AcDbCircle
 10
261.7428129999999
 20
167.4252209999998
 30
0.0
 40
68.19305799999999
100
AcDbArc
 50
270.0
 51
282.0627859999999
  0
LINE
  5
B3BC
330
B2B7
100
AcDbEntity
  8
1
  6
Continuous
100
AcDbLine
 10
275.1143379999999
 20
50.53216299999998
 30
0.0
 11
260.1143379999999
 21
50.53216299999998
 31
0.0
  0
ARC
  5
B3BD
330
B2B7
100
AcDbEntity
  8
1
  6
Continuous
100
AcDbCircle
 10
261.7428129999999
 20
-15.36089599999999
 30
0.0
 40
68.19305799999999
100
AcDbArc
 50
77.93721399999999
 51
90.0
  0
LINE
  5
B3BE
330
B2B7
100
AcDbEntity
  8
1
  6
Continuous
100
AcDbLine
 10
285.285911
 20
93.782163
 30
0.0
 11
249.9427649999999
 21
93.782163
 31
0.0
  0
LINE
  5
B3BF
330
B2B7
100
AcDbEntity
  8
1
  6
Continuous
100
AcDbLine
 10
283.6143379999999
 20
95.832163
 30
0.0
 11
251.6143379999999
 21
95.832163
 31
0.0
  0
LINE
  5
B3C0
330
B2B7
100
AcDbEntity
  8
1
  6
Continuous
100
AcDbLine
 10
285.285911
 20
58.282163
 30
0.0
 11
249.9427649999999
 21
58.282163
 31
0.0
  0
LINE
  5
B3C1
330
B2B7
100
AcDbEntity
  8
1
  6
Continuous
100
AcDbLine
 10
283.6143379999999
 20
56.232163
 30
0.0
 11
251.6143379999999
 21
56.232163
 31
0.0
  0
LINE
  5
B3C2
330
B2B7
100
AcDbEntity
  8
1
  6
Continuous
100
AcDbLine
 10
288.1143379999999
 20
60.282163
 30
0.0
 11
247.114338
 21
60.282163
 31
0.0
  0
LINE
  5
B3C3
330
B2B7
100
AcDbEntity
  8
1
  6
Continuous
100
AcDbLine
 10
288.1143379999999
 20
91.782163
 30
0.0
 11
247.114338
 21
91.782163
 31
0.0
  0
LINE
  5
B3C4
330
B2B7
100
AcDbEntity
  8
1
  6
Continuous
100
AcDbLine
 10
274.3782700000001
 20
56.132163
 30
0.0
 11
260.850406
 21
56.132163
 31
0.0
  0
LINE
  5
B3C5
330
B2B7
100
AcDbEntity
  8
1
  6
Continuous
100
AcDbLine
 10
274.3782700000001
 20
95.93216299999999
 30
0.0
 11
260.850406
 21
95.93216299999999
 31
0.0
  0
LINE
  5
B3C6
330
B2B7
100
AcDbEntity
  8
4
  6
CENTER
100
AcDbLine
 10
267.6143379999999
 20
40.126603
 30
0.0
 11
267.6143379999999
 21
112.7030949999999
 31
0.0
  0
ARC
  5
B3C7
330
B2B7
100
AcDbEntity
  8
1
  6
Continuous
100
AcDbCircle
 10
260.850406
 20
53.132163
 30
0.0
 40
3.0
100
AcDbArc
 50
90.0
 51
138.1896849999999
  0
LINE
  5
B3C8
330
B2B7
100
AcDbEntity
  8
1
  6
Continuous
100
AcDbLine
 10
260.1143379999999
 20
50.53216299999998
 30
0.0
 11
260.1143379999999
 21
52.832163
 31
0.0
  0
LINE
  5
B3C9
330
B2B7
100
AcDbEntity
  8
1
  6
Continuous
100
AcDbLine
 10
257.1143379999999
 20
52.832163
 30
0.0
 11
257.1143379999999
 21
55.13216299999999
 31
0.0
  0
ARC
  5
B3CA
330
B2B7
100
AcDbEntity
  8
1
  6
Continuous
100
AcDbCircle
 10
265.856873
 20
86.83338499999996
 30
0.0
 40
32.5
100
AcDbArc
 50
222.129367
 51
234.781693
  0
LINE
  5
B3CB
330
B2B7
100
AcDbEntity
  8
1
  6
Continuous
100
AcDbLine
 10
251.6143379999999
 20
56.232163
 30
0.0
 11
251.6143379999999
 21
58.282163
 31
0.0
  0
ARC
  5
B3CC
330
B2B7
100
AcDbEntity
  8
1
  6
Continuous
100
AcDbCircle
 10
249.9427649999999
 20
61.282163
 30
0.0
 40
3.0
100
AcDbArc
 50
199.4712209999999
 51
270.0
  0
LINE
  5
B3CD
330
B2B7
100
AcDbEntity
  8
1
  6
Continuous
100
AcDbLine
 10
261.639338
 20
56.132163
 30
0.0
 11
261.639338
 21
56.232163
 31
0.0
  0
LINE
  5
B3CE
330
B2B7
100
AcDbEntity
  8
1
  6
Continuous
100
AcDbLine
 10
260.1143379999999
 20
99.23216299999999
 30
0.0
 11
260.1143379999999
 21
101.532163
 31
0.0
  0
ARC
  5
B3CF
330
B2B7
100
AcDbEntity
  8
1
  6
Continuous
100
AcDbCircle
 10
265.856873
 20
65.230941
 30
0.0
 40
32.5
100
AcDbArc
 50
125.218307
 51
137.632473
  0
LINE
  5
B3D0
330
B2B7
100
AcDbEntity
  8
1
  6
Continuous
100
AcDbLine
 10
251.6143379999999
 20
93.782163
 30
0.0
 11
251.6143379999999
 21
95.832163
 31
0.0
  0
ARC
  5
B3D1
330
B2B7
100
AcDbEntity
  8
1
  6
Continuous
100
AcDbCircle
 10
249.9427649999999
 20
90.78216299999999
 30
0.0
 40
3.0
100
AcDbArc
 50
90.0
 51
160.528779
  0
ARC
  5
B3D2
330
B2B7
100
AcDbEntity
  8
1
  6
Continuous
100
AcDbCircle
 10
260.850406
 20
98.932163
 30
0.0
 40
3.0
100
AcDbArc
 50
221.810315
 51
270.0
  0
LINE
  5
B3D3
330
B2B7
100
AcDbEntity
  8
1
  6
Continuous
100
AcDbLine
 10
261.639338
 20
95.832163
 30
0.0
 11
261.639338
 21
95.93216299999999
 31
0.0
  0
LINE
  5
B3D4
330
B2B7
100
AcDbEntity
  8
1
  6
Continuous
100
AcDbLine
 10
257.1143379999999
 20
96.93216300000001
 30
0.0
 11
257.1143379999999
 21
99.23216299999999
 31
0.0
  0
ARC
  5
B3D5
330
B2B7
100
AcDbEntity
  8
1
  6
Continuous
100
AcDbCircle
 10
312.6143379999998
 20
76.03216299999998
 30
0.0
 40
20.5
100
AcDbArc
 50
137.1458419999999
 51
147.548509
  0
LINE
  5
B3D6
330
B2B7
100
AcDbEntity
  8
4
  6
CENTER
100
AcDbLine
 10
312.6143379999998
 20
46.96003799999998
 30
0.0
 11
312.6143379999998
 21
103.692826
 31
0.0
  0
ARC
  5
B3D7
330
B2B7
100
AcDbEntity
  8
1
  6
Continuous
100
AcDbCircle
 10
274.3782700000001
 20
53.132163
 30
0.0
 40
3.0
100
AcDbArc
 50
41.810315
 51
90.0
  0
ARC
  5
B3D8
330
B2B7
100
AcDbEntity
  8
1
  6
Continuous
100
AcDbCircle
 10
278.1143379999999
 20
85.85919
 30
0.0
 40
30.72702700000001
100
AcDbArc
 50
270.0
 51
313.614773
  0
LINE
  5
B3D9
330
B2B7
100
AcDbEntity
  8
1
  6
Continuous
100
AcDbLine
 10
275.1143379999999
 20
50.53216299999998
 30
0.0
 11
275.1143379999999
 21
51.508346
 31
0.0
  0
LINE
  5
B3DA
330
B2B7
100
AcDbEntity
  8
1
  6
Continuous
100
AcDbLine
 10
283.6143379999999
 20
56.232163
 30
0.0
 11
283.6143379999999
 21
58.282163
 31
0.0
  0
LINE
  5
B3DB
330
B2B7
100
AcDbEntity
  8
1
  6
Continuous
100
AcDbLine
 10
273.5893379999998
 20
56.132163
 30
0.0
 11
273.5893379999998
 21
56.232163
 31
0.0
  0
ARC
  5
B3DC
330
B2B7
100
AcDbEntity
  8
1
  6
Continuous
100
AcDbCircle
 10
269.3718029999998
 20
86.83338499999996
 30
0.0
 40
32.5
100
AcDbArc
 50
305.2183069999998
 51
317.870633
  0
ARC
  5
B3DD
330
B2B7
100
AcDbEntity
  8
1
  6
Continuous
100
AcDbCircle
 10
285.285911
 20
61.282163
 30
0.0
 40
3.0
100
AcDbArc
 50
270.0
 51
340.528779
  0
ARC
  5
B3DE
330
B2B7
100
AcDbEntity
  8
1
  6
Continuous
100
AcDbCircle
 10
278.1143379999999
 20
66.20513599999999
 30
0.0
 40
30.72702700000001
100
AcDbArc
 50
46.38522700000001
 51
90.0
  0
ARC
  5
B3DF
330
B2B7
100
AcDbEntity
  8
1
  6
Continuous
100
AcDbCircle
 10
274.3782700000001
 20
98.932163
 30
0.0
 40
3.0
100
AcDbArc
 50
270.0
 51
318.189685
  0
LINE
  5
B3E0
330
B2B7
100
AcDbEntity
  8
1
  6
Continuous
100
AcDbLine
 10
283.6143379999999
 20
93.782163
 30
0.0
 11
283.6143379999999
 21
95.832163
 31
0.0
  0
LINE
  5
B3E1
330
B2B7
100
AcDbEntity
  8
1
  6
Continuous
100
AcDbLine
 10
273.5893379999998
 20
95.832163
 30
0.0
 11
273.5893379999998
 21
95.93216299999999
 31
0.0
  0
ARC
  5
B3E2
330
B2B7
100
AcDbEntity
  8
1
  6
Continuous
100
AcDbCircle
 10
269.3718029999998
 20
65.230941
 30
0.0
 40
32.5
100
AcDbArc
 50
42.12936699999999
 51
54.78169300000001
  0
ARC
  5
B3E3
330
B2B7
100
AcDbEntity
  8
1
  6
Continuous
100
AcDbCircle
 10
285.285911
 20
90.78216299999999
 30
0.0
 40
3.0
100
AcDbArc
 50
19.47122099999998
 51
90.0
  0
LINE
  5
B3E4
330
B2B7
100
AcDbEntity
  8
1
  6
Continuous
100
AcDbLine
 10
275.1143379999999
 20
100.5559789999999
 30
0.0
 11
275.1143379999999
 21
101.532163
 31
0.0
  0
LINE
  5
B3E5
330
B2B7
100
AcDbEntity
  8
1
  6
Continuous
100
AcDbLine
 10
295.315494
 20
493.048598
 30
0.0
 11
213.8143379999999
 21
493.048598
 31
0.0
  0
LINE
  5
B3E6
330
B2B7
100
AcDbEntity
  8
1
  6
Continuous
100
AcDbLine
 10
295.315494
 20
471.048598
 30
0.0
 11
213.8143379999999
 21
471.048598
 31
0.0
  0
ARC
  5
B3E7
330
B2B7
100
AcDbEntity
  8
1
  6
Continuous
100
AcDbCircle
 10
213.8143379999999
 20
482.0485979999999
 30
0.0
 40
11.0
100
AcDbArc
 50
90.0
 51
270.0
  0
CIRCLE
  5
B3E8
330
B2B7
100
AcDbEntity
  8
2
  6
Continuous
100
AcDbCircle
 10
312.6143379999998
 20
482.0485979999999
 30
0.0
 40
5.3235
  0
CIRCLE
  5
B3E9
330
B2B7
100
AcDbEntity
  8
1
  6
Continuous
100
AcDbCircle
 10
312.6143379999998
 20
482.0485979999999
 30
0.0
 40
4.5
  0
LINE
  5
B3EA
330
B2B7
100
AcDbEntity
  8
1
  6
Continuous
100
AcDbLine
 10
469.4651089999998
 20
278.2477749999998
 30
0.0
 11
469.4651089999998
 21
170.2477749999999
 31
0.0
  0
LINE
  5
B3EB
330
B2B7
100
AcDbEntity
  8
1
  6
Continuous
100
AcDbLine
 10
491.4651089999998
 20
278.2477749999998
 30
0.0
 11
491.4651089999998
 21
170.2477749999999
 31
0.0
  0
ARC
  5
B3EC
330
B2B7
100
AcDbEntity
  8
1
  6
Continuous
100
AcDbCircle
 10
480.465109
 20
278.2477749999998
 30
0.0
 40
11.0
100
AcDbArc
 50
0.0
 51
67.608676
  0
ARC
  5
B3ED
330
B2B7
100
AcDbEntity
  8
1
  6
Continuous
100
AcDbCircle
 10
480.465109
 20
170.2477749999999
 30
0.0
 40
11.0
100
AcDbArc
 50
180.0
 51
0.0
  0
ARC
  5
B3EE
330
B2B7
100
AcDbEntity
  8
1
  6
Continuous
100
AcDbCircle
 10
72.00595899999997
 20
278.2477749999998
 30
0.0
 40
11.0
100
AcDbArc
 50
0.0
 51
180.0
  0
LINE
  5
B3EF
330
B2B7
100
AcDbEntity
  8
1
  6
Continuous
100
AcDbLine
 10
61.005959
 20
278.2477749999998
 30
0.0
 11
61.005959
 21
170.2477749999999
 31
0.0
  0
LINE
  5
B3F0
330
B2B7
100
AcDbEntity
  8
1
  6
Continuous
100
AcDbLine
 10
83.00595899999997
 20
278.2477749999998
 30
0.0
 11
83.00595899999997
 21
170.2477749999999
 31
0.0
  0
ARC
  5
B3F1
330
B2B7
100
AcDbEntity
  8
1
  6
Continuous
100
AcDbCircle
 10
72.00595899999997
 20
170.2477749999999
 30
0.0
 40
11.0
100
AcDbArc
 50
180.0
 51
0.0
  0
ARC
  5
B3F2
330
B2B7
100
AcDbEntity
  8
1
  6
Continuous
100
AcDbCircle
 10
480.465109
 20
278.2477749999998
 30
0.0
 40
11.0
100
AcDbArc
 50
112.391324
 51
180.0
  0
ARC
  5
B3F3
330
B2B7
100
AcDbEntity
  8
1
  6
Continuous
100
AcDbCircle
 10
470.243487
 20
255.900102
 30
0.0
 40
10.0
100
AcDbArc
 50
158.460325
 51
163.970181
  0
ARC
  5
B3F4
330
B2B7
100
AcDbEntity
  8
1
  6
Continuous
100
AcDbCircle
 10
490.686728
 20
255.900112
 30
0.0
 40
10.0
100
AcDbArc
 50
16.02982699999999
 51
21.539671
  0
LINE
  5
B3F5
330
B2B7
100
AcDbEntity
  8
1
  6
Continuous
100
AcDbLine
 10
477.078016
 20
288.4477749999998
 30
0.0
 11
483.852202
 21
288.4477749999998
 31
0.0
  0
ARC
  5
B3F6
330
B2B7
100
AcDbEntity
  8
1
  6
Continuous
100
AcDbCircle
 10
269.1552409999999
 20
321.509993
 30
0.0
 40
201.540253
100
AcDbArc
 50
342.10188
 51
348.0351049999999
  0
ARC
  5
B3F7
330
B2B7
100
AcDbEntity
  8
1
  6
Continuous
100
AcDbCircle
 10
451.021125
 20
261.4228539999999
 30
0.0
 40
10.0
100
AcDbArc
 50
343.970181
 51
343.970181
  0
ARC
  5
B3F8
330
B2B7
100
AcDbEntity
  8
1
  6
Continuous
100
AcDbCircle
 10
-231.670438
 20
450.1808259999998
 30
0.0
 40
720.610128
100
AcDbArc
 50
344.3857669999999
 51
346.8157819999998
  0
ARC
  5
B3F9
330
B2B7
100
AcDbEntity
  8
1
  6
Continuous
100
AcDbCircle
 10
477.078016
 20
277.4477749999999
 30
0.0
 40
11.0
100
AcDbArc
 50
90.0
 51
168.0351049999999
  0
ARC
  5
B3FA
330
B2B7
100
AcDbEntity
  8
1
  6
Continuous
100
AcDbCircle
 10
1192.600657
 20
450.1808259999998
 30
0.0
 40
720.610128
100
AcDbArc
 50
193.1842179999999
 51
195.614233
  0
ARC
  5
B3FB
330
B2B7
100
AcDbEntity
  8
1
  6
Continuous
100
AcDbCircle
 10
483.852202
 20
277.4477749999999
 30
0.0
 40
11.0
100
AcDbArc
 50
11.96489499999999
 51
90.0
  0
ARC
  5
B3FC
330
B2B7
100
AcDbEntity
  8
1
  6
Continuous
100
AcDbCircle
 10
691.7749769999996
 20
321.509993
 30
0.0
 40
201.540253
100
AcDbArc
 50
191.9648949999999
 51
197.8981199999998
  0
LINE
  5
B3FD
330
B2B7
100
AcDbEntity
  8
1
  6
Continuous
100
AcDbLine
 10
274.5425419999999
 20
507.548598
 30
0.0
 11
260.6861349999999
 21
507.548598
 31
0.0
  0
LINE
  5
B3FE
330
B2B7
100
AcDbEntity
  8
1
  6
Continuous
100
AcDbLine
 10
46.50595899999999
 20
231.175978
 30
0.0
 11
46.50595899999999
 21
217.3195719999999
 31
0.0
  0
ARC
  5
B3FF
330
B2B7
100
AcDbEntity
  8
1
  6
Continuous
100
AcDbCircle
 10
44.072947
 20
219.051623
 30
0.0
 40
3.066986999999998
100
AcDbArc
 50
145.615753
 51
205.615753
  0
LINE
  5
B400
330
B2B7
100
AcDbEntity
  8
1
  6
Continuous
100
AcDbLine
 10
41.005959
 20
230.2477749999999
 30
0.0
 11
41.005959
 21
218.2477749999999
 31
0.0
  0
LINE
  5
B401
330
B2B7
100
AcDbEntity
  8
1
  6
Continuous
100
AcDbLine
 10
41.54185799999999
 20
217.3195719999999
 30
0.0
 11
41.005959
 21
218.2477749999999
 31
0.0
  0
LINE
  5
B402
330
B2B7
100
AcDbEntity
  8
1
  6
Continuous
100
AcDbLine
 10
41.54185799999999
 20
217.3195719999999
 30
0.0
 11
46.50595899999999
 21
217.3195719999999
 31
0.0
  0
LINE
  5
B403
330
B2B7
100
AcDbEntity
  8
1
  6
Continuous
100
AcDbLine
 10
41.54185799999999
 20
231.175978
 30
0.0
 11
41.005959
 21
230.2477749999999
 31
0.0
  0
ARC
  5
B404
330
B2B7
100
AcDbEntity
  8
1
  6
Continuous
100
AcDbCircle
 10
44.072947
 20
229.4439279999998
 30
0.0
 40
3.066986999999998
100
AcDbArc
 50
154.3842469999999
 51
214.384247
  0
ARC
  5
B405
330
B2B7
100
AcDbEntity
  8
1
  6
Continuous
100
AcDbCircle
 10
52.470061
 20
224.2477749999999
 30
0.0
 40
11.464102
100
AcDbArc
 50
162.412046
 51
197.5879539999999
  0
LINE
  5
B406
330
B2B7
100
AcDbEntity
  8
1
  6
Continuous
100
AcDbLine
 10
41.54185799999999
 20
231.175978
 30
0.0
 11
46.50595899999999
 21
231.175978
 31
0.0
  0
LINE
  5
B407
330
B2B7
100
AcDbEntity
  8
1
  6
Continuous
100
AcDbLine
 10
41.54185799999999
 20
227.7118769999999
 30
0.0
 11
46.50595899999999
 21
227.7118769999999
 31
0.0
  0
LINE
  5
B408
330
B2B7
100
AcDbEntity
  8
1
  6
Continuous
100
AcDbLine
 10
41.54185799999999
 20
220.7836739999999
 30
0.0
 11
46.50595899999999
 21
220.7836739999999
 31
0.0
  0
LINE
  5
B409
330
B2B7
100
AcDbEntity
  8
1
  6
Continuous
100
AcDbLine
 10
101.970061
 20
231.175978
 30
0.0
 11
102.5059589999999
 21
230.2477749999999
 31
0.0
  0
LINE
  5
B40A
330
B2B7
100
AcDbEntity
  8
1
  6
Continuous
100
AcDbLine
 10
98.04185799999999
 20
231.175978
 30
0.0
 11
97.505959
 21
230.2477749999999
 31
0.0
  0
LINE
  5
B40B
330
B2B7
100
AcDbEntity
  8
1
  6
Continuous
100
AcDbLine
 10
98.04185799999999
 20
231.175978
 30
0.0
 11
101.970061
 21
231.175978
 31
0.0
  0
LINE
  5
B40C
330
B2B7
100
AcDbEntity
  8
1
  6
Continuous
100
AcDbLine
 10
98.04185799999999
 20
227.7118769999999
 30
0.0
 11
101.970061
 21
227.7118769999999
 31
0.0
  0
ARC
  5
B40D
330
B2B7
100
AcDbEntity
  8
1
  6
Continuous
100
AcDbCircle
 10
99.43897200000002
 20
229.4439279999998
 30
0.0
 40
3.066986999999998
100
AcDbArc
 50
325.6157529999999
 51
25.615753
  0
ARC
  5
B40E
330
B2B7
100
AcDbEntity
  8
1
  6
Continuous
100
AcDbCircle
 10
100.5729469999999
 20
229.4439279999998
 30
0.0
 40
3.066986999999998
100
AcDbArc
 50
154.3842469999999
 51
214.384247
  0
ARC
  5
B40F
330
B2B7
100
AcDbEntity
  8
1
  6
Continuous
100
AcDbCircle
 10
99.43897200000002
 20
219.051623
 30
0.0
 40
3.066986999999998
100
AcDbArc
 50
334.384247
 51
34.38424699999998
  0
ARC
  5
B410
330
B2B7
100
AcDbEntity
  8
1
  6
Continuous
100
AcDbCircle
 10
100.5729469999999
 20
219.051623
 30
0.0
 40
3.066986999999998
100
AcDbArc
 50
145.615753
 51
205.615753
  0
LINE
  5
B411
330
B2B7
100
AcDbEntity
  8
1
  6
Continuous
100
AcDbLine
 10
98.04185799999999
 20
220.7836739999999
 30
0.0
 11
101.970061
 21
220.7836739999999
 31
0.0
  0
LINE
  5
B412
330
B2B7
100
AcDbEntity
  8
1
  6
Continuous
100
AcDbLine
 10
98.04185799999999
 20
217.3195719999999
 30
0.0
 11
101.970061
 21
217.3195719999999
 31
0.0
  0
LINE
  5
B413
330
B2B7
100
AcDbEntity
  8
1
  6
Continuous
100
AcDbLine
 10
101.970061
 20
217.3195719999999
 30
0.0
 11
102.5059589999999
 21
218.2477749999999
 31
0.0
  0
LINE
  5
B414
330
B2B7
100
AcDbEntity
  8
1
  6
Continuous
100
AcDbLine
 10
98.04185799999999
 20
217.3195719999999
 30
0.0
 11
97.505959
 21
218.2477749999999
 31
0.0
  0
LINE
  5
B415
330
B2B7
100
AcDbEntity
  8
1
  6
Continuous
100
AcDbLine
 10
102.5059589999999
 20
230.2477749999999
 30
0.0
 11
102.5059589999999
 21
218.2477749999999
 31
0.0
  0
ARC
  5
B416
330
B2B7
100
AcDbEntity
  8
1
  6
Continuous
100
AcDbCircle
 10
91.04185800000001
 20
224.2477749999999
 30
0.0
 40
11.464102
100
AcDbArc
 50
342.4120459999999
 51
17.587954
  0
ARC
  5
B417
330
B2B7
100
AcDbEntity
  8
1
  6
Continuous
100
AcDbCircle
 10
108.970061
 20
224.2477749999999
 30
0.0
 40
11.464102
100
AcDbArc
 50
162.412046
 51
197.5879539999999
  0
LINE
  5
B418
330
B2B7
100
AcDbEntity
  8
1
  6
Continuous
100
AcDbLine
 10
97.505959
 20
230.2477749999999
 30
0.0
 11
97.505959
 21
218.2477749999999
 31
0.0
  0
ARC
  5
B419
330
B2B7
100
AcDbEntity
  8
1
  6
Continuous
100
AcDbCircle
 10
466.5876599999998
 20
228.797618
 30
0.0
 40
40.015434
100
AcDbArc
 50
337.907626
 51
7.289194999999997
  0
ARC
  5
B41A
330
B2B7
100
AcDbEntity
  8
1
  6
Continuous
100
AcDbCircle
 10
494.342558
 20
228.797618
 30
0.0
 40
40.015434
100
AcDbArc
 50
172.710805
 51
202.092374
  0
ARC
  5
B41B
330
B2B7
100
AcDbEntity
  8
1
  6
Continuous
100
AcDbCircle
 10
448.035592
 20
224.2477749999999
 30
0.0
 40
6.929516999999997
100
AcDbArc
 50
24.032045
 51
29.993727
  0
ARC
  5
B41C
330
B2B7
100
AcDbEntity
  8
1
  6
Continuous
100
AcDbCircle
 10
452.8847289999998
 20
229.4439279999998
 30
0.0
 40
2.080379
100
AcDbArc
 50
43.977835
 51
56.36312499999998
  0
ARC
  5
B41D
330
B2B7
100
AcDbEntity
  8
1
  6
Continuous
100
AcDbCircle
 10
267.6143379999999
 20
224.2477749999999
 30
0.0
 40
65.0
100
AcDbArc
 50
62.01562400000001
 51
25.631885
  0
ARC
  5
B41E
330
B2B7
100
AcDbEntity
  8
1
  6
Continuous
100
AcDbCircle
 10
270.6143379999999
 20
447.8835349999997
 30
0.0
 40
8.665063999999999
100
AcDbArc
 50
69.743842
 51
110.256158
  0
ARC
  5
B41F
330
B2B7
100
AcDbEntity
  8
1
  6
Continuous
100
AcDbCircle
 10
270.6143379999999
 20
460.213662
 30
0.0
 40
8.665063999999999
100
AcDbArc
 50
249.7438419999999
 51
290.256158
  0
LINE
  5
B420
330
B2B7
100
AcDbEntity
  8
1
  6
Continuous
100
AcDbLine
 10
273.6143379999999
 20
456.548598
 30
0.0
 11
261.614338
 21
456.548598
 31
0.0
  0
LINE
  5
B421
330
B2B7
100
AcDbEntity
  8
1
  6
Continuous
100
AcDbLine
 10
273.6143379999999
 20
451.548598
 30
0.0
 11
261.614338
 21
451.548598
 31
0.0
  0
LINE
  5
B422
330
B2B7
100
AcDbEntity
  8
1
  6
Continuous
100
AcDbLine
 10
261.614338
 20
451.548598
 30
0.0
 11
261.614338
 21
456.548598
 31
0.0
  0
ARC
  5
B423
330
B2B7
100
AcDbEntity
  8
1
  6
Continuous
100
AcDbCircle
 10
264.6143379999999
 20
447.8835349999997
 30
0.0
 40
8.665063999999999
100
AcDbArc
 50
69.743842
 51
110.256158
  0
LINE
  5
B424
330
B2B7
100
AcDbEntity
  8
1
  6
Continuous
100
AcDbLine
 10
267.6143379999999
 20
456.0127
 30
0.0
 11
267.6143379999999
 21
452.0844969999997
 31
0.0
  0
ARC
  5
B425
330
B2B7
100
AcDbEntity
  8
1
  6
Continuous
100
AcDbCircle
 10
264.6143379999999
 20
460.213662
 30
0.0
 40
8.665063999999999
100
AcDbArc
 50
249.7438419999999
 51
290.256158
  0
LINE
  5
B426
330
B2B7
100
AcDbEntity
  8
1
  6
Continuous
100
AcDbLine
 10
273.6143379999999
 20
451.548598
 30
0.0
 11
273.6143379999999
 21
456.548598
 31
0.0
  0
LINE
  5
B427
330
B2B7
100
AcDbEntity
  8
1
  6
Continuous
100
AcDbLine
 10
273.6143379999999
 20
507.548598
 30
0.0
 11
261.614338
 21
507.548598
 31
0.0
  0
ARC
  5
B428
330
B2B7
100
AcDbEntity
  8
1
  6
Continuous
100
AcDbCircle
 10
270.6143379999999
 20
504.3835349999998
 30
0.0
 40
8.665063999999999
100
AcDbArc
 50
69.743842
 51
110.256158
  0
LINE
  5
B429
330
B2B7
100
AcDbEntity
  8
1
  6
Continuous
100
AcDbLine
 10
273.6143379999999
 20
513.0485980000002
 30
0.0
 11
261.614338
 21
513.0485980000002
 31
0.0
  0
ARC
  5
B42A
330
B2B7
100
AcDbEntity
  8
1
  6
Continuous
100
AcDbCircle
 10
264.6143379999999
 20
504.3835349999998
 30
0.0
 40
8.665063999999999
100
AcDbArc
 50
69.743842
 51
110.256158
  0
LINE
  5
B42B
330
B2B7
100
AcDbEntity
  8
1
  6
Continuous
100
AcDbLine
 10
261.614338
 20
507.548598
 30
0.0
 11
261.614338
 21
513.0485980000002
 31
0.0
  0
LINE
  5
B42C
330
B2B7
100
AcDbEntity
  8
1
  6
Continuous
100
AcDbLine
 10
267.6143379999999
 20
512.5126999999999
 30
0.0
 11
267.6143379999999
 21
507.548598
 31
0.0
  0
LINE
  5
B42D
330
B2B7
100
AcDbEntity
  8
1
  6
Continuous
100
AcDbLine
 10
273.6143379999999
 20
507.548598
 30
0.0
 11
273.6143379999999
 21
513.0485980000002
 31
0.0
  0
LINE
  5
B42E
330
B2B7
100
AcDbEntity
  8
1
  6
Continuous
100
AcDbLine
 10
273.6143379999999
 20
101.532163
 30
0.0
 11
273.6143379999999
 21
106.5321629999999
 31
0.0
  0
LINE
  5
B42F
330
B2B7
100
AcDbEntity
  8
1
  6
Continuous
100
AcDbLine
 10
267.6143379999999
 20
105.9962649999998
 30
0.0
 11
267.6143379999999
 21
102.068061
 31
0.0
  0
LINE
  5
B430
330
B2B7
100
AcDbEntity
  8
1
  6
Continuous
100
AcDbLine
 10
261.614338
 20
101.532163
 30
0.0
 11
261.614338
 21
106.5321629999999
 31
0.0
  0
ARC
  5
B431
330
B2B7
100
AcDbEntity
  8
1
  6
Continuous
100
AcDbCircle
 10
264.6143379999999
 20
110.1972259999999
 30
0.0
 40
8.665063999999999
100
AcDbArc
 50
249.7438419999999
 51
290.256158
  0
LINE
  5
B432
330
B2B7
100
AcDbEntity
  8
1
  6
Continuous
100
AcDbLine
 10
273.6143379999999
 20
101.532163
 30
0.0
 11
261.614338
 21
101.532163
 31
0.0
  0
ARC
  5
B433
330
B2B7
100
AcDbEntity
  8
1
  6
Continuous
100
AcDbCircle
 10
270.6143379999999
 20
110.1972259999999
 30
0.0
 40
8.665063999999999
100
AcDbArc
 50
249.7438419999999
 51
290.256158
  0
ARC
  5
B434
330
B2B7
100
AcDbEntity
  8
1
  6
Continuous
100
AcDbCircle
 10
264.6143379999999
 20
97.86709899999999
 30
0.0
 40
8.665063999999999
100
AcDbArc
 50
69.743842
 51
110.256158
  0
LINE
  5
B435
330
B2B7
100
AcDbEntity
  8
1
  6
Continuous
100
AcDbLine
 10
273.6143379999999
 20
106.5321629999999
 30
0.0
 11
261.614338
 21
106.5321629999999
 31
0.0
  0
ARC
  5
B436
330
B2B7
100
AcDbEntity
  8
1
  6
Continuous
100
AcDbCircle
 10
270.6143379999999
 20
97.86709899999999
 30
0.0
 40
8.665063999999999
100
AcDbArc
 50
69.743842
 51
110.256158
  0
ARC
  5
B437
330
B2B7
100
AcDbEntity
  8
1
  6
Continuous
100
AcDbCircle
 10
270.6143379999999
 20
53.697226
 30
0.0
 40
8.665063999999999
100
AcDbArc
 50
249.7438419999999
 51
290.256158
  0
LINE
  5
B438
330
B2B7
100
AcDbEntity
  8
1
  6
Continuous
100
AcDbLine
 10
261.614338
 20
50.53216299999998
 30
0.0
 11
273.6143379999999
 21
50.53216299999998
 31
0.0
  0
LINE
  5
B439
330
B2B7
100
AcDbEntity
  8
1
  6
Continuous
100
AcDbLine
 10
261.614338
 20
45.032163
 30
0.0
 11
273.6143379999999
 21
45.032163
 31
0.0
  0
LINE
  5
B43A
330
B2B7
100
AcDbEntity
  8
1
  6
Continuous
100
AcDbLine
 10
261.614338
 20
50.53216299999998
 30
0.0
 11
261.614338
 21
45.032163
 31
0.0
  0
LINE
  5
B43B
330
B2B7
100
AcDbEntity
  8
1
  6
Continuous
100
AcDbLine
 10
267.6143379999999
 20
45.568061
 30
0.0
 11
267.6143379999999
 21
50.53216299999998
 31
0.0
  0
ARC
  5
B43C
330
B2B7
100
AcDbEntity
  8
1
  6
Continuous
100
AcDbCircle
 10
264.6143379999999
 20
53.697226
 30
0.0
 40
8.665063999999999
100
AcDbArc
 50
249.7438419999999
 51
290.256158
  0
LINE
  5
B43D
330
B2B7
100
AcDbEntity
  8
1
  6
Continuous
100
AcDbLine
 10
273.6143379999999
 20
50.53216299999998
 30
0.0
 11
273.6143379999999
 21
45.032163
 31
0.0
  0
LINE
  5
B43E
330
B2B7
100
AcDbEntity
  8
1
  6
Continuous
100
AcDbLine
 10
321.6143379999999
 20
87.03216299999999
 30
0.0
 11
213.8143379999999
 21
87.03216299999999
 31
0.0
  0
LINE
  5
B43F
330
B2B7
100
AcDbEntity
  8
1
  6
Continuous
100
AcDbLine
 10
321.6143379999999
 20
65.032163
 30
0.0
 11
213.8143379999999
 21
65.032163
 31
0.0
  0
ARC
  5
B440
330
B2B7
100
AcDbEntity
  8
1
  6
Continuous
100
AcDbCircle
 10
213.6143379999999
 20
76.03216299999998
 30
0.0
 40
11.0
100
AcDbArc
 50
90.0
 51
270.0
  0
ARC
  5
B441
330
B2B7
100
AcDbEntity
  8
1
  6
Continuous
100
AcDbCircle
 10
321.6143379999999
 20
76.03216299999998
 30
0.0
 40
11.0
100
AcDbArc
 50
270.0
 51
90.0
  0
ARC
  5
B442
330
B2B7
100
AcDbEntity
  8
1
  6
Continuous
100
AcDbCircle
 10
312.6143379999998
 20
76.03216299999998
 30
0.0
 40
20.5
100
AcDbArc
 50
212.451491
 51
222.854158
  0
LINE
  5
B443
330
B2B7
100
AcDbEntity
  8
1
  6
Continuous
100
AcDbLine
 10
273.6143379999999
 20
227.7118769999999
 30
0.0
 11
273.6143379999999
 21
220.7836739999999
 31
0.0
  0
LINE
  5
B444
330
B2B7
100
AcDbEntity
  8
1
  6
Continuous
100
AcDbLine
 10
261.614338
 20
227.7118769999999
 30
0.0
 11
261.614338
 21
220.7836739999999
 31
0.0
  0
LINE
  5
B445
330
B2B7
100
AcDbEntity
  8
1
  6
Continuous
100
AcDbLine
 10
267.6143379999999
 20
217.3195719999999
 30
0.0
 11
273.6143379999999
 21
220.7836739999999
 31
0.0
  0
LINE
  5
B446
330
B2B7
100
AcDbEntity
  8
1
  6
Continuous
100
AcDbLine
 10
267.6143379999999
 20
217.3195719999999
 30
0.0
 11
261.614338
 21
220.7836739999999
 31
0.0
  0
LINE
  5
B447
330
B2B7
100
AcDbEntity
  8
1
  6
Continuous
100
AcDbLine
 10
273.6143379999999
 20
227.7118769999999
 30
0.0
 11
267.6143379999999
 21
231.175978
 31
0.0
  0
LINE
  5
B448
330
B2B7
100
AcDbEntity
  8
1
  6
Continuous
100
AcDbLine
 10
261.614338
 20
227.7118769999999
 30
0.0
 11
267.6143379999999
 21
231.175978
 31
0.0
  0
LINE
  5
B449
330
B2B7
100
AcDbEntity
  8
4
  6
CENTER
100
AcDbLine
 10
658.3158799999997
 20
403.7947649999998
 30
0.0
 11
658.3158799999997
 21
250.3780359999999
 31
0.0
  0
ARC
  5
B44A
330
B2B7
100
AcDbEntity
  8
1
  6
Continuous
100
AcDbCircle
 10
703.3158799999996
 20
224.2477749999999
 30
0.0
 40
65.0
100
AcDbArc
 50
154.3681149999999
 51
117.9843759999998
  0
LINE
  5
B44B
330
B2B7
100
AcDbEntity
  8
4
  6
CENTER
100
AcDbLine
 10
629.976166
 20
224.2477749999999
 30
0.0
 11
775.165695
 21
224.2477749999999
 31
0.0
  0
LINE
  5
B44C
330
B2B7
100
AcDbEntity
  8
4
  6
CENTER
100
AcDbLine
 10
703.3158799999996
 20
151.0885159999999
 30
0.0
 11
703.3158799999996
 21
295.2477749999999
 31
0.0
  0
ARC
  5
B44E
330
B2B7
100
AcDbEntity
  8
1
  6
Continuous
100
AcDbCircle
 10
645.66588
 20
311.7477749999999
 30
0.0
 40
6.5
100
AcDbArc
 50
90.0
 51
180.0
  0
ARC
  5
B44F
330
B2B7
100
AcDbEntity
  8
1
  6
Continuous
100
AcDbCircle
 10
590.8634540000001
 20
271.2585429999999
 30
0.0
 40
50.0
100
AcDbArc
 50
358.0829489999999
 51
20.10762399999999
  0
ARC
  5
B450
330
B2B7
100
AcDbEntity
  8
1
  6
Continuous
100
AcDbCircle
 10
642.5658799999999
 20
297.6977749999999
 30
0.0
 40
4.75
100
AcDbArc
 50
106.6855899999999
 51
180.0
  0
ARC
  5
B451
330
B2B7
100
AcDbEntity
  8
1
  6
Continuous
100
AcDbCircle
 10
675.81588
 20
268.415071
 30
0.0
 40
35.0
100
AcDbArc
 50
178.0829489999999
 51
239.9999999999999
  0
ARC
  5
B452
330
B2B7
100
AcDbEntity
  8
1
  6
Continuous
100
AcDbCircle
 10
695.3158799999997
 20
269.4490359999999
 30
0.0
 40
22.5
100
AcDbArc
 50
180.0
 51
236.0
  0
ARC
  5
B453
330
B2B7
100
AcDbEntity
  8
1
  6
Continuous
100
AcDbCircle
 10
703.3158799999996
 20
224.2477749999999
 30
0.0
 40
48.75
100
AcDbArc
 50
162.387455
 51
127.3266459999999
  0
ARC
  5
B454
330
B2B7
100
AcDbEntity
  8
1
  6
Continuous
100
AcDbCircle
 10
703.3158799999996
 20
224.2477749999999
 30
0.0
 40
10.5
100
AcDbArc
 50
239.9999999999999
 51
56.0
  0
CIRCLE
  5
B455
330
B2B7
100
AcDbEntity
  8
1
  6
Continuous
100
AcDbCircle
 10
703.3158799999996
 20
224.2477749999999
 30
0.0
 40
7.5
  0
CIRCLE
  5
B456
330
B2B7
100
AcDbEntity
  8
1
  6
Continuous
100
AcDbCircle
 10
703.3158799999996
 20
224.2477749999999
 30
0.0
 40
8.0
  0
LINE
  5
B457
330
B2B7
100
AcDbEntity
  8
1
  6
Continuous
100
AcDbLine
 10
709.187405
 20
232.95267
 30
0.0
 11
682.7340400000001
 21
250.7956899999999
 31
0.0
  0
ARC
  5
B458
330
B2B7
100
AcDbEntity
  8
1
  6
Continuous
100
AcDbCircle
 10
703.3158799999996
 20
224.2477749999999
 30
0.0
 40
16.0
100
AcDbArc
 50
191.0144999999999
 51
104.9855
  0
ARC
  5
B459
330
B2B7
100
AcDbEntity
  8
1
  6
Continuous
100
AcDbCircle
 10
703.3158799999996
 20
224.2477749999999
 30
0.0
 40
10.5
100
AcDbArc
 50
91.95056800000001
 51
204.049432
  0
ARC
  5
B45A
330
B2B7
100
AcDbEntity
  8
1
  6
Continuous
100
AcDbCircle
 10
703.3158799999996
 20
224.2477749999999
 30
0.0
 40
20.5
100
AcDbArc
 50
180.8101569999998
 51
115.1898429999999
  0
LINE
  5
B45B
330
B2B7
100
AcDbEntity
  8
1
  6
Continuous
100
AcDbLine
 10
698.06588
 20
215.1545089999999
 30
0.0
 11
658.3158799999997
 21
238.1041819999999
 31
0.0
  0
ARC
  5
B45C
330
B2B7
100
AcDbEntity
  8
1
  6
Continuous
100
AcDbCircle
 10
695.683447
 20
229.0170489999999
 30
0.0
 40
6.5
100
AcDbArc
 50
107.248118
 51
188.751882
  0
ARC
  5
B45D
330
B2B7
100
AcDbEntity
  8
1
  6
Continuous
100
AcDbCircle
 10
707.0826019999998
 20
230.7719299999999
 30
0.0
 40
18.033445
100
AcDbArc
 50
188.751882
 51
209.470609
  0
ARC
  5
B45E
330
B2B7
100
AcDbEntity
  8
1
  6
Continuous
100
AcDbCircle
 10
699.1032309999999
 20
218.002267
 30
0.0
 40
18.033445
100
AcDbArc
 50
86.52939100000002
 51
107.248118
  0
ARC
  5
B45F
330
B2B7
100
AcDbEntity
  8
1
  6
Continuous
100
AcDbCircle
 10
674.06588
 20
297.6977749999999
 30
0.0
 40
4.75
100
AcDbArc
 50
0.0
 51
73.31440999999998
  0
LINE
  5
B460
330
B2B7
100
AcDbEntity
  8
1
  6
Continuous
100
AcDbLine
 10
672.81588
 20
286.4477749999998
 30
0.0
 11
672.81588
 21
269.4490359999999
 31
0.0
  0
LINE
  5
B461
330
B2B7
100
AcDbEntity
  8
1
  6
Continuous
100
AcDbLine
 10
678.8158799999997
 20
297.6977749999999
 30
0.0
 11
678.8158799999997
 21
288.4477749999998
 31
0.0
  0
ARC
  5
B462
330
B2B7
100
AcDbEntity
  8
1
  6
Continuous
100
AcDbCircle
 10
674.8158799999997
 20
286.4477749999998
 30
0.0
 40
2.0
100
AcDbArc
 50
90.0
 51
180.0
  0
LINE
  5
B463
330
B2B7
100
AcDbEntity
  8
1
  6
Continuous
100
AcDbLine
 10
674.8158799999997
 20
288.4477749999998
 30
0.0
 11
678.8158799999997
 21
288.4477749999998
 31
0.0
  0
LINE
  5
B464
330
B2B7
100
AcDbEntity
  8
1
  6
Continuous
100
AcDbLine
 10
639.16588
 20
302.247775
 30
0.0
 11
677.46588
 21
302.247775
 31
0.0
  0
LINE
  5
B465
330
B2B7
100
AcDbEntity
  8
1
  6
Continuous
100
AcDbLine
 10
677.46588
 20
311.7477749999999
 30
0.0
 11
677.46588
 21
302.247775
 31
0.0
  0
ARC
  5
B466
330
B2B7
100
AcDbEntity
  8
1
  6
Continuous
100
AcDbCircle
 10
670.9658799999997
 20
311.7477749999999
 30
0.0
 40
6.5
100
AcDbArc
 50
0.0
 51
90.0
  0
LINE
  5
B467
330
B2B7
100
AcDbEntity
  8
1
  6
Continuous
100
AcDbLine
 10
639.16588
 20
311.7477749999999
 30
0.0
 11
639.16588
 21
302.247775
 31
0.0
  0
LINE
  5
B468
330
B2B7
100
AcDbEntity
  8
1
  6
Continuous
100
AcDbLine
 10
637.81588
 20
297.6977749999999
 30
0.0
 11
637.81588
 21
288.4477749999998
 31
0.0
  0
LINE
  5
B469
330
B2B7
100
AcDbEntity
  8
1
  6
Continuous
100
AcDbLine
 10
645.66588
 20
318.2477749999998
 30
0.0
 11
670.9658799999997
 21
318.2477749999998
 31
0.0
  0
LINE
  5
B46A
330
B2B7
100
AcDbEntity
  8
1
  6
Continuous
100
AcDbLine
 10
709.31588
 20
227.7118769999999
 30
0.0
 11
709.31588
 21
220.7836739999999
 31
0.0
  0
LINE
  5
B46B
330
B2B7
100
AcDbEntity
  8
1
  6
Continuous
100
AcDbLine
 10
697.31588
 20
227.7118769999999
 30
0.0
 11
703.3158799999996
 21
231.175978
 31
0.0
  0
LINE
  5
B46C
330
B2B7
100
AcDbEntity
  8
1
  6
Continuous
100
AcDbLine
 10
703.3158799999996
 20
217.3195719999999
 30
0.0
 11
697.31588
 21
220.7836739999999
 31
0.0
  0
LINE
  5
B46D
330
B2B7
100
AcDbEntity
  8
1
  6
Continuous
100
AcDbLine
 10
697.31588
 20
227.7118769999999
 30
0.0
 11
697.31588
 21
220.7836739999999
 31
0.0
  0
LINE
  5
B46E
330
B2B7
100
AcDbEntity
  8
1
  6
Continuous
100
AcDbLine
 10
709.31588
 20
227.7118769999999
 30
0.0
 11
703.3158799999996
 21
231.175978
 31
0.0
  0
LINE
  5
B46F
330
B2B7
100
AcDbEntity
  8
1
  6
Continuous
100
AcDbLine
 10
703.3158799999996
 20
217.3195719999999
 30
0.0
 11
709.31588
 21
220.7836739999999
 31
0.0
  0
CIRCLE
  5
B470
330
B2B7
100
AcDbEntity
  8
1
  6
Continuous
100
AcDbCircle
 10
703.3158799999996
 20
224.2477749999999
 30
0.0
 40
6.0
  0
LINE
  5
B471
330
B2B7
100
AcDbEntity
  8
2
  6
Continuous
100
AcDbLine
 10
475.1416089999998
 20
396.424254
 30
0.0
 11
475.1416089999998
 21
395.2477749999998
 31
0.0
  0
LINE
  5
B472
330
B2B7
100
AcDbEntity
  8
2
  6
Continuous
100
AcDbLine
 10
485.788609
 20
396.424254
 30
0.0
 11
485.788609
 21
395.2477749999998
 31
0.0
  0
CIRCLE
  5
B473
330
B2B7
100
AcDbEntity
  8
1
  6
Continuous
100
AcDbCircle
 10
267.6143379999999
 20
224.2477749999999
 30
0.0
 40
4.0
  0
CIRCLE
  5
B474
330
B2B7
100
AcDbEntity
  8
2
  6
Continuous
100
AcDbCircle
 10
267.6143379999999
 20
224.2477749999999
 30
0.0
 40
3.3235
  0
LINE
  5
B475
330
B2B7
100
AcDbEntity
  8
1
  6
Continuous
100
AcDbLine
 10
104.0059589999999
 20
227.2477749999999
 30
0.0
 11
104.0059589999999
 21
221.247775
 31
0.0
  0
LINE
  5
B476
330
B2B7
100
AcDbEntity
  8
1
  6
Continuous
100
AcDbLine
 10
102.5059589999999
 20
228.2477749999999
 30
0.0
 11
103.005959
 21
228.2477749999999
 31
0.0
  0
LINE
  5
B477
330
B2B7
100
AcDbEntity
  8
1
  6
Continuous
100
AcDbLine
 10
103.005959
 20
228.2477749999999
 30
0.0
 11
104.0059589999999
 21
227.2477749999999
 31
0.0
  0
LINE
  5
B478
330
B2B7
100
AcDbEntity
  8
2
  6
Continuous
100
AcDbLine
 10
102.5059589999999
 20
227.571275
 30
0.0
 11
103.6824589999998
 21
227.571275
 31
0.0
  0
LINE
  5
B479
330
B2B7
100
AcDbEntity
  8
2
  6
Continuous
100
AcDbLine
 10
102.5059589999999
 20
220.924275
 30
0.0
 11
103.6824589999998
 21
220.924275
 31
0.0
  0
LINE
  5
B47A
330
B2B7
100
AcDbEntity
  8
1
  6
Continuous
100
AcDbLine
 10
102.5059589999999
 20
220.2477749999999
 30
0.0
 11
103.005959
 21
220.2477749999999
 31
0.0
  0
LINE
  5
B47B
330
B2B7
100
AcDbEntity
  8
1
  6
Continuous
100
AcDbLine
 10
103.005959
 20
220.2477749999999
 30
0.0
 11
104.0059589999999
 21
221.247775
 31
0.0
  0
LINE
  5
B47C
330
B2B7
100
AcDbEntity
  8
1
  6
Continuous
100
AcDbLine
 10
449.9651089999998
 20
228.2477749999999
 30
0.0
 11
449.4651089999998
 21
228.2477749999999
 31
0.0
  0
LINE
  5
B47D
330
B2B7
100
AcDbEntity
  8
1
  6
Continuous
100
AcDbLine
 10
448.4651089999998
 20
227.2477749999999
 30
0.0
 11
448.4651089999998
 21
221.247775
 31
0.0
  0
LINE
  5
B47E
330
B2B7
100
AcDbEntity
  8
2
  6
Continuous
100
AcDbLine
 10
449.9651089999998
 20
227.571275
 30
0.0
 11
448.7886089999998
 21
227.571275
 31
0.0
  0
LINE
  5
B47F
330
B2B7
100
AcDbEntity
  8
1
  6
Continuous
100
AcDbLine
 10
449.4651089999998
 20
228.2477749999999
 30
0.0
 11
448.4651089999998
 21
227.2477749999999
 31
0.0
  0
LINE
  5
B480
330
B2B7
100
AcDbEntity
  8
1
  6
Continuous
100
AcDbLine
 10
449.4651089999998
 20
220.2477749999999
 30
0.0
 11
448.4651089999998
 21
221.247775
 31
0.0
  0
LINE
  5
B481
330
B2B7
100
AcDbEntity
  8
2
  6
Continuous
100
AcDbLine
 10
449.9651089999998
 20
220.924275
 30
0.0
 11
448.7886089999998
 21
220.924275
 31
0.0
  0
LINE
  5
B482
330
B2B7
100
AcDbEntity
  8
1
  6
Continuous
100
AcDbLine
 10
449.9651089999998
 20
220.2477749999999
 30
0.0
 11
449.4651089999998
 21
220.2477749999999
 31
0.0
  0
LINE
  5
B483
330
B2B7
100
AcDbEntity
  8
1
  6
Continuous
100
AcDbLine
 10
264.6143379999999
 20
108.0321629999998
 30
0.0
 11
270.6143379999999
 21
108.0321629999998
 31
0.0
  0
LINE
  5
B484
330
B2B7
100
AcDbEntity
  8
2
  6
Continuous
100
AcDbLine
 10
264.290838
 20
106.5321629999999
 30
0.0
 11
264.290838
 21
107.7086629999999
 31
0.0
  0
LINE
  5
B485
330
B2B7
100
AcDbEntity
  8
1
  6
Continuous
100
AcDbLine
 10
263.6143379999999
 20
107.0321629999998
 30
0.0
 11
264.6143379999999
 21
108.0321629999998
 31
0.0
  0
LINE
  5
B486
330
B2B7
100
AcDbEntity
  8
2
  6
Continuous
100
AcDbLine
 10
270.9378379999999
 20
106.5321629999999
 30
0.0
 11
270.9378379999999
 21
107.7086629999999
 31
0.0
  0
LINE
  5
B487
330
B2B7
100
AcDbEntity
  8
1
  6
Continuous
100
AcDbLine
 10
271.6143379999999
 20
106.5321629999999
 30
0.0
 11
271.6143379999999
 21
107.0321629999998
 31
0.0
  0
LINE
  5
B488
330
B2B7
100
AcDbEntity
  8
1
  6
Continuous
100
AcDbLine
 10
263.6143379999999
 20
106.5321629999999
 30
0.0
 11
263.6143379999999
 21
107.0321629999998
 31
0.0
  0
LINE
  5
B489
330
B2B7
100
AcDbEntity
  8
1
  6
Continuous
100
AcDbLine
 10
271.6143379999999
 20
107.0321629999998
 30
0.0
 11
270.6143379999999
 21
108.0321629999998
 31
0.0
  0
LINE
  5
B48A
330
B2B7
100
AcDbEntity
  8
1
  6
Continuous
100
AcDbLine
 10
270.6143379999999
 20
450.048598
 30
0.0
 11
264.6143379999999
 21
450.048598
 31
0.0
  0
LINE
  5
B48B
330
B2B7
100
AcDbEntity
  8
1
  6
Continuous
100
AcDbLine
 10
263.6143379999999
 20
451.048598
 30
0.0
 11
264.6143379999999
 21
450.048598
 31
0.0
  0
LINE
  5
B48C
330
B2B7
100
AcDbEntity
  8
1
  6
Continuous
100
AcDbLine
 10
263.6143379999999
 20
451.548598
 30
0.0
 11
263.6143379999999
 21
451.048598
 31
0.0
  0
LINE
  5
B48D
330
B2B7
100
AcDbEntity
  8
2
  6
Continuous
100
AcDbLine
 10
264.290838
 20
451.548598
 30
0.0
 11
264.290838
 21
450.3720979999997
 31
0.0
  0
LINE
  5
B48E
330
B2B7
100
AcDbEntity
  8
1
  6
Continuous
100
AcDbLine
 10
271.6143379999999
 20
451.548598
 30
0.0
 11
271.6143379999999
 21
451.048598
 31
0.0
  0
LINE
  5
B48F
330
B2B7
100
AcDbEntity
  8
1
  6
Continuous
100
AcDbLine
 10
271.6143379999999
 20
451.048598
 30
0.0
 11
270.6143379999999
 21
450.048598
 31
0.0
  0
LINE
  5
B490
330
B2B7
100
AcDbEntity
  8
2
  6
Continuous
100
AcDbLine
 10
270.9378379999999
 20
451.548598
 30
0.0
 11
270.9378379999999
 21
450.3720979999997
 31
0.0
  0
CIRCLE
  5
B491
330
B2B7
100
AcDbEntity
  8
1
  6
Continuous
100
AcDbCircle
 10
312.6143379999998
 20
482.0485979999999
 30
0.0
 40
13.0
  0
ARC
  5
B492
330
B2B7
100
AcDbEntity
  8
1
  6
Continuous
100
AcDbCircle
 10
312.6143379999998
 20
482.0485979999999
 30
0.0
 40
10.7
100
AcDbArc
 50
114.326207
 51
245.673793
  0
ARC
  5
B493
330
B2B7
100
AcDbEntity
  8
1
  6
Continuous
100
AcDbCircle
 10
312.6143379999998
 20
482.0485979999999
 30
0.0
 40
10.7
100
AcDbArc
 50
294.326207
 51
65.673793
  0
LINE
  5
B494
330
B2B7
100
AcDbEntity
  8
1
  6
Continuous
100
AcDbLine
 10
308.206674
 20
472.298598
 30
0.0
 11
317.0220019999998
 21
472.298598
 31
0.0
  0
LINE
  5
B495
330
B2B7
100
AcDbEntity
  8
1
  6
Continuous
100
AcDbLine
 10
308.206674
 20
491.798598
 30
0.0
 11
317.0220019999998
 21
491.798598
 31
0.0
  0
ARC
  5
B496
330
B2B7
100
AcDbEntity
  8
1
  6
Continuous
100
AcDbCircle
 10
312.6143379999998
 20
482.0485979999999
 30
0.0
 40
10.5
100
AcDbArc
 50
248.213211
 51
291.786789
  0
ARC
  5
B497
330
B2B7
100
AcDbEntity
  8
1
  6
Continuous
100
AcDbCircle
 10
312.6143379999998
 20
482.0485979999999
 30
0.0
 40
10.5
100
AcDbArc
 50
68.213211
 51
111.7867889999999
  0
ARC
  5
B498
330
B2B7
100
AcDbEntity
  8
1
  6
Continuous
100
AcDbCircle
 10
196.2984419999999
 20
342.4477749999998
 30
0.0
 40
294.9666669999999
100
AcDbArc
 50
357.415666
 51
2.584334
  0
ARC
  5
B499
330
B2B7
100
AcDbEntity
  8
1
  6
Continuous
100
AcDbCircle
 10
764.6317749999997
 20
342.4477749999998
 30
0.0
 40
294.9666669999999
100
AcDbArc
 50
177.3980899999999
 51
182.584334
  0
ARC
  5
B49A
330
B2B7
100
AcDbEntity
  8
1
  6
Continuous
100
AcDbCircle
 10
470.965109
 20
324.847775
 30
0.0
 40
1.0
100
AcDbArc
 50
180.0
 51
270.0
  0
LINE
  5
B49B
330
B2B7
100
AcDbEntity
  8
1
  6
Continuous
100
AcDbLine
 10
493.465109
 20
323.847775
 30
0.0
 11
467.465109
 21
323.847775
 31
0.0
  0
LINE
  5
B49C
330
B2B7
100
AcDbEntity
  8
1
  6
Continuous
100
AcDbLine
 10
493.465109
 20
322.2477749999999
 30
0.0
 11
467.465109
 21
322.2477749999999
 31
0.0
  0
LINE
  5
B49D
330
B2B7
100
AcDbEntity
  8
1
  6
Continuous
100
AcDbLine
 10
467.465109
 20
323.847775
 30
0.0
 11
467.465109
 21
322.2477749999999
 31
0.0
  0
LINE
  5
B49E
330
B2B7
100
AcDbEntity
  8
1
  6
Continuous
100
AcDbLine
 10
469.9651089999998
 20
318.2477749999998
 30
0.0
 11
469.9651089999998
 21
322.2477749999999
 31
0.0
  0
LINE
  5
B49F
330
B2B7
100
AcDbEntity
  8
1
  6
Continuous
100
AcDbLine
 10
490.9651089999998
 20
318.2477749999998
 30
0.0
 11
490.9651089999998
 21
322.2477749999999
 31
0.0
  0
LINE
  5
B4A0
330
B2B7
100
AcDbEntity
  8
1
  6
Continuous
100
AcDbLine
 10
469.9651089999998
 20
329.147775
 30
0.0
 11
490.9651089999998
 21
329.147775
 31
0.0
  0
LINE
  5
B4A1
330
B2B7
100
AcDbEntity
  8
1
  6
Continuous
100
AcDbLine
 10
469.9651089999998
 20
324.847775
 30
0.0
 11
469.9651089999998
 21
329.147775
 31
0.0
  0
LINE
  5
B4A2
330
B2B7
100
AcDbEntity
  8
1
  6
Continuous
100
AcDbLine
 10
490.9651089999998
 20
324.847775
 30
0.0
 11
490.9651089999998
 21
329.147775
 31
0.0
  0
ARC
  5
B4A3
330
B2B7
100
AcDbEntity
  8
1
  6
Continuous
100
AcDbCircle
 10
489.9651089999998
 20
324.847775
 30
0.0
 40
1.0
100
AcDbArc
 50
270.0
 51
0.0
  0
LINE
  5
B4A4
330
B2B7
100
AcDbEntity
  8
1
  6
Continuous
100
AcDbLine
 10
493.465109
 20
322.2477749999999
 30
0.0
 11
493.465109
 21
323.847775
 31
0.0
  0
ARC
  5
B4A5
330
B2B7
100
AcDbEntity
  8
1
  6
Continuous
100
AcDbCircle
 10
470.965109
 20
359.347775
 30
0.0
 40
1.0
100
AcDbArc
 50
180.0
 51
270.0
  0
ARC
  5
B4A6
330
B2B7
100
AcDbEntity
  8
1
  6
Continuous
100
AcDbCircle
 10
470.965109
 20
355.7477749999998
 30
0.0
 40
1.0
100
AcDbArc
 50
90.0
 51
180.0
  0
ARC
  5
B4A7
330
B2B7
100
AcDbEntity
  8
1
  6
Continuous
100
AcDbCircle
 10
805.8817749999999
 20
373.547775
 30
0.0
 40
336.2166669999999
100
AcDbArc
 50
177.579412
 51
182.4350259999999
  0
ARC
  5
B4A8
330
B2B7
100
AcDbEntity
  8
1
  6
Continuous
100
AcDbCircle
 10
155.048442
 20
373.547775
 30
0.0
 40
336.2166669999999
100
AcDbArc
 50
357.564974
 51
2.420587999999999
  0
LINE
  5
B4A9
330
B2B7
100
AcDbEntity
  8
1
  6
Continuous
100
AcDbLine
 10
470.965109
 20
358.347775
 30
0.0
 11
489.9651089999998
 21
358.347775
 31
0.0
  0
LINE
  5
B4AA
330
B2B7
100
AcDbEntity
  8
1
  6
Continuous
100
AcDbLine
 10
470.965109
 20
356.747775
 30
0.0
 11
489.9651089999998
 21
356.747775
 31
0.0
  0
LINE
  5
B4AB
330
B2B7
100
AcDbEntity
  8
1
  6
Continuous
100
AcDbLine
 10
471.565109
 20
356.747775
 30
0.0
 11
471.565109
 21
358.347775
 31
0.0
  0
ARC
  5
B4AC
330
B2B7
100
AcDbEntity
  8
1
  6
Continuous
100
AcDbCircle
 10
489.9651089999998
 20
359.347775
 30
0.0
 40
1.0
100
AcDbArc
 50
270.0
 51
0.0
  0
LINE
  5
B4AD
330
B2B7
100
AcDbEntity
  8
1
  6
Continuous
100
AcDbLine
 10
489.3651089999998
 20
358.347775
 30
0.0
 11
489.3651089999998
 21
356.747775
 31
0.0
  0
ARC
  5
B4AE
330
B2B7
100
AcDbEntity
  8
1
  6
Continuous
100
AcDbCircle
 10
489.9651089999998
 20
355.7477749999998
 30
0.0
 40
1.0
100
AcDbArc
 50
0.0
 51
90.0
  0
LINE
  5
B4AF
330
B2B7
100
AcDbEntity
  8
1
  6
Continuous
100
AcDbLine
 10
484.965109
 20
397.2477749999998
 30
0.0
 11
486.4651089999998
 21
395.7477749999998
 31
0.0
  0
LINE
  5
B4B0
330
B2B7
100
AcDbEntity
  8
1
  6
Continuous
100
AcDbLine
 10
470.7151089999999
 20
395.2477749999998
 30
0.0
 11
490.215109
 21
395.2477749999998
 31
0.0
  0
LINE
  5
B4B1
330
B2B7
100
AcDbEntity
  8
1
  6
Continuous
100
AcDbLine
 10
469.9651089999998
 20
387.747775
 30
0.0
 11
490.9651089999998
 21
387.747775
 31
0.0
  0
LINE
  5
B4B2
330
B2B7
100
AcDbEntity
  8
1
  6
Continuous
100
AcDbLine
 10
470.7151089999999
 20
391.2477749999998
 30
0.0
 11
490.215109
 21
391.2477749999998
 31
0.0
  0
LINE
  5
B4B3
330
B2B7
100
AcDbEntity
  8
1
  6
Continuous
100
AcDbLine
 10
486.4651089999998
 20
395.7477749999998
 30
0.0
 11
474.4651089999998
 21
395.7477749999998
 31
0.0
  0
LINE
  5
B4B4
330
B2B7
100
AcDbEntity
  8
1
  6
Continuous
100
AcDbLine
 10
475.965109
 20
397.2477749999998
 30
0.0
 11
474.4651089999998
 21
395.7477749999998
 31
0.0
  0
LINE
  5
B4B5
330
B2B7
100
AcDbEntity
  8
1
  6
Continuous
100
AcDbLine
 10
474.4651089999998
 20
395.2477749999998
 30
0.0
 11
474.4651089999998
 21
395.7477749999998
 31
0.0
  0
LINE
  5
B4B6
330
B2B7
100
AcDbEntity
  8
1
  6
Continuous
100
AcDbLine
 10
470.965109
 20
391.2477749999998
 30
0.0
 11
470.965109
 21
387.747775
 31
0.0
  0
LINE
  5
B4B7
330
B2B7
100
AcDbEntity
  8
1
  6
Continuous
100
AcDbLine
 10
470.7151089999999
 20
391.2477749999998
 30
0.0
 11
470.7151089999999
 21
395.2477749999998
 31
0.0
  0
LINE
  5
B4B8
330
B2B7
100
AcDbEntity
  8
1
  6
Continuous
100
AcDbLine
 10
484.965109
 20
397.2477749999998
 30
0.0
 11
475.965109
 21
397.2477749999998
 31
0.0
  0
LINE
  5
B4B9
330
B2B7
100
AcDbEntity
  8
1
  6
Continuous
100
AcDbLine
 10
489.9651089999998
 20
391.2477749999998
 30
0.0
 11
489.9651089999998
 21
387.747775
 31
0.0
  0
LINE
  5
B4BA
330
B2B7
100
AcDbEntity
  8
1
  6
Continuous
100
AcDbLine
 10
490.215109
 20
391.2477749999998
 30
0.0
 11
490.215109
 21
395.2477749999998
 31
0.0
  0
LINE
  5
B4BB
330
B2B7
100
AcDbEntity
  8
1
  6
Continuous
100
AcDbLine
 10
486.4651089999998
 20
395.2477749999998
 30
0.0
 11
486.4651089999998
 21
395.7477749999998
 31
0.0
  0
ARC
  5
B4BC
330
B2B7
100
AcDbEntity
  8
1
  6
Continuous
100
AcDbCircle
 10
596.781025
 20
342.4477749999998
 30
0.0
 40
294.9666669999999
100
AcDbArc
 50
177.3980899999999
 51
182.584334
  0
ARC
  5
B4BD
330
B2B7
100
AcDbEntity
  8
1
  6
Continuous
100
AcDbCircle
 10
28.44769199999999
 20
342.4477749999998
 30
0.0
 40
294.9666669999999
100
AcDbArc
 50
357.415666
 51
2.584334
  0
LINE
  5
B4BE
330
B2B7
100
AcDbEntity
  8
1
  6
Continuous
100
AcDbLine
 10
325.6143589999999
 20
323.847775
 30
0.0
 11
299.6143589999999
 21
323.847775
 31
0.0
  0
LINE
  5
B4BF
330
B2B7
100
AcDbEntity
  8
1
  6
Continuous
100
AcDbLine
 10
325.6143589999999
 20
322.2477749999999
 30
0.0
 11
299.6143589999999
 21
322.2477749999999
 31
0.0
  0
LINE
  5
B4C0
330
B2B7
100
AcDbEntity
  8
1
  6
Continuous
100
AcDbLine
 10
324.7388379999998
 20
322.2477749999999
 30
0.0
 11
300.4898379999999
 21
322.2477749999999
 31
0.0
  0
LINE
  5
B4C1
330
B2B7
100
AcDbEntity
  8
1
  6
Continuous
100
AcDbLine
 10
300.4898379999999
 20
322.2477749999999
 30
0.0
 11
300.4898379999999
 21
318.2477749999998
 31
0.0
  0
LINE
  5
B4C2
330
B2B7
100
AcDbEntity
  8
1
  6
Continuous
100
AcDbLine
 10
318.6763379999998
 20
322.2477749999999
 30
0.0
 11
318.6763379999998
 21
318.2477749999998
 31
0.0
  0
LINE
  5
B4C3
330
B2B7
100
AcDbEntity
  8
1
  6
Continuous
100
AcDbLine
 10
306.5523379999999
 20
322.2477749999999
 30
0.0
 11
306.5523379999999
 21
318.2477749999998
 31
0.0
  0
LINE
  5
B4C4
330
B2B7
100
AcDbEntity
  8
1
  6
Continuous
100
AcDbLine
 10
302.1143589999998
 20
329.147775
 30
0.0
 11
323.1143589999998
 21
329.147775
 31
0.0
  0
LINE
  5
B4C5
330
B2B7
100
AcDbEntity
  8
1
  6
Continuous
100
AcDbLine
 10
299.6143589999999
 20
323.847775
 30
0.0
 11
299.6143589999999
 21
322.2477749999999
 31
0.0
  0
LINE
  5
B4C6
330
B2B7
100
AcDbEntity
  8
1
  6
Continuous
100
AcDbLine
 10
302.1143589999998
 20
324.847775
 30
0.0
 11
302.1143589999998
 21
329.147775
 31
0.0
  0
ARC
  5
B4C7
330
B2B7
100
AcDbEntity
  8
1
  6
Continuous
100
AcDbCircle
 10
303.1143589999999
 20
324.847775
 30
0.0
 40
1.0
100
AcDbArc
 50
180.0
 51
270.0
  0
LINE
  5
B4C8
330
B2B7
100
AcDbEntity
  8
1
  6
Continuous
100
AcDbLine
 10
323.1143589999998
 20
324.847775
 30
0.0
 11
323.1143589999998
 21
329.147775
 31
0.0
  0
ARC
  5
B4C9
330
B2B7
100
AcDbEntity
  8
1
  6
Continuous
100
AcDbCircle
 10
322.114359
 20
324.847775
 30
0.0
 40
1.0
100
AcDbArc
 50
270.0
 51
0.0
  0
LINE
  5
B4CA
330
B2B7
100
AcDbEntity
  8
1
  6
Continuous
100
AcDbLine
 10
324.7388379999998
 20
322.2477749999999
 30
0.0
 11
324.7388379999998
 21
318.2477749999998
 31
0.0
  0
LINE
  5
B4CB
330
B2B7
100
AcDbEntity
  8
1
  6
Continuous
100
AcDbLine
 10
325.6143589999999
 20
322.2477749999999
 30
0.0
 11
325.6143589999999
 21
323.847775
 31
0.0
  0
ARC
  5
B4CC
330
B2B7
100
AcDbEntity
  8
1
  6
Continuous
100
AcDbCircle
 10
638.0310249999999
 20
373.547775
 30
0.0
 40
336.2166669999999
100
AcDbArc
 50
177.579412
 51
182.4350259999999
  0
ARC
  5
B4CD
330
B2B7
100
AcDbEntity
  8
1
  6
Continuous
100
AcDbCircle
 10
-12.802308
 20
373.547775
 30
0.0
 40
336.2166669999999
100
AcDbArc
 50
357.5794119999998
 51
2.420587999999999
  0
LINE
  5
B4CE
330
B2B7
100
AcDbEntity
  8
1
  6
Continuous
100
AcDbLine
 10
303.1143589999999
 20
358.347775
 30
0.0
 11
322.114359
 21
358.347775
 31
0.0
  0
LINE
  5
B4CF
330
B2B7
100
AcDbEntity
  8
1
  6
Continuous
100
AcDbLine
 10
303.1143589999999
 20
356.747775
 30
0.0
 11
322.114359
 21
356.747775
 31
0.0
  0
ARC
  5
B4D0
330
B2B7
100
AcDbEntity
  8
1
  6
Continuous
100
AcDbCircle
 10
303.1143589999999
 20
359.347775
 30
0.0
 40
1.0
100
AcDbArc
 50
180.0
 51
270.0
  0
LINE
  5
B4D1
330
B2B7
100
AcDbEntity
  8
1
  6
Continuous
100
AcDbLine
 10
303.7143589999999
 20
356.747775
 30
0.0
 11
303.7143589999999
 21
358.347775
 31
0.0
  0
ARC
  5
B4D2
330
B2B7
100
AcDbEntity
  8
1
  6
Continuous
100
AcDbCircle
 10
303.1143589999999
 20
355.7477749999998
 30
0.0
 40
1.0
100
AcDbArc
 50
90.0
 51
180.0
  0
ARC
  5
B4D3
330
B2B7
100
AcDbEntity
  8
1
  6
Continuous
100
AcDbCircle
 10
322.114359
 20
359.347775
 30
0.0
 40
1.0
100
AcDbArc
 50
270.0
 51
0.0
  0
LINE
  5
B4D4
330
B2B7
100
AcDbEntity
  8
1
  6
Continuous
100
AcDbLine
 10
321.514359
 20
358.347775
 30
0.0
 11
321.514359
 21
356.747775
 31
0.0
  0
ARC
  5
B4D5
330
B2B7
100
AcDbEntity
  8
1
  6
Continuous
100
AcDbCircle
 10
322.114359
 20
355.7477749999998
 30
0.0
 40
1.0
100
AcDbArc
 50
0.0
 51
90.0
  0
LINE
  5
B4D6
330
B2B7
100
AcDbEntity
  8
1
  6
Continuous
100
AcDbLine
 10
308.1143589999999
 20
397.2477749999998
 30
0.0
 11
306.6143589999999
 21
395.7477749999998
 31
0.0
  0
LINE
  5
B4D7
330
B2B7
100
AcDbEntity
  8
1
  6
Continuous
100
AcDbLine
 10
318.6143589999999
 20
395.7477749999998
 30
0.0
 11
306.6143589999999
 21
395.7477749999998
 31
0.0
  0
LINE
  5
B4D8
330
B2B7
100
AcDbEntity
  8
1
  6
Continuous
100
AcDbLine
 10
301.914338
 20
395.2477749999998
 30
0.0
 11
323.3143379999999
 21
395.2477749999998
 31
0.0
  0
LINE
  5
B4D9
330
B2B7
100
AcDbEntity
  8
1
  6
Continuous
100
AcDbLine
 10
302.1143589999998
 20
387.747775
 30
0.0
 11
323.1143589999998
 21
387.747775
 31
0.0
  0
LINE
  5
B4DA
330
B2B7
100
AcDbEntity
  8
1
  6
Continuous
100
AcDbLine
 10
301.914338
 20
391.2477749999998
 30
0.0
 11
323.3143379999999
 21
391.2477749999998
 31
0.0
  0
LINE
  5
B4DB
330
B2B7
100
AcDbEntity
  8
1
  6
Continuous
100
AcDbLine
 10
306.6143589999999
 20
395.2477749999998
 30
0.0
 11
306.6143589999999
 21
395.7477749999998
 31
0.0
  0
LINE
  5
B4DC
330
B2B7
100
AcDbEntity
  8
1
  6
Continuous
100
AcDbLine
 10
303.1143589999999
 20
391.2477749999998
 30
0.0
 11
303.1143589999999
 21
387.747775
 31
0.0
  0
LINE
  5
B4DD
330
B2B7
100
AcDbEntity
  8
1
  6
Continuous
100
AcDbLine
 10
301.914338
 20
395.2477749999998
 30
0.0
 11
301.914338
 21
391.2477749999998
 31
0.0
  0
LINE
  5
B4DE
330
B2B7
100
AcDbEntity
  8
1
  6
Continuous
100
AcDbLine
 10
317.1143589999999
 20
397.2477749999998
 30
0.0
 11
308.1143589999999
 21
397.2477749999998
 31
0.0
  0
LINE
  5
B4DF
330
B2B7
100
AcDbEntity
  8
1
  6
Continuous
100
AcDbLine
 10
317.0220019999998
 20
395.2477749999998
 30
0.0
 11
317.0220019999998
 21
391.2477749999998
 31
0.0
  0
LINE
  5
B4E0
330
B2B7
100
AcDbEntity
  8
1
  6
Continuous
100
AcDbLine
 10
308.206674
 20
395.2477749999998
 30
0.0
 11
308.206674
 21
391.2477749999998
 31
0.0
  0
LINE
  5
B4E1
330
B2B7
100
AcDbEntity
  8
1
  6
Continuous
100
AcDbLine
 10
322.114359
 20
391.2477749999998
 30
0.0
 11
322.114359
 21
387.747775
 31
0.0
  0
LINE
  5
B4E2
330
B2B7
100
AcDbEntity
  8
1
  6
Continuous
100
AcDbLine
 10
323.3143379999999
 20
395.2477749999998
 30
0.0
 11
323.3143379999999
 21
391.2477749999998
 31
0.0
  0
LINE
  5
B4E3
330
B2B7
100
AcDbEntity
  8
1
  6
Continuous
100
AcDbLine
 10
318.6143589999999
 20
395.2477749999998
 30
0.0
 11
318.6143589999999
 21
395.7477749999998
 31
0.0
  0
LINE
  5
B4E4
330
B2B7
100
AcDbEntity
  8
1
  6
Continuous
100
AcDbLine
 10
317.1143589999999
 20
397.2477749999998
 30
0.0
 11
318.6143589999999
 21
395.7477749999998
 31
0.0
  0
LINE
  5
B4E5
330
B2B7
100
AcDbEntity
  8
2
  6
Continuous
100
AcDbLine
 10
307.290838
 20
396.424254
 30
0.0
 11
307.290838
 21
395.2477749999998
 31
0.0
  0
LINE
  5
B4E6
330
B2B7
100
AcDbEntity
  8
2
  6
Continuous
100
AcDbLine
 10
317.937838
 20
396.424254
 30
0.0
 11
317.937838
 21
395.2477749999998
 31
0.0
  0
ARC
  5
B4E7
330
B2B7
100
AcDbEntity
  8
1
  6
Continuous
100
AcDbCircle
 10
374.1492339999999
 20
342.4477749999998
 30
0.0
 40
294.9666669999999
100
AcDbArc
 50
357.415666
 51
2.584334
  0
LINE
  5
B4E8
330
B2B7
100
AcDbEntity
  8
1
  6
Continuous
100
AcDbLine
 10
671.3159009999999
 20
323.847775
 30
0.0
 11
645.3159009999999
 21
323.847775
 31
0.0
  0
LINE
  5
B4E9
330
B2B7
100
AcDbEntity
  8
1
  6
Continuous
100
AcDbLine
 10
671.3159009999999
 20
322.2477749999999
 30
0.0
 11
645.3159009999999
 21
322.2477749999999
 31
0.0
  0
LINE
  5
B4EA
330
B2B7
100
AcDbEntity
  8
1
  6
Continuous
100
AcDbLine
 10
670.44038
 20
322.2477749999999
 30
0.0
 11
646.1913799999997
 21
322.2477749999999
 31
0.0
  0
LINE
  5
B4EB
330
B2B7
100
AcDbEntity
  8
1
  6
Continuous
100
AcDbLine
 10
647.8159009999999
 20
329.147775
 30
0.0
 11
668.8159009999999
 21
329.147775
 31
0.0
  0
LINE
  5
B4EC
330
B2B7
100
AcDbEntity
  8
1
  6
Continuous
100
AcDbLine
 10
664.3778799999997
 20
322.2477749999999
 30
0.0
 11
664.3778799999997
 21
318.2477749999998
 31
0.0
  0
ARC
  5
B4ED
330
B2B7
100
AcDbEntity
  8
1
  6
Continuous
100
AcDbCircle
 10
667.8159009999999
 20
324.847775
 30
0.0
 40
1.0
100
AcDbArc
 50
270.0
 51
0.0
  0
LINE
  5
B4EE
330
B2B7
100
AcDbEntity
  8
1
  6
Continuous
100
AcDbLine
 10
670.44038
 20
322.2477749999999
 30
0.0
 11
670.44038
 21
318.2477749999998
 31
0.0
  0
LINE
  5
B4EF
330
B2B7
100
AcDbEntity
  8
1
  6
Continuous
100
AcDbLine
 10
671.3159009999999
 20
322.2477749999999
 30
0.0
 11
671.3159009999999
 21
323.847775
 31
0.0
  0
LINE
  5
B4F0
330
B2B7
100
AcDbEntity
  8
1
  6
Continuous
100
AcDbLine
 10
668.8159009999999
 20
324.847775
 30
0.0
 11
668.8159009999999
 21
329.147775
 31
0.0
  0
LINE
  5
B4F1
330
B2B7
100
AcDbEntity
  8
2
  6
Continuous
100
AcDbLine
 10
663.6393799999997
 20
396.424254
 30
0.0
 11
663.6393799999997
 21
395.2477749999998
 31
0.0
  0
LINE
  5
B4F2
330
B2B7
100
AcDbEntity
  8
1
  6
Continuous
100
AcDbLine
 10
662.8159009999999
 20
397.2477749999998
 30
0.0
 11
664.3159009999999
 21
395.7477749999998
 31
0.0
  0
ARC
  5
B4F3
330
B2B7
100
AcDbEntity
  8
1
  6
Continuous
100
AcDbCircle
 10
332.8992339999999
 20
373.547775
 30
0.0
 40
336.2166669999999
100
AcDbArc
 50
357.5794119999998
 51
2.420587999999999
  0
LINE
  5
B4F4
330
B2B7
100
AcDbEntity
  8
1
  6
Continuous
100
AcDbLine
 10
648.8159009999999
 20
358.347775
 30
0.0
 11
667.8159009999999
 21
358.347775
 31
0.0
  0
LINE
  5
B4F5
330
B2B7
100
AcDbEntity
  8
1
  6
Continuous
100
AcDbLine
 10
648.8159009999999
 20
356.747775
 30
0.0
 11
667.8159009999999
 21
356.747775
 31
0.0
  0
ARC
  5
B4F6
330
B2B7
100
AcDbEntity
  8
1
  6
Continuous
100
AcDbCircle
 10
667.8159009999999
 20
359.347775
 30
0.0
 40
1.0
100
AcDbArc
 50
270.0
 51
0.0
  0
LINE
  5
B4F7
330
B2B7
100
AcDbEntity
  8
1
  6
Continuous
100
AcDbLine
 10
667.215901
 20
358.347775
 30
0.0
 11
667.215901
 21
356.747775
 31
0.0
  0
ARC
  5
B4F8
330
B2B7
100
AcDbEntity
  8
1
  6
Continuous
100
AcDbCircle
 10
667.8159009999999
 20
355.7477749999998
 30
0.0
 40
1.0
100
AcDbArc
 50
0.0
 51
90.0
  0
LINE
  5
B4F9
330
B2B7
100
AcDbEntity
  8
1
  6
Continuous
100
AcDbLine
 10
664.3159009999999
 20
395.7477749999998
 30
0.0
 11
652.3159009999999
 21
395.7477749999998
 31
0.0
  0
LINE
  5
B4FA
330
B2B7
100
AcDbEntity
  8
1
  6
Continuous
100
AcDbLine
 10
647.6158799999998
 20
395.2477749999998
 30
0.0
 11
669.0158799999998
 21
395.2477749999998
 31
0.0
  0
LINE
  5
B4FB
330
B2B7
100
AcDbEntity
  8
1
  6
Continuous
100
AcDbLine
 10
647.8159009999999
 20
387.747775
 30
0.0
 11
668.8159009999999
 21
387.747775
 31
0.0
  0
LINE
  5
B4FC
330
B2B7
100
AcDbEntity
  8
1
  6
Continuous
100
AcDbLine
 10
647.6158799999998
 20
391.2477749999998
 30
0.0
 11
669.0158799999998
 21
391.2477749999998
 31
0.0
  0
LINE
  5
B4FD
330
B2B7
100
AcDbEntity
  8
1
  6
Continuous
100
AcDbLine
 10
662.7235439999998
 20
395.2477749999998
 30
0.0
 11
662.7235439999998
 21
391.2477749999998
 31
0.0
  0
LINE
  5
B4FE
330
B2B7
100
AcDbEntity
  8
1
  6
Continuous
100
AcDbLine
 10
664.3159009999999
 20
395.2477749999998
 30
0.0
 11
664.3159009999999
 21
395.7477749999998
 31
0.0
  0
LINE
  5
B4FF
330
B2B7
100
AcDbEntity
  8
1
  6
Continuous
100
AcDbLine
 10
667.8159009999999
 20
391.2477749999998
 30
0.0
 11
667.8159009999999
 21
387.747775
 31
0.0
  0
LINE
  5
B500
330
B2B7
100
AcDbEntity
  8
1
  6
Continuous
100
AcDbLine
 10
669.0158799999998
 20
395.2477749999998
 30
0.0
 11
669.0158799999998
 21
391.2477749999998
 31
0.0
  0
LINE
  5
B501
330
B2B7
100
AcDbEntity
  8
1
  6
Continuous
100
AcDbLine
 10
662.8159009999999
 20
397.2477749999998
 30
0.0
 11
653.8159010000001
 21
397.2477749999998
 31
0.0
  0
ARC
  5
B502
330
B2B7
100
AcDbEntity
  8
1
  6
Continuous
100
AcDbCircle
 10
942.482567
 20
342.4477749999998
 30
0.0
 40
294.9666669999999
100
AcDbArc
 50
177.3980899999999
 51
182.584334
  0
LINE
  5
B503
330
B2B7
100
AcDbEntity
  8
1
  6
Continuous
100
AcDbLine
 10
646.1913799999997
 20
322.2477749999999
 30
0.0
 11
646.1913799999997
 21
318.2477749999998
 31
0.0
  0
LINE
  5
B504
330
B2B7
100
AcDbEntity
  8
1
  6
Continuous
100
AcDbLine
 10
645.3159009999999
 20
323.847775
 30
0.0
 11
645.3159009999999
 21
322.2477749999999
 31
0.0
  0
LINE
  5
B505
330
B2B7
100
AcDbEntity
  8
1
  6
Continuous
100
AcDbLine
 10
652.2538799999997
 20
322.2477749999999
 30
0.0
 11
652.2538799999997
 21
318.2477749999998
 31
0.0
  0
ARC
  5
B506
330
B2B7
100
AcDbEntity
  8
1
  6
Continuous
100
AcDbCircle
 10
648.8159009999999
 20
324.847775
 30
0.0
 40
1.0
100
AcDbArc
 50
180.0
 51
270.0
  0
LINE
  5
B507
330
B2B7
100
AcDbEntity
  8
1
  6
Continuous
100
AcDbLine
 10
647.8159009999999
 20
324.847775
 30
0.0
 11
647.8159009999999
 21
329.147775
 31
0.0
  0
LINE
  5
B508
330
B2B7
100
AcDbEntity
  8
2
  6
Continuous
100
AcDbLine
 10
652.99238
 20
396.424254
 30
0.0
 11
652.99238
 21
395.2477749999998
 31
0.0
  0
LINE
  5
B509
330
B2B7
100
AcDbEntity
  8
1
  6
Continuous
100
AcDbLine
 10
653.8159010000001
 20
397.2477749999998
 30
0.0
 11
652.3159009999999
 21
395.7477749999998
 31
0.0
  0
ARC
  5
B50A
330
B2B7
100
AcDbEntity
  8
1
  6
Continuous
100
AcDbCircle
 10
983.732567
 20
373.547775
 30
0.0
 40
336.2166669999999
100
AcDbArc
 50
177.579412
 51
182.4350259999999
  0
ARC
  5
B50B
330
B2B7
100
AcDbEntity
  8
1
  6
Continuous
100
AcDbCircle
 10
648.8159009999999
 20
359.347775
 30
0.0
 40
1.0
100
AcDbArc
 50
180.0
 51
270.0
  0
LINE
  5
B50C
330
B2B7
100
AcDbEntity
  8
1
  6
Continuous
100
AcDbLine
 10
649.4159009999997
 20
356.747775
 30
0.0
 11
649.4159009999997
 21
358.347775
 31
0.0
  0
ARC
  5
B50D
330
B2B7
100
AcDbEntity
  8
1
  6
Continuous
100
AcDbCircle
 10
648.8159009999999
 20
355.7477749999998
 30
0.0
 40
1.0
100
AcDbArc
 50
90.0
 51
180.0
  0
LINE
  5
B50E
330
B2B7
100
AcDbEntity
  8
1
  6
Continuous
100
AcDbLine
 10
652.3159009999999
 20
395.2477749999998
 30
0.0
 11
652.3159009999999
 21
395.7477749999998
 31
0.0
  0
LINE
  5
B50F
330
B2B7
100
AcDbEntity
  8
1
  6
Continuous
100
AcDbLine
 10
648.8159009999999
 20
391.2477749999998
 30
0.0
 11
648.8159009999999
 21
387.747775
 31
0.0
  0
LINE
  5
B510
330
B2B7
100
AcDbEntity
  8
1
  6
Continuous
100
AcDbLine
 10
647.6158799999998
 20
395.2477749999998
 30
0.0
 11
647.6158799999998
 21
391.2477749999998
 31
0.0
  0
LINE
  5
B511
330
B2B7
100
AcDbEntity
  8
1
  6
Continuous
100
AcDbLine
 10
653.908216
 20
395.2477749999998
 30
0.0
 11
653.908216
 21
391.2477749999998
 31
0.0
  0
LINE
  5
B512
330
B2B7
100
AcDbEntity
  8
1
  6
Continuous
100
AcDbLine
 10
61.50595899999999
 20
387.747775
 30
0.0
 11
82.50595899999998
 21
387.747775
 31
0.0
  0
ARC
  5
B513
330
B2B7
100
AcDbEntity
  8
1
  6
Continuous
100
AcDbCircle
 10
81.50595899999997
 20
359.347775
 30
0.0
 40
1.0
100
AcDbArc
 50
270.0
 51
0.0
  0
ARC
  5
B514
330
B2B7
100
AcDbEntity
  8
1
  6
Continuous
100
AcDbCircle
 10
81.50595899999997
 20
355.7477749999998
 30
0.0
 40
1.0
100
AcDbArc
 50
0.0
 51
90.0
  0
ARC
  5
B515
330
B2B7
100
AcDbEntity
  8
1
  6
Continuous
100
AcDbCircle
 10
81.50595899999997
 20
324.847775
 30
0.0
 40
1.0
100
AcDbArc
 50
270.0
 51
0.0
  0
LINE
  5
B516
330
B2B7
100
AcDbEntity
  8
1
  6
Continuous
100
AcDbLine
 10
85.00595899999998
 20
323.847775
 30
0.0
 11
59.00595899999999
 21
323.847775
 31
0.0
  0
LINE
  5
B517
330
B2B7
100
AcDbEntity
  8
1
  6
Continuous
100
AcDbLine
 10
85.00595899999998
 20
322.2477749999999
 30
0.0
 11
59.00595899999999
 21
322.2477749999999
 31
0.0
  0
LINE
  5
B518
330
B2B7
100
AcDbEntity
  8
1
  6
Continuous
100
AcDbLine
 10
61.50595899999999
 20
329.147775
 30
0.0
 11
82.50595899999998
 21
329.147775
 31
0.0
  0
LINE
  5
B519
330
B2B7
100
AcDbEntity
  8
2
  6
Continuous
100
AcDbLine
 10
77.329459
 20
396.424254
 30
0.0
 11
77.329459
 21
395.2477749999998
 31
0.0
  0
LINE
  5
B51A
330
B2B7
100
AcDbEntity
  8
1
  6
Continuous
100
AcDbLine
 10
76.50595899999998
 20
397.2477749999998
 30
0.0
 11
78.00595899999997
 21
395.7477749999998
 31
0.0
  0
LINE
  5
B51B
330
B2B7
100
AcDbEntity
  8
1
  6
Continuous
100
AcDbLine
 10
62.505959
 20
358.347775
 30
0.0
 11
81.50595899999997
 21
358.347775
 31
0.0
  0
LINE
  5
B51C
330
B2B7
100
AcDbEntity
  8
1
  6
Continuous
100
AcDbLine
 10
62.505959
 20
356.747775
 30
0.0
 11
81.50595899999997
 21
356.747775
 31
0.0
  0
LINE
  5
B51D
330
B2B7
100
AcDbEntity
  8
1
  6
Continuous
100
AcDbLine
 10
80.90595899999998
 20
358.347775
 30
0.0
 11
80.90595899999998
 21
356.747775
 31
0.0
  0
LINE
  5
B51E
330
B2B7
100
AcDbEntity
  8
1
  6
Continuous
100
AcDbLine
 10
62.255959
 20
395.2477749999998
 30
0.0
 11
81.75595899999997
 21
395.2477749999998
 31
0.0
  0
LINE
  5
B51F
330
B2B7
100
AcDbEntity
  8
1
  6
Continuous
100
AcDbLine
 10
62.255959
 20
391.2477749999998
 30
0.0
 11
81.75595899999997
 21
391.2477749999998
 31
0.0
  0
LINE
  5
B520
330
B2B7
100
AcDbEntity
  8
1
  6
Continuous
100
AcDbLine
 10
78.00595899999997
 20
395.7477749999998
 30
0.0
 11
66.00595899999999
 21
395.7477749999998
 31
0.0
  0
LINE
  5
B521
330
B2B7
100
AcDbEntity
  8
1
  6
Continuous
100
AcDbLine
 10
81.50595899999997
 20
391.2477749999998
 30
0.0
 11
81.50595899999997
 21
387.747775
 31
0.0
  0
LINE
  5
B522
330
B2B7
100
AcDbEntity
  8
1
  6
Continuous
100
AcDbLine
 10
81.75595899999997
 20
391.2477749999998
 30
0.0
 11
81.75595899999997
 21
395.2477749999998
 31
0.0
  0
LINE
  5
B523
330
B2B7
100
AcDbEntity
  8
1
  6
Continuous
100
AcDbLine
 10
78.00595899999997
 20
395.2477749999998
 30
0.0
 11
78.00595899999997
 21
395.7477749999998
 31
0.0
  0
LINE
  5
B524
330
B2B7
100
AcDbEntity
  8
1
  6
Continuous
100
AcDbLine
 10
76.50595899999998
 20
397.2477749999998
 30
0.0
 11
67.50595899999999
 21
397.2477749999998
 31
0.0
  0
ARC
  5
B525
330
B2B7
100
AcDbEntity
  8
1
  6
Continuous
100
AcDbCircle
 10
-212.1607079999999
 20
342.4477749999998
 30
0.0
 40
294.9666669999999
100
AcDbArc
 50
357.415666
 51
2.584334
  0
LINE
  5
B526
330
B2B7
100
AcDbEntity
  8
1
  6
Continuous
100
AcDbLine
 10
82.50595899999998
 20
324.847775
 30
0.0
 11
82.50595899999998
 21
329.147775
 31
0.0
  0
LINE
  5
B527
330
B2B7
100
AcDbEntity
  8
1
  6
Continuous
100
AcDbLine
 10
85.00595899999998
 20
322.2477749999999
 30
0.0
 11
85.00595899999998
 21
323.847775
 31
0.0
  0
LINE
  5
B528
330
B2B7
100
AcDbEntity
  8
1
  6
Continuous
100
AcDbLine
 10
82.50595899999998
 20
318.2477749999998
 30
0.0
 11
82.50595899999998
 21
322.2477749999999
 31
0.0
  0
ARC
  5
B529
330
B2B7
100
AcDbEntity
  8
1
  6
Continuous
100
AcDbCircle
 10
-253.410708
 20
373.547775
 30
0.0
 40
336.2166669999999
100
AcDbArc
 50
357.564974
 51
2.420587999999999
  0
ARC
  5
B52A
330
B2B7
100
AcDbEntity
  8
1
  6
Continuous
100
AcDbCircle
 10
356.1726249999999
 20
342.4477749999998
 30
0.0
 40
294.9666669999999
100
AcDbArc
 50
177.3980899999999
 51
182.584334
  0
ARC
  5
B52B
330
B2B7
100
AcDbEntity
  8
1
  6
Continuous
100
AcDbCircle
 10
62.505959
 20
324.847775
 30
0.0
 40
1.0
100
AcDbArc
 50
180.0
 51
270.0
  0
LINE
  5
B52C
330
B2B7
100
AcDbEntity
  8
1
  6
Continuous
100
AcDbLine
 10
59.00595899999999
 20
323.847775
 30
0.0
 11
59.00595899999999
 21
322.2477749999999
 31
0.0
  0
LINE
  5
B52D
330
B2B7
100
AcDbEntity
  8
1
  6
Continuous
100
AcDbLine
 10
61.50595899999999
 20
324.847775
 30
0.0
 11
61.50595899999999
 21
329.147775
 31
0.0
  0
LINE
  5
B52E
330
B2B7
100
AcDbEntity
  8
1
  6
Continuous
100
AcDbLine
 10
61.50595899999999
 20
318.2477749999998
 30
0.0
 11
61.50595899999999
 21
322.2477749999999
 31
0.0
  0
LINE
  5
B52F
330
B2B7
100
AcDbEntity
  8
2
  6
Continuous
100
AcDbLine
 10
66.68245899999999
 20
396.424254
 30
0.0
 11
66.68245899999999
 21
395.2477749999998
 31
0.0
  0
LINE
  5
B530
330
B2B7
100
AcDbEntity
  8
1
  6
Continuous
100
AcDbLine
 10
67.50595899999999
 20
397.2477749999998
 30
0.0
 11
66.00595899999999
 21
395.7477749999998
 31
0.0
  0
ARC
  5
B531
330
B2B7
100
AcDbEntity
  8
1
  6
Continuous
100
AcDbCircle
 10
397.422625
 20
373.547775
 30
0.0
 40
336.2166669999999
100
AcDbArc
 50
177.579412
 51
182.4350259999999
  0
ARC
  5
B532
330
B2B7
100
AcDbEntity
  8
1
  6
Continuous
100
AcDbCircle
 10
62.505959
 20
359.347775
 30
0.0
 40
1.0
100
AcDbArc
 50
180.0
 51
270.0
  0
ARC
  5
B533
330
B2B7
100
AcDbEntity
  8
1
  6
Continuous
100
AcDbCircle
 10
62.505959
 20
355.7477749999998
 30
0.0
 40
1.0
100
AcDbArc
 50
90.0
 51
180.0
  0
LINE
  5
B534
330
B2B7
100
AcDbEntity
  8
1
  6
Continuous
100
AcDbLine
 10
63.105959
 20
356.747775
 30
0.0
 11
63.105959
 21
358.347775
 31
0.0
  0
LINE
  5
B535
330
B2B7
100
AcDbEntity
  8
1
  6
Continuous
100
AcDbLine
 10
66.00595899999999
 20
395.2477749999998
 30
0.0
 11
66.00595899999999
 21
395.7477749999998
 31
0.0
  0
LINE
  5
B536
330
B2B7
100
AcDbEntity
  8
1
  6
Continuous
100
AcDbLine
 10
62.505959
 20
391.2477749999998
 30
0.0
 11
62.505959
 21
387.747775
 31
0.0
  0
LINE
  5
B537
330
B2B7
100
AcDbEntity
  8
1
  6
Continuous
100
AcDbLine
 10
62.255959
 20
391.2477749999998
 30
0.0
 11
62.255959
 21
395.2477749999998
 31
0.0
  0
LINE
  5
B538
330
B2B7
100
AcDbEntity
  8
1
  6
Continuous
100
AcDbLine
 10
103.005959
 20
228.2477749999999
 30
0.0
 11
103.005959
 21
220.2477749999999
 31
0.0
  0
LINE
  5
B539
330
B2B7
100
AcDbEntity
  8
1
  6
Continuous
100
AcDbLine
 10
263.6143379999999
 20
451.048598
 30
0.0
 11
271.6143379999999
 21
451.048598
 31
0.0
  0
LINE
  5
B53A
330
B2B7
100
AcDbEntity
  8
1
  6
Continuous
100
AcDbLine
 10
263.6143379999999
 20
107.0321629999998
 30
0.0
 11
271.6143379999999
 21
107.0321629999998
 31
0.0
  0
LINE
  5
B53B
330
B2B7
100
AcDbEntity
  8
1
  6
Continuous
100
AcDbLine
 10
449.4651089999998
 20
228.2477749999999
 30
0.0
 11
449.4651089999998
 21
220.2477749999999
 31
0.0
  0
LINE
  5
B53C
330
B2B7
100
AcDbEntity
  8
1
  6
Continuous
100
AcDbLine
 10
510.929211
 20
227.7118769999999
 30
0.0
 11
506.588362
 21
227.7118769999999
 31
0.0
  0
ARC
  5
B53D
330
B2B7
100
AcDbEntity
  8
1
  6
Continuous
100
AcDbCircle
 10
500.001008
 20
224.2477749999999
 30
0.0
 40
11.464102
100
AcDbArc
 50
342.4120459999999
 51
17.587954
  0
ARC
  5
B53E
330
B2B7
100
AcDbEntity
  8
1
  6
Continuous
100
AcDbCircle
 10
508.398122
 20
229.4439279999998
 30
0.0
 40
3.066986999999998
100
AcDbArc
 50
325.6157529999999
 51
25.615753
  0
LINE
  5
B53F
330
B2B7
100
AcDbEntity
  8
1
  6
Continuous
100
AcDbLine
 10
511.4651089999998
 20
230.2477749999999
 30
0.0
 11
511.4651089999998
 21
218.2477749999999
 31
0.0
  0
LINE
  5
B540
330
B2B7
100
AcDbEntity
  8
1
  6
Continuous
100
AcDbLine
 10
510.929211
 20
231.175978
 30
0.0
 11
506.5323519999998
 21
231.175978
 31
0.0
  0
LINE
  5
B541
330
B2B7
100
AcDbEntity
  8
1
  6
Continuous
100
AcDbLine
 10
510.929211
 20
231.175978
 30
0.0
 11
511.4651089999998
 21
230.2477749999999
 31
0.0
  0
LINE
  5
B542
330
B2B7
100
AcDbEntity
  8
1
  6
Continuous
100
AcDbLine
 10
510.929211
 20
220.7836739999999
 30
0.0
 11
505.965109
 21
220.7836739999999
 31
0.0
  0
ARC
  5
B543
330
B2B7
100
AcDbEntity
  8
1
  6
Continuous
100
AcDbCircle
 10
508.398122
 20
219.051623
 30
0.0
 40
3.066986999999998
100
AcDbArc
 50
334.384247
 51
34.38424699999998
  0
LINE
  5
B544
330
B2B7
100
AcDbEntity
  8
1
  6
Continuous
100
AcDbLine
 10
510.929211
 20
217.3195719999999
 30
0.0
 11
505.965109
 21
217.3195719999999
 31
0.0
  0
LINE
  5
B545
330
B2B7
100
AcDbEntity
  8
1
  6
Continuous
100
AcDbLine
 10
510.929211
 20
217.3195719999999
 30
0.0
 11
511.4651089999998
 21
218.2477749999999
 31
0.0
  0
LINE
  5
B546
330
B2B7
100
AcDbEntity
  8
1
  6
Continuous
100
AcDbLine
 10
505.965109
 20
221.6806309999999
 30
0.0
 11
505.965109
 21
217.3195719999999
 31
0.0
  0
LINE
  5
B547
330
B2B7
100
AcDbEntity
  8
1
  6
Continuous
100
AcDbLine
 10
505.965109
 20
221.6806309999999
 30
0.0
 11
505.965109
 21
216.7477749999999
 31
0.0
  0
LINE
  5
B548
330
B2B7
100
AcDbEntity
  8
1
  6
Continuous
100
AcDbLine
 10
505.965109
 20
216.7477749999999
 30
0.0
 11
503.6651089999998
 21
216.7477749999999
 31
0.0
  0
ARC
  5
B549
330
B2B7
100
AcDbEntity
  8
1
  6
Continuous
100
AcDbCircle
 10
267.6143379999999
 20
224.2477749999999
 30
0.0
 40
25.860509
100
AcDbArc
 50
57.955344
 51
6.044658
  0
ARC
  5
B54A
330
B2B7
100
AcDbEntity
  8
1
  6
Continuous
100
AcDbCircle
 10
703.3158799999996
 20
224.2477749999999
 30
0.0
 40
25.860509
100
AcDbArc
 50
173.955342
 51
122.044656
  0
ARC
  5
B54B
330
B2B7
100
AcDbEntity
  8
1
  6
Continuous
100
AcDbCircle
 10
267.6143379999999
 20
224.2477749999999
 30
0.0
 40
45.0
100
AcDbArc
 50
51.324581
 51
16.50660199999999
  0
ARC
  5
B552
330
B2B7
100
AcDbEntity
  8
1
  6
Continuous
100
AcDbCircle
 10
703.3158799999996
 20
224.2477749999999
 30
0.0
 40
45.0
100
AcDbArc
 50
163.4933979999999
 51
128.675419
  0
ARC
  5
B555
330
B2B7
100
AcDbEntity
  8
1
  6
Continuous
100
AcDbCircle
 10
290.136247
 20
523.520054
 30
0.0
 40
67.671456
100
AcDbArc
 50
289.4002369999999
 51
298.4582930000001
  0
ARC
  5
B556
330
B2B7
100
AcDbEntity
  8
1
  6
Continuous
100
AcDbCircle
 10
290.136247
 20
440.5771419999998
 30
0.0
 40
67.671456
100
AcDbArc
 50
61.54170699999998
 51
70.59976299999998
  0
ARC
  5
B557
330
B2B7
100
AcDbEntity
  8
1
  6
Continuous
100
AcDbCircle
 10
312.6143379999998
 20
482.0485979999999
 30
0.0
 40
20.5
100
AcDbArc
 50
118.233118
 51
241.7668819999998
  0
LINE
  5
B558
330
B2B7
100
AcDbEntity
  8
1
  6
Continuous
100
AcDbLine
 10
312.6143379999998
 20
459.690896
 30
0.0
 11
282.949381
 21
456.5000069999999
 31
0.0
  0
LINE
  5
B559
330
B2B7
100
AcDbEntity
  8
1
  6
Continuous
100
AcDbLine
 10
305.426849
 20
464.298598
 30
0.0
 11
285.564025
 21
459.699754
 31
0.0
  0
LINE
  5
B55A
330
B2B7
100
AcDbEntity
  8
1
  6
Continuous
100
AcDbLine
 10
305.426849
 20
464.298598
 30
0.0
 11
281.893715
 21
461.381913
 31
0.0
  0
LINE
  5
B55B
330
B2B7
100
AcDbEntity
  8
1
  6
Continuous
100
AcDbLine
 10
278.1143379999999
 20
461.148598
 30
0.0
 11
257.1143379999999
 21
461.148598
 31
0.0
  0
LINE
  5
B55C
330
B2B7
100
AcDbEntity
  8
1
  6
Continuous
100
AcDbLine
 10
278.1143379999999
 20
458.8485979999998
 30
0.0
 11
257.1143379999999
 21
458.8485979999998
 31
0.0
  0
ARC
  5
B55D
330
B2B7
100
AcDbEntity
  8
1
  6
Continuous
100
AcDbCircle
 10
261.7428129999999
 20
390.6555389999999
 30
0.0
 40
68.19305799999999
100
AcDbArc
 50
77.93721399999999
 51
90.0
  0
ARC
  5
B55E
330
B2B7
100
AcDbEntity
  8
1
  6
Continuous
100
AcDbCircle
 10
281.879907
 20
466.442653
 30
0.0
 40
10.0
100
AcDbArc
 50
261.7691619999998
 51
276.1393739999999
  0
ARC
  5
B55F
330
B2B7
100
AcDbEntity
  8
1
  6
Continuous
100
AcDbCircle
 10
278.1143379999999
 20
491.875625
 30
0.0
 40
30.72702700000001
100
AcDbArc
 50
270.0
 51
277.0651829999998
  0
ARC
  5
B560
330
B2B7
100
AcDbEntity
  8
1
  6
Continuous
100
AcDbCircle
 10
278.1143379999999
 20
491.875625
 30
0.0
 40
33.02702699999999
100
AcDbArc
 50
270.0
 51
283.0360069999999
  0
ARC
  5
B561
330
B2B7
100
AcDbEntity
  8
1
  6
Continuous
100
AcDbCircle
 10
290.136247
 20
523.520054
 30
0.0
 40
67.671456
100
AcDbArc
 50
257.937214
 51
261.7691619999998
  0
LINE
  5
B562
330
B2B7
100
AcDbEntity
  8
1
  6
Continuous
100
AcDbLine
 10
312.6143379999998
 20
504.4063
 30
0.0
 11
282.949381
 21
507.5971899999998
 31
0.0
  0
LINE
  5
B563
330
B2B7
100
AcDbEntity
  8
1
  6
Continuous
100
AcDbLine
 10
305.426849
 20
499.798598
 30
0.0
 11
281.893715
 21
502.715284
 31
0.0
  0
LINE
  5
B564
330
B2B7
100
AcDbEntity
  8
1
  6
Continuous
100
AcDbLine
 10
305.426849
 20
499.798598
 30
0.0
 11
285.564025
 21
504.397442
 31
0.0
  0
ARC
  5
B565
330
B2B7
100
AcDbEntity
  8
1
  6
Continuous
100
AcDbCircle
 10
261.7428129999999
 20
573.4416569999998
 30
0.0
 40
68.19305799999999
100
AcDbArc
 50
270.0
 51
282.0627859999999
  0
LINE
  5
B566
330
B2B7
100
AcDbEntity
  8
1
  6
Continuous
100
AcDbLine
 10
278.1143379999999
 20
502.948598
 30
0.0
 11
257.1143379999999
 21
502.948598
 31
0.0
  0
LINE
  5
B567
330
B2B7
100
AcDbEntity
  8
1
  6
Continuous
100
AcDbLine
 10
278.1143379999999
 20
505.2485980000001
 30
0.0
 11
257.1143379999999
 21
505.2485980000001
 31
0.0
  0
ARC
  5
B568
330
B2B7
100
AcDbEntity
  8
1
  6
Continuous
100
AcDbCircle
 10
278.1143379999999
 20
472.2215709999998
 30
0.0
 40
30.72702700000001
100
AcDbArc
 50
82.93481699999999
 51
90.0
  0
ARC
  5
B569
330
B2B7
100
AcDbEntity
  8
1
  6
Continuous
100
AcDbCircle
 10
278.1143379999999
 20
472.2215709999998
 30
0.0
 40
33.02702699999999
100
AcDbArc
 50
76.96399300000002
 51
90.0
  0
ARC
  5
B56A
330
B2B7
100
AcDbEntity
  8
1
  6
Continuous
100
AcDbCircle
 10
281.879907
 20
497.6545429999998
 30
0.0
 40
10.0
100
AcDbArc
 50
83.86062599999998
 51
98.23083800000004
  0
ARC
  5
B56B
330
B2B7
100
AcDbEntity
  8
1
  6
Continuous
100
AcDbCircle
 10
290.136247
 20
440.5771419999998
 30
0.0
 40
67.671456
100
AcDbArc
 50
98.23083800000004
 51
102.0627859999998
  0
ARC
  5
B56C
330
B2B7
100
AcDbEntity
  8
1
  6
Continuous
100
AcDbCircle
 10
312.6143379999998
 20
482.0485979999999
 30
0.0
 40
20.5
100
AcDbArc
 50
298.4582939999999
 51
61.54170699999998
  0
ARC
  5
B56D
330
B2B7
100
AcDbEntity
  8
1
  6
Continuous
100
AcDbCircle
 10
312.6143379999998
 20
76.03216299999998
 30
0.0
 40
20.5
100
AcDbArc
 50
298.4582939999999
 51
61.558737
  0
ARC
  5
B56E
330
B2B7
100
AcDbEntity
  8
1
  6
Continuous
100
AcDbCircle
 10
312.6143379999998
 20
76.03216299999998
 30
0.0
 40
18.2
100
AcDbArc
 50
27.25077000000001
 51
142.814637
  0
ARC
  5
B56F
330
B2B7
100
AcDbEntity
  8
1
  6
Continuous
100
AcDbCircle
 10
287.9866859999999
 20
157.7033679999999
 30
0.0
 40
105.4609539999999
100
AcDbArc
 50
265.2354159999998
 51
289.0353769999999
  0
ARC
  5
B570
330
B2B7
100
AcDbEntity
  8
1
  6
Continuous
100
AcDbCircle
 10
290.136247
 20
117.5036189999999
 30
0.0
 40
67.671456
100
AcDbArc
 50
289.4002369999999
 51
298.4582930000001
  0
ARC
  5
B571
330
B2B7
100
AcDbEntity
  8
1
  6
Continuous
100
AcDbCircle
 10
312.6143379999998
 20
76.03216299999998
 30
0.0
 40
18.2
100
AcDbArc
 50
217.185363
 51
332.7492299999998
  0
LINE
  5
B572
330
B2B7
100
AcDbEntity
  8
1
  6
Continuous
100
AcDbLine
 10
312.6143379999998
 20
53.674461
 30
0.0
 11
282.949381
 21
50.483571
 31
0.0
  0
ARC
  5
B573
330
B2B7
100
AcDbEntity
  8
1
  6
Continuous
100
AcDbCircle
 10
291.3875669999999
 20
130.3123809999999
 30
0.0
 40
76.42337499999998
100
AcDbArc
 50
260.821534
 51
290.0938029999998
  0
LINE
  5
B574
330
B2B7
100
AcDbEntity
  8
1
  6
Continuous
100
AcDbLine
 10
276.8833939999999
 20
52.832163
 30
0.0
 11
257.1143379999999
 21
52.832163
 31
0.0
  0
ARC
  5
B575
330
B2B7
100
AcDbEntity
  8
1
  6
Continuous
100
AcDbCircle
 10
261.7428129999999
 20
-15.36089599999999
 30
0.0
 40
68.19305799999999
100
AcDbArc
 50
77.93721399999999
 51
90.0
  0
LINE
  5
B576
330
B2B7
100
AcDbEntity
  8
1
  6
Continuous
100
AcDbLine
 10
278.1143379999999
 20
55.13216299999999
 30
0.0
 11
257.1143379999999
 21
55.13216299999999
 31
0.0
  0
ARC
  5
B577
330
B2B7
100
AcDbEntity
  8
1
  6
Continuous
100
AcDbCircle
 10
281.879907
 20
60.426218
 30
0.0
 40
10.0
100
AcDbArc
 50
261.7691619999998
 51
276.1393739999999
  0
ARC
  5
B578
330
B2B7
100
AcDbEntity
  8
1
  6
Continuous
100
AcDbCircle
 10
276.911868
 20
45.13216299999998
 30
0.0
 40
10.0
100
AcDbArc
 50
76.78890799999997
 51
90.0
  0
ARC
  5
B579
330
B2B7
100
AcDbEntity
  8
1
  6
Continuous
100
AcDbCircle
 10
276.8833939999999
 20
40.53216299999998
 30
0.0
 40
12.3
100
AcDbArc
 50
79.01634
 51
90.0
  0
ARC
  5
B57A
330
B2B7
100
AcDbEntity
  8
1
  6
Continuous
100
AcDbCircle
 10
290.136247
 20
117.5036189999999
 30
0.0
 40
67.671456
100
AcDbArc
 50
257.937214
 51
261.7691619999998
  0
ARC
  5
B57B
330
B2B7
100
AcDbEntity
  8
1
  6
Continuous
100
AcDbCircle
 10
287.9866859999999
 20
-5.639041999999997
 30
0.0
 40
105.4609539999999
100
AcDbArc
 50
70.964623
 51
94.76458400000002
  0
ARC
  5
B57C
330
B2B7
100
AcDbEntity
  8
1
  6
Continuous
100
AcDbCircle
 10
290.136247
 20
34.560707
 30
0.0
 40
67.671456
100
AcDbArc
 50
61.54170699999998
 51
70.59976299999998
  0
LINE
  5
B57D
330
B2B7
100
AcDbEntity
  8
1
  6
Continuous
100
AcDbLine
 10
312.6143379999998
 20
98.389865
 30
0.0
 11
282.949381
 21
101.580755
 31
0.0
  0
ARC
  5
B57E
330
B2B7
100
AcDbEntity
  8
1
  6
Continuous
100
AcDbCircle
 10
291.3875669999999
 20
21.75194499999999
 30
0.0
 40
76.42337499999998
100
AcDbArc
 50
69.90619699999999
 51
99.178466
  0
ARC
  5
B57F
330
B2B7
100
AcDbEntity
  8
1
  6
Continuous
100
AcDbCircle
 10
261.7428129999999
 20
167.4252219999999
 30
0.0
 40
68.19305799999999
100
AcDbArc
 50
270.0
 51
282.0627859999999
  0
LINE
  5
B580
330
B2B7
100
AcDbEntity
  8
1
  6
Continuous
100
AcDbLine
 10
278.1143379999999
 20
96.93216300000001
 30
0.0
 11
257.1143379999999
 21
96.93216300000001
 31
0.0
  0
LINE
  5
B581
330
B2B7
100
AcDbEntity
  8
1
  6
Continuous
100
AcDbLine
 10
276.8833939999999
 20
99.23216299999999
 30
0.0
 11
257.1143379999999
 21
99.23216299999999
 31
0.0
  0
ARC
  5
B582
330
B2B7
100
AcDbEntity
  8
1
  6
Continuous
100
AcDbCircle
 10
281.879907
 20
91.638108
 30
0.0
 40
10.0
100
AcDbArc
 50
83.86062599999998
 51
98.23083800000004
  0
ARC
  5
B583
330
B2B7
100
AcDbEntity
  8
1
  6
Continuous
100
AcDbCircle
 10
290.136247
 20
34.560707
 30
0.0
 40
67.671456
100
AcDbArc
 50
98.23083800000004
 51
102.0627859999998
  0
ARC
  5
B584
330
B2B7
100
AcDbEntity
  8
1
  6
Continuous
100
AcDbCircle
 10
276.8833939999999
 20
111.5321629999999
 30
0.0
 40
12.3
100
AcDbArc
 50
270.0
 51
280.98366
  0
ARC
  5
B585
330
B2B7
100
AcDbEntity
  8
1
  6
Continuous
100
AcDbCircle
 10
276.911868
 20
106.9321629999999
 30
0.0
 40
10.0
100
AcDbArc
 50
270.0
 51
283.211092
  0
CIRCLE
  5
B58B
330
B2B7
100
AcDbEntity
  8
1
  6
Continuous
100
AcDbCircle
 10
703.3158807071067
 20
260.247775761199
 30
0.0
 40
3.5
  0
CIRCLE
  5
B58C
330
B2B7
100
AcDbEntity
  8
1
  6
Continuous
100
AcDbCircle
 10
739.3158807611988
 20
224.2477752928931
 30
0.0
 40
3.499999999999998
  0
CIRCLE
  5
B58D
330
B2B7
100
AcDbEntity
  8
1
  6
Continuous
100
AcDbCircle
 10
703.315879292893
 20
188.2477752388009
 30
0.0
 40
3.5
  0
CIRCLE
  5
B58E
330
B2B7
100
AcDbEntity
  8
1
  6
Continuous
100
AcDbCircle
 10
667.3158792388008
 20
224.2477752928931
 30
0.0
 40
3.5
  0
CIRCLE
  5
B58F
330
B2B7
100
AcDbEntity
  8
1
  6
Continuous
100
AcDbCircle
 10
231.6143382388009
 20
224.2477752928931
 30
0.0
 40
3.5
  0
CIRCLE
  5
B590
330
B2B7
100
AcDbEntity
  8
1
  6
Continuous
100
AcDbCircle
 10
267.6143387071066
 20
260.247775761199
 30
0.0
 40
3.5
  0
CIRCLE
  5
B591
330
B2B7
100
AcDbEntity
  8
1
  6
Continuous
100
AcDbCircle
 10
303.6143387611989
 20
224.2477757071067
 30
0.0
 40
3.5
  0
CIRCLE
  5
B592
330
B2B7
100
AcDbEntity
  8
1
  6
Continuous
100
AcDbCircle
 10
267.6143387071066
 20
188.2477752388009
 30
0.0
 40
3.5
  0
ENDSEC
  0
SECTION
  2
OBJECTS
  0
DICTIONARY
  5
B2A5
330
0
100
AcDbDictionary
281
     1
  3
ACAD_CIP_PREVIOUS_PRODUCT_INFO
350
B5F3
  3
ACAD_COLOR
350
B5D5
  3
ACAD_DETAILVIEWSTYLE
350
B5EE
  3
ACAD_GROUP
350
B2A6
  3
ACAD_LAYOUT
350
B2B2
  3
ACAD_MATERIAL
350
B5A3
  3
ACAD_MLEADERSTYLE
350
B5EA
  3
ACAD_MLINESTYLE
350
B2AF
  3
ACAD_PLOTSETTINGS
350
B2B1
  3
ACAD_PLOTSTYLENAME
350
B5A1
  3
ACAD_SCALELIST
350
B5D8
  3
ACAD_SECTIONVIEWSTYLE
350
B5EC
  3
ACAD_TABLESTYLE
350
B5D6
  3
ACAD_VISUALSTYLE
350
B5BC
  3
ACDB_RECOMPOSE_DATA
350
B611
  3
AcDbVariableDictionary
350
B604
  3
DWGPROPS
350
B612
  0
DICTIONARY
  5
B5F4
330
B2A9
100
AcDbDictionary
280
     1
281
     1
  3
ADSK_XREC_LAYER_RECONCILED
360
B5F5
  0
DICTIONARY
  5
B5F6
330
B2BF
100
AcDbDictionary
280
     1
281
     1
  3
ADSK_XREC_LAYER_RECONCILED
360
B5F7
  0
DICTIONARY
  5
B5F8
330
B2C0
100
AcDbDictionary
280
     1
281
     1
  3
ADSK_XREC_LAYER_RECONCILED
360
B5F9
  0
DICTIONARY
  5
B5FA
330
B2C1
100
AcDbDictionary
280
     1
281
     1
  3
ADSK_XREC_LAYER_RECONCILED
360
B5FB
  0
DICTIONARY
  5
B5FC
330
B2C2
100
AcDbDictionary
280
     1
281
     1
  3
ADSK_XREC_LAYER_RECONCILED
360
B5FD
  0
DICTIONARY
  5
B5FE
330
B2C3
100
AcDbDictionary
280
     1
281
     1
  3
ADSK_XREC_LAYER_RECONCILED
360
B5FF
  0
DICTIONARY
  5
B600
330
B2C4
100
AcDbDictionary
280
     1
281
     1
  3
ADSK_XREC_LAYER_RECONCILED
360
B601
  0
DICTIONARY
  5
B602
330
B2C5
100
AcDbDictionary
280
     1
281
     1
  3
ADSK_XREC_LAYER_RECONCILED
360
B603
  0
DICTIONARY
  5
B59C
330
B2B7
100
AcDbDictionary
281
     1
  3
ACAD_LAYOUTSELFREF
350
B59D
  0
DICTIONARY
  5
B59A
330
B2B3
100
AcDbDictionary
281
     1
  3
ACAD_LAYOUTSELFREF
350
B59B
  0
XRECORD
  5
B5F3
102
{ACAD_REACTORS
330
B2A5
102
}
330
B2A5
100
AcDbXrecord
280
     1
300
ACDLT
300
2014
300
ACDLT_F_S
  0
DICTIONARY
  5
B5D5
102
{ACAD_REACTORS
330
B2A5
102
}
330
B2A5
100
AcDbDictionary
281
     1
  0
DICTIONARY
  5
B5EE
102
{ACAD_REACTORS
330
B2A5
102
}
330
B2A5
100
AcDbDictionary
281
     1
  3
Imperial24
350
B5EF
  0
DICTIONARY
  5
B2A6
102
{ACAD_REACTORS
330
B2A5
102
}
330
B2A5
100
AcDbDictionary
281
     1
  0
DICTIONARY
  5
B2B2
102
{ACAD_REACTORS
330
B2A5
102
}
330
B2A5
100
AcDbDictionary
281
     1
  3
Model
350
B5F0
  3
レイアウト1
350
B5F1
  0
DICTIONARY
  5
B5A3
102
{ACAD_REACTORS
330
B2A5
102
}
330
B2A5
100
AcDbDictionary
281
     1
  3
ByBlock
350
B5AC
  3
ByLayer
350
B5A4
  3
Global
350
B5B4
  0
DICTIONARY
  5
B5EA
102
{ACAD_REACTORS
330
B2A5
102
}
330
B2A5
100
AcDbDictionary
281
     1
  3
Standard
350
B5EB
  0
DICTIONARY
  5
B2AF
102
{ACAD_REACTORS
330
B2A5
102
}
330
B2A5
100
AcDbDictionary
281
     1
  3
STANDARD
350
B2B0
  0
DICTIONARY
  5
B2B1
102
{ACAD_REACTORS
330
B2A5
102
}
330
B2A5
100
AcDbDictionary
281
     1
  0
ACDBDICTIONARYWDFLT
  5
B5A1
102
{ACAD_REACTORS
330
B2A5
102
}
330
B2A5
100
AcDbDictionary
281
     1
  3
Normal
350
B5A2
100
AcDbDictionaryWithDefault
340
B5A2
  0
DICTIONARY
  5
B5D8
102
{ACAD_REACTORS
330
B2A5
102
}
330
B2A5
100
AcDbDictionary
281
     1
  3
A0
350
B5D9
  3
A1
350
B5DA
  3
A2
350
B5DB
  3
A3
350
B5DC
  3
A4
350
B5DD
  3
A5
350
B5DE
  3
A6
350
B5DF
  3
A7
350
B5E0
  3
A8
350
B5E1
  3
A9
350
B5E2
  3
B0
350
B5E3
  3
B1
350
B5E4
  3
B2
350
B5E5
  3
B3
350
B5E6
  3
B4
350
B5E7
  3
B5
350
B5E8
  3
B6
350
B5E9
  0
DICTIONARY
  5
B5EC
102
{ACAD_REACTORS
330
B2A5
102
}
330
B2A5
100
AcDbDictionary
281
     1
  3
Imperial24
350
B5ED
  0
DICTIONARY
  5
B5D6
102
{ACAD_REACTORS
330
B2A5
102
}
330
B2A5
100
AcDbDictionary
281
     1
  3
Standard
350
B5D7
  0
DICTIONARY
  5
B5BC
102
{ACAD_REACTORS
330
B2A5
102
}
330
B2A5
100
AcDbDictionary
281
     1
  3
2dWireframe
350
B5C2
  3
Basic
350
B5C1
  3
Brighten
350
B5C8
  3
ColorChange
350
B5CC
  3
Conceptual
350
B5C5
  3
Dim
350
B5C7
  3
EdgeColorOff
350
B5D4
  3
Facepattern
350
B5CB
  3
Flat
350
B5BD
  3
FlatWithEdges
350
B5BE
  3
Gouraud
350
B5BF
  3
GouraudWithEdges
350
B5C0
  3
Hidden
350
B5C4
  3
JitterOff
350
B5D2
  3
Linepattern
350
B5CA
  3
OverhangOff
350
B5D3
  3
Realistic
350
B5C6
  3
Shaded
350
B5D1
  3
Shaded with edges
350
B5D0
  3
Shades of Gray
350
B5CD
  3
Sketchy
350
B5CE
  3
Thicken
350
B5C9
  3
Wireframe
350
B5C3
  3
X-Ray
350
B5CF
  0
XRECORD
  5
B611
102
{ACAD_REACTORS
330
B2A5
102
}
330
B2A5
100
AcDbXrecord
280
     1
 90
        1
330
B5D7
  0
DICTIONARY
  5
B604
102
{ACAD_REACTORS
330
B2A5
102
}
330
B2A5
100
AcDbDictionary
281
     1
  3
CANNOSCALE
350
B609
  3
CMLEADERSTYLE
350
B606
  3
CTABLESTYLE
350
B605
  3
CVIEWDETAILSTYLE
350
B607
  3
CVIEWSECTIONSTYLE
350
B608
  3
DIMASSOC
350
B60C
  3
INDEXCTL
350
B60B
  3
SORTENTS
350
B60A
  3
XCLIPFRAME
350
B60D
  0
XRECORD
  5
B612
102
{ACAD_REACTORS
330
B2A5
102
}
330
B2A5
100
AcDbXrecord
280
     1
  1
DWGPROPS COOKIE
  2

  3

  4

  6

  7

  8
Yoshitsune
  9

300
=
301
=
302
=
303
=
304
=
305
=
306
=
307
=
308
=
309
=
 40
0.0003204050925926
 41
2451301.773230787
 42
2457618.723869618
  1

 90
        0
  0
XRECORD
  5
B5F5
102
{ACAD_REACTORS
330
B5F4
102
}
330
B5F4
100
AcDbXrecord
280
     1
290
     1
  0
XRECORD
  5
B5F7
102
{ACAD_REACTORS
330
B5F6
102
}
330
B5F6
100
AcDbXrecord
280
     1
290
     1
  0
XRECORD
  5
B5F9
102
{ACAD_REACTORS
330
B5F8
102
}
330
B5F8
100
AcDbXrecord
280
     1
290
     1
  0
XRECORD
  5
B5FB
102
{ACAD_REACTORS
330
B5FA
102
}
330
B5FA
100
AcDbXrecord
280
     1
290
     1
  0
XRECORD
  5
B5FD
102
{ACAD_REACTORS
330
B5FC
102
}
330
B5FC
100
AcDbXrecord
280
     1
290
     1
  0
XRECORD
  5
B5FF
102
{ACAD_REACTORS
330
B5FE
102
}
330
B5FE
100
AcDbXrecord
280
     1
290
     1
  0
XRECORD
  5
B601
102
{ACAD_REACTORS
330
B600
102
}
330
B600
100
AcDbXrecord
280
     1
290
     1
  0
XRECORD
  5
B603
102
{ACAD_REACTORS
330
B602
102
}
330
B602
100
AcDbXrecord
280
     1
290
     1
  0
XRECORD
  5
B59D
102
{ACAD_REACTORS
330
B59C
102
}
330
B59C
100
AcDbXrecord
280
     1
340
B2B7
  0
XRECORD
  5
B59B
102
{ACAD_REACTORS
330
B59A
102
}
330
B59A
100
AcDbXrecord
280
     1
340
B2B3
  0
ACDBDETAILVIEWSTYLE
  5
B5EF
102
{ACAD_XDICTIONARY
360
B64A
102
}
102
{ACAD_REACTORS
330
B5EE
102
}
330
B5EE
100
AcDbModelDocViewStyle
 70
     0
  3
Imperial24
290
     0
100
AcDbDetailViewStyle
 70
     0
 71
     0
 90
        3
 71
     1
340
B2AA
 40
0.24
340
0
 40
0.24
300

 40
0.36
280
     3
 71
     2
340
B2AE
 90
       25
 71
     3
340
B2AA
 40
0.24
 90
        1
 40
0.75
 90
        1
300
%<\AcVar ViewType \f "%tc1">% %<\AcVar ViewDetailId>%\PSCALE %<\AcVar ViewScale \f "%sn">%
 71
     4
340
B2AE
 90
       25
340
B2AE
 90
       25
280
     0
  0
LAYOUT
  5
B5F0
102
{ACAD_XDICTIONARY
360
B64C
102
}
102
{ACAD_REACTORS
330
B2B2
102
}
330
B2B2
100
AcDbPlotSettings
  1

  2
Canon LBP9100C
  4

  6

 40
0.0
 41
0.0
 42
0.0
 43
0.0
 44
0.0
 45
0.0
 46
0.0
 47
0.0
 48
0.0
 49
0.0
140
0.0
141
0.0
142
1.0
143
1.0
 70
  1712
 72
     0
 73
     0
 74
     0
  7

 75
     0
147
1.0
148
0.0
149
0.0
100
AcDbLayout
  1
Model
 70
     1
 71
     0
 10
0.0
 20
0.0
 11
12.0
 21
9.0
 12
0.0
 22
0.0
 32
0.0
 14
0.0
 24
0.0
 34
0.0
 15
0.0
 25
0.0
 35
0.0
146
0.0
 13
0.0
 23
0.0
 33
0.0
 16
1.0
 26
0.0
 36
0.0
 17
0.0
 27
1.0
 37
0.0
 76
     0
330
B2B7
331
B599
  0
LAYOUT
  5
B5F1
102
{ACAD_XDICTIONARY
360
B64E
102
}
102
{ACAD_REACTORS
330
B2B2
102
}
330
B2B2
100
AcDbPlotSettings
  1

  2
Canon LBP9100C
  4

  6

 40
0.0
 41
0.0
 42
0.0
 43
0.0
 44
0.0
 45
0.0
 46
0.0
 47
0.0
 48
0.0
 49
0.0
140
0.0
141
0.0
142
1.0
143
1.0
 70
   688
 72
     0
 73
     0
 74
     5
  7

 75
    16
147
1.0
148
0.0
149
0.0
100
AcDbLayout
  1
レイアウト1
 70
     0
 71
     1
 10
0.0
 20
0.0
 11
420.0
 21
297.0
 12
0.0
 22
0.0
 32
0.0
 14
1.000000000000000E+20
 24
1.000000000000000E+20
 34
1.000000000000000E+20
 15
-1.000000000000000E+20
 25
-1.000000000000000E+20
 35
-1.000000000000000E+20
146
0.0
 13
0.0
 23
0.0
 33
0.0
 16
1.0
 26
0.0
 36
0.0
 17
0.0
 27
1.0
 37
0.0
 76
     0
330
B2B3
  0
MATERIAL
  5
B5AC
102
{ACAD_XDICTIONARY
360
B5AD
102
}
102
{ACAD_REACTORS
330
B5A3
102
}
330
B5A3
100
AcDbMaterial
  1
ByBlock
 72
     0
 43
0.0208333333333333
 43
0.0
 43
0.0
 43
0.0
 43
0.0
 43
0.0208333333333333
 43
0.0
 43
0.0
 43
0.0
 43
0.0
 43
1.0
 43
0.0
 43
0.0
 43
0.0
 43
0.0
 43
1.0
 77
     0
 47
0.0208333333333333
 47
0.0
 47
0.0
 47
0.0
 47
0.0
 47
0.0208333333333333
 47
0.0
 47
0.0
 47
0.0
 47
0.0
 47
1.0
 47
0.0
 47
0.0
 47
0.0
 47
0.0
 47
1.0
171
     0
 49
0.0208333333333333
 49
0.0
 49
0.0
 49
0.0
 49
0.0
 49
0.0208333333333333
 49
0.0
 49
0.0
 49
0.0
 49
0.0
 49
1.0
 49
0.0
 49
0.0
 49
0.0
 49
0.0
 49
1.0
175
     0
142
0.0208333333333333
142
0.0
142
0.0
142
0.0
142
0.0
142
0.0208333333333333
142
0.0
142
0.0
142
0.0
142
0.0
142
1.0
142
0.0
142
0.0
142
0.0
142
0.0
142
1.0
179
     0
144
0.0208333333333333
144
0.0
144
0.0
144
0.0
144
0.0
144
0.0208333333333333
144
0.0
144
0.0
144
0.0
144
0.0
144
1.0
144
0.0
144
0.0
144
0.0
144
0.0
144
1.0
147
0.0208333333333333
147
0.0
147
0.0
147
0.0
147
0.0
147
0.0208333333333333
147
0.0
147
0.0
147
0.0
147
0.0
147
1.0
147
0.0
147
0.0
147
0.0
147
0.0
147
1.0
  0
MATERIAL
  5
B5A4
102
{ACAD_XDICTIONARY
360
B5A5
102
}
102
{ACAD_REACTORS
330
B5A3
102
}
330
B5A3
100
AcDbMaterial
  1
ByLayer
 72
     0
 43
0.0208333333333333
 43
0.0
 43
0.0
 43
0.0
 43
0.0
 43
0.0208333333333333
 43
0.0
 43
0.0
 43
0.0
 43
0.0
 43
1.0
 43
0.0
 43
0.0
 43
0.0
 43
0.0
 43
1.0
 77
     0
 47
0.0208333333333333
 47
0.0
 47
0.0
 47
0.0
 47
0.0
 47
0.0208333333333333
 47
0.0
 47
0.0
 47
0.0
 47
0.0
 47
1.0
 47
0.0
 47
0.0
 47
0.0
 47
0.0
 47
1.0
171
     0
 49
0.0208333333333333
 49
0.0
 49
0.0
 49
0.0
 49
0.0
 49
0.0208333333333333
 49
0.0
 49
0.0
 49
0.0
 49
0.0
 49
1.0
 49
0.0
 49
0.0
 49
0.0
 49
0.0
 49
1.0
175
     0
142
0.0208333333333333
142
0.0
142
0.0
142
0.0
142
0.0
142
0.0208333333333333
142
0.0
142
0.0
142
0.0
142
0.0
142
1.0
142
0.0
142
0.0
142
0.0
142
0.0
142
1.0
179
     0
144
0.0208333333333333
144
0.0
144
0.0
144
0.0
144
0.0
144
0.0208333333333333
144
0.0
144
0.0
144
0.0
144
0.0
144
1.0
144
0.0
144
0.0
144
0.0
144
0.0
144
1.0
147
0.0208333333333333
147
0.0
147
0.0
147
0.0
147
0.0
147
0.0208333333333333
147
0.0
147
0.0
147
0.0
147
0.0
147
1.0
147
0.0
147
0.0
147
0.0
147
0.0
147
1.0
  0
MATERIAL
  5
B5B4
102
{ACAD_XDICTIONARY
360
B5B5
102
}
102
{ACAD_REACTORS
330
B5A3
102
}
330
B5A3
100
AcDbMaterial
  1
Global
 72
     0
 43
0.0208333333333333
 43
0.0
 43
0.0
 43
0.0
 43
0.0
 43
0.0208333333333333
 43
0.0
 43
0.0
 43
0.0
 43
0.0
 43
1.0
 43
0.0
 43
0.0
 43
0.0
 43
0.0
 43
1.0
 77
     0
 47
0.0208333333333333
 47
0.0
 47
0.0
 47
0.0
 47
0.0
 47
0.0208333333333333
 47
0.0
 47
0.0
 47
0.0
 47
0.0
 47
1.0
 47
0.0
 47
0.0
 47
0.0
 47
0.0
 47
1.0
171
     0
 49
0.0208333333333333
 49
0.0
 49
0.0
 49
0.0
 49
0.0
 49
0.0208333333333333
 49
0.0
 49
0.0
 49
0.0
 49
0.0
 49
1.0
 49
0.0
 49
0.0
 49
0.0
 49
0.0
 49
1.0
175
     0
142
0.0208333333333333
142
0.0
142
0.0
142
0.0
142
0.0
142
0.0208333333333333
142
0.0
142
0.0
142
0.0
142
0.0
142
1.0
142
0.0
142
0.0
142
0.0
142
0.0
142
1.0
179
     0
144
0.0208333333333333
144
0.0
144
0.0
144
0.0
144
0.0
144
0.0208333333333333
144
0.0
144
0.0
144
0.0
144
0.0
144
1.0
144
0.0
144
0.0
144
0.0
144
0.0
144
1.0
147
0.0208333333333333
147
0.0
147
0.0
147
0.0
147
0.0
147
0.0208333333333333
147
0.0
147
0.0
147
0.0
147
0.0
147
1.0
147
0.0
147
0.0
147
0.0
147
0.0
147
1.0
  0
MLEADERSTYLE
  5
B5EB
102
{ACAD_REACTORS
330
B5EA
102
}
330
B5EA
100
AcDbMLeaderStyle
170
     2
171
     1
172
     0
 90
        2
 40
0.0
 41
0.0
173
     1
 91
-1056964608
340
B2AC
 92
       -2
290
     1
 42
0.09
291
     1
 43
0.36
  3
Standard
 44
0.18
300

342
B2AA
174
     1
178
     6
175
     1
176
     0
 93
-1056964608
 45
0.18
292
     0
297
     0
 46
0.18
 94
-1056964608
 47
1.0
 49
1.0
140
1.0
293
     1
141
0.0
294
     1
177
     0
142
1.0
295
     0
296
     0
143
0.125
1001
ACAD_MLEADERVER
1070
     2
  0
MLINESTYLE
  5
B2B0
102
{ACAD_REACTORS
330
B2AF
102
}
330
B2AF
100
AcDbMlineStyle
  2
STANDARD
 70
     0
  3

 62
   256
 51
90.0
 52
90.0
 71
     2
 49
0.5
 62
   256
  6
BYLAYER
 49
-0.5
 62
   256
  6
BYLAYER
  0
ACDBPLACEHOLDER
  5
B5A2
102
{ACAD_REACTORS
330
B5A1
102
}
330
B5A1
  0
SCALE
  5
B5D9
102
{ACAD_REACTORS
330
B5D8
102
}
330
B5D8
100
AcDbScale
 70
     0
300
1:1
140
1.0
141
1.0
290
     1
  0
SCALE
  5
B5DA
102
{ACAD_REACTORS
330
B5D8
102
}
330
B5D8
100
AcDbScale
 70
     0
300
1/128" = 1'-0"
140
0.0078125
141
12.0
290
     0
  0
SCALE
  5
B5DB
102
{ACAD_REACTORS
330
B5D8
102
}
330
B5D8
100
AcDbScale
 70
     0
300
1/64" = 1'-0"
140
0.015625
141
12.0
290
     0
  0
SCALE
  5
B5DC
102
{ACAD_REACTORS
330
B5D8
102
}
330
B5D8
100
AcDbScale
 70
     0
300
1/32" = 1'-0"
140
0.03125
141
12.0
290
     0
  0
SCALE
  5
B5DD
102
{ACAD_REACTORS
330
B5D8
102
}
330
B5D8
100
AcDbScale
 70
     0
300
1/16" = 1'-0"
140
0.0625
141
12.0
290
     0
  0
SCALE
  5
B5DE
102
{ACAD_REACTORS
330
B5D8
102
}
330
B5D8
100
AcDbScale
 70
     0
300
3/32" = 1'-0"
140
0.09375
141
12.0
290
     0
  0
SCALE
  5
B5DF
102
{ACAD_REACTORS
330
B5D8
102
}
330
B5D8
100
AcDbScale
 70
     0
300
1/8" = 1'-0"
140
0.125
141
12.0
290
     0
  0
SCALE
  5
B5E0
102
{ACAD_REACTORS
330
B5D8
102
}
330
B5D8
100
AcDbScale
 70
     0
300
3/16" = 1'-0"
140
0.1875
141
12.0
290
     0
  0
SCALE
  5
B5E1
102
{ACAD_REACTORS
330
B5D8
102
}
330
B5D8
100
AcDbScale
 70
     0
300
1/4" = 1'-0"
140
0.25
141
12.0
290
     0
  0
SCALE
  5
B5E2
102
{ACAD_REACTORS
330
B5D8
102
}
330
B5D8
100
AcDbScale
 70
     0
300
3/8" = 1'-0"
140
0.375
141
12.0
290
     0
  0
SCALE
  5
B5E3
102
{ACAD_REACTORS
330
B5D8
102
}
330
B5D8
100
AcDbScale
 70
     0
300
1/2" = 1'-0"
140
0.5
141
12.0
290
     0
  0
SCALE
  5
B5E4
102
{ACAD_REACTORS
330
B5D8
102
}
330
B5D8
100
AcDbScale
 70
     0
300
3/4" = 1'-0"
140
0.75
141
12.0
290
     0
  0
SCALE
  5
B5E5
102
{ACAD_REACTORS
330
B5D8
102
}
330
B5D8
100
AcDbScale
 70
     0
300
1" = 1'-0"
140
1.0
141
12.0
290
     0
  0
SCALE
  5
B5E6
102
{ACAD_REACTORS
330
B5D8
102
}
330
B5D8
100
AcDbScale
 70
     0
300
1-1/2" = 1'-0"
140
1.5
141
12.0
290
     0
  0
SCALE
  5
B5E7
102
{ACAD_REACTORS
330
B5D8
102
}
330
B5D8
100
AcDbScale
 70
     0
300
3" = 1'-0"
140
3.0
141
12.0
290
     0
  0
SCALE
  5
B5E8
102
{ACAD_REACTORS
330
B5D8
102
}
330
B5D8
100
AcDbScale
 70
     0
300
6" = 1'-0"
140
6.0
141
12.0
290
     0
  0
SCALE
  5
B5E9
102
{ACAD_REACTORS
330
B5D8
102
}
330
B5D8
100
AcDbScale
 70
     0
300
1'-0" = 1'-0"
140
12.0
141
12.0
290
     0
  0
ACDBSECTIONVIEWSTYLE
  5
B5ED
102
{ACAD_XDICTIONARY
360
B648
102
}
102
{ACAD_REACTORS
330
B5EC
102
}
330
B5EC
100
AcDbModelDocViewStyle
 70
     0
  3
Imperial24
290
     0
100
AcDbSectionViewStyle
 70
     0
 71
     0
 90
       78
 71
     1
340
B2AA
 40
0.24
340
0
340
0
 40
0.24
300
I, O, Q, S, X, Z
 40
0.48
 90
        3
 40
0.18
 90
        1
 71
     2
340
B2AE
 90
       25
340
B2AE
 90
       50
 40
0.24
 40
0.0
 40
0.24
 71
     3
340
B2AA
 40
0.24
 90
        1
 40
0.75
 90
        1
300
%<\AcVar ViewType \f "%tc1">% %<\AcVar ViewSectionStartId>%-%<\AcVar ViewSectionEndId>%\PSCALE %<\AcVar ViewScale \f "%sn">%
 71
     4
300
ANSI31
 40
1.0
 90
        0
290
     0
290
     0
 90
        6
 40
0.0
 40
1.570796326794896
 40
0.2617993877991494
 40
1.308996938995747
 40
-0.2617993877991494
 40
1.832595714594046
  0
TABLESTYLE
  5
B5D7
102
{ACAD_XDICTIONARY
360
B60F
102
}
102
{ACAD_REACTORS
330
B5D6
102
}
330
B5D6
100
AcDbTableStyle
  3
Standard
 70
     0
 71
     0
 40
0.06
 41
0.06
280
     0
281
     0
  7
STANDARD
140
0.18
170
     2
 62
     0
 63
     7
283
     0
274
    -2
284
     1
 64
     0
275
    -2
285
     1
 65
     0
276
    -2
286
     1
 66
     0
277
    -2
287
     1
 67
     0
278
    -2
288
     1
 68
     0
279
    -2
289
     1
 69
     0
  7
STANDARD
140
0.25
170
     5
 62
     0
 63
     7
283
     0
274
    -2
284
     1
 64
     0
275
    -2
285
     1
 65
     0
276
    -2
286
     1
 66
     0
277
    -2
287
     1
 67
     0
278
    -2
288
     1
 68
     0
279
    -2
289
     1
 69
     0
  7
STANDARD
140
0.18
170
     5
 62
     0
 63
     7
283
     0
274
    -2
284
     1
 64
     0
275
    -2
285
     1
 65
     0
276
    -2
286
     1
 66
     0
277
    -2
287
     1
 67
     0
278
    -2
288
     1
 68
     0
279
    -2
289
     1
 69
     0
  0
VISUALSTYLE
  5
B5C2
102
{ACAD_XDICTIONARY
360
B620
102
}
102
{ACAD_REACTORS
330
B5BC
102
}
330
B5BC
100
AcDbVisualStyle
  2
2dWireframe
 70
     4
 71
     0
 72
     2
 73
     0
 90
        0
 40
-0.6
 41
-30.0
 62
     5
 63
     7
 74
     1
 91
        4
 64
     7
 65
   257
 75
     1
175
     1
 42
1.0
 92
        0
 66
   257
 43
1.0
 76
     1
 77
     6
 78
     2
 67
     7
 79
     5
170
     0
171
     0
290
     0
174
     0
 93
        1
 44
0.0
173
     0
291
     0
 45
0.0
1001
ACAD
1000
AcDbSavedByObjectVersion
1070
     0
  0
VISUALSTYLE
  5
B5C1
102
{ACAD_XDICTIONARY
360
B61E
102
}
102
{ACAD_REACTORS
330
B5BC
102
}
330
B5BC
100
AcDbVisualStyle
  2
Basic
 70
     7
 71
     1
 72
     0
 73
     1
 90
        0
 40
-0.6
 41
-30.0
 62
     5
 63
     7
 74
     0
 91
        4
 64
     7
 65
   257
 75
     1
175
     1
 42
1.0
 92
        8
 66
     7
 43
1.0
 76
     1
 77
     6
 78
     2
 67
     7
 79
     5
170
     0
171
     0
290
     0
174
     0
 93
        1
 44
0.0
173
     0
291
     1
 45
0.0
1001
ACAD
1000
AcDbSavedByObjectVersion
1070
     0
  0
VISUALSTYLE
  5
B5C8
102
{ACAD_XDICTIONARY
360
B62C
102
}
102
{ACAD_REACTORS
330
B5BC
102
}
330
B5BC
100
AcDbVisualStyle
  2
Brighten
 70
    12
 71
     2
 72
     2
 73
     0
 90
        0
 40
-0.6
 41
-30.0
 62
     5
 63
     7
 74
     1
 91
        4
 64
     7
 65
   257
 75
     1
175
     1
 42
1.0
 92
        8
 66
     7
 43
1.0
 76
     1
 77
     6
 78
     2
 67
     7
 79
     5
170
     0
171
     0
290
     0
174
     0
 93
        1
 44
50.0
173
     0
291
     1
 45
0.0
1001
ACAD
1000
AcDbSavedByObjectVersion
1070
     0
  0
VISUALSTYLE
  5
B5CC
102
{ACAD_XDICTIONARY
360
B634
102
}
102
{ACAD_REACTORS
330
B5BC
102
}
330
B5BC
100
AcDbVisualStyle
  2
ColorChange
 70
    16
 71
     2
 72
     2
 73
     3
 90
        0
 40
-0.6
 41
-30.0
 62
     5
 63
     8
 74
     1
 91
        4
 64
     7
 65
   257
 75
     1
175
     1
 42
1.0
 92
        8
 66
     8
 43
1.0
 76
     1
 77
     6
 78
     2
 67
     7
 79
     5
170
     0
171
     0
290
     0
174
     0
 93
        1
 44
0.0
173
     0
291
     1
 45
0.0
1001
ACAD
1000
AcDbSavedByObjectVersion
1070
     0
  0
VISUALSTYLE
  5
B5C5
102
{ACAD_XDICTIONARY
360
B626
102
}
102
{ACAD_REACTORS
330
B5BC
102
}
330
B5BC
100
AcDbVisualStyle
  2
Conceptual
 70
     9
 71
     3
 72
     2
 73
     0
 90
        0
 40
-0.6
 41
-30.0
 62
     5
 63
     7
 74
     2
 91
        2
 64
     7
 65
   257
 75
     1
175
     1
 42
179.0
 92
        8
 66
     7
 43
1.0
 76
     1
 77
     6
 78
     2
 67
     7
 79
     3
170
     0
171
     0
290
     0
174
     0
 93
        1
 44
0.0
173
     0
291
     0
 45
0.0
1001
ACAD
1000
AcDbSavedByObjectVersion
1070
     0
  0
VISUALSTYLE
  5
B5C7
102
{ACAD_XDICTIONARY
360
B62A
102
}
102
{ACAD_REACTORS
330
B5BC
102
}
330
B5BC
100
AcDbVisualStyle
  2
Dim
 70
    11
 71
     2
 72
     2
 73
     0
 90
        0
 40
-0.6
 41
-30.0
 62
     5
 63
     7
 74
     1
 91
        4
 64
     7
 65
   257
 75
     1
175
     1
 42
1.0
 92
        8
 66
     7
 43
1.0
 76
     1
 77
     6
 78
     2
 67
     7
 79
     5
170
     0
171
     0
290
     0
174
     0
 93
        1
 44
-50.0
173
     0
291
     1
 45
0.0
1001
ACAD
1000
AcDbSavedByObjectVersion
1070
     0
  0
VISUALSTYLE
  5
B5D4
102
{ACAD_XDICTIONARY
360
B644
102
}
102
{ACAD_REACTORS
330
B5BC
102
}
330
B5BC
100
AcDbVisualStyle
  2
EdgeColorOff
 70
    22
 71
     2
 72
     2
 73
     0
 90
        0
 40
-0.6
 41
-30.0
 62
     5
 63
     7
 74
     1
 91
        4
 64
     7
 65
   257
 75
     1
175
     1
 42
1.0
 92
        8
 66
     7
 43
1.0
 76
     1
 77
     6
 78
     2
 67
     7
 79
     5
170
     0
171
     0
290
     0
174
     0
 93
        1
 44
0.0
173
     0
291
     1
 45
0.0
1001
ACAD
1000
AcDbSavedByObjectVersion
1070
     0
  0
VISUALSTYLE
  5
B5CB
102
{ACAD_XDICTIONARY
360
B632
102
}
102
{ACAD_REACTORS
330
B5BC
102
}
330
B5BC
100
AcDbVisualStyle
  2
Facepattern
 70
    15
 71
     2
 72
     2
 73
     0
 90
        0
 40
-0.6
 41
-30.0
 62
     5
 63
     7
 74
     1
 91
        4
 64
     7
 65
   257
 75
     1
175
     1
 42
1.0
 92
        8
 66
     7
 43
1.0
 76
     1
 77
     6
 78
     2
 67
     7
 79
     5
170
     0
171
     0
290
     0
174
     0
 93
        1
 44
0.0
173
     0
291
     1
 45
0.0
1001
ACAD
1000
AcDbSavedByObjectVersion
1070
     0
  0
VISUALSTYLE
  5
B5BD
102
{ACAD_XDICTIONARY
360
B616
102
}
102
{ACAD_REACTORS
330
B5BC
102
}
330
B5BC
100
AcDbVisualStyle
  2
Flat
 70
     0
 71
     2
 72
     1
 73
     1
 90
        2
 40
-0.6
 41
30.0
 62
     5
 63
     7
 74
     0
 91
        0
 64
     7
 65
   257
 75
     1
175
     1
 42
1.0
 92
        8
 66
     7
 43
1.0
 76
     1
 77
     6
 78
     2
 67
     7
 79
     5
170
     0
171
     0
290
     0
174
     0
 93
       13
 44
0.0
173
     0
291
     1
 45
0.0
1001
ACAD
1000
AcDbSavedByObjectVersion
1070
     0
  0
VISUALSTYLE
  5
B5BE
102
{ACAD_XDICTIONARY
360
B618
102
}
102
{ACAD_REACTORS
330
B5BC
102
}
330
B5BC
100
AcDbVisualStyle
  2
FlatWithEdges
 70
     1
 71
     2
 72
     1
 73
     1
 90
        2
 40
-0.6
 41
30.0
 62
     5
 63
     7
 74
     1
 91
        0
 64
     7
 65
   257
 75
     1
175
     1
 42
1.0
 92
        0
 66
   257
 43
1.0
 76
     1
 77
     6
 78
     2
 67
     7
 79
     5
170
     0
171
     0
290
     0
174
     0
 93
       13
 44
0.0
173
     0
291
     1
 45
0.0
1001
ACAD
1000
AcDbSavedByObjectVersion
1070
     0
  0
VISUALSTYLE
  5
B5BF
102
{ACAD_XDICTIONARY
360
B61A
102
}
102
{ACAD_REACTORS
330
B5BC
102
}
330
B5BC
100
AcDbVisualStyle
  2
Gouraud
 70
     2
 71
     2
 72
     2
 73
     1
 90
        2
 40
-0.6
 41
30.0
 62
     5
 63
     7
 74
     0
 91
        0
 64
     7
 65
   257
 75
     1
175
     1
 42
1.0
 92
        0
 66
     7
 43
1.0
 76
     1
 77
     6
 78
     2
 67
     7
 79
     5
170
     0
171
     0
290
     0
174
     0
 93
       13
 44
0.0
173
     0
291
     1
 45
0.0
1001
ACAD
1000
AcDbSavedByObjectVersion
1070
     0
  0
VISUALSTYLE
  5
B5C0
102
{ACAD_XDICTIONARY
360
B61C
102
}
102
{ACAD_REACTORS
330
B5BC
102
}
330
B5BC
100
AcDbVisualStyle
  2
GouraudWithEdges
 70
     3
 71
     2
 72
     2
 73
     1
 90
        2
 40
-0.6
 41
30.0
 62
     5
 63
     7
 74
     1
 91
        0
 64
     7
 65
   257
 75
     1
175
     1
 42
1.0
 92
        0
 66
   257
 43
1.0
 76
     1
 77
     6
 78
     2
 67
     7
 79
     5
170
     0
171
     0
290
     0
174
     0
 93
       13
 44
0.0
173
     0
291
     1
 45
0.0
1001
ACAD
1000
AcDbSavedByObjectVersion
1070
     0
  0
VISUALSTYLE
  5
B5C4
102
{ACAD_XDICTIONARY
360
B624
102
}
102
{ACAD_REACTORS
330
B5BC
102
}
330
B5BC
100
AcDbVisualStyle
  2
Hidden
 70
     6
 71
     1
 72
     2
 73
     2
 90
        0
 40
-0.6
 41
-30.0
 62
     5
 63
     7
 74
     2
 91
        2
 64
     7
 65
   257
 75
     2
175
     1
 42
40.0
 92
        0
 66
   257
 43
1.0
 76
     1
 77
     6
 78
     2
 67
     7
 79
     3
170
     0
171
     0
290
     0
174
     0
 93
        1
 44
0.0
173
     0
291
     0
 45
0.0
1001
ACAD
1000
AcDbSavedByObjectVersion
1070
     0
  0
VISUALSTYLE
  5
B5D2
102
{ACAD_XDICTIONARY
360
B640
102
}
102
{ACAD_REACTORS
330
B5BC
102
}
330
B5BC
100
AcDbVisualStyle
  2
JitterOff
 70
    20
 71
     2
 72
     2
 73
     0
 90
        0
 40
-0.6
 41
-30.0
 62
     5
 63
     7
 74
     1
 91
        4
 64
     7
 65
   257
 75
     1
175
     1
 42
1.0
 92
       10
 66
     7
 43
1.0
 76
     1
 77
     6
 78
     2
 67
     7
 79
     5
170
     0
171
     0
290
     0
174
     0
 93
        1
 44
0.0
173
     0
291
     1
 45
0.0
1001
ACAD
1000
AcDbSavedByObjectVersion
1070
     0
  0
VISUALSTYLE
  5
B5CA
102
{ACAD_XDICTIONARY
360
B630
102
}
102
{ACAD_REACTORS
330
B5BC
102
}
330
B5BC
100
AcDbVisualStyle
  2
Linepattern
 70
    14
 71
     2
 72
     2
 73
     0
 90
        0
 40
-0.6
 41
-30.0
 62
     5
 63
     7
 74
     1
 91
        4
 64
     7
 65
   257
 75
     7
175
     7
 42
1.0
 92
        8
 66
     7
 43
1.0
 76
     1
 77
     6
 78
     2
 67
     7
 79
     5
170
     0
171
     0
290
     0
174
     0
 93
        1
 44
0.0
173
     0
291
     1
 45
0.0
1001
ACAD
1000
AcDbSavedByObjectVersion
1070
     0
  0
VISUALSTYLE
  5
B5D3
102
{ACAD_XDICTIONARY
360
B642
102
}
102
{ACAD_REACTORS
330
B5BC
102
}
330
B5BC
100
AcDbVisualStyle
  2
OverhangOff
 70
    21
 71
     2
 72
     2
 73
     0
 90
        0
 40
-0.6
 41
-30.0
 62
     5
 63
     7
 74
     1
 91
        4
 64
     7
 65
   257
 75
     1
175
     1
 42
1.0
 92
        9
 66
     7
 43
1.0
 76
     1
 77
     6
 78
     2
 67
     7
 79
     5
170
     0
171
     0
290
     0
174
     0
 93
        1
 44
0.0
173
     0
291
     1
 45
0.0
1001
ACAD
1000
AcDbSavedByObjectVersion
1070
     0
  0
VISUALSTYLE
  5
B5C6
102
{ACAD_XDICTIONARY
360
B628
102
}
102
{ACAD_REACTORS
330
B5BC
102
}
330
B5BC
100
AcDbVisualStyle
  2
Realistic
 70
     8
 71
     2
 72
     3
 73
     0
 90
        2
 40
-0.6
 41
30.0
 62
     5
 63
     7
 74
     0
 91
        0
 64
     7
 65
   257
 75
     1
175
     1
 42
1.0
 92
        8
 66
   257
 43
1.0
 76
     1
 77
     6
 78
     2
 67
     7
 79
     3
170
     0
171
     0
290
     0
174
     0
 93
       13
 44
0.0
173
     0
291
     0
 45
0.0
1001
ACAD
1000
AcDbSavedByObjectVersion
1070
     0
  0
VISUALSTYLE
  5
B5D1
102
{ACAD_XDICTIONARY
360
B63E
102
}
102
{ACAD_REACTORS
330
B5BC
102
}
330
B5BC
100
AcDbVisualStyle
  2
Shaded
 70
    27
 71
     2
 72
     2
 73
     1
 90
        2
 40
-0.6
 41
30.0
 62
     5
 63
     7
 74
     0
 91
        4
 64
     7
 65
   257
 75
     1
175
     1
 42
1.0
 92
        8
 66
   257
 43
1.0
 76
     1
 77
     6
 78
     2
 67
     8
 79
     3
170
     0
171
     0
290
     0
174
     0
 93
        5
 44
0.0
173
     0
291
     0
 45
0.0
1001
ACAD
1000
AcDbSavedByObjectVersion
1070
     0
  0
VISUALSTYLE
  5
B5D0
102
{ACAD_XDICTIONARY
360
B63C
102
}
102
{ACAD_REACTORS
330
B5BC
102
}
330
B5BC
100
AcDbVisualStyle
  2
Shaded with edges
 70
    26
 71
     2
 72
     2
 73
     1
 90
        2
 40
-0.6
 41
30.0
 62
     5
 63
     7
 74
     1
 91
       10
 64
     7
 65
   257
 75
     2
175
     1
 42
1.0
 92
        8
 66
   257
 43
1.0
 76
     1
 77
     6
 78
     2
 67
     7
 79
     3
170
     0
171
     0
290
     0
174
     0
 93
        5
 44
0.0
173
     0
291
     0
 45
0.0
1001
ACAD
1000
AcDbSavedByObjectVersion
1070
     0
  0
VISUALSTYLE
  5
B5CD
102
{ACAD_XDICTIONARY
360
B636
102
}
102
{ACAD_REACTORS
330
B5BC
102
}
330
B5BC
100
AcDbVisualStyle
  2
Shades of Gray
 70
    23
 71
     2
 72
     2
 73
     3
 90
        0
 40
-0.6
 41
-30.0
 62
     5
 63
     7
 74
     2
 91
        2
 64
     7
 65
     7
 75
     1
175
     1
 42
40.0
 92
        8
 66
     7
 43
1.0
 76
     1
 77
     6
 78
     2
 67
     7
 79
     3
170
     0
171
     0
290
     0
174
     0
 93
        1
 44
0.0
173
     0
291
     0
 45
0.0
1001
ACAD
1000
AcDbSavedByObjectVersion
1070
     0
  0
VISUALSTYLE
  5
B5CE
102
{ACAD_XDICTIONARY
360
B638
102
}
102
{ACAD_REACTORS
330
B5BC
102
}
330
B5BC
100
AcDbVisualStyle
  2
Sketchy
 70
    24
 71
     1
 72
     2
 73
     2
 90
        0
 40
-0.6
 41
-30.0
 62
     5
 63
     7
 74
     2
 91
        2
 64
     7
 65
     7
 75
     1
175
     1
 42
40.0
 92
       11
 66
     7
 43
1.0
 76
     1
 77
     6
 78
     2
 67
     7
 79
     6
170
     0
171
     0
290
     0
174
     0
 93
        1
 44
0.0
173
     0
291
     0
 45
0.0
1001
ACAD
1000
AcDbSavedByObjectVersion
1070
     0
  0
VISUALSTYLE
  5
B5C9
102
{ACAD_XDICTIONARY
360
B62E
102
}
102
{ACAD_REACTORS
330
B5BC
102
}
330
B5BC
100
AcDbVisualStyle
  2
Thicken
 70
    13
 71
     2
 72
     2
 73
     0
 90
        0
 40
-0.6
 41
-30.0
 62
     5
 63
     7
 74
     1
 91
        4
 64
     7
 65
   257
 75
     1
175
     1
 42
1.0
 92
       12
 66
     7
 43
1.0
 76
     1
 77
     6
 78
     2
 67
     7
 79
     5
170
     0
171
     0
290
     0
174
     0
 93
        1
 44
0.0
173
     0
291
     1
 45
0.0
1001
ACAD
1000
AcDbSavedByObjectVersion
1070
     0
  0
VISUALSTYLE
  5
B5C3
102
{ACAD_XDICTIONARY
360
B622
102
}
102
{ACAD_REACTORS
330
B5BC
102
}
330
B5BC
100
AcDbVisualStyle
  2
Wireframe
 70
     5
 71
     0
 72
     2
 73
     0
 90
        0
 40
-0.6
 41
-30.0
 62
     5
 63
     7
 74
     1
 91
        4
 64
     7
 65
   257
 75
     1
175
     1
 42
1.0
 92
        0
 66
   257
 43
1.0
 76
     1
 77
     6
 78
     2
 67
     7
 79
     3
170
     0
171
     0
290
     0
174
     0
 93
        1
 44
0.0
173
     0
291
     0
 45
0.0
1001
ACAD
1000
AcDbSavedByObjectVersion
1070
     0
  0
VISUALSTYLE
  5
B5CF
102
{ACAD_XDICTIONARY
360
B63A
102
}
102
{ACAD_REACTORS
330
B5BC
102
}
330
B5BC
100
AcDbVisualStyle
  2
X-Ray
 70
    25
 71
     2
 72
     2
 73
     1
 90
        1
 40
0.5
 41
-30.0
 62
     5
 63
     7
 74
     1
 91
        0
 64
     7
 65
   257
 75
     1
175
     1
 42
1.0
 92
        8
 66
     7
 43
1.0
 76
     1
 77
     6
 78
     2
 67
     7
 79
     3
170
     0
171
     0
290
     0
174
     0
 93
       13
 44
0.0
173
     0
291
     0
 45
0.0
1001
ACAD
1000
AcDbSavedByObjectVersion
1070
     0
  0
DICTIONARYVAR
  5
B609
102
{ACAD_REACTORS
330
B604
102
}
330
B604
100
DictionaryVariables
280
     0
  1
1:1
  0
DICTIONARYVAR
  5
B606
102
{ACAD_REACTORS
330
B604
102
}
330
B604
100
DictionaryVariables
280
     0
  1
STANDARD
  0
DICTIONARYVAR
  5
B605
102
{ACAD_REACTORS
330
B604
102
}
330
B604
100
DictionaryVariables
280
     0
  1
STANDARD
  0
DICTIONARYVAR
  5
B607
102
{ACAD_REACTORS
330
B604
102
}
330
B604
100
DictionaryVariables
280
     0
  1
Imperial24
  0
DICTIONARYVAR
  5
B608
102
{ACAD_REACTORS
330
B604
102
}
330
B604
100
DictionaryVariables
280
     0
  1
Imperial24
  0
DICTIONARYVAR
  5
B60C
102
{ACAD_REACTORS
330
B604
102
}
330
B604
100
DictionaryVariables
280
     0
  1
1
  0
DICTIONARYVAR
  5
B60B
102
{ACAD_REACTORS
330
B604
102
}
330
B604
100
DictionaryVariables
280
     0
  1
0
  0
DICTIONARYVAR
  5
B60A
102
{ACAD_REACTORS
330
B604
102
}
330
B604
100
DictionaryVariables
280
     0
  1
127
  0
DICTIONARYVAR
  5
B60D
102
{ACAD_REACTORS
330
B604
102
}
330
B604
100
DictionaryVariables
280
     0
  1
2
  0
DICTIONARY
  5
B64A
330
B5EF
100
AcDbDictionary
280
     1
281
     1
  3
ACAD_XREC_ROUNDTRIP
360
B64B
  0
DICTIONARY
  5
B64C
330
B5F0
100
AcDbDictionary
280
     1
281
     1
  3
ACAD_XREC_ROUNDTRIP
360
B64D
  0
DICTIONARY
  5
B64E
330
B5F1
100
AcDbDictionary
280
     1
281
     1
  3
ACAD_XREC_ROUNDTRIP
360
B64F
  0
DICTIONARY
  5
B5AD
330
B5AC
100
AcDbDictionary
280
     1
281
     1
  3
ACAD_XREC_ROUNDTRIP
360
B614
  3
BUMPTILE
360
B5AF
  3
DIFFUSETILE
360
B5AE
  3
OPACITYTILE
360
B5B2
  3
REFLECTIONTILE
360
B5B1
  3
REFRACTIONTILE
360
B5B3
  3
SPECULARTILE
360
B5B0
  0
DICTIONARY
  5
B5A5
330
B5A4
100
AcDbDictionary
280
     1
281
     1
  3
ACAD_XREC_ROUNDTRIP
360
B613
  3
BUMPTILE
360
B5A7
  3
DIFFUSETILE
360
B5A6
  3
OPACITYTILE
360
B5AA
  3
REFLECTIONTILE
360
B5A9
  3
REFRACTIONTILE
360
B5AB
  3
SPECULARTILE
360
B5A8
  0
DICTIONARY
  5
B5B5
330
B5B4
100
AcDbDictionary
280
     1
281
     1
  3
ACAD_XREC_ROUNDTRIP
360
B615
  3
BUMPTILE
360
B5B7
  3
DIFFUSETILE
360
B5B6
  3
OPACITYTILE
360
B5BA
  3
REFLECTIONTILE
360
B5B9
  3
REFRACTIONTILE
360
B5BB
  3
SPECULARTILE
360
B5B8
  0
DICTIONARY
  5
B648
330
B5ED
100
AcDbDictionary
280
     1
281
     1
  3
ACAD_XREC_ROUNDTRIP
360
B649
  0
DICTIONARY
  5
B60F
330
B5D7
100
AcDbDictionary
280
     1
281
     1
  3
ACAD_ROUNDTRIP_2008_TABLESTYLE_CELLSTYLEMAP
360
B610
  3
ACAD_XREC_ROUNDTRIP
360
B646
  0
DICTIONARY
  5
B620
330
B5C2
100
AcDbDictionary
280
     1
281
     1
  3
ACAD_XREC_ROUNDTRIP
360
B621
  0
DICTIONARY
  5
B61E
330
B5C1
100
AcDbDictionary
280
     1
281
     1
  3
ACAD_XREC_ROUNDTRIP
360
B61F
  0
DICTIONARY
  5
B62C
330
B5C8
100
AcDbDictionary
280
     1
281
     1
  3
ACAD_XREC_ROUNDTRIP
360
B62D
  0
DICTIONARY
  5
B634
330
B5CC
100
AcDbDictionary
280
     1
281
     1
  3
ACAD_XREC_ROUNDTRIP
360
B635
  0
DICTIONARY
  5
B626
330
B5C5
100
AcDbDictionary
280
     1
281
     1
  3
ACAD_XREC_ROUNDTRIP
360
B627
  0
DICTIONARY
  5
B62A
330
B5C7
100
AcDbDictionary
280
     1
281
     1
  3
ACAD_XREC_ROUNDTRIP
360
B62B
  0
DICTIONARY
  5
B644
330
B5D4
100
AcDbDictionary
280
     1
281
     1
  3
ACAD_XREC_ROUNDTRIP
360
B645
  0
DICTIONARY
  5
B632
330
B5CB
100
AcDbDictionary
280
     1
281
     1
  3
ACAD_XREC_ROUNDTRIP
360
B633
  0
DICTIONARY
  5
B616
330
B5BD
100
AcDbDictionary
280
     1
281
     1
  3
ACAD_XREC_ROUNDTRIP
360
B617
  0
DICTIONARY
  5
B618
330
B5BE
100
AcDbDictionary
280
     1
281
     1
  3
ACAD_XREC_ROUNDTRIP
360
B619
  0
DICTIONARY
  5
B61A
330
B5BF
100
AcDbDictionary
280
     1
281
     1
  3
ACAD_XREC_ROUNDTRIP
360
B61B
  0
DICTIONARY
  5
B61C
330
B5C0
100
AcDbDictionary
280
     1
281
     1
  3
ACAD_XREC_ROUNDTRIP
360
B61D
  0
DICTIONARY
  5
B624
330
B5C4
100
AcDbDictionary
280
     1
281
     1
  3
ACAD_XREC_ROUNDTRIP
360
B625
  0
DICTIONARY
  5
B640
330
B5D2
100
AcDbDictionary
280
     1
281
     1
  3
ACAD_XREC_ROUNDTRIP
360
B641
  0
DICTIONARY
  5
B630
330
B5CA
100
AcDbDictionary
280
     1
281
     1
  3
ACAD_XREC_ROUNDTRIP
360
B631
  0
DICTIONARY
  5
B642
330
B5D3
100
AcDbDictionary
280
     1
281
     1
  3
ACAD_XREC_ROUNDTRIP
360
B643
  0
DICTIONARY
  5
B628
330
B5C6
100
AcDbDictionary
280
     1
281
     1
  3
ACAD_XREC_ROUNDTRIP
360
B629
  0
DICTIONARY
  5
B63E
330
B5D1
100
AcDbDictionary
280
     1
281
     1
  3
ACAD_XREC_ROUNDTRIP
360
B63F
  0
DICTIONARY
  5
B63C
330
B5D0
100
AcDbDictionary
280
     1
281
     1
  3
ACAD_XREC_ROUNDTRIP
360
B63D
  0
DICTIONARY
  5
B636
330
B5CD
100
AcDbDictionary
280
     1
281
     1
  3
ACAD_XREC_ROUNDTRIP
360
B637
  0
DICTIONARY
  5
B638
330
B5CE
100
AcDbDictionary
280
     1
281
     1
  3
ACAD_XREC_ROUNDTRIP
360
B639
  0
DICTIONARY
  5
B62E
330
B5C9
100
AcDbDictionary
280
     1
281
     1
  3
ACAD_XREC_ROUNDTRIP
360
B62F
  0
DICTIONARY
  5
B622
330
B5C3
100
AcDbDictionary
280
     1
281
     1
  3
ACAD_XREC_ROUNDTRIP
360
B623
  0
DICTIONARY
  5
B63A
330
B5CF
100
AcDbDictionary
280
     1
281
     1
  3
ACAD_XREC_ROUNDTRIP
360
B63B
  0
XRECORD
  5
B64B
102
{ACAD_REACTORS
330
B64A
102
}
330
B64A
100
AcDbXrecord
280
     1
102
DISPLAYNAME
  1
Imperial24
102
FLAGS
 90
        0
  0
XRECORD
  5
B64D
102
{ACAD_REACTORS
330
B64C
102
}
330
B64C
100
AcDbXrecord
280
     1
102
SHADEPLOT
 70
     0
102
SHADEPLOTRESLEVEL
 70
     2
102
SHADEPLOTCUSTOMDPI
 70
   300
  0
XRECORD
  5
B64F
102
{ACAD_REACTORS
330
B64E
102
}
330
B64E
100
AcDbXrecord
280
     1
102
SHADEPLOT
 70
     0
102
SHADEPLOTRESLEVEL
 70
     2
102
SHADEPLOTCUSTOMDPI
 70
   300
  0
XRECORD
  5
B614
102
{ACAD_REACTORS
330
B5AD
102
}
330
B5AD
100
AcDbXrecord
280
     1
102
MATERIAL
148
0.0
149
0.0
149
0.0
 93
        0
 94
      127
282
     0
 72
     0
 77
     0
171
     0
175
     0
179
     0
273
     0
  0
XRECORD
  5
B5AF
102
{ACAD_REACTORS
330
B5AD
102
}
330
B5AD
100
AcDbXrecord
280
     1
270
     1
271
     1
  0
XRECORD
  5
B5AE
102
{ACAD_REACTORS
330
B5AD
102
}
330
B5AD
100
AcDbXrecord
280
     1
270
     1
271
     1
  0
XRECORD
  5
B5B2
102
{ACAD_REACTORS
330
B5AD
102
}
330
B5AD
100
AcDbXrecord
280
     1
270
     1
271
     1
  0
XRECORD
  5
B5B1
102
{ACAD_REACTORS
330
B5AD
102
}
330
B5AD
100
AcDbXrecord
280
     1
270
     1
271
     1
  0
XRECORD
  5
B5B3
102
{ACAD_REACTORS
330
B5AD
102
}
330
B5AD
100
AcDbXrecord
280
     1
270
     1
271
     1
  0
XRECORD
  5
B5B0
102
{ACAD_REACTORS
330
B5AD
102
}
330
B5AD
100
AcDbXrecord
280
     1
270
     1
271
     1
  0
XRECORD
  5
B613
102
{ACAD_REACTORS
330
B5A5
102
}
330
B5A5
100
AcDbXrecord
280
     1
102
MATERIAL
148
0.0
149
0.0
149
0.0
 93
        0
 94
      127
282
     0
 72
     0
 77
     0
171
     0
175
     0
179
     0
273
     0
  0
XRECORD
  5
B5A7
102
{ACAD_REACTORS
330
B5A5
102
}
330
B5A5
100
AcDbXrecord
280
     1
270
     1
271
     1
  0
XRECORD
  5
B5A6
102
{ACAD_REACTORS
330
B5A5
102
}
330
B5A5
100
AcDbXrecord
280
     1
270
     1
271
     1
  0
XRECORD
  5
B5AA
102
{ACAD_REACTORS
330
B5A5
102
}
330
B5A5
100
AcDbXrecord
280
     1
270
     1
271
     1
  0
XRECORD
  5
B5A9
102
{ACAD_REACTORS
330
B5A5
102
}
330
B5A5
100
AcDbXrecord
280
     1
270
     1
271
     1
  0
XRECORD
  5
B5AB
102
{ACAD_REACTORS
330
B5A5
102
}
330
B5A5
100
AcDbXrecord
280
     1
270
     1
271
     1
  0
XRECORD
  5
B5A8
102
{ACAD_REACTORS
330
B5A5
102
}
330
B5A5
100
AcDbXrecord
280
     1
270
     1
271
     1
  0
XRECORD
  5
B615
102
{ACAD_REACTORS
330
B5B5
102
}
330
B5B5
100
AcDbXrecord
280
     1
102
MATERIAL
148
0.0
149
0.0
149
0.0
 93
        0
 94
      127
282
     0
 72
     0
 77
     0
171
     0
175
     0
179
     0
273
     0
  0
XRECORD
  5
B5B7
102
{ACAD_REACTORS
330
B5B5
102
}
330
B5B5
100
AcDbXrecord
280
     1
270
     1
271
     1
  0
XRECORD
  5
B5B6
102
{ACAD_REACTORS
330
B5B5
102
}
330
B5B5
100
AcDbXrecord
280
     1
270
     1
271
     1
  0
XRECORD
  5
B5BA
102
{ACAD_REACTORS
330
B5B5
102
}
330
B5B5
100
AcDbXrecord
280
     1
270
     1
271
     1
  0
XRECORD
  5
B5B9
102
{ACAD_REACTORS
330
B5B5
102
}
330
B5B5
100
AcDbXrecord
280
     1
270
     1
271
     1
  0
XRECORD
  5
B5BB
102
{ACAD_REACTORS
330
B5B5
102
}
330
B5B5
100
AcDbXrecord
280
     1
270
     1
271
     1
  0
XRECORD
  5
B5B8
102
{ACAD_REACTORS
330
B5B5
102
}
330
B5B5
100
AcDbXrecord
280
     1
270
     1
271
     1
  0
XRECORD
  5
B649
102
{ACAD_REACTORS
330
B648
102
}
330
B648
100
AcDbXrecord
280
     1
102
DISPLAYNAME
  1
Imperial24
102
FLAGS
 90
        0
  0
CELLSTYLEMAP
  5
B610
102
{ACAD_REACTORS
330
B60F
102
}
330
B60F
100
AcDbCellStyleMap
 90
        3
300
CELLSTYLE
  1
TABLEFORMAT_BEGIN
 90
        5
170
     1
 91
        0
 92
    32768
 62
   257
 93
        1
300
CONTENTFORMAT
  1
CONTENTFORMAT_BEGIN
 90
        0
 91
        0
 92
      512
 93
        0
300

 40
0.0
140
1.0
 94
        5
 62
     0
340
B2AA
144
0.25
309
CONTENTFORMAT_END
171
     0
 94
        0
309
TABLEFORMAT_END
  1
CELLSTYLE_BEGIN
 90
        1
 91
        1
300
_TITLE
309
CELLSTYLE_END
300
CELLSTYLE
  1
TABLEFORMAT_BEGIN
 90
        5
170
     1
 91
        0
 92
        0
 62
   257
 93
        1
300
CONTENTFORMAT
  1
CONTENTFORMAT_BEGIN
 90
        0
 91
        0
 92
      512
 93
        0
300

 40
0.0
140
1.0
 94
        5
 62
     0
340
B2AA
144
0.18
309
CONTENTFORMAT_END
171
     0
 94
        0
309
TABLEFORMAT_END
  1
CELLSTYLE_BEGIN
 90
        2
 91
        1
300
_HEADER
309
CELLSTYLE_END
300
CELLSTYLE
  1
TABLEFORMAT_BEGIN
 90
        5
170
     1
 91
        0
 92
        0
 62
   257
 93
        1
300
CONTENTFORMAT
  1
CONTENTFORMAT_BEGIN
 90
        0
 91
        0
 92
      512
 93
        0
300

 40
0.0
140
1.0
 94
        2
 62
     0
340
B2AA
144
0.18
309
CONTENTFORMAT_END
171
     0
 94
        0
309
TABLEFORMAT_END
  1
CELLSTYLE_BEGIN
 90
        3
 91
        2
300
_DATA
309
CELLSTYLE_END
  0
XRECORD
  5
B646
102
{ACAD_REACTORS
330
B60F
102
}
330
B60F
100
AcDbXrecord
280
     1
102
ACAD_ROUNDTRIP_PRE2007_TABLESTYLE
 90
      512
 91
        0
  1

 92
      512
 93
        0
  2

 94
      512
 95
        0
  3

  0
XRECORD
  5
B621
102
{ACAD_REACTORS
330
B620
102
}
330
B620
100
AcDbXrecord
280
     1
102
RTVSPost2010Prop28
280
     1
102
RTVSPost2010PropOp28
 70
     1
102
RTVSPost2010Prop29
280
     1
102
RTVSPost2010PropOp29
 70
     1
102
RTVSPost2010Prop30
280
     0
102
RTVSPost2010PropOp30
 70
     1
102
RTVSPost2010Prop31
280
     0
102
RTVSPost2010PropOp31
 70
     1
102
RTVSPost2010Prop32
280
     0
102
RTVSPost2010PropOp32
 70
     1
102
RTVSPost2010Prop33
280
     0
102
RTVSPost2010PropOp33
 70
     1
102
RTVSPost2010Prop34
280
     0
102
RTVSPost2010PropOp34
 70
     1
102
RTVSPost2010Prop35
280
     0
102
RTVSPost2010PropOp35
 70
     1
102
RTVSPost2010Prop36
280
     0
102
RTVSPost2010PropOp36
 70
     1
102
RTVSPost2010Prop37
 90
       50
102
RTVSPost2010PropOp37
 70
     1
102
RTVSPost2010Prop38
140
0.0
102
RTVSPost2010PropOp38
 70
     1
102
RTVSPost2010Prop39
140
1.0
102
RTVSPost2010PropOp39
 70
     1
102
RTVSPost2010Prop40
 90
        0
102
RTVSPost2010PropOp40
 70
     1
102
RTVSPost2010Prop41ColorIndex
 90
       18
102
RTVSPost2010Prop41ColorRGB
 90
        0
102
RTVSPost2010PropOp41
 70
     1
102
RTVSPost2010Prop42
 90
       50
102
RTVSPost2010PropOp42
 70
     1
102
RTVSPost2010Prop43
 90
        3
102
RTVSPost2010PropOp43
 70
     1
102
RTVSPost2010Prop44ColorIndex
 90
        5
102
RTVSPost2010Prop44ColorRGB
 90
      255
102
RTVSPost2010PropOp44
 70
     1
102
RTVSPost2010Prop45
280
     0
102
RTVSPost2010PropOp45
 70
     1
102
RTVSPost2010Prop46
 90
       50
102
RTVSPost2010PropOp46
 70
     1
102
RTVSPost2010Prop47
 90
       50
102
RTVSPost2010PropOp47
 70
     1
102
RTVSPost2010Prop48
 90
       50
102
RTVSPost2010PropOp48
 70
     1
102
RTVSPost2010Prop49
280
     0
102
RTVSPost2010PropOp49
 70
     1
102
RTVSPost2010Prop50
 90
       50
102
RTVSPost2010PropOp50
 70
     1
102
RTVSPost2010Prop51ColorIndex
 90
      256
102
RTVSPost2010Prop51ColorRGB
 90
-16777216
102
RTVSPost2010PropOp51
 70
     0
102
RTVSPost2010Prop52
140
1.0
102
RTVSPost2010PropOp52
 70
     0
102
RTVSPost2010Prop53
 90
        2
102
RTVSPost2010PropOp53
 70
     1
102
RTVSPost2010Prop54
  1
strokes_ogs.tif
102
RTVSPost2010PropOp54
 70
     1
102
RTVSPost2010Prop55
280
     0
102
RTVSPost2010PropOp55
 70
     1
102
RTVSPost2010Prop56
140
1.0
102
RTVSPost2010PropOp56
 70
     1
102
RTVSPost2010Prop57
140
1.0
102
RTVSPost2010PropOp57
 70
     1
102
RTVSPropertyOp0
 70
     1
102
RTVSPropertyOp1
 70
     1
102
RTVSPropertyOp2
 70
     1
102
RTVSPropertyOp3
 70
     1
102
RTVSPropertyOp4
 70
     1
102
RTVSPropertyOp5
 70
     1
102
RTVSPropertyOp6
 70
     1
102
RTVSPropertyOp7
 70
     1
102
RTVSPropertyOp8
 70
     1
102
RTVSPropertyOp9
 70
     1
102
RTVSPropertyOp10
 70
     1
102
RTVSPropertyOp11
 70
     1
102
RTVSPropertyOp12
 70
     1
102
RTVSPropertyOp13
 70
     1
102
RTVSPropertyOp14
 70
     1
102
RTVSPropertyOp15
 70
     1
102
RTVSPropertyOp16
 70
     1
102
RTVSPropertyOp17
 70
     1
102
RTVSPropertyOp18
 70
     1
102
RTVSPropertyOp19
 70
     1
102
RTVSPropertyOp20
 70
     1
102
RTVSPropertyOp21
 70
     1
102
RTVSPropertyOp22
 70
     1
102
RTVSPropertyOp23
 70
     1
102
RTVSPropertyOp24
 70
     1
102
RTVSPropertyOp25
 70
     1
102
RTVSPropertyOp26
 70
     1
102
RTVSPropertyOp27
 70
     1
102
RTVSPropertyOp28
 70
     1
102
RTVSPropertyOp29
 70
     1
102
RTVSPropertyOp30
 70
     1
102
RTVSPropertyOp31
 70
     1
102
RTVSPropertyOp32
 70
     1
102
RTVSPropertyOp33
 70
     1
102
RTVSPropertyOp34
 70
     1
102
RTVSPropertyOp35
 70
     1
102
RTVSPropertyOp36
 70
     1
102
RTVSPropertyOp37
 70
     1
102
RTVSPropertyOp38
 70
     1
102
RTVSPropertyOp39
 70
     1
102
RTVSPropertyOp40
 70
     1
102
RTVSPropertyOp41
 70
     1
102
RTVSPropertyOp42
 70
     1
102
RTVSPropertyOp43
 70
     1
102
RTVSPropertyOp44
 70
     1
102
RTVSPropertyOp45
 70
     1
102
RTVSPropertyOp46
 70
     1
102
RTVSPropertyOp47
 70
     1
102
RTVSPropertyOp48
 70
     1
102
RTVSPropertyOp49
 70
     1
102
RTVSPropertyOp50
 70
     1
102
RTVSPropertyOp51
 70
     0
102
RTVSPropertyOp52
 70
     0
102
RTVSPropertyOp53
 70
     1
102
RTVSPropertyOp54
 70
     1
102
RTVSPropertyOp55
 70
     1
102
RTVSPropertyOp56
 70
     1
102
RTVSPropertyOp57
 70
     1
102
RTVSPropertyOp58
 70
     1
102
RTVSPropertyOp59
 70
     1
102
RTVSPropertyOp60
 70
     1
102
RTVSPropertyOp61
 70
     1
102
RTVSPropertyOp62
 70
     1
  0
XRECORD
  5
B61F
102
{ACAD_REACTORS
330
B61E
102
}
330
B61E
100
AcDbXrecord
280
     1
102
RTVSPost2010Prop28
280
     0
102
RTVSPost2010PropOp28
 70
     1
102
RTVSPost2010Prop29
280
     1
102
RTVSPost2010PropOp29
 70
     1
102
RTVSPost2010Prop30
280
     1
102
RTVSPost2010PropOp30
 70
     1
102
RTVSPost2010Prop31
280
     0
102
RTVSPost2010PropOp31
 70
     1
102
RTVSPost2010Prop32
280
     0
102
RTVSPost2010PropOp32
 70
     1
102
RTVSPost2010Prop33
280
     0
102
RTVSPost2010PropOp33
 70
     1
102
RTVSPost2010Prop34
280
     0
102
RTVSPost2010PropOp34
 70
     1
102
RTVSPost2010Prop35
280
     0
102
RTVSPost2010PropOp35
 70
     1
102
RTVSPost2010Prop36
280
     0
102
RTVSPost2010PropOp36
 70
     1
102
RTVSPost2010Prop37
 90
       50
102
RTVSPost2010PropOp37
 70
     1
102
RTVSPost2010Prop38
140
0.0
102
RTVSPost2010PropOp38
 70
     1
102
RTVSPost2010Prop39
140
1.0
102
RTVSPost2010PropOp39
 70
     1
102
RTVSPost2010Prop40
 90
        0
102
RTVSPost2010PropOp40
 70
     1
102
RTVSPost2010Prop41ColorIndex
 90
       18
102
RTVSPost2010Prop41ColorRGB
 90
        0
102
RTVSPost2010PropOp41
 70
     1
102
RTVSPost2010Prop42
 90
       50
102
RTVSPost2010PropOp42
 70
     1
102
RTVSPost2010Prop43
 90
        3
102
RTVSPost2010PropOp43
 70
     1
102
RTVSPost2010Prop44ColorIndex
 90
        5
102
RTVSPost2010Prop44ColorRGB
 90
      255
102
RTVSPost2010PropOp44
 70
     1
102
RTVSPost2010Prop45
280
     0
102
RTVSPost2010PropOp45
 70
     1
102
RTVSPost2010Prop46
 90
       50
102
RTVSPost2010PropOp46
 70
     1
102
RTVSPost2010Prop47
 90
       50
102
RTVSPost2010PropOp47
 70
     1
102
RTVSPost2010Prop48
 90
       50
102
RTVSPost2010PropOp48
 70
     1
102
RTVSPost2010Prop49
280
     0
102
RTVSPost2010PropOp49
 70
     1
102
RTVSPost2010Prop50
 90
       50
102
RTVSPost2010PropOp50
 70
     1
102
RTVSPost2010Prop51ColorIndex
 90
      256
102
RTVSPost2010Prop51ColorRGB
 90
-16777216
102
RTVSPost2010PropOp51
 70
     0
102
RTVSPost2010Prop52
140
1.0
102
RTVSPost2010PropOp52
 70
     0
102
RTVSPost2010Prop53
 90
        2
102
RTVSPost2010PropOp53
 70
     1
102
RTVSPost2010Prop54
  1
strokes_ogs.tif
102
RTVSPost2010PropOp54
 70
     1
102
RTVSPost2010Prop55
280
     0
102
RTVSPost2010PropOp55
 70
     1
102
RTVSPost2010Prop56
140
1.0
102
RTVSPost2010PropOp56
 70
     1
102
RTVSPost2010Prop57
140
1.0
102
RTVSPost2010PropOp57
 70
     1
102
RTVSPropertyOp0
 70
     1
102
RTVSPropertyOp1
 70
     1
102
RTVSPropertyOp2
 70
     1
102
RTVSPropertyOp3
 70
     1
102
RTVSPropertyOp4
 70
     1
102
RTVSPropertyOp5
 70
     1
102
RTVSPropertyOp6
 70
     1
102
RTVSPropertyOp7
 70
     1
102
RTVSPropertyOp8
 70
     1
102
RTVSPropertyOp9
 70
     1
102
RTVSPropertyOp10
 70
     1
102
RTVSPropertyOp11
 70
     1
102
RTVSPropertyOp12
 70
     1
102
RTVSPropertyOp13
 70
     1
102
RTVSPropertyOp14
 70
     1
102
RTVSPropertyOp15
 70
     1
102
RTVSPropertyOp16
 70
     1
102
RTVSPropertyOp17
 70
     1
102
RTVSPropertyOp18
 70
     1
102
RTVSPropertyOp19
 70
     1
102
RTVSPropertyOp20
 70
     1
102
RTVSPropertyOp21
 70
     1
102
RTVSPropertyOp22
 70
     1
102
RTVSPropertyOp23
 70
     1
102
RTVSPropertyOp24
 70
     1
102
RTVSPropertyOp25
 70
     1
102
RTVSPropertyOp26
 70
     1
102
RTVSPropertyOp27
 70
     1
102
RTVSPropertyOp28
 70
     1
102
RTVSPropertyOp29
 70
     1
102
RTVSPropertyOp30
 70
     1
102
RTVSPropertyOp31
 70
     1
102
RTVSPropertyOp32
 70
     1
102
RTVSPropertyOp33
 70
     1
102
RTVSPropertyOp34
 70
     1
102
RTVSPropertyOp35
 70
     1
102
RTVSPropertyOp36
 70
     1
102
RTVSPropertyOp37
 70
     1
102
RTVSPropertyOp38
 70
     1
102
RTVSPropertyOp39
 70
     1
102
RTVSPropertyOp40
 70
     1
102
RTVSPropertyOp41
 70
     1
102
RTVSPropertyOp42
 70
     1
102
RTVSPropertyOp43
 70
     1
102
RTVSPropertyOp44
 70
     1
102
RTVSPropertyOp45
 70
     1
102
RTVSPropertyOp46
 70
     1
102
RTVSPropertyOp47
 70
     1
102
RTVSPropertyOp48
 70
     1
102
RTVSPropertyOp49
 70
     1
102
RTVSPropertyOp50
 70
     1
102
RTVSPropertyOp51
 70
     0
102
RTVSPropertyOp52
 70
     0
102
RTVSPropertyOp53
 70
     1
102
RTVSPropertyOp54
 70
     1
102
RTVSPropertyOp55
 70
     1
102
RTVSPropertyOp56
 70
     1
102
RTVSPropertyOp57
 70
     1
102
RTVSPropertyOp58
 70
     1
102
RTVSPropertyOp59
 70
     1
102
RTVSPropertyOp60
 70
     1
102
RTVSPropertyOp61
 70
     1
102
RTVSPropertyOp62
 70
     1
  0
XRECORD
  5
B62D
102
{ACAD_REACTORS
330
B62C
102
}
330
B62C
100
AcDbXrecord
280
     1
102
RTVSPost2010Prop28
280
     0
102
RTVSPost2010PropOp28
 70
     1
102
RTVSPost2010Prop29
280
     1
102
RTVSPost2010PropOp29
 70
     1
102
RTVSPost2010Prop30
280
     1
102
RTVSPost2010PropOp30
 70
     1
102
RTVSPost2010Prop31
280
     0
102
RTVSPost2010PropOp31
 70
     1
102
RTVSPost2010Prop32
280
     0
102
RTVSPost2010PropOp32
 70
     1
102
RTVSPost2010Prop33
280
     0
102
RTVSPost2010PropOp33
 70
     1
102
RTVSPost2010Prop34
280
     0
102
RTVSPost2010PropOp34
 70
     1
102
RTVSPost2010Prop35
280
     0
102
RTVSPost2010PropOp35
 70
     1
102
RTVSPost2010Prop36
280
     0
102
RTVSPost2010PropOp36
 70
     1
102
RTVSPost2010Prop37
 90
       50
102
RTVSPost2010PropOp37
 70
     1
102
RTVSPost2010Prop38
140
0.0
102
RTVSPost2010PropOp38
 70
     1
102
RTVSPost2010Prop39
140
1.0
102
RTVSPost2010PropOp39
 70
     1
102
RTVSPost2010Prop40
 90
        0
102
RTVSPost2010PropOp40
 70
     1
102
RTVSPost2010Prop41ColorIndex
 90
       18
102
RTVSPost2010Prop41ColorRGB
 90
        0
102
RTVSPost2010PropOp41
 70
     1
102
RTVSPost2010Prop42
 90
       50
102
RTVSPost2010PropOp42
 70
     1
102
RTVSPost2010Prop43
 90
        3
102
RTVSPost2010PropOp43
 70
     1
102
RTVSPost2010Prop44ColorIndex
 90
        5
102
RTVSPost2010Prop44ColorRGB
 90
      255
102
RTVSPost2010PropOp44
 70
     1
102
RTVSPost2010Prop45
280
     0
102
RTVSPost2010PropOp45
 70
     1
102
RTVSPost2010Prop46
 90
       50
102
RTVSPost2010PropOp46
 70
     1
102
RTVSPost2010Prop47
 90
       50
102
RTVSPost2010PropOp47
 70
     1
102
RTVSPost2010Prop48
 90
       50
102
RTVSPost2010PropOp48
 70
     1
102
RTVSPost2010Prop49
280
     0
102
RTVSPost2010PropOp49
 70
     1
102
RTVSPost2010Prop50
 90
       50
102
RTVSPost2010PropOp50
 70
     1
102
RTVSPost2010Prop51ColorIndex
 90
      256
102
RTVSPost2010Prop51ColorRGB
 90
-16777216
102
RTVSPost2010PropOp51
 70
     0
102
RTVSPost2010Prop52
140
1.0
102
RTVSPost2010PropOp52
 70
     0
102
RTVSPost2010Prop53
 90
        2
102
RTVSPost2010PropOp53
 70
     1
102
RTVSPost2010Prop54
  1
strokes_ogs.tif
102
RTVSPost2010PropOp54
 70
     1
102
RTVSPost2010Prop55
280
     0
102
RTVSPost2010PropOp55
 70
     1
102
RTVSPost2010Prop56
140
1.0
102
RTVSPost2010PropOp56
 70
     1
102
RTVSPost2010Prop57
140
1.0
102
RTVSPost2010PropOp57
 70
     1
102
RTVSPropertyOp0
 70
     1
102
RTVSPropertyOp1
 70
     1
102
RTVSPropertyOp2
 70
     1
102
RTVSPropertyOp3
 70
     1
102
RTVSPropertyOp4
 70
     1
102
RTVSPropertyOp5
 70
     1
102
RTVSPropertyOp6
 70
     1
102
RTVSPropertyOp7
 70
     1
102
RTVSPropertyOp8
 70
     1
102
RTVSPropertyOp9
 70
     1
102
RTVSPropertyOp10
 70
     1
102
RTVSPropertyOp11
 70
     1
102
RTVSPropertyOp12
 70
     1
102
RTVSPropertyOp13
 70
     1
102
RTVSPropertyOp14
 70
     1
102
RTVSPropertyOp15
 70
     1
102
RTVSPropertyOp16
 70
     1
102
RTVSPropertyOp17
 70
     1
102
RTVSPropertyOp18
 70
     1
102
RTVSPropertyOp19
 70
     1
102
RTVSPropertyOp20
 70
     1
102
RTVSPropertyOp21
 70
     1
102
RTVSPropertyOp22
 70
     1
102
RTVSPropertyOp23
 70
     1
102
RTVSPropertyOp24
 70
     1
102
RTVSPropertyOp25
 70
     1
102
RTVSPropertyOp26
 70
     1
102
RTVSPropertyOp27
 70
     1
102
RTVSPropertyOp28
 70
     1
102
RTVSPropertyOp29
 70
     1
102
RTVSPropertyOp30
 70
     1
102
RTVSPropertyOp31
 70
     1
102
RTVSPropertyOp32
 70
     1
102
RTVSPropertyOp33
 70
     1
102
RTVSPropertyOp34
 70
     1
102
RTVSPropertyOp35
 70
     1
102
RTVSPropertyOp36
 70
     1
102
RTVSPropertyOp37
 70
     1
102
RTVSPropertyOp38
 70
     1
102
RTVSPropertyOp39
 70
     1
102
RTVSPropertyOp40
 70
     1
102
RTVSPropertyOp41
 70
     1
102
RTVSPropertyOp42
 70
     1
102
RTVSPropertyOp43
 70
     1
102
RTVSPropertyOp44
 70
     1
102
RTVSPropertyOp45
 70
     1
102
RTVSPropertyOp46
 70
     1
102
RTVSPropertyOp47
 70
     1
102
RTVSPropertyOp48
 70
     1
102
RTVSPropertyOp49
 70
     1
102
RTVSPropertyOp50
 70
     1
102
RTVSPropertyOp51
 70
     0
102
RTVSPropertyOp52
 70
     0
102
RTVSPropertyOp53
 70
     1
102
RTVSPropertyOp54
 70
     1
102
RTVSPropertyOp55
 70
     1
102
RTVSPropertyOp56
 70
     1
102
RTVSPropertyOp57
 70
     1
102
RTVSPropertyOp58
 70
     1
102
RTVSPropertyOp59
 70
     1
102
RTVSPropertyOp60
 70
     1
102
RTVSPropertyOp61
 70
     1
102
RTVSPropertyOp62
 70
     1
  0
XRECORD
  5
B635
102
{ACAD_REACTORS
330
B634
102
}
330
B634
100
AcDbXrecord
280
     1
102
RTVSPost2010Prop28
280
     0
102
RTVSPost2010PropOp28
 70
     1
102
RTVSPost2010Prop29
280
     1
102
RTVSPost2010PropOp29
 70
     1
102
RTVSPost2010Prop30
280
     1
102
RTVSPost2010PropOp30
 70
     1
102
RTVSPost2010Prop31
280
     0
102
RTVSPost2010PropOp31
 70
     1
102
RTVSPost2010Prop32
280
     0
102
RTVSPost2010PropOp32
 70
     1
102
RTVSPost2010Prop33
280
     0
102
RTVSPost2010PropOp33
 70
     1
102
RTVSPost2010Prop34
280
     0
102
RTVSPost2010PropOp34
 70
     1
102
RTVSPost2010Prop35
280
     0
102
RTVSPost2010PropOp35
 70
     1
102
RTVSPost2010Prop36
280
     0
102
RTVSPost2010PropOp36
 70
     1
102
RTVSPost2010Prop37
 90
       50
102
RTVSPost2010PropOp37
 70
     1
102
RTVSPost2010Prop38
140
0.0
102
RTVSPost2010PropOp38
 70
     1
102
RTVSPost2010Prop39
140
1.0
102
RTVSPost2010PropOp39
 70
     1
102
RTVSPost2010Prop40
 90
        0
102
RTVSPost2010PropOp40
 70
     1
102
RTVSPost2010Prop41ColorIndex
 90
       18
102
RTVSPost2010Prop41ColorRGB
 90
        0
102
RTVSPost2010PropOp41
 70
     1
102
RTVSPost2010Prop42
 90
       50
102
RTVSPost2010PropOp42
 70
     1
102
RTVSPost2010Prop43
 90
        3
102
RTVSPost2010PropOp43
 70
     1
102
RTVSPost2010Prop44ColorIndex
 90
        5
102
RTVSPost2010Prop44ColorRGB
 90
      255
102
RTVSPost2010PropOp44
 70
     1
102
RTVSPost2010Prop45
280
     0
102
RTVSPost2010PropOp45
 70
     1
102
RTVSPost2010Prop46
 90
       50
102
RTVSPost2010PropOp46
 70
     1
102
RTVSPost2010Prop47
 90
       50
102
RTVSPost2010PropOp47
 70
     1
102
RTVSPost2010Prop48
 90
       50
102
RTVSPost2010PropOp48
 70
     1
102
RTVSPost2010Prop49
280
     0
102
RTVSPost2010PropOp49
 70
     1
102
RTVSPost2010Prop50
 90
       50
102
RTVSPost2010PropOp50
 70
     1
102
RTVSPost2010Prop51ColorIndex
 90
      256
102
RTVSPost2010Prop51ColorRGB
 90
-16777216
102
RTVSPost2010PropOp51
 70
     0
102
RTVSPost2010Prop52
140
1.0
102
RTVSPost2010PropOp52
 70
     0
102
RTVSPost2010Prop53
 90
        2
102
RTVSPost2010PropOp53
 70
     1
102
RTVSPost2010Prop54
  1
strokes_ogs.tif
102
RTVSPost2010PropOp54
 70
     1
102
RTVSPost2010Prop55
280
     0
102
RTVSPost2010PropOp55
 70
     1
102
RTVSPost2010Prop56
140
1.0
102
RTVSPost2010PropOp56
 70
     1
102
RTVSPost2010Prop57
140
1.0
102
RTVSPost2010PropOp57
 70
     1
102
RTVSPropertyOp0
 70
     1
102
RTVSPropertyOp1
 70
     1
102
RTVSPropertyOp2
 70
     1
102
RTVSPropertyOp3
 70
     1
102
RTVSPropertyOp4
 70
     1
102
RTVSPropertyOp5
 70
     1
102
RTVSPropertyOp6
 70
     1
102
RTVSPropertyOp7
 70
     1
102
RTVSPropertyOp8
 70
     1
102
RTVSPropertyOp9
 70
     1
102
RTVSPropertyOp10
 70
     1
102
RTVSPropertyOp11
 70
     1
102
RTVSPropertyOp12
 70
     1
102
RTVSPropertyOp13
 70
     1
102
RTVSPropertyOp14
 70
     1
102
RTVSPropertyOp15
 70
     1
102
RTVSPropertyOp16
 70
     1
102
RTVSPropertyOp17
 70
     1
102
RTVSPropertyOp18
 70
     1
102
RTVSPropertyOp19
 70
     1
102
RTVSPropertyOp20
 70
     1
102
RTVSPropertyOp21
 70
     1
102
RTVSPropertyOp22
 70
     1
102
RTVSPropertyOp23
 70
     1
102
RTVSPropertyOp24
 70
     1
102
RTVSPropertyOp25
 70
     1
102
RTVSPropertyOp26
 70
     1
102
RTVSPropertyOp27
 70
     1
102
RTVSPropertyOp28
 70
     1
102
RTVSPropertyOp29
 70
     1
102
RTVSPropertyOp30
 70
     1
102
RTVSPropertyOp31
 70
     1
102
RTVSPropertyOp32
 70
     1
102
RTVSPropertyOp33
 70
     1
102
RTVSPropertyOp34
 70
     1
102
RTVSPropertyOp35
 70
     1
102
RTVSPropertyOp36
 70
     1
102
RTVSPropertyOp37
 70
     1
102
RTVSPropertyOp38
 70
     1
102
RTVSPropertyOp39
 70
     1
102
RTVSPropertyOp40
 70
     1
102
RTVSPropertyOp41
 70
     1
102
RTVSPropertyOp42
 70
     1
102
RTVSPropertyOp43
 70
     1
102
RTVSPropertyOp44
 70
     1
102
RTVSPropertyOp45
 70
     1
102
RTVSPropertyOp46
 70
     1
102
RTVSPropertyOp47
 70
     1
102
RTVSPropertyOp48
 70
     1
102
RTVSPropertyOp49
 70
     1
102
RTVSPropertyOp50
 70
     1
102
RTVSPropertyOp51
 70
     0
102
RTVSPropertyOp52
 70
     0
102
RTVSPropertyOp53
 70
     1
102
RTVSPropertyOp54
 70
     1
102
RTVSPropertyOp55
 70
     1
102
RTVSPropertyOp56
 70
     1
102
RTVSPropertyOp57
 70
     1
102
RTVSPropertyOp58
 70
     1
102
RTVSPropertyOp59
 70
     1
102
RTVSPropertyOp60
 70
     1
102
RTVSPropertyOp61
 70
     1
102
RTVSPropertyOp62
 70
     1
  0
XRECORD
  5
B627
102
{ACAD_REACTORS
330
B626
102
}
330
B626
100
AcDbXrecord
280
     1
102
RTVSPost2010Prop28
280
     0
102
RTVSPost2010PropOp28
 70
     1
102
RTVSPost2010Prop29
280
     1
102
RTVSPost2010PropOp29
 70
     1
102
RTVSPost2010Prop30
280
     1
102
RTVSPost2010PropOp30
 70
     1
102
RTVSPost2010Prop31
280
     0
102
RTVSPost2010PropOp31
 70
     1
102
RTVSPost2010Prop32
280
     0
102
RTVSPost2010PropOp32
 70
     1
102
RTVSPost2010Prop33
280
     0
102
RTVSPost2010PropOp33
 70
     1
102
RTVSPost2010Prop34
280
     0
102
RTVSPost2010PropOp34
 70
     1
102
RTVSPost2010Prop35
280
     0
102
RTVSPost2010PropOp35
 70
     1
102
RTVSPost2010Prop36
280
     0
102
RTVSPost2010PropOp36
 70
     1
102
RTVSPost2010Prop37
 90
       50
102
RTVSPost2010PropOp37
 70
     1
102
RTVSPost2010Prop38
140
0.0
102
RTVSPost2010PropOp38
 70
     1
102
RTVSPost2010Prop39
140
1.0
102
RTVSPost2010PropOp39
 70
     1
102
RTVSPost2010Prop40
 90
        0
102
RTVSPost2010PropOp40
 70
     1
102
RTVSPost2010Prop41ColorIndex
 90
       18
102
RTVSPost2010Prop41ColorRGB
 90
        0
102
RTVSPost2010PropOp41
 70
     1
102
RTVSPost2010Prop42
 90
       50
102
RTVSPost2010PropOp42
 70
     1
102
RTVSPost2010Prop43
 90
        3
102
RTVSPost2010PropOp43
 70
     1
102
RTVSPost2010Prop44ColorIndex
 90
        5
102
RTVSPost2010Prop44ColorRGB
 90
      255
102
RTVSPost2010PropOp44
 70
     1
102
RTVSPost2010Prop45
280
     0
102
RTVSPost2010PropOp45
 70
     1
102
RTVSPost2010Prop46
 90
       50
102
RTVSPost2010PropOp46
 70
     1
102
RTVSPost2010Prop47
 90
       50
102
RTVSPost2010PropOp47
 70
     1
102
RTVSPost2010Prop48
 90
       50
102
RTVSPost2010PropOp48
 70
     1
102
RTVSPost2010Prop49
280
     0
102
RTVSPost2010PropOp49
 70
     1
102
RTVSPost2010Prop50
 90
       50
102
RTVSPost2010PropOp50
 70
     1
102
RTVSPost2010Prop51ColorIndex
 90
      256
102
RTVSPost2010Prop51ColorRGB
 90
-16777216
102
RTVSPost2010PropOp51
 70
     0
102
RTVSPost2010Prop52
140
1.0
102
RTVSPost2010PropOp52
 70
     0
102
RTVSPost2010Prop53
 90
        2
102
RTVSPost2010PropOp53
 70
     1
102
RTVSPost2010Prop54
  1
strokes_ogs.tif
102
RTVSPost2010PropOp54
 70
     1
102
RTVSPost2010Prop55
280
     0
102
RTVSPost2010PropOp55
 70
     1
102
RTVSPost2010Prop56
140
1.0
102
RTVSPost2010PropOp56
 70
     1
102
RTVSPost2010Prop57
140
1.0
102
RTVSPost2010PropOp57
 70
     1
102
RTVSPropertyOp0
 70
     1
102
RTVSPropertyOp1
 70
     1
102
RTVSPropertyOp2
 70
     1
102
RTVSPropertyOp3
 70
     1
102
RTVSPropertyOp4
 70
     1
102
RTVSPropertyOp5
 70
     1
102
RTVSPropertyOp6
 70
     1
102
RTVSPropertyOp7
 70
     1
102
RTVSPropertyOp8
 70
     1
102
RTVSPropertyOp9
 70
     1
102
RTVSPropertyOp10
 70
     1
102
RTVSPropertyOp11
 70
     1
102
RTVSPropertyOp12
 70
     1
102
RTVSPropertyOp13
 70
     1
102
RTVSPropertyOp14
 70
     1
102
RTVSPropertyOp15
 70
     1
102
RTVSPropertyOp16
 70
     1
102
RTVSPropertyOp17
 70
     1
102
RTVSPropertyOp18
 70
     1
102
RTVSPropertyOp19
 70
     1
102
RTVSPropertyOp20
 70
     1
102
RTVSPropertyOp21
 70
     1
102
RTVSPropertyOp22
 70
     1
102
RTVSPropertyOp23
 70
     1
102
RTVSPropertyOp24
 70
     1
102
RTVSPropertyOp25
 70
     1
102
RTVSPropertyOp26
 70
     1
102
RTVSPropertyOp27
 70
     1
102
RTVSPropertyOp28
 70
     1
102
RTVSPropertyOp29
 70
     1
102
RTVSPropertyOp30
 70
     1
102
RTVSPropertyOp31
 70
     1
102
RTVSPropertyOp32
 70
     1
102
RTVSPropertyOp33
 70
     1
102
RTVSPropertyOp34
 70
     1
102
RTVSPropertyOp35
 70
     1
102
RTVSPropertyOp36
 70
     1
102
RTVSPropertyOp37
 70
     1
102
RTVSPropertyOp38
 70
     1
102
RTVSPropertyOp39
 70
     1
102
RTVSPropertyOp40
 70
     1
102
RTVSPropertyOp41
 70
     1
102
RTVSPropertyOp42
 70
     1
102
RTVSPropertyOp43
 70
     1
102
RTVSPropertyOp44
 70
     1
102
RTVSPropertyOp45
 70
     1
102
RTVSPropertyOp46
 70
     1
102
RTVSPropertyOp47
 70
     1
102
RTVSPropertyOp48
 70
     1
102
RTVSPropertyOp49
 70
     1
102
RTVSPropertyOp50
 70
     1
102
RTVSPropertyOp51
 70
     0
102
RTVSPropertyOp52
 70
     0
102
RTVSPropertyOp53
 70
     1
102
RTVSPropertyOp54
 70
     1
102
RTVSPropertyOp55
 70
     1
102
RTVSPropertyOp56
 70
     1
102
RTVSPropertyOp57
 70
     1
102
RTVSPropertyOp58
 70
     1
102
RTVSPropertyOp59
 70
     1
102
RTVSPropertyOp60
 70
     1
102
RTVSPropertyOp61
 70
     1
102
RTVSPropertyOp62
 70
     1
  0
XRECORD
  5
B62B
102
{ACAD_REACTORS
330
B62A
102
}
330
B62A
100
AcDbXrecord
280
     1
102
RTVSPost2010Prop28
280
     0
102
RTVSPost2010PropOp28
 70
     1
102
RTVSPost2010Prop29
280
     1
102
RTVSPost2010PropOp29
 70
     1
102
RTVSPost2010Prop30
280
     1
102
RTVSPost2010PropOp30
 70
     1
102
RTVSPost2010Prop31
280
     0
102
RTVSPost2010PropOp31
 70
     1
102
RTVSPost2010Prop32
280
     0
102
RTVSPost2010PropOp32
 70
     1
102
RTVSPost2010Prop33
280
     0
102
RTVSPost2010PropOp33
 70
     1
102
RTVSPost2010Prop34
280
     0
102
RTVSPost2010PropOp34
 70
     1
102
RTVSPost2010Prop35
280
     0
102
RTVSPost2010PropOp35
 70
     1
102
RTVSPost2010Prop36
280
     0
102
RTVSPost2010PropOp36
 70
     1
102
RTVSPost2010Prop37
 90
       50
102
RTVSPost2010PropOp37
 70
     1
102
RTVSPost2010Prop38
140
0.0
102
RTVSPost2010PropOp38
 70
     1
102
RTVSPost2010Prop39
140
1.0
102
RTVSPost2010PropOp39
 70
     1
102
RTVSPost2010Prop40
 90
        0
102
RTVSPost2010PropOp40
 70
     1
102
RTVSPost2010Prop41ColorIndex
 90
       18
102
RTVSPost2010Prop41ColorRGB
 90
        0
102
RTVSPost2010PropOp41
 70
     1
102
RTVSPost2010Prop42
 90
       50
102
RTVSPost2010PropOp42
 70
     1
102
RTVSPost2010Prop43
 90
        3
102
RTVSPost2010PropOp43
 70
     1
102
RTVSPost2010Prop44ColorIndex
 90
        5
102
RTVSPost2010Prop44ColorRGB
 90
      255
102
RTVSPost2010PropOp44
 70
     1
102
RTVSPost2010Prop45
280
     0
102
RTVSPost2010PropOp45
 70
     1
102
RTVSPost2010Prop46
 90
       50
102
RTVSPost2010PropOp46
 70
     1
102
RTVSPost2010Prop47
 90
       50
102
RTVSPost2010PropOp47
 70
     1
102
RTVSPost2010Prop48
 90
       50
102
RTVSPost2010PropOp48
 70
     1
102
RTVSPost2010Prop49
280
     0
102
RTVSPost2010PropOp49
 70
     1
102
RTVSPost2010Prop50
 90
       50
102
RTVSPost2010PropOp50
 70
     1
102
RTVSPost2010Prop51ColorIndex
 90
      256
102
RTVSPost2010Prop51ColorRGB
 90
-16777216
102
RTVSPost2010PropOp51
 70
     0
102
RTVSPost2010Prop52
140
1.0
102
RTVSPost2010PropOp52
 70
     0
102
RTVSPost2010Prop53
 90
        2
102
RTVSPost2010PropOp53
 70
     1
102
RTVSPost2010Prop54
  1
strokes_ogs.tif
102
RTVSPost2010PropOp54
 70
     1
102
RTVSPost2010Prop55
280
     0
102
RTVSPost2010PropOp55
 70
     1
102
RTVSPost2010Prop56
140
1.0
102
RTVSPost2010PropOp56
 70
     1
102
RTVSPost2010Prop57
140
1.0
102
RTVSPost2010PropOp57
 70
     1
102
RTVSPropertyOp0
 70
     1
102
RTVSPropertyOp1
 70
     1
102
RTVSPropertyOp2
 70
     1
102
RTVSPropertyOp3
 70
     1
102
RTVSPropertyOp4
 70
     1
102
RTVSPropertyOp5
 70
     1
102
RTVSPropertyOp6
 70
     1
102
RTVSPropertyOp7
 70
     1
102
RTVSPropertyOp8
 70
     1
102
RTVSPropertyOp9
 70
     1
102
RTVSPropertyOp10
 70
     1
102
RTVSPropertyOp11
 70
     1
102
RTVSPropertyOp12
 70
     1
102
RTVSPropertyOp13
 70
     1
102
RTVSPropertyOp14
 70
     1
102
RTVSPropertyOp15
 70
     1
102
RTVSPropertyOp16
 70
     1
102
RTVSPropertyOp17
 70
     1
102
RTVSPropertyOp18
 70
     1
102
RTVSPropertyOp19
 70
     1
102
RTVSPropertyOp20
 70
     1
102
RTVSPropertyOp21
 70
     1
102
RTVSPropertyOp22
 70
     1
102
RTVSPropertyOp23
 70
     1
102
RTVSPropertyOp24
 70
     1
102
RTVSPropertyOp25
 70
     1
102
RTVSPropertyOp26
 70
     1
102
RTVSPropertyOp27
 70
     1
102
RTVSPropertyOp28
 70
     1
102
RTVSPropertyOp29
 70
     1
102
RTVSPropertyOp30
 70
     1
102
RTVSPropertyOp31
 70
     1
102
RTVSPropertyOp32
 70
     1
102
RTVSPropertyOp33
 70
     1
102
RTVSPropertyOp34
 70
     1
102
RTVSPropertyOp35
 70
     1
102
RTVSPropertyOp36
 70
     1
102
RTVSPropertyOp37
 70
     1
102
RTVSPropertyOp38
 70
     1
102
RTVSPropertyOp39
 70
     1
102
RTVSPropertyOp40
 70
     1
102
RTVSPropertyOp41
 70
     1
102
RTVSPropertyOp42
 70
     1
102
RTVSPropertyOp43
 70
     1
102
RTVSPropertyOp44
 70
     1
102
RTVSPropertyOp45
 70
     1
102
RTVSPropertyOp46
 70
     1
102
RTVSPropertyOp47
 70
     1
102
RTVSPropertyOp48
 70
     1
102
RTVSPropertyOp49
 70
     1
102
RTVSPropertyOp50
 70
     1
102
RTVSPropertyOp51
 70
     0
102
RTVSPropertyOp52
 70
     0
102
RTVSPropertyOp53
 70
     1
102
RTVSPropertyOp54
 70
     1
102
RTVSPropertyOp55
 70
     1
102
RTVSPropertyOp56
 70
     1
102
RTVSPropertyOp57
 70
     1
102
RTVSPropertyOp58
 70
     1
102
RTVSPropertyOp59
 70
     1
102
RTVSPropertyOp60
 70
     1
102
RTVSPropertyOp61
 70
     1
102
RTVSPropertyOp62
 70
     1
  0
XRECORD
  5
B645
102
{ACAD_REACTORS
330
B644
102
}
330
B644
100
AcDbXrecord
280
     1
102
RTVSPost2010Prop28
280
     0
102
RTVSPost2010PropOp28
 70
     1
102
RTVSPost2010Prop29
280
     1
102
RTVSPost2010PropOp29
 70
     1
102
RTVSPost2010Prop30
280
     1
102
RTVSPost2010PropOp30
 70
     1
102
RTVSPost2010Prop31
280
     0
102
RTVSPost2010PropOp31
 70
     1
102
RTVSPost2010Prop32
280
     0
102
RTVSPost2010PropOp32
 70
     1
102
RTVSPost2010Prop33
280
     0
102
RTVSPost2010PropOp33
 70
     1
102
RTVSPost2010Prop34
280
     0
102
RTVSPost2010PropOp34
 70
     1
102
RTVSPost2010Prop35
280
     0
102
RTVSPost2010PropOp35
 70
     1
102
RTVSPost2010Prop36
280
     0
102
RTVSPost2010PropOp36
 70
     1
102
RTVSPost2010Prop37
 90
       50
102
RTVSPost2010PropOp37
 70
     0
102
RTVSPost2010Prop38
140
0.0
102
RTVSPost2010PropOp38
 70
     0
102
RTVSPost2010Prop39
140
1.0
102
RTVSPost2010PropOp39
 70
     0
102
RTVSPost2010Prop40
 90
        0
102
RTVSPost2010PropOp40
 70
     0
102
RTVSPost2010Prop41ColorIndex
 90
       18
102
RTVSPost2010Prop41ColorRGB
 90
        0
102
RTVSPost2010PropOp41
 70
     0
102
RTVSPost2010Prop42
 90
       50
102
RTVSPost2010PropOp42
 70
     0
102
RTVSPost2010Prop43
 90
        3
102
RTVSPost2010PropOp43
 70
     0
102
RTVSPost2010Prop44ColorIndex
 90
        5
102
RTVSPost2010Prop44ColorRGB
 90
      255
102
RTVSPost2010PropOp44
 70
     0
102
RTVSPost2010Prop45
280
     0
102
RTVSPost2010PropOp45
 70
     1
102
RTVSPost2010Prop46
 90
       50
102
RTVSPost2010PropOp46
 70
     0
102
RTVSPost2010Prop47
 90
       50
102
RTVSPost2010PropOp47
 70
     0
102
RTVSPost2010Prop48
 90
       50
102
RTVSPost2010PropOp48
 70
     0
102
RTVSPost2010Prop49
280
     0
102
RTVSPost2010PropOp49
 70
     1
102
RTVSPost2010Prop50
 90
       50
102
RTVSPost2010PropOp50
 70
     0
102
RTVSPost2010Prop51ColorIndex
 90
      256
102
RTVSPost2010Prop51ColorRGB
 90
-16777216
102
RTVSPost2010PropOp51
 70
     0
102
RTVSPost2010Prop52
140
1.0
102
RTVSPost2010PropOp52
 70
     0
102
RTVSPost2010Prop53
 90
        2
102
RTVSPost2010PropOp53
 70
     0
102
RTVSPost2010Prop54
  1
strokes_ogs.tif
102
RTVSPost2010PropOp54
 70
     0
102
RTVSPost2010Prop55
280
     0
102
RTVSPost2010PropOp55
 70
     1
102
RTVSPost2010Prop56
140
1.0
102
RTVSPost2010PropOp56
 70
     0
102
RTVSPost2010Prop57
140
1.0
102
RTVSPost2010PropOp57
 70
     0
102
RTVSPropertyOp0
 70
     0
102
RTVSPropertyOp1
 70
     0
102
RTVSPropertyOp2
 70
     0
102
RTVSPropertyOp3
 70
     0
102
RTVSPropertyOp4
 70
     0
102
RTVSPropertyOp5
 70
     0
102
RTVSPropertyOp6
 70
     0
102
RTVSPropertyOp7
 70
     0
102
RTVSPropertyOp8
 70
     0
102
RTVSPropertyOp9
 70
     0
102
RTVSPropertyOp10
 70
     0
102
RTVSPropertyOp11
 70
     0
102
RTVSPropertyOp12
 70
     0
102
RTVSPropertyOp13
 70
     0
102
RTVSPropertyOp14
 70
     2
102
RTVSPropertyOp15
 70
     0
102
RTVSPropertyOp16
 70
     0
102
RTVSPropertyOp17
 70
     0
102
RTVSPropertyOp18
 70
     0
102
RTVSPropertyOp19
 70
     0
102
RTVSPropertyOp20
 70
     0
102
RTVSPropertyOp21
 70
     0
102
RTVSPropertyOp22
 70
     0
102
RTVSPropertyOp23
 70
     0
102
RTVSPropertyOp24
 70
     0
102
RTVSPropertyOp25
 70
     0
102
RTVSPropertyOp26
 70
     0
102
RTVSPropertyOp27
 70
     0
102
RTVSPropertyOp28
 70
     1
102
RTVSPropertyOp29
 70
     1
102
RTVSPropertyOp30
 70
     1
102
RTVSPropertyOp31
 70
     1
102
RTVSPropertyOp32
 70
     1
102
RTVSPropertyOp33
 70
     1
102
RTVSPropertyOp34
 70
     1
102
RTVSPropertyOp35
 70
     1
102
RTVSPropertyOp36
 70
     1
102
RTVSPropertyOp37
 70
     0
102
RTVSPropertyOp38
 70
     0
102
RTVSPropertyOp39
 70
     0
102
RTVSPropertyOp40
 70
     0
102
RTVSPropertyOp41
 70
     0
102
RTVSPropertyOp42
 70
     0
102
RTVSPropertyOp43
 70
     0
102
RTVSPropertyOp44
 70
     0
102
RTVSPropertyOp45
 70
     1
102
RTVSPropertyOp46
 70
     0
102
RTVSPropertyOp47
 70
     0
102
RTVSPropertyOp48
 70
     0
102
RTVSPropertyOp49
 70
     1
102
RTVSPropertyOp50
 70
     0
102
RTVSPropertyOp51
 70
     0
102
RTVSPropertyOp52
 70
     0
102
RTVSPropertyOp53
 70
     0
102
RTVSPropertyOp54
 70
     0
102
RTVSPropertyOp55
 70
     1
102
RTVSPropertyOp56
 70
     0
102
RTVSPropertyOp57
 70
     0
102
RTVSPropertyOp58
 70
     0
102
RTVSPropertyOp59
 70
     0
102
RTVSPropertyOp60
 70
     0
102
RTVSPropertyOp61
 70
     0
102
RTVSPropertyOp62
 70
     0
  0
XRECORD
  5
B633
102
{ACAD_REACTORS
330
B632
102
}
330
B632
100
AcDbXrecord
280
     1
102
RTVSPost2010Prop28
280
     0
102
RTVSPost2010PropOp28
 70
     1
102
RTVSPost2010Prop29
280
     1
102
RTVSPost2010PropOp29
 70
     1
102
RTVSPost2010Prop30
280
     1
102
RTVSPost2010PropOp30
 70
     1
102
RTVSPost2010Prop31
280
     0
102
RTVSPost2010PropOp31
 70
     1
102
RTVSPost2010Prop32
280
     0
102
RTVSPost2010PropOp32
 70
     1
102
RTVSPost2010Prop33
280
     0
102
RTVSPost2010PropOp33
 70
     1
102
RTVSPost2010Prop34
280
     0
102
RTVSPost2010PropOp34
 70
     1
102
RTVSPost2010Prop35
280
     0
102
RTVSPost2010PropOp35
 70
     1
102
RTVSPost2010Prop36
280
     0
102
RTVSPost2010PropOp36
 70
     1
102
RTVSPost2010Prop37
 90
       50
102
RTVSPost2010PropOp37
 70
     1
102
RTVSPost2010Prop38
140
0.0
102
RTVSPost2010PropOp38
 70
     1
102
RTVSPost2010Prop39
140
1.0
102
RTVSPost2010PropOp39
 70
     1
102
RTVSPost2010Prop40
 90
        0
102
RTVSPost2010PropOp40
 70
     1
102
RTVSPost2010Prop41ColorIndex
 90
       18
102
RTVSPost2010Prop41ColorRGB
 90
        0
102
RTVSPost2010PropOp41
 70
     1
102
RTVSPost2010Prop42
 90
       50
102
RTVSPost2010PropOp42
 70
     1
102
RTVSPost2010Prop43
 90
        3
102
RTVSPost2010PropOp43
 70
     1
102
RTVSPost2010Prop44ColorIndex
 90
        5
102
RTVSPost2010Prop44ColorRGB
 90
      255
102
RTVSPost2010PropOp44
 70
     1
102
RTVSPost2010Prop45
280
     0
102
RTVSPost2010PropOp45
 70
     1
102
RTVSPost2010Prop46
 90
       50
102
RTVSPost2010PropOp46
 70
     1
102
RTVSPost2010Prop47
 90
       50
102
RTVSPost2010PropOp47
 70
     1
102
RTVSPost2010Prop48
 90
       50
102
RTVSPost2010PropOp48
 70
     1
102
RTVSPost2010Prop49
280
     0
102
RTVSPost2010PropOp49
 70
     1
102
RTVSPost2010Prop50
 90
       50
102
RTVSPost2010PropOp50
 70
     1
102
RTVSPost2010Prop51ColorIndex
 90
      256
102
RTVSPost2010Prop51ColorRGB
 90
-16777216
102
RTVSPost2010PropOp51
 70
     0
102
RTVSPost2010Prop52
140
1.0
102
RTVSPost2010PropOp52
 70
     0
102
RTVSPost2010Prop53
 90
        2
102
RTVSPost2010PropOp53
 70
     1
102
RTVSPost2010Prop54
  1
strokes_ogs.tif
102
RTVSPost2010PropOp54
 70
     1
102
RTVSPost2010Prop55
280
     0
102
RTVSPost2010PropOp55
 70
     1
102
RTVSPost2010Prop56
140
1.0
102
RTVSPost2010PropOp56
 70
     1
102
RTVSPost2010Prop57
140
1.0
102
RTVSPost2010PropOp57
 70
     1
102
RTVSPropertyOp0
 70
     1
102
RTVSPropertyOp1
 70
     1
102
RTVSPropertyOp2
 70
     1
102
RTVSPropertyOp3
 70
     1
102
RTVSPropertyOp4
 70
     1
102
RTVSPropertyOp5
 70
     1
102
RTVSPropertyOp6
 70
     1
102
RTVSPropertyOp7
 70
     1
102
RTVSPropertyOp8
 70
     1
102
RTVSPropertyOp9
 70
     1
102
RTVSPropertyOp10
 70
     1
102
RTVSPropertyOp11
 70
     1
102
RTVSPropertyOp12
 70
     1
102
RTVSPropertyOp13
 70
     1
102
RTVSPropertyOp14
 70
     1
102
RTVSPropertyOp15
 70
     1
102
RTVSPropertyOp16
 70
     1
102
RTVSPropertyOp17
 70
     1
102
RTVSPropertyOp18
 70
     1
102
RTVSPropertyOp19
 70
     1
102
RTVSPropertyOp20
 70
     1
102
RTVSPropertyOp21
 70
     1
102
RTVSPropertyOp22
 70
     1
102
RTVSPropertyOp23
 70
     1
102
RTVSPropertyOp24
 70
     1
102
RTVSPropertyOp25
 70
     1
102
RTVSPropertyOp26
 70
     1
102
RTVSPropertyOp27
 70
     1
102
RTVSPropertyOp28
 70
     1
102
RTVSPropertyOp29
 70
     1
102
RTVSPropertyOp30
 70
     1
102
RTVSPropertyOp31
 70
     1
102
RTVSPropertyOp32
 70
     1
102
RTVSPropertyOp33
 70
     1
102
RTVSPropertyOp34
 70
     1
102
RTVSPropertyOp35
 70
     1
102
RTVSPropertyOp36
 70
     1
102
RTVSPropertyOp37
 70
     1
102
RTVSPropertyOp38
 70
     1
102
RTVSPropertyOp39
 70
     1
102
RTVSPropertyOp40
 70
     1
102
RTVSPropertyOp41
 70
     1
102
RTVSPropertyOp42
 70
     1
102
RTVSPropertyOp43
 70
     1
102
RTVSPropertyOp44
 70
     1
102
RTVSPropertyOp45
 70
     1
102
RTVSPropertyOp46
 70
     1
102
RTVSPropertyOp47
 70
     1
102
RTVSPropertyOp48
 70
     1
102
RTVSPropertyOp49
 70
     1
102
RTVSPropertyOp50
 70
     1
102
RTVSPropertyOp51
 70
     0
102
RTVSPropertyOp52
 70
     0
102
RTVSPropertyOp53
 70
     1
102
RTVSPropertyOp54
 70
     1
102
RTVSPropertyOp55
 70
     1
102
RTVSPropertyOp56
 70
     1
102
RTVSPropertyOp57
 70
     1
102
RTVSPropertyOp58
 70
     1
102
RTVSPropertyOp59
 70
     1
102
RTVSPropertyOp60
 70
     1
102
RTVSPropertyOp61
 70
     1
102
RTVSPropertyOp62
 70
     1
  0
XRECORD
  5
B617
102
{ACAD_REACTORS
330
B616
102
}
330
B616
100
AcDbXrecord
280
     1
102
RTVSPost2010Prop28
280
     0
102
RTVSPost2010PropOp28
 70
     1
102
RTVSPost2010Prop29
280
     1
102
RTVSPost2010PropOp29
 70
     1
102
RTVSPost2010Prop30
280
     1
102
RTVSPost2010PropOp30
 70
     1
102
RTVSPost2010Prop31
280
     0
102
RTVSPost2010PropOp31
 70
     1
102
RTVSPost2010Prop32
280
     0
102
RTVSPost2010PropOp32
 70
     1
102
RTVSPost2010Prop33
280
     0
102
RTVSPost2010PropOp33
 70
     1
102
RTVSPost2010Prop34
280
     0
102
RTVSPost2010PropOp34
 70
     1
102
RTVSPost2010Prop35
280
     0
102
RTVSPost2010PropOp35
 70
     1
102
RTVSPost2010Prop36
280
     0
102
RTVSPost2010PropOp36
 70
     1
102
RTVSPost2010Prop37
 90
       50
102
RTVSPost2010PropOp37
 70
     1
102
RTVSPost2010Prop38
140
0.0
102
RTVSPost2010PropOp38
 70
     1
102
RTVSPost2010Prop39
140
1.0
102
RTVSPost2010PropOp39
 70
     1
102
RTVSPost2010Prop40
 90
        0
102
RTVSPost2010PropOp40
 70
     1
102
RTVSPost2010Prop41ColorIndex
 90
       18
102
RTVSPost2010Prop41ColorRGB
 90
        0
102
RTVSPost2010PropOp41
 70
     1
102
RTVSPost2010Prop42
 90
       50
102
RTVSPost2010PropOp42
 70
     1
102
RTVSPost2010Prop43
 90
        3
102
RTVSPost2010PropOp43
 70
     1
102
RTVSPost2010Prop44ColorIndex
 90
        5
102
RTVSPost2010Prop44ColorRGB
 90
      255
102
RTVSPost2010PropOp44
 70
     1
102
RTVSPost2010Prop45
280
     0
102
RTVSPost2010PropOp45
 70
     1
102
RTVSPost2010Prop46
 90
       50
102
RTVSPost2010PropOp46
 70
     1
102
RTVSPost2010Prop47
 90
       50
102
RTVSPost2010PropOp47
 70
     1
102
RTVSPost2010Prop48
 90
       50
102
RTVSPost2010PropOp48
 70
     1
102
RTVSPost2010Prop49
280
     0
102
RTVSPost2010PropOp49
 70
     1
102
RTVSPost2010Prop50
 90
       50
102
RTVSPost2010PropOp50
 70
     1
102
RTVSPost2010Prop51ColorIndex
 90
      256
102
RTVSPost2010Prop51ColorRGB
 90
-16777216
102
RTVSPost2010PropOp51
 70
     0
102
RTVSPost2010Prop52
140
1.0
102
RTVSPost2010PropOp52
 70
     0
102
RTVSPost2010Prop53
 90
        2
102
RTVSPost2010PropOp53
 70
     1
102
RTVSPost2010Prop54
  1
strokes_ogs.tif
102
RTVSPost2010PropOp54
 70
     1
102
RTVSPost2010Prop55
280
     0
102
RTVSPost2010PropOp55
 70
     1
102
RTVSPost2010Prop56
140
1.0
102
RTVSPost2010PropOp56
 70
     1
102
RTVSPost2010Prop57
140
1.0
102
RTVSPost2010PropOp57
 70
     1
102
RTVSPropertyOp0
 70
     1
102
RTVSPropertyOp1
 70
     1
102
RTVSPropertyOp2
 70
     1
102
RTVSPropertyOp3
 70
     1
102
RTVSPropertyOp4
 70
     1
102
RTVSPropertyOp5
 70
     1
102
RTVSPropertyOp6
 70
     1
102
RTVSPropertyOp7
 70
     1
102
RTVSPropertyOp8
 70
     1
102
RTVSPropertyOp9
 70
     1
102
RTVSPropertyOp10
 70
     1
102
RTVSPropertyOp11
 70
     1
102
RTVSPropertyOp12
 70
     1
102
RTVSPropertyOp13
 70
     1
102
RTVSPropertyOp14
 70
     1
102
RTVSPropertyOp15
 70
     1
102
RTVSPropertyOp16
 70
     1
102
RTVSPropertyOp17
 70
     1
102
RTVSPropertyOp18
 70
     1
102
RTVSPropertyOp19
 70
     1
102
RTVSPropertyOp20
 70
     1
102
RTVSPropertyOp21
 70
     1
102
RTVSPropertyOp22
 70
     1
102
RTVSPropertyOp23
 70
     1
102
RTVSPropertyOp24
 70
     1
102
RTVSPropertyOp25
 70
     1
102
RTVSPropertyOp26
 70
     1
102
RTVSPropertyOp27
 70
     1
102
RTVSPropertyOp28
 70
     1
102
RTVSPropertyOp29
 70
     1
102
RTVSPropertyOp30
 70
     1
102
RTVSPropertyOp31
 70
     1
102
RTVSPropertyOp32
 70
     1
102
RTVSPropertyOp33
 70
     1
102
RTVSPropertyOp34
 70
     1
102
RTVSPropertyOp35
 70
     1
102
RTVSPropertyOp36
 70
     1
102
RTVSPropertyOp37
 70
     1
102
RTVSPropertyOp38
 70
     1
102
RTVSPropertyOp39
 70
     1
102
RTVSPropertyOp40
 70
     1
102
RTVSPropertyOp41
 70
     1
102
RTVSPropertyOp42
 70
     1
102
RTVSPropertyOp43
 70
     1
102
RTVSPropertyOp44
 70
     1
102
RTVSPropertyOp45
 70
     1
102
RTVSPropertyOp46
 70
     1
102
RTVSPropertyOp47
 70
     1
102
RTVSPropertyOp48
 70
     1
102
RTVSPropertyOp49
 70
     1
102
RTVSPropertyOp50
 70
     1
102
RTVSPropertyOp51
 70
     0
102
RTVSPropertyOp52
 70
     0
102
RTVSPropertyOp53
 70
     1
102
RTVSPropertyOp54
 70
     1
102
RTVSPropertyOp55
 70
     1
102
RTVSPropertyOp56
 70
     1
102
RTVSPropertyOp57
 70
     1
102
RTVSPropertyOp58
 70
     1
102
RTVSPropertyOp59
 70
     1
102
RTVSPropertyOp60
 70
     1
102
RTVSPropertyOp61
 70
     1
102
RTVSPropertyOp62
 70
     1
  0
XRECORD
  5
B619
102
{ACAD_REACTORS
330
B618
102
}
330
B618
100
AcDbXrecord
280
     1
102
RTVSPost2010Prop28
280
     0
102
RTVSPost2010PropOp28
 70
     1
102
RTVSPost2010Prop29
280
     1
102
RTVSPost2010PropOp29
 70
     1
102
RTVSPost2010Prop30
280
     1
102
RTVSPost2010PropOp30
 70
     1
102
RTVSPost2010Prop31
280
     0
102
RTVSPost2010PropOp31
 70
     1
102
RTVSPost2010Prop32
280
     0
102
RTVSPost2010PropOp32
 70
     1
102
RTVSPost2010Prop33
280
     0
102
RTVSPost2010PropOp33
 70
     1
102
RTVSPost2010Prop34
280
     0
102
RTVSPost2010PropOp34
 70
     1
102
RTVSPost2010Prop35
280
     0
102
RTVSPost2010PropOp35
 70
     1
102
RTVSPost2010Prop36
280
     0
102
RTVSPost2010PropOp36
 70
     1
102
RTVSPost2010Prop37
 90
       50
102
RTVSPost2010PropOp37
 70
     1
102
RTVSPost2010Prop38
140
0.0
102
RTVSPost2010PropOp38
 70
     1
102
RTVSPost2010Prop39
140
1.0
102
RTVSPost2010PropOp39
 70
     1
102
RTVSPost2010Prop40
 90
        0
102
RTVSPost2010PropOp40
 70
     1
102
RTVSPost2010Prop41ColorIndex
 90
       18
102
RTVSPost2010Prop41ColorRGB
 90
        0
102
RTVSPost2010PropOp41
 70
     1
102
RTVSPost2010Prop42
 90
       50
102
RTVSPost2010PropOp42
 70
     1
102
RTVSPost2010Prop43
 90
        3
102
RTVSPost2010PropOp43
 70
     1
102
RTVSPost2010Prop44ColorIndex
 90
        5
102
RTVSPost2010Prop44ColorRGB
 90
      255
102
RTVSPost2010PropOp44
 70
     1
102
RTVSPost2010Prop45
280
     0
102
RTVSPost2010PropOp45
 70
     1
102
RTVSPost2010Prop46
 90
       50
102
RTVSPost2010PropOp46
 70
     1
102
RTVSPost2010Prop47
 90
       50
102
RTVSPost2010PropOp47
 70
     1
102
RTVSPost2010Prop48
 90
       50
102
RTVSPost2010PropOp48
 70
     1
102
RTVSPost2010Prop49
280
     0
102
RTVSPost2010PropOp49
 70
     1
102
RTVSPost2010Prop50
 90
       50
102
RTVSPost2010PropOp50
 70
     1
102
RTVSPost2010Prop51ColorIndex
 90
      256
102
RTVSPost2010Prop51ColorRGB
 90
-16777216
102
RTVSPost2010PropOp51
 70
     0
102
RTVSPost2010Prop52
140
1.0
102
RTVSPost2010PropOp52
 70
     0
102
RTVSPost2010Prop53
 90
        2
102
RTVSPost2010PropOp53
 70
     1
102
RTVSPost2010Prop54
  1
strokes_ogs.tif
102
RTVSPost2010PropOp54
 70
     1
102
RTVSPost2010Prop55
280
     0
102
RTVSPost2010PropOp55
 70
     1
102
RTVSPost2010Prop56
140
1.0
102
RTVSPost2010PropOp56
 70
     1
102
RTVSPost2010Prop57
140
1.0
102
RTVSPost2010PropOp57
 70
     1
102
RTVSPropertyOp0
 70
     1
102
RTVSPropertyOp1
 70
     1
102
RTVSPropertyOp2
 70
     1
102
RTVSPropertyOp3
 70
     1
102
RTVSPropertyOp4
 70
     1
102
RTVSPropertyOp5
 70
     1
102
RTVSPropertyOp6
 70
     1
102
RTVSPropertyOp7
 70
     1
102
RTVSPropertyOp8
 70
     1
102
RTVSPropertyOp9
 70
     1
102
RTVSPropertyOp10
 70
     1
102
RTVSPropertyOp11
 70
     1
102
RTVSPropertyOp12
 70
     1
102
RTVSPropertyOp13
 70
     1
102
RTVSPropertyOp14
 70
     1
102
RTVSPropertyOp15
 70
     1
102
RTVSPropertyOp16
 70
     1
102
RTVSPropertyOp17
 70
     1
102
RTVSPropertyOp18
 70
     1
102
RTVSPropertyOp19
 70
     1
102
RTVSPropertyOp20
 70
     1
102
RTVSPropertyOp21
 70
     1
102
RTVSPropertyOp22
 70
     1
102
RTVSPropertyOp23
 70
     1
102
RTVSPropertyOp24
 70
     1
102
RTVSPropertyOp25
 70
     1
102
RTVSPropertyOp26
 70
     1
102
RTVSPropertyOp27
 70
     1
102
RTVSPropertyOp28
 70
     1
102
RTVSPropertyOp29
 70
     1
102
RTVSPropertyOp30
 70
     1
102
RTVSPropertyOp31
 70
     1
102
RTVSPropertyOp32
 70
     1
102
RTVSPropertyOp33
 70
     1
102
RTVSPropertyOp34
 70
     1
102
RTVSPropertyOp35
 70
     1
102
RTVSPropertyOp36
 70
     1
102
RTVSPropertyOp37
 70
     1
102
RTVSPropertyOp38
 70
     1
102
RTVSPropertyOp39
 70
     1
102
RTVSPropertyOp40
 70
     1
102
RTVSPropertyOp41
 70
     1
102
RTVSPropertyOp42
 70
     1
102
RTVSPropertyOp43
 70
     1
102
RTVSPropertyOp44
 70
     1
102
RTVSPropertyOp45
 70
     1
102
RTVSPropertyOp46
 70
     1
102
RTVSPropertyOp47
 70
     1
102
RTVSPropertyOp48
 70
     1
102
RTVSPropertyOp49
 70
     1
102
RTVSPropertyOp50
 70
     1
102
RTVSPropertyOp51
 70
     0
102
RTVSPropertyOp52
 70
     0
102
RTVSPropertyOp53
 70
     1
102
RTVSPropertyOp54
 70
     1
102
RTVSPropertyOp55
 70
     1
102
RTVSPropertyOp56
 70
     1
102
RTVSPropertyOp57
 70
     1
102
RTVSPropertyOp58
 70
     1
102
RTVSPropertyOp59
 70
     1
102
RTVSPropertyOp60
 70
     1
102
RTVSPropertyOp61
 70
     1
102
RTVSPropertyOp62
 70
     1
  0
XRECORD
  5
B61B
102
{ACAD_REACTORS
330
B61A
102
}
330
B61A
100
AcDbXrecord
280
     1
102
RTVSPost2010Prop28
280
     0
102
RTVSPost2010PropOp28
 70
     1
102
RTVSPost2010Prop29
280
     1
102
RTVSPost2010PropOp29
 70
     1
102
RTVSPost2010Prop30
280
     1
102
RTVSPost2010PropOp30
 70
     1
102
RTVSPost2010Prop31
280
     0
102
RTVSPost2010PropOp31
 70
     1
102
RTVSPost2010Prop32
280
     0
102
RTVSPost2010PropOp32
 70
     1
102
RTVSPost2010Prop33
280
     0
102
RTVSPost2010PropOp33
 70
     1
102
RTVSPost2010Prop34
280
     0
102
RTVSPost2010PropOp34
 70
     1
102
RTVSPost2010Prop35
280
     0
102
RTVSPost2010PropOp35
 70
     1
102
RTVSPost2010Prop36
280
     0
102
RTVSPost2010PropOp36
 70
     1
102
RTVSPost2010Prop37
 90
       50
102
RTVSPost2010PropOp37
 70
     1
102
RTVSPost2010Prop38
140
0.0
102
RTVSPost2010PropOp38
 70
     1
102
RTVSPost2010Prop39
140
1.0
102
RTVSPost2010PropOp39
 70
     1
102
RTVSPost2010Prop40
 90
        0
102
RTVSPost2010PropOp40
 70
     1
102
RTVSPost2010Prop41ColorIndex
 90
       18
102
RTVSPost2010Prop41ColorRGB
 90
        0
102
RTVSPost2010PropOp41
 70
     1
102
RTVSPost2010Prop42
 90
       50
102
RTVSPost2010PropOp42
 70
     1
102
RTVSPost2010Prop43
 90
        3
102
RTVSPost2010PropOp43
 70
     1
102
RTVSPost2010Prop44ColorIndex
 90
        5
102
RTVSPost2010Prop44ColorRGB
 90
      255
102
RTVSPost2010PropOp44
 70
     1
102
RTVSPost2010Prop45
280
     0
102
RTVSPost2010PropOp45
 70
     1
102
RTVSPost2010Prop46
 90
       50
102
RTVSPost2010PropOp46
 70
     1
102
RTVSPost2010Prop47
 90
       50
102
RTVSPost2010PropOp47
 70
     1
102
RTVSPost2010Prop48
 90
       50
102
RTVSPost2010PropOp48
 70
     1
102
RTVSPost2010Prop49
280
     0
102
RTVSPost2010PropOp49
 70
     1
102
RTVSPost2010Prop50
 90
       50
102
RTVSPost2010PropOp50
 70
     1
102
RTVSPost2010Prop51ColorIndex
 90
      256
102
RTVSPost2010Prop51ColorRGB
 90
-16777216
102
RTVSPost2010PropOp51
 70
     0
102
RTVSPost2010Prop52
140
1.0
102
RTVSPost2010PropOp52
 70
     0
102
RTVSPost2010Prop53
 90
        2
102
RTVSPost2010PropOp53
 70
     1
102
RTVSPost2010Prop54
  1
strokes_ogs.tif
102
RTVSPost2010PropOp54
 70
     1
102
RTVSPost2010Prop55
280
     0
102
RTVSPost2010PropOp55
 70
     1
102
RTVSPost2010Prop56
140
1.0
102
RTVSPost2010PropOp56
 70
     1
102
RTVSPost2010Prop57
140
1.0
102
RTVSPost2010PropOp57
 70
     1
102
RTVSPropertyOp0
 70
     1
102
RTVSPropertyOp1
 70
     1
102
RTVSPropertyOp2
 70
     1
102
RTVSPropertyOp3
 70
     1
102
RTVSPropertyOp4
 70
     1
102
RTVSPropertyOp5
 70
     1
102
RTVSPropertyOp6
 70
     1
102
RTVSPropertyOp7
 70
     1
102
RTVSPropertyOp8
 70
     1
102
RTVSPropertyOp9
 70
     1
102
RTVSPropertyOp10
 70
     1
102
RTVSPropertyOp11
 70
     1
102
RTVSPropertyOp12
 70
     1
102
RTVSPropertyOp13
 70
     1
102
RTVSPropertyOp14
 70
     1
102
RTVSPropertyOp15
 70
     1
102
RTVSPropertyOp16
 70
     1
102
RTVSPropertyOp17
 70
     1
102
RTVSPropertyOp18
 70
     1
102
RTVSPropertyOp19
 70
     1
102
RTVSPropertyOp20
 70
     1
102
RTVSPropertyOp21
 70
     1
102
RTVSPropertyOp22
 70
     1
102
RTVSPropertyOp23
 70
     1
102
RTVSPropertyOp24
 70
     1
102
RTVSPropertyOp25
 70
     1
102
RTVSPropertyOp26
 70
     1
102
RTVSPropertyOp27
 70
     1
102
RTVSPropertyOp28
 70
     1
102
RTVSPropertyOp29
 70
     1
102
RTVSPropertyOp30
 70
     1
102
RTVSPropertyOp31
 70
     1
102
RTVSPropertyOp32
 70
     1
102
RTVSPropertyOp33
 70
     1
102
RTVSPropertyOp34
 70
     1
102
RTVSPropertyOp35
 70
     1
102
RTVSPropertyOp36
 70
     1
102
RTVSPropertyOp37
 70
     1
102
RTVSPropertyOp38
 70
     1
102
RTVSPropertyOp39
 70
     1
102
RTVSPropertyOp40
 70
     1
102
RTVSPropertyOp41
 70
     1
102
RTVSPropertyOp42
 70
     1
102
RTVSPropertyOp43
 70
     1
102
RTVSPropertyOp44
 70
     1
102
RTVSPropertyOp45
 70
     1
102
RTVSPropertyOp46
 70
     1
102
RTVSPropertyOp47
 70
     1
102
RTVSPropertyOp48
 70
     1
102
RTVSPropertyOp49
 70
     1
102
RTVSPropertyOp50
 70
     1
102
RTVSPropertyOp51
 70
     0
102
RTVSPropertyOp52
 70
     0
102
RTVSPropertyOp53
 70
     1
102
RTVSPropertyOp54
 70
     1
102
RTVSPropertyOp55
 70
     1
102
RTVSPropertyOp56
 70
     1
102
RTVSPropertyOp57
 70
     1
102
RTVSPropertyOp58
 70
     1
102
RTVSPropertyOp59
 70
     1
102
RTVSPropertyOp60
 70
     1
102
RTVSPropertyOp61
 70
     1
102
RTVSPropertyOp62
 70
     1
  0
XRECORD
  5
B61D
102
{ACAD_REACTORS
330
B61C
102
}
330
B61C
100
AcDbXrecord
280
     1
102
RTVSPost2010Prop28
280
     0
102
RTVSPost2010PropOp28
 70
     1
102
RTVSPost2010Prop29
280
     1
102
RTVSPost2010PropOp29
 70
     1
102
RTVSPost2010Prop30
280
     1
102
RTVSPost2010PropOp30
 70
     1
102
RTVSPost2010Prop31
280
     0
102
RTVSPost2010PropOp31
 70
     1
102
RTVSPost2010Prop32
280
     0
102
RTVSPost2010PropOp32
 70
     1
102
RTVSPost2010Prop33
280
     0
102
RTVSPost2010PropOp33
 70
     1
102
RTVSPost2010Prop34
280
     0
102
RTVSPost2010PropOp34
 70
     1
102
RTVSPost2010Prop35
280
     0
102
RTVSPost2010PropOp35
 70
     1
102
RTVSPost2010Prop36
280
     0
102
RTVSPost2010PropOp36
 70
     1
102
RTVSPost2010Prop37
 90
       50
102
RTVSPost2010PropOp37
 70
     1
102
RTVSPost2010Prop38
140
0.0
102
RTVSPost2010PropOp38
 70
     1
102
RTVSPost2010Prop39
140
1.0
102
RTVSPost2010PropOp39
 70
     1
102
RTVSPost2010Prop40
 90
        0
102
RTVSPost2010PropOp40
 70
     1
102
RTVSPost2010Prop41ColorIndex
 90
       18
102
RTVSPost2010Prop41ColorRGB
 90
        0
102
RTVSPost2010PropOp41
 70
     1
102
RTVSPost2010Prop42
 90
       50
102
RTVSPost2010PropOp42
 70
     1
102
RTVSPost2010Prop43
 90
        3
102
RTVSPost2010PropOp43
 70
     1
102
RTVSPost2010Prop44ColorIndex
 90
        5
102
RTVSPost2010Prop44ColorRGB
 90
      255
102
RTVSPost2010PropOp44
 70
     1
102
RTVSPost2010Prop45
280
     0
102
RTVSPost2010PropOp45
 70
     1
102
RTVSPost2010Prop46
 90
       50
102
RTVSPost2010PropOp46
 70
     1
102
RTVSPost2010Prop47
 90
       50
102
RTVSPost2010PropOp47
 70
     1
102
RTVSPost2010Prop48
 90
       50
102
RTVSPost2010PropOp48
 70
     1
102
RTVSPost2010Prop49
280
     0
102
RTVSPost2010PropOp49
 70
     1
102
RTVSPost2010Prop50
 90
       50
102
RTVSPost2010PropOp50
 70
     1
102
RTVSPost2010Prop51ColorIndex
 90
      256
102
RTVSPost2010Prop51ColorRGB
 90
-16777216
102
RTVSPost2010PropOp51
 70
     0
102
RTVSPost2010Prop52
140
1.0
102
RTVSPost2010PropOp52
 70
     0
102
RTVSPost2010Prop53
 90
        2
102
RTVSPost2010PropOp53
 70
     1
102
RTVSPost2010Prop54
  1
strokes_ogs.tif
102
RTVSPost2010PropOp54
 70
     1
102
RTVSPost2010Prop55
280
     0
102
RTVSPost2010PropOp55
 70
     1
102
RTVSPost2010Prop56
140
1.0
102
RTVSPost2010PropOp56
 70
     1
102
RTVSPost2010Prop57
140
1.0
102
RTVSPost2010PropOp57
 70
     1
102
RTVSPropertyOp0
 70
     1
102
RTVSPropertyOp1
 70
     1
102
RTVSPropertyOp2
 70
     1
102
RTVSPropertyOp3
 70
     1
102
RTVSPropertyOp4
 70
     1
102
RTVSPropertyOp5
 70
     1
102
RTVSPropertyOp6
 70
     1
102
RTVSPropertyOp7
 70
     1
102
RTVSPropertyOp8
 70
     1
102
RTVSPropertyOp9
 70
     1
102
RTVSPropertyOp10
 70
     1
102
RTVSPropertyOp11
 70
     1
102
RTVSPropertyOp12
 70
     1
102
RTVSPropertyOp13
 70
     1
102
RTVSPropertyOp14
 70
     1
102
RTVSPropertyOp15
 70
     1
102
RTVSPropertyOp16
 70
     1
102
RTVSPropertyOp17
 70
     1
102
RTVSPropertyOp18
 70
     1
102
RTVSPropertyOp19
 70
     1
102
RTVSPropertyOp20
 70
     1
102
RTVSPropertyOp21
 70
     1
102
RTVSPropertyOp22
 70
     1
102
RTVSPropertyOp23
 70
     1
102
RTVSPropertyOp24
 70
     1
102
RTVSPropertyOp25
 70
     1
102
RTVSPropertyOp26
 70
     1
102
RTVSPropertyOp27
 70
     1
102
RTVSPropertyOp28
 70
     1
102
RTVSPropertyOp29
 70
     1
102
RTVSPropertyOp30
 70
     1
102
RTVSPropertyOp31
 70
     1
102
RTVSPropertyOp32
 70
     1
102
RTVSPropertyOp33
 70
     1
102
RTVSPropertyOp34
 70
     1
102
RTVSPropertyOp35
 70
     1
102
RTVSPropertyOp36
 70
     1
102
RTVSPropertyOp37
 70
     1
102
RTVSPropertyOp38
 70
     1
102
RTVSPropertyOp39
 70
     1
102
RTVSPropertyOp40
 70
     1
102
RTVSPropertyOp41
 70
     1
102
RTVSPropertyOp42
 70
     1
102
RTVSPropertyOp43
 70
     1
102
RTVSPropertyOp44
 70
     1
102
RTVSPropertyOp45
 70
     1
102
RTVSPropertyOp46
 70
     1
102
RTVSPropertyOp47
 70
     1
102
RTVSPropertyOp48
 70
     1
102
RTVSPropertyOp49
 70
     1
102
RTVSPropertyOp50
 70
     1
102
RTVSPropertyOp51
 70
     0
102
RTVSPropertyOp52
 70
     0
102
RTVSPropertyOp53
 70
     1
102
RTVSPropertyOp54
 70
     1
102
RTVSPropertyOp55
 70
     1
102
RTVSPropertyOp56
 70
     1
102
RTVSPropertyOp57
 70
     1
102
RTVSPropertyOp58
 70
     1
102
RTVSPropertyOp59
 70
     1
102
RTVSPropertyOp60
 70
     1
102
RTVSPropertyOp61
 70
     1
102
RTVSPropertyOp62
 70
     1
  0
XRECORD
  5
B625
102
{ACAD_REACTORS
330
B624
102
}
330
B624
100
AcDbXrecord
280
     1
102
RTVSPost2010Prop28
280
     0
102
RTVSPost2010PropOp28
 70
     1
102
RTVSPost2010Prop29
280
     1
102
RTVSPost2010PropOp29
 70
     1
102
RTVSPost2010Prop30
280
     1
102
RTVSPost2010PropOp30
 70
     1
102
RTVSPost2010Prop31
280
     0
102
RTVSPost2010PropOp31
 70
     1
102
RTVSPost2010Prop32
280
     0
102
RTVSPost2010PropOp32
 70
     1
102
RTVSPost2010Prop33
280
     0
102
RTVSPost2010PropOp33
 70
     1
102
RTVSPost2010Prop34
280
     0
102
RTVSPost2010PropOp34
 70
     1
102
RTVSPost2010Prop35
280
     0
102
RTVSPost2010PropOp35
 70
     1
102
RTVSPost2010Prop36
280
     0
102
RTVSPost2010PropOp36
 70
     1
102
RTVSPost2010Prop37
 90
       50
102
RTVSPost2010PropOp37
 70
     1
102
RTVSPost2010Prop38
140
0.0
102
RTVSPost2010PropOp38
 70
     1
102
RTVSPost2010Prop39
140
1.0
102
RTVSPost2010PropOp39
 70
     1
102
RTVSPost2010Prop40
 90
        0
102
RTVSPost2010PropOp40
 70
     1
102
RTVSPost2010Prop41ColorIndex
 90
       18
102
RTVSPost2010Prop41ColorRGB
 90
        0
102
RTVSPost2010PropOp41
 70
     1
102
RTVSPost2010Prop42
 90
       50
102
RTVSPost2010PropOp42
 70
     1
102
RTVSPost2010Prop43
 90
        3
102
RTVSPost2010PropOp43
 70
     1
102
RTVSPost2010Prop44ColorIndex
 90
        5
102
RTVSPost2010Prop44ColorRGB
 90
      255
102
RTVSPost2010PropOp44
 70
     1
102
RTVSPost2010Prop45
280
     0
102
RTVSPost2010PropOp45
 70
     1
102
RTVSPost2010Prop46
 90
       50
102
RTVSPost2010PropOp46
 70
     1
102
RTVSPost2010Prop47
 90
       50
102
RTVSPost2010PropOp47
 70
     1
102
RTVSPost2010Prop48
 90
       50
102
RTVSPost2010PropOp48
 70
     1
102
RTVSPost2010Prop49
280
     0
102
RTVSPost2010PropOp49
 70
     1
102
RTVSPost2010Prop50
 90
       50
102
RTVSPost2010PropOp50
 70
     1
102
RTVSPost2010Prop51ColorIndex
 90
      256
102
RTVSPost2010Prop51ColorRGB
 90
-16777216
102
RTVSPost2010PropOp51
 70
     0
102
RTVSPost2010Prop52
140
1.0
102
RTVSPost2010PropOp52
 70
     0
102
RTVSPost2010Prop53
 90
        2
102
RTVSPost2010PropOp53
 70
     1
102
RTVSPost2010Prop54
  1
strokes_ogs.tif
102
RTVSPost2010PropOp54
 70
     1
102
RTVSPost2010Prop55
280
     0
102
RTVSPost2010PropOp55
 70
     1
102
RTVSPost2010Prop56
140
1.0
102
RTVSPost2010PropOp56
 70
     1
102
RTVSPost2010Prop57
140
1.0
102
RTVSPost2010PropOp57
 70
     1
102
RTVSPropertyOp0
 70
     1
102
RTVSPropertyOp1
 70
     1
102
RTVSPropertyOp2
 70
     1
102
RTVSPropertyOp3
 70
     1
102
RTVSPropertyOp4
 70
     1
102
RTVSPropertyOp5
 70
     1
102
RTVSPropertyOp6
 70
     1
102
RTVSPropertyOp7
 70
     1
102
RTVSPropertyOp8
 70
     1
102
RTVSPropertyOp9
 70
     1
102
RTVSPropertyOp10
 70
     1
102
RTVSPropertyOp11
 70
     1
102
RTVSPropertyOp12
 70
     1
102
RTVSPropertyOp13
 70
     1
102
RTVSPropertyOp14
 70
     1
102
RTVSPropertyOp15
 70
     1
102
RTVSPropertyOp16
 70
     1
102
RTVSPropertyOp17
 70
     1
102
RTVSPropertyOp18
 70
     1
102
RTVSPropertyOp19
 70
     1
102
RTVSPropertyOp20
 70
     1
102
RTVSPropertyOp21
 70
     1
102
RTVSPropertyOp22
 70
     1
102
RTVSPropertyOp23
 70
     1
102
RTVSPropertyOp24
 70
     1
102
RTVSPropertyOp25
 70
     1
102
RTVSPropertyOp26
 70
     1
102
RTVSPropertyOp27
 70
     1
102
RTVSPropertyOp28
 70
     1
102
RTVSPropertyOp29
 70
     1
102
RTVSPropertyOp30
 70
     1
102
RTVSPropertyOp31
 70
     1
102
RTVSPropertyOp32
 70
     1
102
RTVSPropertyOp33
 70
     1
102
RTVSPropertyOp34
 70
     1
102
RTVSPropertyOp35
 70
     1
102
RTVSPropertyOp36
 70
     1
102
RTVSPropertyOp37
 70
     1
102
RTVSPropertyOp38
 70
     1
102
RTVSPropertyOp39
 70
     1
102
RTVSPropertyOp40
 70
     1
102
RTVSPropertyOp41
 70
     1
102
RTVSPropertyOp42
 70
     1
102
RTVSPropertyOp43
 70
     1
102
RTVSPropertyOp44
 70
     1
102
RTVSPropertyOp45
 70
     1
102
RTVSPropertyOp46
 70
     1
102
RTVSPropertyOp47
 70
     1
102
RTVSPropertyOp48
 70
     1
102
RTVSPropertyOp49
 70
     1
102
RTVSPropertyOp50
 70
     1
102
RTVSPropertyOp51
 70
     0
102
RTVSPropertyOp52
 70
     0
102
RTVSPropertyOp53
 70
     1
102
RTVSPropertyOp54
 70
     1
102
RTVSPropertyOp55
 70
     1
102
RTVSPropertyOp56
 70
     1
102
RTVSPropertyOp57
 70
     1
102
RTVSPropertyOp58
 70
     1
102
RTVSPropertyOp59
 70
     1
102
RTVSPropertyOp60
 70
     1
102
RTVSPropertyOp61
 70
     1
102
RTVSPropertyOp62
 70
     1
  0
XRECORD
  5
B641
102
{ACAD_REACTORS
330
B640
102
}
330
B640
100
AcDbXrecord
280
     1
102
RTVSPost2010Prop28
280
     0
102
RTVSPost2010PropOp28
 70
     1
102
RTVSPost2010Prop29
280
     1
102
RTVSPost2010PropOp29
 70
     1
102
RTVSPost2010Prop30
280
     1
102
RTVSPost2010PropOp30
 70
     1
102
RTVSPost2010Prop31
280
     0
102
RTVSPost2010PropOp31
 70
     1
102
RTVSPost2010Prop32
280
     0
102
RTVSPost2010PropOp32
 70
     1
102
RTVSPost2010Prop33
280
     0
102
RTVSPost2010PropOp33
 70
     1
102
RTVSPost2010Prop34
280
     0
102
RTVSPost2010PropOp34
 70
     1
102
RTVSPost2010Prop35
280
     0
102
RTVSPost2010PropOp35
 70
     1
102
RTVSPost2010Prop36
280
     0
102
RTVSPost2010PropOp36
 70
     1
102
RTVSPost2010Prop37
 90
       50
102
RTVSPost2010PropOp37
 70
     0
102
RTVSPost2010Prop38
140
0.0
102
RTVSPost2010PropOp38
 70
     0
102
RTVSPost2010Prop39
140
1.0
102
RTVSPost2010PropOp39
 70
     0
102
RTVSPost2010Prop40
 90
        0
102
RTVSPost2010PropOp40
 70
     0
102
RTVSPost2010Prop41ColorIndex
 90
       18
102
RTVSPost2010Prop41ColorRGB
 90
        0
102
RTVSPost2010PropOp41
 70
     0
102
RTVSPost2010Prop42
 90
       50
102
RTVSPost2010PropOp42
 70
     0
102
RTVSPost2010Prop43
 90
        3
102
RTVSPost2010PropOp43
 70
     0
102
RTVSPost2010Prop44ColorIndex
 90
        5
102
RTVSPost2010Prop44ColorRGB
 90
      255
102
RTVSPost2010PropOp44
 70
     0
102
RTVSPost2010Prop45
280
     0
102
RTVSPost2010PropOp45
 70
     1
102
RTVSPost2010Prop46
 90
       50
102
RTVSPost2010PropOp46
 70
     0
102
RTVSPost2010Prop47
 90
       50
102
RTVSPost2010PropOp47
 70
     0
102
RTVSPost2010Prop48
 90
       50
102
RTVSPost2010PropOp48
 70
     0
102
RTVSPost2010Prop49
280
     0
102
RTVSPost2010PropOp49
 70
     1
102
RTVSPost2010Prop50
 90
       50
102
RTVSPost2010PropOp50
 70
     0
102
RTVSPost2010Prop51ColorIndex
 90
      256
102
RTVSPost2010Prop51ColorRGB
 90
-16777216
102
RTVSPost2010PropOp51
 70
     0
102
RTVSPost2010Prop52
140
1.0
102
RTVSPost2010PropOp52
 70
     0
102
RTVSPost2010Prop53
 90
        2
102
RTVSPost2010PropOp53
 70
     0
102
RTVSPost2010Prop54
  1
strokes_ogs.tif
102
RTVSPost2010PropOp54
 70
     0
102
RTVSPost2010Prop55
280
     0
102
RTVSPost2010PropOp55
 70
     1
102
RTVSPost2010Prop56
140
1.0
102
RTVSPost2010PropOp56
 70
     0
102
RTVSPost2010Prop57
140
1.0
102
RTVSPost2010PropOp57
 70
     0
102
RTVSPropertyOp0
 70
     0
102
RTVSPropertyOp1
 70
     0
102
RTVSPropertyOp2
 70
     0
102
RTVSPropertyOp3
 70
     0
102
RTVSPropertyOp4
 70
     0
102
RTVSPropertyOp5
 70
     0
102
RTVSPropertyOp6
 70
     0
102
RTVSPropertyOp7
 70
     0
102
RTVSPropertyOp8
 70
     0
102
RTVSPropertyOp9
 70
     0
102
RTVSPropertyOp10
 70
     0
102
RTVSPropertyOp11
 70
     0
102
RTVSPropertyOp12
 70
     0
102
RTVSPropertyOp13
 70
     0
102
RTVSPropertyOp14
 70
     2
102
RTVSPropertyOp15
 70
     0
102
RTVSPropertyOp16
 70
     0
102
RTVSPropertyOp17
 70
     0
102
RTVSPropertyOp18
 70
     0
102
RTVSPropertyOp19
 70
     0
102
RTVSPropertyOp20
 70
     0
102
RTVSPropertyOp21
 70
     0
102
RTVSPropertyOp22
 70
     0
102
RTVSPropertyOp23
 70
     0
102
RTVSPropertyOp24
 70
     0
102
RTVSPropertyOp25
 70
     0
102
RTVSPropertyOp26
 70
     0
102
RTVSPropertyOp27
 70
     0
102
RTVSPropertyOp28
 70
     1
102
RTVSPropertyOp29
 70
     1
102
RTVSPropertyOp30
 70
     1
102
RTVSPropertyOp31
 70
     1
102
RTVSPropertyOp32
 70
     1
102
RTVSPropertyOp33
 70
     1
102
RTVSPropertyOp34
 70
     1
102
RTVSPropertyOp35
 70
     1
102
RTVSPropertyOp36
 70
     1
102
RTVSPropertyOp37
 70
     0
102
RTVSPropertyOp38
 70
     0
102
RTVSPropertyOp39
 70
     0
102
RTVSPropertyOp40
 70
     0
102
RTVSPropertyOp41
 70
     0
102
RTVSPropertyOp42
 70
     0
102
RTVSPropertyOp43
 70
     0
102
RTVSPropertyOp44
 70
     0
102
RTVSPropertyOp45
 70
     1
102
RTVSPropertyOp46
 70
     0
102
RTVSPropertyOp47
 70
     0
102
RTVSPropertyOp48
 70
     0
102
RTVSPropertyOp49
 70
     1
102
RTVSPropertyOp50
 70
     0
102
RTVSPropertyOp51
 70
     0
102
RTVSPropertyOp52
 70
     0
102
RTVSPropertyOp53
 70
     0
102
RTVSPropertyOp54
 70
     0
102
RTVSPropertyOp55
 70
     1
102
RTVSPropertyOp56
 70
     0
102
RTVSPropertyOp57
 70
     0
102
RTVSPropertyOp58
 70
     0
102
RTVSPropertyOp59
 70
     0
102
RTVSPropertyOp60
 70
     0
102
RTVSPropertyOp61
 70
     0
102
RTVSPropertyOp62
 70
     0
  0
XRECORD
  5
B631
102
{ACAD_REACTORS
330
B630
102
}
330
B630
100
AcDbXrecord
280
     1
102
RTVSPost2010Prop28
280
     0
102
RTVSPost2010PropOp28
 70
     1
102
RTVSPost2010Prop29
280
     1
102
RTVSPost2010PropOp29
 70
     1
102
RTVSPost2010Prop30
280
     1
102
RTVSPost2010PropOp30
 70
     1
102
RTVSPost2010Prop31
280
     0
102
RTVSPost2010PropOp31
 70
     1
102
RTVSPost2010Prop32
280
     0
102
RTVSPost2010PropOp32
 70
     1
102
RTVSPost2010Prop33
280
     0
102
RTVSPost2010PropOp33
 70
     1
102
RTVSPost2010Prop34
280
     0
102
RTVSPost2010PropOp34
 70
     1
102
RTVSPost2010Prop35
280
     0
102
RTVSPost2010PropOp35
 70
     1
102
RTVSPost2010Prop36
280
     0
102
RTVSPost2010PropOp36
 70
     1
102
RTVSPost2010Prop37
 90
       50
102
RTVSPost2010PropOp37
 70
     1
102
RTVSPost2010Prop38
140
0.0
102
RTVSPost2010PropOp38
 70
     1
102
RTVSPost2010Prop39
140
1.0
102
RTVSPost2010PropOp39
 70
     1
102
RTVSPost2010Prop40
 90
        0
102
RTVSPost2010PropOp40
 70
     1
102
RTVSPost2010Prop41ColorIndex
 90
       18
102
RTVSPost2010Prop41ColorRGB
 90
        0
102
RTVSPost2010PropOp41
 70
     1
102
RTVSPost2010Prop42
 90
       50
102
RTVSPost2010PropOp42
 70
     1
102
RTVSPost2010Prop43
 90
        3
102
RTVSPost2010PropOp43
 70
     1
102
RTVSPost2010Prop44ColorIndex
 90
        5
102
RTVSPost2010Prop44ColorRGB
 90
      255
102
RTVSPost2010PropOp44
 70
     1
102
RTVSPost2010Prop45
280
     0
102
RTVSPost2010PropOp45
 70
     1
102
RTVSPost2010Prop46
 90
       50
102
RTVSPost2010PropOp46
 70
     1
102
RTVSPost2010Prop47
 90
       50
102
RTVSPost2010PropOp47
 70
     1
102
RTVSPost2010Prop48
 90
       50
102
RTVSPost2010PropOp48
 70
     1
102
RTVSPost2010Prop49
280
     0
102
RTVSPost2010PropOp49
 70
     1
102
RTVSPost2010Prop50
 90
       50
102
RTVSPost2010PropOp50
 70
     1
102
RTVSPost2010Prop51ColorIndex
 90
      256
102
RTVSPost2010Prop51ColorRGB
 90
-16777216
102
RTVSPost2010PropOp51
 70
     0
102
RTVSPost2010Prop52
140
1.0
102
RTVSPost2010PropOp52
 70
     0
102
RTVSPost2010Prop53
 90
        2
102
RTVSPost2010PropOp53
 70
     1
102
RTVSPost2010Prop54
  1
strokes_ogs.tif
102
RTVSPost2010PropOp54
 70
     1
102
RTVSPost2010Prop55
280
     0
102
RTVSPost2010PropOp55
 70
     1
102
RTVSPost2010Prop56
140
1.0
102
RTVSPost2010PropOp56
 70
     1
102
RTVSPost2010Prop57
140
1.0
102
RTVSPost2010PropOp57
 70
     1
102
RTVSPropertyOp0
 70
     1
102
RTVSPropertyOp1
 70
     1
102
RTVSPropertyOp2
 70
     1
102
RTVSPropertyOp3
 70
     1
102
RTVSPropertyOp4
 70
     1
102
RTVSPropertyOp5
 70
     1
102
RTVSPropertyOp6
 70
     1
102
RTVSPropertyOp7
 70
     1
102
RTVSPropertyOp8
 70
     1
102
RTVSPropertyOp9
 70
     1
102
RTVSPropertyOp10
 70
     1
102
RTVSPropertyOp11
 70
     1
102
RTVSPropertyOp12
 70
     1
102
RTVSPropertyOp13
 70
     1
102
RTVSPropertyOp14
 70
     1
102
RTVSPropertyOp15
 70
     1
102
RTVSPropertyOp16
 70
     1
102
RTVSPropertyOp17
 70
     1
102
RTVSPropertyOp18
 70
     1
102
RTVSPropertyOp19
 70
     1
102
RTVSPropertyOp20
 70
     1
102
RTVSPropertyOp21
 70
     1
102
RTVSPropertyOp22
 70
     1
102
RTVSPropertyOp23
 70
     1
102
RTVSPropertyOp24
 70
     1
102
RTVSPropertyOp25
 70
     1
102
RTVSPropertyOp26
 70
     1
102
RTVSPropertyOp27
 70
     1
102
RTVSPropertyOp28
 70
     1
102
RTVSPropertyOp29
 70
     1
102
RTVSPropertyOp30
 70
     1
102
RTVSPropertyOp31
 70
     1
102
RTVSPropertyOp32
 70
     1
102
RTVSPropertyOp33
 70
     1
102
RTVSPropertyOp34
 70
     1
102
RTVSPropertyOp35
 70
     1
102
RTVSPropertyOp36
 70
     1
102
RTVSPropertyOp37
 70
     1
102
RTVSPropertyOp38
 70
     1
102
RTVSPropertyOp39
 70
     1
102
RTVSPropertyOp40
 70
     1
102
RTVSPropertyOp41
 70
     1
102
RTVSPropertyOp42
 70
     1
102
RTVSPropertyOp43
 70
     1
102
RTVSPropertyOp44
 70
     1
102
RTVSPropertyOp45
 70
     1
102
RTVSPropertyOp46
 70
     1
102
RTVSPropertyOp47
 70
     1
102
RTVSPropertyOp48
 70
     1
102
RTVSPropertyOp49
 70
     1
102
RTVSPropertyOp50
 70
     1
102
RTVSPropertyOp51
 70
     0
102
RTVSPropertyOp52
 70
     0
102
RTVSPropertyOp53
 70
     1
102
RTVSPropertyOp54
 70
     1
102
RTVSPropertyOp55
 70
     1
102
RTVSPropertyOp56
 70
     1
102
RTVSPropertyOp57
 70
     1
102
RTVSPropertyOp58
 70
     1
102
RTVSPropertyOp59
 70
     1
102
RTVSPropertyOp60
 70
     1
102
RTVSPropertyOp61
 70
     1
102
RTVSPropertyOp62
 70
     1
  0
XRECORD
  5
B643
102
{ACAD_REACTORS
330
B642
102
}
330
B642
100
AcDbXrecord
280
     1
102
RTVSPost2010Prop28
280
     0
102
RTVSPost2010PropOp28
 70
     1
102
RTVSPost2010Prop29
280
     1
102
RTVSPost2010PropOp29
 70
     1
102
RTVSPost2010Prop30
280
     1
102
RTVSPost2010PropOp30
 70
     1
102
RTVSPost2010Prop31
280
     0
102
RTVSPost2010PropOp31
 70
     1
102
RTVSPost2010Prop32
280
     0
102
RTVSPost2010PropOp32
 70
     1
102
RTVSPost2010Prop33
280
     0
102
RTVSPost2010PropOp33
 70
     1
102
RTVSPost2010Prop34
280
     0
102
RTVSPost2010PropOp34
 70
     1
102
RTVSPost2010Prop35
280
     0
102
RTVSPost2010PropOp35
 70
     1
102
RTVSPost2010Prop36
280
     0
102
RTVSPost2010PropOp36
 70
     1
102
RTVSPost2010Prop37
 90
       50
102
RTVSPost2010PropOp37
 70
     0
102
RTVSPost2010Prop38
140
0.0
102
RTVSPost2010PropOp38
 70
     0
102
RTVSPost2010Prop39
140
1.0
102
RTVSPost2010PropOp39
 70
     0
102
RTVSPost2010Prop40
 90
        0
102
RTVSPost2010PropOp40
 70
     0
102
RTVSPost2010Prop41ColorIndex
 90
       18
102
RTVSPost2010Prop41ColorRGB
 90
        0
102
RTVSPost2010PropOp41
 70
     0
102
RTVSPost2010Prop42
 90
       50
102
RTVSPost2010PropOp42
 70
     0
102
RTVSPost2010Prop43
 90
        3
102
RTVSPost2010PropOp43
 70
     0
102
RTVSPost2010Prop44ColorIndex
 90
        5
102
RTVSPost2010Prop44ColorRGB
 90
      255
102
RTVSPost2010PropOp44
 70
     0
102
RTVSPost2010Prop45
280
     0
102
RTVSPost2010PropOp45
 70
     1
102
RTVSPost2010Prop46
 90
       50
102
RTVSPost2010PropOp46
 70
     0
102
RTVSPost2010Prop47
 90
       50
102
RTVSPost2010PropOp47
 70
     0
102
RTVSPost2010Prop48
 90
       50
102
RTVSPost2010PropOp48
 70
     0
102
RTVSPost2010Prop49
280
     0
102
RTVSPost2010PropOp49
 70
     1
102
RTVSPost2010Prop50
 90
       50
102
RTVSPost2010PropOp50
 70
     0
102
RTVSPost2010Prop51ColorIndex
 90
      256
102
RTVSPost2010Prop51ColorRGB
 90
-16777216
102
RTVSPost2010PropOp51
 70
     0
102
RTVSPost2010Prop52
140
1.0
102
RTVSPost2010PropOp52
 70
     0
102
RTVSPost2010Prop53
 90
        2
102
RTVSPost2010PropOp53
 70
     0
102
RTVSPost2010Prop54
  1
strokes_ogs.tif
102
RTVSPost2010PropOp54
 70
     0
102
RTVSPost2010Prop55
280
     0
102
RTVSPost2010PropOp55
 70
     1
102
RTVSPost2010Prop56
140
1.0
102
RTVSPost2010PropOp56
 70
     0
102
RTVSPost2010Prop57
140
1.0
102
RTVSPost2010PropOp57
 70
     0
102
RTVSPropertyOp0
 70
     0
102
RTVSPropertyOp1
 70
     0
102
RTVSPropertyOp2
 70
     0
102
RTVSPropertyOp3
 70
     0
102
RTVSPropertyOp4
 70
     0
102
RTVSPropertyOp5
 70
     0
102
RTVSPropertyOp6
 70
     0
102
RTVSPropertyOp7
 70
     0
102
RTVSPropertyOp8
 70
     0
102
RTVSPropertyOp9
 70
     0
102
RTVSPropertyOp10
 70
     0
102
RTVSPropertyOp11
 70
     0
102
RTVSPropertyOp12
 70
     0
102
RTVSPropertyOp13
 70
     0
102
RTVSPropertyOp14
 70
     2
102
RTVSPropertyOp15
 70
     0
102
RTVSPropertyOp16
 70
     0
102
RTVSPropertyOp17
 70
     0
102
RTVSPropertyOp18
 70
     0
102
RTVSPropertyOp19
 70
     0
102
RTVSPropertyOp20
 70
     0
102
RTVSPropertyOp21
 70
     0
102
RTVSPropertyOp22
 70
     0
102
RTVSPropertyOp23
 70
     0
102
RTVSPropertyOp24
 70
     0
102
RTVSPropertyOp25
 70
     0
102
RTVSPropertyOp26
 70
     0
102
RTVSPropertyOp27
 70
     0
102
RTVSPropertyOp28
 70
     1
102
RTVSPropertyOp29
 70
     1
102
RTVSPropertyOp30
 70
     1
102
RTVSPropertyOp31
 70
     1
102
RTVSPropertyOp32
 70
     1
102
RTVSPropertyOp33
 70
     1
102
RTVSPropertyOp34
 70
     1
102
RTVSPropertyOp35
 70
     1
102
RTVSPropertyOp36
 70
     1
102
RTVSPropertyOp37
 70
     0
102
RTVSPropertyOp38
 70
     0
102
RTVSPropertyOp39
 70
     0
102
RTVSPropertyOp40
 70
     0
102
RTVSPropertyOp41
 70
     0
102
RTVSPropertyOp42
 70
     0
102
RTVSPropertyOp43
 70
     0
102
RTVSPropertyOp44
 70
     0
102
RTVSPropertyOp45
 70
     1
102
RTVSPropertyOp46
 70
     0
102
RTVSPropertyOp47
 70
     0
102
RTVSPropertyOp48
 70
     0
102
RTVSPropertyOp49
 70
     1
102
RTVSPropertyOp50
 70
     0
102
RTVSPropertyOp51
 70
     0
102
RTVSPropertyOp52
 70
     0
102
RTVSPropertyOp53
 70
     0
102
RTVSPropertyOp54
 70
     0
102
RTVSPropertyOp55
 70
     1
102
RTVSPropertyOp56
 70
     0
102
RTVSPropertyOp57
 70
     0
102
RTVSPropertyOp58
 70
     0
102
RTVSPropertyOp59
 70
     0
102
RTVSPropertyOp60
 70
     0
102
RTVSPropertyOp61
 70
     0
102
RTVSPropertyOp62
 70
     0
  0
XRECORD
  5
B629
102
{ACAD_REACTORS
330
B628
102
}
330
B628
100
AcDbXrecord
280
     1
102
RTVSPost2010Prop28
280
     0
102
RTVSPost2010PropOp28
 70
     1
102
RTVSPost2010Prop29
280
     1
102
RTVSPost2010PropOp29
 70
     1
102
RTVSPost2010Prop30
280
     1
102
RTVSPost2010PropOp30
 70
     1
102
RTVSPost2010Prop31
280
     0
102
RTVSPost2010PropOp31
 70
     1
102
RTVSPost2010Prop32
280
     0
102
RTVSPost2010PropOp32
 70
     1
102
RTVSPost2010Prop33
280
     0
102
RTVSPost2010PropOp33
 70
     1
102
RTVSPost2010Prop34
280
     0
102
RTVSPost2010PropOp34
 70
     1
102
RTVSPost2010Prop35
280
     0
102
RTVSPost2010PropOp35
 70
     1
102
RTVSPost2010Prop36
280
     0
102
RTVSPost2010PropOp36
 70
     1
102
RTVSPost2010Prop37
 90
       50
102
RTVSPost2010PropOp37
 70
     1
102
RTVSPost2010Prop38
140
0.0
102
RTVSPost2010PropOp38
 70
     1
102
RTVSPost2010Prop39
140
1.0
102
RTVSPost2010PropOp39
 70
     1
102
RTVSPost2010Prop40
 90
        0
102
RTVSPost2010PropOp40
 70
     1
102
RTVSPost2010Prop41ColorIndex
 90
       18
102
RTVSPost2010Prop41ColorRGB
 90
        0
102
RTVSPost2010PropOp41
 70
     1
102
RTVSPost2010Prop42
 90
       50
102
RTVSPost2010PropOp42
 70
     1
102
RTVSPost2010Prop43
 90
        3
102
RTVSPost2010PropOp43
 70
     1
102
RTVSPost2010Prop44ColorIndex
 90
        5
102
RTVSPost2010Prop44ColorRGB
 90
      255
102
RTVSPost2010PropOp44
 70
     1
102
RTVSPost2010Prop45
280
     0
102
RTVSPost2010PropOp45
 70
     1
102
RTVSPost2010Prop46
 90
       50
102
RTVSPost2010PropOp46
 70
     1
102
RTVSPost2010Prop47
 90
       50
102
RTVSPost2010PropOp47
 70
     1
102
RTVSPost2010Prop48
 90
       50
102
RTVSPost2010PropOp48
 70
     1
102
RTVSPost2010Prop49
280
     0
102
RTVSPost2010PropOp49
 70
     1
102
RTVSPost2010Prop50
 90
       50
102
RTVSPost2010PropOp50
 70
     1
102
RTVSPost2010Prop51ColorIndex
 90
      256
102
RTVSPost2010Prop51ColorRGB
 90
-16777216
102
RTVSPost2010PropOp51
 70
     0
102
RTVSPost2010Prop52
140
1.0
102
RTVSPost2010PropOp52
 70
     0
102
RTVSPost2010Prop53
 90
        2
102
RTVSPost2010PropOp53
 70
     1
102
RTVSPost2010Prop54
  1
strokes_ogs.tif
102
RTVSPost2010PropOp54
 70
     1
102
RTVSPost2010Prop55
280
     0
102
RTVSPost2010PropOp55
 70
     1
102
RTVSPost2010Prop56
140
1.0
102
RTVSPost2010PropOp56
 70
     1
102
RTVSPost2010Prop57
140
1.0
102
RTVSPost2010PropOp57
 70
     1
102
RTVSPropertyOp0
 70
     1
102
RTVSPropertyOp1
 70
     1
102
RTVSPropertyOp2
 70
     1
102
RTVSPropertyOp3
 70
     1
102
RTVSPropertyOp4
 70
     1
102
RTVSPropertyOp5
 70
     1
102
RTVSPropertyOp6
 70
     1
102
RTVSPropertyOp7
 70
     1
102
RTVSPropertyOp8
 70
     1
102
RTVSPropertyOp9
 70
     1
102
RTVSPropertyOp10
 70
     1
102
RTVSPropertyOp11
 70
     1
102
RTVSPropertyOp12
 70
     1
102
RTVSPropertyOp13
 70
     1
102
RTVSPropertyOp14
 70
     1
102
RTVSPropertyOp15
 70
     1
102
RTVSPropertyOp16
 70
     1
102
RTVSPropertyOp17
 70
     1
102
RTVSPropertyOp18
 70
     1
102
RTVSPropertyOp19
 70
     1
102
RTVSPropertyOp20
 70
     1
102
RTVSPropertyOp21
 70
     1
102
RTVSPropertyOp22
 70
     1
102
RTVSPropertyOp23
 70
     1
102
RTVSPropertyOp24
 70
     1
102
RTVSPropertyOp25
 70
     1
102
RTVSPropertyOp26
 70
     1
102
RTVSPropertyOp27
 70
     1
102
RTVSPropertyOp28
 70
     1
102
RTVSPropertyOp29
 70
     1
102
RTVSPropertyOp30
 70
     1
102
RTVSPropertyOp31
 70
     1
102
RTVSPropertyOp32
 70
     1
102
RTVSPropertyOp33
 70
     1
102
RTVSPropertyOp34
 70
     1
102
RTVSPropertyOp35
 70
     1
102
RTVSPropertyOp36
 70
     1
102
RTVSPropertyOp37
 70
     1
102
RTVSPropertyOp38
 70
     1
102
RTVSPropertyOp39
 70
     1
102
RTVSPropertyOp40
 70
     1
102
RTVSPropertyOp41
 70
     1
102
RTVSPropertyOp42
 70
     1
102
RTVSPropertyOp43
 70
     1
102
RTVSPropertyOp44
 70
     1
102
RTVSPropertyOp45
 70
     1
102
RTVSPropertyOp46
 70
     1
102
RTVSPropertyOp47
 70
     1
102
RTVSPropertyOp48
 70
     1
102
RTVSPropertyOp49
 70
     1
102
RTVSPropertyOp50
 70
     1
102
RTVSPropertyOp51
 70
     0
102
RTVSPropertyOp52
 70
     0
102
RTVSPropertyOp53
 70
     1
102
RTVSPropertyOp54
 70
     1
102
RTVSPropertyOp55
 70
     1
102
RTVSPropertyOp56
 70
     1
102
RTVSPropertyOp57
 70
     1
102
RTVSPropertyOp58
 70
     1
102
RTVSPropertyOp59
 70
     1
102
RTVSPropertyOp60
 70
     1
102
RTVSPropertyOp61
 70
     1
102
RTVSPropertyOp62
 70
     1
  0
XRECORD
  5
B63F
102
{ACAD_REACTORS
330
B63E
102
}
330
B63E
100
AcDbXrecord
280
     1
102
RTVSPost2010Prop28
280
     0
102
RTVSPost2010PropOp28
 70
     1
102
RTVSPost2010Prop29
280
     1
102
RTVSPost2010PropOp29
 70
     1
102
RTVSPost2010Prop30
280
     1
102
RTVSPost2010PropOp30
 70
     1
102
RTVSPost2010Prop31
280
     0
102
RTVSPost2010PropOp31
 70
     1
102
RTVSPost2010Prop32
280
     0
102
RTVSPost2010PropOp32
 70
     1
102
RTVSPost2010Prop33
280
     0
102
RTVSPost2010PropOp33
 70
     1
102
RTVSPost2010Prop34
280
     0
102
RTVSPost2010PropOp34
 70
     1
102
RTVSPost2010Prop35
280
     0
102
RTVSPost2010PropOp35
 70
     1
102
RTVSPost2010Prop36
280
     0
102
RTVSPost2010PropOp36
 70
     1
102
RTVSPost2010Prop37
 90
       50
102
RTVSPost2010PropOp37
 70
     1
102
RTVSPost2010Prop38
140
0.0
102
RTVSPost2010PropOp38
 70
     1
102
RTVSPost2010Prop39
140
1.0
102
RTVSPost2010PropOp39
 70
     1
102
RTVSPost2010Prop40
 90
        0
102
RTVSPost2010PropOp40
 70
     1
102
RTVSPost2010Prop41ColorIndex
 90
       18
102
RTVSPost2010Prop41ColorRGB
 90
        0
102
RTVSPost2010PropOp41
 70
     1
102
RTVSPost2010Prop42
 90
       50
102
RTVSPost2010PropOp42
 70
     1
102
RTVSPost2010Prop43
 90
        3
102
RTVSPost2010PropOp43
 70
     1
102
RTVSPost2010Prop44ColorIndex
 90
        5
102
RTVSPost2010Prop44ColorRGB
 90
      255
102
RTVSPost2010PropOp44
 70
     1
102
RTVSPost2010Prop45
280
     0
102
RTVSPost2010PropOp45
 70
     1
102
RTVSPost2010Prop46
 90
       50
102
RTVSPost2010PropOp46
 70
     1
102
RTVSPost2010Prop47
 90
       50
102
RTVSPost2010PropOp47
 70
     1
102
RTVSPost2010Prop48
 90
       50
102
RTVSPost2010PropOp48
 70
     1
102
RTVSPost2010Prop49
280
     0
102
RTVSPost2010PropOp49
 70
     1
102
RTVSPost2010Prop50
 90
       50
102
RTVSPost2010PropOp50
 70
     1
102
RTVSPost2010Prop51ColorIndex
 90
      256
102
RTVSPost2010Prop51ColorRGB
 90
-16777216
102
RTVSPost2010PropOp51
 70
     0
102
RTVSPost2010Prop52
140
1.0
102
RTVSPost2010PropOp52
 70
     0
102
RTVSPost2010Prop53
 90
        2
102
RTVSPost2010PropOp53
 70
     1
102
RTVSPost2010Prop54
  1
strokes_ogs.tif
102
RTVSPost2010PropOp54
 70
     1
102
RTVSPost2010Prop55
280
     0
102
RTVSPost2010PropOp55
 70
     1
102
RTVSPost2010Prop56
140
1.0
102
RTVSPost2010PropOp56
 70
     1
102
RTVSPost2010Prop57
140
1.0
102
RTVSPost2010PropOp57
 70
     1
102
RTVSPropertyOp0
 70
     1
102
RTVSPropertyOp1
 70
     1
102
RTVSPropertyOp2
 70
     1
102
RTVSPropertyOp3
 70
     1
102
RTVSPropertyOp4
 70
     1
102
RTVSPropertyOp5
 70
     1
102
RTVSPropertyOp6
 70
     1
102
RTVSPropertyOp7
 70
     1
102
RTVSPropertyOp8
 70
     1
102
RTVSPropertyOp9
 70
     1
102
RTVSPropertyOp10
 70
     1
102
RTVSPropertyOp11
 70
     1
102
RTVSPropertyOp12
 70
     1
102
RTVSPropertyOp13
 70
     1
102
RTVSPropertyOp14
 70
     1
102
RTVSPropertyOp15
 70
     1
102
RTVSPropertyOp16
 70
     1
102
RTVSPropertyOp17
 70
     1
102
RTVSPropertyOp18
 70
     1
102
RTVSPropertyOp19
 70
     1
102
RTVSPropertyOp20
 70
     1
102
RTVSPropertyOp21
 70
     1
102
RTVSPropertyOp22
 70
     1
102
RTVSPropertyOp23
 70
     1
102
RTVSPropertyOp24
 70
     1
102
RTVSPropertyOp25
 70
     1
102
RTVSPropertyOp26
 70
     1
102
RTVSPropertyOp27
 70
     1
102
RTVSPropertyOp28
 70
     1
102
RTVSPropertyOp29
 70
     1
102
RTVSPropertyOp30
 70
     1
102
RTVSPropertyOp31
 70
     1
102
RTVSPropertyOp32
 70
     1
102
RTVSPropertyOp33
 70
     1
102
RTVSPropertyOp34
 70
     1
102
RTVSPropertyOp35
 70
     1
102
RTVSPropertyOp36
 70
     1
102
RTVSPropertyOp37
 70
     1
102
RTVSPropertyOp38
 70
     1
102
RTVSPropertyOp39
 70
     1
102
RTVSPropertyOp40
 70
     1
102
RTVSPropertyOp41
 70
     1
102
RTVSPropertyOp42
 70
     1
102
RTVSPropertyOp43
 70
     1
102
RTVSPropertyOp44
 70
     1
102
RTVSPropertyOp45
 70
     1
102
RTVSPropertyOp46
 70
     1
102
RTVSPropertyOp47
 70
     1
102
RTVSPropertyOp48
 70
     1
102
RTVSPropertyOp49
 70
     1
102
RTVSPropertyOp50
 70
     1
102
RTVSPropertyOp51
 70
     0
102
RTVSPropertyOp52
 70
     0
102
RTVSPropertyOp53
 70
     1
102
RTVSPropertyOp54
 70
     1
102
RTVSPropertyOp55
 70
     1
102
RTVSPropertyOp56
 70
     1
102
RTVSPropertyOp57
 70
     1
102
RTVSPropertyOp58
 70
     1
102
RTVSPropertyOp59
 70
     1
102
RTVSPropertyOp60
 70
     1
102
RTVSPropertyOp61
 70
     1
102
RTVSPropertyOp62
 70
     1
  0
XRECORD
  5
B63D
102
{ACAD_REACTORS
330
B63C
102
}
330
B63C
100
AcDbXrecord
280
     1
102
RTVSPost2010Prop28
280
     0
102
RTVSPost2010PropOp28
 70
     1
102
RTVSPost2010Prop29
280
     1
102
RTVSPost2010PropOp29
 70
     1
102
RTVSPost2010Prop30
280
     1
102
RTVSPost2010PropOp30
 70
     1
102
RTVSPost2010Prop31
280
     0
102
RTVSPost2010PropOp31
 70
     1
102
RTVSPost2010Prop32
280
     0
102
RTVSPost2010PropOp32
 70
     1
102
RTVSPost2010Prop33
280
     0
102
RTVSPost2010PropOp33
 70
     1
102
RTVSPost2010Prop34
280
     0
102
RTVSPost2010PropOp34
 70
     1
102
RTVSPost2010Prop35
280
     0
102
RTVSPost2010PropOp35
 70
     1
102
RTVSPost2010Prop36
280
     0
102
RTVSPost2010PropOp36
 70
     1
102
RTVSPost2010Prop37
 90
       50
102
RTVSPost2010PropOp37
 70
     1
102
RTVSPost2010Prop38
140
0.0
102
RTVSPost2010PropOp38
 70
     1
102
RTVSPost2010Prop39
140
1.0
102
RTVSPost2010PropOp39
 70
     1
102
RTVSPost2010Prop40
 90
        0
102
RTVSPost2010PropOp40
 70
     1
102
RTVSPost2010Prop41ColorIndex
 90
       18
102
RTVSPost2010Prop41ColorRGB
 90
        0
102
RTVSPost2010PropOp41
 70
     1
102
RTVSPost2010Prop42
 90
       50
102
RTVSPost2010PropOp42
 70
     1
102
RTVSPost2010Prop43
 90
        3
102
RTVSPost2010PropOp43
 70
     1
102
RTVSPost2010Prop44ColorIndex
 90
        5
102
RTVSPost2010Prop44ColorRGB
 90
      255
102
RTVSPost2010PropOp44
 70
     1
102
RTVSPost2010Prop45
280
     0
102
RTVSPost2010PropOp45
 70
     1
102
RTVSPost2010Prop46
 90
       50
102
RTVSPost2010PropOp46
 70
     1
102
RTVSPost2010Prop47
 90
       50
102
RTVSPost2010PropOp47
 70
     1
102
RTVSPost2010Prop48
 90
       50
102
RTVSPost2010PropOp48
 70
     1
102
RTVSPost2010Prop49
280
     0
102
RTVSPost2010PropOp49
 70
     1
102
RTVSPost2010Prop50
 90
       50
102
RTVSPost2010PropOp50
 70
     1
102
RTVSPost2010Prop51ColorIndex
 90
      256
102
RTVSPost2010Prop51ColorRGB
 90
-16777216
102
RTVSPost2010PropOp51
 70
     0
102
RTVSPost2010Prop52
140
1.0
102
RTVSPost2010PropOp52
 70
     0
102
RTVSPost2010Prop53
 90
        2
102
RTVSPost2010PropOp53
 70
     1
102
RTVSPost2010Prop54
  1
strokes_ogs.tif
102
RTVSPost2010PropOp54
 70
     1
102
RTVSPost2010Prop55
280
     0
102
RTVSPost2010PropOp55
 70
     1
102
RTVSPost2010Prop56
140
1.0
102
RTVSPost2010PropOp56
 70
     1
102
RTVSPost2010Prop57
140
1.0
102
RTVSPost2010PropOp57
 70
     1
102
RTVSPropertyOp0
 70
     1
102
RTVSPropertyOp1
 70
     1
102
RTVSPropertyOp2
 70
     1
102
RTVSPropertyOp3
 70
     1
102
RTVSPropertyOp4
 70
     1
102
RTVSPropertyOp5
 70
     1
102
RTVSPropertyOp6
 70
     1
102
RTVSPropertyOp7
 70
     1
102
RTVSPropertyOp8
 70
     1
102
RTVSPropertyOp9
 70
     1
102
RTVSPropertyOp10
 70
     1
102
RTVSPropertyOp11
 70
     1
102
RTVSPropertyOp12
 70
     1
102
RTVSPropertyOp13
 70
     1
102
RTVSPropertyOp14
 70
     1
102
RTVSPropertyOp15
 70
     1
102
RTVSPropertyOp16
 70
     1
102
RTVSPropertyOp17
 70
     1
102
RTVSPropertyOp18
 70
     1
102
RTVSPropertyOp19
 70
     1
102
RTVSPropertyOp20
 70
     1
102
RTVSPropertyOp21
 70
     1
102
RTVSPropertyOp22
 70
     1
102
RTVSPropertyOp23
 70
     1
102
RTVSPropertyOp24
 70
     1
102
RTVSPropertyOp25
 70
     1
102
RTVSPropertyOp26
 70
     1
102
RTVSPropertyOp27
 70
     1
102
RTVSPropertyOp28
 70
     1
102
RTVSPropertyOp29
 70
     1
102
RTVSPropertyOp30
 70
     1
102
RTVSPropertyOp31
 70
     1
102
RTVSPropertyOp32
 70
     1
102
RTVSPropertyOp33
 70
     1
102
RTVSPropertyOp34
 70
     1
102
RTVSPropertyOp35
 70
     1
102
RTVSPropertyOp36
 70
     1
102
RTVSPropertyOp37
 70
     1
102
RTVSPropertyOp38
 70
     1
102
RTVSPropertyOp39
 70
     1
102
RTVSPropertyOp40
 70
     1
102
RTVSPropertyOp41
 70
     1
102
RTVSPropertyOp42
 70
     1
102
RTVSPropertyOp43
 70
     1
102
RTVSPropertyOp44
 70
     1
102
RTVSPropertyOp45
 70
     1
102
RTVSPropertyOp46
 70
     1
102
RTVSPropertyOp47
 70
     1
102
RTVSPropertyOp48
 70
     1
102
RTVSPropertyOp49
 70
     1
102
RTVSPropertyOp50
 70
     1
102
RTVSPropertyOp51
 70
     0
102
RTVSPropertyOp52
 70
     0
102
RTVSPropertyOp53
 70
     1
102
RTVSPropertyOp54
 70
     1
102
RTVSPropertyOp55
 70
     1
102
RTVSPropertyOp56
 70
     1
102
RTVSPropertyOp57
 70
     1
102
RTVSPropertyOp58
 70
     1
102
RTVSPropertyOp59
 70
     1
102
RTVSPropertyOp60
 70
     1
102
RTVSPropertyOp61
 70
     1
102
RTVSPropertyOp62
 70
     1
  0
XRECORD
  5
B637
102
{ACAD_REACTORS
330
B636
102
}
330
B636
100
AcDbXrecord
280
     1
102
RTVSPost2010Prop28
280
     0
102
RTVSPost2010PropOp28
 70
     1
102
RTVSPost2010Prop29
280
     1
102
RTVSPost2010PropOp29
 70
     1
102
RTVSPost2010Prop30
280
     1
102
RTVSPost2010PropOp30
 70
     1
102
RTVSPost2010Prop31
280
     0
102
RTVSPost2010PropOp31
 70
     1
102
RTVSPost2010Prop32
280
     0
102
RTVSPost2010PropOp32
 70
     1
102
RTVSPost2010Prop33
280
     0
102
RTVSPost2010PropOp33
 70
     1
102
RTVSPost2010Prop34
280
     0
102
RTVSPost2010PropOp34
 70
     1
102
RTVSPost2010Prop35
280
     0
102
RTVSPost2010PropOp35
 70
     1
102
RTVSPost2010Prop36
280
     0
102
RTVSPost2010PropOp36
 70
     1
102
RTVSPost2010Prop37
 90
       50
102
RTVSPost2010PropOp37
 70
     1
102
RTVSPost2010Prop38
140
0.0
102
RTVSPost2010PropOp38
 70
     1
102
RTVSPost2010Prop39
140
1.0
102
RTVSPost2010PropOp39
 70
     1
102
RTVSPost2010Prop40
 90
        0
102
RTVSPost2010PropOp40
 70
     1
102
RTVSPost2010Prop41ColorIndex
 90
       18
102
RTVSPost2010Prop41ColorRGB
 90
        0
102
RTVSPost2010PropOp41
 70
     1
102
RTVSPost2010Prop42
 90
       50
102
RTVSPost2010PropOp42
 70
     1
102
RTVSPost2010Prop43
 90
        3
102
RTVSPost2010PropOp43
 70
     1
102
RTVSPost2010Prop44ColorIndex
 90
        5
102
RTVSPost2010Prop44ColorRGB
 90
      255
102
RTVSPost2010PropOp44
 70
     1
102
RTVSPost2010Prop45
280
     0
102
RTVSPost2010PropOp45
 70
     1
102
RTVSPost2010Prop46
 90
       50
102
RTVSPost2010PropOp46
 70
     1
102
RTVSPost2010Prop47
 90
       50
102
RTVSPost2010PropOp47
 70
     1
102
RTVSPost2010Prop48
 90
       50
102
RTVSPost2010PropOp48
 70
     1
102
RTVSPost2010Prop49
280
     0
102
RTVSPost2010PropOp49
 70
     1
102
RTVSPost2010Prop50
 90
       50
102
RTVSPost2010PropOp50
 70
     1
102
RTVSPost2010Prop51ColorIndex
 90
      256
102
RTVSPost2010Prop51ColorRGB
 90
-16777216
102
RTVSPost2010PropOp51
 70
     0
102
RTVSPost2010Prop52
140
1.0
102
RTVSPost2010PropOp52
 70
     0
102
RTVSPost2010Prop53
 90
        2
102
RTVSPost2010PropOp53
 70
     1
102
RTVSPost2010Prop54
  1
strokes_ogs.tif
102
RTVSPost2010PropOp54
 70
     1
102
RTVSPost2010Prop55
280
     0
102
RTVSPost2010PropOp55
 70
     1
102
RTVSPost2010Prop56
140
1.0
102
RTVSPost2010PropOp56
 70
     1
102
RTVSPost2010Prop57
140
1.0
102
RTVSPost2010PropOp57
 70
     1
102
RTVSPropertyOp0
 70
     1
102
RTVSPropertyOp1
 70
     1
102
RTVSPropertyOp2
 70
     1
102
RTVSPropertyOp3
 70
     1
102
RTVSPropertyOp4
 70
     1
102
RTVSPropertyOp5
 70
     1
102
RTVSPropertyOp6
 70
     1
102
RTVSPropertyOp7
 70
     1
102
RTVSPropertyOp8
 70
     1
102
RTVSPropertyOp9
 70
     1
102
RTVSPropertyOp10
 70
     1
102
RTVSPropertyOp11
 70
     1
102
RTVSPropertyOp12
 70
     1
102
RTVSPropertyOp13
 70
     1
102
RTVSPropertyOp14
 70
     1
102
RTVSPropertyOp15
 70
     1
102
RTVSPropertyOp16
 70
     1
102
RTVSPropertyOp17
 70
     1
102
RTVSPropertyOp18
 70
     1
102
RTVSPropertyOp19
 70
     1
102
RTVSPropertyOp20
 70
     1
102
RTVSPropertyOp21
 70
     1
102
RTVSPropertyOp22
 70
     1
102
RTVSPropertyOp23
 70
     1
102
RTVSPropertyOp24
 70
     1
102
RTVSPropertyOp25
 70
     1
102
RTVSPropertyOp26
 70
     1
102
RTVSPropertyOp27
 70
     1
102
RTVSPropertyOp28
 70
     1
102
RTVSPropertyOp29
 70
     1
102
RTVSPropertyOp30
 70
     1
102
RTVSPropertyOp31
 70
     1
102
RTVSPropertyOp32
 70
     1
102
RTVSPropertyOp33
 70
     1
102
RTVSPropertyOp34
 70
     1
102
RTVSPropertyOp35
 70
     1
102
RTVSPropertyOp36
 70
     1
102
RTVSPropertyOp37
 70
     1
102
RTVSPropertyOp38
 70
     1
102
RTVSPropertyOp39
 70
     1
102
RTVSPropertyOp40
 70
     1
102
RTVSPropertyOp41
 70
     1
102
RTVSPropertyOp42
 70
     1
102
RTVSPropertyOp43
 70
     1
102
RTVSPropertyOp44
 70
     1
102
RTVSPropertyOp45
 70
     1
102
RTVSPropertyOp46
 70
     1
102
RTVSPropertyOp47
 70
     1
102
RTVSPropertyOp48
 70
     1
102
RTVSPropertyOp49
 70
     1
102
RTVSPropertyOp50
 70
     1
102
RTVSPropertyOp51
 70
     0
102
RTVSPropertyOp52
 70
     0
102
RTVSPropertyOp53
 70
     1
102
RTVSPropertyOp54
 70
     1
102
RTVSPropertyOp55
 70
     1
102
RTVSPropertyOp56
 70
     1
102
RTVSPropertyOp57
 70
     1
102
RTVSPropertyOp58
 70
     1
102
RTVSPropertyOp59
 70
     1
102
RTVSPropertyOp60
 70
     1
102
RTVSPropertyOp61
 70
     1
102
RTVSPropertyOp62
 70
     1
  0
XRECORD
  5
B639
102
{ACAD_REACTORS
330
B638
102
}
330
B638
100
AcDbXrecord
280
     1
102
RTVSPost2010Prop28
280
     0
102
RTVSPost2010PropOp28
 70
     1
102
RTVSPost2010Prop29
280
     1
102
RTVSPost2010PropOp29
 70
     1
102
RTVSPost2010Prop30
280
     1
102
RTVSPost2010PropOp30
 70
     1
102
RTVSPost2010Prop31
280
     0
102
RTVSPost2010PropOp31
 70
     1
102
RTVSPost2010Prop32
280
     0
102
RTVSPost2010PropOp32
 70
     1
102
RTVSPost2010Prop33
280
     0
102
RTVSPost2010PropOp33
 70
     1
102
RTVSPost2010Prop34
280
     0
102
RTVSPost2010PropOp34
 70
     1
102
RTVSPost2010Prop35
280
     0
102
RTVSPost2010PropOp35
 70
     1
102
RTVSPost2010Prop36
280
     0
102
RTVSPost2010PropOp36
 70
     1
102
RTVSPost2010Prop37
 90
       50
102
RTVSPost2010PropOp37
 70
     1
102
RTVSPost2010Prop38
140
0.0
102
RTVSPost2010PropOp38
 70
     1
102
RTVSPost2010Prop39
140
1.0
102
RTVSPost2010PropOp39
 70
     1
102
RTVSPost2010Prop40
 90
        0
102
RTVSPost2010PropOp40
 70
     1
102
RTVSPost2010Prop41ColorIndex
 90
       18
102
RTVSPost2010Prop41ColorRGB
 90
        0
102
RTVSPost2010PropOp41
 70
     1
102
RTVSPost2010Prop42
 90
       50
102
RTVSPost2010PropOp42
 70
     1
102
RTVSPost2010Prop43
 90
        3
102
RTVSPost2010PropOp43
 70
     1
102
RTVSPost2010Prop44ColorIndex
 90
        5
102
RTVSPost2010Prop44ColorRGB
 90
      255
102
RTVSPost2010PropOp44
 70
     1
102
RTVSPost2010Prop45
280
     0
102
RTVSPost2010PropOp45
 70
     1
102
RTVSPost2010Prop46
 90
       50
102
RTVSPost2010PropOp46
 70
     1
102
RTVSPost2010Prop47
 90
       50
102
RTVSPost2010PropOp47
 70
     1
102
RTVSPost2010Prop48
 90
       50
102
RTVSPost2010PropOp48
 70
     1
102
RTVSPost2010Prop49
280
     0
102
RTVSPost2010PropOp49
 70
     1
102
RTVSPost2010Prop50
 90
       50
102
RTVSPost2010PropOp50
 70
     1
102
RTVSPost2010Prop51ColorIndex
 90
      256
102
RTVSPost2010Prop51ColorRGB
 90
-16777216
102
RTVSPost2010PropOp51
 70
     0
102
RTVSPost2010Prop52
140
1.0
102
RTVSPost2010PropOp52
 70
     0
102
RTVSPost2010Prop53
 90
        2
102
RTVSPost2010PropOp53
 70
     1
102
RTVSPost2010Prop54
  1
strokes_ogs.tif
102
RTVSPost2010PropOp54
 70
     1
102
RTVSPost2010Prop55
280
     0
102
RTVSPost2010PropOp55
 70
     1
102
RTVSPost2010Prop56
140
1.0
102
RTVSPost2010PropOp56
 70
     1
102
RTVSPost2010Prop57
140
1.0
102
RTVSPost2010PropOp57
 70
     1
102
RTVSPropertyOp0
 70
     1
102
RTVSPropertyOp1
 70
     1
102
RTVSPropertyOp2
 70
     1
102
RTVSPropertyOp3
 70
     1
102
RTVSPropertyOp4
 70
     1
102
RTVSPropertyOp5
 70
     1
102
RTVSPropertyOp6
 70
     1
102
RTVSPropertyOp7
 70
     1
102
RTVSPropertyOp8
 70
     1
102
RTVSPropertyOp9
 70
     1
102
RTVSPropertyOp10
 70
     1
102
RTVSPropertyOp11
 70
     1
102
RTVSPropertyOp12
 70
     1
102
RTVSPropertyOp13
 70
     1
102
RTVSPropertyOp14
 70
     1
102
RTVSPropertyOp15
 70
     1
102
RTVSPropertyOp16
 70
     1
102
RTVSPropertyOp17
 70
     1
102
RTVSPropertyOp18
 70
     1
102
RTVSPropertyOp19
 70
     1
102
RTVSPropertyOp20
 70
     1
102
RTVSPropertyOp21
 70
     1
102
RTVSPropertyOp22
 70
     1
102
RTVSPropertyOp23
 70
     1
102
RTVSPropertyOp24
 70
     1
102
RTVSPropertyOp25
 70
     1
102
RTVSPropertyOp26
 70
     1
102
RTVSPropertyOp27
 70
     1
102
RTVSPropertyOp28
 70
     1
102
RTVSPropertyOp29
 70
     1
102
RTVSPropertyOp30
 70
     1
102
RTVSPropertyOp31
 70
     1
102
RTVSPropertyOp32
 70
     1
102
RTVSPropertyOp33
 70
     1
102
RTVSPropertyOp34
 70
     1
102
RTVSPropertyOp35
 70
     1
102
RTVSPropertyOp36
 70
     1
102
RTVSPropertyOp37
 70
     1
102
RTVSPropertyOp38
 70
     1
102
RTVSPropertyOp39
 70
     1
102
RTVSPropertyOp40
 70
     1
102
RTVSPropertyOp41
 70
     1
102
RTVSPropertyOp42
 70
     1
102
RTVSPropertyOp43
 70
     1
102
RTVSPropertyOp44
 70
     1
102
RTVSPropertyOp45
 70
     1
102
RTVSPropertyOp46
 70
     1
102
RTVSPropertyOp47
 70
     1
102
RTVSPropertyOp48
 70
     1
102
RTVSPropertyOp49
 70
     1
102
RTVSPropertyOp50
 70
     1
102
RTVSPropertyOp51
 70
     0
102
RTVSPropertyOp52
 70
     0
102
RTVSPropertyOp53
 70
     1
102
RTVSPropertyOp54
 70
     1
102
RTVSPropertyOp55
 70
     1
102
RTVSPropertyOp56
 70
     1
102
RTVSPropertyOp57
 70
     1
102
RTVSPropertyOp58
 70
     1
102
RTVSPropertyOp59
 70
     1
102
RTVSPropertyOp60
 70
     1
102
RTVSPropertyOp61
 70
     1
102
RTVSPropertyOp62
 70
     1
  0
XRECORD
  5
B62F
102
{ACAD_REACTORS
330
B62E
102
}
330
B62E
100
AcDbXrecord
280
     1
102
RTVSPost2010Prop28
280
     0
102
RTVSPost2010PropOp28
 70
     1
102
RTVSPost2010Prop29
280
     1
102
RTVSPost2010PropOp29
 70
     1
102
RTVSPost2010Prop30
280
     1
102
RTVSPost2010PropOp30
 70
     1
102
RTVSPost2010Prop31
280
     0
102
RTVSPost2010PropOp31
 70
     1
102
RTVSPost2010Prop32
280
     0
102
RTVSPost2010PropOp32
 70
     1
102
RTVSPost2010Prop33
280
     0
102
RTVSPost2010PropOp33
 70
     1
102
RTVSPost2010Prop34
280
     0
102
RTVSPost2010PropOp34
 70
     1
102
RTVSPost2010Prop35
280
     0
102
RTVSPost2010PropOp35
 70
     1
102
RTVSPost2010Prop36
280
     0
102
RTVSPost2010PropOp36
 70
     1
102
RTVSPost2010Prop37
 90
       50
102
RTVSPost2010PropOp37
 70
     1
102
RTVSPost2010Prop38
140
0.0
102
RTVSPost2010PropOp38
 70
     1
102
RTVSPost2010Prop39
140
1.0
102
RTVSPost2010PropOp39
 70
     1
102
RTVSPost2010Prop40
 90
        0
102
RTVSPost2010PropOp40
 70
     1
102
RTVSPost2010Prop41ColorIndex
 90
       18
102
RTVSPost2010Prop41ColorRGB
 90
        0
102
RTVSPost2010PropOp41
 70
     1
102
RTVSPost2010Prop42
 90
       50
102
RTVSPost2010PropOp42
 70
     1
102
RTVSPost2010Prop43
 90
        3
102
RTVSPost2010PropOp43
 70
     1
102
RTVSPost2010Prop44ColorIndex
 90
        5
102
RTVSPost2010Prop44ColorRGB
 90
      255
102
RTVSPost2010PropOp44
 70
     1
102
RTVSPost2010Prop45
280
     0
102
RTVSPost2010PropOp45
 70
     1
102
RTVSPost2010Prop46
 90
       50
102
RTVSPost2010PropOp46
 70
     1
102
RTVSPost2010Prop47
 90
       50
102
RTVSPost2010PropOp47
 70
     1
102
RTVSPost2010Prop48
 90
       50
102
RTVSPost2010PropOp48
 70
     1
102
RTVSPost2010Prop49
280
     0
102
RTVSPost2010PropOp49
 70
     1
102
RTVSPost2010Prop50
 90
       50
102
RTVSPost2010PropOp50
 70
     1
102
RTVSPost2010Prop51ColorIndex
 90
      256
102
RTVSPost2010Prop51ColorRGB
 90
-16777216
102
RTVSPost2010PropOp51
 70
     0
102
RTVSPost2010Prop52
140
1.0
102
RTVSPost2010PropOp52
 70
     0
102
RTVSPost2010Prop53
 90
        2
102
RTVSPost2010PropOp53
 70
     1
102
RTVSPost2010Prop54
  1
strokes_ogs.tif
102
RTVSPost2010PropOp54
 70
     1
102
RTVSPost2010Prop55
280
     0
102
RTVSPost2010PropOp55
 70
     1
102
RTVSPost2010Prop56
140
1.0
102
RTVSPost2010PropOp56
 70
     1
102
RTVSPost2010Prop57
140
1.0
102
RTVSPost2010PropOp57
 70
     1
102
RTVSPropertyOp0
 70
     1
102
RTVSPropertyOp1
 70
     1
102
RTVSPropertyOp2
 70
     1
102
RTVSPropertyOp3
 70
     1
102
RTVSPropertyOp4
 70
     1
102
RTVSPropertyOp5
 70
     1
102
RTVSPropertyOp6
 70
     1
102
RTVSPropertyOp7
 70
     1
102
RTVSPropertyOp8
 70
     1
102
RTVSPropertyOp9
 70
     1
102
RTVSPropertyOp10
 70
     1
102
RTVSPropertyOp11
 70
     1
102
RTVSPropertyOp12
 70
     1
102
RTVSPropertyOp13
 70
     1
102
RTVSPropertyOp14
 70
     1
102
RTVSPropertyOp15
 70
     1
102
RTVSPropertyOp16
 70
     1
102
RTVSPropertyOp17
 70
     1
102
RTVSPropertyOp18
 70
     1
102
RTVSPropertyOp19
 70
     1
102
RTVSPropertyOp20
 70
     1
102
RTVSPropertyOp21
 70
     1
102
RTVSPropertyOp22
 70
     1
102
RTVSPropertyOp23
 70
     1
102
RTVSPropertyOp24
 70
     1
102
RTVSPropertyOp25
 70
     1
102
RTVSPropertyOp26
 70
     1
102
RTVSPropertyOp27
 70
     1
102
RTVSPropertyOp28
 70
     1
102
RTVSPropertyOp29
 70
     1
102
RTVSPropertyOp30
 70
     1
102
RTVSPropertyOp31
 70
     1
102
RTVSPropertyOp32
 70
     1
102
RTVSPropertyOp33
 70
     1
102
RTVSPropertyOp34
 70
     1
102
RTVSPropertyOp35
 70
     1
102
RTVSPropertyOp36
 70
     1
102
RTVSPropertyOp37
 70
     1
102
RTVSPropertyOp38
 70
     1
102
RTVSPropertyOp39
 70
     1
102
RTVSPropertyOp40
 70
     1
102
RTVSPropertyOp41
 70
     1
102
RTVSPropertyOp42
 70
     1
102
RTVSPropertyOp43
 70
     1
102
RTVSPropertyOp44
 70
     1
102
RTVSPropertyOp45
 70
     1
102
RTVSPropertyOp46
 70
     1
102
RTVSPropertyOp47
 70
     1
102
RTVSPropertyOp48
 70
     1
102
RTVSPropertyOp49
 70
     1
102
RTVSPropertyOp50
 70
     1
102
RTVSPropertyOp51
 70
     0
102
RTVSPropertyOp52
 70
     0
102
RTVSPropertyOp53
 70
     1
102
RTVSPropertyOp54
 70
     1
102
RTVSPropertyOp55
 70
     1
102
RTVSPropertyOp56
 70
     1
102
RTVSPropertyOp57
 70
     1
102
RTVSPropertyOp58
 70
     1
102
RTVSPropertyOp59
 70
     1
102
RTVSPropertyOp60
 70
     1
102
RTVSPropertyOp61
 70
     1
102
RTVSPropertyOp62
 70
     1
  0
XRECORD
  5
B623
102
{ACAD_REACTORS
330
B622
102
}
330
B622
100
AcDbXrecord
280
     1
102
RTVSPost2010Prop28
280
     0
102
RTVSPost2010PropOp28
 70
     1
102
RTVSPost2010Prop29
280
     1
102
RTVSPost2010PropOp29
 70
     1
102
RTVSPost2010Prop30
280
     1
102
RTVSPost2010PropOp30
 70
     1
102
RTVSPost2010Prop31
280
     0
102
RTVSPost2010PropOp31
 70
     1
102
RTVSPost2010Prop32
280
     0
102
RTVSPost2010PropOp32
 70
     1
102
RTVSPost2010Prop33
280
     0
102
RTVSPost2010PropOp33
 70
     1
102
RTVSPost2010Prop34
280
     0
102
RTVSPost2010PropOp34
 70
     1
102
RTVSPost2010Prop35
280
     0
102
RTVSPost2010PropOp35
 70
     1
102
RTVSPost2010Prop36
280
     0
102
RTVSPost2010PropOp36
 70
     1
102
RTVSPost2010Prop37
 90
       50
102
RTVSPost2010PropOp37
 70
     1
102
RTVSPost2010Prop38
140
0.0
102
RTVSPost2010PropOp38
 70
     1
102
RTVSPost2010Prop39
140
1.0
102
RTVSPost2010PropOp39
 70
     1
102
RTVSPost2010Prop40
 90
        0
102
RTVSPost2010PropOp40
 70
     1
102
RTVSPost2010Prop41ColorIndex
 90
       18
102
RTVSPost2010Prop41ColorRGB
 90
        0
102
RTVSPost2010PropOp41
 70
     1
102
RTVSPost2010Prop42
 90
       50
102
RTVSPost2010PropOp42
 70
     1
102
RTVSPost2010Prop43
 90
        3
102
RTVSPost2010PropOp43
 70
     1
102
RTVSPost2010Prop44ColorIndex
 90
        5
102
RTVSPost2010Prop44ColorRGB
 90
      255
102
RTVSPost2010PropOp44
 70
     1
102
RTVSPost2010Prop45
280
     0
102
RTVSPost2010PropOp45
 70
     1
102
RTVSPost2010Prop46
 90
       50
102
RTVSPost2010PropOp46
 70
     1
102
RTVSPost2010Prop47
 90
       50
102
RTVSPost2010PropOp47
 70
     1
102
RTVSPost2010Prop48
 90
       50
102
RTVSPost2010PropOp48
 70
     1
102
RTVSPost2010Prop49
280
     0
102
RTVSPost2010PropOp49
 70
     1
102
RTVSPost2010Prop50
 90
       50
102
RTVSPost2010PropOp50
 70
     1
102
RTVSPost2010Prop51ColorIndex
 90
      256
102
RTVSPost2010Prop51ColorRGB
 90
-16777216
102
RTVSPost2010PropOp51
 70
     0
102
RTVSPost2010Prop52
140
1.0
102
RTVSPost2010PropOp52
 70
     0
102
RTVSPost2010Prop53
 90
        2
102
RTVSPost2010PropOp53
 70
     1
102
RTVSPost2010Prop54
  1
strokes_ogs.tif
102
RTVSPost2010PropOp54
 70
     1
102
RTVSPost2010Prop55
280
     0
102
RTVSPost2010PropOp55
 70
     1
102
RTVSPost2010Prop56
140
1.0
102
RTVSPost2010PropOp56
 70
     1
102
RTVSPost2010Prop57
140
1.0
102
RTVSPost2010PropOp57
 70
     1
102
RTVSPropertyOp0
 70
     1
102
RTVSPropertyOp1
 70
     1
102
RTVSPropertyOp2
 70
     1
102
RTVSPropertyOp3
 70
     1
102
RTVSPropertyOp4
 70
     1
102
RTVSPropertyOp5
 70
     1
102
RTVSPropertyOp6
 70
     1
102
RTVSPropertyOp7
 70
     1
102
RTVSPropertyOp8
 70
     1
102
RTVSPropertyOp9
 70
     1
102
RTVSPropertyOp10
 70
     1
102
RTVSPropertyOp11
 70
     1
102
RTVSPropertyOp12
 70
     1
102
RTVSPropertyOp13
 70
     1
102
RTVSPropertyOp14
 70
     1
102
RTVSPropertyOp15
 70
     1
102
RTVSPropertyOp16
 70
     1
102
RTVSPropertyOp17
 70
     1
102
RTVSPropertyOp18
 70
     1
102
RTVSPropertyOp19
 70
     1
102
RTVSPropertyOp20
 70
     1
102
RTVSPropertyOp21
 70
     1
102
RTVSPropertyOp22
 70
     1
102
RTVSPropertyOp23
 70
     1
102
RTVSPropertyOp24
 70
     1
102
RTVSPropertyOp25
 70
     1
102
RTVSPropertyOp26
 70
     1
102
RTVSPropertyOp27
 70
     1
102
RTVSPropertyOp28
 70
     1
102
RTVSPropertyOp29
 70
     1
102
RTVSPropertyOp30
 70
     1
102
RTVSPropertyOp31
 70
     1
102
RTVSPropertyOp32
 70
     1
102
RTVSPropertyOp33
 70
     1
102
RTVSPropertyOp34
 70
     1
102
RTVSPropertyOp35
 70
     1
102
RTVSPropertyOp36
 70
     1
102
RTVSPropertyOp37
 70
     1
102
RTVSPropertyOp38
 70
     1
102
RTVSPropertyOp39
 70
     1
102
RTVSPropertyOp40
 70
     1
102
RTVSPropertyOp41
 70
     1
102
RTVSPropertyOp42
 70
     1
102
RTVSPropertyOp43
 70
     1
102
RTVSPropertyOp44
 70
     1
102
RTVSPropertyOp45
 70
     1
102
RTVSPropertyOp46
 70
     1
102
RTVSPropertyOp47
 70
     1
102
RTVSPropertyOp48
 70
     1
102
RTVSPropertyOp49
 70
     1
102
RTVSPropertyOp50
 70
     1
102
RTVSPropertyOp51
 70
     0
102
RTVSPropertyOp52
 70
     0
102
RTVSPropertyOp53
 70
     1
102
RTVSPropertyOp54
 70
     1
102
RTVSPropertyOp55
 70
     1
102
RTVSPropertyOp56
 70
     1
102
RTVSPropertyOp57
 70
     1
102
RTVSPropertyOp58
 70
     1
102
RTVSPropertyOp59
 70
     1
102
RTVSPropertyOp60
 70
     1
102
RTVSPropertyOp61
 70
     1
102
RTVSPropertyOp62
 70
     1
  0
XRECORD
  5
B63B
102
{ACAD_REACTORS
330
B63A
102
}
330
B63A
100
AcDbXrecord
280
     1
102
RTVSPost2010Prop28
280
     0
102
RTVSPost2010PropOp28
 70
     1
102
RTVSPost2010Prop29
280
     1
102
RTVSPost2010PropOp29
 70
     1
102
RTVSPost2010Prop30
280
     1
102
RTVSPost2010PropOp30
 70
     1
102
RTVSPost2010Prop31
280
     0
102
RTVSPost2010PropOp31
 70
     1
102
RTVSPost2010Prop32
280
     0
102
RTVSPost2010PropOp32
 70
     1
102
RTVSPost2010Prop33
280
     0
102
RTVSPost2010PropOp33
 70
     1
102
RTVSPost2010Prop34
280
     0
102
RTVSPost2010PropOp34
 70
     1
102
RTVSPost2010Prop35
280
     0
102
RTVSPost2010PropOp35
 70
     1
102
RTVSPost2010Prop36
280
     0
102
RTVSPost2010PropOp36
 70
     1
102
RTVSPost2010Prop37
 90
       50
102
RTVSPost2010PropOp37
 70
     1
102
RTVSPost2010Prop38
140
0.0
102
RTVSPost2010PropOp38
 70
     1
102
RTVSPost2010Prop39
140
1.0
102
RTVSPost2010PropOp39
 70
     1
102
RTVSPost2010Prop40
 90
        0
102
RTVSPost2010PropOp40
 70
     1
102
RTVSPost2010Prop41ColorIndex
 90
       18
102
RTVSPost2010Prop41ColorRGB
 90
        0
102
RTVSPost2010PropOp41
 70
     1
102
RTVSPost2010Prop42
 90
       50
102
RTVSPost2010PropOp42
 70
     1
102
RTVSPost2010Prop43
 90
        3
102
RTVSPost2010PropOp43
 70
     1
102
RTVSPost2010Prop44ColorIndex
 90
        5
102
RTVSPost2010Prop44ColorRGB
 90
      255
102
RTVSPost2010PropOp44
 70
     1
102
RTVSPost2010Prop45
280
     0
102
RTVSPost2010PropOp45
 70
     1
102
RTVSPost2010Prop46
 90
       50
102
RTVSPost2010PropOp46
 70
     1
102
RTVSPost2010Prop47
 90
       50
102
RTVSPost2010PropOp47
 70
     1
102
RTVSPost2010Prop48
 90
       50
102
RTVSPost2010PropOp48
 70
     1
102
RTVSPost2010Prop49
280
     0
102
RTVSPost2010PropOp49
 70
     1
102
RTVSPost2010Prop50
 90
       50
102
RTVSPost2010PropOp50
 70
     1
102
RTVSPost2010Prop51ColorIndex
 90
      256
102
RTVSPost2010Prop51ColorRGB
 90
-16777216
102
RTVSPost2010PropOp51
 70
     0
102
RTVSPost2010Prop52
140
1.0
102
RTVSPost2010PropOp52
 70
     0
102
RTVSPost2010Prop53
 90
        2
102
RTVSPost2010PropOp53
 70
     1
102
RTVSPost2010Prop54
  1
strokes_ogs.tif
102
RTVSPost2010PropOp54
 70
     1
102
RTVSPost2010Prop55
280
     0
102
RTVSPost2010PropOp55
 70
     1
102
RTVSPost2010Prop56
140
1.0
102
RTVSPost2010PropOp56
 70
     1
102
RTVSPost2010Prop57
140
1.0
102
RTVSPost2010PropOp57
 70
     1
102
RTVSPropertyOp0
 70
     1
102
RTVSPropertyOp1
 70
     1
102
RTVSPropertyOp2
 70
     1
102
RTVSPropertyOp3
 70
     1
102
RTVSPropertyOp4
 70
     1
102
RTVSPropertyOp5
 70
     1
102
RTVSPropertyOp6
 70
     1
102
RTVSPropertyOp7
 70
     1
102
RTVSPropertyOp8
 70
     1
102
RTVSPropertyOp9
 70
     1
102
RTVSPropertyOp10
 70
     1
102
RTVSPropertyOp11
 70
     1
102
RTVSPropertyOp12
 70
     1
102
RTVSPropertyOp13
 70
     1
102
RTVSPropertyOp14
 70
     1
102
RTVSPropertyOp15
 70
     1
102
RTVSPropertyOp16
 70
     1
102
RTVSPropertyOp17
 70
     1
102
RTVSPropertyOp18
 70
     1
102
RTVSPropertyOp19
 70
     1
102
RTVSPropertyOp20
 70
     1
102
RTVSPropertyOp21
 70
     1
102
RTVSPropertyOp22
 70
     1
102
RTVSPropertyOp23
 70
     1
102
RTVSPropertyOp24
 70
     1
102
RTVSPropertyOp25
 70
     1
102
RTVSPropertyOp26
 70
     1
102
RTVSPropertyOp27
 70
     1
102
RTVSPropertyOp28
 70
     1
102
RTVSPropertyOp29
 70
     1
102
RTVSPropertyOp30
 70
     1
102
RTVSPropertyOp31
 70
     1
102
RTVSPropertyOp32
 70
     1
102
RTVSPropertyOp33
 70
     1
102
RTVSPropertyOp34
 70
     1
102
RTVSPropertyOp35
 70
     1
102
RTVSPropertyOp36
 70
     1
102
RTVSPropertyOp37
 70
     1
102
RTVSPropertyOp38
 70
     1
102
RTVSPropertyOp39
 70
     1
102
RTVSPropertyOp40
 70
     1
102
RTVSPropertyOp41
 70
     1
102
RTVSPropertyOp42
 70
     1
102
RTVSPropertyOp43
 70
     1
102
RTVSPropertyOp44
 70
     1
102
RTVSPropertyOp45
 70
     1
102
RTVSPropertyOp46
 70
     1
102
RTVSPropertyOp47
 70
     1
102
RTVSPropertyOp48
 70
     1
102
RTVSPropertyOp49
 70
     1
102
RTVSPropertyOp50
 70
     1
102
RTVSPropertyOp51
 70
     0
102
RTVSPropertyOp52
 70
     0
102
RTVSPropertyOp53
 70
     1
102
RTVSPropertyOp54
 70
     1
102
RTVSPropertyOp55
 70
     1
102
RTVSPropertyOp56
 70
     1
102
RTVSPropertyOp57
 70
     1
102
RTVSPropertyOp58
 70
     1
102
RTVSPropertyOp59
 70
     1
102
RTVSPropertyOp60
 70
     1
102
RTVSPropertyOp61
 70
     1
102
RTVSPropertyOp62
 70
     1
  0
ENDSEC
  0
EOF
