  0
SECTION
  2
HEADER
  9
$ACADVER
  1
AC1015
  9
$ACADMAINTVER
 70
    20
  9
$DWGCODEPAGE
  3
ANSI_932
  9
$INSBASE
 10
0.0
 20
0.0
 30
0.0
  9
$EXTMIN
 10
10.0
 20
9.999999999999998
 30
0.0
  9
$EXTMAX
 10
566.2311479999998
 20
474.8442299999998
 30
0.0
  9
$LIMMIN
 10
0.0
 20
0.0
  9
$LIMMAX
 10
792.0
 20
546.0
  9
$ORTHOMODE
 70
     0
  9
$REGENMODE
 70
     1
  9
$FILLMODE
 70
     1
  9
$QTEXTMODE
 70
     0
  9
$MIRRTEXT
 70
     1
  9
$LTSCALE
 40
20.0
  9
$ATTMODE
 70
     1
  9
$TEXTSIZE
 40
5.0
  9
$TRACEWID
 40
1.0
  9
$TEXTSTYLE
  7
STANDARD
  9
$CLAYER
  8
0
  9
$CELTYPE
  6
BYLAYER
  9
$CECOLOR
 62
   256
  9
$CELTSCALE
 40
1.0
  9
$DISPSILH
 70
     0
  9
$DIMSCALE
 40
1.0
  9
$DIMASZ
 40
3.0
  9
$DIMEXO
 40
1.0
  9
$DIMDLI
 40
10.0
  9
$DIMRND
 40
0.0
  9
$DIMDLE
 40
0.0
  9
$DIMEXE
 40
1.0
  9
$DIMTP
 40
0.0
  9
$DIMTM
 40
0.0
  9
$DIMTXT
 40
3.2
  9
$DIMCEN
 40
0.0
  9
$DIMTSZ
 40
0.0
  9
$DIMTOL
 70
     0
  9
$DIMLIM
 70
     0
  9
$DIMTIH
 70
     0
  9
$DIMTOH
 70
     0
  9
$DIMSE1
 70
     0
  9
$DIMSE2
 70
     0
  9
$DIMTAD
 70
     3
  9
$DIMZIN
 70
     8
  9
$DIMBLK
  1

  9
$DIMASO
 70
     1
  9
$DIMSHO
 70
     1
  9
$DIMPOST
  1

  9
$DIMAPOST
  1

  9
$DIMALT
 70
     0
  9
$DIMALTD
 70
     2
  9
$DIMALTF
 40
25.4
  9
$DIMLFAC
 40
1.0
  9
$DIMTOFL
 70
     1
  9
$DIMTVP
 40
0.0
  9
$DIMTIX
 70
     0
  9
$DIMSOXD
 70
     0
  9
$DIMSAH
 70
     1
  9
$DIMBLK1
  1
OPEN
  9
$DIMBLK2
  1
OPEN
  9
$DIMSTYLE
  2
STANDARD
  9
$DIMCLRD
 70
     0
  9
$DIMCLRE
 70
     0
  9
$DIMCLRT
 70
     0
  9
$DIMTFAC
 40
1.0
  9
$DIMGAP
 40
1.0
  9
$DIMJUST
 70
     0
  9
$DIMSD1
 70
     0
  9
$DIMSD2
 70
     0
  9
$DIMTOLJ
 70
     1
  9
$DIMTZIN
 70
     0
  9
$DIMALTZ
 70
     0
  9
$DIMALTTZ
 70
     0
  9
$DIMUPT
 70
     0
  9
$DIMDEC
 70
     4
  9
$DIMTDEC
 70
     4
  9
$DIMALTU
 70
     2
  9
$DIMALTTD
 70
     2
  9
$DIMTXSTY
  7
STANDARD
  9
$DIMAUNIT
 70
     0
  9
$DIMADEC
 70
     0
  9
$DIMALTRND
 40
0.0
  9
$DIMAZIN
 70
     0
  9
$DIMDSEP
 70
    46
  9
$DIMATFIT
 70
     3
  9
$DIMFRAC
 70
     0
  9
$DIMLDRBLK
  1
OPEN
  9
$DIMLUNIT
 70
     2
  9
$DIMLWD
 70
    -2
  9
$DIMLWE
 70
    -2
  9
$DIMTMOVE
 70
     0
  9
$LUNITS
 70
     2
  9
$LUPREC
 70
     4
  9
$SKETCHINC
 40
1.0
  9
$FILLETRAD
 40
13.9
  9
$AUNITS
 70
     0
  9
$AUPREC
 70
     2
  9
$MENU
  1
.
  9
$ELEVATION
 40
0.0
  9
$PELEVATION
 40
0.0
  9
$THICKNESS
 40
0.0
  9
$LIMCHECK
 70
     0
  9
$CHAMFERA
 40
10.0
  9
$CHAMFERB
 40
10.0
  9
$CHAMFERC
 40
0.0
  9
$CHAMFERD
 40
0.0
  9
$SKPOLY
 70
     0
  9
$TDCREATE
 40
2451301.579092014
  9
$TDUCREATE
 40
2451301.204092014
  9
$TDUPDATE
 40
2457192.687820081
  9
$TDUUPDATE
 40
2457192.312820081
  9
$TDINDWG
 40
0.0000123495
  9
$TDUSRTIMER
 40
0.0000118519
  9
$USRTIMER
 70
     1
  9
$ANGBASE
 50
0.0
  9
$ANGDIR
 70
     0
  9
$PDMODE
 70
     0
  9
$PDSIZE
 40
0.0
  9
$PLINEWID
 40
0.0
  9
$SPLFRAME
 70
     0
  9
$SPLINETYPE
 70
     6
  9
$SPLINESEGS
 70
     8
  9
$HANDSEED
  5
BDFC
  9
$SURFTAB1
 70
     6
  9
$SURFTAB2
 70
     6
  9
$SURFTYPE
 70
     6
  9
$SURFU
 70
     6
  9
$SURFV
 70
     6
  9
$UCSBASE
  2

  9
$UCSNAME
  2

  9
$UCSORG
 10
0.0
 20
0.0
 30
0.0
  9
$UCSXDIR
 10
1.0
 20
0.0
 30
0.0
  9
$UCSYDIR
 10
0.0
 20
1.0
 30
0.0
  9
$UCSORTHOREF
  2

  9
$UCSORTHOVIEW
 70
     0
  9
$UCSORGTOP
 10
0.0
 20
0.0
 30
0.0
  9
$UCSORGBOTTOM
 10
0.0
 20
0.0
 30
0.0
  9
$UCSORGLEFT
 10
0.0
 20
0.0
 30
0.0
  9
$UCSORGRIGHT
 10
0.0
 20
0.0
 30
0.0
  9
$UCSORGFRONT
 10
0.0
 20
0.0
 30
0.0
  9
$UCSORGBACK
 10
0.0
 20
0.0
 30
0.0
  9
$PUCSBASE
  2

  9
$PUCSNAME
  2

  9
$PUCSORG
 10
0.0
 20
0.0
 30
0.0
  9
$PUCSXDIR
 10
1.0
 20
0.0
 30
0.0
  9
$PUCSYDIR
 10
0.0
 20
1.0
 30
0.0
  9
$PUCSORTHOREF
  2

  9
$PUCSORTHOVIEW
 70
     0
  9
$PUCSORGTOP
 10
0.0
 20
0.0
 30
0.0
  9
$PUCSORGBOTTOM
 10
0.0
 20
0.0
 30
0.0
  9
$PUCSORGLEFT
 10
0.0
 20
0.0
 30
0.0
  9
$PUCSORGRIGHT
 10
0.0
 20
0.0
 30
0.0
  9
$PUCSORGFRONT
 10
0.0
 20
0.0
 30
0.0
  9
$PUCSORGBACK
 10
0.0
 20
0.0
 30
0.0
  9
$USERI1
 70
     0
  9
$USERI2
 70
     0
  9
$USERI3
 70
     0
  9
$USERI4
 70
     0
  9
$USERI5
 70
     0
  9
$USERR1
 40
0.0
  9
$USERR2
 40
0.0
  9
$USERR3
 40
0.0
  9
$USERR4
 40
0.0
  9
$USERR5
 40
0.0
  9
$WORLDVIEW
 70
     1
  9
$SHADEDGE
 70
     3
  9
$SHADEDIF
 70
    70
  9
$TILEMODE
 70
     1
  9
$MAXACTVP
 70
    16
  9
$PINSBASE
 10
0.0
 20
0.0
 30
0.0
  9
$PLIMCHECK
 70
     0
  9
$PEXTMIN
 10
1.000000000000000E+20
 20
1.000000000000000E+20
 30
1.000000000000000E+20
  9
$PEXTMAX
 10
-1.000000000000000E+20
 20
-1.000000000000000E+20
 30
-1.000000000000000E+20
  9
$PLIMMIN
 10
0.0
 20
0.0
  9
$PLIMMAX
 10
420.0
 20
297.0
  9
$UNITMODE
 70
     0
  9
$VISRETAIN
 70
     0
  9
$PLINEGEN
 70
     0
  9
$PSLTSCALE
 70
     0
  9
$TREEDEPTH
 70
  3020
  9
$CMLSTYLE
  2
STANDARD
  9
$CMLJUST
 70
     0
  9
$CMLSCALE
 40
1.0
  9
$PROXYGRAPHICS
 70
     1
  9
$MEASUREMENT
 70
     0
  9
$CELWEIGHT
370
    -1
  9
$ENDCAPS
280
     0
  9
$JOINSTYLE
280
     0
  9
$LWDISPLAY
290
     0
  9
$INSUNITS
 70
     0
  9
$HYPERLINKBASE
  1

  9
$STYLESHEET
  1

  9
$XEDIT
290
     1
  9
$CEPSNTYPE
380
     0
  9
$PSTYLEMODE
290
     1
  9
$FINGERPRINTGUID
  2
{E1B59680-75F2-4B16-821E-BFDEBB3884F1}
  9
$VERSIONGUID
  2
{73FA6EAF-9658-45BA-8FDF-82BF794ACA54}
  9
$EXTNAMES
290
     1
  9
$PSVPSCALE
 40
0.0
  9
$OLESTARTUP
290
     0
  0
ENDSEC
  0
SECTION
  2
CLASSES
  0
CLASS
  1
ACDBDICTIONARYWDFLT
  2
AcDbDictionaryWithDefault
  3
ObjectDBX Classes
 90
        0
280
     0
281
     0
  0
CLASS
  1
ACDBPLACEHOLDER
  2
AcDbPlaceHolder
  3
ObjectDBX Classes
 90
        0
280
     0
281
     0
  0
CLASS
  1
LAYOUT
  2
AcDbLayout
  3
ObjectDBX Classes
 90
        0
280
     0
281
     0
  0
CLASS
  1
DICTIONARYVAR
  2
AcDbDictionaryVar
  3
ObjectDBX Classes
 90
        0
280
     0
281
     0
  0
CLASS
  1
MATERIAL
  2
AcDbMaterial
  3
ObjectDBX Classes
 90
     1153
280
     0
281
     0
  0
CLASS
  1
VISUALSTYLE
  2
AcDbVisualStyle
  3
ObjectDBX Classes
 90
     4095
280
     0
281
     0
  0
CLASS
  1
TABLESTYLE
  2
AcDbTableStyle
  3
ObjectDBX Classes
 90
     4095
280
     0
281
     0
  0
CLASS
  1
SCALE
  2
AcDbScale
  3
ObjectDBX Classes
 90
     1153
280
     0
281
     0
  0
CLASS
  1
MLEADERSTYLE
  2
AcDbMLeaderStyle
  3
ACDB_MLEADERSTYLE_CLASS
 90
     4095
280
     0
281
     0
  0
CLASS
  1
ACDBSECTIONVIEWSTYLE
  2
AcDbSectionViewStyle
  3
ObjectDBX Classes
 90
     1025
280
     0
281
     0
  0
CLASS
  1
ACDBDETAILVIEWSTYLE
  2
AcDbDetailViewStyle
  3
ObjectDBX Classes
 90
     1025
280
     0
281
     0
  0
CLASS
  1
CELLSTYLEMAP
  2
AcDbCellStyleMap
  3
ObjectDBX Classes
 90
     1152
280
     0
281
     0
  0
ENDSEC
  0
SECTION
  2
TABLES
  0
TABLE
  2
VPORT
  5
B91F
330
0
100
AcDbSymbolTable
 70
     1
  0
VPORT
  5
BD45
330
B91F
100
AcDbSymbolTableRecord
100
AcDbViewportTableRecord
  2
*ACTIVE
 70
     0
 10
0.0
 20
0.0
 11
1.0
 21
1.0
 12
428.9172375729775
 22
242.4241345364414
 13
0.0
 23
0.0
 14
10.0
 24
10.0
 15
10.0
 25
10.0
 16
0.0
 26
0.0
 36
1.0
 17
0.0
 27
0.0
 37
0.0
 40
470.0233416366584
 41
2.35006605019815
 42
50.0
 43
0.0
 44
0.0
 50
0.0
 51
0.0
 71
     0
 72
   100
 73
     1
 74
     0
 75
     0
 76
     0
 77
     0
 78
     0
281
     0
 65
     1
110
0.0
120
0.0
130
0.0
111
1.0
121
0.0
131
0.0
112
0.0
122
1.0
132
0.0
 79
     0
146
0.0
1001
ACAD_NAV_VCDISPLAY
1070
     3
  0
ENDTAB
  0
TABLE
  2
LTYPE
  5
B91C
330
0
100
AcDbSymbolTable
 70
     4
  0
LTYPE
  5
B92A
330
B91C
100
AcDbSymbolTableRecord
100
AcDbLinetypeTableRecord
  2
BYBLOCK
 70
     0
  3

 72
    65
 73
     0
 40
0.0
  0
LTYPE
  5
B92B
330
B91C
100
AcDbSymbolTableRecord
100
AcDbLinetypeTableRecord
  2
BYLAYER
 70
     0
  3

 72
    65
 73
     0
 40
0.0
  0
LTYPE
  5
B92C
330
B91C
100
AcDbSymbolTableRecord
100
AcDbLinetypeTableRecord
  2
CONTINUOUS
 70
     0
  3
Solid line
 72
    65
 73
     0
 40
0.0
  0
LTYPE
  5
B93A
330
B91C
100
AcDbSymbolTableRecord
100
AcDbLinetypeTableRecord
  2
DASHED
 70
     0
  3
__ __ __ __ __ __ __ __ __ __ __ __ __ __ __ __
 72
    65
 73
     2
 40
0.75
 49
0.5
 74
     0
 49
-0.25
 74
     0
  0
LTYPE
  5
B93B
330
B91C
100
AcDbSymbolTableRecord
100
AcDbLinetypeTableRecord
  2
CENTER
 70
     0
  3
____ _ ____ _ ____ _ ____ _ ____ _ ____ _ ____ 
 72
    65
 73
     4
 40
2.0
 49
1.25
 74
     0
 49
-0.25
 74
     0
 49
0.25
 74
     0
 49
-0.25
 74
     0
  0
LTYPE
  5
B93C
330
B91C
100
AcDbSymbolTableRecord
100
AcDbLinetypeTableRecord
  2
PHANTOM
 70
     0
  3
______  __  __  ______  __  __  ______  __  __ 
 72
    65
 73
     6
 40
2.5
 49
1.25
 74
     0
 49
-0.25
 74
     0
 49
0.25
 74
     0
 49
-0.25
 74
     0
 49
0.25
 74
     0
 49
-0.25
 74
     0
  0
ENDTAB
  0
TABLE
  2
LAYER
  5
B919
330
0
100
AcDbSymbolTable
 70
     8
  0
LAYER
  5
B927
102
{ACAD_XDICTIONARY
360
BDA0
102
}
330
B919
100
AcDbSymbolTableRecord
100
AcDbLayerTableRecord
  2
0
 70
     0
 62
     7
  6
CONTINUOUS
370
    -3
390
BD4E
  0
LAYER
  5
B93D
102
{ACAD_XDICTIONARY
360
BDA2
102
}
330
B919
100
AcDbSymbolTableRecord
100
AcDbLayerTableRecord
  2
4
 70
     0
 62
     1
  6
CENTER
370
    -3
390
BD4E
  0
LAYER
  5
B93E
102
{ACAD_XDICTIONARY
360
BDA4
102
}
330
B919
100
AcDbSymbolTableRecord
100
AcDbLayerTableRecord
  2
5
 70
     0
 62
     6
  6
PHANTOM
370
    -3
390
BD4E
  0
LAYER
  5
B93F
102
{ACAD_XDICTIONARY
360
BDA6
102
}
330
B919
100
AcDbSymbolTableRecord
100
AcDbLayerTableRecord
  2
1
 70
     0
 62
     7
  6
CONTINUOUS
370
    -3
390
BD4E
  0
LAYER
  5
B940
102
{ACAD_XDICTIONARY
360
BDA8
102
}
330
B919
100
AcDbSymbolTableRecord
100
AcDbLayerTableRecord
  2
2
 70
     0
 62
     4
  6
CONTINUOUS
370
    -3
390
BD4E
  0
LAYER
  5
B941
102
{ACAD_XDICTIONARY
360
BDAA
102
}
330
B919
100
AcDbSymbolTableRecord
100
AcDbLayerTableRecord
  2
3
 70
     0
 62
     2
  6
DASHED
370
    -3
390
BD4E
  0
LAYER
  5
B942
102
{ACAD_XDICTIONARY
360
BDAC
102
}
330
B919
100
AcDbSymbolTableRecord
100
AcDbLayerTableRecord
  2
6
 70
     0
 62
     5
  6
CONTINUOUS
370
    -3
390
BD4E
  0
LAYER
  5
B943
102
{ACAD_XDICTIONARY
360
BDAE
102
}
330
B919
100
AcDbSymbolTableRecord
100
AcDbLayerTableRecord
  2
7
 70
     0
 62
     3
  6
CONTINUOUS
370
    -3
390
BD4E
  0
ENDTAB
  0
TABLE
  2
STYLE
  5
B91A
330
0
100
AcDbSymbolTable
 70
     1
  0
STYLE
  5
B928
330
B91A
100
AcDbSymbolTableRecord
100
AcDbTextStyleTableRecord
  2
STANDARD
 70
     0
 40
0.0
 41
1.0
 50
0.0
 71
     0
 42
5.0
  3
txt
  4

  0
ENDTAB
  0
TABLE
  2
VIEW
  5
B91D
330
0
100
AcDbSymbolTable
 70
     0
  0
ENDTAB
  0
TABLE
  2
UCS
  5
B91E
330
0
100
AcDbSymbolTable
 70
     0
  0
ENDTAB
  0
TABLE
  2
APPID
  5
B920
330
0
100
AcDbSymbolTable
 70
     3
  0
APPID
  5
B929
330
B920
100
AcDbSymbolTableRecord
100
AcDbRegAppTableRecord
  2
ACAD
 70
     0
  0
APPID
  5
BDBA
330
B920
100
AcDbSymbolTableRecord
100
AcDbRegAppTableRecord
  2
ACAD_NAV_VCDISPLAY
 70
     0
  0
APPID
  5
BDF3
330
B920
100
AcDbSymbolTableRecord
100
AcDbRegAppTableRecord
  2
ACAD_MLEADERVER
 70
     0
  0
ENDTAB
  0
TABLE
  2
DIMSTYLE
  5
B921
330
0
100
AcDbSymbolTable
 70
     1
100
AcDbDimStyleTable
 71
     0
  0
DIMSTYLE
105
B945
330
B921
100
AcDbSymbolTableRecord
100
AcDbDimStyleTableRecord
  2
STANDARD
 70
     0
 41
3.0
 42
1.0
 43
10.0
 44
1.0
 73
     0
 74
     0
 77
     3
 78
     8
140
3.2
141
0.0
147
1.0
172
     1
173
     1
284
     8
285
     8
286
     8
340
B928
  0
ENDTAB
  0
TABLE
  2
BLOCK_RECORD
  5
B918
330
0
100
AcDbSymbolTable
 70
     1
  0
BLOCK_RECORD
  5
B935
102
{ACAD_XDICTIONARY
360
BD48
102
}
330
B918
100
AcDbSymbolTableRecord
100
AcDbBlockTableRecord
  2
*MODEL_SPACE
340
BD9C
  0
BLOCK_RECORD
  5
B931
102
{ACAD_XDICTIONARY
360
BD46
102
}
330
B918
100
AcDbSymbolTableRecord
100
AcDbBlockTableRecord
  2
*PAPER_SPACE
340
BD9D
  0
BLOCK_RECORD
  5
B94D
330
B918
100
AcDbSymbolTableRecord
100
AcDbBlockTableRecord
  2
_OPEN
340
0
  0
ENDTAB
  0
ENDSEC
  0
SECTION
  2
BLOCKS
  0
BLOCK
  5
B936
330
B935
100
AcDbEntity
  8
0
100
AcDbBlockBegin
  2
*MODEL_SPACE
 70
     0
 10
0.0
 20
0.0
 30
0.0
  3
*MODEL_SPACE
  1

  0
ENDBLK
  5
B937
330
B935
100
AcDbEntity
  8
0
100
AcDbBlockEnd
  0
BLOCK
  5
B932
330
B931
100
AcDbEntity
 67
     1
  8
0
100
AcDbBlockBegin
  2
*PAPER_SPACE
 70
     0
 10
0.0
 20
0.0
 30
0.0
  3
*PAPER_SPACE
  1

  0
ENDBLK
  5
B933
330
B931
100
AcDbEntity
 67
     1
  8
0
100
AcDbBlockEnd
  0
BLOCK
  5
B94E
330
B94D
100
AcDbEntity
  8
0
100
AcDbBlockBegin
  2
_OPEN
 70
     0
 10
0.0
 20
0.0
 30
0.0
  3
_OPEN
  1

  0
LINE
  5
B94F
330
B94D
100
AcDbEntity
  8
0
  6
ByBlock
 62
     0
100
AcDbLine
 10
-1.0
 20
0.166667
 30
0.0
 11
0.0
 21
0.0
 31
0.0
  0
LINE
  5
B950
330
B94D
100
AcDbEntity
  8
0
  6
ByBlock
 62
     0
100
AcDbLine
 10
0.0
 20
0.0
 30
0.0
 11
-1.0
 21
-0.166667
 31
0.0
  0
LINE
  5
B951
330
B94D
100
AcDbEntity
  8
0
  6
ByBlock
 62
     0
100
AcDbLine
 10
0.0
 20
0.0
 30
0.0
 11
-1.0
 21
0.0
 31
0.0
  0
ENDBLK
  5
B952
330
B94D
100
AcDbEntity
  8
0
100
AcDbBlockEnd
  0
ENDSEC
  0
SECTION
  2
ENTITIES
  0
TEXT
  5
B953
330
B935
100
AcDbEntity
  8
7
  6
Continuous
100
AcDbText
 10
10.0
 20
18.0
 30
0.0
 40
3.0
  1
TYPE No.208S d=19
100
AcDbText
  0
TEXT
  5
B954
330
B935
100
AcDbEntity
  8
7
  6
Continuous
100
AcDbText
 10
10.0
 20
26.0
 30
0.0
 40
3.0
  1
CODE No.9183
100
AcDbText
  0
TEXT
  5
B955
330
B935
100
AcDbEntity
  8
1
  6
Continuous
100
AcDbText
 10
10.0
 20
10.0
 30
0.0
 40
1.399999999999999
  1
LAYER
100
AcDbText
  0
TEXT
  5
B956
330
B935
100
AcDbEntity
  8
1
  6
Continuous
100
AcDbText
 10
17.97951099999998
 20
10.04873699999998
 30
0.0
 40
1.399999999999999
  1
1
100
AcDbText
  0
TEXT
  5
B957
330
B935
100
AcDbEntity
  8
7
  6
Continuous
100
AcDbText
 10
29.97951099999999
 20
10.04873699999998
 30
0.0
 40
1.399999999999999
  1
7
100
AcDbText
  0
TEXT
  5
B958
330
B935
100
AcDbEntity
  8
4
  6
CENTER
100
AcDbText
 10
23.97951099999999
 20
10.04873699999998
 30
0.0
 40
1.399999999999999
  1
4
100
AcDbText
  0
TEXT
  5
B959
330
B935
100
AcDbEntity
  8
3
  6
DASHED
100
AcDbText
 10
21.979511
 20
10.04873699999998
 30
0.0
 40
1.399999999999999
  1
3
100
AcDbText
  0
TEXT
  5
B95A
330
B935
100
AcDbEntity
  8
2
  6
Continuous
100
AcDbText
 10
19.97951099999999
 20
10.04873699999998
 30
0.0
 40
1.399999999999999
  1
2
100
AcDbText
  0
TEXT
  5
B95B
330
B935
100
AcDbEntity
  8
6
  6
Continuous
100
AcDbText
 10
27.979511
 20
10.04873699999998
 30
0.0
 40
1.399999999999999
  1
6
100
AcDbText
  0
TEXT
  5
B95C
330
B935
100
AcDbEntity
  8
5
  6
PHANTOM
100
AcDbText
 10
25.97951099999999
 20
10.04873699999998
 30
0.0
 40
1.399999999999999
  1
5
100
AcDbText
  0
LINE
  5
B95D
330
B935
100
AcDbEntity
  8
4
  6
CENTER
100
AcDbLine
 10
318.0098619999998
 20
229.6277349999999
 30
0.0
 11
379.589263
 21
229.6277349999999
 31
0.0
  0
LINE
  5
B95E
330
B935
100
AcDbEntity
  8
1
  6
Continuous
100
AcDbLine
 10
324.6976399999998
 20
304.462739
 30
0.0
 11
378.0698399999999
 21
304.462739
 31
0.0
  0
LINE
  5
B95F
330
B935
100
AcDbEntity
  8
4
  6
CENTER
100
AcDbLine
 10
282.2363389999998
 20
229.6277389999999
 30
0.0
 11
136.2363389999998
 21
229.6277389999999
 31
0.0
  0
LINE
  5
B960
330
B935
100
AcDbEntity
  8
4
  6
CENTER
100
AcDbLine
 10
209.236339
 20
157.1487389999998
 30
0.0
 11
209.236339
 21
302.627739
 31
0.0
  0
LINE
  5
B961
330
B935
100
AcDbEntity
  8
4
  6
CENTER
100
AcDbLine
 10
351.233743
 20
370.627923
 30
0.0
 11
351.233743
 21
156.777739
 31
0.0
  0
ARC
  5
B962
330
B935
100
AcDbEntity
  8
1
  6
Continuous
100
AcDbCircle
 10
104.985169
 20
195.920948
 30
0.0
 40
277.8421779999998
100
AcDbArc
 50
13.58600199999999
 51
19.83204999999999
  0
ARC
  5
B963
330
B935
100
AcDbEntity
  8
1
  6
Continuous
100
AcDbCircle
 10
104.9496709999999
 20
195.752224
 30
0.0
 40
280.2147699999999
100
AcDbArc
 50
13.044057
 51
19.16351999999999
  0
ARC
  5
B964
330
B935
100
AcDbEntity
  8
1
  6
Continuous
100
AcDbCircle
 10
346.197645
 20
251.827299
 30
0.0
 40
32.53609799999999
100
AcDbArc
 50
2.672433999999999
 51
12.72982799999999
  0
LINE
  5
B965
330
B935
100
AcDbEntity
  8
1
  6
Continuous
100
AcDbLine
 10
369.586525
 20
226.8988069999998
 30
0.0
 11
369.576723
 21
217.1277529999999
 31
0.0
  0
ARC
  5
B966
330
B935
100
AcDbEntity
  8
1
  6
Continuous
100
AcDbCircle
 10
360.7812739999998
 20
288.20501
 30
0.0
 40
5.908440999999998
100
AcDbArc
 50
19.557187
 51
71.279225
  0
ARC
  5
B967
330
B935
100
AcDbEntity
  8
1
  6
Continuous
100
AcDbCircle
 10
360.921012
 20
284.7600429999999
 30
0.0
 40
9.209889
100
AcDbArc
 50
18.85874099999998
 51
79.00453
  0
ARC
  5
B968
330
B935
100
AcDbEntity
  8
1
  6
Continuous
100
AcDbCircle
 10
351.233743
 20
234.9023229999999
 30
0.0
 40
60.0
100
AcDbArc
 50
79.00453
 51
100.9954699999999
  0
LINE
  5
B969
330
B935
100
AcDbEntity
  8
4
  6
CENTER
100
AcDbLine
 10
245.2363389999999
 20
249.214135
 30
0.0
 11
245.2363389999999
 21
370.627923
 31
0.0
  0
LINE
  5
B96A
330
B935
100
AcDbEntity
  8
1
  6
Continuous
100
AcDbLine
 10
223.76406
 20
300.798268
 30
0.0
 11
223.76406
 21
242.429823
 31
0.0
  0
ARC
  5
B96B
330
B935
100
AcDbEntity
  8
1
  6
Continuous
100
AcDbCircle
 10
107.3197639999999
 20
351.653945
 30
0.0
 40
171.799
100
AcDbArc
 50
317.908121
 51
339.6990839999999
  0
ARC
  5
B96C
330
B935
100
AcDbEntity
  8
1
  6
Continuous
100
AcDbCircle
 10
80.74851200000003
 20
296.1153649999999
 30
0.0
 40
132.243177
100
AcDbArc
 50
337.694631
 51
2.590463
  0
LINE
  5
B96D
330
B935
100
AcDbEntity
  8
1
  6
Continuous
100
AcDbLine
 10
271.9224389999999
 20
304.312739
 30
0.0
 11
218.5502389999999
 21
304.312739
 31
0.0
  0
ARC
  5
B96E
330
B935
100
AcDbEntity
  8
1
  6
Continuous
100
AcDbCircle
 10
266.252922
 20
300.152624
 30
0.0
 40
6.768752
100
AcDbArc
 50
16.69546099999999
 51
28.62323099999998
  0
ARC
  5
B96F
330
B935
100
AcDbEntity
  8
1
  6
Continuous
100
AcDbCircle
 10
269.50967
 20
301.929974
 30
0.0
 40
3.058577999999998
100
AcDbArc
 50
28.62323099999998
 51
51.173052
  0
LINE
  5
B970
330
B935
100
AcDbEntity
  8
1
  6
Continuous
100
AcDbLine
 10
209.418711
 20
302.091789
 30
0.0
 11
223.7636549999999
 21
302.091789
 31
0.0
  0
ARC
  5
B971
330
B935
100
AcDbEntity
  8
1
  6
Continuous
100
AcDbCircle
 10
221.4179389999999
 20
302.519206
 30
0.0
 40
2.384338999999997
100
AcDbArc
 50
349.6733199999998
 51
48.78250799999999
  0
ARC
  5
B972
330
B935
100
AcDbEntity
  8
1
  6
Continuous
100
AcDbCircle
 10
217.7253169999999
 20
303.2410889999998
 30
0.0
 40
1.188780999999998
100
AcDbArc
 50
284.807772
 51
2.109159
  0
ARC
  5
B973
330
B935
100
AcDbEntity
  8
1
  6
Continuous
100
AcDbCircle
 10
221.1087229999999
 20
302.604599
 30
0.0
 40
2.298399999999999
100
AcDbArc
 50
131.996419
 51
162.784696
  0
LINE
  5
B974
330
B935
100
AcDbEntity
  8
1
  6
Continuous
100
AcDbLine
 10
209.260104
 20
299.5381619999998
 30
0.0
 11
212.947386
 21
299.5381619999998
 31
0.0
  0
ARC
  5
B975
330
B935
100
AcDbEntity
  8
1
  6
Continuous
100
AcDbCircle
 10
210.1356829999998
 20
301.1713379999998
 30
0.0
 40
2.172123
100
AcDbArc
 50
163.484735
 51
182.237079
  0
ARC
  5
B976
330
B935
100
AcDbEntity
  8
1
  6
Continuous
100
AcDbCircle
 10
199.7357799999998
 20
299.1607989999998
 30
0.0
 40
8.451753
100
AcDbArc
 50
4.483236999999999
 51
13.17066
  0
ARC
  5
B977
330
B935
100
AcDbEntity
  8
1
  6
Continuous
100
AcDbCircle
 10
208.578211
 20
301.029678
 30
0.0
 40
0.9230079999999999
100
AcDbArc
 50
108.7945229999998
 51
124.668912
  0
LINE
  5
B978
330
B935
100
AcDbEntity
  8
1
  6
Continuous
100
AcDbLine
 10
208.2973739999999
 20
299.65751
 30
0.0
 11
208.1616719999999
 21
299.821451
 31
0.0
  0
ARC
  5
B979
330
B935
100
AcDbEntity
  8
1
  6
Continuous
100
AcDbCircle
 10
209.260104
 20
303.480799
 30
0.0
 40
3.942636999999998
100
AcDbArc
 50
255.866358
 51
270.0
  0
ARC
  5
B97A
330
B935
100
AcDbEntity
  8
1
  6
Continuous
100
AcDbCircle
 10
209.418711
 20
298.5599509999999
 30
0.0
 40
3.531837999999998
100
AcDbArc
 50
90.0
 51
108.7945229999998
  0
LINE
  5
B97B
330
B935
100
AcDbEntity
  8
4
  6
CENTER
100
AcDbLine
 10
66.238934
 20
370.6279369999998
 30
0.0
 11
66.238934
 21
156.6277389999999
 31
0.0
  0
LINE
  5
B97C
330
B935
100
AcDbEntity
  8
1
  6
Continuous
100
AcDbLine
 10
84.663128
 20
298.0877899999999
 30
0.0
 11
84.616552
 21
251.657473
 31
0.0
  0
LINE
  5
B97D
330
B935
100
AcDbEntity
  8
1
  6
Continuous
100
AcDbLine
 10
82.06357699999998
 20
298.537173
 30
0.0
 11
82.01655100000001
 21
251.657473
 31
0.0
  0
LINE
  5
B97E
330
B935
100
AcDbEntity
  8
1
  6
Continuous
100
AcDbLine
 10
47.81474099999999
 20
298.0877899999999
 30
0.0
 11
47.896105
 21
216.9777529999998
 31
0.0
  0
LINE
  5
B97F
330
B935
100
AcDbEntity
  8
1
  6
Continuous
100
AcDbLine
 10
50.414291
 20
298.537173
 30
0.0
 11
50.496107
 21
216.9777529999998
 31
0.0
  0
ARC
  5
B980
330
B935
100
AcDbEntity
  8
1
  6
Continuous
100
AcDbCircle
 10
53.938665
 20
254.901466
 30
0.0
 40
39.801511
100
AcDbArc
 50
338.6329589999999
 51
349.0860599999999
  0
ARC
  5
B981
330
B935
100
AcDbEntity
  8
1
  6
Continuous
100
AcDbCircle
 10
78.539203
 20
254.901466
 30
0.0
 40
39.801511
100
AcDbArc
 50
180.452642
 51
210.446211
  0
LINE
  5
B982
330
B935
100
AcDbEntity
  8
4
  6
CENTER
100
AcDbLine
 10
38.33146
 20
229.6277529999999
 30
0.0
 11
99.74338000000001
 21
229.6277529999999
 31
0.0
  0
LINE
  5
B983
330
B935
100
AcDbEntity
  8
1
  6
Continuous
100
AcDbLine
 10
47.896105
 20
216.9777529999998
 30
0.0
 11
50.496107
 21
216.9777529999998
 31
0.0
  0
LINE
  5
B984
330
B935
100
AcDbEntity
  8
1
  6
Continuous
100
AcDbLine
 10
51.41429099999999
 20
299.5381759999999
 30
0.0
 11
81.06357800000003
 21
299.5381759999999
 31
0.0
  0
LINE
  5
B985
330
B935
100
AcDbEntity
  8
1
  6
Continuous
100
AcDbLine
 10
51.814739
 20
302.0918029999999
 30
0.0
 11
80.66312999999999
 21
302.0918029999999
 31
0.0
  0
LINE
  5
B986
330
B935
100
AcDbEntity
  8
1
  6
Continuous
100
AcDbLine
 10
39.552826
 20
304.312753
 30
0.0
 11
92.925026
 21
304.312753
 31
0.0
  0
ARC
  5
B987
330
B935
100
AcDbEntity
  8
1
  6
Continuous
100
AcDbCircle
 10
51.814739
 20
298.0918029999999
 30
0.0
 40
4.0
100
AcDbArc
 50
90.0
 51
180.057476
  0
ARC
  5
B988
330
B935
100
AcDbEntity
  8
1
  6
Continuous
100
AcDbCircle
 10
51.41429099999999
 20
298.5381759999999
 30
0.0
 40
1.0
100
AcDbArc
 50
90.0
 51
180.057476
  0
ARC
  5
B989
330
B935
100
AcDbEntity
  8
1
  6
Continuous
100
AcDbCircle
 10
81.06357800000003
 20
298.5381759999999
 30
0.0
 40
1.0
100
AcDbArc
 50
359.9425239999998
 51
90.0
  0
ARC
  5
B98A
330
B935
100
AcDbEntity
  8
1
  6
Continuous
100
AcDbCircle
 10
80.66312999999999
 20
298.0918029999999
 30
0.0
 40
4.0
100
AcDbArc
 50
359.9425239999998
 51
90.0
  0
LINE
  5
B98B
330
B935
100
AcDbEntity
  8
1
  6
Continuous
100
AcDbLine
 10
38.738934
 20
297.5437529999999
 30
0.0
 11
38.738934
 21
254.587033
 31
0.0
  0
LINE
  5
B98C
330
B935
100
AcDbEntity
  8
1
  6
Continuous
100
AcDbLine
 10
93.738934
 20
297.5437529999999
 30
0.0
 11
93.738934
 21
254.587033
 31
0.0
  0
ARC
  5
B98D
330
B935
100
AcDbEntity
  8
1
  6
Continuous
100
AcDbCircle
 10
45.50793399999998
 20
297.5437529999999
 30
0.0
 40
6.769
100
AcDbArc
 50
90.0
 51
180.0
  0
ARC
  5
B98E
330
B935
100
AcDbEntity
  8
1
  6
Continuous
100
AcDbCircle
 10
86.96993399999998
 20
297.5437529999999
 30
0.0
 40
6.769
100
AcDbArc
 50
0.0
 51
90.0
  0
LINE
  5
B98F
330
B935
100
AcDbEntity
  8
1
  6
Continuous
100
AcDbLine
 10
378.733743
 20
297.336739
 30
0.0
 11
378.733743
 21
254.7370059999999
 31
0.0
  0
LINE
  5
B990
330
B935
100
AcDbEntity
  8
1
  6
Continuous
100
AcDbLine
 10
323.733743
 20
297.336739
 30
0.0
 11
323.733743
 21
254.73706
 31
0.0
  0
ARC
  5
B991
330
B935
100
AcDbEntity
  8
1
  6
Continuous
100
AcDbCircle
 10
330.8597429999999
 20
297.336739
 30
0.0
 40
7.126
100
AcDbArc
 50
90.0
 51
180.0
  0
ARC
  5
B992
330
B935
100
AcDbEntity
  8
1
  6
Continuous
100
AcDbCircle
 10
371.607743
 20
297.336739
 30
0.0
 40
7.126
100
AcDbArc
 50
0.0
 51
90.0
  0
ARC
  5
B993
330
B935
100
AcDbEntity
  8
1
  6
Continuous
100
AcDbCircle
 10
597.4823169999997
 20
195.920948
 30
0.0
 40
277.8421779999998
100
AcDbArc
 50
160.1679499999999
 51
166.985586
  0
ARC
  5
B994
330
B935
100
AcDbEntity
  8
1
  6
Continuous
100
AcDbCircle
 10
597.517816
 20
195.752224
 30
0.0
 40
280.2147699999999
100
AcDbArc
 50
160.8364799999999
 51
166.9559429999999
  0
ARC
  5
B995
330
B935
100
AcDbEntity
  8
1
  6
Continuous
100
AcDbCircle
 10
341.5464739999999
 20
284.7600429999999
 30
0.0
 40
9.209889
100
AcDbArc
 50
100.9954699999999
 51
161.141259
  0
ARC
  5
B996
330
B935
100
AcDbEntity
  8
1
  6
Continuous
100
AcDbCircle
 10
341.686212
 20
288.20501
 30
0.0
 40
5.908440999999998
100
AcDbArc
 50
108.720775
 51
160.442813
  0
ARC
  5
B997
330
B935
100
AcDbEntity
  8
1
  6
Continuous
100
AcDbCircle
 10
338.9334739999999
 20
255.051466
 30
0.0
 40
39.801511
100
AcDbArc
 50
324.005645
 51
359.5473579999999
  0
LINE
  5
B998
330
B935
100
AcDbEntity
  8
1
  6
Continuous
100
AcDbLine
 10
335.419599
 20
288.221586
 30
0.0
 11
335.4590559999999
 21
248.887654
 31
0.0
  0
LINE
  5
B999
330
B935
100
AcDbEntity
  8
1
  6
Continuous
100
AcDbLine
 10
367.047888
 20
288.221585
 30
0.0
 11
366.9765699999999
 21
217.1277529999999
 31
0.0
  0
LINE
  5
B99A
330
B935
100
AcDbEntity
  8
1
  6
Continuous
100
AcDbLine
 10
369.576723
 20
217.1277529999999
 30
0.0
 11
366.9765699999999
 21
217.1277529999999
 31
0.0
  0
ARC
  5
B99B
330
B935
100
AcDbEntity
  8
1
  6
Continuous
100
AcDbCircle
 10
377.701521
 20
226.890666
 30
0.0
 40
8.115
100
AcDbArc
 50
144.0056449999999
 51
179.942522
  0
ARC
  5
B99C
330
B935
100
AcDbEntity
  8
1
  6
Continuous
100
AcDbCircle
 10
338.9334739999999
 20
255.051466
 30
0.0
 40
37.20151099999998
100
AcDbArc
 50
324.005645
 51
344.602802
  0
ARC
  5
B99D
330
B935
100
AcDbEntity
  8
1
  6
Continuous
100
AcDbCircle
 10
377.701521
 20
226.890666
 30
0.0
 40
10.715
100
AcDbArc
 50
144.0056449999999
 51
179.942522
  0
ARC
  5
B99E
330
B935
100
AcDbEntity
  8
1
  6
Continuous
100
AcDbCircle
 10
343.9482949999999
 20
253.670418
 30
0.0
 40
32.0
100
AcDbArc
 50
344.602802
 51
13.58600199999999
  0
ARC
  5
B99F
330
B935
100
AcDbEntity
  8
1
  6
Continuous
100
AcDbCircle
 10
358.5191919999999
 20
253.670418
 30
0.0
 40
32.0
100
AcDbArc
 50
166.4139979999999
 51
195.3971979999998
  0
ARC
  5
B9A0
330
B935
100
AcDbEntity
  8
1
  6
Continuous
100
AcDbCircle
 10
356.2698409999999
 20
251.827299
 30
0.0
 40
32.53609799999999
100
AcDbArc
 50
167.270172
 51
177.3275659999999
  0
ARC
  5
B9A1
330
B935
100
AcDbEntity
  8
1
  6
Continuous
100
AcDbCircle
 10
363.534012
 20
255.051466
 30
0.0
 40
39.801511
100
AcDbArc
 50
180.452642
 51
208.1055469999999
  0
ARC
  5
B9A2
330
B935
100
AcDbEntity
  8
1
  6
Continuous
100
AcDbCircle
 10
363.534012
 20
255.051466
 30
0.0
 40
37.20151099999998
100
AcDbArc
 50
195.3971979999998
 51
196.292101
  0
LINE
  5
B9A3
330
B935
100
AcDbEntity
  8
1
  6
Continuous
100
AcDbLine
 10
272.7363389999998
 20
294.7523229999998
 30
0.0
 11
272.7363389999998
 21
302.0971829999999
 31
0.0
  0
ARC
  5
B9A4
330
B935
100
AcDbEntity
  8
1
  6
Continuous
100
AcDbCircle
 10
272.588482
 20
290.2331859999998
 30
0.0
 40
4.521554
100
AcDbArc
 50
88.126069
 51
156.3338149999998
  0
LINE
  5
B9A5
330
B935
100
AcDbEntity
  8
4
  6
CENTER
100
AcDbLine
 10
279.236357
 20
87.422368
 30
0.0
 11
139.2363389999998
 21
87.422368
 31
0.0
  0
LINE
  5
B9A6
330
B935
100
AcDbEntity
  8
4
  6
CENTER
100
AcDbLine
 10
245.2363389999999
 20
119.922368
 30
0.0
 11
245.2363389999999
 21
54.922368
 31
0.0
  0
LINE
  5
B9A7
330
B935
100
AcDbEntity
  8
1
  6
Continuous
100
AcDbLine
 10
196.836339
 20
71.65441300000002
 30
0.0
 11
220.1895700000001
 21
71.67783900000002
 31
0.0
  0
LINE
  5
B9A8
330
B935
100
AcDbEntity
  8
1
  6
Continuous
100
AcDbLine
 10
196.836339
 20
69.054411
 30
0.0
 11
220.19218
 21
69.07784000000001
 31
0.0
  0
LINE
  5
B9A9
330
B935
100
AcDbEntity
  8
4
  6
CENTER
100
AcDbLine
 10
209.236339
 20
120.960719
 30
0.0
 11
209.236339
 21
59.06685
 31
0.0
  0
ARC
  5
B9AA
330
B935
100
AcDbEntity
  8
1
  6
Continuous
100
AcDbCircle
 10
245.2363389999999
 20
87.422368
 30
0.0
 40
27.5
100
AcDbArc
 50
229.821137
 51
333.5095819999999
  0
ARC
  5
B9AB
330
B935
100
AcDbEntity
  8
1
  6
Continuous
100
AcDbCircle
 10
245.2363389999999
 20
87.422368
 30
0.0
 40
24.9
100
AcDbArc
 50
229.8211349999999
 51
329.6006419999998
  0
LINE
  5
B9AC
330
B935
100
AcDbEntity
  8
1
  6
Continuous
100
AcDbLine
 10
196.836339
 20
71.65441300000002
 30
0.0
 11
196.836339
 21
69.054411
 31
0.0
  0
ARC
  5
B9AD
330
B935
100
AcDbEntity
  8
1
  6
Continuous
100
AcDbCircle
 10
245.2363389999999
 20
87.422368
 30
0.0
 40
24.9
100
AcDbArc
 50
30.132939
 51
34.11649699999999
  0
ARC
  5
B9AE
330
B935
100
AcDbEntity
  8
1
  6
Continuous
100
AcDbCircle
 10
245.2363389999999
 20
87.422368
 30
0.0
 40
27.5
100
AcDbArc
 50
26.237932
 51
30.818017
  0
ARC
  5
B9AF
330
B935
100
AcDbEntity
  8
1
  6
Continuous
100
AcDbCircle
 10
245.2363389999999
 20
87.422368
 30
0.0
 40
20.89999999999999
100
AcDbArc
 50
36.732949
 51
41.197625
  0
ARC
  5
B9B0
330
B935
100
AcDbEntity
  8
1
  6
Continuous
100
AcDbCircle
 10
245.2363389999999
 20
87.422368
 30
0.0
 40
20.89999999999999
100
AcDbArc
 50
217.0757819999999
 51
322.9242179999999
  0
LINE
  5
B9B1
330
B935
100
AcDbEntity
  8
1
  6
Continuous
100
AcDbLine
 10
203.2363389999999
 20
233.0918409999999
 30
0.0
 11
203.2363389999999
 21
226.163638
 31
0.0
  0
LINE
  5
B9B2
330
B935
100
AcDbEntity
  8
1
  6
Continuous
100
AcDbLine
 10
215.236339
 20
233.0918409999999
 30
0.0
 11
215.236339
 21
226.163638
 31
0.0
  0
CIRCLE
  5
B9B3
330
B935
100
AcDbEntity
  8
1
  6
Continuous
100
AcDbCircle
 10
209.236339
 20
229.6277389999999
 30
0.0
 40
6.0
  0
LINE
  5
B9B4
330
B935
100
AcDbEntity
  8
1
  6
Continuous
100
AcDbLine
 10
209.236339
 20
222.699536
 30
0.0
 11
215.236339
 21
226.163638
 31
0.0
  0
LINE
  5
B9B5
330
B935
100
AcDbEntity
  8
1
  6
Continuous
100
AcDbLine
 10
209.236339
 20
222.699536
 30
0.0
 11
203.2363389999999
 21
226.163638
 31
0.0
  0
LINE
  5
B9B6
330
B935
100
AcDbEntity
  8
1
  6
Continuous
100
AcDbLine
 10
215.236339
 20
233.0918409999999
 30
0.0
 11
209.236339
 21
236.5559419999999
 31
0.0
  0
LINE
  5
B9B7
330
B935
100
AcDbEntity
  8
1
  6
Continuous
100
AcDbLine
 10
203.2363389999999
 20
233.0918409999999
 30
0.0
 11
209.236339
 21
236.5559419999999
 31
0.0
  0
CIRCLE
  5
B9B8
330
B935
100
AcDbEntity
  8
1
  6
Continuous
100
AcDbCircle
 10
209.236339
 20
229.6277389999999
 30
0.0
 40
4.0
  0
CIRCLE
  5
B9B9
330
B935
100
AcDbEntity
  8
2
  6
Continuous
100
AcDbCircle
 10
209.236339
 20
229.6277389999999
 30
0.0
 40
3.3235
  0
ARC
  5
B9BA
330
B935
100
AcDbEntity
  8
1
  6
Continuous
100
AcDbCircle
 10
209.236339
 20
229.6277389999999
 30
0.0
 40
40.533539
100
AcDbArc
 50
88.331756
 51
153.484236
  0
ARC
  5
B9BB
330
B935
100
AcDbEntity
  8
1
  6
Continuous
100
AcDbCircle
 10
209.236339
 20
229.6277389999999
 30
0.0
 40
53.65
100
AcDbArc
 50
86.66410500000003
 51
155.568776
  0
ARC
  5
B9BC
330
B935
100
AcDbEntity
  8
1
  6
Continuous
100
AcDbCircle
 10
209.236339
 20
229.6277389999999
 30
0.0
 40
65.0
100
AcDbArc
 50
86.69641400000001
 51
181.2281549999999
  0
CIRCLE
  5
B9BD
330
B935
100
AcDbEntity
  8
1
  6
Continuous
100
AcDbCircle
 10
209.236339
 20
193.6277389999999
 30
0.0
 40
3.7
  0
ARC
  5
B9BE
330
B935
100
AcDbEntity
  8
1
  6
Continuous
100
AcDbCircle
 10
209.236339
 20
229.6277389999999
 30
0.0
 40
31.415325
100
AcDbArc
 50
91.79576500000001
 51
154.9116329999999
  0
ARC
  5
B9BF
330
B935
100
AcDbEntity
  8
1
  6
Continuous
100
AcDbCircle
 10
174.998304
 20
218.503127
 30
0.0
 40
3.7
100
AcDbArc
 50
222.217559
 51
344.9962409999998
  0
LINE
  5
B9C0
330
B935
100
AcDbEntity
  8
4
  6
CENTER
100
AcDbLine
 10
245.2363389999999
 20
409.84423
 30
0.0
 11
245.2363389999999
 21
474.8442299999998
 31
0.0
  0
CIRCLE
  5
B9C1
330
B935
100
AcDbEntity
  8
1
  6
Continuous
100
AcDbCircle
 10
245.2363389999999
 20
442.3442299999998
 30
0.0
 40
25.0
  0
CIRCLE
  5
B9C2
330
B935
100
AcDbEntity
  8
1
  6
Continuous
100
AcDbCircle
 10
245.2363389999999
 20
442.3442299999998
 30
0.0
 40
26.6861
  0
LINE
  5
B9C3
330
B935
100
AcDbEntity
  8
4
  6
CENTER
100
AcDbLine
 10
279.2363689999999
 20
442.3442299999998
 30
0.0
 11
139.2363349999999
 21
442.3442299999998
 31
0.0
  0
ARC
  5
B9C4
330
B935
100
AcDbEntity
  8
1
  6
Continuous
100
AcDbCircle
 10
245.354157
 20
442.3442299999998
 30
0.0
 40
28.865452
100
AcDbArc
 50
139.838719
 51
220.5077509999999
  0
LINE
  5
B9C5
330
B935
100
AcDbEntity
  8
1
  6
Continuous
100
AcDbLine
 10
229.0705319999999
 20
442.3442299999998
 30
0.0
 11
237.153435
 21
428.3442299999999
 31
0.0
  0
LINE
  5
B9C6
330
B935
100
AcDbEntity
  8
1
  6
Continuous
100
AcDbLine
 10
261.402147
 20
442.3442299999998
 30
0.0
 11
253.319243
 21
428.3442299999999
 31
0.0
  0
LINE
  5
B9C7
330
B935
100
AcDbEntity
  8
1
  6
Continuous
100
AcDbLine
 10
237.153435
 20
428.3442299999999
 30
0.0
 11
253.319243
 21
428.3442299999999
 31
0.0
  0
LINE
  5
B9C8
330
B935
100
AcDbEntity
  8
1
  6
Continuous
100
AcDbLine
 10
237.153435
 20
456.34423
 30
0.0
 11
253.319243
 21
456.34423
 31
0.0
  0
ARC
  5
B9C9
330
B935
100
AcDbEntity
  8
1
  6
Continuous
100
AcDbCircle
 10
245.2363389999999
 20
442.3442299999998
 30
0.0
 40
9.25
100
AcDbArc
 50
115.4843689999999
 51
244.515631
  0
CIRCLE
  5
B9CA
330
B935
100
AcDbEntity
  8
1
  6
Continuous
100
AcDbCircle
 10
245.2363389999999
 20
442.3442299999998
 30
0.0
 40
6.0
  0
ARC
  5
B9CB
330
B935
100
AcDbEntity
  8
1
  6
Continuous
100
AcDbCircle
 10
245.2363389999999
 20
442.3442299999998
 30
0.0
 40
9.25
100
AcDbArc
 50
295.484369
 51
64.515631
  0
LINE
  5
B9CC
330
B935
100
AcDbEntity
  8
1
  6
Continuous
100
AcDbLine
 10
261.402147
 20
442.3442299999998
 30
0.0
 11
253.319243
 21
456.34423
 31
0.0
  0
CIRCLE
  5
B9CD
330
B935
100
AcDbEntity
  8
1
  6
Continuous
100
AcDbCircle
 10
245.2363389999999
 20
442.3442299999998
 30
0.0
 40
4.499976
  0
LINE
  5
B9CE
330
B935
100
AcDbEntity
  8
1
  6
Continuous
100
AcDbLine
 10
249.2162889999999
 20
433.9942299999998
 30
0.0
 11
241.256389
 21
433.9942299999998
 31
0.0
  0
LINE
  5
B9CF
330
B935
100
AcDbEntity
  8
1
  6
Continuous
100
AcDbLine
 10
249.2162889999999
 20
450.69423
 30
0.0
 11
241.256389
 21
450.69423
 31
0.0
  0
LINE
  5
B9D0
330
B935
100
AcDbEntity
  8
1
  6
Continuous
100
AcDbLine
 10
229.0705319999999
 20
442.3442299999998
 30
0.0
 11
237.153435
 21
456.34423
 31
0.0
  0
LINE
  5
B9D1
330
B935
100
AcDbEntity
  8
4
  6
CENTER
100
AcDbLine
 10
209.236352
 20
408.8058819999998
 30
0.0
 11
209.236352
 21
470.699749
 31
0.0
  0
ARC
  5
B9D2
330
B935
100
AcDbEntity
  8
1
  6
Continuous
100
AcDbCircle
 10
261.313613
 20
442.344222
 30
0.0
 40
53.38794100000001
100
AcDbArc
 50
159.892807
 51
200.1071739999999
  0
LINE
  5
B9D3
330
B935
100
AcDbEntity
  8
1
  6
Continuous
100
AcDbLine
 10
337.233719
 20
315.6279229999999
 30
0.0
 11
337.233719
 21
312.127945
 31
0.0
  0
LINE
  5
B9D4
330
B935
100
AcDbEntity
  8
1
  6
Continuous
100
AcDbLine
 10
365.233719
 20
315.6279229999999
 30
0.0
 11
365.233719
 21
312.127945
 31
0.0
  0
LINE
  5
B9D5
330
B935
100
AcDbEntity
  8
1
  6
Continuous
100
AcDbLine
 10
342.8837429999999
 20
360.5279229999999
 30
0.0
 11
342.8837429999999
 21
363.7279229999998
 31
0.0
  0
LINE
  5
B9D6
330
B935
100
AcDbEntity
  8
1
  6
Continuous
100
AcDbLine
 10
359.583743
 20
360.5279229999999
 30
0.0
 11
359.583743
 21
363.7279229999998
 31
0.0
  0
CIRCLE
  5
B9D7
330
B935
100
AcDbEntity
  8
2
  6
Continuous
100
AcDbCircle
 10
245.2363389999999
 20
442.3442299999998
 30
0.0
 40
5.052999999999999
  0
CIRCLE
  5
B9D8
330
B935
100
AcDbEntity
  8
1
  6
Continuous
100
AcDbCircle
 10
245.2363389999999
 20
442.3442299999998
 30
0.0
 40
9.5
  0
ARC
  5
B9D9
330
B935
100
AcDbEntity
  8
1
  6
Continuous
100
AcDbCircle
 10
87.23893399999999
 20
308.1279589999998
 30
0.0
 40
4.0
100
AcDbArc
 50
0.0
 51
90.0
  0
ARC
  5
B9DA
330
B935
100
AcDbEntity
  8
1
  6
Continuous
100
AcDbCircle
 10
45.238934
 20
308.1279589999998
 30
0.0
 40
4.0
100
AcDbArc
 50
90.0
 51
180.0
  0
LINE
  5
B9DB
330
B935
100
AcDbEntity
  8
1
  6
Continuous
100
AcDbLine
 10
71.665532
 20
304.312753
 30
0.0
 11
69.66553199999999
 21
306.8337529999999
 31
0.0
  0
LINE
  5
B9DC
330
B935
100
AcDbEntity
  8
1
  6
Continuous
100
AcDbLine
 10
70.37263900000002
 20
304.312753
 30
0.0
 11
72.37263900000002
 21
306.8337529999999
 31
0.0
  0
LINE
  5
B9DD
330
B935
100
AcDbEntity
  8
1
  6
Continuous
100
AcDbLine
 10
39.55283399999999
 20
306.8337529999999
 30
0.0
 11
92.92503399999999
 21
306.8337529999999
 31
0.0
  0
LINE
  5
B9DE
330
B935
100
AcDbEntity
  8
1
  6
Continuous
100
AcDbLine
 10
92.92503399999999
 20
308.1279589999998
 30
0.0
 11
39.55283399999999
 21
308.1279589999998
 31
0.0
  0
LINE
  5
B9DF
330
B935
100
AcDbEntity
  8
1
  6
Continuous
100
AcDbLine
 10
51.28075599999998
 20
304.312753
 30
0.0
 11
53.280756
 21
306.8337529999999
 31
0.0
  0
LINE
  5
B9E0
330
B935
100
AcDbEntity
  8
1
  6
Continuous
100
AcDbLine
 10
49.159436
 20
304.312753
 30
0.0
 11
51.159436
 21
306.8337529999999
 31
0.0
  0
LINE
  5
B9E1
330
B935
100
AcDbEntity
  8
1
  6
Continuous
100
AcDbLine
 10
51.86654199999999
 20
304.312753
 30
0.0
 11
49.866542
 21
306.8337529999999
 31
0.0
  0
LINE
  5
B9E2
330
B935
100
AcDbEntity
  8
1
  6
Continuous
100
AcDbLine
 10
44.916795
 20
304.312753
 30
0.0
 11
46.916795
 21
306.8337529999999
 31
0.0
  0
LINE
  5
B9E3
330
B935
100
AcDbEntity
  8
1
  6
Continuous
100
AcDbLine
 10
46.20968799999999
 20
304.312753
 30
0.0
 11
44.20968799999999
 21
306.8337529999999
 31
0.0
  0
LINE
  5
B9E4
330
B935
100
AcDbEntity
  8
1
  6
Continuous
100
AcDbLine
 10
40.55283399999999
 20
306.8337529999999
 30
0.0
 11
39.55283399999999
 21
305.3127529999998
 31
0.0
  0
LINE
  5
B9E5
330
B935
100
AcDbEntity
  8
1
  6
Continuous
100
AcDbLine
 10
40.67415399999997
 20
304.312753
 30
0.0
 11
42.67415399999999
 21
306.8337529999999
 31
0.0
  0
LINE
  5
B9E6
330
B935
100
AcDbEntity
  8
1
  6
Continuous
100
AcDbLine
 10
40.55283399999999
 20
304.312753
 30
0.0
 11
39.55283399999999
 21
305.3127529999998
 31
0.0
  0
LINE
  5
B9E7
330
B935
100
AcDbEntity
  8
1
  6
Continuous
100
AcDbLine
 10
42.795475
 20
304.312753
 30
0.0
 11
44.795475
 21
306.8337529999999
 31
0.0
  0
LINE
  5
B9E8
330
B935
100
AcDbEntity
  8
1
  6
Continuous
100
AcDbLine
 10
43.381261
 20
304.312753
 30
0.0
 11
41.381261
 21
306.8337529999999
 31
0.0
  0
LINE
  5
B9E9
330
B935
100
AcDbEntity
  8
1
  6
Continuous
100
AcDbLine
 10
47.03811499999999
 20
304.312753
 30
0.0
 11
49.03811499999999
 21
306.8337529999999
 31
0.0
  0
LINE
  5
B9EA
330
B935
100
AcDbEntity
  8
1
  6
Continuous
100
AcDbLine
 10
49.03811499999999
 20
304.312753
 30
0.0
 11
47.03811499999999
 21
306.8337529999999
 31
0.0
  0
LINE
  5
B9EB
330
B935
100
AcDbEntity
  8
1
  6
Continuous
100
AcDbLine
 10
39.55283399999999
 20
304.312753
 30
0.0
 11
39.55283399999999
 21
308.1279589999998
 31
0.0
  0
LINE
  5
B9EC
330
B935
100
AcDbEntity
  8
1
  6
Continuous
100
AcDbLine
 10
61.88735799999999
 20
304.312753
 30
0.0
 11
63.887358
 21
306.8337529999999
 31
0.0
  0
LINE
  5
B9ED
330
B935
100
AcDbEntity
  8
1
  6
Continuous
100
AcDbLine
 10
64.008678
 20
304.312753
 30
0.0
 11
66.008678
 21
306.8337529999999
 31
0.0
  0
LINE
  5
B9EE
330
B935
100
AcDbEntity
  8
1
  6
Continuous
100
AcDbLine
 10
63.18025099999999
 20
304.312753
 30
0.0
 11
61.180251
 21
306.8337529999999
 31
0.0
  0
LINE
  5
B9EF
330
B935
100
AcDbEntity
  8
1
  6
Continuous
100
AcDbLine
 10
66.008678
 20
304.312753
 30
0.0
 11
64.008678
 21
306.8337529999999
 31
0.0
  0
LINE
  5
B9F0
330
B935
100
AcDbEntity
  8
1
  6
Continuous
100
AcDbLine
 10
66.129998
 20
304.312753
 30
0.0
 11
68.129998
 21
306.8337529999999
 31
0.0
  0
LINE
  5
B9F1
330
B935
100
AcDbEntity
  8
1
  6
Continuous
100
AcDbLine
 10
55.523397
 20
304.312753
 30
0.0
 11
57.523397
 21
306.8337529999999
 31
0.0
  0
LINE
  5
B9F2
330
B935
100
AcDbEntity
  8
1
  6
Continuous
100
AcDbLine
 10
57.64471700000001
 20
304.312753
 30
0.0
 11
59.644717
 21
306.8337529999999
 31
0.0
  0
LINE
  5
B9F3
330
B935
100
AcDbEntity
  8
1
  6
Continuous
100
AcDbLine
 10
57.523397
 20
304.312753
 30
0.0
 11
55.523397
 21
306.8337529999999
 31
0.0
  0
LINE
  5
B9F4
330
B935
100
AcDbEntity
  8
1
  6
Continuous
100
AcDbLine
 10
60.351824
 20
304.312753
 30
0.0
 11
58.351824
 21
306.8337529999999
 31
0.0
  0
LINE
  5
B9F5
330
B935
100
AcDbEntity
  8
1
  6
Continuous
100
AcDbLine
 10
54.69497
 20
304.312753
 30
0.0
 11
52.69497
 21
306.8337529999999
 31
0.0
  0
LINE
  5
B9F6
330
B935
100
AcDbEntity
  8
1
  6
Continuous
100
AcDbLine
 10
53.402076
 20
304.312753
 30
0.0
 11
55.402076
 21
306.8337529999999
 31
0.0
  0
LINE
  5
B9F7
330
B935
100
AcDbEntity
  8
1
  6
Continuous
100
AcDbLine
 10
59.766037
 20
304.312753
 30
0.0
 11
61.766037
 21
306.8337529999999
 31
0.0
  0
LINE
  5
B9F8
330
B935
100
AcDbEntity
  8
1
  6
Continuous
100
AcDbLine
 10
68.25131899999999
 20
304.312753
 30
0.0
 11
70.25131899999999
 21
306.8337529999999
 31
0.0
  0
LINE
  5
B9F9
330
B935
100
AcDbEntity
  8
1
  6
Continuous
100
AcDbLine
 10
68.83710500000001
 20
304.312753
 30
0.0
 11
66.837105
 21
306.8337529999999
 31
0.0
  0
LINE
  5
B9FA
330
B935
100
AcDbEntity
  8
1
  6
Continuous
100
AcDbLine
 10
89.46452200000001
 20
304.312753
 30
0.0
 11
91.464522
 21
306.8337529999999
 31
0.0
  0
LINE
  5
B9FB
330
B935
100
AcDbEntity
  8
1
  6
Continuous
100
AcDbLine
 10
91.464522
 20
304.312753
 30
0.0
 11
89.46452200000001
 21
306.8337529999999
 31
0.0
  0
LINE
  5
B9FC
330
B935
100
AcDbEntity
  8
1
  6
Continuous
100
AcDbLine
 10
85.22188100000002
 20
304.312753
 30
0.0
 11
87.22188100000002
 21
306.8337529999999
 31
0.0
  0
LINE
  5
B9FD
330
B935
100
AcDbEntity
  8
1
  6
Continuous
100
AcDbLine
 10
85.80766800000002
 20
304.312753
 30
0.0
 11
83.80766800000001
 21
306.8337529999999
 31
0.0
  0
LINE
  5
B9FE
330
B935
100
AcDbEntity
  8
1
  6
Continuous
100
AcDbLine
 10
78.85791999999998
 20
304.312753
 30
0.0
 11
80.85791999999996
 21
306.8337529999999
 31
0.0
  0
LINE
  5
B9FF
330
B935
100
AcDbEntity
  8
1
  6
Continuous
100
AcDbLine
 10
80.979241
 20
304.312753
 30
0.0
 11
82.97924100000001
 21
306.8337529999999
 31
0.0
  0
LINE
  5
BA00
330
B935
100
AcDbEntity
  8
1
  6
Continuous
100
AcDbLine
 10
80.15081399999997
 20
304.312753
 30
0.0
 11
78.15081399999998
 21
306.8337529999999
 31
0.0
  0
LINE
  5
BA01
330
B935
100
AcDbEntity
  8
1
  6
Continuous
100
AcDbLine
 10
82.97924100000001
 20
304.312753
 30
0.0
 11
80.979241
 21
306.8337529999999
 31
0.0
  0
LINE
  5
BA02
330
B935
100
AcDbEntity
  8
1
  6
Continuous
100
AcDbLine
 10
72.493959
 20
304.312753
 30
0.0
 11
74.493959
 21
306.8337529999999
 31
0.0
  0
LINE
  5
BA03
330
B935
100
AcDbEntity
  8
1
  6
Continuous
100
AcDbLine
 10
74.61528
 20
304.312753
 30
0.0
 11
76.61528
 21
306.8337529999999
 31
0.0
  0
LINE
  5
BA04
330
B935
100
AcDbEntity
  8
1
  6
Continuous
100
AcDbLine
 10
74.493959
 20
304.312753
 30
0.0
 11
72.493959
 21
306.8337529999999
 31
0.0
  0
LINE
  5
BA05
330
B935
100
AcDbEntity
  8
1
  6
Continuous
100
AcDbLine
 10
77.322387
 20
304.312753
 30
0.0
 11
75.322387
 21
306.8337529999999
 31
0.0
  0
LINE
  5
BA06
330
B935
100
AcDbEntity
  8
1
  6
Continuous
100
AcDbLine
 10
76.73659999999998
 20
304.312753
 30
0.0
 11
78.73659999999998
 21
306.8337529999999
 31
0.0
  0
LINE
  5
BA07
330
B935
100
AcDbEntity
  8
1
  6
Continuous
100
AcDbLine
 10
83.100561
 20
304.312753
 30
0.0
 11
85.10056099999998
 21
306.8337529999999
 31
0.0
  0
LINE
  5
BA08
330
B935
100
AcDbEntity
  8
1
  6
Continuous
100
AcDbLine
 10
87.343202
 20
304.312753
 30
0.0
 11
89.343202
 21
306.8337529999999
 31
0.0
  0
LINE
  5
BA09
330
B935
100
AcDbEntity
  8
1
  6
Continuous
100
AcDbLine
 10
88.63609499999999
 20
304.312753
 30
0.0
 11
86.63609499999996
 21
306.8337529999999
 31
0.0
  0
ARC
  5
BA0A
330
B935
100
AcDbEntity
  8
1
  6
Continuous
100
AcDbCircle
 10
91.82229699999997
 20
301.473591
 30
0.0
 40
2.839261999999998
100
AcDbArc
 50
86.26253100000004
 51
90.48175099999999
  0
LINE
  5
BA0B
330
B935
100
AcDbEntity
  8
1
  6
Continuous
100
AcDbLine
 10
91.58584299999999
 20
304.312753
 30
0.0
 11
92.92503399999999
 21
306.1729439999999
 31
0.0
  0
LINE
  5
BA0C
330
B935
100
AcDbEntity
  8
1
  6
Continuous
100
AcDbLine
 10
92.92503399999999
 20
306.2016679999999
 30
0.0
 11
92.29294899999999
 21
306.8337529999999
 31
0.0
  0
LINE
  5
BA0D
330
B935
100
AcDbEntity
  8
1
  6
Continuous
100
AcDbLine
 10
92.92503399999999
 20
308.1279589999998
 30
0.0
 11
92.92503399999999
 21
304.312753
 31
0.0
  0
LINE
  5
BA0E
330
B935
100
AcDbEntity
  8
1
  6
Continuous
100
AcDbLine
 10
72.238973
 20
364.1279369999999
 30
0.0
 11
70.738973
 21
365.627937
 31
0.0
  0
LINE
  5
BA0F
330
B935
100
AcDbEntity
  8
1
  6
Continuous
100
AcDbLine
 10
57.888934
 20
363.7279369999998
 30
0.0
 11
74.58893399999998
 21
363.7279369999998
 31
0.0
  0
LINE
  5
BA10
330
B935
100
AcDbEntity
  8
1
  6
Continuous
100
AcDbLine
 10
60.238973
 20
364.1279369999999
 30
0.0
 11
72.238973
 21
364.1279369999999
 31
0.0
  0
LINE
  5
BA11
330
B935
100
AcDbEntity
  8
1
  6
Continuous
100
AcDbLine
 10
57.73893399999999
 20
360.527937
 30
0.0
 11
74.738934
 21
360.527937
 31
0.0
  0
LINE
  5
BA12
330
B935
100
AcDbEntity
  8
1
  6
Continuous
100
AcDbLine
 10
56.73893399999999
 20
319.527937
 30
0.0
 11
75.738934
 21
319.527937
 31
0.0
  0
LINE
  5
BA13
330
B935
100
AcDbEntity
  8
1
  6
Continuous
100
AcDbLine
 10
45.238934
 20
312.1279589999998
 30
0.0
 11
87.23893399999999
 21
312.1279589999998
 31
0.0
  0
LINE
  5
BA14
330
B935
100
AcDbEntity
  8
1
  6
Continuous
100
AcDbLine
 10
80.238934
 20
315.627937
 30
0.0
 11
52.238934
 21
315.627937
 31
0.0
  0
LINE
  5
BA15
330
B935
100
AcDbEntity
  8
1
  6
Continuous
100
AcDbLine
 10
56.73893399999999
 20
317.1279369999999
 30
0.0
 11
56.73893399999999
 21
359.527937
 31
0.0
  0
ARC
  5
BA16
330
B935
100
AcDbEntity
  8
1
  6
Continuous
100
AcDbCircle
 10
58.23893399999999
 20
317.1279369999999
 30
0.0
 40
1.5
100
AcDbArc
 50
180.0
 51
270.0
  0
LINE
  5
BA17
330
B935
100
AcDbEntity
  8
1
  6
Continuous
100
AcDbLine
 10
60.238973
 20
363.7279369999998
 30
0.0
 11
60.238973
 21
364.1279369999999
 31
0.0
  0
LINE
  5
BA18
330
B935
100
AcDbEntity
  8
1
  6
Continuous
100
AcDbLine
 10
61.738973
 20
365.627937
 30
0.0
 11
60.238973
 21
364.1279369999999
 31
0.0
  0
LINE
  5
BA19
330
B935
100
AcDbEntity
  8
1
  6
Continuous
100
AcDbLine
 10
61.738973
 20
365.627937
 30
0.0
 11
70.738973
 21
365.627937
 31
0.0
  0
LINE
  5
BA1A
330
B935
100
AcDbEntity
  8
2
  6
Continuous
100
AcDbLine
 10
61.18593399999999
 20
363.7279369999998
 30
0.0
 11
61.18593399999999
 21
365.074898
 31
0.0
  0
LINE
  5
BA1B
330
B935
100
AcDbEntity
  8
2
  6
Continuous
100
AcDbLine
 10
71.291934
 20
363.7279369999998
 30
0.0
 11
71.291934
 21
365.074976
 31
0.0
  0
ARC
  5
BA1C
330
B935
100
AcDbEntity
  8
1
  6
Continuous
100
AcDbCircle
 10
57.73893399999999
 20
359.527937
 30
0.0
 40
1.0
100
AcDbArc
 50
90.0
 51
180.0
  0
LINE
  5
BA1D
330
B935
100
AcDbEntity
  8
1
  6
Continuous
100
AcDbLine
 10
75.738934
 20
317.1279369999999
 30
0.0
 11
75.738934
 21
359.527937
 31
0.0
  0
ARC
  5
BA1E
330
B935
100
AcDbEntity
  8
1
  6
Continuous
100
AcDbCircle
 10
74.238934
 20
317.1279369999999
 30
0.0
 40
1.5
100
AcDbArc
 50
270.0
 51
0.0
  0
LINE
  5
BA1F
330
B935
100
AcDbEntity
  8
1
  6
Continuous
100
AcDbLine
 10
72.238973
 20
364.1279369999999
 30
0.0
 11
72.238973
 21
363.7279369999998
 31
0.0
  0
ARC
  5
BA20
330
B935
100
AcDbEntity
  8
1
  6
Continuous
100
AcDbCircle
 10
74.738934
 20
359.527937
 30
0.0
 40
1.0
100
AcDbArc
 50
0.0
 51
90.0
  0
LINE
  5
BA21
330
B935
100
AcDbEntity
  8
1
  6
Continuous
100
AcDbLine
 10
57.888934
 20
360.527937
 30
0.0
 11
57.888934
 21
363.7279369999998
 31
0.0
  0
LINE
  5
BA22
330
B935
100
AcDbEntity
  8
1
  6
Continuous
100
AcDbLine
 10
74.58893399999998
 20
360.527937
 30
0.0
 11
74.58893399999998
 21
363.7279369999998
 31
0.0
  0
LINE
  5
BA23
330
B935
100
AcDbEntity
  8
1
  6
Continuous
100
AcDbLine
 10
52.238934
 20
315.627937
 30
0.0
 11
52.238934
 21
312.1279589999998
 31
0.0
  0
LINE
  5
BA24
330
B935
100
AcDbEntity
  8
1
  6
Continuous
100
AcDbLine
 10
80.238934
 20
315.627937
 30
0.0
 11
80.238934
 21
312.1279589999998
 31
0.0
  0
LINE
  5
BA25
330
B935
100
AcDbEntity
  8
1
  6
Continuous
100
AcDbLine
 10
351.233719
 20
315.6279229999999
 30
0.0
 11
351.233719
 21
312.127945
 31
0.0
  0
LINE
  5
BA26
330
B935
100
AcDbEntity
  8
1
  6
Continuous
100
AcDbLine
 10
66.238934
 20
315.627937
 30
0.0
 11
66.238934
 21
312.1279589999998
 31
0.0
  0
ARC
  5
BA27
330
B935
100
AcDbEntity
  8
1
  6
Continuous
100
AcDbCircle
 10
266.2363389999998
 20
308.127945
 30
0.0
 40
4.0
100
AcDbArc
 50
0.0
 51
90.0
  0
ARC
  5
BA28
330
B935
100
AcDbEntity
  8
1
  6
Continuous
100
AcDbCircle
 10
224.2363389999999
 20
308.127945
 30
0.0
 40
4.0
100
AcDbArc
 50
90.0
 51
180.0
  0
LINE
  5
BA29
330
B935
100
AcDbEntity
  8
1
  6
Continuous
100
AcDbLine
 10
250.662937
 20
304.312739
 30
0.0
 11
248.662937
 21
306.8337389999999
 31
0.0
  0
LINE
  5
BA2A
330
B935
100
AcDbEntity
  8
1
  6
Continuous
100
AcDbLine
 10
249.370044
 20
304.312739
 30
0.0
 11
251.370044
 21
306.8337389999999
 31
0.0
  0
LINE
  5
BA2B
330
B935
100
AcDbEntity
  8
1
  6
Continuous
100
AcDbLine
 10
218.5502389999999
 20
306.8337389999999
 30
0.0
 11
271.9224389999999
 21
306.8337389999999
 31
0.0
  0
LINE
  5
BA2C
330
B935
100
AcDbEntity
  8
1
  6
Continuous
100
AcDbLine
 10
271.9224389999999
 20
308.127945
 30
0.0
 11
218.5502389999999
 21
308.127945
 31
0.0
  0
LINE
  5
BA2D
330
B935
100
AcDbEntity
  8
1
  6
Continuous
100
AcDbLine
 10
230.2781609999999
 20
304.312739
 30
0.0
 11
232.2781609999999
 21
306.8337389999999
 31
0.0
  0
LINE
  5
BA2E
330
B935
100
AcDbEntity
  8
1
  6
Continuous
100
AcDbLine
 10
228.1568409999999
 20
304.312739
 30
0.0
 11
230.1568409999999
 21
306.8337389999999
 31
0.0
  0
LINE
  5
BA2F
330
B935
100
AcDbEntity
  8
1
  6
Continuous
100
AcDbLine
 10
230.863947
 20
304.312739
 30
0.0
 11
228.863947
 21
306.8337389999999
 31
0.0
  0
LINE
  5
BA30
330
B935
100
AcDbEntity
  8
1
  6
Continuous
100
AcDbLine
 10
223.9142
 20
304.312739
 30
0.0
 11
225.9142
 21
306.8337389999999
 31
0.0
  0
LINE
  5
BA31
330
B935
100
AcDbEntity
  8
1
  6
Continuous
100
AcDbLine
 10
225.2070929999999
 20
304.312739
 30
0.0
 11
223.2070929999999
 21
306.8337389999999
 31
0.0
  0
LINE
  5
BA32
330
B935
100
AcDbEntity
  8
1
  6
Continuous
100
AcDbLine
 10
219.550239
 20
306.8337389999999
 30
0.0
 11
218.5502389999999
 21
305.312739
 31
0.0
  0
LINE
  5
BA33
330
B935
100
AcDbEntity
  8
1
  6
Continuous
100
AcDbLine
 10
219.6715589999998
 20
304.312739
 30
0.0
 11
221.6715589999998
 21
306.8337389999999
 31
0.0
  0
LINE
  5
BA34
330
B935
100
AcDbEntity
  8
1
  6
Continuous
100
AcDbLine
 10
219.550239
 20
304.312739
 30
0.0
 11
218.5502389999999
 21
305.312739
 31
0.0
  0
LINE
  5
BA35
330
B935
100
AcDbEntity
  8
1
  6
Continuous
100
AcDbLine
 10
221.7928799999999
 20
304.312739
 30
0.0
 11
223.7928799999999
 21
306.8337389999999
 31
0.0
  0
LINE
  5
BA36
330
B935
100
AcDbEntity
  8
1
  6
Continuous
100
AcDbLine
 10
222.378666
 20
304.312739
 30
0.0
 11
220.378666
 21
306.8337389999999
 31
0.0
  0
LINE
  5
BA37
330
B935
100
AcDbEntity
  8
1
  6
Continuous
100
AcDbLine
 10
226.0355199999999
 20
304.312739
 30
0.0
 11
228.0355199999999
 21
306.8337389999999
 31
0.0
  0
LINE
  5
BA38
330
B935
100
AcDbEntity
  8
1
  6
Continuous
100
AcDbLine
 10
228.0355199999999
 20
304.312739
 30
0.0
 11
226.0355199999999
 21
306.8337389999999
 31
0.0
  0
LINE
  5
BA39
330
B935
100
AcDbEntity
  8
1
  6
Continuous
100
AcDbLine
 10
218.5502389999999
 20
304.312739
 30
0.0
 11
218.5502389999999
 21
308.127945
 31
0.0
  0
LINE
  5
BA3A
330
B935
100
AcDbEntity
  8
1
  6
Continuous
100
AcDbLine
 10
240.8847629999999
 20
304.312739
 30
0.0
 11
242.8847629999999
 21
306.8337389999999
 31
0.0
  0
LINE
  5
BA3B
330
B935
100
AcDbEntity
  8
1
  6
Continuous
100
AcDbLine
 10
243.0060829999999
 20
304.312739
 30
0.0
 11
245.0060829999999
 21
306.8337389999999
 31
0.0
  0
LINE
  5
BA3C
330
B935
100
AcDbEntity
  8
1
  6
Continuous
100
AcDbLine
 10
242.177656
 20
304.312739
 30
0.0
 11
240.177656
 21
306.8337389999999
 31
0.0
  0
LINE
  5
BA3D
330
B935
100
AcDbEntity
  8
1
  6
Continuous
100
AcDbLine
 10
245.0060829999999
 20
304.312739
 30
0.0
 11
243.0060829999999
 21
306.8337389999999
 31
0.0
  0
LINE
  5
BA3E
330
B935
100
AcDbEntity
  8
1
  6
Continuous
100
AcDbLine
 10
245.1274029999999
 20
304.312739
 30
0.0
 11
247.127403
 21
306.8337389999999
 31
0.0
  0
LINE
  5
BA3F
330
B935
100
AcDbEntity
  8
1
  6
Continuous
100
AcDbLine
 10
234.520802
 20
304.312739
 30
0.0
 11
236.520802
 21
306.8337389999999
 31
0.0
  0
LINE
  5
BA40
330
B935
100
AcDbEntity
  8
1
  6
Continuous
100
AcDbLine
 10
236.642122
 20
304.312739
 30
0.0
 11
238.642122
 21
306.8337389999999
 31
0.0
  0
LINE
  5
BA41
330
B935
100
AcDbEntity
  8
1
  6
Continuous
100
AcDbLine
 10
236.520802
 20
304.312739
 30
0.0
 11
234.520802
 21
306.8337389999999
 31
0.0
  0
LINE
  5
BA42
330
B935
100
AcDbEntity
  8
1
  6
Continuous
100
AcDbLine
 10
239.349229
 20
304.312739
 30
0.0
 11
237.349229
 21
306.8337389999999
 31
0.0
  0
LINE
  5
BA43
330
B935
100
AcDbEntity
  8
1
  6
Continuous
100
AcDbLine
 10
233.6923749999999
 20
304.312739
 30
0.0
 11
231.6923749999999
 21
306.8337389999999
 31
0.0
  0
LINE
  5
BA44
330
B935
100
AcDbEntity
  8
1
  6
Continuous
100
AcDbLine
 10
232.399481
 20
304.312739
 30
0.0
 11
234.399481
 21
306.8337389999999
 31
0.0
  0
LINE
  5
BA45
330
B935
100
AcDbEntity
  8
1
  6
Continuous
100
AcDbLine
 10
238.7634419999999
 20
304.312739
 30
0.0
 11
240.7634419999999
 21
306.8337389999999
 31
0.0
  0
LINE
  5
BA46
330
B935
100
AcDbEntity
  8
1
  6
Continuous
100
AcDbLine
 10
247.2487239999999
 20
304.312739
 30
0.0
 11
249.2487239999999
 21
306.8337389999999
 31
0.0
  0
LINE
  5
BA47
330
B935
100
AcDbEntity
  8
1
  6
Continuous
100
AcDbLine
 10
247.8345099999999
 20
304.312739
 30
0.0
 11
245.8345099999999
 21
306.8337389999999
 31
0.0
  0
LINE
  5
BA48
330
B935
100
AcDbEntity
  8
1
  6
Continuous
100
AcDbLine
 10
268.461927
 20
304.312739
 30
0.0
 11
270.461927
 21
306.8337389999999
 31
0.0
  0
LINE
  5
BA49
330
B935
100
AcDbEntity
  8
1
  6
Continuous
100
AcDbLine
 10
270.461927
 20
304.312739
 30
0.0
 11
268.461927
 21
306.8337389999999
 31
0.0
  0
LINE
  5
BA4A
330
B935
100
AcDbEntity
  8
1
  6
Continuous
100
AcDbLine
 10
264.219286
 20
304.312739
 30
0.0
 11
266.219286
 21
306.8337389999999
 31
0.0
  0
LINE
  5
BA4B
330
B935
100
AcDbEntity
  8
1
  6
Continuous
100
AcDbLine
 10
264.805073
 20
304.312739
 30
0.0
 11
262.805073
 21
306.8337389999999
 31
0.0
  0
LINE
  5
BA4C
330
B935
100
AcDbEntity
  8
1
  6
Continuous
100
AcDbLine
 10
257.855325
 20
304.312739
 30
0.0
 11
259.855325
 21
306.8337389999999
 31
0.0
  0
LINE
  5
BA4D
330
B935
100
AcDbEntity
  8
1
  6
Continuous
100
AcDbLine
 10
259.976646
 20
304.312739
 30
0.0
 11
261.976646
 21
306.8337389999999
 31
0.0
  0
LINE
  5
BA4E
330
B935
100
AcDbEntity
  8
1
  6
Continuous
100
AcDbLine
 10
259.1482189999999
 20
304.312739
 30
0.0
 11
257.1482189999999
 21
306.8337389999999
 31
0.0
  0
LINE
  5
BA4F
330
B935
100
AcDbEntity
  8
1
  6
Continuous
100
AcDbLine
 10
261.976646
 20
304.312739
 30
0.0
 11
259.976646
 21
306.8337389999999
 31
0.0
  0
LINE
  5
BA50
330
B935
100
AcDbEntity
  8
1
  6
Continuous
100
AcDbLine
 10
251.491364
 20
304.312739
 30
0.0
 11
253.491364
 21
306.8337389999999
 31
0.0
  0
LINE
  5
BA51
330
B935
100
AcDbEntity
  8
1
  6
Continuous
100
AcDbLine
 10
253.612685
 20
304.312739
 30
0.0
 11
255.612685
 21
306.8337389999999
 31
0.0
  0
LINE
  5
BA52
330
B935
100
AcDbEntity
  8
1
  6
Continuous
100
AcDbLine
 10
253.491364
 20
304.312739
 30
0.0
 11
251.491364
 21
306.8337389999999
 31
0.0
  0
LINE
  5
BA53
330
B935
100
AcDbEntity
  8
1
  6
Continuous
100
AcDbLine
 10
256.3197919999999
 20
304.312739
 30
0.0
 11
254.319792
 21
306.8337389999999
 31
0.0
  0
LINE
  5
BA54
330
B935
100
AcDbEntity
  8
1
  6
Continuous
100
AcDbLine
 10
255.7340049999999
 20
304.312739
 30
0.0
 11
257.7340049999999
 21
306.8337389999999
 31
0.0
  0
LINE
  5
BA55
330
B935
100
AcDbEntity
  8
1
  6
Continuous
100
AcDbLine
 10
262.0979659999999
 20
304.312739
 30
0.0
 11
264.0979659999999
 21
306.8337389999999
 31
0.0
  0
LINE
  5
BA56
330
B935
100
AcDbEntity
  8
1
  6
Continuous
100
AcDbLine
 10
266.3406069999999
 20
304.312739
 30
0.0
 11
268.3406069999999
 21
306.8337389999999
 31
0.0
  0
LINE
  5
BA57
330
B935
100
AcDbEntity
  8
1
  6
Continuous
100
AcDbLine
 10
267.6335
 20
304.312739
 30
0.0
 11
265.6335
 21
306.8337389999999
 31
0.0
  0
ARC
  5
BA58
330
B935
100
AcDbEntity
  8
1
  6
Continuous
100
AcDbCircle
 10
270.819702
 20
301.4735769999999
 30
0.0
 40
2.839261999999998
100
AcDbArc
 50
86.26253100000004
 51
90.48175099999999
  0
LINE
  5
BA59
330
B935
100
AcDbEntity
  8
1
  6
Continuous
100
AcDbLine
 10
270.583248
 20
304.312739
 30
0.0
 11
271.9224389999999
 21
306.17293
 31
0.0
  0
LINE
  5
BA5A
330
B935
100
AcDbEntity
  8
1
  6
Continuous
100
AcDbLine
 10
271.9224389999999
 20
306.201654
 30
0.0
 11
271.2903539999999
 21
306.8337389999999
 31
0.0
  0
LINE
  5
BA5B
330
B935
100
AcDbEntity
  8
1
  6
Continuous
100
AcDbLine
 10
271.9224389999999
 20
308.127945
 30
0.0
 11
271.9224389999999
 21
304.312739
 31
0.0
  0
LINE
  5
BA5C
330
B935
100
AcDbEntity
  8
1
  6
Continuous
100
AcDbLine
 10
251.2363779999998
 20
364.127923
 30
0.0
 11
249.7363779999998
 21
365.6279229999999
 31
0.0
  0
LINE
  5
BA5D
330
B935
100
AcDbEntity
  8
1
  6
Continuous
100
AcDbLine
 10
235.986339
 20
363.7279229999998
 30
0.0
 11
254.4863389999999
 21
363.7279229999998
 31
0.0
  0
LINE
  5
BA5E
330
B935
100
AcDbEntity
  8
1
  6
Continuous
100
AcDbLine
 10
239.2363779999998
 20
364.127923
 30
0.0
 11
251.2363779999998
 21
364.127923
 31
0.0
  0
LINE
  5
BA5F
330
B935
100
AcDbEntity
  8
1
  6
Continuous
100
AcDbLine
 10
235.986339
 20
360.5279229999999
 30
0.0
 11
254.4863389999999
 21
360.5279229999999
 31
0.0
  0
LINE
  5
BA60
330
B935
100
AcDbEntity
  8
1
  6
Continuous
100
AcDbLine
 10
235.7363389999999
 20
319.527923
 30
0.0
 11
254.736339
 21
319.527923
 31
0.0
  0
LINE
  5
BA61
330
B935
100
AcDbEntity
  8
1
  6
Continuous
100
AcDbLine
 10
224.2363389999999
 20
312.127945
 30
0.0
 11
266.2363389999998
 21
312.127945
 31
0.0
  0
LINE
  5
BA62
330
B935
100
AcDbEntity
  8
1
  6
Continuous
100
AcDbLine
 10
261.402123
 20
315.6279229999999
 30
0.0
 11
229.070507
 21
315.6279229999999
 31
0.0
  0
LINE
  5
BA63
330
B935
100
AcDbEntity
  8
1
  6
Continuous
100
AcDbLine
 10
235.7363389999999
 20
317.127923
 30
0.0
 11
235.7363389999999
 21
359.527923
 31
0.0
  0
LINE
  5
BA64
330
B935
100
AcDbEntity
  8
1
  6
Continuous
100
AcDbLine
 10
229.070507
 20
312.127945
 30
0.0
 11
229.070507
 21
315.6279229999999
 31
0.0
  0
LINE
  5
BA65
330
B935
100
AcDbEntity
  8
1
  6
Continuous
100
AcDbLine
 10
237.1534109999998
 20
312.127945
 30
0.0
 11
237.1534109999998
 21
315.6279229999999
 31
0.0
  0
ARC
  5
BA66
330
B935
100
AcDbEntity
  8
1
  6
Continuous
100
AcDbCircle
 10
237.2363389999999
 20
317.127923
 30
0.0
 40
1.5
100
AcDbArc
 50
180.0
 51
270.0
  0
LINE
  5
BA67
330
B935
100
AcDbEntity
  8
1
  6
Continuous
100
AcDbLine
 10
249.2162889999999
 20
363.7279229999998
 30
0.0
 11
249.2162889999999
 21
360.5279229999999
 31
0.0
  0
LINE
  5
BA68
330
B935
100
AcDbEntity
  8
1
  6
Continuous
100
AcDbLine
 10
241.256389
 20
363.7279229999998
 30
0.0
 11
241.256389
 21
360.5279229999999
 31
0.0
  0
LINE
  5
BA69
330
B935
100
AcDbEntity
  8
1
  6
Continuous
100
AcDbLine
 10
239.2363779999998
 20
363.7279229999998
 30
0.0
 11
239.2363779999998
 21
364.127923
 31
0.0
  0
LINE
  5
BA6A
330
B935
100
AcDbEntity
  8
1
  6
Continuous
100
AcDbLine
 10
235.986339
 20
363.7279229999998
 30
0.0
 11
235.986339
 21
360.5279229999999
 31
0.0
  0
LINE
  5
BA6B
330
B935
100
AcDbEntity
  8
1
  6
Continuous
100
AcDbLine
 10
240.7363779999998
 20
365.6279229999999
 30
0.0
 11
239.2363779999998
 21
364.127923
 31
0.0
  0
LINE
  5
BA6C
330
B935
100
AcDbEntity
  8
1
  6
Continuous
100
AcDbLine
 10
240.7363779999998
 20
365.6279229999999
 30
0.0
 11
249.7363779999998
 21
365.6279229999999
 31
0.0
  0
LINE
  5
BA6D
330
B935
100
AcDbEntity
  8
2
  6
Continuous
100
AcDbLine
 10
240.1833389999999
 20
363.7279229999998
 30
0.0
 11
240.1833389999999
 21
365.0748839999998
 31
0.0
  0
LINE
  5
BA6E
330
B935
100
AcDbEntity
  8
2
  6
Continuous
100
AcDbLine
 10
250.289339
 20
363.7279229999998
 30
0.0
 11
250.289339
 21
365.074962
 31
0.0
  0
ARC
  5
BA6F
330
B935
100
AcDbEntity
  8
1
  6
Continuous
100
AcDbCircle
 10
236.7363389999999
 20
359.527923
 30
0.0
 40
1.0
100
AcDbArc
 50
90.0
 51
180.0
  0
LINE
  5
BA70
330
B935
100
AcDbEntity
  8
1
  6
Continuous
100
AcDbLine
 10
254.736339
 20
317.127923
 30
0.0
 11
254.736339
 21
359.527923
 31
0.0
  0
LINE
  5
BA71
330
B935
100
AcDbEntity
  8
1
  6
Continuous
100
AcDbLine
 10
261.402123
 20
312.127945
 30
0.0
 11
261.402123
 21
315.6279229999999
 31
0.0
  0
LINE
  5
BA72
330
B935
100
AcDbEntity
  8
1
  6
Continuous
100
AcDbLine
 10
253.319219
 20
312.127945
 30
0.0
 11
253.319219
 21
315.6279229999999
 31
0.0
  0
ARC
  5
BA73
330
B935
100
AcDbEntity
  8
1
  6
Continuous
100
AcDbCircle
 10
253.2363389999999
 20
317.127923
 30
0.0
 40
1.5
100
AcDbArc
 50
270.0
 51
0.0
  0
LINE
  5
BA74
330
B935
100
AcDbEntity
  8
1
  6
Continuous
100
AcDbLine
 10
251.2363779999998
 20
364.127923
 30
0.0
 11
251.2363779999998
 21
363.7279229999998
 31
0.0
  0
LINE
  5
BA75
330
B935
100
AcDbEntity
  8
1
  6
Continuous
100
AcDbLine
 10
254.4863389999999
 20
363.7279229999998
 30
0.0
 11
254.4863389999999
 21
360.5279229999999
 31
0.0
  0
ARC
  5
BA76
330
B935
100
AcDbEntity
  8
1
  6
Continuous
100
AcDbCircle
 10
253.7363389999999
 20
359.527923
 30
0.0
 40
1.0
100
AcDbArc
 50
0.0
 51
90.0
  0
ARC
  5
BA77
330
B935
100
AcDbEntity
  8
1
  6
Continuous
100
AcDbCircle
 10
372.233743
 20
308.127945
 30
0.0
 40
4.0
100
AcDbArc
 50
0.0
 51
90.0
  0
ARC
  5
BA78
330
B935
100
AcDbEntity
  8
1
  6
Continuous
100
AcDbCircle
 10
330.233743
 20
308.127945
 30
0.0
 40
4.0
100
AcDbArc
 50
90.0
 51
180.0
  0
LINE
  5
BA79
330
B935
100
AcDbEntity
  8
1
  6
Continuous
100
AcDbLine
 10
356.660341
 20
304.462739
 30
0.0
 11
354.660341
 21
306.8337389999999
 31
0.0
  0
LINE
  5
BA7A
330
B935
100
AcDbEntity
  8
1
  6
Continuous
100
AcDbLine
 10
355.367448
 20
304.462739
 30
0.0
 11
357.367448
 21
306.8337389999999
 31
0.0
  0
LINE
  5
BA7B
330
B935
100
AcDbEntity
  8
1
  6
Continuous
100
AcDbLine
 10
324.547643
 20
306.8337389999999
 30
0.0
 11
377.919843
 21
306.8337389999999
 31
0.0
  0
LINE
  5
BA7C
330
B935
100
AcDbEntity
  8
1
  6
Continuous
100
AcDbLine
 10
377.919843
 20
308.127945
 30
0.0
 11
324.547643
 21
308.127945
 31
0.0
  0
LINE
  5
BA7D
330
B935
100
AcDbEntity
  8
1
  6
Continuous
100
AcDbLine
 10
336.2755649999999
 20
304.462739
 30
0.0
 11
338.275565
 21
306.8337389999999
 31
0.0
  0
LINE
  5
BA7E
330
B935
100
AcDbEntity
  8
1
  6
Continuous
100
AcDbLine
 10
334.1542449999999
 20
304.462739
 30
0.0
 11
336.1542449999999
 21
306.8337389999999
 31
0.0
  0
LINE
  5
BA7F
330
B935
100
AcDbEntity
  8
1
  6
Continuous
100
AcDbLine
 10
336.8613509999998
 20
304.462739
 30
0.0
 11
334.8613509999998
 21
306.8337389999999
 31
0.0
  0
LINE
  5
BA80
330
B935
100
AcDbEntity
  8
1
  6
Continuous
100
AcDbLine
 10
329.911604
 20
304.462739
 30
0.0
 11
331.911604
 21
306.8337389999999
 31
0.0
  0
LINE
  5
BA81
330
B935
100
AcDbEntity
  8
1
  6
Continuous
100
AcDbLine
 10
331.204497
 20
304.462739
 30
0.0
 11
329.204497
 21
306.8337389999999
 31
0.0
  0
LINE
  5
BA82
330
B935
100
AcDbEntity
  8
1
  6
Continuous
100
AcDbLine
 10
325.5476429999998
 20
306.8337389999999
 30
0.0
 11
324.547643
 21
305.462739
 31
0.0
  0
LINE
  5
BA83
330
B935
100
AcDbEntity
  8
1
  6
Continuous
100
AcDbLine
 10
325.6689629999999
 20
304.462739
 30
0.0
 11
327.6689629999999
 21
306.8337389999999
 31
0.0
  0
LINE
  5
BA84
330
B935
100
AcDbEntity
  8
1
  6
Continuous
100
AcDbLine
 10
325.5476429999998
 20
304.462739
 30
0.0
 11
324.547643
 21
305.462739
 31
0.0
  0
LINE
  5
BA85
330
B935
100
AcDbEntity
  8
1
  6
Continuous
100
AcDbLine
 10
327.7902839999998
 20
304.462739
 30
0.0
 11
329.7902839999999
 21
306.8337389999999
 31
0.0
  0
LINE
  5
BA86
330
B935
100
AcDbEntity
  8
1
  6
Continuous
100
AcDbLine
 10
328.3760700000001
 20
304.462739
 30
0.0
 11
326.3760700000001
 21
306.8337389999999
 31
0.0
  0
LINE
  5
BA87
330
B935
100
AcDbEntity
  8
1
  6
Continuous
100
AcDbLine
 10
332.0329239999999
 20
304.462739
 30
0.0
 11
334.0329239999999
 21
306.8337389999999
 31
0.0
  0
LINE
  5
BA88
330
B935
100
AcDbEntity
  8
1
  6
Continuous
100
AcDbLine
 10
334.0329239999999
 20
304.462739
 30
0.0
 11
332.0329239999999
 21
306.8337389999999
 31
0.0
  0
LINE
  5
BA89
330
B935
100
AcDbEntity
  8
1
  6
Continuous
100
AcDbLine
 10
324.547643
 20
304.462739
 30
0.0
 11
324.547643
 21
308.127945
 31
0.0
  0
LINE
  5
BA8A
330
B935
100
AcDbEntity
  8
1
  6
Continuous
100
AcDbLine
 10
346.882167
 20
304.462739
 30
0.0
 11
348.882167
 21
306.8337389999999
 31
0.0
  0
LINE
  5
BA8B
330
B935
100
AcDbEntity
  8
1
  6
Continuous
100
AcDbLine
 10
349.003487
 20
304.462739
 30
0.0
 11
351.003487
 21
306.8337389999999
 31
0.0
  0
LINE
  5
BA8C
330
B935
100
AcDbEntity
  8
1
  6
Continuous
100
AcDbLine
 10
348.1750599999998
 20
304.462739
 30
0.0
 11
346.1750599999998
 21
306.8337389999999
 31
0.0
  0
LINE
  5
BA8D
330
B935
100
AcDbEntity
  8
1
  6
Continuous
100
AcDbLine
 10
351.003487
 20
304.462739
 30
0.0
 11
349.003487
 21
306.8337389999999
 31
0.0
  0
LINE
  5
BA8E
330
B935
100
AcDbEntity
  8
1
  6
Continuous
100
AcDbLine
 10
351.1248069999999
 20
304.462739
 30
0.0
 11
353.1248069999999
 21
306.8337389999999
 31
0.0
  0
LINE
  5
BA8F
330
B935
100
AcDbEntity
  8
1
  6
Continuous
100
AcDbLine
 10
340.518206
 20
304.462739
 30
0.0
 11
342.518206
 21
306.8337389999999
 31
0.0
  0
LINE
  5
BA90
330
B935
100
AcDbEntity
  8
1
  6
Continuous
100
AcDbLine
 10
342.639526
 20
304.462739
 30
0.0
 11
344.639526
 21
306.8337389999999
 31
0.0
  0
LINE
  5
BA91
330
B935
100
AcDbEntity
  8
1
  6
Continuous
100
AcDbLine
 10
342.518206
 20
304.462739
 30
0.0
 11
340.518206
 21
306.8337389999999
 31
0.0
  0
LINE
  5
BA92
330
B935
100
AcDbEntity
  8
1
  6
Continuous
100
AcDbLine
 10
345.3466329999998
 20
304.462739
 30
0.0
 11
343.3466329999999
 21
306.8337389999999
 31
0.0
  0
LINE
  5
BA93
330
B935
100
AcDbEntity
  8
1
  6
Continuous
100
AcDbLine
 10
339.689779
 20
304.462739
 30
0.0
 11
337.689779
 21
306.8337389999999
 31
0.0
  0
LINE
  5
BA94
330
B935
100
AcDbEntity
  8
1
  6
Continuous
100
AcDbLine
 10
338.396885
 20
304.462739
 30
0.0
 11
340.396885
 21
306.8337389999999
 31
0.0
  0
LINE
  5
BA95
330
B935
100
AcDbEntity
  8
1
  6
Continuous
100
AcDbLine
 10
344.760846
 20
304.462739
 30
0.0
 11
346.760846
 21
306.8337389999999
 31
0.0
  0
LINE
  5
BA96
330
B935
100
AcDbEntity
  8
1
  6
Continuous
100
AcDbLine
 10
353.246128
 20
304.462739
 30
0.0
 11
355.246128
 21
306.8337389999999
 31
0.0
  0
LINE
  5
BA97
330
B935
100
AcDbEntity
  8
1
  6
Continuous
100
AcDbLine
 10
353.831914
 20
304.462739
 30
0.0
 11
351.831914
 21
306.8337389999999
 31
0.0
  0
LINE
  5
BA98
330
B935
100
AcDbEntity
  8
1
  6
Continuous
100
AcDbLine
 10
374.459331
 20
304.462739
 30
0.0
 11
376.459331
 21
306.8337389999999
 31
0.0
  0
LINE
  5
BA99
330
B935
100
AcDbEntity
  8
1
  6
Continuous
100
AcDbLine
 10
376.459331
 20
304.462739
 30
0.0
 11
374.459331
 21
306.8337389999999
 31
0.0
  0
LINE
  5
BA9A
330
B935
100
AcDbEntity
  8
1
  6
Continuous
100
AcDbLine
 10
370.2166899999999
 20
304.462739
 30
0.0
 11
372.2166899999999
 21
306.8337389999999
 31
0.0
  0
LINE
  5
BA9B
330
B935
100
AcDbEntity
  8
1
  6
Continuous
100
AcDbLine
 10
370.802477
 20
304.462739
 30
0.0
 11
368.802477
 21
306.8337389999999
 31
0.0
  0
LINE
  5
BA9C
330
B935
100
AcDbEntity
  8
1
  6
Continuous
100
AcDbLine
 10
363.852729
 20
304.462739
 30
0.0
 11
365.852729
 21
306.8337389999999
 31
0.0
  0
LINE
  5
BA9D
330
B935
100
AcDbEntity
  8
1
  6
Continuous
100
AcDbLine
 10
365.9740499999998
 20
304.462739
 30
0.0
 11
367.9740499999998
 21
306.8337389999999
 31
0.0
  0
LINE
  5
BA9E
330
B935
100
AcDbEntity
  8
1
  6
Continuous
100
AcDbLine
 10
365.1456229999998
 20
304.462739
 30
0.0
 11
363.1456229999998
 21
306.8337389999999
 31
0.0
  0
LINE
  5
BA9F
330
B935
100
AcDbEntity
  8
1
  6
Continuous
100
AcDbLine
 10
367.9740499999998
 20
304.462739
 30
0.0
 11
365.9740499999998
 21
306.8337389999999
 31
0.0
  0
LINE
  5
BAA0
330
B935
100
AcDbEntity
  8
1
  6
Continuous
100
AcDbLine
 10
357.4887679999998
 20
304.462739
 30
0.0
 11
359.4887679999998
 21
306.8337389999999
 31
0.0
  0
LINE
  5
BAA1
330
B935
100
AcDbEntity
  8
1
  6
Continuous
100
AcDbLine
 10
359.610089
 20
304.462739
 30
0.0
 11
361.610089
 21
306.8337389999999
 31
0.0
  0
LINE
  5
BAA2
330
B935
100
AcDbEntity
  8
1
  6
Continuous
100
AcDbLine
 10
359.4887679999998
 20
304.462739
 30
0.0
 11
357.4887679999998
 21
306.8337389999999
 31
0.0
  0
LINE
  5
BAA3
330
B935
100
AcDbEntity
  8
1
  6
Continuous
100
AcDbLine
 10
362.317196
 20
304.462739
 30
0.0
 11
360.317196
 21
306.8337389999999
 31
0.0
  0
LINE
  5
BAA4
330
B935
100
AcDbEntity
  8
1
  6
Continuous
100
AcDbLine
 10
361.7314089999999
 20
304.462739
 30
0.0
 11
363.7314089999999
 21
306.8337389999999
 31
0.0
  0
LINE
  5
BAA5
330
B935
100
AcDbEntity
  8
1
  6
Continuous
100
AcDbLine
 10
368.0953699999998
 20
304.462739
 30
0.0
 11
370.0953699999999
 21
306.8337389999999
 31
0.0
  0
LINE
  5
BAA6
330
B935
100
AcDbEntity
  8
1
  6
Continuous
100
AcDbLine
 10
372.3380109999998
 20
304.462739
 30
0.0
 11
374.3380109999998
 21
306.8337389999999
 31
0.0
  0
LINE
  5
BAA7
330
B935
100
AcDbEntity
  8
1
  6
Continuous
100
AcDbLine
 10
373.630904
 20
304.462739
 30
0.0
 11
371.630904
 21
306.8337389999999
 31
0.0
  0
ARC
  5
BAA8
330
B935
100
AcDbEntity
  8
1
  6
Continuous
100
AcDbCircle
 10
376.817106
 20
301.623577
 30
0.0
 40
2.839261999999998
100
AcDbArc
 50
86.26253100000004
 51
90.48175099999999
  0
LINE
  5
BAA9
330
B935
100
AcDbEntity
  8
1
  6
Continuous
100
AcDbLine
 10
376.5806519999999
 20
304.462739
 30
0.0
 11
377.919843
 21
305.8019299999999
 31
0.0
  0
LINE
  5
BAAA
330
B935
100
AcDbEntity
  8
1
  6
Continuous
100
AcDbLine
 10
377.919843
 20
305.8306539999999
 30
0.0
 11
377.2877579999998
 21
306.8337389999999
 31
0.0
  0
LINE
  5
BAAB
330
B935
100
AcDbEntity
  8
1
  6
Continuous
100
AcDbLine
 10
377.919843
 20
308.127945
 30
0.0
 11
377.919843
 21
304.462739
 31
0.0
  0
LINE
  5
BAAC
330
B935
100
AcDbEntity
  8
1
  6
Continuous
100
AcDbLine
 10
357.2337819999999
 20
364.127923
 30
0.0
 11
355.7337819999998
 21
365.6279229999999
 31
0.0
  0
LINE
  5
BAAD
330
B935
100
AcDbEntity
  8
1
  6
Continuous
100
AcDbLine
 10
342.8837429999999
 20
363.7279229999998
 30
0.0
 11
359.583743
 21
363.7279229999998
 31
0.0
  0
LINE
  5
BAAE
330
B935
100
AcDbEntity
  8
1
  6
Continuous
100
AcDbLine
 10
345.2337819999999
 20
364.127923
 30
0.0
 11
357.2337819999999
 21
364.127923
 31
0.0
  0
LINE
  5
BAAF
330
B935
100
AcDbEntity
  8
1
  6
Continuous
100
AcDbLine
 10
342.733743
 20
360.5279229999999
 30
0.0
 11
359.733743
 21
360.5279229999999
 31
0.0
  0
LINE
  5
BAB0
330
B935
100
AcDbEntity
  8
1
  6
Continuous
100
AcDbLine
 10
341.7337429999999
 20
319.527923
 30
0.0
 11
360.733743
 21
319.527923
 31
0.0
  0
LINE
  5
BAB1
330
B935
100
AcDbEntity
  8
1
  6
Continuous
100
AcDbLine
 10
330.233743
 20
312.127945
 30
0.0
 11
372.233743
 21
312.127945
 31
0.0
  0
LINE
  5
BAB2
330
B935
100
AcDbEntity
  8
1
  6
Continuous
100
AcDbLine
 10
365.233719
 20
315.6279229999999
 30
0.0
 11
337.233719
 21
315.6279229999999
 31
0.0
  0
LINE
  5
BAB3
330
B935
100
AcDbEntity
  8
1
  6
Continuous
100
AcDbLine
 10
341.7337429999999
 20
317.127923
 30
0.0
 11
341.7337429999999
 21
359.527923
 31
0.0
  0
ARC
  5
BAB4
330
B935
100
AcDbEntity
  8
1
  6
Continuous
100
AcDbCircle
 10
343.233743
 20
317.127923
 30
0.0
 40
1.5
100
AcDbArc
 50
180.0
 51
270.0
  0
LINE
  5
BAB5
330
B935
100
AcDbEntity
  8
1
  6
Continuous
100
AcDbLine
 10
345.2337819999999
 20
363.7279229999998
 30
0.0
 11
345.2337819999999
 21
364.127923
 31
0.0
  0
LINE
  5
BAB6
330
B935
100
AcDbEntity
  8
1
  6
Continuous
100
AcDbLine
 10
346.7337819999999
 20
365.6279229999999
 30
0.0
 11
345.2337819999999
 21
364.127923
 31
0.0
  0
LINE
  5
BAB7
330
B935
100
AcDbEntity
  8
1
  6
Continuous
100
AcDbLine
 10
346.7337819999999
 20
365.6279229999999
 30
0.0
 11
355.7337819999998
 21
365.6279229999999
 31
0.0
  0
LINE
  5
BAB8
330
B935
100
AcDbEntity
  8
2
  6
Continuous
100
AcDbLine
 10
346.180743
 20
363.7279229999998
 30
0.0
 11
346.180743
 21
365.0748839999998
 31
0.0
  0
LINE
  5
BAB9
330
B935
100
AcDbEntity
  8
2
  6
Continuous
100
AcDbLine
 10
356.286743
 20
363.7279229999998
 30
0.0
 11
356.286743
 21
365.074962
 31
0.0
  0
ARC
  5
BABA
330
B935
100
AcDbEntity
  8
1
  6
Continuous
100
AcDbCircle
 10
342.733743
 20
359.527923
 30
0.0
 40
1.0
100
AcDbArc
 50
90.0
 51
180.0
  0
LINE
  5
BABB
330
B935
100
AcDbEntity
  8
1
  6
Continuous
100
AcDbLine
 10
360.733743
 20
317.127923
 30
0.0
 11
360.733743
 21
359.527923
 31
0.0
  0
ARC
  5
BABC
330
B935
100
AcDbEntity
  8
1
  6
Continuous
100
AcDbCircle
 10
359.233743
 20
317.127923
 30
0.0
 40
1.5
100
AcDbArc
 50
270.0
 51
0.0
  0
LINE
  5
BABD
330
B935
100
AcDbEntity
  8
1
  6
Continuous
100
AcDbLine
 10
357.2337819999999
 20
364.127923
 30
0.0
 11
357.2337819999999
 21
363.7279229999998
 31
0.0
  0
ARC
  5
BABE
330
B935
100
AcDbEntity
  8
1
  6
Continuous
100
AcDbCircle
 10
359.733743
 20
359.527923
 30
0.0
 40
1.0
100
AcDbArc
 50
0.0
 51
90.0
  0
CIRCLE
  5
BABF
330
B935
100
AcDbEntity
  8
1
  6
Continuous
100
AcDbCircle
 10
188.0760699999999
 20
258.752351
 30
0.0
 40
3.7
  0
ARC
  5
BAC0
330
B935
100
AcDbEntity
  8
1
  6
Continuous
100
AcDbCircle
 10
245.2363389999999
 20
442.3442299999998
 30
0.0
 40
27.5
100
AcDbArc
 50
229.821137
 51
130.1788629999998
  0
LINE
  5
BAC1
330
B935
100
AcDbEntity
  8
1
  6
Continuous
100
AcDbLine
 10
196.836339
 20
460.712188
 30
0.0
 11
196.836339
 21
458.112187
 31
0.0
  0
LINE
  5
BAC2
330
B935
100
AcDbEntity
  8
1
  6
Continuous
100
AcDbLine
 10
196.836339
 20
460.712188
 30
0.0
 11
220.192179
 21
460.688759
 31
0.0
  0
LINE
  5
BAC3
330
B935
100
AcDbEntity
  8
1
  6
Continuous
100
AcDbLine
 10
196.836339
 20
458.112187
 30
0.0
 11
210.30313
 21
458.0986779999998
 31
0.0
  0
LINE
  5
BAC4
330
B935
100
AcDbEntity
  8
1
  6
Continuous
100
AcDbLine
 10
203.220552
 20
426.582679
 30
0.0
 11
210.3031249999999
 21
426.589784
 31
0.0
  0
LINE
  5
BAC5
330
B935
100
AcDbEntity
  8
1
  6
Continuous
100
AcDbLine
 10
203.220552
 20
423.9826769999998
 30
0.0
 11
220.19218
 21
423.9997019999998
 31
0.0
  0
ARC
  5
BAC6
330
B935
100
AcDbEntity
  8
1
  6
Continuous
100
AcDbCircle
 10
220.2035149999999
 20
471.988753
 30
0.0
 40
11.3
100
AcDbArc
 50
269.942524
 51
310.1788629999999
  0
ARC
  5
BAC7
330
B935
100
AcDbEntity
  8
1
  6
Continuous
100
AcDbCircle
 10
220.2035149999999
 20
412.6997079999998
 30
0.0
 40
11.3
100
AcDbArc
 50
49.821137
 51
90.05747500000003
  0
ARC
  5
BAC8
330
B935
100
AcDbEntity
  8
1
  6
Continuous
100
AcDbCircle
 10
220.2035149999999
 20
57.777846
 30
0.0
 40
11.3
100
AcDbArc
 50
49.821137
 51
90.05747500000003
  0
ARC
  5
BAC9
330
B935
100
AcDbEntity
  8
1
  6
Continuous
100
AcDbCircle
 10
220.203514
 20
57.777846
 30
0.0
 40
13.9
100
AcDbArc
 50
49.821135
 51
90.05747599999997
  0
LINE
  5
BACA
330
B935
100
AcDbEntity
  8
1
  6
Continuous
100
AcDbLine
 10
209.4338239999999
 20
429.7442299999998
 30
0.0
 11
150.419551
 21
429.7442299999998
 31
0.0
  0
LINE
  5
BACB
330
B935
100
AcDbEntity
  8
1
  6
Continuous
100
AcDbLine
 10
209.433828
 20
454.9442299999998
 30
0.0
 11
150.419551
 21
454.9442299999998
 31
0.0
  0
LINE
  5
BACC
330
B935
100
AcDbEntity
  8
1
  6
Continuous
100
AcDbLine
 10
203.1646939999999
 20
427.0942299999998
 30
0.0
 11
210.150052
 21
427.0942299999998
 31
0.0
  0
LINE
  5
BACD
330
B935
100
AcDbEntity
  8
1
  6
Continuous
100
AcDbLine
 10
209.8538459999998
 20
428.1257619999998
 30
0.0
 11
202.150497
 21
428.1257619999998
 31
0.0
  0
LINE
  5
BACE
330
B935
100
AcDbEntity
  8
1
  6
Continuous
100
AcDbLine
 10
203.7363519999999
 20
426.5831959999998
 30
0.0
 11
203.7363519999999
 21
427.0942299999998
 31
0.0
  0
ARC
  5
BACF
330
B935
100
AcDbEntity
  8
1
  6
Continuous
100
AcDbCircle
 10
150.419551
 20
434.7442299999998
 30
0.0
 40
5.0
100
AcDbArc
 50
197.698012
 51
270.0
  0
ARC
  5
BAD0
330
B935
100
AcDbEntity
  8
1
  6
Continuous
100
AcDbCircle
 10
174.236352
 20
442.3442299999998
 30
0.0
 40
30.0
100
AcDbArc
 50
162.299049
 51
197.698012
  0
LINE
  5
BAD1
330
B935
100
AcDbEntity
  8
1
  6
Continuous
100
AcDbLine
 10
202.1363519999999
 20
457.59423
 30
0.0
 11
210.150056
 21
457.59423
 31
0.0
  0
LINE
  5
BAD2
330
B935
100
AcDbEntity
  8
1
  6
Continuous
100
AcDbLine
 10
209.85385
 20
456.5626969999998
 30
0.0
 11
200.7113819999999
 21
456.5626969999998
 31
0.0
  0
ARC
  5
BAD3
330
B935
100
AcDbEntity
  8
1
  6
Continuous
100
AcDbCircle
 10
201.3739109999999
 20
424.3774559999998
 30
0.0
 40
32.05362499999999
100
AcDbArc
 50
102.9384389999999
 51
107.519672
  0
ARC
  5
BAD4
330
B935
100
AcDbEntity
  8
1
  6
Continuous
100
AcDbCircle
 10
202.1363519999999
 20
456.0942299999998
 30
0.0
 40
1.5
100
AcDbArc
 50
90.0
 51
161.801408
  0
ARC
  5
BAD5
330
B935
100
AcDbEntity
  8
1
  6
Continuous
100
AcDbCircle
 10
202.214435
 20
426.945854
 30
0.0
 40
29.654958
100
AcDbArc
 50
92.90526300000001
 51
96.06973700000001
  0
LINE
  5
BAD6
330
B935
100
AcDbEntity
  8
1
  6
Continuous
100
AcDbLine
 10
203.7363519999999
 20
458.105265
 30
0.0
 11
203.7363519999999
 21
457.59423
 31
0.0
  0
ARC
  5
BAD7
330
B935
100
AcDbEntity
  8
1
  6
Continuous
100
AcDbCircle
 10
203.4471609999999
 20
415.352995
 30
0.0
 40
41.31317399999999
100
AcDbArc
 50
96.06973700000001
 51
102.9384389999999
  0
ARC
  5
BAD8
330
B935
100
AcDbEntity
  8
1
  6
Continuous
100
AcDbCircle
 10
150.419551
 20
449.94423
 30
0.0
 40
5.0
100
AcDbArc
 50
90.0
 51
162.301988
  0
ARC
  5
BAD9
330
B935
100
AcDbEntity
  8
1
  6
Continuous
100
AcDbCircle
 10
268.053153
 20
449.94423
 30
0.0
 40
5.0
100
AcDbArc
 50
17.69801199999999
 51
68.949792
  0
ARC
  5
BADA
330
B935
100
AcDbEntity
  8
1
  6
Continuous
100
AcDbCircle
 10
268.053153
 20
434.7442299999998
 30
0.0
 40
5.0
100
AcDbArc
 50
291.050208
 51
342.301988
  0
ARC
  5
BADB
330
B935
100
AcDbEntity
  8
1
  6
Continuous
100
AcDbCircle
 10
244.236352
 20
442.3442299999998
 30
0.0
 40
30.0
100
AcDbArc
 50
342.301988
 51
17.70095099999998
  0
LINE
  5
BADC
330
B935
100
AcDbEntity
  8
1
  6
Continuous
100
AcDbLine
 10
78.83893399999998
 20
170.8109519999999
 30
0.0
 11
78.83893399999998
 21
288.4445539999999
 31
0.0
  0
LINE
  5
BADD
330
B935
100
AcDbEntity
  8
1
  6
Continuous
100
AcDbLine
 10
53.638934
 20
170.8109519999999
 30
0.0
 11
53.638934
 21
288.4445539999999
 31
0.0
  0
ARC
  5
BADE
330
B935
100
AcDbEntity
  8
1
  6
Continuous
100
AcDbCircle
 10
66.238934
 20
194.627753
 30
0.0
 40
30.0
100
AcDbArc
 50
252.301988
 51
287.7009509999999
  0
ARC
  5
BADF
330
B935
100
AcDbEntity
  8
1
  6
Continuous
100
AcDbCircle
 10
58.638934
 20
170.8109519999999
 30
0.0
 40
5.0
100
AcDbArc
 50
180.0
 51
252.301988
  0
ARC
  5
BAE0
330
B935
100
AcDbEntity
  8
1
  6
Continuous
100
AcDbCircle
 10
73.83893399999998
 20
170.8109519999999
 30
0.0
 40
5.0
100
AcDbArc
 50
287.698012
 51
0.0
  0
LINE
  5
BAE1
330
B935
100
AcDbEntity
  8
1
  6
Continuous
100
AcDbLine
 10
50.988934
 20
236.7277529999999
 30
0.0
 11
50.988934
 21
222.527753
 31
0.0
  0
LINE
  5
BAE2
330
B935
100
AcDbEntity
  8
1
  6
Continuous
100
AcDbLine
 10
52.020466
 20
221.1027839999999
 30
0.0
 11
52.020466
 21
238.152722
 31
0.0
  0
LINE
  5
BAE3
330
B935
100
AcDbEntity
  8
1
  6
Continuous
100
AcDbLine
 10
50.488935
 20
224.127753
 30
0.0
 11
50.988934
 21
224.127753
 31
0.0
  0
ARC
  5
BAE4
330
B935
100
AcDbEntity
  8
1
  6
Continuous
100
AcDbCircle
 10
93.23016800000001
 20
223.838562
 30
0.0
 40
41.31317399999999
100
AcDbArc
 50
186.069737
 51
192.9384389999999
  0
ARC
  5
BAE5
330
B935
100
AcDbEntity
  8
1
  6
Continuous
100
AcDbCircle
 10
84.205708
 20
221.765312
 30
0.0
 40
32.05362499999999
100
AcDbArc
 50
192.9384389999999
 51
197.5196719999999
  0
ARC
  5
BAE6
330
B935
100
AcDbEntity
  8
1
  6
Continuous
100
AcDbCircle
 10
81.637309
 20
222.6058359999999
 30
0.0
 40
29.654958
100
AcDbArc
 50
182.9052629999999
 51
186.069737
  0
ARC
  5
BAE7
330
B935
100
AcDbEntity
  8
1
  6
Continuous
100
AcDbCircle
 10
52.488934
 20
222.527753
 30
0.0
 40
1.5
100
AcDbArc
 50
180.0
 51
251.801408
  0
ARC
  5
BAE8
330
B935
100
AcDbEntity
  8
1
  6
Continuous
100
AcDbCircle
 10
39.24769899999999
 20
223.838562
 30
0.0
 40
41.31317399999999
100
AcDbArc
 50
347.0615609999999
 51
349.1082759999999
  0
ARC
  5
BAE9
330
B935
100
AcDbEntity
  8
1
  6
Continuous
100
AcDbCircle
 10
48.27215999999999
 20
221.765312
 30
0.0
 40
32.05362499999999
100
AcDbArc
 50
342.4803279999999
 51
347.0615609999999
  0
ARC
  5
BAEA
330
B935
100
AcDbEntity
  8
1
  6
Continuous
100
AcDbCircle
 10
93.23016800000001
 20
235.416944
 30
0.0
 40
41.31317399999999
100
AcDbArc
 50
167.061561
 51
173.930263
  0
LINE
  5
BAEB
330
B935
100
AcDbEntity
  8
1
  6
Continuous
100
AcDbLine
 10
50.47789999999999
 20
235.1277529999999
 30
0.0
 11
50.988934
 21
235.1277529999999
 31
0.0
  0
ARC
  5
BAEC
330
B935
100
AcDbEntity
  8
1
  6
Continuous
100
AcDbCircle
 10
81.637309
 20
236.6496699999999
 30
0.0
 40
29.654958
100
AcDbArc
 50
173.930263
 51
177.094737
  0
ARC
  5
BAED
330
B935
100
AcDbEntity
  8
1
  6
Continuous
100
AcDbCircle
 10
52.488934
 20
236.7277529999999
 30
0.0
 40
1.5
100
AcDbArc
 50
108.1985919999999
 51
180.0
  0
ARC
  5
BAEE
330
B935
100
AcDbEntity
  8
1
  6
Continuous
100
AcDbCircle
 10
84.205708
 20
237.4901939999999
 30
0.0
 40
32.05362499999999
100
AcDbArc
 50
162.4803279999999
 51
167.061561
  0
ARC
  5
BAEF
330
B935
100
AcDbEntity
  8
1
  6
Continuous
100
AcDbCircle
 10
48.27215999999999
 20
237.4901939999999
 30
0.0
 40
32.05362499999999
100
AcDbArc
 50
13.719683
 51
17.519672
  0
ARC
  5
BAF0
330
B935
100
AcDbEntity
  8
1
  6
Continuous
100
AcDbCircle
 10
66.238934
 20
264.6277529999999
 30
0.0
 40
30.0
100
AcDbArc
 50
72.29904899999998
 51
107.6980119999999
  0
LINE
  5
BAF1
330
B935
100
AcDbEntity
  8
1
  6
Continuous
100
AcDbLine
 10
54.78633399999999
 20
294.8733359999998
 30
0.0
 11
77.69153299999998
 21
294.8733359999998
 31
0.0
  0
ARC
  5
BAF2
330
B935
100
AcDbEntity
  8
1
  6
Continuous
100
AcDbCircle
 10
58.638934
 20
288.4445539999999
 30
0.0
 40
5.0
100
AcDbArc
 50
107.6980119999999
 51
180.0
  0
ARC
  5
BAF3
330
B935
100
AcDbEntity
  8
1
  6
Continuous
100
AcDbCircle
 10
55.4217
 20
289.976942
 30
0.0
 40
5.0
100
AcDbArc
 50
108.5228489999998
 51
159.4816529999999
  0
ARC
  5
BAF4
330
B935
100
AcDbEntity
  8
1
  6
Continuous
100
AcDbCircle
 10
54.78633399999999
 20
291.873336
 30
0.0
 40
3.0
100
AcDbArc
 50
90.0
 51
108.5228489999998
  0
ARC
  5
BAF5
330
B935
100
AcDbEntity
  8
1
  6
Continuous
100
AcDbCircle
 10
77.07048499999998
 20
289.9722049999999
 30
0.0
 40
5.0
100
AcDbArc
 50
20.984074
 51
71.909194
  0
ARC
  5
BAF6
330
B935
100
AcDbEntity
  8
1
  6
Continuous
100
AcDbCircle
 10
77.69153299999998
 20
291.873336
 30
0.0
 40
3.0
100
AcDbArc
 50
71.909194
 51
90.0
  0
ARC
  5
BAF7
330
B935
100
AcDbEntity
  8
1
  6
Continuous
100
AcDbCircle
 10
73.83893399999998
 20
288.4445539999999
 30
0.0
 40
5.0
100
AcDbArc
 50
0.0
 51
72.30198799999998
  0
LINE
  5
BAF8
330
B935
100
AcDbEntity
  8
1
  6
Continuous
100
AcDbLine
 10
338.6337429999999
 20
170.810934
 30
0.0
 11
338.6337429999999
 21
288.4445359999999
 31
0.0
  0
LINE
  5
BAF9
330
B935
100
AcDbEntity
  8
1
  6
Continuous
100
AcDbLine
 10
363.833743
 20
170.810934
 30
0.0
 11
363.833743
 21
288.4445359999999
 31
0.0
  0
ARC
  5
BAFA
330
B935
100
AcDbEntity
  8
1
  6
Continuous
100
AcDbCircle
 10
351.233743
 20
194.627735
 30
0.0
 40
30.0
100
AcDbArc
 50
252.301988
 51
287.7009509999999
  0
ARC
  5
BAFB
330
B935
100
AcDbEntity
  8
1
  6
Continuous
100
AcDbCircle
 10
343.633743
 20
170.810934
 30
0.0
 40
5.0
100
AcDbArc
 50
180.0
 51
252.301988
  0
ARC
  5
BAFC
330
B935
100
AcDbEntity
  8
1
  6
Continuous
100
AcDbCircle
 10
358.8337430000001
 20
170.810934
 30
0.0
 40
5.0
100
AcDbArc
 50
287.698012
 51
0.0
  0
ARC
  5
BAFD
330
B935
100
AcDbEntity
  8
1
  6
Continuous
100
AcDbCircle
 10
351.233743
 20
264.6277349999999
 30
0.0
 40
30.0
100
AcDbArc
 50
72.29904899999998
 51
107.6980119999999
  0
ARC
  5
BAFE
330
B935
100
AcDbEntity
  8
1
  6
Continuous
100
AcDbCircle
 10
369.2005169999998
 20
221.7652939999999
 30
0.0
 40
32.05362499999999
100
AcDbArc
 50
194.979975
 51
197.5196719999999
  0
ARC
  5
BAFF
330
B935
100
AcDbEntity
  8
1
  6
Continuous
100
AcDbCircle
 10
369.2005169999998
 20
237.4901759999999
 30
0.0
 40
32.05362499999999
100
AcDbArc
 50
162.4803279999999
 51
167.061561
  0
ARC
  5
BB00
330
B935
100
AcDbEntity
  8
1
  6
Continuous
100
AcDbCircle
 10
378.224977
 20
235.4169259999999
 30
0.0
 40
41.31317399999999
100
AcDbArc
 50
167.061561
 51
168.893844
  0
ARC
  5
BB01
330
B935
100
AcDbEntity
  8
1
  6
Continuous
100
AcDbCircle
 10
343.633743
 20
288.4445359999999
 30
0.0
 40
5.0
100
AcDbArc
 50
107.6980119999999
 51
180.0
  0
LINE
  5
BB02
330
B935
100
AcDbEntity
  8
1
  6
Continuous
100
AcDbLine
 10
366.4837429999999
 20
236.727735
 30
0.0
 11
366.4837429999999
 21
222.527735
 31
0.0
  0
LINE
  5
BB03
330
B935
100
AcDbEntity
  8
1
  6
Continuous
100
AcDbLine
 10
365.4522099999998
 20
221.102766
 30
0.0
 11
365.4522099999998
 21
238.1527039999999
 31
0.0
  0
ARC
  5
BB04
330
B935
100
AcDbEntity
  8
1
  6
Continuous
100
AcDbCircle
 10
364.983743
 20
222.527735
 30
0.0
 40
1.5
100
AcDbArc
 50
288.198592
 51
0.0
  0
LINE
  5
BB05
330
B935
100
AcDbEntity
  8
1
  6
Continuous
100
AcDbLine
 10
366.983592
 20
224.127735
 30
0.0
 11
366.4837429999999
 21
224.127735
 31
0.0
  0
ARC
  5
BB06
330
B935
100
AcDbEntity
  8
1
  6
Continuous
100
AcDbCircle
 10
335.835367
 20
222.605818
 30
0.0
 40
29.654958
100
AcDbArc
 50
353.9302629999999
 51
357.094737
  0
ARC
  5
BB07
330
B935
100
AcDbEntity
  8
1
  6
Continuous
100
AcDbCircle
 10
333.266969
 20
221.7652939999999
 30
0.0
 40
32.05362499999999
100
AcDbArc
 50
342.4803279999999
 51
347.0615609999999
  0
ARC
  5
BB08
330
B935
100
AcDbEntity
  8
1
  6
Continuous
100
AcDbCircle
 10
324.2425079999998
 20
223.838544
 30
0.0
 40
41.31317399999999
100
AcDbArc
 50
347.0615609999999
 51
353.9302629999999
  0
ARC
  5
BB09
330
B935
100
AcDbEntity
  8
1
  6
Continuous
100
AcDbCircle
 10
333.266969
 20
237.4901759999999
 30
0.0
 40
32.05362499999999
100
AcDbArc
 50
12.938439
 51
17.519672
  0
ARC
  5
BB0A
330
B935
100
AcDbEntity
  8
1
  6
Continuous
100
AcDbCircle
 10
364.983743
 20
236.727735
 30
0.0
 40
1.5
100
AcDbArc
 50
0.0
 51
71.801408
  0
ARC
  5
BB0B
330
B935
100
AcDbEntity
  8
1
  6
Continuous
100
AcDbCircle
 10
335.835367
 20
236.649652
 30
0.0
 40
29.654958
100
AcDbArc
 50
2.905263
 51
6.069736999999999
  0
LINE
  5
BB0C
330
B935
100
AcDbEntity
  8
1
  6
Continuous
100
AcDbLine
 10
366.994627
 20
235.127735
 30
0.0
 11
366.4837429999999
 21
235.127735
 31
0.0
  0
ARC
  5
BB0D
330
B935
100
AcDbEntity
  8
1
  6
Continuous
100
AcDbCircle
 10
324.2425079999998
 20
235.4169259999999
 30
0.0
 40
41.31317399999999
100
AcDbArc
 50
6.069736999999999
 51
12.938439
  0
ARC
  5
BB0E
330
B935
100
AcDbEntity
  8
1
  6
Continuous
100
AcDbCircle
 10
358.8337430000001
 20
288.4445359999999
 30
0.0
 40
5.0
100
AcDbArc
 50
0.0
 51
72.30198799999998
  0
ARC
  5
BB0F
330
B935
100
AcDbEntity
  8
1
  6
Continuous
100
AcDbCircle
 10
150.4195379999998
 20
79.82236800000002
 30
0.0
 40
5.0
100
AcDbArc
 50
197.698012
 51
270.0
  0
ARC
  5
BB10
330
B935
100
AcDbEntity
  8
1
  6
Continuous
100
AcDbCircle
 10
268.05314
 20
79.82236800000002
 30
0.0
 40
5.0
100
AcDbArc
 50
270.0
 51
342.301988
  0
ARC
  5
BB11
330
B935
100
AcDbEntity
  8
1
  6
Continuous
100
AcDbCircle
 10
203.447148
 20
114.4136019999999
 30
0.0
 40
41.31317399999999
100
AcDbArc
 50
257.0615609999999
 51
263.9302629999999
  0
LINE
  5
BB12
330
B935
100
AcDbEntity
  8
1
  6
Continuous
100
AcDbLine
 10
268.05314
 20
74.82236800000002
 30
0.0
 11
150.4195379999998
 21
74.82236800000002
 31
0.0
  0
ARC
  5
BB13
330
B935
100
AcDbEntity
  8
1
  6
Continuous
100
AcDbCircle
 10
201.3738979999998
 20
105.389142
 30
0.0
 40
32.05362499999999
100
AcDbArc
 50
252.4803279999999
 51
257.0615609999999
  0
ARC
  5
BB14
330
B935
100
AcDbEntity
  8
1
  6
Continuous
100
AcDbCircle
 10
216.258256
 20
102.8207429999999
 30
0.0
 40
29.654958
100
AcDbArc
 50
272.9052629999998
 51
276.0697369999999
  0
LINE
  5
BB15
330
B935
100
AcDbEntity
  8
1
  6
Continuous
100
AcDbLine
 10
217.7613079999999
 20
73.2039
 30
0.0
 11
200.7113689999999
 21
73.2039
 31
0.0
  0
LINE
  5
BB16
330
B935
100
AcDbEntity
  8
1
  6
Continuous
100
AcDbLine
 10
202.1363389999999
 20
72.17236800000002
 30
0.0
 11
216.336339
 21
72.17236800000002
 31
0.0
  0
ARC
  5
BB17
330
B935
100
AcDbEntity
  8
1
  6
Continuous
100
AcDbCircle
 10
216.336339
 20
73.672368
 30
0.0
 40
1.5
100
AcDbArc
 50
270.0
 51
341.8014079999999
  0
LINE
  5
BB18
330
B935
100
AcDbEntity
  8
1
  6
Continuous
100
AcDbLine
 10
214.7363389999999
 20
71.67236899999998
 30
0.0
 11
214.7363389999999
 21
72.17236800000002
 31
0.0
  0
ARC
  5
BB19
330
B935
100
AcDbEntity
  8
1
  6
Continuous
100
AcDbCircle
 10
202.1363389999999
 20
73.672368
 30
0.0
 40
1.5
100
AcDbArc
 50
198.1985919999999
 51
270.0
  0
ARC
  5
BB1A
330
B935
100
AcDbEntity
  8
1
  6
Continuous
100
AcDbCircle
 10
202.2144219999999
 20
102.8207429999999
 30
0.0
 40
29.654958
100
AcDbArc
 50
263.9302629999999
 51
267.0947369999999
  0
LINE
  5
BB1B
330
B935
100
AcDbEntity
  8
1
  6
Continuous
100
AcDbLine
 10
203.7363389999999
 20
71.66133399999998
 30
0.0
 11
203.7363389999999
 21
72.17236800000002
 31
0.0
  0
ARC
  5
BB1C
330
B935
100
AcDbEntity
  8
1
  6
Continuous
100
AcDbCircle
 10
217.0987799999998
 20
105.389142
 30
0.0
 40
32.05362499999999
100
AcDbArc
 50
282.938439
 51
287.519672
  0
ARC
  5
BB1D
330
B935
100
AcDbEntity
  8
1
  6
Continuous
100
AcDbCircle
 10
215.0255299999999
 20
114.4136019999999
 30
0.0
 40
41.31317399999999
100
AcDbArc
 50
276.0697369999999
 51
282.938439
  0
LINE
  5
BB1E
330
B935
100
AcDbEntity
  8
1
  6
Continuous
100
AcDbLine
 10
268.05314
 20
100.0223679999999
 30
0.0
 11
150.4195379999998
 21
100.0223679999999
 31
0.0
  0
ARC
  5
BB1F
330
B935
100
AcDbEntity
  8
1
  6
Continuous
100
AcDbCircle
 10
174.2363389999999
 20
87.422368
 30
0.0
 40
30.0
100
AcDbArc
 50
162.299049
 51
197.698012
  0
ARC
  5
BB20
330
B935
100
AcDbEntity
  8
1
  6
Continuous
100
AcDbCircle
 10
150.4195379999998
 20
95.022368
 30
0.0
 40
5.0
100
AcDbArc
 50
90.0
 51
162.301988
  0
ARC
  5
BB21
330
B935
100
AcDbEntity
  8
1
  6
Continuous
100
AcDbCircle
 10
201.3738979999998
 20
69.45559399999999
 30
0.0
 40
32.05362499999999
100
AcDbArc
 50
102.9384389999999
 51
107.519672
  0
ARC
  5
BB22
330
B935
100
AcDbEntity
  8
1
  6
Continuous
100
AcDbCircle
 10
217.0987799999998
 20
69.45559399999999
 30
0.0
 40
32.05362499999999
100
AcDbArc
 50
72.48032800000001
 51
75.02012899999998
  0
ARC
  5
BB23
330
B935
100
AcDbEntity
  8
1
  6
Continuous
100
AcDbCircle
 10
244.236339
 20
87.422368
 30
0.0
 40
30.0
100
AcDbArc
 50
342.301988
 51
17.70095099999998
  0
ARC
  5
BB24
330
B935
100
AcDbEntity
  8
1
  6
Continuous
100
AcDbCircle
 10
268.05314
 20
95.022368
 30
0.0
 40
5.0
100
AcDbArc
 50
17.69801199999999
 51
90.0
  0
LINE
  5
BB25
330
B935
100
AcDbEntity
  8
1
  6
Continuous
100
AcDbLine
 10
202.236352
 20
463.0259869999998
 30
0.0
 11
202.236352
 21
460.699749
 31
0.0
  0
LINE
  5
BB26
330
B935
100
AcDbEntity
  8
1
  6
Continuous
100
AcDbLine
 10
216.2363519999999
 20
463.0259869999998
 30
0.0
 11
202.236352
 21
463.0259869999998
 31
0.0
  0
ARC
  5
BB27
330
B935
100
AcDbEntity
  8
1
  6
Continuous
100
AcDbCircle
 10
209.236352
 20
455.1997489999997
 30
0.0
 40
10.5
100
AcDbArc
 50
48.189685
 51
131.810315
  0
LINE
  5
BB28
330
B935
100
AcDbEntity
  8
1
  6
Continuous
100
AcDbLine
 10
216.2363519999999
 20
463.0259869999998
 30
0.0
 11
216.2363519999999
 21
460.699749
 31
0.0
  0
LINE
  5
BB29
330
B935
100
AcDbEntity
  8
1
  6
Continuous
100
AcDbLine
 10
45.557178
 20
236.627753
 30
0.0
 11
45.557178
 21
222.6277529999999
 31
0.0
  0
ARC
  5
BB2A
330
B935
100
AcDbEntity
  8
1
  6
Continuous
100
AcDbCircle
 10
53.38341599999999
 20
229.6277529999999
 30
0.0
 40
10.5
100
AcDbArc
 50
138.1896849999999
 51
221.810315
  0
LINE
  5
BB2B
330
B935
100
AcDbEntity
  8
1
  6
Continuous
100
AcDbLine
 10
45.557178
 20
222.6277529999999
 30
0.0
 11
47.88341599999998
 21
222.6277529999999
 31
0.0
  0
LINE
  5
BB2C
330
B935
100
AcDbEntity
  8
1
  6
Continuous
100
AcDbLine
 10
45.557178
 20
236.627753
 30
0.0
 11
47.88341599999998
 21
236.627753
 31
0.0
  0
LINE
  5
BB2D
330
B935
100
AcDbEntity
  8
1
  6
Continuous
100
AcDbLine
 10
371.9155009999998
 20
232.7726359999998
 30
0.0
 11
371.9155009999998
 21
222.627735
 31
0.0
  0
ARC
  5
BB2E
330
B935
100
AcDbEntity
  8
1
  6
Continuous
100
AcDbCircle
 10
364.089263
 20
229.6277349999999
 30
0.0
 40
10.5
100
AcDbArc
 50
318.189685
 51
29.66984899999999
  0
LINE
  5
BB2F
330
B935
100
AcDbEntity
  8
1
  6
Continuous
100
AcDbLine
 10
371.9155009999998
 20
222.627735
 30
0.0
 11
369.589263
 21
222.627735
 31
0.0
  0
LINE
  5
BB30
330
B935
100
AcDbEntity
  8
1
  6
Continuous
100
AcDbLine
 10
216.2363389999999
 20
66.740612
 30
0.0
 11
202.2363389999999
 21
66.740612
 31
0.0
  0
ARC
  5
BB31
330
B935
100
AcDbEntity
  8
1
  6
Continuous
100
AcDbCircle
 10
209.236339
 20
74.56685
 30
0.0
 40
10.5
100
AcDbArc
 50
228.1896849999998
 51
311.810315
  0
LINE
  5
BB32
330
B935
100
AcDbEntity
  8
1
  6
Continuous
100
AcDbLine
 10
202.2363389999999
 20
66.740612
 30
0.0
 11
202.2363389999999
 21
69.06685
 31
0.0
  0
LINE
  5
BB33
330
B935
100
AcDbEntity
  8
1
  6
Continuous
100
AcDbLine
 10
216.2363389999999
 20
66.740612
 30
0.0
 11
216.2363389999999
 21
69.06685
 31
0.0
  0
ARC
  5
BB34
330
B935
100
AcDbEntity
  8
1
  6
Continuous
100
AcDbCircle
 10
211.8918569999999
 20
208.137337
 30
0.0
 40
36.478828
100
AcDbArc
 50
72.90225599999998
 51
82.346502
  0
ARC
  5
BB35
330
B935
100
AcDbEntity
  8
1
  6
Continuous
100
AcDbCircle
 10
242.184345
 20
381.3829529999999
 30
0.0
 40
170.4503199999998
100
AcDbArc
 50
261.76691
 51
267.67719
  0
LINE
  5
BB36
330
B935
100
AcDbEntity
  8
1
  6
Continuous
100
AcDbLine
 10
222.708681
 20
242.9190979999999
 30
0.0
 11
217.455818
 21
212.6656969999999
 31
0.0
  0
LINE
  5
BB37
330
B935
100
AcDbEntity
  8
1
  6
Continuous
100
AcDbLine
 10
230.4389309999999
 20
210.123564
 30
0.0
 11
219.7783319999998
 21
212.411706
 31
0.0
  0
ARC
  5
BB38
330
B935
100
AcDbEntity
  8
1
  6
Continuous
100
AcDbCircle
 10
242.6332899999999
 20
81.56298099999998
 30
0.0
 40
34.628464
100
AcDbArc
 50
100.4079299999998
 51
131.4236699999999
  0
ARC
  5
BB39
330
B935
100
AcDbEntity
  8
1
  6
Continuous
100
AcDbCircle
 10
247.8861569999998
 20
81.56298099999998
 30
0.0
 40
34.628464
100
AcDbArc
 50
105.9986399999999
 51
131.4236699999999
  0
ARC
  5
BB3A
330
B935
100
AcDbEntity
  8
1
  6
Continuous
100
AcDbCircle
 10
242.6332899999999
 20
81.56298099999998
 30
0.0
 40
36.928463
100
AcDbArc
 50
100.4079299999998
 51
132.9837099999998
  0
LINE
  5
BB3B
330
B935
100
AcDbEntity
  8
1
  6
Continuous
100
AcDbLine
 10
173.54611
 20
100.919931
 30
0.0
 11
242.159703
 21
100.919931
 31
0.0
  0
LINE
  5
BB3C
330
B935
100
AcDbEntity
  8
1
  6
Continuous
100
AcDbLine
 10
173.54611
 20
100.419931
 30
0.0
 11
242.169918
 21
100.419931
 31
0.0
  0
ARC
  5
BB3D
330
B935
100
AcDbEntity
  8
5
  6
PHANTOM
100
AcDbCircle
 10
197.726734
 20
384.4913629999999
 30
0.0
 40
170.4503199999998
100
AcDbArc
 50
278.26691
 51
284.1772
  0
ARC
  5
BB3E
330
B935
100
AcDbEntity
  8
5
  6
PHANTOM
100
AcDbCircle
 10
172.023235
 20
-12.184897
 30
0.0
 40
262.5541999999999
100
AcDbArc
 50
74.93044000000002
 51
79.51924099999998
  0
LINE
  5
BB3F
330
B935
100
AcDbEntity
  8
1
  6
Continuous
100
AcDbLine
 10
87.36057499999999
 20
212.6657129999999
 30
0.0
 11
95.577067
 21
211.0401629999998
 31
0.0
  0
LINE
  5
BB40
330
B935
100
AcDbEntity
  8
1
  6
Continuous
100
AcDbLine
 10
95.68653199999998
 20
211.024723
 30
0.0
 11
87.39445499999998
 21
211.728823
 31
0.0
  0
LINE
  5
BB41
330
B935
100
AcDbEntity
  8
1
  6
Continuous
100
AcDbLine
 10
95.65974000000002
 20
234.1459729999999
 30
0.0
 11
100.6488609999999
 21
234.1459729999999
 31
0.0
  0
LINE
  5
BB42
330
B935
100
AcDbEntity
  8
1
  6
Continuous
100
AcDbLine
 10
96.65088100000001
 20
230.3664629999999
 30
0.0
 11
100.6488609999999
 21
230.3664629999999
 31
0.0
  0
ARC
  5
BB43
330
B935
100
AcDbEntity
  8
1
  6
Continuous
100
AcDbCircle
 10
76.95342700000002
 20
224.109623
 30
0.0
 40
21.51306299999999
100
AcDbArc
 50
42.52313
 51
61.06876999999999
  0
LINE
  5
BB44
330
B935
100
AcDbEntity
  8
1
  6
Continuous
100
AcDbLine
 10
94.50580999999999
 20
236.412083
 30
0.0
 11
100.6488609999999
 21
236.412083
 31
0.0
  0
LINE
  5
BB45
330
B935
100
AcDbEntity
  8
1
  6
Continuous
100
AcDbLine
 10
89.36056200000001
 20
247.365673
 30
0.0
 11
100.6506469999999
 21
247.365673
 31
0.0
  0
LINE
  5
BB46
330
B935
100
AcDbEntity
  8
1
  6
Continuous
100
AcDbLine
 10
90.096234
 20
251.1451829999999
 30
0.0
 11
100.6506469999999
 21
251.1451829999999
 31
0.0
  0
LINE
  5
BB47
330
B935
100
AcDbEntity
  8
1
  6
Continuous
100
AcDbLine
 10
90.094449
 20
253.411293
 30
0.0
 11
100.6506469999999
 21
253.411293
 31
0.0
  0
LINE
  5
BB48
330
B935
100
AcDbEntity
  8
1
  6
Continuous
100
AcDbLine
 10
87.360562
 20
241.2799729999999
 30
0.0
 11
87.360562
 21
248.411293
 31
0.0
  0
LINE
  5
BB49
330
B935
100
AcDbEntity
  8
1
  6
Continuous
100
AcDbLine
 10
85.09444899999998
 20
230.408333
 30
0.0
 11
85.09444899999998
 21
248.411293
 31
0.0
  0
LINE
  5
BB4A
330
B935
100
AcDbEntity
  8
1
  6
Continuous
100
AcDbLine
 10
80.94665199999999
 20
245.092413
 30
0.0
 11
80.94665199999999
 21
209.722753
 31
0.0
  0
LINE
  5
BB4B
330
B935
100
AcDbEntity
  8
1
  6
Continuous
100
AcDbLine
 10
80.446652
 20
245.092413
 30
0.0
 11
80.446652
 21
209.722753
 31
0.0
  0
LINE
  5
BB4C
330
B935
100
AcDbEntity
  8
1
  6
Continuous
100
AcDbLine
 10
79.23647699999998
 20
245.092413
 30
0.0
 11
79.23647699999998
 21
221.842753
 31
0.0
  0
LINE
  5
BB4D
330
B935
100
AcDbEntity
  8
1
  6
Continuous
100
AcDbLine
 10
89.940762
 20
225.2846729999999
 30
0.0
 11
89.940762
 21
218.4008229999998
 31
0.0
  0
LINE
  5
BB4E
330
B935
100
AcDbEntity
  8
1
  6
Continuous
100
AcDbLine
 10
79.23648799999998
 20
221.842753
 30
0.0
 11
80.44665999999997
 21
209.722753
 31
0.0
  0
ARC
  5
BB4F
330
B935
100
AcDbEntity
  8
1
  6
Continuous
100
AcDbCircle
 10
84.940762
 20
218.4008229999998
 30
0.0
 40
5.0
100
AcDbArc
 50
284.446613
 51
0.000003
  0
ARC
  5
BB50
330
B935
100
AcDbEntity
  8
1
  6
Continuous
100
AcDbCircle
 10
82.90647599999998
 20
210.6482029999999
 30
0.0
 40
2.0
100
AcDbArc
 50
104.44661
 51
168.4959
  0
LINE
  5
BB51
330
B935
100
AcDbEntity
  8
1
  6
Continuous
100
AcDbLine
 10
85.09444899999998
 20
212.6657129999999
 30
0.0
 11
87.360562
 21
212.6657129999999
 31
0.0
  0
LINE
  5
BB52
330
B935
100
AcDbEntity
  8
1
  6
Continuous
100
AcDbLine
 10
86.188151
 20
213.558933
 30
0.0
 11
82.40751299999997
 21
212.5849629999999
 31
0.0
  0
LINE
  5
BB53
330
B935
100
AcDbEntity
  8
1
  6
Continuous
100
AcDbLine
 10
80.446652
 20
209.722753
 30
0.0
 11
80.94665199999999
 21
209.722753
 31
0.0
  0
LINE
  5
BB54
330
B935
100
AcDbEntity
  8
1
  6
Continuous
100
AcDbLine
 10
87.360562
 20
212.6657129999999
 30
0.0
 11
87.360562
 21
214.025393
 31
0.0
  0
LINE
  5
BB55
330
B935
100
AcDbEntity
  8
1
  6
Continuous
100
AcDbLine
 10
87.394452
 20
211.728823
 30
0.0
 11
85.09444899999998
 21
211.728823
 31
0.0
  0
LINE
  5
BB56
330
B935
100
AcDbEntity
  8
1
  6
Continuous
100
AcDbLine
 10
85.09444899999998
 20
211.728823
 30
0.0
 11
85.09444899999998
 21
213.277163
 31
0.0
  0
ARC
  5
BB57
330
B935
100
AcDbEntity
  8
1
  6
Continuous
100
AcDbCircle
 10
84.940762
 20
225.2846729999999
 30
0.0
 40
5.0
100
AcDbArc
 50
0.000003
 51
75.55338999999998
  0
ARC
  5
BB58
330
B935
100
AcDbEntity
  8
1
  6
Continuous
100
AcDbCircle
 10
82.90647599999998
 20
233.037303
 30
0.0
 40
2.0
100
AcDbArc
 50
191.5041099999998
 51
255.5533799999999
  0
LINE
  5
BB59
330
B935
100
AcDbEntity
  8
1
  6
Continuous
100
AcDbLine
 10
86.18814899999998
 20
230.1265629999999
 30
0.0
 11
82.407511
 21
231.1005329999999
 31
0.0
  0
ARC
  5
BB5A
330
B935
100
AcDbEntity
  8
1
  6
Continuous
100
AcDbCircle
 10
95.360562
 20
241.2799729999999
 30
0.0
 40
8.0
100
AcDbArc
 50
180.0
 51
204.57293
  0
ARC
  5
BB5B
330
B935
100
AcDbEntity
  8
1
  6
Continuous
100
AcDbCircle
 10
95.094449
 20
241.950383
 30
0.0
 40
10.0
100
AcDbArc
 50
180.0
 51
205.9646899999999
  0
ARC
  5
BB5C
330
B935
100
AcDbEntity
  8
1
  6
Continuous
100
AcDbCircle
 10
68.43009599999999
 20
228.965643
 30
0.0
 40
19.65790399999999
100
AcDbArc
 50
0.5978420000000001
 51
25.96469
  0
ARC
  5
BB5D
330
B935
100
AcDbEntity
  8
1
  6
Continuous
100
AcDbCircle
 10
68.43009599999999
 20
228.965643
 30
0.0
 40
21.61238299999999
100
AcDbArc
 50
352.575136
 51
24.57292999999999
  0
ARC
  5
BB5E
330
B935
100
AcDbEntity
  8
1
  6
Continuous
100
AcDbCircle
 10
89.36056200000001
 20
245.365673
 30
0.0
 40
2.0
100
AcDbArc
 50
90.00001000000002
 51
180.0
  0
LINE
  5
BB5F
330
B935
100
AcDbEntity
  8
1
  6
Continuous
100
AcDbLine
 10
80.39445200000001
 20
249.357493
 30
0.0
 11
85.18479499999996
 21
249.357493
 31
0.0
  0
LINE
  5
BB60
330
B935
100
AcDbEntity
  8
1
  6
Continuous
100
AcDbLine
 10
80.39445200000001
 20
249.357493
 30
0.0
 11
80.39445200000001
 21
251.657473
 31
0.0
  0
LINE
  5
BB61
330
B935
100
AcDbEntity
  8
1
  6
Continuous
100
AcDbLine
 10
80.39445200000001
 20
251.657473
 30
0.0
 11
85.39445200000001
 21
251.657473
 31
0.0
  0
ARC
  5
BB62
330
B935
100
AcDbEntity
  8
1
  6
Continuous
100
AcDbCircle
 10
90.094449
 20
248.411293
 30
0.0
 40
2.733886999999998
100
AcDbArc
 50
90.00001000000002
 51
180.0
  0
ARC
  5
BB63
330
B935
100
AcDbEntity
  8
1
  6
Continuous
100
AcDbCircle
 10
90.094449
 20
248.411293
 30
0.0
 40
5.0
100
AcDbArc
 50
90.00001000000002
 51
180.0
  0
ARC
  5
BB64
330
B935
100
AcDbEntity
  8
1
  6
Continuous
100
AcDbCircle
 10
85.39445200000001
 20
249.657473
 30
0.0
 40
2.0
100
AcDbArc
 50
67.33977
 51
90.00001000000002
  0
LINE
  5
BB65
330
B935
100
AcDbEntity
  8
1
  6
Continuous
100
AcDbLine
 10
79.23647699999998
 20
245.092413
 30
0.0
 11
85.09444899999998
 21
245.092413
 31
0.0
  0
ARC
  5
BB66
330
B935
100
AcDbEntity
  8
1
  6
Continuous
100
AcDbCircle
 10
148.2235039999999
 20
72.83846099999998
 30
0.0
 40
40.0
100
AcDbArc
 50
47.31937300000002
 51
77.68316299999998
  0
ARC
  5
BB67
330
B935
100
AcDbEntity
  8
1
  6
Continuous
100
AcDbCircle
 10
161.8170869999999
 20
121.334101
 30
0.0
 40
11.0
100
AcDbArc
 50
0.0
 51
180.00001
  0
ARC
  5
BB68
330
B935
100
AcDbEntity
  8
1
  6
Continuous
100
AcDbCircle
 10
160.44198
 20
6.441371
 30
0.0
 40
104.78456
100
AcDbArc
 50
77.09166899999998
 51
89.896156
  0
LINE
  5
BB69
330
B935
100
AcDbEntity
  8
1
  6
Continuous
100
AcDbLine
 10
141.86635
 20
103.801961
 30
0.0
 11
173.568723
 21
100.919931
 31
0.0
  0
LINE
  5
BB6A
330
B935
100
AcDbEntity
  8
1
  6
Continuous
100
AcDbLine
 10
141.8210769999998
 20
103.3040109999999
 30
0.0
 11
173.546113
 21
100.419911
 31
0.0
  0
LINE
  5
BB6B
330
B935
100
AcDbEntity
  8
1
  6
Continuous
100
AcDbLine
 10
150.8170869999999
 20
111.3095909999999
 30
0.0
 11
150.8170869999999
 21
121.334101
 31
0.0
  0
ARC
  5
BB6C
330
B935
100
AcDbEntity
  8
1
  6
Continuous
100
AcDbCircle
 10
154.836343
 20
103.1249309999999
 30
0.0
 40
9.0
100
AcDbArc
 50
77.68316299999998
 51
166.96805
  0
ARC
  5
BB6D
330
B935
100
AcDbEntity
  8
1
  6
Continuous
100
AcDbCircle
 10
144.119653
 20
105.605371
 30
0.0
 40
2.0
100
AcDbArc
 50
264.80557
 51
346.9680499999999
  0
LINE
  5
BB6E
330
B935
100
AcDbEntity
  8
1
  6
Continuous
100
AcDbLine
 10
141.86635
 20
103.801961
 30
0.0
 11
141.8210769999998
 21
103.3040109999999
 31
0.0
  0
ARC
  5
BB6F
330
B935
100
AcDbEntity
  8
1
  6
Continuous
100
AcDbCircle
 10
193.3042879999999
 20
102.919931
 30
0.0
 40
2.0
100
AcDbArc
 50
270.0
 51
0.0
  0
LINE
  5
BB70
330
B935
100
AcDbEntity
  8
1
  6
Continuous
100
AcDbLine
 10
183.849996
 20
108.5779009999999
 30
0.0
 11
217.455815
 21
108.5779009999999
 31
0.0
  0
LINE
  5
BB71
330
B935
100
AcDbEntity
  8
1
  6
Continuous
100
AcDbLine
 10
170.173521
 20
106.277901
 30
0.0
 11
221.6671109999999
 21
106.277901
 31
0.0
  0
LINE
  5
BB72
330
B935
100
AcDbEntity
  8
1
  6
Continuous
100
AcDbLine
 10
172.8170899999998
 20
110.492621
 30
0.0
 11
172.8170899999998
 21
121.334101
 31
0.0
  0
ARC
  5
BB73
330
B935
100
AcDbEntity
  8
1
  6
Continuous
100
AcDbCircle
 10
178.7295049999999
 20
105.919931
 30
0.0
 40
5.0
100
AcDbArc
 50
227.31937
 51
270.0
  0
ARC
  5
BB74
330
B935
100
AcDbEntity
  8
1
  6
Continuous
100
AcDbCircle
 10
160.44198
 20
6.441371
 30
0.0
 40
102.48456
100
AcDbArc
 50
76.946999
 51
87.02353599999998
  0
ARC
  5
BB75
330
B935
100
AcDbEntity
  8
1
  6
Continuous
100
AcDbCircle
 10
197.3042879999999
 20
104.277901
 30
0.0
 40
2.0
100
AcDbArc
 50
90.00000300000001
 51
180.00001
  0
LINE
  5
BB76
330
B935
100
AcDbEntity
  8
1
  6
Continuous
100
AcDbLine
 10
195.3042879999999
 20
104.277901
 30
0.0
 11
195.3042879999999
 21
102.919931
 31
0.0
  0
ARC
  5
BB77
330
B935
100
AcDbEntity
  8
1
  6
Continuous
100
AcDbCircle
 10
216.414242
 20
111.277901
 30
0.0
 40
5.0
100
AcDbArc
 50
270.0
 51
311.42367
  0
ARC
  5
BB78
330
B935
100
AcDbEntity
  8
1
  6
Continuous
100
AcDbCircle
 10
221.6671109999999
 20
111.277901
 30
0.0
 40
5.0
100
AcDbArc
 50
270.0
 51
311.42367
  0
LINE
  5
BB79
330
B935
100
AcDbEntity
  8
1
  6
Continuous
100
AcDbLine
 10
96.77114500000001
 20
212.0211529999999
 30
0.0
 11
96.77114500000001
 21
228.466591
 31
0.0
  0
ARC
  5
BB7A
330
B935
100
AcDbEntity
  8
1
  6
Continuous
100
AcDbCircle
 10
95.77114499999996
 20
212.0211529999999
 30
0.0
 40
1.0
100
AcDbArc
 50
265.1466200000001
 51
0.000003
  0
ARC
  5
BB7B
330
B935
100
AcDbEntity
  8
1
  6
Continuous
100
AcDbCircle
 10
100.6488609999999
 20
179.7015429999999
 30
0.0
 40
54.44366099999999
100
AcDbArc
 50
79.80144
 51
90.00001000000002
  0
ARC
  5
BB7C
330
B935
100
AcDbEntity
  8
1
  6
Continuous
100
AcDbCircle
 10
100.6488609999999
 20
284.810923
 30
0.0
 40
54.44366099999999
100
AcDbArc
 50
270.0
 51
280.1985559999998
  0
ARC
  5
BB7D
330
B935
100
AcDbEntity
  8
1
  6
Continuous
100
AcDbCircle
 10
100.6488609999999
 20
181.967653
 30
0.0
 40
54.44366099999999
100
AcDbArc
 50
79.80144
 51
90.00001000000002
  0
ARC
  5
BB7E
330
B935
100
AcDbEntity
  8
1
  6
Continuous
100
AcDbCircle
 10
110.1035729999999
 20
234.522343
 30
0.0
 40
1.045285
100
AcDbArc
 50
0.000003
 51
79.80144
  0
ARC
  5
BB7F
330
B935
100
AcDbEntity
  8
1
  6
Continuous
100
AcDbCircle
 10
110.1035729999999
 20
232.256233
 30
0.0
 40
1.045285
100
AcDbArc
 50
280.1985559999998
 51
79.80144
  0
LINE
  5
BB80
330
B935
100
AcDbEntity
  8
1
  6
Continuous
100
AcDbLine
 10
111.148861
 20
232.256233
 30
0.0
 11
111.148861
 21
234.522343
 31
0.0
  0
ARC
  5
BB81
330
B935
100
AcDbEntity
  8
1
  6
Continuous
100
AcDbCircle
 10
100.6506469999999
 20
196.700723
 30
0.0
 40
54.44366099999999
100
AcDbArc
 50
79.80144
 51
90.00001000000002
  0
ARC
  5
BB82
330
B935
100
AcDbEntity
  8
1
  6
Continuous
100
AcDbCircle
 10
100.6506469999999
 20
301.810093
 30
0.0
 40
54.44366099999999
100
AcDbArc
 50
270.0
 51
280.1985559999998
  0
ARC
  5
BB83
330
B935
100
AcDbEntity
  8
1
  6
Continuous
100
AcDbCircle
 10
100.6506469999999
 20
198.966833
 30
0.0
 40
54.44366099999999
100
AcDbArc
 50
79.80144
 51
90.00001000000002
  0
ARC
  5
BB84
330
B935
100
AcDbEntity
  8
1
  6
Continuous
100
AcDbCircle
 10
110.105359
 20
249.2554129999998
 30
0.0
 40
1.045285
100
AcDbArc
 50
280.1985559999998
 51
79.80144
  0
LINE
  5
BB85
330
B935
100
AcDbEntity
  8
1
  6
Continuous
100
AcDbLine
 10
111.1506469999999
 20
251.5215229999999
 30
0.0
 11
111.1506469999999
 21
249.2554129999998
 31
0.0
  0
ARC
  5
BB86
330
B935
100
AcDbEntity
  8
1
  6
Continuous
100
AcDbCircle
 10
110.105359
 20
251.5215229999999
 30
0.0
 40
1.045285
100
AcDbArc
 50
0.000003
 51
79.80144
  0
LINE
  5
BB87
330
B935
100
AcDbEntity
  8
1
  6
Continuous
100
AcDbLine
 10
151.210552
 20
253.411266
 30
0.0
 11
173.00196
 21
249.627668
 31
0.0
  0
LINE
  5
BB88
330
B935
100
AcDbEntity
  8
1
  6
Continuous
100
AcDbLine
 10
150.8170959999999
 20
251.1451679999999
 30
0.0
 11
172.608501
 21
247.3615689999999
 31
0.0
  0
ARC
  5
BB89
330
B935
100
AcDbEntity
  8
1
  6
Continuous
100
AcDbCircle
 10
-898.6949609999996
 20
-1701.780427
 30
0.0
 40
2206.895999999999
100
AcDbArc
 50
60.47544399999999
 51
61.59328
  0
ARC
  5
BB8A
330
B935
100
AcDbEntity
  8
1
  6
Continuous
100
AcDbCircle
 10
179.410427
 20
256.8252529999999
 30
0.0
 40
33.692234
100
AcDbArc
 50
219.0668599999999
 51
247.66752
  0
ARC
  5
BB8B
330
B935
100
AcDbEntity
  8
1
  6
Continuous
100
AcDbCircle
 10
179.410427
 20
256.8252529999999
 30
0.0
 40
34.992233
100
AcDbArc
 50
221.7816099999998
 51
252.28302
  0
ARC
  5
BB8C
330
B935
100
AcDbEntity
  8
1
  6
Continuous
100
AcDbCircle
 10
138.0709949999999
 20
259.2582859999998
 30
0.0
 40
50.0
100
AcDbArc
 50
294.1364399999999
 51
312.6920999999999
  0
ARC
  5
BB8D
330
B935
100
AcDbEntity
  8
1
  6
Continuous
100
AcDbCircle
 10
152.894603
 20
227.7741629999999
 30
0.0
 40
18.068386
100
AcDbArc
 50
274.11842
 51
296.3888
  0
ARC
  5
BB8E
330
B935
100
AcDbEntity
  8
1
  6
Continuous
100
AcDbCircle
 10
154.836345
 20
221.8427359999998
 30
0.0
 40
9.0
100
AcDbArc
 50
82.14887799999997
 51
294.1364399999999
  0
ARC
  5
BB8F
330
B935
100
AcDbEntity
  8
5
  6
PHANTOM
100
AcDbCircle
 10
172.91415
 20
247.234235
 30
0.0
 40
34.992233
100
AcDbArc
 50
238.28162
 51
268.7830099999998
  0
ARC
  5
BB90
330
B935
100
AcDbEntity
  8
5
  6
PHANTOM
100
AcDbCircle
 10
-304.5205009999999
 20
-1936.914127
 30
0.0
 40
2206.895999999999
100
AcDbArc
 50
76.97544599999997
 51
78.09347999999999
  0
ARC
  5
BB91
330
B935
100
AcDbEntity
  8
5
  6
PHANTOM
100
AcDbCircle
 10
172.91415
 20
247.234235
 30
0.0
 40
33.692234
100
AcDbArc
 50
235.56686
 51
264.16751
  0
LINE
  5
BB92
330
B935
100
AcDbEntity
  8
5
  6
PHANTOM
100
AcDbLine
 10
147.1115369999999
 20
233.667113
 30
0.0
 11
169.080161
 21
236.2284169999998
 31
0.0
  0
LINE
  5
BB93
330
B935
100
AcDbEntity
  8
5
  6
PHANTOM
100
AcDbLine
 10
146.8451879999998
 20
235.951638
 30
0.0
 11
168.8138079999999
 21
238.5129419999999
 31
0.0
  0
LINE
  5
BB94
330
B935
100
AcDbEntity
  8
1
  6
Continuous
100
AcDbLine
 10
150.403919
 20
244.961243
 30
0.0
 11
150.4955479999999
 21
248.377747
 31
0.0
  0
ARC
  5
BB95
330
B935
100
AcDbEntity
  8
1
  6
Continuous
100
AcDbCircle
 10
153.3663439999999
 20
221.222741
 30
0.0
 40
11.5
100
AcDbArc
 50
126.7532799999999
 51
274.1184099999999
  0
ARC
  5
BB96
330
B935
100
AcDbEntity
  8
5
  6
PHANTOM
100
AcDbCircle
 10
162.993602
 20
231.1282579999999
 30
0.0
 40
14.939529
100
AcDbArc
 50
193.57967
 51
218.2506099999999
  0
ARC
  5
BB97
330
B935
100
AcDbEntity
  8
5
  6
PHANTOM
100
AcDbCircle
 10
159.446559
 20
225.443993
 30
0.0
 40
9.376015999999998
100
AcDbArc
 50
194.04088
 51
238.28162
  0
ARC
  5
BB98
330
B935
100
AcDbEntity
  8
5
  6
PHANTOM
100
AcDbCircle
 10
160.553874
 20
229.2048949999999
 30
0.0
 40
11.832833
100
AcDbArc
 50
218.2506099999999
 51
235.56686
  0
ARC
  5
BB99
330
B935
100
AcDbEntity
  8
1
  6
Continuous
100
AcDbCircle
 10
165.324062
 20
244.200112
 30
0.0
 40
14.939529
100
AcDbArc
 50
177.0796599999999
 51
201.7506099999999
  0
ARC
  5
BB9A
330
B935
100
AcDbEntity
  8
1
  6
Continuous
100
AcDbCircle
 10
162.4385479999999
 20
243.048871
 30
0.0
 40
11.832833
100
AcDbArc
 50
201.7506099999999
 51
219.0668599999999
  0
ARC
  5
BB9B
330
B935
100
AcDbEntity
  8
1
  6
Continuous
100
AcDbCircle
 10
160.3086659999999
 20
239.7573359999999
 30
0.0
 40
9.376015999999998
100
AcDbArc
 50
177.5408899999999
 51
221.7816200000001
  0
ARC
  5
BB9C
330
B935
100
AcDbEntity
  8
1
  6
Continuous
100
AcDbCircle
 10
159.266414
 20
213.322533
 30
0.0
 40
21.36022399999999
100
AcDbArc
 50
106.81413
 51
126.7948649999999
  0
LINE
  5
BB9D
330
B935
100
AcDbEntity
  8
5
  6
PHANTOM
100
AcDbLine
 10
148.471706
 20
227.6204949999999
 30
0.0
 11
147.589214
 21
230.9223279999999
 31
0.0
  0
ARC
  5
BB9E
330
B935
100
AcDbEntity
  8
5
  6
PHANTOM
100
AcDbCircle
 10
102.7603089999999
 20
221.2984169999999
 30
0.0
 40
45.850311
100
AcDbArc
 50
12.116412
 51
13.862037
  0
ARC
  5
BB9F
330
B935
100
AcDbEntity
  8
5
  6
PHANTOM
100
AcDbCircle
 10
156.3005479999999
 20
234.5106429999999
 30
0.0
 40
9.296041999999998
100
AcDbArc
 50
179.5564099999998
 51
193.8620399999999
  0
LINE
  5
BBA0
330
B935
100
AcDbEntity
  8
5
  6
PHANTOM
100
AcDbLine
 10
147.111522
 20
233.6671109999998
 30
0.0
 11
146.845172
 21
235.9516029999999
 31
0.0
  0
LINE
  5
BBA1
330
B935
100
AcDbEntity
  8
1
  6
Continuous
100
AcDbLine
 10
150.8170889999998
 20
251.145166
 30
0.0
 11
151.210544
 21
253.4112339999999
 31
0.0
  0
ARC
  5
BBA2
330
B935
100
AcDbEntity
  8
1
  6
Continuous
100
AcDbCircle
 10
104.7793689999999
 20
251.8822399999999
 30
0.0
 40
45.850311
100
AcDbArc
 50
355.6164099999999
 51
357.3620399999999
  0
ARC
  5
BBA3
330
B935
100
AcDbEntity
  8
1
  6
Continuous
100
AcDbCircle
 10
159.8672899999999
 20
249.3441359999999
 30
0.0
 40
9.296041999999998
100
AcDbArc
 50
163.0564099999998
 51
177.3620399999999
  0
LINE
  5
BBA4
330
B935
100
AcDbEntity
  8
1
  6
Continuous
100
AcDbLine
 10
172.7576709999999
 20
248.220689
 30
0.0
 11
173.786823
 21
245.7709299999999
 31
0.0
  0
LINE
  5
BBA5
330
B935
100
AcDbEntity
  8
1
  6
Continuous
100
AcDbLine
 10
203.4143559999999
 20
247.6327019999998
 30
0.0
 11
203.1824739999999
 21
245.648602
 31
0.0
  0
ARC
  5
BBA6
330
B935
100
AcDbEntity
  8
1
  6
Continuous
100
AcDbCircle
 10
207.7259629999999
 20
247.221204
 30
0.0
 40
4.807947999999998
100
AcDbArc
 50
163.71358
 51
201.2460599999999
  0
ARC
  5
BBA7
330
B935
100
AcDbEntity
  8
1
  6
Continuous
100
AcDbCircle
 10
45.58350899999999
 20
262.6253659999999
 30
0.0
 40
148.2797099999999
100
AcDbArc
 50
353.7905959999998
 51
354.99627
  0
ARC
  5
BBA8
330
B935
100
AcDbEntity
  8
1
  6
Continuous
100
AcDbCircle
 10
41.92117899999997
 20
283.2101989999999
 30
0.0
 40
155.69888
100
AcDbArc
 50
346.634874
 51
347.88306
  0
ARC
  5
BBA9
330
B935
100
AcDbEntity
  8
5
  6
PHANTOM
100
AcDbCircle
 10
194.362331
 20
246.0363089999999
 30
0.0
 40
3.621125
100
AcDbArc
 50
0.213582
 51
24.55412
  0
LINE
  5
BBAA
330
B935
100
AcDbEntity
  8
5
  6
PHANTOM
100
AcDbLine
 10
188.4935909999999
 20
246.459335
 30
0.0
 11
197.6559959999999
 21
247.5410759999999
 31
0.0
  0
ARC
  5
BBAB
330
B935
100
AcDbEntity
  8
1
  6
Continuous
100
AcDbCircle
 10
206.406246
 20
180.5330599999998
 30
0.0
 40
66.55304
100
AcDbArc
 50
102.80966
 51
105.7025
  0
ARC
  5
BBAC
330
B935
100
AcDbEntity
  8
1
  6
Continuous
100
AcDbCircle
 10
228.620021
 20
376.6171529999998
 30
0.0
 40
163.19777
100
AcDbArc
 50
247.66752
 51
257.7541899999999
  0
ARC
  5
BBAD
330
B935
100
AcDbEntity
  8
1
  6
Continuous
100
AcDbCircle
 10
208.565608
 20
253.317268
 30
0.0
 40
40.0
100
AcDbArc
 50
243.5478699999999
 51
273.2371
  0
ARC
  5
BBAE
330
B935
100
AcDbEntity
  8
1
  6
Continuous
100
AcDbCircle
 10
186.293109
 20
208.551926
 30
0.0
 40
10.0
100
AcDbArc
 50
63.54786800000001
 51
95.21480399999999
  0
ARC
  5
BBAF
330
B935
100
AcDbEntity
  8
5
  6
PHANTOM
100
AcDbCircle
 10
186.0745419999998
 20
376.0693529999999
 30
0.0
 40
163.19777
100
AcDbArc
 50
264.16751
 51
274.2541899999998
  0
ARC
  5
BBB0
330
B935
100
AcDbEntity
  8
1
  6
Continuous
100
AcDbCircle
 10
212.3055759999998
 20
359.7939929999999
 30
0.0
 40
143.0878099999999
100
AcDbArc
 50
252.28302
 51
259.10244
  0
ARC
  5
BBB1
330
B935
100
AcDbEntity
  8
1
  6
Continuous
100
AcDbCircle
 10
191.6716949999998
 20
149.6198859999998
 30
0.0
 40
69.176979
100
AcDbArc
 50
95.21480399999999
 51
116.3888
  0
ARC
  5
BBB2
330
B935
100
AcDbEntity
  8
5
  6
PHANTOM
100
AcDbCircle
 10
175.2099719999999
 20
355.305423
 30
0.0
 40
143.0878099999999
100
AcDbArc
 50
268.7830099999998
 51
275.60244
  0
ARC
  5
BBB3
330
B935
100
AcDbEntity
  8
1
  6
Continuous
100
AcDbCircle
 10
178.106197
 20
247.512948
 30
0.0
 40
4.657426
100
AcDbArc
 50
201.96431
 51
250.65271
  0
ARC
  5
BBB4
330
B935
100
AcDbEntity
  8
5
  6
PHANTOM
100
AcDbCircle
 10
174.416133
 20
240.099709
 30
0.0
 40
6.824819999999997
100
AcDbArc
 50
267.1526999999999
 51
294.41348
  0
ARC
  5
BBB5
330
B935
100
AcDbEntity
  8
5
  6
PHANTOM
100
AcDbCircle
 10
174.3084669999998
 20
237.93499
 30
0.0
 40
4.657426
100
AcDbArc
 50
218.46431
 51
267.1526999999999
  0
LINE
  5
BBB6
330
B935
100
AcDbEntity
  8
5
  6
PHANTOM
100
AcDbLine
 10
168.979198
 20
237.0945289999999
 30
0.0
 11
170.6617349999999
 21
235.037947
 31
0.0
  0
LINE
  5
BBB7
330
B935
100
AcDbEntity
  8
5
  6
PHANTOM
100
AcDbLine
 10
169.080173
 20
236.22842
 30
0.0
 11
168.813827
 21
238.512892
 31
0.0
  0
ARC
  5
BBB8
330
B935
100
AcDbEntity
  8
1
  6
Continuous
100
AcDbCircle
 10
170.8277089999999
 20
307.0865309999998
 30
0.0
 40
64.906509
100
AcDbArc
 50
277.91348
 51
285.70251
  0
ARC
  5
BBB9
330
B935
100
AcDbEntity
  8
1
  6
Continuous
100
AcDbCircle
 10
178.824245
 20
249.5579419999998
 30
0.0
 40
6.824819999999997
100
AcDbArc
 50
250.65271
 51
277.91348
  0
ARC
  5
BBBA
330
B935
100
AcDbEntity
  8
5
  6
PHANTOM
100
AcDbCircle
 10
42.950939
 20
214.786598
 30
0.0
 40
148.2797099999999
100
AcDbArc
 50
10.036237
 51
11.49626799999998
  0
ARC
  5
BBBB
330
B935
100
AcDbEntity
  8
5
  6
PHANTOM
100
AcDbCircle
 10
220.4664339999999
 20
181.751001
 30
0.0
 40
66.55304
100
AcDbArc
 50
119.30966
 51
122.2025099999999
  0
ARC
  5
BBBC
330
B935
100
AcDbEntity
  8
5
  6
PHANTOM
100
AcDbCircle
 10
185.700984
 20
243.6778379999998
 30
0.0
 40
4.465050999999998
100
AcDbArc
 50
299.30966
 51
319.96476
  0
ARC
  5
BBBD
330
B935
100
AcDbEntity
  8
5
  6
PHANTOM
100
AcDbCircle
 10
150.4098919999998
 20
292.988112
 30
0.0
 40
64.906509
100
AcDbArc
 50
294.41348
 51
302.2024999999998
  0
ARC
  5
BBBE
330
B935
100
AcDbEntity
  8
5
  6
PHANTOM
100
AcDbCircle
 10
178.828945
 20
246.4699759999998
 30
0.0
 40
9.664652
100
AcDbArc
 50
347.2642299999998
 51
359.93691
  0
ARC
  5
BBBF
330
B935
100
AcDbEntity
  8
5
  6
PHANTOM
100
AcDbCircle
 10
33.593029
 20
233.4835899999999
 30
0.0
 40
155.69888
100
AcDbArc
 50
2.695447999999998
 51
4.383064
  0
ARC
  5
BBC0
330
B935
100
AcDbEntity
  8
5
  6
PHANTOM
100
AcDbCircle
 10
186.3856769999999
 20
245.194913
 30
0.0
 40
2.458061999999999
100
AcDbArc
 50
4.383064
 51
30.95727899999998
  0
LINE
  5
BBC1
330
B935
100
AcDbEntity
  8
5
  6
PHANTOM
100
AcDbLine
 10
218.378939
 20
246.198108
 30
0.0
 11
221.934819
 21
215.6986559999999
 31
0.0
  0
ARC
  5
BBC2
330
B935
100
AcDbEntity
  8
1
  6
Continuous
100
AcDbCircle
 10
289.30709
 20
656.2235829999997
 30
0.0
 40
449.3142999999998
100
AcDbArc
 50
257.7541899999999
 51
260.46011
  0
ARC
  5
BBC3
330
B935
100
AcDbEntity
  8
5
  6
PHANTOM
100
AcDbCircle
 10
164.849986
 20
661.3975629999997
 30
0.0
 40
449.3142999999998
100
AcDbArc
 50
274.2541899999998
 51
276.9601
  0
LINE
  5
BBC4
330
B935
100
AcDbEntity
  8
1
  6
Continuous
100
AcDbLine
 10
214.8402879999999
 20
213.123093
 30
0.0
 11
216.4091169999999
 21
212.80312
 31
0.0
  0
ARC
  5
BBC5
330
B935
100
AcDbEntity
  8
1
  6
Continuous
100
AcDbCircle
 10
217.4681119999999
 20
216.814285
 30
0.0
 40
4.148610999999998
100
AcDbArc
 50
255.21079
 51
274.2280099999999
  0
ARC
  5
BBC6
330
B935
100
AcDbEntity
  8
1
  6
Continuous
100
AcDbCircle
 10
212.2982359999999
 20
187.321238
 30
0.0
 40
26.101501
100
AcDbArc
 50
88.10390099999997
 51
93.237109
  0
ARC
  5
BBC7
330
B935
100
AcDbEntity
  8
5
  6
PHANTOM
100
AcDbCircle
 10
220.768337
 20
219.6799019999999
 30
0.0
 40
4.148610999999998
100
AcDbArc
 50
271.7107899999999
 51
290.7280099999999
  0
LINE
  5
BBC8
330
B935
100
AcDbEntity
  8
5
  6
PHANTOM
100
AcDbLine
 10
219.2970939999999
 20
215.3943649999999
 30
0.0
 11
220.892189
 21
215.53314
 31
0.0
  0
ARC
  5
BBC9
330
B935
100
AcDbEntity
  8
1
  6
Continuous
100
AcDbCircle
 10
216.66563
 20
366.7242529999999
 30
0.0
 40
121.98586
100
AcDbArc
 50
263.68355
 51
266.9217699999999
  0
ARC
  5
BBCA
330
B935
100
AcDbEntity
  8
5
  6
PHANTOM
100
AcDbCircle
 10
225.114116
 20
163.335768
 30
0.0
 40
83.478699
100
AcDbArc
 50
98.84650399999999
 51
103.42178
  0
ARC
  5
BBCB
330
B935
100
AcDbEntity
  8
1
  6
Continuous
100
AcDbCircle
 10
189.4648039999999
 20
249.3231919999999
 30
0.0
 40
4.465050999999998
100
AcDbArc
 50
299.30966
 51
331.8913529999999
  0
ARC
  5
BBCC
330
B935
100
AcDbEntity
  8
5
  6
PHANTOM
100
AcDbCircle
 10
177.422176
 20
363.1886129999998
 30
0.0
 40
121.98586
100
AcDbArc
 50
280.18356
 51
283.4217799999998
  0
ARC
  5
BBCD
330
B935
100
AcDbEntity
  8
5
  6
PHANTOM
100
AcDbCircle
 10
203.894206
 20
248.412915
 30
0.0
 40
6.21023
100
AcDbArc
 50
195.72791
 51
210.67112
  0
ARC
  5
BBCE
330
B935
100
AcDbEntity
  8
5
  6
PHANTOM
100
AcDbCircle
 10
202.791347
 20
246.067731
 30
0.0
 40
4.807947999999998
100
AcDbArc
 50
180.2135899999999
 51
217.7460499999999
  0
LINE
  5
BBCF
330
B935
100
AcDbEntity
  8
5
  6
PHANTOM
100
AcDbLine
 10
198.540424
 20
245.2377219999999
 30
0.0
 11
198.8816059999998
 21
243.2694689999999
 31
0.0
  0
ARC
  5
BBD0
330
B935
100
AcDbEntity
  8
1
  6
Continuous
100
AcDbCircle
 10
205.632327
 20
161.556151
 30
0.0
 40
83.478699
100
AcDbArc
 50
82.346502
 51
86.92178
  0
ARC
  5
BBD1
330
B935
100
AcDbEntity
  8
5
  6
PHANTOM
100
AcDbCircle
 10
225.616443
 20
283.9172189999998
 30
0.0
 40
38.374275
100
AcDbArc
 50
258.9579899999999
 51
261.25671
  0
ARC
  5
BBD2
330
B935
100
AcDbEntity
  8
5
  6
PHANTOM
100
AcDbCircle
 10
217.886104
 20
209.776527
 30
0.0
 40
36.478828
100
AcDbArc
 50
89.40225799999996
 51
98.84650399999999
  0
LINE
  5
BBD3
330
B935
100
AcDbEntity
  8
1
  6
Continuous
100
AcDbLine
 10
172.608505
 20
247.361567
 30
0.0
 11
173.001956
 21
249.627612
 31
0.0
  0
LINE
  5
BBD4
330
B935
100
AcDbEntity
  8
1
  6
Continuous
100
AcDbLine
 10
194.1282149999999
 20
251.6574609999999
 30
0.0
 11
203.220539
 21
250.0923919999999
 31
0.0
  0
ARC
  5
BBD5
330
B935
100
AcDbEntity
  8
1
  6
Continuous
100
AcDbCircle
 10
191.7479889999999
 20
251.0437889999999
 30
0.0
 40
2.458061999999999
100
AcDbArc
 50
347.88306
 51
14.457279
  0
ARC
  5
BBD6
330
B935
100
AcDbEntity
  8
1
  6
Continuous
100
AcDbCircle
 10
184.8645809999999
 20
254.412575
 30
0.0
 40
9.664652
100
AcDbArc
 50
330.7642299999999
 51
343.43691
  0
ARC
  5
BBD7
330
B935
100
AcDbEntity
  8
1
  6
Continuous
100
AcDbCircle
 10
199.6351349999999
 20
249.585046
 30
0.0
 40
3.621125
100
AcDbArc
 50
343.71358
 51
8.054121
  0
ARC
  5
BBD8
330
B935
100
AcDbEntity
  8
1
  6
Continuous
100
AcDbCircle
 10
209.449474
 20
249.156587
 30
0.0
 40
6.21023
100
AcDbArc
 50
179.2279199999999
 51
194.17113
  0
LINE
  5
BBD9
330
B935
100
AcDbEntity
  8
1
  6
Continuous
100
AcDbLine
 10
203.220552
 20
423.9887
 30
0.0
 11
220.7021549999998
 21
423.9887
 31
0.0
  0
LINE
  5
BBDA
330
B935
100
AcDbEntity
  8
1
  6
Continuous
100
AcDbLine
 10
332.3782239999999
 20
211.7288049999999
 30
0.0
 11
332.3782239999999
 21
233.398795
 31
0.0
  0
LINE
  5
BBDB
330
B935
100
AcDbEntity
  8
1
  6
Continuous
100
AcDbLine
 10
337.0260229999999
 20
252.4194049999999
 30
0.0
 11
337.0260229999999
 21
209.7227349999998
 31
0.0
  0
LINE
  5
BBDC
330
B935
100
AcDbEntity
  8
1
  6
Continuous
100
AcDbLine
 10
336.526023
 20
252.4194049999999
 30
0.0
 11
336.526023
 21
209.7227349999998
 31
0.0
  0
LINE
  5
BBDD
330
B935
100
AcDbEntity
  8
1
  6
Continuous
100
AcDbLine
 10
338.2361949999999
 20
235.822865
 30
0.0
 11
338.2361949999999
 21
209.7227349999998
 31
0.0
  0
LINE
  5
BBDE
330
B935
100
AcDbEntity
  8
1
  6
Continuous
100
AcDbLine
 10
330.1121099999999
 20
211.7288049999999
 30
0.0
 11
330.1121099999999
 21
227.632575
 31
0.0
  0
ARC
  5
BBDF
330
B935
100
AcDbEntity
  8
1
  6
Continuous
100
AcDbCircle
 10
335.7361969999999
 20
213.695685
 30
0.0
 40
2.0
100
AcDbArc
 50
66.73944
 51
90.00000300000001
  0
ARC
  5
BBE0
330
B935
100
AcDbEntity
  8
1
  6
Continuous
100
AcDbCircle
 10
334.3782259999999
 20
217.6956849999999
 30
0.0
 40
2.0
100
AcDbArc
 50
180.0000029999999
 51
270.00001
  0
LINE
  5
BBE1
330
B935
100
AcDbEntity
  8
1
  6
Continuous
100
AcDbLine
 10
320.7015369999999
 20
212.0211349999999
 30
0.0
 11
320.7015369999999
 21
230.3664549999998
 31
0.0
  0
ARC
  5
BBE2
330
B935
100
AcDbEntity
  8
1
  6
Continuous
100
AcDbCircle
 10
259.374031
 20
102.1242109999999
 30
0.0
 40
9.0
100
AcDbArc
 50
10.178917
 51
27.485306
  0
ARC
  5
BBE3
330
B935
100
AcDbEntity
  8
1
  6
Continuous
100
AcDbCircle
 10
259.606758
 20
121.4501709999999
 30
0.0
 40
10.883919
100
AcDbArc
 50
0.0
 51
180.00001
  0
LINE
  5
BBE4
330
B935
100
AcDbEntity
  8
1
  6
Continuous
100
AcDbLine
 10
242.169922
 20
100.419931
 30
0.0
 11
271.766767
 21
101.630101
 31
0.0
  0
LINE
  5
BBE5
330
B935
100
AcDbEntity
  8
1
  6
Continuous
100
AcDbLine
 10
242.159703
 20
100.919931
 30
0.0
 11
271.7463389999999
 21
102.129671
 31
0.0
  0
LINE
  5
BBE6
330
B935
100
AcDbEntity
  8
1
  6
Continuous
100
AcDbLine
 10
243.793782
 20
106.277901
 30
0.0
 11
268.884141
 21
106.277901
 31
0.0
  0
LINE
  5
BBE7
330
B935
100
AcDbEntity
  8
1
  6
Continuous
100
AcDbLine
 10
243.793782
 20
108.5779009999999
 30
0.0
 11
269.490678
 21
108.5779009999999
 31
0.0
  0
ARC
  5
BBE8
330
B935
100
AcDbEntity
  8
1
  6
Continuous
100
AcDbCircle
 10
236.7387809999999
 20
113.6545909999999
 30
0.0
 40
2.0
100
AcDbArc
 50
11.499673
 51
100.4079299999998
  0
LINE
  5
BBE9
330
B935
100
AcDbEntity
  8
1
  6
Continuous
100
AcDbLine
 10
240.9524629999999
 20
114.5118509999999
 30
0.0
 11
241.8339299999999
 21
110.179161
 31
0.0
  0
LINE
  5
BBEA
330
B935
100
AcDbEntity
  8
1
  6
Continuous
100
AcDbLine
 10
246.205334
 20
114.5118509999999
 30
0.0
 11
247.0868009999998
 21
110.179161
 31
0.0
  0
LINE
  5
BBEB
330
B935
100
AcDbEntity
  8
1
  6
Continuous
100
AcDbLine
 10
248.7228389999999
 20
108.5779009999999
 30
0.0
 11
248.7228389999999
 21
121.4501709999999
 31
0.0
  0
ARC
  5
BBEC
330
B935
100
AcDbEntity
  8
1
  6
Continuous
100
AcDbCircle
 10
243.793782
 20
110.577901
 30
0.0
 40
2.0
100
AcDbArc
 50
191.49967
 51
270.0
  0
ARC
  5
BBED
330
B935
100
AcDbEntity
  8
1
  6
Continuous
100
AcDbCircle
 10
239.8874549999999
 20
105.919931
 30
0.0
 40
5.0
100
AcDbArc
 50
270.0
 51
316.9468399999999
  0
ARC
  5
BBEE
330
B935
100
AcDbEntity
  8
1
  6
Continuous
100
AcDbCircle
 10
243.793782
 20
110.577901
 30
0.0
 40
4.299999999999998
100
AcDbArc
 50
191.49967
 51
270.0
  0
ARC
  5
BBEF
330
B935
100
AcDbEntity
  8
1
  6
Continuous
100
AcDbCircle
 10
237.2363389999999
 20
102.919931
 30
0.0
 40
2.0
100
AcDbArc
 50
179.9999899999999
 51
270.0
  0
ARC
  5
BBF0
330
B935
100
AcDbEntity
  8
1
  6
Continuous
100
AcDbCircle
 10
225.2363389999999
 20
103.209521
 30
0.0
 40
10.0
100
AcDbArc
 50
0.0
 51
45.00000099999999
  0
ARC
  5
BBF1
330
B935
100
AcDbEntity
  8
1
  6
Continuous
100
AcDbCircle
 10
230.703525
 20
110.4702709999999
 30
0.0
 40
1.0
100
AcDbArc
 50
45.00000099999999
 51
120.72746
  0
LINE
  5
BBF2
330
B935
100
AcDbEntity
  8
1
  6
Continuous
100
AcDbLine
 10
235.2363399999999
 20
103.209521
 30
0.0
 11
235.2363399999999
 21
102.919931
 31
0.0
  0
LINE
  5
BBF3
330
B935
100
AcDbEntity
  8
1
  6
Continuous
100
AcDbLine
 10
238.698631
 20
114.053301
 30
0.0
 11
239.580098
 21
109.720631
 31
0.0
  0
LINE
  5
BBF4
330
B935
100
AcDbEntity
  8
1
  6
Continuous
100
AcDbLine
 10
231.410629
 20
111.177341
 30
0.0
 11
232.307395
 21
110.280581
 31
0.0
  0
ARC
  5
BBF5
330
B935
100
AcDbEntity
  8
1
  6
Continuous
100
AcDbCircle
 10
265.4626819999999
 20
82.026251
 30
0.0
 40
30.0
100
AcDbArc
 50
126.061235
 51
136.9468399999999
  0
ARC
  5
BBF6
330
B935
100
AcDbEntity
  8
1
  6
Continuous
100
AcDbCircle
 10
249.046649
 20
110.577901
 30
0.0
 40
2.0
100
AcDbArc
 50
191.49967
 51
270.0
  0
ARC
  5
BBF7
330
B935
100
AcDbEntity
  8
1
  6
Continuous
100
AcDbCircle
 10
241.9916499999999
 20
113.6545909999999
 30
0.0
 40
4.299999999999998
100
AcDbArc
 50
11.499673
 51
100.4079299999998
  0
ARC
  5
BBF8
330
B935
100
AcDbEntity
  8
1
  6
Continuous
100
AcDbCircle
 10
236.7387809999999
 20
113.6545909999999
 30
0.0
 40
4.299999999999998
100
AcDbArc
 50
11.499673
 51
100.4079299999998
  0
LINE
  5
BBF9
330
B935
100
AcDbEntity
  8
1
  6
Continuous
100
AcDbLine
 10
236.7387809999999
 20
117.9545909999998
 30
0.0
 11
241.9916499999999
 21
117.9545909999998
 31
0.0
  0
LINE
  5
BBFA
330
B935
100
AcDbEntity
  8
1
  6
Continuous
100
AcDbLine
 10
270.884141
 20
108.277901
 30
0.0
 11
270.884141
 21
121.4501709999999
 31
0.0
  0
LINE
  5
BBFB
330
B935
100
AcDbEntity
  8
1
  6
Continuous
100
AcDbLine
 10
270.4906779999999
 20
109.577901
 30
0.0
 11
270.4906779999999
 21
121.4501709999999
 31
0.0
  0
ARC
  5
BBFC
330
B935
100
AcDbEntity
  8
1
  6
Continuous
100
AcDbCircle
 10
270.2008989999999
 20
104.0681709999998
 30
0.0
 40
2.0
100
AcDbArc
 50
190.1789199999998
 51
272.3414299999999
  0
ARC
  5
BBFD
330
B935
100
AcDbEntity
  8
1
  6
Continuous
100
AcDbCircle
 10
269.490678
 20
109.577901
 30
0.0
 40
1.0
100
AcDbArc
 50
270.0
 51
0.0
  0
ARC
  5
BBFE
330
B935
100
AcDbEntity
  8
1
  6
Continuous
100
AcDbCircle
 10
268.884141
 20
108.277901
 30
0.0
 40
2.0
100
AcDbArc
 50
270.0
 51
0.0
  0
LINE
  5
BBFF
330
B935
100
AcDbEntity
  8
1
  6
Continuous
100
AcDbLine
 10
271.7463389999999
 20
102.129671
 30
0.0
 11
271.766767
 21
101.630101
 31
0.0
  0
ARC
  5
BC00
330
B935
100
AcDbEntity
  8
1
  6
Continuous
100
AcDbCircle
 10
260.0002209999999
 20
121.4501709999999
 30
0.0
 40
10.883919
100
AcDbArc
 50
0.0
 51
91.035705
  0
ARC
  5
BC01
330
B935
100
AcDbEntity
  8
1
  6
Continuous
100
AcDbCircle
 10
321.7015369999999
 20
212.0211349999999
 30
0.0
 40
1.0
100
AcDbArc
 50
180.0000029999999
 51
274.8533699999999
  0
LINE
  5
BC02
330
B935
100
AcDbEntity
  8
1
  6
Continuous
100
AcDbLine
 10
338.2361949999999
 20
209.7227349999998
 30
0.0
 11
336.526023
 21
209.7227349999998
 31
0.0
  0
LINE
  5
BC03
330
B935
100
AcDbEntity
  8
1
  6
Continuous
100
AcDbLine
 10
321.786144
 20
211.0247049999999
 30
0.0
 11
330.0782239999999
 21
211.728795
 31
0.0
  0
LINE
  5
BC04
330
B935
100
AcDbEntity
  8
1
  6
Continuous
100
AcDbLine
 10
330.0782229999999
 20
211.7288049999999
 30
0.0
 11
332.3782239999999
 21
211.7288049999999
 31
0.0
  0
LINE
  5
BC05
330
B935
100
AcDbEntity
  8
1
  6
Continuous
100
AcDbLine
 10
238.1056029999998
 20
234.5829179999999
 30
0.0
 11
253.3688479999999
 21
249.4529029999999
 31
0.0
  0
ARC
  5
BC06
330
B935
100
AcDbEntity
  8
1
  6
Continuous
100
AcDbCircle
 10
259.006339
 20
239.482739
 30
0.0
 40
9.0
100
AcDbArc
 50
318.5396299999998
 51
138.74191
  0
ARC
  5
BC07
330
B935
100
AcDbEntity
  8
1
  6
Continuous
100
AcDbCircle
 10
260.2127679999999
 20
240.8858449999999
 30
0.0
 40
11.53356999999999
100
AcDbArc
 50
317.00515
 51
74.245632
  0
LINE
  5
BC08
330
B935
100
AcDbEntity
  8
5
  6
PHANTOM
100
AcDbLine
 10
267.758399
 20
247.733214
 30
0.0
 11
245.8135179999999
 21
245.1746949999999
 31
0.0
  0
LINE
  5
BC09
330
B935
100
AcDbEntity
  8
5
  6
PHANTOM
100
AcDbLine
 10
268.232189
 20
245.953181
 30
0.0
 11
267.6737549999999
 21
248.4592129999998
 31
0.0
  0
LINE
  5
BC0A
330
B935
100
AcDbEntity
  8
5
  6
PHANTOM
100
AcDbLine
 10
245.8266609999999
 20
245.062
 30
0.0
 11
245.547174
 21
247.4592149999998
 31
0.0
  0
LINE
  5
BC0B
330
B935
100
AcDbEntity
  8
1
  6
Continuous
100
AcDbLine
 10
249.116296
 20
236.412081
 30
0.0
 11
270.8841389999999
 21
232.632573
 31
0.0
  0
ARC
  5
BC0C
330
B935
100
AcDbEntity
  8
1
  6
Continuous
100
AcDbCircle
 10
241.472225
 20
252.8136439999999
 30
0.0
 40
40.555782
100
AcDbArc
 50
278.45716
 51
295.54208
  0
LINE
  5
BC0D
330
B935
100
AcDbEntity
  8
1
  6
Continuous
100
AcDbLine
 10
270.4906799999998
 20
230.3664649999999
 30
0.0
 11
248.7228389999999
 21
234.1459889999999
 31
0.0
  0
ARC
  5
BC0E
330
B935
100
AcDbEntity
  8
5
  6
PHANTOM
100
AcDbCircle
 10
233.559589
 20
261.0143279999999
 30
0.0
 40
40.555782
100
AcDbArc
 50
294.95716
 51
312.04208
  0
LINE
  5
BC0F
330
B935
100
AcDbEntity
  8
1
  6
Continuous
100
AcDbLine
 10
245.559028
 20
231.306921
 30
0.0
 11
242.159703
 21
211.7288
 31
0.0
  0
LINE
  5
BC10
330
B935
100
AcDbEntity
  8
5
  6
PHANTOM
100
AcDbLine
 10
243.5863349999999
 20
241.5539719999999
 30
0.0
 11
245.887479
 21
221.816629
 31
0.0
  0
ARC
  5
BC11
330
B935
100
AcDbEntity
  8
1
  6
Continuous
100
AcDbCircle
 10
236.31039
 20
236.571793
 30
0.0
 40
25.520075
100
AcDbArc
 50
267.67719
 51
282.5895899999998
  0
ARC
  5
BC12
330
B935
100
AcDbEntity
  8
1
  6
Continuous
100
AcDbCircle
 10
234.2163419999998
 20
227.72274
 30
0.0
 40
18.0
100
AcDbArc
 50
257.88608
 51
288.33201
  0
ARC
  5
BC13
330
B935
100
AcDbEntity
  8
1
  6
Continuous
100
AcDbCircle
 10
258.9786559999998
 20
135.073225
 30
0.0
 40
78.47901199999999
100
AcDbArc
 50
98.457156
 51
102.58959
  0
ARC
  5
BC14
330
B935
100
AcDbEntity
  8
1
  6
Continuous
100
AcDbCircle
 10
227.3470569999998
 20
248.454675
 30
0.0
 40
39.84033199999999
100
AcDbArc
 50
288.33201
 51
293.753979
  0
ARC
  5
BC15
330
B935
100
AcDbEntity
  8
5
  6
PHANTOM
100
AcDbCircle
 10
283.78519
 20
153.094587
 30
0.0
 40
78.47901199999999
100
AcDbArc
 50
114.95717
 51
119.0895899999999
  0
ARC
  5
BC16
330
B935
100
AcDbEntity
  8
5
  6
PHANTOM
100
AcDbCircle
 10
233.223262
 20
243.9752819999999
 30
0.0
 40
25.520075
100
AcDbArc
 50
284.1772
 51
299.0896
  0
ARC
  5
BC17
330
B935
100
AcDbEntity
  8
1
  6
Continuous
100
AcDbCircle
 10
104.8771889999998
 20
8.342113000000001
 30
0.0
 40
262.5541999999999
100
AcDbArc
 50
58.430438
 51
63.01923900000001
  0
ARC
  5
BC18
330
B935
100
AcDbEntity
  8
1
  6
Continuous
100
AcDbCircle
 10
240.3609499999999
 20
277.0293639999998
 30
0.0
 40
38.374275
100
AcDbArc
 50
242.45799
 51
244.7567200000001
  0
ARC
  5
BC19
330
B935
100
AcDbEntity
  8
1
  6
Continuous
100
AcDbCircle
 10
244.8450039999999
 20
235.574677
 30
0.0
 40
4.327073999999998
100
AcDbArc
 50
238.36829
 51
298.99679
  0
LINE
  5
BC1A
330
B935
100
AcDbEntity
  8
1
  6
Continuous
100
AcDbLine
 10
248.7034279999999
 20
234.034202
 30
0.0
 11
249.1162939999999
 21
236.4120769999999
 31
0.0
  0
ARC
  5
BC1B
330
B935
100
AcDbEntity
  8
1
  6
Continuous
100
AcDbCircle
 10
245.164695
 20
234.9978679999999
 30
0.0
 40
3.667600999999999
100
AcDbArc
 50
298.99679
 51
344.7665799999999
  0
ARC
  5
BC1C
330
B935
100
AcDbEntity
  8
1
  6
Continuous
100
AcDbCircle
 10
289.8279529999999
 20
212.445206
 30
0.0
 40
50.0
100
AcDbArc
 50
138.74191
 51
157.6752699999999
  0
ARC
  5
BC1D
330
B935
100
AcDbEntity
  8
5
  6
PHANTOM
100
AcDbCircle
 10
241.6896089999999
 20
245.4431889999999
 30
0.0
 40
4.327073999999998
100
AcDbArc
 50
254.86829
 51
315.4967899999999
  0
ARC
  5
BC1E
330
B935
100
AcDbEntity
  8
5
  6
PHANTOM
100
AcDbCircle
 10
164.9608259999999
 20
-38.414747
 30
0.0
 40
289.71823
100
AcDbArc
 50
74.87402900000002
 51
74.93044000000002
  0
ARC
  5
BC1F
330
B935
100
AcDbEntity
  8
5
  6
PHANTOM
100
AcDbCircle
 10
242.1599539999998
 20
244.980931
 30
0.0
 40
3.667600999999999
100
AcDbArc
 50
315.4967899999999
 51
1.266575999999999
  0
ARC
  5
BC20
330
B935
100
AcDbEntity
  8
1
  6
Continuous
100
AcDbCircle
 10
249.035121
 20
236.987629
 30
0.0
 40
23.015539
100
AcDbArc
 50
295.54208
 51
338.4279899999999
  0
LINE
  5
BC21
330
B935
100
AcDbEntity
  8
1
  6
Continuous
100
AcDbLine
 10
270.4394029999999
 20
228.52517
 30
0.0
 11
270.615718
 21
231.0866059999999
 31
0.0
  0
ARC
  5
BC22
330
B935
100
AcDbEntity
  8
5
  6
PHANTOM
100
AcDbCircle
 10
245.305877
 20
247.9880109999998
 30
0.0
 40
23.015539
100
AcDbArc
 50
312.04208
 51
354.9279899999998
  0
LINE
  5
BC23
330
B935
100
AcDbEntity
  8
1
  6
Continuous
100
AcDbLine
 10
270.490676
 20
230.3664599999999
 30
0.0
 11
270.884136
 21
232.6325509999998
 31
0.0
  0
ARC
  5
BC24
330
B935
100
AcDbEntity
  8
1
  6
Continuous
100
AcDbCircle
 10
260.550136
 20
242.081704
 30
0.0
 40
10.291035
100
AcDbArc
 50
74.245632
 51
134.2523
  0
LINE
  5
BC25
330
B935
100
AcDbEntity
  8
5
  6
PHANTOM
100
AcDbLine
 10
245.5471699999999
 20
247.459225
 30
0.0
 11
267.492046
 21
250.0177589999999
 31
0.0
  0
LINE
  5
BC26
330
B935
100
AcDbEntity
  8
5
  6
PHANTOM
100
AcDbLine
 10
267.758399
 20
247.733215
 30
0.0
 11
267.492053
 21
250.017737
 31
0.0
  0
LINE
  5
BC27
330
B935
100
AcDbEntity
  8
1
  6
Continuous
100
AcDbLine
 10
324.1032259999998
 20
249.631745
 30
0.0
 11
316.8220359999999
 21
249.631745
 31
0.0
  0
LINE
  5
BC28
330
B935
100
AcDbEntity
  8
1
  6
Continuous
100
AcDbLine
 10
324.4816329999999
 20
247.365635
 30
0.0
 11
316.8220359999999
 21
247.365635
 31
0.0
  0
LINE
  5
BC29
330
B935
100
AcDbEntity
  8
1
  6
Continuous
100
AcDbLine
 10
327.378224
 20
236.4120849999999
 30
0.0
 11
316.823816
 21
236.4120849999999
 31
0.0
  0
LINE
  5
BC2A
330
B935
100
AcDbEntity
  8
1
  6
Continuous
100
AcDbLine
 10
327.378224
 20
232.632575
 30
0.0
 11
316.823816
 21
232.632575
 31
0.0
  0
LINE
  5
BC2B
330
B935
100
AcDbEntity
  8
1
  6
Continuous
100
AcDbLine
 10
327.378224
 20
230.3664549999998
 30
0.0
 11
316.823816
 21
230.3664549999998
 31
0.0
  0
LINE
  5
BC2C
330
B935
100
AcDbEntity
  8
1
  6
Continuous
100
AcDbLine
 10
323.766343
 20
253.4104849999999
 30
0.0
 11
316.8220359999999
 21
253.4104849999999
 31
0.0
  0
ARC
  5
BC2D
330
B935
100
AcDbEntity
  8
1
  6
Continuous
100
AcDbCircle
 10
307.3691
 20
232.2562149999999
 30
0.0
 40
1.045285
100
AcDbArc
 50
180.0000029999999
 51
259.80144
  0
ARC
  5
BC2E
330
B935
100
AcDbEntity
  8
1
  6
Continuous
100
AcDbCircle
 10
316.823816
 20
284.810905
 30
0.0
 40
54.44366099999999
100
AcDbArc
 50
259.80144
 51
269.9999899999999
  0
LINE
  5
BC2F
330
B935
100
AcDbEntity
  8
1
  6
Continuous
100
AcDbLine
 10
306.323816
 20
234.522325
 30
0.0
 11
306.323816
 21
232.2562149999999
 31
0.0
  0
ARC
  5
BC30
330
B935
100
AcDbEntity
  8
1
  6
Continuous
100
AcDbCircle
 10
307.3691
 20
234.522325
 30
0.0
 40
1.045285
100
AcDbArc
 50
100.1985609999999
 51
259.80144
  0
ARC
  5
BC31
330
B935
100
AcDbEntity
  8
1
  6
Continuous
100
AcDbCircle
 10
316.823816
 20
181.9676349999998
 30
0.0
 40
54.44366099999999
100
AcDbArc
 50
90.00000300000001
 51
100.1985609999999
  0
ARC
  5
BC32
330
B935
100
AcDbEntity
  8
1
  6
Continuous
100
AcDbCircle
 10
316.823816
 20
287.077015
 30
0.0
 40
54.44366099999999
100
AcDbArc
 50
259.80144
 51
269.9999899999999
  0
ARC
  5
BC33
330
B935
100
AcDbEntity
  8
1
  6
Continuous
100
AcDbCircle
 10
316.8220359999999
 20
301.8100749999998
 30
0.0
 40
54.44366099999999
100
AcDbArc
 50
259.80144
 51
269.9999899999999
  0
LINE
  5
BC34
330
B935
100
AcDbEntity
  8
1
  6
Continuous
100
AcDbLine
 10
306.3220379999999
 20
249.255395
 30
0.0
 11
306.3220379999999
 21
251.521505
 31
0.0
  0
ARC
  5
BC35
330
B935
100
AcDbEntity
  8
1
  6
Continuous
100
AcDbCircle
 10
316.8220359999999
 20
198.9668149999999
 30
0.0
 40
54.44366099999999
100
AcDbArc
 50
90.00000300000001
 51
100.1985609999999
  0
ARC
  5
BC36
330
B935
100
AcDbEntity
  8
1
  6
Continuous
100
AcDbCircle
 10
307.3673219999998
 20
249.255395
 30
0.0
 40
1.045285
100
AcDbArc
 50
180.0000029999999
 51
259.80144
  0
ARC
  5
BC37
330
B935
100
AcDbEntity
  8
1
  6
Continuous
100
AcDbCircle
 10
307.3673219999998
 20
251.521505
 30
0.0
 40
1.045285
100
AcDbArc
 50
100.1985609999999
 51
259.80144
  0
ARC
  5
BC38
330
B935
100
AcDbEntity
  8
1
  6
Continuous
100
AcDbCircle
 10
316.8220359999999
 20
304.0761949999999
 30
0.0
 40
54.44366099999999
100
AcDbArc
 50
259.80144
 51
269.9999899999999
  0
ARC
  5
BC39
330
B935
100
AcDbEntity
  8
1
  6
Continuous
100
AcDbCircle
 10
349.3013179999999
 20
248.4735649999998
 30
0.0
 40
22.66362
100
AcDbArc
 50
198.30912
 51
230.01768
  0
LINE
  5
BC3A
330
B935
100
AcDbEntity
  8
1
  6
Continuous
100
AcDbLine
 10
337.026024
 20
252.4194049999999
 30
0.0
 11
338.2361949999999
 21
235.822865
 31
0.0
  0
ARC
  5
BC3B
330
B935
100
AcDbEntity
  8
1
  6
Continuous
100
AcDbCircle
 10
340.519257
 20
224.1096049999999
 30
0.0
 40
20.0
100
AcDbArc
 50
132.0325369999999
 51
142.039099
  0
ARC
  5
BC3C
330
B935
100
AcDbEntity
  8
1
  6
Continuous
100
AcDbCircle
 10
340.519257
 20
224.1096049999999
 30
0.0
 40
21.51306299999999
100
AcDbArc
 50
130.6239009999998
 51
145.1199369999999
  0
ARC
  5
BC3D
330
B935
100
AcDbEntity
  8
1
  6
Continuous
100
AcDbCircle
 10
327.378224
 20
231.412065
 30
0.0
 40
5.0
100
AcDbArc
 50
0.0
 51
90.00000300000001
  0
ARC
  5
BC3E
330
B935
100
AcDbEntity
  8
1
  6
Continuous
100
AcDbCircle
 10
327.378224
 20
227.632575
 30
0.0
 40
5.0
100
AcDbArc
 50
0.0
 51
90.00000300000001
  0
LINE
  5
BC3F
330
B935
100
AcDbEntity
  8
1
  6
Continuous
100
AcDbLine
 10
334.3782259999999
 20
215.6956849999999
 30
0.0
 11
335.7361969999999
 21
215.6956849999999
 31
0.0
  0
ARC
  5
BC40
330
B935
100
AcDbEntity
  8
1
  6
Continuous
100
AcDbCircle
 10
327.378224
 20
227.632575
 30
0.0
 40
2.733886999999998
100
AcDbArc
 50
0.0
 51
90.00000300000001
  0
ARC
  5
BC41
330
B935
100
AcDbEntity
  8
1
  6
Continuous
100
AcDbCircle
 10
331.526023
 20
227.2765049999999
 30
0.0
 40
5.0
100
AcDbArc
 50
0.0
 51
51.07577
  0
ARC
  5
BC42
330
B935
100
AcDbEntity
  8
1
  6
Continuous
100
AcDbCircle
 10
332.5319099999999
 20
242.924645
 30
0.0
 40
5.0
100
AcDbArc
 50
104.446617
 51
198.3091
  0
LINE
  5
BC43
330
B935
100
AcDbEntity
  8
1
  6
Continuous
100
AcDbLine
 10
336.526023
 20
250.092395
 30
0.0
 11
335.457847
 21
250.092395
 31
0.0
  0
LINE
  5
BC44
330
B935
100
AcDbEntity
  8
1
  6
Continuous
100
AcDbLine
 10
336.526023
 20
251.6574549999999
 30
0.0
 11
335.456278
 21
251.6574549999999
 31
0.0
  0
LINE
  5
BC45
330
B935
100
AcDbEntity
  8
1
  6
Continuous
100
AcDbLine
 10
337.0260229999999
 20
252.4194049999999
 30
0.0
 11
336.526023
 21
252.4194049999999
 31
0.0
  0
LINE
  5
BC46
330
B935
100
AcDbEntity
  8
1
  6
Continuous
100
AcDbLine
 10
331.2845229999999
 20
247.7665449999999
 30
0.0
 11
335.065158
 21
248.740525
 31
0.0
  0
ARC
  5
BC47
330
B935
100
AcDbEntity
  8
1
  6
Continuous
100
AcDbCircle
 10
334.5662019999999
 20
250.6772949999999
 30
0.0
 40
2.0
100
AcDbArc
 50
284.44661
 51
348.4958999999999
  0
LINE
  5
BC48
330
B935
100
AcDbEntity
  8
1
  6
Continuous
100
AcDbLine
 10
216.2363519999999
 20
419.6887
 30
0.0
 11
216.2363519999999
 21
421.1886999999999
 31
0.0
  0
LINE
  5
BC49
330
B935
100
AcDbEntity
  8
1
  6
Continuous
100
AcDbLine
 10
202.236352
 20
419.6887
 30
0.0
 11
202.236352
 21
421.1886999999999
 31
0.0
  0
LINE
  5
BC4A
330
B935
100
AcDbEntity
  8
1
  6
Continuous
100
AcDbLine
 10
216.2363519999999
 20
419.6887
 30
0.0
 11
202.236352
 21
419.6887
 31
0.0
  0
LINE
  5
BC4B
330
B935
100
AcDbEntity
  8
1
  6
Continuous
100
AcDbLine
 10
94.74338000000001
 20
232.8277529999998
 30
0.0
 11
93.94338000000001
 21
233.6277529999999
 31
0.0
  0
LINE
  5
BC4C
330
B935
100
AcDbEntity
  8
2
  6
Continuous
100
AcDbLine
 10
94.61988000000003
 20
232.9512529999998
 30
0.0
 11
93.860562
 21
232.9512529999998
 31
0.0
  0
ARC
  5
BC4D
330
B935
100
AcDbEntity
  8
1
  6
Continuous
100
AcDbCircle
 10
212.2363519999999
 20
423.3537639999998
 30
0.0
 40
8.665063999999999
100
AcDbArc
 50
249.7438419999999
 51
290.256158
  0
LINE
  5
BC4E
330
B935
100
AcDbEntity
  8
1
  6
Continuous
100
AcDbLine
 10
205.236352
 20
414.605882
 30
0.0
 11
213.236352
 21
414.605882
 31
0.0
  0
LINE
  5
BC4F
330
B935
100
AcDbEntity
  8
1
  6
Continuous
100
AcDbLine
 10
212.436352
 20
413.805882
 30
0.0
 11
206.036352
 21
413.805882
 31
0.0
  0
LINE
  5
BC50
330
B935
100
AcDbEntity
  8
1
  6
Continuous
100
AcDbLine
 10
203.236352
 20
414.6886999999998
 30
0.0
 11
215.236352
 21
414.6886999999998
 31
0.0
  0
LINE
  5
BC51
330
B935
100
AcDbEntity
  8
1
  6
Continuous
100
AcDbLine
 10
94.74338000000001
 20
226.4277529999999
 30
0.0
 11
93.94338000000001
 21
225.6277529999999
 31
0.0
  0
LINE
  5
BC52
330
B935
100
AcDbEntity
  8
2
  6
Continuous
100
AcDbLine
 10
94.61988000000003
 20
226.3042529999999
 30
0.0
 11
93.860562
 21
226.3042529999999
 31
0.0
  0
ARC
  5
BC53
330
B935
100
AcDbEntity
  8
1
  6
Continuous
100
AcDbCircle
 10
212.2363519999999
 20
411.0236369999998
 30
0.0
 40
8.665063999999999
100
AcDbArc
 50
69.743842
 51
110.256158
  0
LINE
  5
BC54
330
B935
100
AcDbEntity
  8
1
  6
Continuous
100
AcDbLine
 10
88.860562
 20
236.014838
 30
0.0
 11
88.860562
 21
236.627753
 31
0.0
  0
LINE
  5
BC55
330
B935
100
AcDbEntity
  8
1
  6
Continuous
100
AcDbLine
 10
93.94338000000001
 20
233.6277529999999
 30
0.0
 11
93.94338000000001
 21
225.6277529999999
 31
0.0
  0
ARC
  5
BC56
330
B935
100
AcDbEntity
  8
1
  6
Continuous
100
AcDbCircle
 10
82.39646099999999
 20
229.6277529999999
 30
0.0
 40
11.464102
100
AcDbArc
 50
342.4120459999999
 51
17.587954
  0
LINE
  5
BC57
330
B935
100
AcDbEntity
  8
1
  6
Continuous
100
AcDbLine
 10
93.860562
 20
235.6277529999999
 30
0.0
 11
93.860562
 21
223.6277529999999
 31
0.0
  0
LINE
  5
BC58
330
B935
100
AcDbEntity
  8
2
  6
Continuous
100
AcDbLine
 10
205.9128519999999
 20
413.9293819999998
 30
0.0
 11
205.9128519999999
 21
414.6886999999998
 31
0.0
  0
LINE
  5
BC59
330
B935
100
AcDbEntity
  8
1
  6
Continuous
100
AcDbLine
 10
206.036352
 20
413.805882
 30
0.0
 11
205.236352
 21
414.605882
 31
0.0
  0
LINE
  5
BC5A
330
B935
100
AcDbEntity
  8
1
  6
Continuous
100
AcDbLine
 10
205.236352
 20
414.6886999999998
 30
0.0
 11
205.236352
 21
414.605882
 31
0.0
  0
ARC
  5
BC5B
330
B935
100
AcDbEntity
  8
1
  6
Continuous
100
AcDbCircle
 10
206.236352
 20
423.3537639999998
 30
0.0
 40
8.665063999999999
100
AcDbArc
 50
249.7438419999999
 51
290.256158
  0
LINE
  5
BC5C
330
B935
100
AcDbEntity
  8
1
  6
Continuous
100
AcDbLine
 10
209.236352
 20
419.1528019999998
 30
0.0
 11
209.236352
 21
415.2245989999998
 31
0.0
  0
LINE
  5
BC5D
330
B935
100
AcDbEntity
  8
1
  6
Continuous
100
AcDbLine
 10
93.860562
 20
225.6277529999999
 30
0.0
 11
93.94338000000001
 21
225.6277529999999
 31
0.0
  0
ARC
  5
BC5E
330
B935
100
AcDbEntity
  8
1
  6
Continuous
100
AcDbCircle
 10
90.793575
 20
224.4315999999999
 30
0.0
 40
3.066986999999998
100
AcDbArc
 50
334.384247
 51
34.38424699999998
  0
LINE
  5
BC5F
330
B935
100
AcDbEntity
  8
1
  6
Continuous
100
AcDbLine
 10
89.86289599999997
 20
226.1636509999999
 30
0.0
 11
93.32466399999999
 21
226.1636509999999
 31
0.0
  0
LINE
  5
BC60
330
B935
100
AcDbEntity
  8
1
  6
Continuous
100
AcDbLine
 10
89.940762
 20
222.6995489999999
 30
0.0
 11
93.32466399999999
 21
222.6995489999999
 31
0.0
  0
LINE
  5
BC61
330
B935
100
AcDbEntity
  8
1
  6
Continuous
100
AcDbLine
 10
93.32466399999999
 20
222.6995489999999
 30
0.0
 11
93.860562
 21
223.6277529999999
 31
0.0
  0
ARC
  5
BC62
330
B935
100
AcDbEntity
  8
1
  6
Continuous
100
AcDbCircle
 10
206.236352
 20
411.0236369999998
 30
0.0
 40
8.665063999999999
100
AcDbArc
 50
69.743842
 51
110.256158
  0
LINE
  5
BC63
330
B935
100
AcDbEntity
  8
1
  6
Continuous
100
AcDbLine
 10
203.236352
 20
414.6886999999998
 30
0.0
 11
203.236352
 21
419.6887
 31
0.0
  0
LINE
  5
BC64
330
B935
100
AcDbEntity
  8
1
  6
Continuous
100
AcDbLine
 10
88.860562
 20
236.627753
 30
0.0
 11
88.638688
 21
236.627753
 31
0.0
  0
LINE
  5
BC65
330
B935
100
AcDbEntity
  8
1
  6
Continuous
100
AcDbLine
 10
93.860562
 20
233.6277529999999
 30
0.0
 11
93.94338000000001
 21
233.6277529999999
 31
0.0
  0
LINE
  5
BC66
330
B935
100
AcDbEntity
  8
1
  6
Continuous
100
AcDbLine
 10
93.32466399999999
 20
236.555956
 30
0.0
 11
93.860562
 21
235.6277529999999
 31
0.0
  0
LINE
  5
BC67
330
B935
100
AcDbEntity
  8
1
  6
Continuous
100
AcDbLine
 10
89.396461
 20
236.555956
 30
0.0
 11
88.94314300000003
 21
235.770787
 31
0.0
  0
LINE
  5
BC68
330
B935
100
AcDbEntity
  8
1
  6
Continuous
100
AcDbLine
 10
89.396461
 20
236.555956
 30
0.0
 11
93.32466399999999
 21
236.555956
 31
0.0
  0
LINE
  5
BC69
330
B935
100
AcDbEntity
  8
1
  6
Continuous
100
AcDbLine
 10
89.644937
 20
233.091854
 30
0.0
 11
93.32466399999999
 21
233.091854
 31
0.0
  0
ARC
  5
BC6A
330
B935
100
AcDbEntity
  8
1
  6
Continuous
100
AcDbCircle
 10
91.92754900000002
 20
234.8239049999999
 30
0.0
 40
3.066986999999998
100
AcDbArc
 50
154.3842469999999
 51
164.0899249999999
  0
ARC
  5
BC6B
330
B935
100
AcDbEntity
  8
1
  6
Continuous
100
AcDbCircle
 10
90.793575
 20
234.8239049999999
 30
0.0
 40
3.066986999999998
100
AcDbArc
 50
325.6157529999999
 51
25.615753
  0
LINE
  5
BC6C
330
B935
100
AcDbEntity
  8
1
  6
Continuous
100
AcDbLine
 10
94.74338000000001
 20
226.4277529999999
 30
0.0
 11
94.74338000000001
 21
232.8277529999998
 31
0.0
  0
LINE
  5
BC6D
330
B935
100
AcDbEntity
  8
2
  6
Continuous
100
AcDbLine
 10
212.559852
 20
413.9293819999998
 30
0.0
 11
212.559852
 21
414.6886999999998
 31
0.0
  0
LINE
  5
BC6E
330
B935
100
AcDbEntity
  8
1
  6
Continuous
100
AcDbLine
 10
212.436352
 20
413.805882
 30
0.0
 11
213.236352
 21
414.605882
 31
0.0
  0
LINE
  5
BC6F
330
B935
100
AcDbEntity
  8
1
  6
Continuous
100
AcDbLine
 10
213.236352
 20
414.6886999999998
 30
0.0
 11
213.236352
 21
414.605882
 31
0.0
  0
LINE
  5
BC70
330
B935
100
AcDbEntity
  8
1
  6
Continuous
100
AcDbLine
 10
215.236352
 20
414.6886999999998
 30
0.0
 11
215.236352
 21
419.6887
 31
0.0
  0
CIRCLE
  5
BC71
330
B935
100
AcDbEntity
  8
1
  6
Continuous
100
AcDbCircle
 10
209.236339
 20
229.6277389999999
 30
0.0
 40
7.0
  0
LINE
  5
BC72
330
B935
100
AcDbEntity
  8
1
  6
Continuous
100
AcDbLine
 10
447.731148
 20
317.127923
 30
0.0
 11
447.731148
 21
359.527923
 31
0.0
  0
LINE
  5
BC73
330
B935
100
AcDbEntity
  8
1
  6
Continuous
100
AcDbLine
 10
466.731148
 20
317.127923
 30
0.0
 11
466.731148
 21
359.527923
 31
0.0
  0
LINE
  5
BC74
330
B935
100
AcDbEntity
  8
4
  6
CENTER
100
AcDbLine
 10
457.231148
 20
249.214135
 30
0.0
 11
457.231148
 21
370.627923
 31
0.0
  0
LINE
  5
BC75
330
B935
100
AcDbEntity
  8
1
  6
Continuous
100
AcDbLine
 10
441.0653639999998
 20
315.6279229999999
 30
0.0
 11
473.3969799999998
 21
315.6279229999999
 31
0.0
  0
LINE
  5
BC76
330
B935
100
AcDbEntity
  8
1
  6
Continuous
100
AcDbLine
 10
478.231148
 20
312.127945
 30
0.0
 11
436.231148
 21
312.127945
 31
0.0
  0
LINE
  5
BC77
330
B935
100
AcDbEntity
  8
1
  6
Continuous
100
AcDbLine
 10
446.1476949999997
 20
304.312739
 30
0.0
 11
448.147695
 21
306.8337389999999
 31
0.0
  0
LINE
  5
BC78
330
B935
100
AcDbEntity
  8
1
  6
Continuous
100
AcDbLine
 10
448.8548019999998
 20
304.312739
 30
0.0
 11
446.8548019999998
 21
306.8337389999999
 31
0.0
  0
LINE
  5
BC79
330
B935
100
AcDbEntity
  8
1
  6
Continuous
100
AcDbLine
 10
430.5450480000001
 20
308.127945
 30
0.0
 11
483.917248
 21
308.127945
 31
0.0
  0
LINE
  5
BC7A
330
B935
100
AcDbEntity
  8
1
  6
Continuous
100
AcDbLine
 10
483.917248
 20
306.8337389999999
 30
0.0
 11
430.5450480000001
 21
306.8337389999999
 31
0.0
  0
ARC
  5
BC7B
330
B935
100
AcDbEntity
  8
1
  6
Continuous
100
AcDbCircle
 10
493.231148
 20
229.6277389999999
 30
0.0
 40
65.0
100
AcDbArc
 50
140.165976
 51
93.30358600000002
  0
ARC
  5
BC7C
330
B935
100
AcDbEntity
  8
1
  6
Continuous
100
AcDbCircle
 10
493.231148
 20
229.6277389999999
 30
0.0
 40
53.65
100
AcDbArc
 50
144.701094
 51
93.335895
  0
LINE
  5
BC7D
330
B935
100
AcDbEntity
  8
1
  6
Continuous
100
AcDbLine
 10
430.5450480000001
 20
304.312739
 30
0.0
 11
483.917248
 21
304.312739
 31
0.0
  0
ARC
  5
BC7E
330
B935
100
AcDbEntity
  8
1
  6
Continuous
100
AcDbCircle
 10
595.147723
 20
351.653945
 30
0.0
 40
171.799
100
AcDbArc
 50
200.3009159999999
 51
230.062209
  0
LINE
  5
BC7F
330
B935
100
AcDbEntity
  8
4
  6
CENTER
100
AcDbLine
 10
420.231148
 20
229.6277389999999
 30
0.0
 11
566.2311479999998
 21
229.6277389999999
 31
0.0
  0
LINE
  5
BC80
330
B935
100
AcDbEntity
  8
4
  6
CENTER
100
AcDbLine
 10
493.231148
 20
157.1487389999998
 30
0.0
 11
493.231148
 21
302.627739
 31
0.0
  0
ARC
  5
BC81
330
B935
100
AcDbEntity
  8
1
  6
Continuous
100
AcDbCircle
 10
493.231148
 20
229.6277389999999
 30
0.0
 40
40.533539
100
AcDbArc
 50
151.7444649999999
 51
91.66824400000001
  0
ARC
  5
BC82
330
B935
100
AcDbEntity
  8
1
  6
Continuous
100
AcDbCircle
 10
621.718975
 20
296.1153649999999
 30
0.0
 40
132.243177
100
AcDbArc
 50
177.4095369999998
 51
207.314435
  0
LINE
  5
BC83
330
B935
100
AcDbEntity
  8
1
  6
Continuous
100
AcDbLine
 10
478.7034269999998
 20
300.798268
 30
0.0
 11
478.7034269999998
 21
230.793644
 31
0.0
  0
CIRCLE
  5
BC84
330
B935
100
AcDbEntity
  8
1
  6
Continuous
100
AcDbCircle
 10
514.391417
 20
258.752351
 30
0.0
 40
3.7
  0
ARC
  5
BC85
330
B935
100
AcDbEntity
  8
1
  6
Continuous
100
AcDbCircle
 10
493.231148
 20
229.6277389999999
 30
0.0
 40
31.415325
100
AcDbArc
 50
159.1214209999999
 51
88.20423499999998
  0
ARC
  5
BC86
330
B935
100
AcDbEntity
  8
1
  6
Continuous
100
AcDbCircle
 10
549.1011429999998
 20
221.222741
 30
0.0
 40
11.5
100
AcDbArc
 50
305.3198929999999
 51
37.569435
  0
CIRCLE
  5
BC87
330
B935
100
AcDbEntity
  8
1
  6
Continuous
100
AcDbCircle
 10
527.469183
 20
218.503127
 30
0.0
 40
3.7
  0
ARC
  5
BC88
330
B935
100
AcDbEntity
  8
1
  6
Continuous
100
AcDbCircle
 10
493.231148
 20
229.6277389999999
 30
0.0
 40
17.511634
100
AcDbArc
 50
185.0363769999999
 51
69.65109100000001
  0
CIRCLE
  5
BC89
330
B935
100
AcDbEntity
  8
1
  6
Continuous
100
AcDbCircle
 10
458.993113
 20
218.503127
 30
0.0
 40
3.7
  0
ARC
  5
BC8A
330
B935
100
AcDbEntity
  8
1
  6
Continuous
100
AcDbCircle
 10
492.981148
 20
229.6277389999999
 30
0.0
 40
12.65
100
AcDbArc
 50
230.062209
 51
27.31443499999999
  0
CIRCLE
  5
BC8B
330
B935
100
AcDbEntity
  8
1
  6
Continuous
100
AcDbCircle
 10
493.231148
 20
193.6277389999999
 30
0.0
 40
3.7
  0
LINE
  5
BC8C
330
B935
100
AcDbEntity
  8
1
  6
Continuous
100
AcDbLine
 10
483.917248
 20
304.312739
 30
0.0
 11
483.917248
 21
308.127945
 31
0.0
  0
LINE
  5
BC8D
330
B935
100
AcDbEntity
  8
1
  6
Continuous
100
AcDbLine
 10
480.6746069999999
 20
304.312739
 30
0.0
 11
478.6746069999998
 21
306.8337389999999
 31
0.0
  0
LINE
  5
BC8E
330
B935
100
AcDbEntity
  8
1
  6
Continuous
100
AcDbLine
 10
477.260394
 20
304.312739
 30
0.0
 11
479.260394
 21
306.8337389999999
 31
0.0
  0
ARC
  5
BC8F
330
B935
100
AcDbEntity
  8
1
  6
Continuous
100
AcDbCircle
 10
481.0495480000001
 20
302.519206
 30
0.0
 40
2.384338999999997
100
AcDbArc
 50
131.2174919999999
 51
190.32668
  0
LINE
  5
BC90
330
B935
100
AcDbEntity
  8
1
  6
Continuous
100
AcDbLine
 10
493.048776
 20
302.091789
 30
0.0
 11
478.7038319999998
 21
302.091789
 31
0.0
  0
LINE
  5
BC91
330
B935
100
AcDbEntity
  8
1
  6
Continuous
100
AcDbLine
 10
480.088821
 20
304.312739
 30
0.0
 11
482.0888209999998
 21
306.8337389999999
 31
0.0
  0
LINE
  5
BC92
330
B935
100
AcDbEntity
  8
1
  6
Continuous
100
AcDbLine
 10
482.9172479999998
 20
304.312739
 30
0.0
 11
483.917248
 21
305.312739
 31
0.0
  0
LINE
  5
BC93
330
B935
100
AcDbEntity
  8
1
  6
Continuous
100
AcDbLine
 10
482.7959279999998
 20
304.312739
 30
0.0
 11
480.795928
 21
306.8337389999999
 31
0.0
  0
LINE
  5
BC94
330
B935
100
AcDbEntity
  8
1
  6
Continuous
100
AcDbLine
 10
482.9172479999998
 20
306.8337389999999
 30
0.0
 11
483.917248
 21
305.312739
 31
0.0
  0
ARC
  5
BC95
330
B935
100
AcDbEntity
  8
1
  6
Continuous
100
AcDbCircle
 10
493.048776
 20
298.5599509999999
 30
0.0
 40
3.531837999999998
100
AcDbArc
 50
71.205477
 51
90.0
  0
ARC
  5
BC96
330
B935
100
AcDbEntity
  8
1
  6
Continuous
100
AcDbCircle
 10
493.207383
 20
303.480799
 30
0.0
 40
3.942636999999998
100
AcDbArc
 50
270.0
 51
284.133642
  0
LINE
  5
BC97
330
B935
100
AcDbEntity
  8
1
  6
Continuous
100
AcDbLine
 10
494.170113
 20
299.65751
 30
0.0
 11
494.305815
 21
299.821451
 31
0.0
  0
ARC
  5
BC98
330
B935
100
AcDbEntity
  8
1
  6
Continuous
100
AcDbCircle
 10
493.8892759999998
 20
301.029678
 30
0.0
 40
0.9230079999999999
100
AcDbArc
 50
55.331088
 51
71.205477
  0
ARC
  5
BC99
330
B935
100
AcDbEntity
  8
1
  6
Continuous
100
AcDbCircle
 10
502.7317069999998
 20
299.1607989999998
 30
0.0
 40
8.451753
100
AcDbArc
 50
166.82934
 51
175.516763
  0
ARC
  5
BC9A
330
B935
100
AcDbEntity
  8
1
  6
Continuous
100
AcDbCircle
 10
492.3318039999998
 20
301.1713379999998
 30
0.0
 40
2.172123
100
AcDbArc
 50
357.762921
 51
16.515265
  0
LINE
  5
BC9B
330
B935
100
AcDbEntity
  8
1
  6
Continuous
100
AcDbLine
 10
493.207383
 20
299.5381619999998
 30
0.0
 11
489.520101
 21
299.5381619999998
 31
0.0
  0
ARC
  5
BC9C
330
B935
100
AcDbEntity
  8
1
  6
Continuous
100
AcDbCircle
 10
481.3587639999998
 20
302.604599
 30
0.0
 40
2.298399999999999
100
AcDbArc
 50
17.21530399999998
 51
48.003581
  0
ARC
  5
BC9D
330
B935
100
AcDbEntity
  8
1
  6
Continuous
100
AcDbCircle
 10
484.7421699999999
 20
303.2410889999998
 30
0.0
 40
1.188780999999998
100
AcDbArc
 50
177.8908409999999
 51
255.1922279999998
  0
LINE
  5
BC9E
330
B935
100
AcDbEntity
  8
1
  6
Continuous
100
AcDbLine
 10
463.7040449999998
 20
304.312739
 30
0.0
 11
461.704045
 21
306.8337389999999
 31
0.0
  0
LINE
  5
BC9F
330
B935
100
AcDbEntity
  8
1
  6
Continuous
100
AcDbLine
 10
470.0680059999998
 20
304.312739
 30
0.0
 11
468.0680059999998
 21
306.8337389999999
 31
0.0
  0
LINE
  5
BCA0
330
B935
100
AcDbEntity
  8
1
  6
Continuous
100
AcDbLine
 10
468.7751119999998
 20
304.312739
 30
0.0
 11
470.775112
 21
306.8337389999999
 31
0.0
  0
LINE
  5
BCA1
330
B935
100
AcDbEntity
  8
1
  6
Continuous
100
AcDbLine
 10
463.1182579999999
 20
304.312739
 30
0.0
 11
465.118258
 21
306.8337389999999
 31
0.0
  0
LINE
  5
BCA2
330
B935
100
AcDbEntity
  8
1
  6
Continuous
100
AcDbLine
 10
465.9466849999998
 20
304.312739
 30
0.0
 11
467.9466849999998
 21
306.8337389999999
 31
0.0
  0
LINE
  5
BCA3
330
B935
100
AcDbEntity
  8
1
  6
Continuous
100
AcDbLine
 10
465.8253649999998
 20
304.312739
 30
0.0
 11
463.825365
 21
306.8337389999999
 31
0.0
  0
LINE
  5
BCA4
330
B935
100
AcDbEntity
  8
1
  6
Continuous
100
AcDbLine
 10
467.9466849999998
 20
304.312739
 30
0.0
 11
465.9466849999998
 21
306.8337389999999
 31
0.0
  0
LINE
  5
BCA5
330
B935
100
AcDbEntity
  8
1
  6
Continuous
100
AcDbLine
 10
474.431967
 20
304.312739
 30
0.0
 11
476.4319669999999
 21
306.8337389999999
 31
0.0
  0
LINE
  5
BCA6
330
B935
100
AcDbEntity
  8
1
  6
Continuous
100
AcDbLine
 10
476.4319669999999
 20
304.312739
 30
0.0
 11
474.431967
 21
306.8337389999999
 31
0.0
  0
LINE
  5
BCA7
330
B935
100
AcDbEntity
  8
1
  6
Continuous
100
AcDbLine
 10
478.5532869999998
 20
304.312739
 30
0.0
 11
476.553287
 21
306.8337389999999
 31
0.0
  0
LINE
  5
BCA8
330
B935
100
AcDbEntity
  8
1
  6
Continuous
100
AcDbLine
 10
471.6035399999998
 20
304.312739
 30
0.0
 11
473.60354
 21
306.8337389999999
 31
0.0
  0
LINE
  5
BCA9
330
B935
100
AcDbEntity
  8
1
  6
Continuous
100
AcDbLine
 10
474.3106459999999
 20
304.312739
 30
0.0
 11
472.310646
 21
306.8337389999999
 31
0.0
  0
LINE
  5
BCAA
330
B935
100
AcDbEntity
  8
1
  6
Continuous
100
AcDbLine
 10
472.1893259999998
 20
304.312739
 30
0.0
 11
470.189326
 21
306.8337389999999
 31
0.0
  0
LINE
  5
BCAB
330
B935
100
AcDbEntity
  8
1
  6
Continuous
100
AcDbLine
 10
448.976123
 20
304.312739
 30
0.0
 11
450.9761229999998
 21
306.8337389999999
 31
0.0
  0
LINE
  5
BCAC
330
B935
100
AcDbEntity
  8
1
  6
Continuous
100
AcDbLine
 10
450.9761229999998
 20
304.312739
 30
0.0
 11
448.976123
 21
306.8337389999999
 31
0.0
  0
LINE
  5
BCAD
330
B935
100
AcDbEntity
  8
1
  6
Continuous
100
AcDbLine
 10
454.6329769999998
 20
304.312739
 30
0.0
 11
456.632977
 21
306.8337389999999
 31
0.0
  0
LINE
  5
BCAE
330
B935
100
AcDbEntity
  8
1
  6
Continuous
100
AcDbLine
 10
455.2187629999998
 20
304.312739
 30
0.0
 11
453.218763
 21
306.8337389999999
 31
0.0
  0
LINE
  5
BCAF
330
B935
100
AcDbEntity
  8
1
  6
Continuous
100
AcDbLine
 10
457.3400839999997
 20
304.312739
 30
0.0
 11
455.340084
 21
306.8337389999999
 31
0.0
  0
LINE
  5
BCB0
330
B935
100
AcDbEntity
  8
1
  6
Continuous
100
AcDbLine
 10
457.461404
 20
304.312739
 30
0.0
 11
459.461404
 21
306.8337389999999
 31
0.0
  0
LINE
  5
BCB1
330
B935
100
AcDbEntity
  8
1
  6
Continuous
100
AcDbLine
 10
460.2898309999998
 20
304.312739
 30
0.0
 11
462.2898309999998
 21
306.8337389999999
 31
0.0
  0
LINE
  5
BCB2
330
B935
100
AcDbEntity
  8
1
  6
Continuous
100
AcDbLine
 10
459.461404
 20
304.312739
 30
0.0
 11
457.461404
 21
306.8337389999999
 31
0.0
  0
LINE
  5
BCB3
330
B935
100
AcDbEntity
  8
1
  6
Continuous
100
AcDbLine
 10
461.5827239999998
 20
304.312739
 30
0.0
 11
459.582724
 21
306.8337389999999
 31
0.0
  0
LINE
  5
BCB4
330
B935
100
AcDbEntity
  8
1
  6
Continuous
100
AcDbLine
 10
453.0974429999998
 20
304.312739
 30
0.0
 11
451.097443
 21
306.8337389999999
 31
0.0
  0
LINE
  5
BCB5
330
B935
100
AcDbEntity
  8
1
  6
Continuous
100
AcDbLine
 10
451.80455
 20
304.312739
 30
0.0
 11
453.8045499999998
 21
306.8337389999999
 31
0.0
  0
ARC
  5
BCB6
330
B935
100
AcDbEntity
  8
1
  6
Continuous
100
AcDbCircle
 10
478.231148
 20
308.127945
 30
0.0
 40
4.0
100
AcDbArc
 50
0.0
 51
90.0
  0
LINE
  5
BCB7
330
B935
100
AcDbEntity
  8
1
  6
Continuous
100
AcDbLine
 10
466.731148
 20
319.527923
 30
0.0
 11
447.731148
 21
319.527923
 31
0.0
  0
ARC
  5
BCB8
330
B935
100
AcDbEntity
  8
1
  6
Continuous
100
AcDbCircle
 10
465.231148
 20
317.127923
 30
0.0
 40
1.5
100
AcDbArc
 50
270.0
 51
0.0
  0
LINE
  5
BCB9
330
B935
100
AcDbEntity
  8
1
  6
Continuous
100
AcDbLine
 10
465.314076
 20
312.127945
 30
0.0
 11
465.314076
 21
315.6279229999999
 31
0.0
  0
LINE
  5
BCBA
330
B935
100
AcDbEntity
  8
1
  6
Continuous
100
AcDbLine
 10
473.3969799999998
 20
312.127945
 30
0.0
 11
473.3969799999998
 21
315.6279229999999
 31
0.0
  0
ARC
  5
BCBB
330
B935
100
AcDbEntity
  8
1
  6
Continuous
100
AcDbCircle
 10
449.231148
 20
317.127923
 30
0.0
 40
1.5
100
AcDbArc
 50
180.0
 51
270.0
  0
LINE
  5
BCBC
330
B935
100
AcDbEntity
  8
1
  6
Continuous
100
AcDbLine
 10
449.1482679999998
 20
312.127945
 30
0.0
 11
449.1482679999998
 21
315.6279229999999
 31
0.0
  0
LINE
  5
BCBD
330
B935
100
AcDbEntity
  8
1
  6
Continuous
100
AcDbLine
 10
430.5450480000001
 20
308.127945
 30
0.0
 11
430.5450480000001
 21
304.312739
 31
0.0
  0
LINE
  5
BCBE
330
B935
100
AcDbEntity
  8
1
  6
Continuous
100
AcDbLine
 10
431.8842389999998
 20
304.312739
 30
0.0
 11
430.5450480000001
 21
306.17293
 31
0.0
  0
ARC
  5
BCBF
330
B935
100
AcDbEntity
  8
1
  6
Continuous
100
AcDbCircle
 10
429.879004
 20
290.2331859999998
 30
0.0
 40
4.521554
100
AcDbArc
 50
23.66618499999999
 51
91.87393099999995
  0
ARC
  5
BCC0
330
B935
100
AcDbEntity
  8
1
  6
Continuous
100
AcDbCircle
 10
431.6477849999998
 20
301.4735769999999
 30
0.0
 40
2.839261999999998
100
AcDbArc
 50
89.51824899999998
 51
93.73746899999998
  0
LINE
  5
BCC1
330
B935
100
AcDbEntity
  8
1
  6
Continuous
100
AcDbLine
 10
434.833987
 20
304.312739
 30
0.0
 11
436.8339869999998
 21
306.8337389999999
 31
0.0
  0
LINE
  5
BCC2
330
B935
100
AcDbEntity
  8
1
  6
Continuous
100
AcDbLine
 10
436.1268799999998
 20
304.312739
 30
0.0
 11
434.1268799999999
 21
306.8337389999999
 31
0.0
  0
LINE
  5
BCC3
330
B935
100
AcDbEntity
  8
1
  6
Continuous
100
AcDbLine
 10
440.369521
 20
304.312739
 30
0.0
 11
438.3695209999998
 21
306.8337389999999
 31
0.0
  0
LINE
  5
BCC4
330
B935
100
AcDbEntity
  8
1
  6
Continuous
100
AcDbLine
 10
446.7334819999998
 20
304.312739
 30
0.0
 11
444.733482
 21
306.8337389999999
 31
0.0
  0
LINE
  5
BCC5
330
B935
100
AcDbEntity
  8
1
  6
Continuous
100
AcDbLine
 10
440.4908409999999
 20
304.312739
 30
0.0
 11
442.4908409999998
 21
306.8337389999999
 31
0.0
  0
LINE
  5
BCC6
330
B935
100
AcDbEntity
  8
1
  6
Continuous
100
AcDbLine
 10
443.3192679999998
 20
304.312739
 30
0.0
 11
445.3192679999999
 21
306.8337389999999
 31
0.0
  0
LINE
  5
BCC7
330
B935
100
AcDbEntity
  8
1
  6
Continuous
100
AcDbLine
 10
442.4908409999998
 20
304.312739
 30
0.0
 11
440.4908409999999
 21
306.8337389999999
 31
0.0
  0
LINE
  5
BCC8
330
B935
100
AcDbEntity
  8
1
  6
Continuous
100
AcDbLine
 10
444.612162
 20
304.312739
 30
0.0
 11
442.6121619999998
 21
306.8337389999999
 31
0.0
  0
LINE
  5
BCC9
330
B935
100
AcDbEntity
  8
1
  6
Continuous
100
AcDbLine
 10
437.6624139999998
 20
304.312739
 30
0.0
 11
439.6624139999998
 21
306.8337389999999
 31
0.0
  0
LINE
  5
BCCA
330
B935
100
AcDbEntity
  8
1
  6
Continuous
100
AcDbLine
 10
438.248201
 20
304.312739
 30
0.0
 11
436.2482009999998
 21
306.8337389999999
 31
0.0
  0
LINE
  5
BCCB
330
B935
100
AcDbEntity
  8
1
  6
Continuous
100
AcDbLine
 10
432.0055599999998
 20
304.312739
 30
0.0
 11
434.0055599999998
 21
306.8337389999999
 31
0.0
  0
LINE
  5
BCCC
330
B935
100
AcDbEntity
  8
1
  6
Continuous
100
AcDbLine
 10
434.0055599999998
 20
304.312739
 30
0.0
 11
432.0055599999998
 21
306.8337389999999
 31
0.0
  0
LINE
  5
BCCD
330
B935
100
AcDbEntity
  8
1
  6
Continuous
100
AcDbLine
 10
430.5450480000001
 20
306.201654
 30
0.0
 11
431.177133
 21
306.8337389999999
 31
0.0
  0
LINE
  5
BCCE
330
B935
100
AcDbEntity
  8
1
  6
Continuous
100
AcDbLine
 10
429.731148
 20
294.7523229999998
 30
0.0
 11
429.731148
 21
302.0971829999999
 31
0.0
  0
ARC
  5
BCCF
330
B935
100
AcDbEntity
  8
1
  6
Continuous
100
AcDbCircle
 10
432.9578169999998
 20
301.929974
 30
0.0
 40
3.058577999999998
100
AcDbArc
 50
128.8269479999998
 51
151.3767689999999
  0
ARC
  5
BCD0
330
B935
100
AcDbEntity
  8
1
  6
Continuous
100
AcDbCircle
 10
436.214565
 20
300.152624
 30
0.0
 40
6.768752
100
AcDbArc
 50
151.3767689999999
 51
163.3045389999998
  0
LINE
  5
BCD1
330
B935
100
AcDbEntity
  8
1
  6
Continuous
100
AcDbLine
 10
441.0653639999998
 20
312.127945
 30
0.0
 11
441.0653639999998
 21
315.6279229999999
 31
0.0
  0
ARC
  5
BCD2
330
B935
100
AcDbEntity
  8
1
  6
Continuous
100
AcDbCircle
 10
436.231148
 20
308.127945
 30
0.0
 40
4.0
100
AcDbArc
 50
90.0
 51
180.0
  0
LINE
  5
BCD3
330
B935
100
AcDbEntity
  8
1
  6
Continuous
100
AcDbLine
 10
461.731109
 20
365.6279229999999
 30
0.0
 11
463.2311089999998
 21
364.127923
 31
0.0
  0
LINE
  5
BCD4
330
B935
100
AcDbEntity
  8
1
  6
Continuous
100
AcDbLine
 10
466.481148
 20
360.5279229999999
 30
0.0
 11
447.981148
 21
360.5279229999999
 31
0.0
  0
LINE
  5
BCD5
330
B935
100
AcDbEntity
  8
1
  6
Continuous
100
AcDbLine
 10
463.2311089999998
 20
364.127923
 30
0.0
 11
451.2311089999998
 21
364.127923
 31
0.0
  0
LINE
  5
BCD6
330
B935
100
AcDbEntity
  8
1
  6
Continuous
100
AcDbLine
 10
466.481148
 20
363.7279229999998
 30
0.0
 11
447.981148
 21
363.7279229999998
 31
0.0
  0
ARC
  5
BCD7
330
B935
100
AcDbEntity
  8
1
  6
Continuous
100
AcDbCircle
 10
465.731148
 20
359.527923
 30
0.0
 40
1.0
100
AcDbArc
 50
0.0
 51
90.0
  0
LINE
  5
BCD8
330
B935
100
AcDbEntity
  8
1
  6
Continuous
100
AcDbLine
 10
466.481148
 20
363.7279229999998
 30
0.0
 11
466.481148
 21
360.5279229999999
 31
0.0
  0
LINE
  5
BCD9
330
B935
100
AcDbEntity
  8
1
  6
Continuous
100
AcDbLine
 10
463.2311089999998
 20
363.7279229999998
 30
0.0
 11
463.2311089999998
 21
364.127923
 31
0.0
  0
ARC
  5
BCDA
330
B935
100
AcDbEntity
  8
1
  6
Continuous
100
AcDbCircle
 10
448.731148
 20
359.527923
 30
0.0
 40
1.0
100
AcDbArc
 50
90.0
 51
180.0
  0
LINE
  5
BCDB
330
B935
100
AcDbEntity
  8
1
  6
Continuous
100
AcDbLine
 10
447.981148
 20
363.7279229999998
 30
0.0
 11
447.981148
 21
360.5279229999999
 31
0.0
  0
LINE
  5
BCDC
330
B935
100
AcDbEntity
  8
1
  6
Continuous
100
AcDbLine
 10
451.2311089999998
 20
364.127923
 30
0.0
 11
451.2311089999998
 21
363.7279229999998
 31
0.0
  0
LINE
  5
BCDD
330
B935
100
AcDbEntity
  8
2
  6
Continuous
100
AcDbLine
 10
452.178148
 20
363.7279229999998
 30
0.0
 11
452.178148
 21
365.074962
 31
0.0
  0
LINE
  5
BCDE
330
B935
100
AcDbEntity
  8
2
  6
Continuous
100
AcDbLine
 10
462.2841479999998
 20
363.7279229999998
 30
0.0
 11
462.2841479999998
 21
365.0748839999998
 31
0.0
  0
LINE
  5
BCDF
330
B935
100
AcDbEntity
  8
1
  6
Continuous
100
AcDbLine
 10
461.731109
 20
365.6279229999999
 30
0.0
 11
452.731109
 21
365.6279229999999
 31
0.0
  0
LINE
  5
BCE0
330
B935
100
AcDbEntity
  8
1
  6
Continuous
100
AcDbLine
 10
461.2110979999997
 20
363.7279229999998
 30
0.0
 11
461.2110979999997
 21
360.5279229999999
 31
0.0
  0
LINE
  5
BCE1
330
B935
100
AcDbEntity
  8
1
  6
Continuous
100
AcDbLine
 10
453.2511979999998
 20
363.7279229999998
 30
0.0
 11
453.2511979999998
 21
360.5279229999999
 31
0.0
  0
LINE
  5
BCE2
330
B935
100
AcDbEntity
  8
1
  6
Continuous
100
AcDbLine
 10
451.2311089999998
 20
364.127923
 30
0.0
 11
452.731109
 21
365.6279229999999
 31
0.0
  0
ARC
  5
BCE3
330
B935
100
AcDbEntity
  8
1
  6
Continuous
100
AcDbCircle
 10
245.2363389999999
 20
87.422368
 30
0.0
 40
24.9
100
AcDbArc
 50
81.95099199999999
 51
86.72450699999997
  0
ARC
  5
BCE4
330
B935
100
AcDbEntity
  8
1
  6
Continuous
100
AcDbCircle
 10
245.2363389999999
 20
87.422368
 30
0.0
 40
24.9
100
AcDbArc
 50
104.0253309999999
 51
118.853991
  0
ARC
  5
BCE5
330
B935
100
AcDbEntity
  8
1
  6
Continuous
100
AcDbCircle
 10
245.2363389999999
 20
87.422368
 30
0.0
 40
20.89999999999999
100
AcDbArc
 50
103.028305
 51
119.5039509999999
  0
ARC
  5
BCE6
330
B935
100
AcDbEntity
  8
1
  6
Continuous
100
AcDbCircle
 10
245.2363389999999
 20
87.422368
 30
0.0
 40
27.5
100
AcDbArc
 50
103.7929349999999
 51
120.2081769999999
  0
ARC
  5
BCE7
330
B935
100
AcDbEntity
  8
1
  6
Continuous
100
AcDbCircle
 10
245.2363389999999
 20
87.422368
 30
0.0
 40
27.5
100
AcDbArc
 50
82.716335
 51
88.19044699999997
  0
CIRCLE
  5
BCE8
330
B935
100
AcDbEntity
  8
1
  6
Continuous
100
AcDbCircle
 10
493.231148
 20
229.6277389999999
 30
0.0
 40
7.0
  0
LINE
  5
BCE9
330
B935
100
AcDbEntity
  8
1
  6
Continuous
100
AcDbLine
 10
82.01424299999997
 20
249.357493
 30
0.0
 11
82.00996499999998
 21
245.092413
 31
0.0
  0
LINE
  5
BCEA
330
B935
100
AcDbEntity
  8
1
  6
Continuous
100
AcDbLine
 10
84.61424499999997
 20
249.357493
 30
0.0
 11
84.60996599999999
 21
245.092413
 31
0.0
  0
ARC
  5
BCEB
330
B935
100
AcDbEntity
  8
1
  6
Continuous
100
AcDbCircle
 10
53.938665
 20
254.901466
 30
0.0
 40
39.801511
100
AcDbArc
 50
357.8543379999999
 51
359.5473579999999
  0
LINE
  5
BCEC
330
B935
100
AcDbEntity
  8
1
  6
Continuous
100
AcDbLine
 10
216.2363389999999
 20
110.0779009999999
 30
0.0
 11
202.2363389999999
 21
110.0779009999999
 31
0.0
  0
ARC
  5
BCED
330
B935
100
AcDbEntity
  8
1
  6
Continuous
100
AcDbCircle
 10
212.2363389999999
 20
106.4128379999998
 30
0.0
 40
8.665063999999999
100
AcDbArc
 50
69.743842
 51
110.256158
  0
LINE
  5
BCEE
330
B935
100
AcDbEntity
  8
1
  6
Continuous
100
AcDbLine
 10
205.236339
 20
115.160719
 30
0.0
 11
213.236339
 21
115.160719
 31
0.0
  0
LINE
  5
BCEF
330
B935
100
AcDbEntity
  8
1
  6
Continuous
100
AcDbLine
 10
203.2363389999999
 20
115.0779009999999
 30
0.0
 11
215.236339
 21
115.0779009999999
 31
0.0
  0
ARC
  5
BCF0
330
B935
100
AcDbEntity
  8
1
  6
Continuous
100
AcDbCircle
 10
212.2363389999999
 20
118.7429649999999
 30
0.0
 40
8.665063999999999
100
AcDbArc
 50
249.7438419999999
 51
290.256158
  0
LINE
  5
BCF1
330
B935
100
AcDbEntity
  8
1
  6
Continuous
100
AcDbLine
 10
212.436339
 20
115.960719
 30
0.0
 11
213.236339
 21
115.160719
 31
0.0
  0
LINE
  5
BCF2
330
B935
100
AcDbEntity
  8
1
  6
Continuous
100
AcDbLine
 10
202.2363389999999
 20
110.0779009999999
 30
0.0
 11
202.2363389999999
 21
108.5779009999999
 31
0.0
  0
LINE
  5
BCF3
330
B935
100
AcDbEntity
  8
1
  6
Continuous
100
AcDbLine
 10
212.436339
 20
115.960719
 30
0.0
 11
206.036339
 21
115.960719
 31
0.0
  0
LINE
  5
BCF4
330
B935
100
AcDbEntity
  8
2
  6
Continuous
100
AcDbLine
 10
205.912839
 20
115.8372189999999
 30
0.0
 11
205.912839
 21
115.0779009999999
 31
0.0
  0
LINE
  5
BCF5
330
B935
100
AcDbEntity
  8
1
  6
Continuous
100
AcDbLine
 10
206.036339
 20
115.960719
 30
0.0
 11
205.236339
 21
115.160719
 31
0.0
  0
LINE
  5
BCF6
330
B935
100
AcDbEntity
  8
1
  6
Continuous
100
AcDbLine
 10
205.236339
 20
115.0779009999999
 30
0.0
 11
205.236339
 21
115.160719
 31
0.0
  0
ARC
  5
BCF7
330
B935
100
AcDbEntity
  8
1
  6
Continuous
100
AcDbCircle
 10
206.2363389999999
 20
106.4128379999998
 30
0.0
 40
8.665063999999999
100
AcDbArc
 50
69.743842
 51
110.256158
  0
LINE
  5
BCF8
330
B935
100
AcDbEntity
  8
1
  6
Continuous
100
AcDbLine
 10
209.236339
 20
110.6138
 30
0.0
 11
209.236339
 21
114.5420029999999
 31
0.0
  0
ARC
  5
BCF9
330
B935
100
AcDbEntity
  8
1
  6
Continuous
100
AcDbCircle
 10
206.2363389999999
 20
118.7429649999999
 30
0.0
 40
8.665063999999999
100
AcDbArc
 50
249.7438419999999
 51
290.256158
  0
LINE
  5
BCFA
330
B935
100
AcDbEntity
  8
1
  6
Continuous
100
AcDbLine
 10
203.2363389999999
 20
115.0779009999999
 30
0.0
 11
203.2363389999999
 21
110.0779009999999
 31
0.0
  0
LINE
  5
BCFB
330
B935
100
AcDbEntity
  8
2
  6
Continuous
100
AcDbLine
 10
212.5598389999999
 20
115.8372189999999
 30
0.0
 11
212.5598389999999
 21
115.0779009999999
 31
0.0
  0
LINE
  5
BCFC
330
B935
100
AcDbEntity
  8
1
  6
Continuous
100
AcDbLine
 10
216.2363389999999
 20
110.0779009999999
 30
0.0
 11
216.2363389999999
 21
108.5779009999999
 31
0.0
  0
LINE
  5
BCFD
330
B935
100
AcDbEntity
  8
1
  6
Continuous
100
AcDbLine
 10
213.236339
 20
115.0779009999999
 30
0.0
 11
213.236339
 21
115.160719
 31
0.0
  0
LINE
  5
BCFE
330
B935
100
AcDbEntity
  8
1
  6
Continuous
100
AcDbLine
 10
215.236339
 20
115.0779009999999
 30
0.0
 11
215.236339
 21
110.0779009999999
 31
0.0
  0
ARC
  5
BCFF
330
B935
100
AcDbEntity
  8
1
  6
Continuous
100
AcDbCircle
 10
209.236339
 20
229.6277389999999
 30
0.0
 40
40.533539
100
AcDbArc
 50
20.08231099999998
 51
28.25553499999999
  0
ARC
  5
BD00
330
B935
100
AcDbEntity
  8
1
  6
Continuous
100
AcDbCircle
 10
209.236339
 20
229.6277389999999
 30
0.0
 40
53.65
100
AcDbArc
 50
24.699746
 51
35.298906
  0
ARC
  5
BD01
330
B935
100
AcDbEntity
  8
1
  6
Continuous
100
AcDbCircle
 10
209.236339
 20
229.6277389999999
 30
0.0
 40
17.511634
100
AcDbArc
 50
243.451328
 51
289.208185
  0
ARC
  5
BD02
330
B935
100
AcDbEntity
  8
1
  6
Continuous
100
AcDbCircle
 10
209.236339
 20
229.6277389999999
 30
0.0
 40
31.415325
100
AcDbArc
 50
202.065805
 51
320.712178
  0
ARC
  5
BD03
330
B935
100
AcDbEntity
  8
1
  6
Continuous
100
AcDbCircle
 10
209.236339
 20
229.6277389999999
 30
0.0
 40
40.533539
100
AcDbArc
 50
200.111448
 51
334.948225
  0
ARC
  5
BD04
330
B935
100
AcDbEntity
  8
1
  6
Continuous
100
AcDbCircle
 10
209.236339
 20
229.6277389999999
 30
0.0
 40
53.65
100
AcDbArc
 50
200.576744
 51
347.113086
  0
ARC
  5
BD05
330
B935
100
AcDbEntity
  8
1
  6
Continuous
100
AcDbCircle
 10
209.236339
 20
229.6277389999999
 30
0.0
 40
65.0
100
AcDbArc
 50
195.8825169999999
 51
39.834024
  0
ARC
  5
BD06
330
B935
100
AcDbEntity
  8
1
  6
Continuous
100
AcDbCircle
 10
209.236339
 20
229.6277389999999
 30
0.0
 40
31.415325
100
AcDbArc
 50
12.36261099999999
 51
20.878579
  0
ARC
  5
BD07
330
B935
100
AcDbEntity
  8
1
  6
Continuous
100
AcDbCircle
 10
221.667123
 20
418.4887119999998
 30
0.0
 40
5.5
100
AcDbArc
 50
48.57633299999999
 51
55.974605
  0
ARC
  5
BD08
330
B935
100
AcDbEntity
  8
1
  6
Continuous
100
AcDbCircle
 10
247.8861699999999
 20
448.203652
 30
0.0
 40
36.928463
100
AcDbArc
 50
227.01629
 51
259.5920599999999
  0
ARC
  5
BD09
330
B935
100
AcDbEntity
  8
1
  6
Continuous
100
AcDbCircle
 10
221.667123
 20
418.4887119999998
 30
0.0
 40
5.0
100
AcDbArc
 50
48.57633299999999
 51
90.00000300000001
  0
ARC
  5
BD0A
330
B935
100
AcDbEntity
  8
1
  6
Continuous
100
AcDbCircle
 10
242.6333029999999
 20
448.203652
 30
0.0
 40
36.928463
100
AcDbArc
 50
227.01629
 51
259.5920699999999
  0
ARC
  5
BD0B
330
B935
100
AcDbEntity
  8
1
  6
Continuous
100
AcDbCircle
 10
161.8171
 20
408.4325319999998
 30
0.0
 40
11.0
100
AcDbArc
 50
179.9999899999999
 51
0.00001
  0
LINE
  5
BD0C
330
B935
100
AcDbEntity
  8
1
  6
Continuous
100
AcDbLine
 10
141.8663549999999
 20
425.9646719999998
 30
0.0
 11
173.568732
 21
428.8467019999997
 31
0.0
  0
LINE
  5
BD0D
330
B935
100
AcDbEntity
  8
1
  6
Continuous
100
AcDbLine
 10
152.8171
 20
423.488712
 30
0.0
 11
193.1227679999999
 21
423.488712
 31
0.0
  0
LINE
  5
BD0E
330
B935
100
AcDbEntity
  8
1
  6
Continuous
100
AcDbLine
 10
141.82109
 20
426.4626119999999
 30
0.0
 11
173.546123
 21
429.3467019999998
 31
0.0
  0
LINE
  5
BD0F
330
B935
100
AcDbEntity
  8
1
  6
Continuous
100
AcDbLine
 10
150.8171
 20
421.488712
 30
0.0
 11
150.8171
 21
408.4325319999998
 31
0.0
  0
LINE
  5
BD10
330
B935
100
AcDbEntity
  8
1
  6
Continuous
100
AcDbLine
 10
141.8663549999999
 20
425.9646719999998
 30
0.0
 11
141.82109
 21
426.4626119999999
 31
0.0
  0
ARC
  5
BD11
330
B935
100
AcDbEntity
  8
1
  6
Continuous
100
AcDbCircle
 10
152.8171
 20
421.488712
 30
0.0
 40
2.0
100
AcDbArc
 50
90.00000300000001
 51
180.00001
  0
ARC
  5
BD12
330
B935
100
AcDbEntity
  8
1
  6
Continuous
100
AcDbCircle
 10
144.1196659999999
 20
424.161262
 30
0.0
 40
2.0
100
AcDbArc
 50
13.03195299999999
 51
95.19443
  0
ARC
  5
BD13
330
B935
100
AcDbEntity
  8
1
  6
Continuous
100
AcDbCircle
 10
154.836356
 20
426.6417019999998
 30
0.0
 40
9.0
100
AcDbArc
 50
193.03195
 51
243.4752700000001
  0
LINE
  5
BD14
330
B935
100
AcDbEntity
  8
1
  6
Continuous
100
AcDbLine
 10
173.546123
 20
428.846692
 30
0.0
 11
193.304301
 21
428.846692
 31
0.0
  0
LINE
  5
BD15
330
B935
100
AcDbEntity
  8
1
  6
Continuous
100
AcDbLine
 10
174.8171029999998
 20
421.188712
 30
0.0
 11
222.708696
 21
421.188712
 31
0.0
  0
LINE
  5
BD16
330
B935
100
AcDbEntity
  8
1
  6
Continuous
100
AcDbLine
 10
173.546123
 20
429.346692
 30
0.0
 11
193.304301
 21
429.346692
 31
0.0
  0
LINE
  5
BD17
330
B935
100
AcDbEntity
  8
1
  6
Continuous
100
AcDbLine
 10
172.817103
 20
419.188712
 30
0.0
 11
172.817103
 21
408.4325319999998
 31
0.0
  0
ARC
  5
BD18
330
B935
100
AcDbEntity
  8
1
  6
Continuous
100
AcDbCircle
 10
178.7295179999999
 20
423.846692
 30
0.0
 40
5.0
100
AcDbArc
 50
90.00000300000001
 51
132.68063
  0
ARC
  5
BD19
330
B935
100
AcDbEntity
  8
1
  6
Continuous
100
AcDbCircle
 10
160.4419929999999
 20
523.325262
 30
0.0
 40
104.78456
100
AcDbArc
 50
276.7824899999999
 51
282.9083299999999
  0
ARC
  5
BD1A
330
B935
100
AcDbEntity
  8
1
  6
Continuous
100
AcDbCircle
 10
174.8171029999998
 20
419.188712
 30
0.0
 40
2.0
100
AcDbArc
 50
90.00000300000001
 51
180.00001
  0
ARC
  5
BD1B
330
B935
100
AcDbEntity
  8
1
  6
Continuous
100
AcDbCircle
 10
148.2235169999998
 20
456.9281719999998
 30
0.0
 40
40.0
100
AcDbArc
 50
303.28134
 51
312.68063
  0
LINE
  5
BD1C
330
B935
100
AcDbEntity
  8
1
  6
Continuous
100
AcDbLine
 10
203.220552
 20
423.488712
 30
0.0
 11
221.667123
 21
423.488712
 31
0.0
  0
ARC
  5
BD1D
330
B935
100
AcDbEntity
  8
1
  6
Continuous
100
AcDbCircle
 10
193.304301
 20
426.846692
 30
0.0
 40
2.5
100
AcDbArc
 50
32.466765
 51
90.00000300000001
  0
ARC
  5
BD1E
330
B935
100
AcDbEntity
  8
1
  6
Continuous
100
AcDbCircle
 10
202.2205519999999
 20
422.1887119999998
 30
0.0
 40
1.0
100
AcDbArc
 50
270.0
 51
0.0
  0
ARC
  5
BD1F
330
B935
100
AcDbEntity
  8
1
  6
Continuous
100
AcDbCircle
 10
193.12823
 20
422.1887119999998
 30
0.0
 40
1.0
100
AcDbArc
 50
270.0
 51
0.0
  0
ARC
  5
BD20
330
B935
100
AcDbEntity
  8
1
  6
Continuous
100
AcDbCircle
 10
194.6227679999998
 20
426.6887119999998
 30
0.0
 40
1.5
100
AcDbArc
 50
90.00000300000001
 51
180.00001
  0
ARC
  5
BD21
330
B935
100
AcDbEntity
  8
1
  6
Continuous
100
AcDbCircle
 10
201.720552
 20
426.6887119999998
 30
0.0
 40
1.5
100
AcDbArc
 50
0.0
 51
90.00000300000001
  0
ARC
  5
BD22
330
B935
100
AcDbEntity
  8
1
  6
Continuous
100
AcDbCircle
 10
195.6282299999998
 20
426.6887119999998
 30
0.0
 40
1.5
100
AcDbArc
 50
90.00000300000001
 51
180.00001
  0
ARC
  5
BD23
330
B935
100
AcDbEntity
  8
1
  6
Continuous
100
AcDbCircle
 10
193.304301
 20
426.846692
 30
0.0
 40
2.0
100
AcDbArc
 50
42.145286
 51
90.00000300000001
  0
LINE
  5
BD24
330
B935
100
AcDbEntity
  8
1
  6
Continuous
100
AcDbLine
 10
194.6227679999998
 20
428.188712
 30
0.0
 11
201.720552
 21
428.188712
 31
0.0
  0
LINE
  5
BD25
330
B935
100
AcDbEntity
  8
1
  6
Continuous
100
AcDbLine
 10
203.220552
 20
426.6887119999998
 30
0.0
 11
203.220552
 21
422.1887119999998
 31
0.0
  0
LINE
  5
BD26
330
B935
100
AcDbEntity
  8
1
  6
Continuous
100
AcDbLine
 10
194.12823
 20
426.6887119999998
 30
0.0
 11
194.12823
 21
422.1887119999998
 31
0.0
  0
LINE
  5
BD27
330
B935
100
AcDbEntity
  8
1
  6
Continuous
100
AcDbLine
 10
193.1227679999999
 20
426.6887119999998
 30
0.0
 11
193.1227679999999
 21
423.488712
 31
0.0
  0
ARC
  5
BD28
330
B935
100
AcDbEntity
  8
1
  6
Continuous
100
AcDbCircle
 10
259.6067709999999
 20
408.316442
 30
0.0
 40
10.883919
100
AcDbArc
 50
179.9999899999999
 51
271.0357
  0
ARC
  5
BD29
330
B935
100
AcDbEntity
  8
1
  6
Continuous
100
AcDbCircle
 10
260.0002339999999
 20
408.316442
 30
0.0
 40
10.883919
100
AcDbArc
 50
179.9999899999999
 51
0.00001
  0
LINE
  5
BD2A
330
B935
100
AcDbEntity
  8
1
  6
Continuous
100
AcDbLine
 10
267.358207
 20
423.488712
 30
0.0
 11
268.884154
 21
423.488712
 31
0.0
  0
LINE
  5
BD2B
330
B935
100
AcDbEntity
  8
1
  6
Continuous
100
AcDbLine
 10
248.7228519999999
 20
415.06614
 30
0.0
 11
248.7228519999999
 21
408.316442
 31
0.0
  0
LINE
  5
BD2C
330
B935
100
AcDbEntity
  8
1
  6
Continuous
100
AcDbLine
 10
249.1163149999999
 20
415.1193189999998
 30
0.0
 11
249.1163149999999
 21
408.316442
 31
0.0
  0
ARC
  5
BD2D
330
B935
100
AcDbEntity
  8
1
  6
Continuous
100
AcDbCircle
 10
247.8861699999999
 20
448.203652
 30
0.0
 40
34.628464
100
AcDbArc
 50
228.57633
 51
259.5920599999999
  0
LINE
  5
BD2E
330
B935
100
AcDbEntity
  8
1
  6
Continuous
100
AcDbLine
 10
236.7387939999999
 20
411.812032
 30
0.0
 11
241.9916629999999
 21
411.812032
 31
0.0
  0
ARC
  5
BD2F
330
B935
100
AcDbEntity
  8
1
  6
Continuous
100
AcDbCircle
 10
247.8861699999999
 20
448.203652
 30
0.0
 40
34.12846
100
AcDbArc
 50
228.57633
 51
248.1093299999999
  0
ARC
  5
BD30
330
B935
100
AcDbEntity
  8
1
  6
Continuous
100
AcDbCircle
 10
236.7387939999999
 20
416.1120419999998
 30
0.0
 40
4.299999999999998
100
AcDbArc
 50
259.5920699999999
 51
270.0
  0
ARC
  5
BD31
330
B935
100
AcDbEntity
  8
1
  6
Continuous
100
AcDbCircle
 10
236.7387939999999
 20
416.1120419999998
 30
0.0
 40
2.0
100
AcDbArc
 50
323.2863699999999
 51
346.2552
  0
LINE
  5
BD32
330
B935
100
AcDbEntity
  8
1
  6
Continuous
100
AcDbLine
 10
234.980001
 20
416.0701519999998
 30
0.0
 11
235.161831
 21
416.535962
 31
0.0
  0
ARC
  5
BD33
330
B935
100
AcDbEntity
  8
1
  6
Continuous
100
AcDbCircle
 10
241.9916629999999
 20
416.1120419999998
 30
0.0
 40
4.299999999999998
100
AcDbArc
 50
259.5920699999999
 51
343.0432029999999
  0
ARC
  5
BD34
330
B935
100
AcDbEntity
  8
1
  6
Continuous
100
AcDbCircle
 10
241.9916629999999
 20
416.1120419999998
 30
0.0
 40
2.0
100
AcDbArc
 50
259.5920699999999
 51
322.490898
  0
LINE
  5
BD35
330
B935
100
AcDbEntity
  8
1
  6
Continuous
100
AcDbLine
 10
270.884154
 20
421.488712
 30
0.0
 11
270.884154
 21
408.316442
 31
0.0
  0
ARC
  5
BD36
330
B935
100
AcDbEntity
  8
1
  6
Continuous
100
AcDbCircle
 10
260.0002339999999
 20
408.316442
 30
0.0
 40
10.883919
100
AcDbArc
 50
268.9642899999999
 51
0.0
  0
LINE
  5
BD37
330
B935
100
AcDbEntity
  8
1
  6
Continuous
100
AcDbLine
 10
268.8533259999999
 20
428.2556559999998
 30
0.0
 11
271.76678
 21
428.1365319999999
 31
0.0
  0
LINE
  5
BD38
330
B935
100
AcDbEntity
  8
1
  6
Continuous
100
AcDbLine
 10
268.5551469999999
 20
427.7674269999998
 30
0.0
 11
271.7463519999999
 21
427.6369419999999
 31
0.0
  0
ARC
  5
BD39
330
B935
100
AcDbEntity
  8
1
  6
Continuous
100
AcDbCircle
 10
270.200912
 20
425.6984619999998
 30
0.0
 40
2.0
100
AcDbArc
 50
87.65856599999997
 51
169.82108
  0
ARC
  5
BD3A
330
B935
100
AcDbEntity
  8
1
  6
Continuous
100
AcDbCircle
 10
259.3740439999999
 20
427.6424019999998
 30
0.0
 40
9.0
100
AcDbArc
 50
268.7969269999999
 51
349.8210799999998
  0
ARC
  5
BD3B
330
B935
100
AcDbEntity
  8
1
  6
Continuous
100
AcDbCircle
 10
268.884154
 20
421.488712
 30
0.0
 40
2.0
100
AcDbArc
 50
0.0
 51
90.00000300000001
  0
LINE
  5
BD3C
330
B935
100
AcDbEntity
  8
1
  6
Continuous
100
AcDbLine
 10
271.7463519999999
 20
427.6369419999999
 30
0.0
 11
271.76678
 21
428.1365319999999
 31
0.0
  0
ARC
  5
BD3D
330
B935
100
AcDbEntity
  8
1
  6
Continuous
100
AcDbCircle
 10
81.704372
 20
228.466591
 30
0.0
 40
15.066773
100
AcDbArc
 50
0.0
 51
42.52313
  0
ENDSEC
  0
SECTION
  2
OBJECTS
  0
DICTIONARY
  5
B923
330
0
100
AcDbDictionary
281
     1
  3
ACAD_CIP_PREVIOUS_PRODUCT_INFO
350
BD9F
  3
ACAD_COLOR
350
BD81
  3
ACAD_DETAILVIEWSTYLE
350
BD9A
  3
ACAD_GROUP
350
B924
  3
ACAD_LAYOUT
350
B930
  3
ACAD_MATERIAL
350
BD4F
  3
ACAD_MLEADERSTYLE
350
BD96
  3
ACAD_MLINESTYLE
350
B92D
  3
ACAD_PLOTSETTINGS
350
B92F
  3
ACAD_PLOTSTYLENAME
350
BD4D
  3
ACAD_SCALELIST
350
BD84
  3
ACAD_SECTIONVIEWSTYLE
350
BD98
  3
ACAD_TABLESTYLE
350
BD82
  3
ACAD_VISUALSTYLE
350
BD68
  3
ACDB_RECOMPOSE_DATA
350
BDBD
  3
AcDbVariableDictionary
350
BDB0
  3
DWGPROPS
350
BDBE
  0
DICTIONARY
  5
BDA0
330
B927
100
AcDbDictionary
280
     1
281
     1
  3
ADSK_XREC_LAYER_RECONCILED
360
BDA1
  0
DICTIONARY
  5
BDA2
330
B93D
100
AcDbDictionary
280
     1
281
     1
  3
ADSK_XREC_LAYER_RECONCILED
360
BDA3
  0
DICTIONARY
  5
BDA4
330
B93E
100
AcDbDictionary
280
     1
281
     1
  3
ADSK_XREC_LAYER_RECONCILED
360
BDA5
  0
DICTIONARY
  5
BDA6
330
B93F
100
AcDbDictionary
280
     1
281
     1
  3
ADSK_XREC_LAYER_RECONCILED
360
BDA7
  0
DICTIONARY
  5
BDA8
330
B940
100
AcDbDictionary
280
     1
281
     1
  3
ADSK_XREC_LAYER_RECONCILED
360
BDA9
  0
DICTIONARY
  5
BDAA
330
B941
100
AcDbDictionary
280
     1
281
     1
  3
ADSK_XREC_LAYER_RECONCILED
360
BDAB
  0
DICTIONARY
  5
BDAC
330
B942
100
AcDbDictionary
280
     1
281
     1
  3
ADSK_XREC_LAYER_RECONCILED
360
BDAD
  0
DICTIONARY
  5
BDAE
330
B943
100
AcDbDictionary
280
     1
281
     1
  3
ADSK_XREC_LAYER_RECONCILED
360
BDAF
  0
DICTIONARY
  5
BD48
330
B935
100
AcDbDictionary
281
     1
  3
ACAD_LAYOUTSELFREF
350
BD49
  0
DICTIONARY
  5
BD46
330
B931
100
AcDbDictionary
281
     1
  3
ACAD_LAYOUTSELFREF
350
BD47
  0
XRECORD
  5
BD9F
102
{ACAD_REACTORS
330
B923
102
}
330
B923
100
AcDbXrecord
280
     1
300
ACDLT
300
2014
300
ACDLT_F_S
  0
DICTIONARY
  5
BD81
102
{ACAD_REACTORS
330
B923
102
}
330
B923
100
AcDbDictionary
281
     1
  0
DICTIONARY
  5
BD9A
102
{ACAD_REACTORS
330
B923
102
}
330
B923
100
AcDbDictionary
281
     1
  3
Imperial24
350
BD9B
  0
DICTIONARY
  5
B924
102
{ACAD_REACTORS
330
B923
102
}
330
B923
100
AcDbDictionary
281
     1
  0
DICTIONARY
  5
B930
102
{ACAD_REACTORS
330
B923
102
}
330
B923
100
AcDbDictionary
281
     1
  3
Model
350
BD9C
  3
レイアウト1
350
BD9D
  0
DICTIONARY
  5
BD4F
102
{ACAD_REACTORS
330
B923
102
}
330
B923
100
AcDbDictionary
281
     1
  3
ByBlock
350
BD58
  3
ByLayer
350
BD50
  3
Global
350
BD60
  0
DICTIONARY
  5
BD96
102
{ACAD_REACTORS
330
B923
102
}
330
B923
100
AcDbDictionary
281
     1
  3
Standard
350
BD97
  0
DICTIONARY
  5
B92D
102
{ACAD_REACTORS
330
B923
102
}
330
B923
100
AcDbDictionary
281
     1
  3
STANDARD
350
B92E
  0
DICTIONARY
  5
B92F
102
{ACAD_REACTORS
330
B923
102
}
330
B923
100
AcDbDictionary
281
     1
  0
ACDBDICTIONARYWDFLT
  5
BD4D
102
{ACAD_REACTORS
330
B923
102
}
330
B923
100
AcDbDictionary
281
     1
  3
Normal
350
BD4E
100
AcDbDictionaryWithDefault
340
BD4E
  0
DICTIONARY
  5
BD84
102
{ACAD_REACTORS
330
B923
102
}
330
B923
100
AcDbDictionary
281
     1
  3
A0
350
BD85
  3
A1
350
BD86
  3
A2
350
BD87
  3
A3
350
BD88
  3
A4
350
BD89
  3
A5
350
BD8A
  3
A6
350
BD8B
  3
A7
350
BD8C
  3
A8
350
BD8D
  3
A9
350
BD8E
  3
B0
350
BD8F
  3
B1
350
BD90
  3
B2
350
BD91
  3
B3
350
BD92
  3
B4
350
BD93
  3
B5
350
BD94
  3
B6
350
BD95
  0
DICTIONARY
  5
BD98
102
{ACAD_REACTORS
330
B923
102
}
330
B923
100
AcDbDictionary
281
     1
  3
Imperial24
350
BD99
  0
DICTIONARY
  5
BD82
102
{ACAD_REACTORS
330
B923
102
}
330
B923
100
AcDbDictionary
281
     1
  3
Standard
350
BD83
  0
DICTIONARY
  5
BD68
102
{ACAD_REACTORS
330
B923
102
}
330
B923
100
AcDbDictionary
281
     1
  3
2dWireframe
350
BD6E
  3
Basic
350
BD6D
  3
Brighten
350
BD74
  3
ColorChange
350
BD78
  3
Conceptual
350
BD71
  3
Dim
350
BD73
  3
EdgeColorOff
350
BD80
  3
Facepattern
350
BD77
  3
Flat
350
BD69
  3
FlatWithEdges
350
BD6A
  3
Gouraud
350
BD6B
  3
GouraudWithEdges
350
BD6C
  3
Hidden
350
BD70
  3
JitterOff
350
BD7E
  3
Linepattern
350
BD76
  3
OverhangOff
350
BD7F
  3
Realistic
350
BD72
  3
Shaded
350
BD7D
  3
Shaded with edges
350
BD7C
  3
Shades of Gray
350
BD79
  3
Sketchy
350
BD7A
  3
Thicken
350
BD75
  3
Wireframe
350
BD6F
  3
X-Ray
350
BD7B
  0
XRECORD
  5
BDBD
102
{ACAD_REACTORS
330
B923
102
}
330
B923
100
AcDbXrecord
280
     1
 90
        1
330
BD83
  0
DICTIONARY
  5
BDB0
102
{ACAD_REACTORS
330
B923
102
}
330
B923
100
AcDbDictionary
281
     1
  3
CANNOSCALE
350
BDB5
  3
CMLEADERSTYLE
350
BDB2
  3
CTABLESTYLE
350
BDB1
  3
CVIEWDETAILSTYLE
350
BDB3
  3
CVIEWSECTIONSTYLE
350
BDB4
  3
DIMASSOC
350
BDB8
  3
INDEXCTL
350
BDB7
  3
SORTENTS
350
BDB6
  3
XCLIPFRAME
350
BDB9
  0
XRECORD
  5
BDBE
102
{ACAD_REACTORS
330
B923
102
}
330
B923
100
AcDbXrecord
280
     1
  1
DWGPROPS COOKIE
  2

  3

  4

  6

  7

  8
Yoshitsune
  9

300
=
301
=
302
=
303
=
304
=
305
=
306
=
307
=
308
=
309
=
 40
0.0000116550925926
 41
2451301.579092014
 42
2457192.687820081
  1

 90
        0
  0
XRECORD
  5
BDA1
102
{ACAD_REACTORS
330
BDA0
102
}
330
BDA0
100
AcDbXrecord
280
     1
290
     1
  0
XRECORD
  5
BDA3
102
{ACAD_REACTORS
330
BDA2
102
}
330
BDA2
100
AcDbXrecord
280
     1
290
     1
  0
XRECORD
  5
BDA5
102
{ACAD_REACTORS
330
BDA4
102
}
330
BDA4
100
AcDbXrecord
280
     1
290
     1
  0
XRECORD
  5
BDA7
102
{ACAD_REACTORS
330
BDA6
102
}
330
BDA6
100
AcDbXrecord
280
     1
290
     1
  0
XRECORD
  5
BDA9
102
{ACAD_REACTORS
330
BDA8
102
}
330
BDA8
100
AcDbXrecord
280
     1
290
     1
  0
XRECORD
  5
BDAB
102
{ACAD_REACTORS
330
BDAA
102
}
330
BDAA
100
AcDbXrecord
280
     1
290
     1
  0
XRECORD
  5
BDAD
102
{ACAD_REACTORS
330
BDAC
102
}
330
BDAC
100
AcDbXrecord
280
     1
290
     1
  0
XRECORD
  5
BDAF
102
{ACAD_REACTORS
330
BDAE
102
}
330
BDAE
100
AcDbXrecord
280
     1
290
     1
  0
XRECORD
  5
BD49
102
{ACAD_REACTORS
330
BD48
102
}
330
BD48
100
AcDbXrecord
280
     1
340
B935
  0
XRECORD
  5
BD47
102
{ACAD_REACTORS
330
BD46
102
}
330
BD46
100
AcDbXrecord
280
     1
340
B931
  0
ACDBDETAILVIEWSTYLE
  5
BD9B
102
{ACAD_XDICTIONARY
360
BDF6
102
}
102
{ACAD_REACTORS
330
BD9A
102
}
330
BD9A
100
AcDbModelDocViewStyle
 70
     0
  3
Imperial24
290
     0
100
AcDbDetailViewStyle
 70
     0
 71
     0
 90
        3
 71
     1
340
B928
 40
0.24
340
0
 40
0.24
300

 40
0.36
280
     3
 71
     2
340
B92C
 90
       25
 71
     3
340
B928
 40
0.24
 90
        1
 40
0.75
 90
        1
300
%<\AcVar ViewType \f "%tc1">% %<\AcVar ViewDetailId>%\PSCALE %<\AcVar ViewScale \f "%sn">%
 71
     4
340
B92C
 90
       25
340
B92C
 90
       25
280
     0
  0
LAYOUT
  5
BD9C
102
{ACAD_XDICTIONARY
360
BDF8
102
}
102
{ACAD_REACTORS
330
B930
102
}
330
B930
100
AcDbPlotSettings
  1

  2
Canon LBP9100C
  4

  6

 40
0.0
 41
0.0
 42
0.0
 43
0.0
 44
0.0
 45
0.0
 46
0.0
 47
0.0
 48
0.0
 49
0.0
140
0.0
141
0.0
142
1.0
143
1.0
 70
  1712
 72
     0
 73
     0
 74
     0
  7

 75
     0
147
1.0
148
0.0
149
0.0
100
AcDbLayout
  1
Model
 70
     1
 71
     0
 10
0.0
 20
0.0
 11
12.0
 21
9.0
 12
0.0
 22
0.0
 32
0.0
 14
0.0
 24
0.0
 34
0.0
 15
0.0
 25
0.0
 35
0.0
146
0.0
 13
0.0
 23
0.0
 33
0.0
 16
1.0
 26
0.0
 36
0.0
 17
0.0
 27
1.0
 37
0.0
 76
     0
330
B935
331
BD45
  0
LAYOUT
  5
BD9D
102
{ACAD_XDICTIONARY
360
BDFA
102
}
102
{ACAD_REACTORS
330
B930
102
}
330
B930
100
AcDbPlotSettings
  1

  2
Canon LBP9100C
  4

  6

 40
0.0
 41
0.0
 42
0.0
 43
0.0
 44
0.0
 45
0.0
 46
0.0
 47
0.0
 48
0.0
 49
0.0
140
0.0
141
0.0
142
1.0
143
1.0
 70
   688
 72
     0
 73
     0
 74
     5
  7

 75
    16
147
1.0
148
0.0
149
0.0
100
AcDbLayout
  1
レイアウト1
 70
     0
 71
     1
 10
0.0
 20
0.0
 11
420.0
 21
297.0
 12
0.0
 22
0.0
 32
0.0
 14
1.000000000000000E+20
 24
1.000000000000000E+20
 34
1.000000000000000E+20
 15
-1.000000000000000E+20
 25
-1.000000000000000E+20
 35
-1.000000000000000E+20
146
0.0
 13
0.0
 23
0.0
 33
0.0
 16
1.0
 26
0.0
 36
0.0
 17
0.0
 27
1.0
 37
0.0
 76
     0
330
B931
  0
MATERIAL
  5
BD58
102
{ACAD_XDICTIONARY
360
BD59
102
}
102
{ACAD_REACTORS
330
BD4F
102
}
330
BD4F
100
AcDbMaterial
  1
ByBlock
 72
     0
 43
0.0208333333333333
 43
0.0
 43
0.0
 43
0.0
 43
0.0
 43
0.0208333333333333
 43
0.0
 43
0.0
 43
0.0
 43
0.0
 43
1.0
 43
0.0
 43
0.0
 43
0.0
 43
0.0
 43
1.0
 77
     0
 47
0.0208333333333333
 47
0.0
 47
0.0
 47
0.0
 47
0.0
 47
0.0208333333333333
 47
0.0
 47
0.0
 47
0.0
 47
0.0
 47
1.0
 47
0.0
 47
0.0
 47
0.0
 47
0.0
 47
1.0
171
     0
 49
0.0208333333333333
 49
0.0
 49
0.0
 49
0.0
 49
0.0
 49
0.0208333333333333
 49
0.0
 49
0.0
 49
0.0
 49
0.0
 49
1.0
 49
0.0
 49
0.0
 49
0.0
 49
0.0
 49
1.0
175
     0
142
0.0208333333333333
142
0.0
142
0.0
142
0.0
142
0.0
142
0.0208333333333333
142
0.0
142
0.0
142
0.0
142
0.0
142
1.0
142
0.0
142
0.0
142
0.0
142
0.0
142
1.0
179
     0
144
0.0208333333333333
144
0.0
144
0.0
144
0.0
144
0.0
144
0.0208333333333333
144
0.0
144
0.0
144
0.0
144
0.0
144
1.0
144
0.0
144
0.0
144
0.0
144
0.0
144
1.0
147
0.0208333333333333
147
0.0
147
0.0
147
0.0
147
0.0
147
0.0208333333333333
147
0.0
147
0.0
147
0.0
147
0.0
147
1.0
147
0.0
147
0.0
147
0.0
147
0.0
147
1.0
  0
MATERIAL
  5
BD50
102
{ACAD_XDICTIONARY
360
BD51
102
}
102
{ACAD_REACTORS
330
BD4F
102
}
330
BD4F
100
AcDbMaterial
  1
ByLayer
 72
     0
 43
0.0208333333333333
 43
0.0
 43
0.0
 43
0.0
 43
0.0
 43
0.0208333333333333
 43
0.0
 43
0.0
 43
0.0
 43
0.0
 43
1.0
 43
0.0
 43
0.0
 43
0.0
 43
0.0
 43
1.0
 77
     0
 47
0.0208333333333333
 47
0.0
 47
0.0
 47
0.0
 47
0.0
 47
0.0208333333333333
 47
0.0
 47
0.0
 47
0.0
 47
0.0
 47
1.0
 47
0.0
 47
0.0
 47
0.0
 47
0.0
 47
1.0
171
     0
 49
0.0208333333333333
 49
0.0
 49
0.0
 49
0.0
 49
0.0
 49
0.0208333333333333
 49
0.0
 49
0.0
 49
0.0
 49
0.0
 49
1.0
 49
0.0
 49
0.0
 49
0.0
 49
0.0
 49
1.0
175
     0
142
0.0208333333333333
142
0.0
142
0.0
142
0.0
142
0.0
142
0.0208333333333333
142
0.0
142
0.0
142
0.0
142
0.0
142
1.0
142
0.0
142
0.0
142
0.0
142
0.0
142
1.0
179
     0
144
0.0208333333333333
144
0.0
144
0.0
144
0.0
144
0.0
144
0.0208333333333333
144
0.0
144
0.0
144
0.0
144
0.0
144
1.0
144
0.0
144
0.0
144
0.0
144
0.0
144
1.0
147
0.0208333333333333
147
0.0
147
0.0
147
0.0
147
0.0
147
0.0208333333333333
147
0.0
147
0.0
147
0.0
147
0.0
147
1.0
147
0.0
147
0.0
147
0.0
147
0.0
147
1.0
  0
MATERIAL
  5
BD60
102
{ACAD_XDICTIONARY
360
BD61
102
}
102
{ACAD_REACTORS
330
BD4F
102
}
330
BD4F
100
AcDbMaterial
  1
Global
 72
     0
 43
0.0208333333333333
 43
0.0
 43
0.0
 43
0.0
 43
0.0
 43
0.0208333333333333
 43
0.0
 43
0.0
 43
0.0
 43
0.0
 43
1.0
 43
0.0
 43
0.0
 43
0.0
 43
0.0
 43
1.0
 77
     0
 47
0.0208333333333333
 47
0.0
 47
0.0
 47
0.0
 47
0.0
 47
0.0208333333333333
 47
0.0
 47
0.0
 47
0.0
 47
0.0
 47
1.0
 47
0.0
 47
0.0
 47
0.0
 47
0.0
 47
1.0
171
     0
 49
0.0208333333333333
 49
0.0
 49
0.0
 49
0.0
 49
0.0
 49
0.0208333333333333
 49
0.0
 49
0.0
 49
0.0
 49
0.0
 49
1.0
 49
0.0
 49
0.0
 49
0.0
 49
0.0
 49
1.0
175
     0
142
0.0208333333333333
142
0.0
142
0.0
142
0.0
142
0.0
142
0.0208333333333333
142
0.0
142
0.0
142
0.0
142
0.0
142
1.0
142
0.0
142
0.0
142
0.0
142
0.0
142
1.0
179
     0
144
0.0208333333333333
144
0.0
144
0.0
144
0.0
144
0.0
144
0.0208333333333333
144
0.0
144
0.0
144
0.0
144
0.0
144
1.0
144
0.0
144
0.0
144
0.0
144
0.0
144
1.0
147
0.0208333333333333
147
0.0
147
0.0
147
0.0
147
0.0
147
0.0208333333333333
147
0.0
147
0.0
147
0.0
147
0.0
147
1.0
147
0.0
147
0.0
147
0.0
147
0.0
147
1.0
  0
MLEADERSTYLE
  5
BD97
102
{ACAD_REACTORS
330
BD96
102
}
330
BD96
100
AcDbMLeaderStyle
170
     2
171
     1
172
     0
 90
        2
 40
0.0
 41
0.0
173
     1
 91
-1056964608
340
B92A
 92
       -2
290
     1
 42
0.09
291
     1
 43
0.36
  3
Standard
 44
0.18
300

342
B928
174
     1
178
     6
175
     1
176
     0
 93
-1056964608
 45
0.18
292
     0
297
     0
 46
0.18
 94
-1056964608
 47
1.0
 49
1.0
140
1.0
293
     1
141
0.0
294
     1
177
     0
142
1.0
295
     0
296
     0
143
0.125
1001
ACAD_MLEADERVER
1070
     2
  0
MLINESTYLE
  5
B92E
102
{ACAD_REACTORS
330
B92D
102
}
330
B92D
100
AcDbMlineStyle
  2
STANDARD
 70
     0
  3

 62
   256
 51
90.0
 52
90.0
 71
     2
 49
0.5
 62
   256
  6
BYLAYER
 49
-0.5
 62
   256
  6
BYLAYER
  0
ACDBPLACEHOLDER
  5
BD4E
102
{ACAD_REACTORS
330
BD4D
102
}
330
BD4D
  0
SCALE
  5
BD85
102
{ACAD_REACTORS
330
BD84
102
}
330
BD84
100
AcDbScale
 70
     0
300
1:1
140
1.0
141
1.0
290
     1
  0
SCALE
  5
BD86
102
{ACAD_REACTORS
330
BD84
102
}
330
BD84
100
AcDbScale
 70
     0
300
1/128" = 1'-0"
140
0.0078125
141
12.0
290
     0
  0
SCALE
  5
BD87
102
{ACAD_REACTORS
330
BD84
102
}
330
BD84
100
AcDbScale
 70
     0
300
1/64" = 1'-0"
140
0.015625
141
12.0
290
     0
  0
SCALE
  5
BD88
102
{ACAD_REACTORS
330
BD84
102
}
330
BD84
100
AcDbScale
 70
     0
300
1/32" = 1'-0"
140
0.03125
141
12.0
290
     0
  0
SCALE
  5
BD89
102
{ACAD_REACTORS
330
BD84
102
}
330
BD84
100
AcDbScale
 70
     0
300
1/16" = 1'-0"
140
0.0625
141
12.0
290
     0
  0
SCALE
  5
BD8A
102
{ACAD_REACTORS
330
BD84
102
}
330
BD84
100
AcDbScale
 70
     0
300
3/32" = 1'-0"
140
0.09375
141
12.0
290
     0
  0
SCALE
  5
BD8B
102
{ACAD_REACTORS
330
BD84
102
}
330
BD84
100
AcDbScale
 70
     0
300
1/8" = 1'-0"
140
0.125
141
12.0
290
     0
  0
SCALE
  5
BD8C
102
{ACAD_REACTORS
330
BD84
102
}
330
BD84
100
AcDbScale
 70
     0
300
3/16" = 1'-0"
140
0.1875
141
12.0
290
     0
  0
SCALE
  5
BD8D
102
{ACAD_REACTORS
330
BD84
102
}
330
BD84
100
AcDbScale
 70
     0
300
1/4" = 1'-0"
140
0.25
141
12.0
290
     0
  0
SCALE
  5
BD8E
102
{ACAD_REACTORS
330
BD84
102
}
330
BD84
100
AcDbScale
 70
     0
300
3/8" = 1'-0"
140
0.375
141
12.0
290
     0
  0
SCALE
  5
BD8F
102
{ACAD_REACTORS
330
BD84
102
}
330
BD84
100
AcDbScale
 70
     0
300
1/2" = 1'-0"
140
0.5
141
12.0
290
     0
  0
SCALE
  5
BD90
102
{ACAD_REACTORS
330
BD84
102
}
330
BD84
100
AcDbScale
 70
     0
300
3/4" = 1'-0"
140
0.75
141
12.0
290
     0
  0
SCALE
  5
BD91
102
{ACAD_REACTORS
330
BD84
102
}
330
BD84
100
AcDbScale
 70
     0
300
1" = 1'-0"
140
1.0
141
12.0
290
     0
  0
SCALE
  5
BD92
102
{ACAD_REACTORS
330
BD84
102
}
330
BD84
100
AcDbScale
 70
     0
300
1-1/2" = 1'-0"
140
1.5
141
12.0
290
     0
  0
SCALE
  5
BD93
102
{ACAD_REACTORS
330
BD84
102
}
330
BD84
100
AcDbScale
 70
     0
300
3" = 1'-0"
140
3.0
141
12.0
290
     0
  0
SCALE
  5
BD94
102
{ACAD_REACTORS
330
BD84
102
}
330
BD84
100
AcDbScale
 70
     0
300
6" = 1'-0"
140
6.0
141
12.0
290
     0
  0
SCALE
  5
BD95
102
{ACAD_REACTORS
330
BD84
102
}
330
BD84
100
AcDbScale
 70
     0
300
1'-0" = 1'-0"
140
12.0
141
12.0
290
     0
  0
ACDBSECTIONVIEWSTYLE
  5
BD99
102
{ACAD_XDICTIONARY
360
BDF4
102
}
102
{ACAD_REACTORS
330
BD98
102
}
330
BD98
100
AcDbModelDocViewStyle
 70
     0
  3
Imperial24
290
     0
100
AcDbSectionViewStyle
 70
     0
 71
     0
 90
       78
 71
     1
340
B928
 40
0.24
340
0
340
0
 40
0.24
300
I, O, Q, S, X, Z
 40
0.48
 90
        3
 40
0.18
 90
        1
 71
     2
340
B92C
 90
       25
340
B92C
 90
       50
 40
0.24
 40
0.0
 40
0.24
 71
     3
340
B928
 40
0.24
 90
        1
 40
0.75
 90
        1
300
%<\AcVar ViewType \f "%tc1">% %<\AcVar ViewSectionStartId>%-%<\AcVar ViewSectionEndId>%\PSCALE %<\AcVar ViewScale \f "%sn">%
 71
     4
300
ANSI31
 40
1.0
 90
        0
290
     0
290
     0
 90
        6
 40
0.0
 40
1.570796326794896
 40
0.2617993877991494
 40
1.308996938995747
 40
-0.2617993877991494
 40
1.832595714594046
  0
TABLESTYLE
  5
BD83
102
{ACAD_XDICTIONARY
360
BDBB
102
}
102
{ACAD_REACTORS
330
BD82
102
}
330
BD82
100
AcDbTableStyle
  3
Standard
 70
     0
 71
     0
 40
0.06
 41
0.06
280
     0
281
     0
  7
STANDARD
140
0.18
170
     2
 62
     0
 63
     7
283
     0
274
    -2
284
     1
 64
     0
275
    -2
285
     1
 65
     0
276
    -2
286
     1
 66
     0
277
    -2
287
     1
 67
     0
278
    -2
288
     1
 68
     0
279
    -2
289
     1
 69
     0
  7
STANDARD
140
0.25
170
     5
 62
     0
 63
     7
283
     0
274
    -2
284
     1
 64
     0
275
    -2
285
     1
 65
     0
276
    -2
286
     1
 66
     0
277
    -2
287
     1
 67
     0
278
    -2
288
     1
 68
     0
279
    -2
289
     1
 69
     0
  7
STANDARD
140
0.18
170
     5
 62
     0
 63
     7
283
     0
274
    -2
284
     1
 64
     0
275
    -2
285
     1
 65
     0
276
    -2
286
     1
 66
     0
277
    -2
287
     1
 67
     0
278
    -2
288
     1
 68
     0
279
    -2
289
     1
 69
     0
  0
VISUALSTYLE
  5
BD6E
102
{ACAD_XDICTIONARY
360
BDCC
102
}
102
{ACAD_REACTORS
330
BD68
102
}
330
BD68
100
AcDbVisualStyle
  2
2dWireframe
 70
     4
 71
     0
 72
     2
 73
     0
 90
        0
 40
-0.6
 41
-30.0
 62
     5
 63
     7
 74
     1
 91
        4
 64
     7
 65
   257
 75
     1
175
     1
 42
1.0
 92
        0
 66
   257
 43
1.0
 76
     1
 77
     6
 78
     2
 67
     7
 79
     5
170
     0
171
     0
290
     0
174
     0
 93
        1
 44
0.0
173
     0
291
     0
 45
0.0
1001
ACAD
1000
AcDbSavedByObjectVersion
1070
     0
  0
VISUALSTYLE
  5
BD6D
102
{ACAD_XDICTIONARY
360
BDCA
102
}
102
{ACAD_REACTORS
330
BD68
102
}
330
BD68
100
AcDbVisualStyle
  2
Basic
 70
     7
 71
     1
 72
     0
 73
     1
 90
        0
 40
-0.6
 41
-30.0
 62
     5
 63
     7
 74
     0
 91
        4
 64
     7
 65
   257
 75
     1
175
     1
 42
1.0
 92
        8
 66
     7
 43
1.0
 76
     1
 77
     6
 78
     2
 67
     7
 79
     5
170
     0
171
     0
290
     0
174
     0
 93
        1
 44
0.0
173
     0
291
     1
 45
0.0
1001
ACAD
1000
AcDbSavedByObjectVersion
1070
     0
  0
VISUALSTYLE
  5
BD74
102
{ACAD_XDICTIONARY
360
BDD8
102
}
102
{ACAD_REACTORS
330
BD68
102
}
330
BD68
100
AcDbVisualStyle
  2
Brighten
 70
    12
 71
     2
 72
     2
 73
     0
 90
        0
 40
-0.6
 41
-30.0
 62
     5
 63
     7
 74
     1
 91
        4
 64
     7
 65
   257
 75
     1
175
     1
 42
1.0
 92
        8
 66
     7
 43
1.0
 76
     1
 77
     6
 78
     2
 67
     7
 79
     5
170
     0
171
     0
290
     0
174
     0
 93
        1
 44
50.0
173
     0
291
     1
 45
0.0
1001
ACAD
1000
AcDbSavedByObjectVersion
1070
     0
  0
VISUALSTYLE
  5
BD78
102
{ACAD_XDICTIONARY
360
BDE0
102
}
102
{ACAD_REACTORS
330
BD68
102
}
330
BD68
100
AcDbVisualStyle
  2
ColorChange
 70
    16
 71
     2
 72
     2
 73
     3
 90
        0
 40
-0.6
 41
-30.0
 62
     5
 63
     8
 74
     1
 91
        4
 64
     7
 65
   257
 75
     1
175
     1
 42
1.0
 92
        8
 66
     8
 43
1.0
 76
     1
 77
     6
 78
     2
 67
     7
 79
     5
170
     0
171
     0
290
     0
174
     0
 93
        1
 44
0.0
173
     0
291
     1
 45
0.0
1001
ACAD
1000
AcDbSavedByObjectVersion
1070
     0
  0
VISUALSTYLE
  5
BD71
102
{ACAD_XDICTIONARY
360
BDD2
102
}
102
{ACAD_REACTORS
330
BD68
102
}
330
BD68
100
AcDbVisualStyle
  2
Conceptual
 70
     9
 71
     3
 72
     2
 73
     0
 90
        0
 40
-0.6
 41
-30.0
 62
     5
 63
     7
 74
     2
 91
        2
 64
     7
 65
   257
 75
     1
175
     1
 42
179.0
 92
        8
 66
     7
 43
1.0
 76
     1
 77
     6
 78
     2
 67
     7
 79
     3
170
     0
171
     0
290
     0
174
     0
 93
        1
 44
0.0
173
     0
291
     0
 45
0.0
1001
ACAD
1000
AcDbSavedByObjectVersion
1070
     0
  0
VISUALSTYLE
  5
BD73
102
{ACAD_XDICTIONARY
360
BDD6
102
}
102
{ACAD_REACTORS
330
BD68
102
}
330
BD68
100
AcDbVisualStyle
  2
Dim
 70
    11
 71
     2
 72
     2
 73
     0
 90
        0
 40
-0.6
 41
-30.0
 62
     5
 63
     7
 74
     1
 91
        4
 64
     7
 65
   257
 75
     1
175
     1
 42
1.0
 92
        8
 66
     7
 43
1.0
 76
     1
 77
     6
 78
     2
 67
     7
 79
     5
170
     0
171
     0
290
     0
174
     0
 93
        1
 44
-50.0
173
     0
291
     1
 45
0.0
1001
ACAD
1000
AcDbSavedByObjectVersion
1070
     0
  0
VISUALSTYLE
  5
BD80
102
{ACAD_XDICTIONARY
360
BDF0
102
}
102
{ACAD_REACTORS
330
BD68
102
}
330
BD68
100
AcDbVisualStyle
  2
EdgeColorOff
 70
    22
 71
     2
 72
     2
 73
     0
 90
        0
 40
-0.6
 41
-30.0
 62
     5
 63
     7
 74
     1
 91
        4
 64
     7
 65
   257
 75
     1
175
     1
 42
1.0
 92
        8
 66
     7
 43
1.0
 76
     1
 77
     6
 78
     2
 67
     7
 79
     5
170
     0
171
     0
290
     0
174
     0
 93
        1
 44
0.0
173
     0
291
     1
 45
0.0
1001
ACAD
1000
AcDbSavedByObjectVersion
1070
     0
  0
VISUALSTYLE
  5
BD77
102
{ACAD_XDICTIONARY
360
BDDE
102
}
102
{ACAD_REACTORS
330
BD68
102
}
330
BD68
100
AcDbVisualStyle
  2
Facepattern
 70
    15
 71
     2
 72
     2
 73
     0
 90
        0
 40
-0.6
 41
-30.0
 62
     5
 63
     7
 74
     1
 91
        4
 64
     7
 65
   257
 75
     1
175
     1
 42
1.0
 92
        8
 66
     7
 43
1.0
 76
     1
 77
     6
 78
     2
 67
     7
 79
     5
170
     0
171
     0
290
     0
174
     0
 93
        1
 44
0.0
173
     0
291
     1
 45
0.0
1001
ACAD
1000
AcDbSavedByObjectVersion
1070
     0
  0
VISUALSTYLE
  5
BD69
102
{ACAD_XDICTIONARY
360
BDC2
102
}
102
{ACAD_REACTORS
330
BD68
102
}
330
BD68
100
AcDbVisualStyle
  2
Flat
 70
     0
 71
     2
 72
     1
 73
     1
 90
        2
 40
-0.6
 41
30.0
 62
     5
 63
     7
 74
     0
 91
        0
 64
     7
 65
   257
 75
     1
175
     1
 42
1.0
 92
        8
 66
     7
 43
1.0
 76
     1
 77
     6
 78
     2
 67
     7
 79
     5
170
     0
171
     0
290
     0
174
     0
 93
       13
 44
0.0
173
     0
291
     1
 45
0.0
1001
ACAD
1000
AcDbSavedByObjectVersion
1070
     0
  0
VISUALSTYLE
  5
BD6A
102
{ACAD_XDICTIONARY
360
BDC4
102
}
102
{ACAD_REACTORS
330
BD68
102
}
330
BD68
100
AcDbVisualStyle
  2
FlatWithEdges
 70
     1
 71
     2
 72
     1
 73
     1
 90
        2
 40
-0.6
 41
30.0
 62
     5
 63
     7
 74
     1
 91
        0
 64
     7
 65
   257
 75
     1
175
     1
 42
1.0
 92
        0
 66
   257
 43
1.0
 76
     1
 77
     6
 78
     2
 67
     7
 79
     5
170
     0
171
     0
290
     0
174
     0
 93
       13
 44
0.0
173
     0
291
     1
 45
0.0
1001
ACAD
1000
AcDbSavedByObjectVersion
1070
     0
  0
VISUALSTYLE
  5
BD6B
102
{ACAD_XDICTIONARY
360
BDC6
102
}
102
{ACAD_REACTORS
330
BD68
102
}
330
BD68
100
AcDbVisualStyle
  2
Gouraud
 70
     2
 71
     2
 72
     2
 73
     1
 90
        2
 40
-0.6
 41
30.0
 62
     5
 63
     7
 74
     0
 91
        0
 64
     7
 65
   257
 75
     1
175
     1
 42
1.0
 92
        0
 66
     7
 43
1.0
 76
     1
 77
     6
 78
     2
 67
     7
 79
     5
170
     0
171
     0
290
     0
174
     0
 93
       13
 44
0.0
173
     0
291
     1
 45
0.0
1001
ACAD
1000
AcDbSavedByObjectVersion
1070
     0
  0
VISUALSTYLE
  5
BD6C
102
{ACAD_XDICTIONARY
360
BDC8
102
}
102
{ACAD_REACTORS
330
BD68
102
}
330
BD68
100
AcDbVisualStyle
  2
GouraudWithEdges
 70
     3
 71
     2
 72
     2
 73
     1
 90
        2
 40
-0.6
 41
30.0
 62
     5
 63
     7
 74
     1
 91
        0
 64
     7
 65
   257
 75
     1
175
     1
 42
1.0
 92
        0
 66
   257
 43
1.0
 76
     1
 77
     6
 78
     2
 67
     7
 79
     5
170
     0
171
     0
290
     0
174
     0
 93
       13
 44
0.0
173
     0
291
     1
 45
0.0
1001
ACAD
1000
AcDbSavedByObjectVersion
1070
     0
  0
VISUALSTYLE
  5
BD70
102
{ACAD_XDICTIONARY
360
BDD0
102
}
102
{ACAD_REACTORS
330
BD68
102
}
330
BD68
100
AcDbVisualStyle
  2
Hidden
 70
     6
 71
     1
 72
     2
 73
     2
 90
        0
 40
-0.6
 41
-30.0
 62
     5
 63
     7
 74
     2
 91
        2
 64
     7
 65
   257
 75
     2
175
     1
 42
40.0
 92
        0
 66
   257
 43
1.0
 76
     1
 77
     6
 78
     2
 67
     7
 79
     3
170
     0
171
     0
290
     0
174
     0
 93
        1
 44
0.0
173
     0
291
     0
 45
0.0
1001
ACAD
1000
AcDbSavedByObjectVersion
1070
     0
  0
VISUALSTYLE
  5
BD7E
102
{ACAD_XDICTIONARY
360
BDEC
102
}
102
{ACAD_REACTORS
330
BD68
102
}
330
BD68
100
AcDbVisualStyle
  2
JitterOff
 70
    20
 71
     2
 72
     2
 73
     0
 90
        0
 40
-0.6
 41
-30.0
 62
     5
 63
     7
 74
     1
 91
        4
 64
     7
 65
   257
 75
     1
175
     1
 42
1.0
 92
       10
 66
     7
 43
1.0
 76
     1
 77
     6
 78
     2
 67
     7
 79
     5
170
     0
171
     0
290
     0
174
     0
 93
        1
 44
0.0
173
     0
291
     1
 45
0.0
1001
ACAD
1000
AcDbSavedByObjectVersion
1070
     0
  0
VISUALSTYLE
  5
BD76
102
{ACAD_XDICTIONARY
360
BDDC
102
}
102
{ACAD_REACTORS
330
BD68
102
}
330
BD68
100
AcDbVisualStyle
  2
Linepattern
 70
    14
 71
     2
 72
     2
 73
     0
 90
        0
 40
-0.6
 41
-30.0
 62
     5
 63
     7
 74
     1
 91
        4
 64
     7
 65
   257
 75
     7
175
     7
 42
1.0
 92
        8
 66
     7
 43
1.0
 76
     1
 77
     6
 78
     2
 67
     7
 79
     5
170
     0
171
     0
290
     0
174
     0
 93
        1
 44
0.0
173
     0
291
     1
 45
0.0
1001
ACAD
1000
AcDbSavedByObjectVersion
1070
     0
  0
VISUALSTYLE
  5
BD7F
102
{ACAD_XDICTIONARY
360
BDEE
102
}
102
{ACAD_REACTORS
330
BD68
102
}
330
BD68
100
AcDbVisualStyle
  2
OverhangOff
 70
    21
 71
     2
 72
     2
 73
     0
 90
        0
 40
-0.6
 41
-30.0
 62
     5
 63
     7
 74
     1
 91
        4
 64
     7
 65
   257
 75
     1
175
     1
 42
1.0
 92
        9
 66
     7
 43
1.0
 76
     1
 77
     6
 78
     2
 67
     7
 79
     5
170
     0
171
     0
290
     0
174
     0
 93
        1
 44
0.0
173
     0
291
     1
 45
0.0
1001
ACAD
1000
AcDbSavedByObjectVersion
1070
     0
  0
VISUALSTYLE
  5
BD72
102
{ACAD_XDICTIONARY
360
BDD4
102
}
102
{ACAD_REACTORS
330
BD68
102
}
330
BD68
100
AcDbVisualStyle
  2
Realistic
 70
     8
 71
     2
 72
     3
 73
     0
 90
        2
 40
-0.6
 41
30.0
 62
     5
 63
     7
 74
     0
 91
        0
 64
     7
 65
   257
 75
     1
175
     1
 42
1.0
 92
        8
 66
   257
 43
1.0
 76
     1
 77
     6
 78
     2
 67
     7
 79
     3
170
     0
171
     0
290
     0
174
     0
 93
       13
 44
0.0
173
     0
291
     0
 45
0.0
1001
ACAD
1000
AcDbSavedByObjectVersion
1070
     0
  0
VISUALSTYLE
  5
BD7D
102
{ACAD_XDICTIONARY
360
BDEA
102
}
102
{ACAD_REACTORS
330
BD68
102
}
330
BD68
100
AcDbVisualStyle
  2
Shaded
 70
    27
 71
     2
 72
     2
 73
     1
 90
        2
 40
-0.6
 41
30.0
 62
     5
 63
     7
 74
     0
 91
        4
 64
     7
 65
   257
 75
     1
175
     1
 42
1.0
 92
        8
 66
   257
 43
1.0
 76
     1
 77
     6
 78
     2
 67
     8
 79
     3
170
     0
171
     0
290
     0
174
     0
 93
        5
 44
0.0
173
     0
291
     0
 45
0.0
1001
ACAD
1000
AcDbSavedByObjectVersion
1070
     0
  0
VISUALSTYLE
  5
BD7C
102
{ACAD_XDICTIONARY
360
BDE8
102
}
102
{ACAD_REACTORS
330
BD68
102
}
330
BD68
100
AcDbVisualStyle
  2
Shaded with edges
 70
    26
 71
     2
 72
     2
 73
     1
 90
        2
 40
-0.6
 41
30.0
 62
     5
 63
     7
 74
     1
 91
       10
 64
     7
 65
   257
 75
     2
175
     1
 42
1.0
 92
        8
 66
   257
 43
1.0
 76
     1
 77
     6
 78
     2
 67
     7
 79
     3
170
     0
171
     0
290
     0
174
     0
 93
        5
 44
0.0
173
     0
291
     0
 45
0.0
1001
ACAD
1000
AcDbSavedByObjectVersion
1070
     0
  0
VISUALSTYLE
  5
BD79
102
{ACAD_XDICTIONARY
360
BDE2
102
}
102
{ACAD_REACTORS
330
BD68
102
}
330
BD68
100
AcDbVisualStyle
  2
Shades of Gray
 70
    23
 71
     2
 72
     2
 73
     3
 90
        0
 40
-0.6
 41
-30.0
 62
     5
 63
     7
 74
     2
 91
        2
 64
     7
 65
     7
 75
     1
175
     1
 42
40.0
 92
        8
 66
     7
 43
1.0
 76
     1
 77
     6
 78
     2
 67
     7
 79
     3
170
     0
171
     0
290
     0
174
     0
 93
        1
 44
0.0
173
     0
291
     0
 45
0.0
1001
ACAD
1000
AcDbSavedByObjectVersion
1070
     0
  0
VISUALSTYLE
  5
BD7A
102
{ACAD_XDICTIONARY
360
BDE4
102
}
102
{ACAD_REACTORS
330
BD68
102
}
330
BD68
100
AcDbVisualStyle
  2
Sketchy
 70
    24
 71
     1
 72
     2
 73
     2
 90
        0
 40
-0.6
 41
-30.0
 62
     5
 63
     7
 74
     2
 91
        2
 64
     7
 65
     7
 75
     1
175
     1
 42
40.0
 92
       11
 66
     7
 43
1.0
 76
     1
 77
     6
 78
     2
 67
     7
 79
     6
170
     0
171
     0
290
     0
174
     0
 93
        1
 44
0.0
173
     0
291
     0
 45
0.0
1001
ACAD
1000
AcDbSavedByObjectVersion
1070
     0
  0
VISUALSTYLE
  5
BD75
102
{ACAD_XDICTIONARY
360
BDDA
102
}
102
{ACAD_REACTORS
330
BD68
102
}
330
BD68
100
AcDbVisualStyle
  2
Thicken
 70
    13
 71
     2
 72
     2
 73
     0
 90
        0
 40
-0.6
 41
-30.0
 62
     5
 63
     7
 74
     1
 91
        4
 64
     7
 65
   257
 75
     1
175
     1
 42
1.0
 92
       12
 66
     7
 43
1.0
 76
     1
 77
     6
 78
     2
 67
     7
 79
     5
170
     0
171
     0
290
     0
174
     0
 93
        1
 44
0.0
173
     0
291
     1
 45
0.0
1001
ACAD
1000
AcDbSavedByObjectVersion
1070
     0
  0
VISUALSTYLE
  5
BD6F
102
{ACAD_XDICTIONARY
360
BDCE
102
}
102
{ACAD_REACTORS
330
BD68
102
}
330
BD68
100
AcDbVisualStyle
  2
Wireframe
 70
     5
 71
     0
 72
     2
 73
     0
 90
        0
 40
-0.6
 41
-30.0
 62
     5
 63
     7
 74
     1
 91
        4
 64
     7
 65
   257
 75
     1
175
     1
 42
1.0
 92
        0
 66
   257
 43
1.0
 76
     1
 77
     6
 78
     2
 67
     7
 79
     3
170
     0
171
     0
290
     0
174
     0
 93
        1
 44
0.0
173
     0
291
     0
 45
0.0
1001
ACAD
1000
AcDbSavedByObjectVersion
1070
     0
  0
VISUALSTYLE
  5
BD7B
102
{ACAD_XDICTIONARY
360
BDE6
102
}
102
{ACAD_REACTORS
330
BD68
102
}
330
BD68
100
AcDbVisualStyle
  2
X-Ray
 70
    25
 71
     2
 72
     2
 73
     1
 90
        1
 40
0.5
 41
-30.0
 62
     5
 63
     7
 74
     1
 91
        0
 64
     7
 65
   257
 75
     1
175
     1
 42
1.0
 92
        8
 66
     7
 43
1.0
 76
     1
 77
     6
 78
     2
 67
     7
 79
     3
170
     0
171
     0
290
     0
174
     0
 93
       13
 44
0.0
173
     0
291
     0
 45
0.0
1001
ACAD
1000
AcDbSavedByObjectVersion
1070
     0
  0
DICTIONARYVAR
  5
BDB5
102
{ACAD_REACTORS
330
BDB0
102
}
330
BDB0
100
DictionaryVariables
280
     0
  1
1:1
  0
DICTIONARYVAR
  5
BDB2
102
{ACAD_REACTORS
330
BDB0
102
}
330
BDB0
100
DictionaryVariables
280
     0
  1
STANDARD
  0
DICTIONARYVAR
  5
BDB1
102
{ACAD_REACTORS
330
BDB0
102
}
330
BDB0
100
DictionaryVariables
280
     0
  1
STANDARD
  0
DICTIONARYVAR
  5
BDB3
102
{ACAD_REACTORS
330
BDB0
102
}
330
BDB0
100
DictionaryVariables
280
     0
  1
Imperial24
  0
DICTIONARYVAR
  5
BDB4
102
{ACAD_REACTORS
330
BDB0
102
}
330
BDB0
100
DictionaryVariables
280
     0
  1
Imperial24
  0
DICTIONARYVAR
  5
BDB8
102
{ACAD_REACTORS
330
BDB0
102
}
330
BDB0
100
DictionaryVariables
280
     0
  1
1
  0
DICTIONARYVAR
  5
BDB7
102
{ACAD_REACTORS
330
BDB0
102
}
330
BDB0
100
DictionaryVariables
280
     0
  1
0
  0
DICTIONARYVAR
  5
BDB6
102
{ACAD_REACTORS
330
BDB0
102
}
330
BDB0
100
DictionaryVariables
280
     0
  1
127
  0
DICTIONARYVAR
  5
BDB9
102
{ACAD_REACTORS
330
BDB0
102
}
330
BDB0
100
DictionaryVariables
280
     0
  1
2
  0
DICTIONARY
  5
BDF6
330
BD9B
100
AcDbDictionary
280
     1
281
     1
  3
ACAD_XREC_ROUNDTRIP
360
BDF7
  0
DICTIONARY
  5
BDF8
330
BD9C
100
AcDbDictionary
280
     1
281
     1
  3
ACAD_XREC_ROUNDTRIP
360
BDF9
  0
DICTIONARY
  5
BDFA
330
BD9D
100
AcDbDictionary
280
     1
281
     1
  3
ACAD_XREC_ROUNDTRIP
360
BDFB
  0
DICTIONARY
  5
BD59
330
BD58
100
AcDbDictionary
280
     1
281
     1
  3
ACAD_XREC_ROUNDTRIP
360
BDC0
  3
BUMPTILE
360
BD5B
  3
DIFFUSETILE
360
BD5A
  3
OPACITYTILE
360
BD5E
  3
REFLECTIONTILE
360
BD5D
  3
REFRACTIONTILE
360
BD5F
  3
SPECULARTILE
360
BD5C
  0
DICTIONARY
  5
BD51
330
BD50
100
AcDbDictionary
280
     1
281
     1
  3
ACAD_XREC_ROUNDTRIP
360
BDBF
  3
BUMPTILE
360
BD53
  3
DIFFUSETILE
360
BD52
  3
OPACITYTILE
360
BD56
  3
REFLECTIONTILE
360
BD55
  3
REFRACTIONTILE
360
BD57
  3
SPECULARTILE
360
BD54
  0
DICTIONARY
  5
BD61
330
BD60
100
AcDbDictionary
280
     1
281
     1
  3
ACAD_XREC_ROUNDTRIP
360
BDC1
  3
BUMPTILE
360
BD63
  3
DIFFUSETILE
360
BD62
  3
OPACITYTILE
360
BD66
  3
REFLECTIONTILE
360
BD65
  3
REFRACTIONTILE
360
BD67
  3
SPECULARTILE
360
BD64
  0
DICTIONARY
  5
BDF4
330
BD99
100
AcDbDictionary
280
     1
281
     1
  3
ACAD_XREC_ROUNDTRIP
360
BDF5
  0
DICTIONARY
  5
BDBB
330
BD83
100
AcDbDictionary
280
     1
281
     1
  3
ACAD_ROUNDTRIP_2008_TABLESTYLE_CELLSTYLEMAP
360
BDBC
  3
ACAD_XREC_ROUNDTRIP
360
BDF2
  0
DICTIONARY
  5
BDCC
330
BD6E
100
AcDbDictionary
280
     1
281
     1
  3
ACAD_XREC_ROUNDTRIP
360
BDCD
  0
DICTIONARY
  5
BDCA
330
BD6D
100
AcDbDictionary
280
     1
281
     1
  3
ACAD_XREC_ROUNDTRIP
360
BDCB
  0
DICTIONARY
  5
BDD8
330
BD74
100
AcDbDictionary
280
     1
281
     1
  3
ACAD_XREC_ROUNDTRIP
360
BDD9
  0
DICTIONARY
  5
BDE0
330
BD78
100
AcDbDictionary
280
     1
281
     1
  3
ACAD_XREC_ROUNDTRIP
360
BDE1
  0
DICTIONARY
  5
BDD2
330
BD71
100
AcDbDictionary
280
     1
281
     1
  3
ACAD_XREC_ROUNDTRIP
360
BDD3
  0
DICTIONARY
  5
BDD6
330
BD73
100
AcDbDictionary
280
     1
281
     1
  3
ACAD_XREC_ROUNDTRIP
360
BDD7
  0
DICTIONARY
  5
BDF0
330
BD80
100
AcDbDictionary
280
     1
281
     1
  3
ACAD_XREC_ROUNDTRIP
360
BDF1
  0
DICTIONARY
  5
BDDE
330
BD77
100
AcDbDictionary
280
     1
281
     1
  3
ACAD_XREC_ROUNDTRIP
360
BDDF
  0
DICTIONARY
  5
BDC2
330
BD69
100
AcDbDictionary
280
     1
281
     1
  3
ACAD_XREC_ROUNDTRIP
360
BDC3
  0
DICTIONARY
  5
BDC4
330
BD6A
100
AcDbDictionary
280
     1
281
     1
  3
ACAD_XREC_ROUNDTRIP
360
BDC5
  0
DICTIONARY
  5
BDC6
330
BD6B
100
AcDbDictionary
280
     1
281
     1
  3
ACAD_XREC_ROUNDTRIP
360
BDC7
  0
DICTIONARY
  5
BDC8
330
BD6C
100
AcDbDictionary
280
     1
281
     1
  3
ACAD_XREC_ROUNDTRIP
360
BDC9
  0
DICTIONARY
  5
BDD0
330
BD70
100
AcDbDictionary
280
     1
281
     1
  3
ACAD_XREC_ROUNDTRIP
360
BDD1
  0
DICTIONARY
  5
BDEC
330
BD7E
100
AcDbDictionary
280
     1
281
     1
  3
ACAD_XREC_ROUNDTRIP
360
BDED
  0
DICTIONARY
  5
BDDC
330
BD76
100
AcDbDictionary
280
     1
281
     1
  3
ACAD_XREC_ROUNDTRIP
360
BDDD
  0
DICTIONARY
  5
BDEE
330
BD7F
100
AcDbDictionary
280
     1
281
     1
  3
ACAD_XREC_ROUNDTRIP
360
BDEF
  0
DICTIONARY
  5
BDD4
330
BD72
100
AcDbDictionary
280
     1
281
     1
  3
ACAD_XREC_ROUNDTRIP
360
BDD5
  0
DICTIONARY
  5
BDEA
330
BD7D
100
AcDbDictionary
280
     1
281
     1
  3
ACAD_XREC_ROUNDTRIP
360
BDEB
  0
DICTIONARY
  5
BDE8
330
BD7C
100
AcDbDictionary
280
     1
281
     1
  3
ACAD_XREC_ROUNDTRIP
360
BDE9
  0
DICTIONARY
  5
BDE2
330
BD79
100
AcDbDictionary
280
     1
281
     1
  3
ACAD_XREC_ROUNDTRIP
360
BDE3
  0
DICTIONARY
  5
BDE4
330
BD7A
100
AcDbDictionary
280
     1
281
     1
  3
ACAD_XREC_ROUNDTRIP
360
BDE5
  0
DICTIONARY
  5
BDDA
330
BD75
100
AcDbDictionary
280
     1
281
     1
  3
ACAD_XREC_ROUNDTRIP
360
BDDB
  0
DICTIONARY
  5
BDCE
330
BD6F
100
AcDbDictionary
280
     1
281
     1
  3
ACAD_XREC_ROUNDTRIP
360
BDCF
  0
DICTIONARY
  5
BDE6
330
BD7B
100
AcDbDictionary
280
     1
281
     1
  3
ACAD_XREC_ROUNDTRIP
360
BDE7
  0
XRECORD
  5
BDF7
102
{ACAD_REACTORS
330
BDF6
102
}
330
BDF6
100
AcDbXrecord
280
     1
102
DISPLAYNAME
  1
Imperial24
102
FLAGS
 90
        0
  0
XRECORD
  5
BDF9
102
{ACAD_REACTORS
330
BDF8
102
}
330
BDF8
100
AcDbXrecord
280
     1
102
SHADEPLOT
 70
     0
102
SHADEPLOTRESLEVEL
 70
     2
102
SHADEPLOTCUSTOMDPI
 70
   300
  0
XRECORD
  5
BDFB
102
{ACAD_REACTORS
330
BDFA
102
}
330
BDFA
100
AcDbXrecord
280
     1
102
SHADEPLOT
 70
     0
102
SHADEPLOTRESLEVEL
 70
     2
102
SHADEPLOTCUSTOMDPI
 70
   300
  0
XRECORD
  5
BDC0
102
{ACAD_REACTORS
330
BD59
102
}
330
BD59
100
AcDbXrecord
280
     1
102
MATERIAL
148
0.0
149
0.0
149
0.0
 93
        0
 94
      127
282
     0
 72
     0
 77
     0
171
     0
175
     0
179
     0
273
     0
  0
XRECORD
  5
BD5B
102
{ACAD_REACTORS
330
BD59
102
}
330
BD59
100
AcDbXrecord
280
     1
270
     1
271
     1
  0
XRECORD
  5
BD5A
102
{ACAD_REACTORS
330
BD59
102
}
330
BD59
100
AcDbXrecord
280
     1
270
     1
271
     1
  0
XRECORD
  5
BD5E
102
{ACAD_REACTORS
330
BD59
102
}
330
BD59
100
AcDbXrecord
280
     1
270
     1
271
     1
  0
XRECORD
  5
BD5D
102
{ACAD_REACTORS
330
BD59
102
}
330
BD59
100
AcDbXrecord
280
     1
270
     1
271
     1
  0
XRECORD
  5
BD5F
102
{ACAD_REACTORS
330
BD59
102
}
330
BD59
100
AcDbXrecord
280
     1
270
     1
271
     1
  0
XRECORD
  5
BD5C
102
{ACAD_REACTORS
330
BD59
102
}
330
BD59
100
AcDbXrecord
280
     1
270
     1
271
     1
  0
XRECORD
  5
BDBF
102
{ACAD_REACTORS
330
BD51
102
}
330
BD51
100
AcDbXrecord
280
     1
102
MATERIAL
148
0.0
149
0.0
149
0.0
 93
        0
 94
      127
282
     0
 72
     0
 77
     0
171
     0
175
     0
179
     0
273
     0
  0
XRECORD
  5
BD53
102
{ACAD_REACTORS
330
BD51
102
}
330
BD51
100
AcDbXrecord
280
     1
270
     1
271
     1
  0
XRECORD
  5
BD52
102
{ACAD_REACTORS
330
BD51
102
}
330
BD51
100
AcDbXrecord
280
     1
270
     1
271
     1
  0
XRECORD
  5
BD56
102
{ACAD_REACTORS
330
BD51
102
}
330
BD51
100
AcDbXrecord
280
     1
270
     1
271
     1
  0
XRECORD
  5
BD55
102
{ACAD_REACTORS
330
BD51
102
}
330
BD51
100
AcDbXrecord
280
     1
270
     1
271
     1
  0
XRECORD
  5
BD57
102
{ACAD_REACTORS
330
BD51
102
}
330
BD51
100
AcDbXrecord
280
     1
270
     1
271
     1
  0
XRECORD
  5
BD54
102
{ACAD_REACTORS
330
BD51
102
}
330
BD51
100
AcDbXrecord
280
     1
270
     1
271
     1
  0
XRECORD
  5
BDC1
102
{ACAD_REACTORS
330
BD61
102
}
330
BD61
100
AcDbXrecord
280
     1
102
MATERIAL
148
0.0
149
0.0
149
0.0
 93
        0
 94
      127
282
     0
 72
     0
 77
     0
171
     0
175
     0
179
     0
273
     0
  0
XRECORD
  5
BD63
102
{ACAD_REACTORS
330
BD61
102
}
330
BD61
100
AcDbXrecord
280
     1
270
     1
271
     1
  0
XRECORD
  5
BD62
102
{ACAD_REACTORS
330
BD61
102
}
330
BD61
100
AcDbXrecord
280
     1
270
     1
271
     1
  0
XRECORD
  5
BD66
102
{ACAD_REACTORS
330
BD61
102
}
330
BD61
100
AcDbXrecord
280
     1
270
     1
271
     1
  0
XRECORD
  5
BD65
102
{ACAD_REACTORS
330
BD61
102
}
330
BD61
100
AcDbXrecord
280
     1
270
     1
271
     1
  0
XRECORD
  5
BD67
102
{ACAD_REACTORS
330
BD61
102
}
330
BD61
100
AcDbXrecord
280
     1
270
     1
271
     1
  0
XRECORD
  5
BD64
102
{ACAD_REACTORS
330
BD61
102
}
330
BD61
100
AcDbXrecord
280
     1
270
     1
271
     1
  0
XRECORD
  5
BDF5
102
{ACAD_REACTORS
330
BDF4
102
}
330
BDF4
100
AcDbXrecord
280
     1
102
DISPLAYNAME
  1
Imperial24
102
FLAGS
 90
        0
  0
CELLSTYLEMAP
  5
BDBC
102
{ACAD_REACTORS
330
BDBB
102
}
330
BDBB
100
AcDbCellStyleMap
 90
        3
300
CELLSTYLE
  1
TABLEFORMAT_BEGIN
 90
        5
170
     1
 91
        0
 92
    32768
 62
   257
 93
        1
300
CONTENTFORMAT
  1
CONTENTFORMAT_BEGIN
 90
        0
 91
        0
 92
      512
 93
        0
300

 40
0.0
140
1.0
 94
        5
 62
     0
340
B928
144
0.25
309
CONTENTFORMAT_END
171
     0
 94
        0
309
TABLEFORMAT_END
  1
CELLSTYLE_BEGIN
 90
        1
 91
        1
300
_TITLE
309
CELLSTYLE_END
300
CELLSTYLE
  1
TABLEFORMAT_BEGIN
 90
        5
170
     1
 91
        0
 92
        0
 62
   257
 93
        1
300
CONTENTFORMAT
  1
CONTENTFORMAT_BEGIN
 90
        0
 91
        0
 92
      512
 93
        0
300

 40
0.0
140
1.0
 94
        5
 62
     0
340
B928
144
0.18
309
CONTENTFORMAT_END
171
     0
 94
        0
309
TABLEFORMAT_END
  1
CELLSTYLE_BEGIN
 90
        2
 91
        1
300
_HEADER
309
CELLSTYLE_END
300
CELLSTYLE
  1
TABLEFORMAT_BEGIN
 90
        5
170
     1
 91
        0
 92
        0
 62
   257
 93
        1
300
CONTENTFORMAT
  1
CONTENTFORMAT_BEGIN
 90
        0
 91
        0
 92
      512
 93
        0
300

 40
0.0
140
1.0
 94
        2
 62
     0
340
B928
144
0.18
309
CONTENTFORMAT_END
171
     0
 94
        0
309
TABLEFORMAT_END
  1
CELLSTYLE_BEGIN
 90
        3
 91
        2
300
_DATA
309
CELLSTYLE_END
  0
XRECORD
  5
BDF2
102
{ACAD_REACTORS
330
BDBB
102
}
330
BDBB
100
AcDbXrecord
280
     1
102
ACAD_ROUNDTRIP_PRE2007_TABLESTYLE
 90
      512
 91
        0
  1

 92
      512
 93
        0
  2

 94
      512
 95
        0
  3

  0
XRECORD
  5
BDCD
102
{ACAD_REACTORS
330
BDCC
102
}
330
BDCC
100
AcDbXrecord
280
     1
102
RTVSPost2010Prop28
280
     1
102
RTVSPost2010PropOp28
 70
     1
102
RTVSPost2010Prop29
280
     1
102
RTVSPost2010PropOp29
 70
     1
102
RTVSPost2010Prop30
280
     0
102
RTVSPost2010PropOp30
 70
     1
102
RTVSPost2010Prop31
280
     0
102
RTVSPost2010PropOp31
 70
     1
102
RTVSPost2010Prop32
280
     0
102
RTVSPost2010PropOp32
 70
     1
102
RTVSPost2010Prop33
280
     0
102
RTVSPost2010PropOp33
 70
     1
102
RTVSPost2010Prop34
280
     0
102
RTVSPost2010PropOp34
 70
     1
102
RTVSPost2010Prop35
280
     0
102
RTVSPost2010PropOp35
 70
     1
102
RTVSPost2010Prop36
280
     0
102
RTVSPost2010PropOp36
 70
     1
102
RTVSPost2010Prop37
 90
       50
102
RTVSPost2010PropOp37
 70
     1
102
RTVSPost2010Prop38
140
0.0
102
RTVSPost2010PropOp38
 70
     1
102
RTVSPost2010Prop39
140
1.0
102
RTVSPost2010PropOp39
 70
     1
102
RTVSPost2010Prop40
 90
        0
102
RTVSPost2010PropOp40
 70
     1
102
RTVSPost2010Prop41ColorIndex
 90
       18
102
RTVSPost2010Prop41ColorRGB
 90
        0
102
RTVSPost2010PropOp41
 70
     1
102
RTVSPost2010Prop42
 90
       50
102
RTVSPost2010PropOp42
 70
     1
102
RTVSPost2010Prop43
 90
        3
102
RTVSPost2010PropOp43
 70
     1
102
RTVSPost2010Prop44ColorIndex
 90
        5
102
RTVSPost2010Prop44ColorRGB
 90
      255
102
RTVSPost2010PropOp44
 70
     1
102
RTVSPost2010Prop45
280
     0
102
RTVSPost2010PropOp45
 70
     1
102
RTVSPost2010Prop46
 90
       50
102
RTVSPost2010PropOp46
 70
     1
102
RTVSPost2010Prop47
 90
       50
102
RTVSPost2010PropOp47
 70
     1
102
RTVSPost2010Prop48
 90
       50
102
RTVSPost2010PropOp48
 70
     1
102
RTVSPost2010Prop49
280
     0
102
RTVSPost2010PropOp49
 70
     1
102
RTVSPost2010Prop50
 90
       50
102
RTVSPost2010PropOp50
 70
     1
102
RTVSPost2010Prop51ColorIndex
 90
      256
102
RTVSPost2010Prop51ColorRGB
 90
-16777216
102
RTVSPost2010PropOp51
 70
     0
102
RTVSPost2010Prop52
140
1.0
102
RTVSPost2010PropOp52
 70
     0
102
RTVSPost2010Prop53
 90
        2
102
RTVSPost2010PropOp53
 70
     1
102
RTVSPost2010Prop54
  1
strokes_ogs.tif
102
RTVSPost2010PropOp54
 70
     1
102
RTVSPost2010Prop55
280
     0
102
RTVSPost2010PropOp55
 70
     1
102
RTVSPost2010Prop56
140
1.0
102
RTVSPost2010PropOp56
 70
     1
102
RTVSPost2010Prop57
140
1.0
102
RTVSPost2010PropOp57
 70
     1
102
RTVSPropertyOp0
 70
     1
102
RTVSPropertyOp1
 70
     1
102
RTVSPropertyOp2
 70
     1
102
RTVSPropertyOp3
 70
     1
102
RTVSPropertyOp4
 70
     1
102
RTVSPropertyOp5
 70
     1
102
RTVSPropertyOp6
 70
     1
102
RTVSPropertyOp7
 70
     1
102
RTVSPropertyOp8
 70
     1
102
RTVSPropertyOp9
 70
     1
102
RTVSPropertyOp10
 70
     1
102
RTVSPropertyOp11
 70
     1
102
RTVSPropertyOp12
 70
     1
102
RTVSPropertyOp13
 70
     1
102
RTVSPropertyOp14
 70
     1
102
RTVSPropertyOp15
 70
     1
102
RTVSPropertyOp16
 70
     1
102
RTVSPropertyOp17
 70
     1
102
RTVSPropertyOp18
 70
     1
102
RTVSPropertyOp19
 70
     1
102
RTVSPropertyOp20
 70
     1
102
RTVSPropertyOp21
 70
     1
102
RTVSPropertyOp22
 70
     1
102
RTVSPropertyOp23
 70
     1
102
RTVSPropertyOp24
 70
     1
102
RTVSPropertyOp25
 70
     1
102
RTVSPropertyOp26
 70
     1
102
RTVSPropertyOp27
 70
     1
102
RTVSPropertyOp28
 70
     1
102
RTVSPropertyOp29
 70
     1
102
RTVSPropertyOp30
 70
     1
102
RTVSPropertyOp31
 70
     1
102
RTVSPropertyOp32
 70
     1
102
RTVSPropertyOp33
 70
     1
102
RTVSPropertyOp34
 70
     1
102
RTVSPropertyOp35
 70
     1
102
RTVSPropertyOp36
 70
     1
102
RTVSPropertyOp37
 70
     1
102
RTVSPropertyOp38
 70
     1
102
RTVSPropertyOp39
 70
     1
102
RTVSPropertyOp40
 70
     1
102
RTVSPropertyOp41
 70
     1
102
RTVSPropertyOp42
 70
     1
102
RTVSPropertyOp43
 70
     1
102
RTVSPropertyOp44
 70
     1
102
RTVSPropertyOp45
 70
     1
102
RTVSPropertyOp46
 70
     1
102
RTVSPropertyOp47
 70
     1
102
RTVSPropertyOp48
 70
     1
102
RTVSPropertyOp49
 70
     1
102
RTVSPropertyOp50
 70
     1
102
RTVSPropertyOp51
 70
     0
102
RTVSPropertyOp52
 70
     0
102
RTVSPropertyOp53
 70
     1
102
RTVSPropertyOp54
 70
     1
102
RTVSPropertyOp55
 70
     1
102
RTVSPropertyOp56
 70
     1
102
RTVSPropertyOp57
 70
     1
102
RTVSPropertyOp58
 70
     1
102
RTVSPropertyOp59
 70
     1
102
RTVSPropertyOp60
 70
     1
102
RTVSPropertyOp61
 70
     1
102
RTVSPropertyOp62
 70
     1
  0
XRECORD
  5
BDCB
102
{ACAD_REACTORS
330
BDCA
102
}
330
BDCA
100
AcDbXrecord
280
     1
102
RTVSPost2010Prop28
280
     0
102
RTVSPost2010PropOp28
 70
     1
102
RTVSPost2010Prop29
280
     1
102
RTVSPost2010PropOp29
 70
     1
102
RTVSPost2010Prop30
280
     1
102
RTVSPost2010PropOp30
 70
     1
102
RTVSPost2010Prop31
280
     0
102
RTVSPost2010PropOp31
 70
     1
102
RTVSPost2010Prop32
280
     0
102
RTVSPost2010PropOp32
 70
     1
102
RTVSPost2010Prop33
280
     0
102
RTVSPost2010PropOp33
 70
     1
102
RTVSPost2010Prop34
280
     0
102
RTVSPost2010PropOp34
 70
     1
102
RTVSPost2010Prop35
280
     0
102
RTVSPost2010PropOp35
 70
     1
102
RTVSPost2010Prop36
280
     0
102
RTVSPost2010PropOp36
 70
     1
102
RTVSPost2010Prop37
 90
       50
102
RTVSPost2010PropOp37
 70
     1
102
RTVSPost2010Prop38
140
0.0
102
RTVSPost2010PropOp38
 70
     1
102
RTVSPost2010Prop39
140
1.0
102
RTVSPost2010PropOp39
 70
     1
102
RTVSPost2010Prop40
 90
        0
102
RTVSPost2010PropOp40
 70
     1
102
RTVSPost2010Prop41ColorIndex
 90
       18
102
RTVSPost2010Prop41ColorRGB
 90
        0
102
RTVSPost2010PropOp41
 70
     1
102
RTVSPost2010Prop42
 90
       50
102
RTVSPost2010PropOp42
 70
     1
102
RTVSPost2010Prop43
 90
        3
102
RTVSPost2010PropOp43
 70
     1
102
RTVSPost2010Prop44ColorIndex
 90
        5
102
RTVSPost2010Prop44ColorRGB
 90
      255
102
RTVSPost2010PropOp44
 70
     1
102
RTVSPost2010Prop45
280
     0
102
RTVSPost2010PropOp45
 70
     1
102
RTVSPost2010Prop46
 90
       50
102
RTVSPost2010PropOp46
 70
     1
102
RTVSPost2010Prop47
 90
       50
102
RTVSPost2010PropOp47
 70
     1
102
RTVSPost2010Prop48
 90
       50
102
RTVSPost2010PropOp48
 70
     1
102
RTVSPost2010Prop49
280
     0
102
RTVSPost2010PropOp49
 70
     1
102
RTVSPost2010Prop50
 90
       50
102
RTVSPost2010PropOp50
 70
     1
102
RTVSPost2010Prop51ColorIndex
 90
      256
102
RTVSPost2010Prop51ColorRGB
 90
-16777216
102
RTVSPost2010PropOp51
 70
     0
102
RTVSPost2010Prop52
140
1.0
102
RTVSPost2010PropOp52
 70
     0
102
RTVSPost2010Prop53
 90
        2
102
RTVSPost2010PropOp53
 70
     1
102
RTVSPost2010Prop54
  1
strokes_ogs.tif
102
RTVSPost2010PropOp54
 70
     1
102
RTVSPost2010Prop55
280
     0
102
RTVSPost2010PropOp55
 70
     1
102
RTVSPost2010Prop56
140
1.0
102
RTVSPost2010PropOp56
 70
     1
102
RTVSPost2010Prop57
140
1.0
102
RTVSPost2010PropOp57
 70
     1
102
RTVSPropertyOp0
 70
     1
102
RTVSPropertyOp1
 70
     1
102
RTVSPropertyOp2
 70
     1
102
RTVSPropertyOp3
 70
     1
102
RTVSPropertyOp4
 70
     1
102
RTVSPropertyOp5
 70
     1
102
RTVSPropertyOp6
 70
     1
102
RTVSPropertyOp7
 70
     1
102
RTVSPropertyOp8
 70
     1
102
RTVSPropertyOp9
 70
     1
102
RTVSPropertyOp10
 70
     1
102
RTVSPropertyOp11
 70
     1
102
RTVSPropertyOp12
 70
     1
102
RTVSPropertyOp13
 70
     1
102
RTVSPropertyOp14
 70
     1
102
RTVSPropertyOp15
 70
     1
102
RTVSPropertyOp16
 70
     1
102
RTVSPropertyOp17
 70
     1
102
RTVSPropertyOp18
 70
     1
102
RTVSPropertyOp19
 70
     1
102
RTVSPropertyOp20
 70
     1
102
RTVSPropertyOp21
 70
     1
102
RTVSPropertyOp22
 70
     1
102
RTVSPropertyOp23
 70
     1
102
RTVSPropertyOp24
 70
     1
102
RTVSPropertyOp25
 70
     1
102
RTVSPropertyOp26
 70
     1
102
RTVSPropertyOp27
 70
     1
102
RTVSPropertyOp28
 70
     1
102
RTVSPropertyOp29
 70
     1
102
RTVSPropertyOp30
 70
     1
102
RTVSPropertyOp31
 70
     1
102
RTVSPropertyOp32
 70
     1
102
RTVSPropertyOp33
 70
     1
102
RTVSPropertyOp34
 70
     1
102
RTVSPropertyOp35
 70
     1
102
RTVSPropertyOp36
 70
     1
102
RTVSPropertyOp37
 70
     1
102
RTVSPropertyOp38
 70
     1
102
RTVSPropertyOp39
 70
     1
102
RTVSPropertyOp40
 70
     1
102
RTVSPropertyOp41
 70
     1
102
RTVSPropertyOp42
 70
     1
102
RTVSPropertyOp43
 70
     1
102
RTVSPropertyOp44
 70
     1
102
RTVSPropertyOp45
 70
     1
102
RTVSPropertyOp46
 70
     1
102
RTVSPropertyOp47
 70
     1
102
RTVSPropertyOp48
 70
     1
102
RTVSPropertyOp49
 70
     1
102
RTVSPropertyOp50
 70
     1
102
RTVSPropertyOp51
 70
     0
102
RTVSPropertyOp52
 70
     0
102
RTVSPropertyOp53
 70
     1
102
RTVSPropertyOp54
 70
     1
102
RTVSPropertyOp55
 70
     1
102
RTVSPropertyOp56
 70
     1
102
RTVSPropertyOp57
 70
     1
102
RTVSPropertyOp58
 70
     1
102
RTVSPropertyOp59
 70
     1
102
RTVSPropertyOp60
 70
     1
102
RTVSPropertyOp61
 70
     1
102
RTVSPropertyOp62
 70
     1
  0
XRECORD
  5
BDD9
102
{ACAD_REACTORS
330
BDD8
102
}
330
BDD8
100
AcDbXrecord
280
     1
102
RTVSPost2010Prop28
280
     0
102
RTVSPost2010PropOp28
 70
     1
102
RTVSPost2010Prop29
280
     1
102
RTVSPost2010PropOp29
 70
     1
102
RTVSPost2010Prop30
280
     1
102
RTVSPost2010PropOp30
 70
     1
102
RTVSPost2010Prop31
280
     0
102
RTVSPost2010PropOp31
 70
     1
102
RTVSPost2010Prop32
280
     0
102
RTVSPost2010PropOp32
 70
     1
102
RTVSPost2010Prop33
280
     0
102
RTVSPost2010PropOp33
 70
     1
102
RTVSPost2010Prop34
280
     0
102
RTVSPost2010PropOp34
 70
     1
102
RTVSPost2010Prop35
280
     0
102
RTVSPost2010PropOp35
 70
     1
102
RTVSPost2010Prop36
280
     0
102
RTVSPost2010PropOp36
 70
     1
102
RTVSPost2010Prop37
 90
       50
102
RTVSPost2010PropOp37
 70
     1
102
RTVSPost2010Prop38
140
0.0
102
RTVSPost2010PropOp38
 70
     1
102
RTVSPost2010Prop39
140
1.0
102
RTVSPost2010PropOp39
 70
     1
102
RTVSPost2010Prop40
 90
        0
102
RTVSPost2010PropOp40
 70
     1
102
RTVSPost2010Prop41ColorIndex
 90
       18
102
RTVSPost2010Prop41ColorRGB
 90
        0
102
RTVSPost2010PropOp41
 70
     1
102
RTVSPost2010Prop42
 90
       50
102
RTVSPost2010PropOp42
 70
     1
102
RTVSPost2010Prop43
 90
        3
102
RTVSPost2010PropOp43
 70
     1
102
RTVSPost2010Prop44ColorIndex
 90
        5
102
RTVSPost2010Prop44ColorRGB
 90
      255
102
RTVSPost2010PropOp44
 70
     1
102
RTVSPost2010Prop45
280
     0
102
RTVSPost2010PropOp45
 70
     1
102
RTVSPost2010Prop46
 90
       50
102
RTVSPost2010PropOp46
 70
     1
102
RTVSPost2010Prop47
 90
       50
102
RTVSPost2010PropOp47
 70
     1
102
RTVSPost2010Prop48
 90
       50
102
RTVSPost2010PropOp48
 70
     1
102
RTVSPost2010Prop49
280
     0
102
RTVSPost2010PropOp49
 70
     1
102
RTVSPost2010Prop50
 90
       50
102
RTVSPost2010PropOp50
 70
     1
102
RTVSPost2010Prop51ColorIndex
 90
      256
102
RTVSPost2010Prop51ColorRGB
 90
-16777216
102
RTVSPost2010PropOp51
 70
     0
102
RTVSPost2010Prop52
140
1.0
102
RTVSPost2010PropOp52
 70
     0
102
RTVSPost2010Prop53
 90
        2
102
RTVSPost2010PropOp53
 70
     1
102
RTVSPost2010Prop54
  1
strokes_ogs.tif
102
RTVSPost2010PropOp54
 70
     1
102
RTVSPost2010Prop55
280
     0
102
RTVSPost2010PropOp55
 70
     1
102
RTVSPost2010Prop56
140
1.0
102
RTVSPost2010PropOp56
 70
     1
102
RTVSPost2010Prop57
140
1.0
102
RTVSPost2010PropOp57
 70
     1
102
RTVSPropertyOp0
 70
     1
102
RTVSPropertyOp1
 70
     1
102
RTVSPropertyOp2
 70
     1
102
RTVSPropertyOp3
 70
     1
102
RTVSPropertyOp4
 70
     1
102
RTVSPropertyOp5
 70
     1
102
RTVSPropertyOp6
 70
     1
102
RTVSPropertyOp7
 70
     1
102
RTVSPropertyOp8
 70
     1
102
RTVSPropertyOp9
 70
     1
102
RTVSPropertyOp10
 70
     1
102
RTVSPropertyOp11
 70
     1
102
RTVSPropertyOp12
 70
     1
102
RTVSPropertyOp13
 70
     1
102
RTVSPropertyOp14
 70
     1
102
RTVSPropertyOp15
 70
     1
102
RTVSPropertyOp16
 70
     1
102
RTVSPropertyOp17
 70
     1
102
RTVSPropertyOp18
 70
     1
102
RTVSPropertyOp19
 70
     1
102
RTVSPropertyOp20
 70
     1
102
RTVSPropertyOp21
 70
     1
102
RTVSPropertyOp22
 70
     1
102
RTVSPropertyOp23
 70
     1
102
RTVSPropertyOp24
 70
     1
102
RTVSPropertyOp25
 70
     1
102
RTVSPropertyOp26
 70
     1
102
RTVSPropertyOp27
 70
     1
102
RTVSPropertyOp28
 70
     1
102
RTVSPropertyOp29
 70
     1
102
RTVSPropertyOp30
 70
     1
102
RTVSPropertyOp31
 70
     1
102
RTVSPropertyOp32
 70
     1
102
RTVSPropertyOp33
 70
     1
102
RTVSPropertyOp34
 70
     1
102
RTVSPropertyOp35
 70
     1
102
RTVSPropertyOp36
 70
     1
102
RTVSPropertyOp37
 70
     1
102
RTVSPropertyOp38
 70
     1
102
RTVSPropertyOp39
 70
     1
102
RTVSPropertyOp40
 70
     1
102
RTVSPropertyOp41
 70
     1
102
RTVSPropertyOp42
 70
     1
102
RTVSPropertyOp43
 70
     1
102
RTVSPropertyOp44
 70
     1
102
RTVSPropertyOp45
 70
     1
102
RTVSPropertyOp46
 70
     1
102
RTVSPropertyOp47
 70
     1
102
RTVSPropertyOp48
 70
     1
102
RTVSPropertyOp49
 70
     1
102
RTVSPropertyOp50
 70
     1
102
RTVSPropertyOp51
 70
     0
102
RTVSPropertyOp52
 70
     0
102
RTVSPropertyOp53
 70
     1
102
RTVSPropertyOp54
 70
     1
102
RTVSPropertyOp55
 70
     1
102
RTVSPropertyOp56
 70
     1
102
RTVSPropertyOp57
 70
     1
102
RTVSPropertyOp58
 70
     1
102
RTVSPropertyOp59
 70
     1
102
RTVSPropertyOp60
 70
     1
102
RTVSPropertyOp61
 70
     1
102
RTVSPropertyOp62
 70
     1
  0
XRECORD
  5
BDE1
102
{ACAD_REACTORS
330
BDE0
102
}
330
BDE0
100
AcDbXrecord
280
     1
102
RTVSPost2010Prop28
280
     0
102
RTVSPost2010PropOp28
 70
     1
102
RTVSPost2010Prop29
280
     1
102
RTVSPost2010PropOp29
 70
     1
102
RTVSPost2010Prop30
280
     1
102
RTVSPost2010PropOp30
 70
     1
102
RTVSPost2010Prop31
280
     0
102
RTVSPost2010PropOp31
 70
     1
102
RTVSPost2010Prop32
280
     0
102
RTVSPost2010PropOp32
 70
     1
102
RTVSPost2010Prop33
280
     0
102
RTVSPost2010PropOp33
 70
     1
102
RTVSPost2010Prop34
280
     0
102
RTVSPost2010PropOp34
 70
     1
102
RTVSPost2010Prop35
280
     0
102
RTVSPost2010PropOp35
 70
     1
102
RTVSPost2010Prop36
280
     0
102
RTVSPost2010PropOp36
 70
     1
102
RTVSPost2010Prop37
 90
       50
102
RTVSPost2010PropOp37
 70
     1
102
RTVSPost2010Prop38
140
0.0
102
RTVSPost2010PropOp38
 70
     1
102
RTVSPost2010Prop39
140
1.0
102
RTVSPost2010PropOp39
 70
     1
102
RTVSPost2010Prop40
 90
        0
102
RTVSPost2010PropOp40
 70
     1
102
RTVSPost2010Prop41ColorIndex
 90
       18
102
RTVSPost2010Prop41ColorRGB
 90
        0
102
RTVSPost2010PropOp41
 70
     1
102
RTVSPost2010Prop42
 90
       50
102
RTVSPost2010PropOp42
 70
     1
102
RTVSPost2010Prop43
 90
        3
102
RTVSPost2010PropOp43
 70
     1
102
RTVSPost2010Prop44ColorIndex
 90
        5
102
RTVSPost2010Prop44ColorRGB
 90
      255
102
RTVSPost2010PropOp44
 70
     1
102
RTVSPost2010Prop45
280
     0
102
RTVSPost2010PropOp45
 70
     1
102
RTVSPost2010Prop46
 90
       50
102
RTVSPost2010PropOp46
 70
     1
102
RTVSPost2010Prop47
 90
       50
102
RTVSPost2010PropOp47
 70
     1
102
RTVSPost2010Prop48
 90
       50
102
RTVSPost2010PropOp48
 70
     1
102
RTVSPost2010Prop49
280
     0
102
RTVSPost2010PropOp49
 70
     1
102
RTVSPost2010Prop50
 90
       50
102
RTVSPost2010PropOp50
 70
     1
102
RTVSPost2010Prop51ColorIndex
 90
      256
102
RTVSPost2010Prop51ColorRGB
 90
-16777216
102
RTVSPost2010PropOp51
 70
     0
102
RTVSPost2010Prop52
140
1.0
102
RTVSPost2010PropOp52
 70
     0
102
RTVSPost2010Prop53
 90
        2
102
RTVSPost2010PropOp53
 70
     1
102
RTVSPost2010Prop54
  1
strokes_ogs.tif
102
RTVSPost2010PropOp54
 70
     1
102
RTVSPost2010Prop55
280
     0
102
RTVSPost2010PropOp55
 70
     1
102
RTVSPost2010Prop56
140
1.0
102
RTVSPost2010PropOp56
 70
     1
102
RTVSPost2010Prop57
140
1.0
102
RTVSPost2010PropOp57
 70
     1
102
RTVSPropertyOp0
 70
     1
102
RTVSPropertyOp1
 70
     1
102
RTVSPropertyOp2
 70
     1
102
RTVSPropertyOp3
 70
     1
102
RTVSPropertyOp4
 70
     1
102
RTVSPropertyOp5
 70
     1
102
RTVSPropertyOp6
 70
     1
102
RTVSPropertyOp7
 70
     1
102
RTVSPropertyOp8
 70
     1
102
RTVSPropertyOp9
 70
     1
102
RTVSPropertyOp10
 70
     1
102
RTVSPropertyOp11
 70
     1
102
RTVSPropertyOp12
 70
     1
102
RTVSPropertyOp13
 70
     1
102
RTVSPropertyOp14
 70
     1
102
RTVSPropertyOp15
 70
     1
102
RTVSPropertyOp16
 70
     1
102
RTVSPropertyOp17
 70
     1
102
RTVSPropertyOp18
 70
     1
102
RTVSPropertyOp19
 70
     1
102
RTVSPropertyOp20
 70
     1
102
RTVSPropertyOp21
 70
     1
102
RTVSPropertyOp22
 70
     1
102
RTVSPropertyOp23
 70
     1
102
RTVSPropertyOp24
 70
     1
102
RTVSPropertyOp25
 70
     1
102
RTVSPropertyOp26
 70
     1
102
RTVSPropertyOp27
 70
     1
102
RTVSPropertyOp28
 70
     1
102
RTVSPropertyOp29
 70
     1
102
RTVSPropertyOp30
 70
     1
102
RTVSPropertyOp31
 70
     1
102
RTVSPropertyOp32
 70
     1
102
RTVSPropertyOp33
 70
     1
102
RTVSPropertyOp34
 70
     1
102
RTVSPropertyOp35
 70
     1
102
RTVSPropertyOp36
 70
     1
102
RTVSPropertyOp37
 70
     1
102
RTVSPropertyOp38
 70
     1
102
RTVSPropertyOp39
 70
     1
102
RTVSPropertyOp40
 70
     1
102
RTVSPropertyOp41
 70
     1
102
RTVSPropertyOp42
 70
     1
102
RTVSPropertyOp43
 70
     1
102
RTVSPropertyOp44
 70
     1
102
RTVSPropertyOp45
 70
     1
102
RTVSPropertyOp46
 70
     1
102
RTVSPropertyOp47
 70
     1
102
RTVSPropertyOp48
 70
     1
102
RTVSPropertyOp49
 70
     1
102
RTVSPropertyOp50
 70
     1
102
RTVSPropertyOp51
 70
     0
102
RTVSPropertyOp52
 70
     0
102
RTVSPropertyOp53
 70
     1
102
RTVSPropertyOp54
 70
     1
102
RTVSPropertyOp55
 70
     1
102
RTVSPropertyOp56
 70
     1
102
RTVSPropertyOp57
 70
     1
102
RTVSPropertyOp58
 70
     1
102
RTVSPropertyOp59
 70
     1
102
RTVSPropertyOp60
 70
     1
102
RTVSPropertyOp61
 70
     1
102
RTVSPropertyOp62
 70
     1
  0
XRECORD
  5
BDD3
102
{ACAD_REACTORS
330
BDD2
102
}
330
BDD2
100
AcDbXrecord
280
     1
102
RTVSPost2010Prop28
280
     0
102
RTVSPost2010PropOp28
 70
     1
102
RTVSPost2010Prop29
280
     1
102
RTVSPost2010PropOp29
 70
     1
102
RTVSPost2010Prop30
280
     1
102
RTVSPost2010PropOp30
 70
     1
102
RTVSPost2010Prop31
280
     0
102
RTVSPost2010PropOp31
 70
     1
102
RTVSPost2010Prop32
280
     0
102
RTVSPost2010PropOp32
 70
     1
102
RTVSPost2010Prop33
280
     0
102
RTVSPost2010PropOp33
 70
     1
102
RTVSPost2010Prop34
280
     0
102
RTVSPost2010PropOp34
 70
     1
102
RTVSPost2010Prop35
280
     0
102
RTVSPost2010PropOp35
 70
     1
102
RTVSPost2010Prop36
280
     0
102
RTVSPost2010PropOp36
 70
     1
102
RTVSPost2010Prop37
 90
       50
102
RTVSPost2010PropOp37
 70
     1
102
RTVSPost2010Prop38
140
0.0
102
RTVSPost2010PropOp38
 70
     1
102
RTVSPost2010Prop39
140
1.0
102
RTVSPost2010PropOp39
 70
     1
102
RTVSPost2010Prop40
 90
        0
102
RTVSPost2010PropOp40
 70
     1
102
RTVSPost2010Prop41ColorIndex
 90
       18
102
RTVSPost2010Prop41ColorRGB
 90
        0
102
RTVSPost2010PropOp41
 70
     1
102
RTVSPost2010Prop42
 90
       50
102
RTVSPost2010PropOp42
 70
     1
102
RTVSPost2010Prop43
 90
        3
102
RTVSPost2010PropOp43
 70
     1
102
RTVSPost2010Prop44ColorIndex
 90
        5
102
RTVSPost2010Prop44ColorRGB
 90
      255
102
RTVSPost2010PropOp44
 70
     1
102
RTVSPost2010Prop45
280
     0
102
RTVSPost2010PropOp45
 70
     1
102
RTVSPost2010Prop46
 90
       50
102
RTVSPost2010PropOp46
 70
     1
102
RTVSPost2010Prop47
 90
       50
102
RTVSPost2010PropOp47
 70
     1
102
RTVSPost2010Prop48
 90
       50
102
RTVSPost2010PropOp48
 70
     1
102
RTVSPost2010Prop49
280
     0
102
RTVSPost2010PropOp49
 70
     1
102
RTVSPost2010Prop50
 90
       50
102
RTVSPost2010PropOp50
 70
     1
102
RTVSPost2010Prop51ColorIndex
 90
      256
102
RTVSPost2010Prop51ColorRGB
 90
-16777216
102
RTVSPost2010PropOp51
 70
     0
102
RTVSPost2010Prop52
140
1.0
102
RTVSPost2010PropOp52
 70
     0
102
RTVSPost2010Prop53
 90
        2
102
RTVSPost2010PropOp53
 70
     1
102
RTVSPost2010Prop54
  1
strokes_ogs.tif
102
RTVSPost2010PropOp54
 70
     1
102
RTVSPost2010Prop55
280
     0
102
RTVSPost2010PropOp55
 70
     1
102
RTVSPost2010Prop56
140
1.0
102
RTVSPost2010PropOp56
 70
     1
102
RTVSPost2010Prop57
140
1.0
102
RTVSPost2010PropOp57
 70
     1
102
RTVSPropertyOp0
 70
     1
102
RTVSPropertyOp1
 70
     1
102
RTVSPropertyOp2
 70
     1
102
RTVSPropertyOp3
 70
     1
102
RTVSPropertyOp4
 70
     1
102
RTVSPropertyOp5
 70
     1
102
RTVSPropertyOp6
 70
     1
102
RTVSPropertyOp7
 70
     1
102
RTVSPropertyOp8
 70
     1
102
RTVSPropertyOp9
 70
     1
102
RTVSPropertyOp10
 70
     1
102
RTVSPropertyOp11
 70
     1
102
RTVSPropertyOp12
 70
     1
102
RTVSPropertyOp13
 70
     1
102
RTVSPropertyOp14
 70
     1
102
RTVSPropertyOp15
 70
     1
102
RTVSPropertyOp16
 70
     1
102
RTVSPropertyOp17
 70
     1
102
RTVSPropertyOp18
 70
     1
102
RTVSPropertyOp19
 70
     1
102
RTVSPropertyOp20
 70
     1
102
RTVSPropertyOp21
 70
     1
102
RTVSPropertyOp22
 70
     1
102
RTVSPropertyOp23
 70
     1
102
RTVSPropertyOp24
 70
     1
102
RTVSPropertyOp25
 70
     1
102
RTVSPropertyOp26
 70
     1
102
RTVSPropertyOp27
 70
     1
102
RTVSPropertyOp28
 70
     1
102
RTVSPropertyOp29
 70
     1
102
RTVSPropertyOp30
 70
     1
102
RTVSPropertyOp31
 70
     1
102
RTVSPropertyOp32
 70
     1
102
RTVSPropertyOp33
 70
     1
102
RTVSPropertyOp34
 70
     1
102
RTVSPropertyOp35
 70
     1
102
RTVSPropertyOp36
 70
     1
102
RTVSPropertyOp37
 70
     1
102
RTVSPropertyOp38
 70
     1
102
RTVSPropertyOp39
 70
     1
102
RTVSPropertyOp40
 70
     1
102
RTVSPropertyOp41
 70
     1
102
RTVSPropertyOp42
 70
     1
102
RTVSPropertyOp43
 70
     1
102
RTVSPropertyOp44
 70
     1
102
RTVSPropertyOp45
 70
     1
102
RTVSPropertyOp46
 70
     1
102
RTVSPropertyOp47
 70
     1
102
RTVSPropertyOp48
 70
     1
102
RTVSPropertyOp49
 70
     1
102
RTVSPropertyOp50
 70
     1
102
RTVSPropertyOp51
 70
     0
102
RTVSPropertyOp52
 70
     0
102
RTVSPropertyOp53
 70
     1
102
RTVSPropertyOp54
 70
     1
102
RTVSPropertyOp55
 70
     1
102
RTVSPropertyOp56
 70
     1
102
RTVSPropertyOp57
 70
     1
102
RTVSPropertyOp58
 70
     1
102
RTVSPropertyOp59
 70
     1
102
RTVSPropertyOp60
 70
     1
102
RTVSPropertyOp61
 70
     1
102
RTVSPropertyOp62
 70
     1
  0
XRECORD
  5
BDD7
102
{ACAD_REACTORS
330
BDD6
102
}
330
BDD6
100
AcDbXrecord
280
     1
102
RTVSPost2010Prop28
280
     0
102
RTVSPost2010PropOp28
 70
     1
102
RTVSPost2010Prop29
280
     1
102
RTVSPost2010PropOp29
 70
     1
102
RTVSPost2010Prop30
280
     1
102
RTVSPost2010PropOp30
 70
     1
102
RTVSPost2010Prop31
280
     0
102
RTVSPost2010PropOp31
 70
     1
102
RTVSPost2010Prop32
280
     0
102
RTVSPost2010PropOp32
 70
     1
102
RTVSPost2010Prop33
280
     0
102
RTVSPost2010PropOp33
 70
     1
102
RTVSPost2010Prop34
280
     0
102
RTVSPost2010PropOp34
 70
     1
102
RTVSPost2010Prop35
280
     0
102
RTVSPost2010PropOp35
 70
     1
102
RTVSPost2010Prop36
280
     0
102
RTVSPost2010PropOp36
 70
     1
102
RTVSPost2010Prop37
 90
       50
102
RTVSPost2010PropOp37
 70
     1
102
RTVSPost2010Prop38
140
0.0
102
RTVSPost2010PropOp38
 70
     1
102
RTVSPost2010Prop39
140
1.0
102
RTVSPost2010PropOp39
 70
     1
102
RTVSPost2010Prop40
 90
        0
102
RTVSPost2010PropOp40
 70
     1
102
RTVSPost2010Prop41ColorIndex
 90
       18
102
RTVSPost2010Prop41ColorRGB
 90
        0
102
RTVSPost2010PropOp41
 70
     1
102
RTVSPost2010Prop42
 90
       50
102
RTVSPost2010PropOp42
 70
     1
102
RTVSPost2010Prop43
 90
        3
102
RTVSPost2010PropOp43
 70
     1
102
RTVSPost2010Prop44ColorIndex
 90
        5
102
RTVSPost2010Prop44ColorRGB
 90
      255
102
RTVSPost2010PropOp44
 70
     1
102
RTVSPost2010Prop45
280
     0
102
RTVSPost2010PropOp45
 70
     1
102
RTVSPost2010Prop46
 90
       50
102
RTVSPost2010PropOp46
 70
     1
102
RTVSPost2010Prop47
 90
       50
102
RTVSPost2010PropOp47
 70
     1
102
RTVSPost2010Prop48
 90
       50
102
RTVSPost2010PropOp48
 70
     1
102
RTVSPost2010Prop49
280
     0
102
RTVSPost2010PropOp49
 70
     1
102
RTVSPost2010Prop50
 90
       50
102
RTVSPost2010PropOp50
 70
     1
102
RTVSPost2010Prop51ColorIndex
 90
      256
102
RTVSPost2010Prop51ColorRGB
 90
-16777216
102
RTVSPost2010PropOp51
 70
     0
102
RTVSPost2010Prop52
140
1.0
102
RTVSPost2010PropOp52
 70
     0
102
RTVSPost2010Prop53
 90
        2
102
RTVSPost2010PropOp53
 70
     1
102
RTVSPost2010Prop54
  1
strokes_ogs.tif
102
RTVSPost2010PropOp54
 70
     1
102
RTVSPost2010Prop55
280
     0
102
RTVSPost2010PropOp55
 70
     1
102
RTVSPost2010Prop56
140
1.0
102
RTVSPost2010PropOp56
 70
     1
102
RTVSPost2010Prop57
140
1.0
102
RTVSPost2010PropOp57
 70
     1
102
RTVSPropertyOp0
 70
     1
102
RTVSPropertyOp1
 70
     1
102
RTVSPropertyOp2
 70
     1
102
RTVSPropertyOp3
 70
     1
102
RTVSPropertyOp4
 70
     1
102
RTVSPropertyOp5
 70
     1
102
RTVSPropertyOp6
 70
     1
102
RTVSPropertyOp7
 70
     1
102
RTVSPropertyOp8
 70
     1
102
RTVSPropertyOp9
 70
     1
102
RTVSPropertyOp10
 70
     1
102
RTVSPropertyOp11
 70
     1
102
RTVSPropertyOp12
 70
     1
102
RTVSPropertyOp13
 70
     1
102
RTVSPropertyOp14
 70
     1
102
RTVSPropertyOp15
 70
     1
102
RTVSPropertyOp16
 70
     1
102
RTVSPropertyOp17
 70
     1
102
RTVSPropertyOp18
 70
     1
102
RTVSPropertyOp19
 70
     1
102
RTVSPropertyOp20
 70
     1
102
RTVSPropertyOp21
 70
     1
102
RTVSPropertyOp22
 70
     1
102
RTVSPropertyOp23
 70
     1
102
RTVSPropertyOp24
 70
     1
102
RTVSPropertyOp25
 70
     1
102
RTVSPropertyOp26
 70
     1
102
RTVSPropertyOp27
 70
     1
102
RTVSPropertyOp28
 70
     1
102
RTVSPropertyOp29
 70
     1
102
RTVSPropertyOp30
 70
     1
102
RTVSPropertyOp31
 70
     1
102
RTVSPropertyOp32
 70
     1
102
RTVSPropertyOp33
 70
     1
102
RTVSPropertyOp34
 70
     1
102
RTVSPropertyOp35
 70
     1
102
RTVSPropertyOp36
 70
     1
102
RTVSPropertyOp37
 70
     1
102
RTVSPropertyOp38
 70
     1
102
RTVSPropertyOp39
 70
     1
102
RTVSPropertyOp40
 70
     1
102
RTVSPropertyOp41
 70
     1
102
RTVSPropertyOp42
 70
     1
102
RTVSPropertyOp43
 70
     1
102
RTVSPropertyOp44
 70
     1
102
RTVSPropertyOp45
 70
     1
102
RTVSPropertyOp46
 70
     1
102
RTVSPropertyOp47
 70
     1
102
RTVSPropertyOp48
 70
     1
102
RTVSPropertyOp49
 70
     1
102
RTVSPropertyOp50
 70
     1
102
RTVSPropertyOp51
 70
     0
102
RTVSPropertyOp52
 70
     0
102
RTVSPropertyOp53
 70
     1
102
RTVSPropertyOp54
 70
     1
102
RTVSPropertyOp55
 70
     1
102
RTVSPropertyOp56
 70
     1
102
RTVSPropertyOp57
 70
     1
102
RTVSPropertyOp58
 70
     1
102
RTVSPropertyOp59
 70
     1
102
RTVSPropertyOp60
 70
     1
102
RTVSPropertyOp61
 70
     1
102
RTVSPropertyOp62
 70
     1
  0
XRECORD
  5
BDF1
102
{ACAD_REACTORS
330
BDF0
102
}
330
BDF0
100
AcDbXrecord
280
     1
102
RTVSPost2010Prop28
280
     0
102
RTVSPost2010PropOp28
 70
     1
102
RTVSPost2010Prop29
280
     1
102
RTVSPost2010PropOp29
 70
     1
102
RTVSPost2010Prop30
280
     1
102
RTVSPost2010PropOp30
 70
     1
102
RTVSPost2010Prop31
280
     0
102
RTVSPost2010PropOp31
 70
     1
102
RTVSPost2010Prop32
280
     0
102
RTVSPost2010PropOp32
 70
     1
102
RTVSPost2010Prop33
280
     0
102
RTVSPost2010PropOp33
 70
     1
102
RTVSPost2010Prop34
280
     0
102
RTVSPost2010PropOp34
 70
     1
102
RTVSPost2010Prop35
280
     0
102
RTVSPost2010PropOp35
 70
     1
102
RTVSPost2010Prop36
280
     0
102
RTVSPost2010PropOp36
 70
     1
102
RTVSPost2010Prop37
 90
       50
102
RTVSPost2010PropOp37
 70
     0
102
RTVSPost2010Prop38
140
0.0
102
RTVSPost2010PropOp38
 70
     0
102
RTVSPost2010Prop39
140
1.0
102
RTVSPost2010PropOp39
 70
     0
102
RTVSPost2010Prop40
 90
        0
102
RTVSPost2010PropOp40
 70
     0
102
RTVSPost2010Prop41ColorIndex
 90
       18
102
RTVSPost2010Prop41ColorRGB
 90
        0
102
RTVSPost2010PropOp41
 70
     0
102
RTVSPost2010Prop42
 90
       50
102
RTVSPost2010PropOp42
 70
     0
102
RTVSPost2010Prop43
 90
        3
102
RTVSPost2010PropOp43
 70
     0
102
RTVSPost2010Prop44ColorIndex
 90
        5
102
RTVSPost2010Prop44ColorRGB
 90
      255
102
RTVSPost2010PropOp44
 70
     0
102
RTVSPost2010Prop45
280
     0
102
RTVSPost2010PropOp45
 70
     1
102
RTVSPost2010Prop46
 90
       50
102
RTVSPost2010PropOp46
 70
     0
102
RTVSPost2010Prop47
 90
       50
102
RTVSPost2010PropOp47
 70
     0
102
RTVSPost2010Prop48
 90
       50
102
RTVSPost2010PropOp48
 70
     0
102
RTVSPost2010Prop49
280
     0
102
RTVSPost2010PropOp49
 70
     1
102
RTVSPost2010Prop50
 90
       50
102
RTVSPost2010PropOp50
 70
     0
102
RTVSPost2010Prop51ColorIndex
 90
      256
102
RTVSPost2010Prop51ColorRGB
 90
-16777216
102
RTVSPost2010PropOp51
 70
     0
102
RTVSPost2010Prop52
140
1.0
102
RTVSPost2010PropOp52
 70
     0
102
RTVSPost2010Prop53
 90
        2
102
RTVSPost2010PropOp53
 70
     0
102
RTVSPost2010Prop54
  1
strokes_ogs.tif
102
RTVSPost2010PropOp54
 70
     0
102
RTVSPost2010Prop55
280
     0
102
RTVSPost2010PropOp55
 70
     1
102
RTVSPost2010Prop56
140
1.0
102
RTVSPost2010PropOp56
 70
     0
102
RTVSPost2010Prop57
140
1.0
102
RTVSPost2010PropOp57
 70
     0
102
RTVSPropertyOp0
 70
     0
102
RTVSPropertyOp1
 70
     0
102
RTVSPropertyOp2
 70
     0
102
RTVSPropertyOp3
 70
     0
102
RTVSPropertyOp4
 70
     0
102
RTVSPropertyOp5
 70
     0
102
RTVSPropertyOp6
 70
     0
102
RTVSPropertyOp7
 70
     0
102
RTVSPropertyOp8
 70
     0
102
RTVSPropertyOp9
 70
     0
102
RTVSPropertyOp10
 70
     0
102
RTVSPropertyOp11
 70
     0
102
RTVSPropertyOp12
 70
     0
102
RTVSPropertyOp13
 70
     0
102
RTVSPropertyOp14
 70
     2
102
RTVSPropertyOp15
 70
     0
102
RTVSPropertyOp16
 70
     0
102
RTVSPropertyOp17
 70
     0
102
RTVSPropertyOp18
 70
     0
102
RTVSPropertyOp19
 70
     0
102
RTVSPropertyOp20
 70
     0
102
RTVSPropertyOp21
 70
     0
102
RTVSPropertyOp22
 70
     0
102
RTVSPropertyOp23
 70
     0
102
RTVSPropertyOp24
 70
     0
102
RTVSPropertyOp25
 70
     0
102
RTVSPropertyOp26
 70
     0
102
RTVSPropertyOp27
 70
     0
102
RTVSPropertyOp28
 70
     1
102
RTVSPropertyOp29
 70
     1
102
RTVSPropertyOp30
 70
     1
102
RTVSPropertyOp31
 70
     1
102
RTVSPropertyOp32
 70
     1
102
RTVSPropertyOp33
 70
     1
102
RTVSPropertyOp34
 70
     1
102
RTVSPropertyOp35
 70
     1
102
RTVSPropertyOp36
 70
     1
102
RTVSPropertyOp37
 70
     0
102
RTVSPropertyOp38
 70
     0
102
RTVSPropertyOp39
 70
     0
102
RTVSPropertyOp40
 70
     0
102
RTVSPropertyOp41
 70
     0
102
RTVSPropertyOp42
 70
     0
102
RTVSPropertyOp43
 70
     0
102
RTVSPropertyOp44
 70
     0
102
RTVSPropertyOp45
 70
     1
102
RTVSPropertyOp46
 70
     0
102
RTVSPropertyOp47
 70
     0
102
RTVSPropertyOp48
 70
     0
102
RTVSPropertyOp49
 70
     1
102
RTVSPropertyOp50
 70
     0
102
RTVSPropertyOp51
 70
     0
102
RTVSPropertyOp52
 70
     0
102
RTVSPropertyOp53
 70
     0
102
RTVSPropertyOp54
 70
     0
102
RTVSPropertyOp55
 70
     1
102
RTVSPropertyOp56
 70
     0
102
RTVSPropertyOp57
 70
     0
102
RTVSPropertyOp58
 70
     0
102
RTVSPropertyOp59
 70
     0
102
RTVSPropertyOp60
 70
     0
102
RTVSPropertyOp61
 70
     0
102
RTVSPropertyOp62
 70
     0
  0
XRECORD
  5
BDDF
102
{ACAD_REACTORS
330
BDDE
102
}
330
BDDE
100
AcDbXrecord
280
     1
102
RTVSPost2010Prop28
280
     0
102
RTVSPost2010PropOp28
 70
     1
102
RTVSPost2010Prop29
280
     1
102
RTVSPost2010PropOp29
 70
     1
102
RTVSPost2010Prop30
280
     1
102
RTVSPost2010PropOp30
 70
     1
102
RTVSPost2010Prop31
280
     0
102
RTVSPost2010PropOp31
 70
     1
102
RTVSPost2010Prop32
280
     0
102
RTVSPost2010PropOp32
 70
     1
102
RTVSPost2010Prop33
280
     0
102
RTVSPost2010PropOp33
 70
     1
102
RTVSPost2010Prop34
280
     0
102
RTVSPost2010PropOp34
 70
     1
102
RTVSPost2010Prop35
280
     0
102
RTVSPost2010PropOp35
 70
     1
102
RTVSPost2010Prop36
280
     0
102
RTVSPost2010PropOp36
 70
     1
102
RTVSPost2010Prop37
 90
       50
102
RTVSPost2010PropOp37
 70
     1
102
RTVSPost2010Prop38
140
0.0
102
RTVSPost2010PropOp38
 70
     1
102
RTVSPost2010Prop39
140
1.0
102
RTVSPost2010PropOp39
 70
     1
102
RTVSPost2010Prop40
 90
        0
102
RTVSPost2010PropOp40
 70
     1
102
RTVSPost2010Prop41ColorIndex
 90
       18
102
RTVSPost2010Prop41ColorRGB
 90
        0
102
RTVSPost2010PropOp41
 70
     1
102
RTVSPost2010Prop42
 90
       50
102
RTVSPost2010PropOp42
 70
     1
102
RTVSPost2010Prop43
 90
        3
102
RTVSPost2010PropOp43
 70
     1
102
RTVSPost2010Prop44ColorIndex
 90
        5
102
RTVSPost2010Prop44ColorRGB
 90
      255
102
RTVSPost2010PropOp44
 70
     1
102
RTVSPost2010Prop45
280
     0
102
RTVSPost2010PropOp45
 70
     1
102
RTVSPost2010Prop46
 90
       50
102
RTVSPost2010PropOp46
 70
     1
102
RTVSPost2010Prop47
 90
       50
102
RTVSPost2010PropOp47
 70
     1
102
RTVSPost2010Prop48
 90
       50
102
RTVSPost2010PropOp48
 70
     1
102
RTVSPost2010Prop49
280
     0
102
RTVSPost2010PropOp49
 70
     1
102
RTVSPost2010Prop50
 90
       50
102
RTVSPost2010PropOp50
 70
     1
102
RTVSPost2010Prop51ColorIndex
 90
      256
102
RTVSPost2010Prop51ColorRGB
 90
-16777216
102
RTVSPost2010PropOp51
 70
     0
102
RTVSPost2010Prop52
140
1.0
102
RTVSPost2010PropOp52
 70
     0
102
RTVSPost2010Prop53
 90
        2
102
RTVSPost2010PropOp53
 70
     1
102
RTVSPost2010Prop54
  1
strokes_ogs.tif
102
RTVSPost2010PropOp54
 70
     1
102
RTVSPost2010Prop55
280
     0
102
RTVSPost2010PropOp55
 70
     1
102
RTVSPost2010Prop56
140
1.0
102
RTVSPost2010PropOp56
 70
     1
102
RTVSPost2010Prop57
140
1.0
102
RTVSPost2010PropOp57
 70
     1
102
RTVSPropertyOp0
 70
     1
102
RTVSPropertyOp1
 70
     1
102
RTVSPropertyOp2
 70
     1
102
RTVSPropertyOp3
 70
     1
102
RTVSPropertyOp4
 70
     1
102
RTVSPropertyOp5
 70
     1
102
RTVSPropertyOp6
 70
     1
102
RTVSPropertyOp7
 70
     1
102
RTVSPropertyOp8
 70
     1
102
RTVSPropertyOp9
 70
     1
102
RTVSPropertyOp10
 70
     1
102
RTVSPropertyOp11
 70
     1
102
RTVSPropertyOp12
 70
     1
102
RTVSPropertyOp13
 70
     1
102
RTVSPropertyOp14
 70
     1
102
RTVSPropertyOp15
 70
     1
102
RTVSPropertyOp16
 70
     1
102
RTVSPropertyOp17
 70
     1
102
RTVSPropertyOp18
 70
     1
102
RTVSPropertyOp19
 70
     1
102
RTVSPropertyOp20
 70
     1
102
RTVSPropertyOp21
 70
     1
102
RTVSPropertyOp22
 70
     1
102
RTVSPropertyOp23
 70
     1
102
RTVSPropertyOp24
 70
     1
102
RTVSPropertyOp25
 70
     1
102
RTVSPropertyOp26
 70
     1
102
RTVSPropertyOp27
 70
     1
102
RTVSPropertyOp28
 70
     1
102
RTVSPropertyOp29
 70
     1
102
RTVSPropertyOp30
 70
     1
102
RTVSPropertyOp31
 70
     1
102
RTVSPropertyOp32
 70
     1
102
RTVSPropertyOp33
 70
     1
102
RTVSPropertyOp34
 70
     1
102
RTVSPropertyOp35
 70
     1
102
RTVSPropertyOp36
 70
     1
102
RTVSPropertyOp37
 70
     1
102
RTVSPropertyOp38
 70
     1
102
RTVSPropertyOp39
 70
     1
102
RTVSPropertyOp40
 70
     1
102
RTVSPropertyOp41
 70
     1
102
RTVSPropertyOp42
 70
     1
102
RTVSPropertyOp43
 70
     1
102
RTVSPropertyOp44
 70
     1
102
RTVSPropertyOp45
 70
     1
102
RTVSPropertyOp46
 70
     1
102
RTVSPropertyOp47
 70
     1
102
RTVSPropertyOp48
 70
     1
102
RTVSPropertyOp49
 70
     1
102
RTVSPropertyOp50
 70
     1
102
RTVSPropertyOp51
 70
     0
102
RTVSPropertyOp52
 70
     0
102
RTVSPropertyOp53
 70
     1
102
RTVSPropertyOp54
 70
     1
102
RTVSPropertyOp55
 70
     1
102
RTVSPropertyOp56
 70
     1
102
RTVSPropertyOp57
 70
     1
102
RTVSPropertyOp58
 70
     1
102
RTVSPropertyOp59
 70
     1
102
RTVSPropertyOp60
 70
     1
102
RTVSPropertyOp61
 70
     1
102
RTVSPropertyOp62
 70
     1
  0
XRECORD
  5
BDC3
102
{ACAD_REACTORS
330
BDC2
102
}
330
BDC2
100
AcDbXrecord
280
     1
102
RTVSPost2010Prop28
280
     0
102
RTVSPost2010PropOp28
 70
     1
102
RTVSPost2010Prop29
280
     1
102
RTVSPost2010PropOp29
 70
     1
102
RTVSPost2010Prop30
280
     1
102
RTVSPost2010PropOp30
 70
     1
102
RTVSPost2010Prop31
280
     0
102
RTVSPost2010PropOp31
 70
     1
102
RTVSPost2010Prop32
280
     0
102
RTVSPost2010PropOp32
 70
     1
102
RTVSPost2010Prop33
280
     0
102
RTVSPost2010PropOp33
 70
     1
102
RTVSPost2010Prop34
280
     0
102
RTVSPost2010PropOp34
 70
     1
102
RTVSPost2010Prop35
280
     0
102
RTVSPost2010PropOp35
 70
     1
102
RTVSPost2010Prop36
280
     0
102
RTVSPost2010PropOp36
 70
     1
102
RTVSPost2010Prop37
 90
       50
102
RTVSPost2010PropOp37
 70
     1
102
RTVSPost2010Prop38
140
0.0
102
RTVSPost2010PropOp38
 70
     1
102
RTVSPost2010Prop39
140
1.0
102
RTVSPost2010PropOp39
 70
     1
102
RTVSPost2010Prop40
 90
        0
102
RTVSPost2010PropOp40
 70
     1
102
RTVSPost2010Prop41ColorIndex
 90
       18
102
RTVSPost2010Prop41ColorRGB
 90
        0
102
RTVSPost2010PropOp41
 70
     1
102
RTVSPost2010Prop42
 90
       50
102
RTVSPost2010PropOp42
 70
     1
102
RTVSPost2010Prop43
 90
        3
102
RTVSPost2010PropOp43
 70
     1
102
RTVSPost2010Prop44ColorIndex
 90
        5
102
RTVSPost2010Prop44ColorRGB
 90
      255
102
RTVSPost2010PropOp44
 70
     1
102
RTVSPost2010Prop45
280
     0
102
RTVSPost2010PropOp45
 70
     1
102
RTVSPost2010Prop46
 90
       50
102
RTVSPost2010PropOp46
 70
     1
102
RTVSPost2010Prop47
 90
       50
102
RTVSPost2010PropOp47
 70
     1
102
RTVSPost2010Prop48
 90
       50
102
RTVSPost2010PropOp48
 70
     1
102
RTVSPost2010Prop49
280
     0
102
RTVSPost2010PropOp49
 70
     1
102
RTVSPost2010Prop50
 90
       50
102
RTVSPost2010PropOp50
 70
     1
102
RTVSPost2010Prop51ColorIndex
 90
      256
102
RTVSPost2010Prop51ColorRGB
 90
-16777216
102
RTVSPost2010PropOp51
 70
     0
102
RTVSPost2010Prop52
140
1.0
102
RTVSPost2010PropOp52
 70
     0
102
RTVSPost2010Prop53
 90
        2
102
RTVSPost2010PropOp53
 70
     1
102
RTVSPost2010Prop54
  1
strokes_ogs.tif
102
RTVSPost2010PropOp54
 70
     1
102
RTVSPost2010Prop55
280
     0
102
RTVSPost2010PropOp55
 70
     1
102
RTVSPost2010Prop56
140
1.0
102
RTVSPost2010PropOp56
 70
     1
102
RTVSPost2010Prop57
140
1.0
102
RTVSPost2010PropOp57
 70
     1
102
RTVSPropertyOp0
 70
     1
102
RTVSPropertyOp1
 70
     1
102
RTVSPropertyOp2
 70
     1
102
RTVSPropertyOp3
 70
     1
102
RTVSPropertyOp4
 70
     1
102
RTVSPropertyOp5
 70
     1
102
RTVSPropertyOp6
 70
     1
102
RTVSPropertyOp7
 70
     1
102
RTVSPropertyOp8
 70
     1
102
RTVSPropertyOp9
 70
     1
102
RTVSPropertyOp10
 70
     1
102
RTVSPropertyOp11
 70
     1
102
RTVSPropertyOp12
 70
     1
102
RTVSPropertyOp13
 70
     1
102
RTVSPropertyOp14
 70
     1
102
RTVSPropertyOp15
 70
     1
102
RTVSPropertyOp16
 70
     1
102
RTVSPropertyOp17
 70
     1
102
RTVSPropertyOp18
 70
     1
102
RTVSPropertyOp19
 70
     1
102
RTVSPropertyOp20
 70
     1
102
RTVSPropertyOp21
 70
     1
102
RTVSPropertyOp22
 70
     1
102
RTVSPropertyOp23
 70
     1
102
RTVSPropertyOp24
 70
     1
102
RTVSPropertyOp25
 70
     1
102
RTVSPropertyOp26
 70
     1
102
RTVSPropertyOp27
 70
     1
102
RTVSPropertyOp28
 70
     1
102
RTVSPropertyOp29
 70
     1
102
RTVSPropertyOp30
 70
     1
102
RTVSPropertyOp31
 70
     1
102
RTVSPropertyOp32
 70
     1
102
RTVSPropertyOp33
 70
     1
102
RTVSPropertyOp34
 70
     1
102
RTVSPropertyOp35
 70
     1
102
RTVSPropertyOp36
 70
     1
102
RTVSPropertyOp37
 70
     1
102
RTVSPropertyOp38
 70
     1
102
RTVSPropertyOp39
 70
     1
102
RTVSPropertyOp40
 70
     1
102
RTVSPropertyOp41
 70
     1
102
RTVSPropertyOp42
 70
     1
102
RTVSPropertyOp43
 70
     1
102
RTVSPropertyOp44
 70
     1
102
RTVSPropertyOp45
 70
     1
102
RTVSPropertyOp46
 70
     1
102
RTVSPropertyOp47
 70
     1
102
RTVSPropertyOp48
 70
     1
102
RTVSPropertyOp49
 70
     1
102
RTVSPropertyOp50
 70
     1
102
RTVSPropertyOp51
 70
     0
102
RTVSPropertyOp52
 70
     0
102
RTVSPropertyOp53
 70
     1
102
RTVSPropertyOp54
 70
     1
102
RTVSPropertyOp55
 70
     1
102
RTVSPropertyOp56
 70
     1
102
RTVSPropertyOp57
 70
     1
102
RTVSPropertyOp58
 70
     1
102
RTVSPropertyOp59
 70
     1
102
RTVSPropertyOp60
 70
     1
102
RTVSPropertyOp61
 70
     1
102
RTVSPropertyOp62
 70
     1
  0
XRECORD
  5
BDC5
102
{ACAD_REACTORS
330
BDC4
102
}
330
BDC4
100
AcDbXrecord
280
     1
102
RTVSPost2010Prop28
280
     0
102
RTVSPost2010PropOp28
 70
     1
102
RTVSPost2010Prop29
280
     1
102
RTVSPost2010PropOp29
 70
     1
102
RTVSPost2010Prop30
280
     1
102
RTVSPost2010PropOp30
 70
     1
102
RTVSPost2010Prop31
280
     0
102
RTVSPost2010PropOp31
 70
     1
102
RTVSPost2010Prop32
280
     0
102
RTVSPost2010PropOp32
 70
     1
102
RTVSPost2010Prop33
280
     0
102
RTVSPost2010PropOp33
 70
     1
102
RTVSPost2010Prop34
280
     0
102
RTVSPost2010PropOp34
 70
     1
102
RTVSPost2010Prop35
280
     0
102
RTVSPost2010PropOp35
 70
     1
102
RTVSPost2010Prop36
280
     0
102
RTVSPost2010PropOp36
 70
     1
102
RTVSPost2010Prop37
 90
       50
102
RTVSPost2010PropOp37
 70
     1
102
RTVSPost2010Prop38
140
0.0
102
RTVSPost2010PropOp38
 70
     1
102
RTVSPost2010Prop39
140
1.0
102
RTVSPost2010PropOp39
 70
     1
102
RTVSPost2010Prop40
 90
        0
102
RTVSPost2010PropOp40
 70
     1
102
RTVSPost2010Prop41ColorIndex
 90
       18
102
RTVSPost2010Prop41ColorRGB
 90
        0
102
RTVSPost2010PropOp41
 70
     1
102
RTVSPost2010Prop42
 90
       50
102
RTVSPost2010PropOp42
 70
     1
102
RTVSPost2010Prop43
 90
        3
102
RTVSPost2010PropOp43
 70
     1
102
RTVSPost2010Prop44ColorIndex
 90
        5
102
RTVSPost2010Prop44ColorRGB
 90
      255
102
RTVSPost2010PropOp44
 70
     1
102
RTVSPost2010Prop45
280
     0
102
RTVSPost2010PropOp45
 70
     1
102
RTVSPost2010Prop46
 90
       50
102
RTVSPost2010PropOp46
 70
     1
102
RTVSPost2010Prop47
 90
       50
102
RTVSPost2010PropOp47
 70
     1
102
RTVSPost2010Prop48
 90
       50
102
RTVSPost2010PropOp48
 70
     1
102
RTVSPost2010Prop49
280
     0
102
RTVSPost2010PropOp49
 70
     1
102
RTVSPost2010Prop50
 90
       50
102
RTVSPost2010PropOp50
 70
     1
102
RTVSPost2010Prop51ColorIndex
 90
      256
102
RTVSPost2010Prop51ColorRGB
 90
-16777216
102
RTVSPost2010PropOp51
 70
     0
102
RTVSPost2010Prop52
140
1.0
102
RTVSPost2010PropOp52
 70
     0
102
RTVSPost2010Prop53
 90
        2
102
RTVSPost2010PropOp53
 70
     1
102
RTVSPost2010Prop54
  1
strokes_ogs.tif
102
RTVSPost2010PropOp54
 70
     1
102
RTVSPost2010Prop55
280
     0
102
RTVSPost2010PropOp55
 70
     1
102
RTVSPost2010Prop56
140
1.0
102
RTVSPost2010PropOp56
 70
     1
102
RTVSPost2010Prop57
140
1.0
102
RTVSPost2010PropOp57
 70
     1
102
RTVSPropertyOp0
 70
     1
102
RTVSPropertyOp1
 70
     1
102
RTVSPropertyOp2
 70
     1
102
RTVSPropertyOp3
 70
     1
102
RTVSPropertyOp4
 70
     1
102
RTVSPropertyOp5
 70
     1
102
RTVSPropertyOp6
 70
     1
102
RTVSPropertyOp7
 70
     1
102
RTVSPropertyOp8
 70
     1
102
RTVSPropertyOp9
 70
     1
102
RTVSPropertyOp10
 70
     1
102
RTVSPropertyOp11
 70
     1
102
RTVSPropertyOp12
 70
     1
102
RTVSPropertyOp13
 70
     1
102
RTVSPropertyOp14
 70
     1
102
RTVSPropertyOp15
 70
     1
102
RTVSPropertyOp16
 70
     1
102
RTVSPropertyOp17
 70
     1
102
RTVSPropertyOp18
 70
     1
102
RTVSPropertyOp19
 70
     1
102
RTVSPropertyOp20
 70
     1
102
RTVSPropertyOp21
 70
     1
102
RTVSPropertyOp22
 70
     1
102
RTVSPropertyOp23
 70
     1
102
RTVSPropertyOp24
 70
     1
102
RTVSPropertyOp25
 70
     1
102
RTVSPropertyOp26
 70
     1
102
RTVSPropertyOp27
 70
     1
102
RTVSPropertyOp28
 70
     1
102
RTVSPropertyOp29
 70
     1
102
RTVSPropertyOp30
 70
     1
102
RTVSPropertyOp31
 70
     1
102
RTVSPropertyOp32
 70
     1
102
RTVSPropertyOp33
 70
     1
102
RTVSPropertyOp34
 70
     1
102
RTVSPropertyOp35
 70
     1
102
RTVSPropertyOp36
 70
     1
102
RTVSPropertyOp37
 70
     1
102
RTVSPropertyOp38
 70
     1
102
RTVSPropertyOp39
 70
     1
102
RTVSPropertyOp40
 70
     1
102
RTVSPropertyOp41
 70
     1
102
RTVSPropertyOp42
 70
     1
102
RTVSPropertyOp43
 70
     1
102
RTVSPropertyOp44
 70
     1
102
RTVSPropertyOp45
 70
     1
102
RTVSPropertyOp46
 70
     1
102
RTVSPropertyOp47
 70
     1
102
RTVSPropertyOp48
 70
     1
102
RTVSPropertyOp49
 70
     1
102
RTVSPropertyOp50
 70
     1
102
RTVSPropertyOp51
 70
     0
102
RTVSPropertyOp52
 70
     0
102
RTVSPropertyOp53
 70
     1
102
RTVSPropertyOp54
 70
     1
102
RTVSPropertyOp55
 70
     1
102
RTVSPropertyOp56
 70
     1
102
RTVSPropertyOp57
 70
     1
102
RTVSPropertyOp58
 70
     1
102
RTVSPropertyOp59
 70
     1
102
RTVSPropertyOp60
 70
     1
102
RTVSPropertyOp61
 70
     1
102
RTVSPropertyOp62
 70
     1
  0
XRECORD
  5
BDC7
102
{ACAD_REACTORS
330
BDC6
102
}
330
BDC6
100
AcDbXrecord
280
     1
102
RTVSPost2010Prop28
280
     0
102
RTVSPost2010PropOp28
 70
     1
102
RTVSPost2010Prop29
280
     1
102
RTVSPost2010PropOp29
 70
     1
102
RTVSPost2010Prop30
280
     1
102
RTVSPost2010PropOp30
 70
     1
102
RTVSPost2010Prop31
280
     0
102
RTVSPost2010PropOp31
 70
     1
102
RTVSPost2010Prop32
280
     0
102
RTVSPost2010PropOp32
 70
     1
102
RTVSPost2010Prop33
280
     0
102
RTVSPost2010PropOp33
 70
     1
102
RTVSPost2010Prop34
280
     0
102
RTVSPost2010PropOp34
 70
     1
102
RTVSPost2010Prop35
280
     0
102
RTVSPost2010PropOp35
 70
     1
102
RTVSPost2010Prop36
280
     0
102
RTVSPost2010PropOp36
 70
     1
102
RTVSPost2010Prop37
 90
       50
102
RTVSPost2010PropOp37
 70
     1
102
RTVSPost2010Prop38
140
0.0
102
RTVSPost2010PropOp38
 70
     1
102
RTVSPost2010Prop39
140
1.0
102
RTVSPost2010PropOp39
 70
     1
102
RTVSPost2010Prop40
 90
        0
102
RTVSPost2010PropOp40
 70
     1
102
RTVSPost2010Prop41ColorIndex
 90
       18
102
RTVSPost2010Prop41ColorRGB
 90
        0
102
RTVSPost2010PropOp41
 70
     1
102
RTVSPost2010Prop42
 90
       50
102
RTVSPost2010PropOp42
 70
     1
102
RTVSPost2010Prop43
 90
        3
102
RTVSPost2010PropOp43
 70
     1
102
RTVSPost2010Prop44ColorIndex
 90
        5
102
RTVSPost2010Prop44ColorRGB
 90
      255
102
RTVSPost2010PropOp44
 70
     1
102
RTVSPost2010Prop45
280
     0
102
RTVSPost2010PropOp45
 70
     1
102
RTVSPost2010Prop46
 90
       50
102
RTVSPost2010PropOp46
 70
     1
102
RTVSPost2010Prop47
 90
       50
102
RTVSPost2010PropOp47
 70
     1
102
RTVSPost2010Prop48
 90
       50
102
RTVSPost2010PropOp48
 70
     1
102
RTVSPost2010Prop49
280
     0
102
RTVSPost2010PropOp49
 70
     1
102
RTVSPost2010Prop50
 90
       50
102
RTVSPost2010PropOp50
 70
     1
102
RTVSPost2010Prop51ColorIndex
 90
      256
102
RTVSPost2010Prop51ColorRGB
 90
-16777216
102
RTVSPost2010PropOp51
 70
     0
102
RTVSPost2010Prop52
140
1.0
102
RTVSPost2010PropOp52
 70
     0
102
RTVSPost2010Prop53
 90
        2
102
RTVSPost2010PropOp53
 70
     1
102
RTVSPost2010Prop54
  1
strokes_ogs.tif
102
RTVSPost2010PropOp54
 70
     1
102
RTVSPost2010Prop55
280
     0
102
RTVSPost2010PropOp55
 70
     1
102
RTVSPost2010Prop56
140
1.0
102
RTVSPost2010PropOp56
 70
     1
102
RTVSPost2010Prop57
140
1.0
102
RTVSPost2010PropOp57
 70
     1
102
RTVSPropertyOp0
 70
     1
102
RTVSPropertyOp1
 70
     1
102
RTVSPropertyOp2
 70
     1
102
RTVSPropertyOp3
 70
     1
102
RTVSPropertyOp4
 70
     1
102
RTVSPropertyOp5
 70
     1
102
RTVSPropertyOp6
 70
     1
102
RTVSPropertyOp7
 70
     1
102
RTVSPropertyOp8
 70
     1
102
RTVSPropertyOp9
 70
     1
102
RTVSPropertyOp10
 70
     1
102
RTVSPropertyOp11
 70
     1
102
RTVSPropertyOp12
 70
     1
102
RTVSPropertyOp13
 70
     1
102
RTVSPropertyOp14
 70
     1
102
RTVSPropertyOp15
 70
     1
102
RTVSPropertyOp16
 70
     1
102
RTVSPropertyOp17
 70
     1
102
RTVSPropertyOp18
 70
     1
102
RTVSPropertyOp19
 70
     1
102
RTVSPropertyOp20
 70
     1
102
RTVSPropertyOp21
 70
     1
102
RTVSPropertyOp22
 70
     1
102
RTVSPropertyOp23
 70
     1
102
RTVSPropertyOp24
 70
     1
102
RTVSPropertyOp25
 70
     1
102
RTVSPropertyOp26
 70
     1
102
RTVSPropertyOp27
 70
     1
102
RTVSPropertyOp28
 70
     1
102
RTVSPropertyOp29
 70
     1
102
RTVSPropertyOp30
 70
     1
102
RTVSPropertyOp31
 70
     1
102
RTVSPropertyOp32
 70
     1
102
RTVSPropertyOp33
 70
     1
102
RTVSPropertyOp34
 70
     1
102
RTVSPropertyOp35
 70
     1
102
RTVSPropertyOp36
 70
     1
102
RTVSPropertyOp37
 70
     1
102
RTVSPropertyOp38
 70
     1
102
RTVSPropertyOp39
 70
     1
102
RTVSPropertyOp40
 70
     1
102
RTVSPropertyOp41
 70
     1
102
RTVSPropertyOp42
 70
     1
102
RTVSPropertyOp43
 70
     1
102
RTVSPropertyOp44
 70
     1
102
RTVSPropertyOp45
 70
     1
102
RTVSPropertyOp46
 70
     1
102
RTVSPropertyOp47
 70
     1
102
RTVSPropertyOp48
 70
     1
102
RTVSPropertyOp49
 70
     1
102
RTVSPropertyOp50
 70
     1
102
RTVSPropertyOp51
 70
     0
102
RTVSPropertyOp52
 70
     0
102
RTVSPropertyOp53
 70
     1
102
RTVSPropertyOp54
 70
     1
102
RTVSPropertyOp55
 70
     1
102
RTVSPropertyOp56
 70
     1
102
RTVSPropertyOp57
 70
     1
102
RTVSPropertyOp58
 70
     1
102
RTVSPropertyOp59
 70
     1
102
RTVSPropertyOp60
 70
     1
102
RTVSPropertyOp61
 70
     1
102
RTVSPropertyOp62
 70
     1
  0
XRECORD
  5
BDC9
102
{ACAD_REACTORS
330
BDC8
102
}
330
BDC8
100
AcDbXrecord
280
     1
102
RTVSPost2010Prop28
280
     0
102
RTVSPost2010PropOp28
 70
     1
102
RTVSPost2010Prop29
280
     1
102
RTVSPost2010PropOp29
 70
     1
102
RTVSPost2010Prop30
280
     1
102
RTVSPost2010PropOp30
 70
     1
102
RTVSPost2010Prop31
280
     0
102
RTVSPost2010PropOp31
 70
     1
102
RTVSPost2010Prop32
280
     0
102
RTVSPost2010PropOp32
 70
     1
102
RTVSPost2010Prop33
280
     0
102
RTVSPost2010PropOp33
 70
     1
102
RTVSPost2010Prop34
280
     0
102
RTVSPost2010PropOp34
 70
     1
102
RTVSPost2010Prop35
280
     0
102
RTVSPost2010PropOp35
 70
     1
102
RTVSPost2010Prop36
280
     0
102
RTVSPost2010PropOp36
 70
     1
102
RTVSPost2010Prop37
 90
       50
102
RTVSPost2010PropOp37
 70
     1
102
RTVSPost2010Prop38
140
0.0
102
RTVSPost2010PropOp38
 70
     1
102
RTVSPost2010Prop39
140
1.0
102
RTVSPost2010PropOp39
 70
     1
102
RTVSPost2010Prop40
 90
        0
102
RTVSPost2010PropOp40
 70
     1
102
RTVSPost2010Prop41ColorIndex
 90
       18
102
RTVSPost2010Prop41ColorRGB
 90
        0
102
RTVSPost2010PropOp41
 70
     1
102
RTVSPost2010Prop42
 90
       50
102
RTVSPost2010PropOp42
 70
     1
102
RTVSPost2010Prop43
 90
        3
102
RTVSPost2010PropOp43
 70
     1
102
RTVSPost2010Prop44ColorIndex
 90
        5
102
RTVSPost2010Prop44ColorRGB
 90
      255
102
RTVSPost2010PropOp44
 70
     1
102
RTVSPost2010Prop45
280
     0
102
RTVSPost2010PropOp45
 70
     1
102
RTVSPost2010Prop46
 90
       50
102
RTVSPost2010PropOp46
 70
     1
102
RTVSPost2010Prop47
 90
       50
102
RTVSPost2010PropOp47
 70
     1
102
RTVSPost2010Prop48
 90
       50
102
RTVSPost2010PropOp48
 70
     1
102
RTVSPost2010Prop49
280
     0
102
RTVSPost2010PropOp49
 70
     1
102
RTVSPost2010Prop50
 90
       50
102
RTVSPost2010PropOp50
 70
     1
102
RTVSPost2010Prop51ColorIndex
 90
      256
102
RTVSPost2010Prop51ColorRGB
 90
-16777216
102
RTVSPost2010PropOp51
 70
     0
102
RTVSPost2010Prop52
140
1.0
102
RTVSPost2010PropOp52
 70
     0
102
RTVSPost2010Prop53
 90
        2
102
RTVSPost2010PropOp53
 70
     1
102
RTVSPost2010Prop54
  1
strokes_ogs.tif
102
RTVSPost2010PropOp54
 70
     1
102
RTVSPost2010Prop55
280
     0
102
RTVSPost2010PropOp55
 70
     1
102
RTVSPost2010Prop56
140
1.0
102
RTVSPost2010PropOp56
 70
     1
102
RTVSPost2010Prop57
140
1.0
102
RTVSPost2010PropOp57
 70
     1
102
RTVSPropertyOp0
 70
     1
102
RTVSPropertyOp1
 70
     1
102
RTVSPropertyOp2
 70
     1
102
RTVSPropertyOp3
 70
     1
102
RTVSPropertyOp4
 70
     1
102
RTVSPropertyOp5
 70
     1
102
RTVSPropertyOp6
 70
     1
102
RTVSPropertyOp7
 70
     1
102
RTVSPropertyOp8
 70
     1
102
RTVSPropertyOp9
 70
     1
102
RTVSPropertyOp10
 70
     1
102
RTVSPropertyOp11
 70
     1
102
RTVSPropertyOp12
 70
     1
102
RTVSPropertyOp13
 70
     1
102
RTVSPropertyOp14
 70
     1
102
RTVSPropertyOp15
 70
     1
102
RTVSPropertyOp16
 70
     1
102
RTVSPropertyOp17
 70
     1
102
RTVSPropertyOp18
 70
     1
102
RTVSPropertyOp19
 70
     1
102
RTVSPropertyOp20
 70
     1
102
RTVSPropertyOp21
 70
     1
102
RTVSPropertyOp22
 70
     1
102
RTVSPropertyOp23
 70
     1
102
RTVSPropertyOp24
 70
     1
102
RTVSPropertyOp25
 70
     1
102
RTVSPropertyOp26
 70
     1
102
RTVSPropertyOp27
 70
     1
102
RTVSPropertyOp28
 70
     1
102
RTVSPropertyOp29
 70
     1
102
RTVSPropertyOp30
 70
     1
102
RTVSPropertyOp31
 70
     1
102
RTVSPropertyOp32
 70
     1
102
RTVSPropertyOp33
 70
     1
102
RTVSPropertyOp34
 70
     1
102
RTVSPropertyOp35
 70
     1
102
RTVSPropertyOp36
 70
     1
102
RTVSPropertyOp37
 70
     1
102
RTVSPropertyOp38
 70
     1
102
RTVSPropertyOp39
 70
     1
102
RTVSPropertyOp40
 70
     1
102
RTVSPropertyOp41
 70
     1
102
RTVSPropertyOp42
 70
     1
102
RTVSPropertyOp43
 70
     1
102
RTVSPropertyOp44
 70
     1
102
RTVSPropertyOp45
 70
     1
102
RTVSPropertyOp46
 70
     1
102
RTVSPropertyOp47
 70
     1
102
RTVSPropertyOp48
 70
     1
102
RTVSPropertyOp49
 70
     1
102
RTVSPropertyOp50
 70
     1
102
RTVSPropertyOp51
 70
     0
102
RTVSPropertyOp52
 70
     0
102
RTVSPropertyOp53
 70
     1
102
RTVSPropertyOp54
 70
     1
102
RTVSPropertyOp55
 70
     1
102
RTVSPropertyOp56
 70
     1
102
RTVSPropertyOp57
 70
     1
102
RTVSPropertyOp58
 70
     1
102
RTVSPropertyOp59
 70
     1
102
RTVSPropertyOp60
 70
     1
102
RTVSPropertyOp61
 70
     1
102
RTVSPropertyOp62
 70
     1
  0
XRECORD
  5
BDD1
102
{ACAD_REACTORS
330
BDD0
102
}
330
BDD0
100
AcDbXrecord
280
     1
102
RTVSPost2010Prop28
280
     0
102
RTVSPost2010PropOp28
 70
     1
102
RTVSPost2010Prop29
280
     1
102
RTVSPost2010PropOp29
 70
     1
102
RTVSPost2010Prop30
280
     1
102
RTVSPost2010PropOp30
 70
     1
102
RTVSPost2010Prop31
280
     0
102
RTVSPost2010PropOp31
 70
     1
102
RTVSPost2010Prop32
280
     0
102
RTVSPost2010PropOp32
 70
     1
102
RTVSPost2010Prop33
280
     0
102
RTVSPost2010PropOp33
 70
     1
102
RTVSPost2010Prop34
280
     0
102
RTVSPost2010PropOp34
 70
     1
102
RTVSPost2010Prop35
280
     0
102
RTVSPost2010PropOp35
 70
     1
102
RTVSPost2010Prop36
280
     0
102
RTVSPost2010PropOp36
 70
     1
102
RTVSPost2010Prop37
 90
       50
102
RTVSPost2010PropOp37
 70
     1
102
RTVSPost2010Prop38
140
0.0
102
RTVSPost2010PropOp38
 70
     1
102
RTVSPost2010Prop39
140
1.0
102
RTVSPost2010PropOp39
 70
     1
102
RTVSPost2010Prop40
 90
        0
102
RTVSPost2010PropOp40
 70
     1
102
RTVSPost2010Prop41ColorIndex
 90
       18
102
RTVSPost2010Prop41ColorRGB
 90
        0
102
RTVSPost2010PropOp41
 70
     1
102
RTVSPost2010Prop42
 90
       50
102
RTVSPost2010PropOp42
 70
     1
102
RTVSPost2010Prop43
 90
        3
102
RTVSPost2010PropOp43
 70
     1
102
RTVSPost2010Prop44ColorIndex
 90
        5
102
RTVSPost2010Prop44ColorRGB
 90
      255
102
RTVSPost2010PropOp44
 70
     1
102
RTVSPost2010Prop45
280
     0
102
RTVSPost2010PropOp45
 70
     1
102
RTVSPost2010Prop46
 90
       50
102
RTVSPost2010PropOp46
 70
     1
102
RTVSPost2010Prop47
 90
       50
102
RTVSPost2010PropOp47
 70
     1
102
RTVSPost2010Prop48
 90
       50
102
RTVSPost2010PropOp48
 70
     1
102
RTVSPost2010Prop49
280
     0
102
RTVSPost2010PropOp49
 70
     1
102
RTVSPost2010Prop50
 90
       50
102
RTVSPost2010PropOp50
 70
     1
102
RTVSPost2010Prop51ColorIndex
 90
      256
102
RTVSPost2010Prop51ColorRGB
 90
-16777216
102
RTVSPost2010PropOp51
 70
     0
102
RTVSPost2010Prop52
140
1.0
102
RTVSPost2010PropOp52
 70
     0
102
RTVSPost2010Prop53
 90
        2
102
RTVSPost2010PropOp53
 70
     1
102
RTVSPost2010Prop54
  1
strokes_ogs.tif
102
RTVSPost2010PropOp54
 70
     1
102
RTVSPost2010Prop55
280
     0
102
RTVSPost2010PropOp55
 70
     1
102
RTVSPost2010Prop56
140
1.0
102
RTVSPost2010PropOp56
 70
     1
102
RTVSPost2010Prop57
140
1.0
102
RTVSPost2010PropOp57
 70
     1
102
RTVSPropertyOp0
 70
     1
102
RTVSPropertyOp1
 70
     1
102
RTVSPropertyOp2
 70
     1
102
RTVSPropertyOp3
 70
     1
102
RTVSPropertyOp4
 70
     1
102
RTVSPropertyOp5
 70
     1
102
RTVSPropertyOp6
 70
     1
102
RTVSPropertyOp7
 70
     1
102
RTVSPropertyOp8
 70
     1
102
RTVSPropertyOp9
 70
     1
102
RTVSPropertyOp10
 70
     1
102
RTVSPropertyOp11
 70
     1
102
RTVSPropertyOp12
 70
     1
102
RTVSPropertyOp13
 70
     1
102
RTVSPropertyOp14
 70
     1
102
RTVSPropertyOp15
 70
     1
102
RTVSPropertyOp16
 70
     1
102
RTVSPropertyOp17
 70
     1
102
RTVSPropertyOp18
 70
     1
102
RTVSPropertyOp19
 70
     1
102
RTVSPropertyOp20
 70
     1
102
RTVSPropertyOp21
 70
     1
102
RTVSPropertyOp22
 70
     1
102
RTVSPropertyOp23
 70
     1
102
RTVSPropertyOp24
 70
     1
102
RTVSPropertyOp25
 70
     1
102
RTVSPropertyOp26
 70
     1
102
RTVSPropertyOp27
 70
     1
102
RTVSPropertyOp28
 70
     1
102
RTVSPropertyOp29
 70
     1
102
RTVSPropertyOp30
 70
     1
102
RTVSPropertyOp31
 70
     1
102
RTVSPropertyOp32
 70
     1
102
RTVSPropertyOp33
 70
     1
102
RTVSPropertyOp34
 70
     1
102
RTVSPropertyOp35
 70
     1
102
RTVSPropertyOp36
 70
     1
102
RTVSPropertyOp37
 70
     1
102
RTVSPropertyOp38
 70
     1
102
RTVSPropertyOp39
 70
     1
102
RTVSPropertyOp40
 70
     1
102
RTVSPropertyOp41
 70
     1
102
RTVSPropertyOp42
 70
     1
102
RTVSPropertyOp43
 70
     1
102
RTVSPropertyOp44
 70
     1
102
RTVSPropertyOp45
 70
     1
102
RTVSPropertyOp46
 70
     1
102
RTVSPropertyOp47
 70
     1
102
RTVSPropertyOp48
 70
     1
102
RTVSPropertyOp49
 70
     1
102
RTVSPropertyOp50
 70
     1
102
RTVSPropertyOp51
 70
     0
102
RTVSPropertyOp52
 70
     0
102
RTVSPropertyOp53
 70
     1
102
RTVSPropertyOp54
 70
     1
102
RTVSPropertyOp55
 70
     1
102
RTVSPropertyOp56
 70
     1
102
RTVSPropertyOp57
 70
     1
102
RTVSPropertyOp58
 70
     1
102
RTVSPropertyOp59
 70
     1
102
RTVSPropertyOp60
 70
     1
102
RTVSPropertyOp61
 70
     1
102
RTVSPropertyOp62
 70
     1
  0
XRECORD
  5
BDED
102
{ACAD_REACTORS
330
BDEC
102
}
330
BDEC
100
AcDbXrecord
280
     1
102
RTVSPost2010Prop28
280
     0
102
RTVSPost2010PropOp28
 70
     1
102
RTVSPost2010Prop29
280
     1
102
RTVSPost2010PropOp29
 70
     1
102
RTVSPost2010Prop30
280
     1
102
RTVSPost2010PropOp30
 70
     1
102
RTVSPost2010Prop31
280
     0
102
RTVSPost2010PropOp31
 70
     1
102
RTVSPost2010Prop32
280
     0
102
RTVSPost2010PropOp32
 70
     1
102
RTVSPost2010Prop33
280
     0
102
RTVSPost2010PropOp33
 70
     1
102
RTVSPost2010Prop34
280
     0
102
RTVSPost2010PropOp34
 70
     1
102
RTVSPost2010Prop35
280
     0
102
RTVSPost2010PropOp35
 70
     1
102
RTVSPost2010Prop36
280
     0
102
RTVSPost2010PropOp36
 70
     1
102
RTVSPost2010Prop37
 90
       50
102
RTVSPost2010PropOp37
 70
     0
102
RTVSPost2010Prop38
140
0.0
102
RTVSPost2010PropOp38
 70
     0
102
RTVSPost2010Prop39
140
1.0
102
RTVSPost2010PropOp39
 70
     0
102
RTVSPost2010Prop40
 90
        0
102
RTVSPost2010PropOp40
 70
     0
102
RTVSPost2010Prop41ColorIndex
 90
       18
102
RTVSPost2010Prop41ColorRGB
 90
        0
102
RTVSPost2010PropOp41
 70
     0
102
RTVSPost2010Prop42
 90
       50
102
RTVSPost2010PropOp42
 70
     0
102
RTVSPost2010Prop43
 90
        3
102
RTVSPost2010PropOp43
 70
     0
102
RTVSPost2010Prop44ColorIndex
 90
        5
102
RTVSPost2010Prop44ColorRGB
 90
      255
102
RTVSPost2010PropOp44
 70
     0
102
RTVSPost2010Prop45
280
     0
102
RTVSPost2010PropOp45
 70
     1
102
RTVSPost2010Prop46
 90
       50
102
RTVSPost2010PropOp46
 70
     0
102
RTVSPost2010Prop47
 90
       50
102
RTVSPost2010PropOp47
 70
     0
102
RTVSPost2010Prop48
 90
       50
102
RTVSPost2010PropOp48
 70
     0
102
RTVSPost2010Prop49
280
     0
102
RTVSPost2010PropOp49
 70
     1
102
RTVSPost2010Prop50
 90
       50
102
RTVSPost2010PropOp50
 70
     0
102
RTVSPost2010Prop51ColorIndex
 90
      256
102
RTVSPost2010Prop51ColorRGB
 90
-16777216
102
RTVSPost2010PropOp51
 70
     0
102
RTVSPost2010Prop52
140
1.0
102
RTVSPost2010PropOp52
 70
     0
102
RTVSPost2010Prop53
 90
        2
102
RTVSPost2010PropOp53
 70
     0
102
RTVSPost2010Prop54
  1
strokes_ogs.tif
102
RTVSPost2010PropOp54
 70
     0
102
RTVSPost2010Prop55
280
     0
102
RTVSPost2010PropOp55
 70
     1
102
RTVSPost2010Prop56
140
1.0
102
RTVSPost2010PropOp56
 70
     0
102
RTVSPost2010Prop57
140
1.0
102
RTVSPost2010PropOp57
 70
     0
102
RTVSPropertyOp0
 70
     0
102
RTVSPropertyOp1
 70
     0
102
RTVSPropertyOp2
 70
     0
102
RTVSPropertyOp3
 70
     0
102
RTVSPropertyOp4
 70
     0
102
RTVSPropertyOp5
 70
     0
102
RTVSPropertyOp6
 70
     0
102
RTVSPropertyOp7
 70
     0
102
RTVSPropertyOp8
 70
     0
102
RTVSPropertyOp9
 70
     0
102
RTVSPropertyOp10
 70
     0
102
RTVSPropertyOp11
 70
     0
102
RTVSPropertyOp12
 70
     0
102
RTVSPropertyOp13
 70
     0
102
RTVSPropertyOp14
 70
     2
102
RTVSPropertyOp15
 70
     0
102
RTVSPropertyOp16
 70
     0
102
RTVSPropertyOp17
 70
     0
102
RTVSPropertyOp18
 70
     0
102
RTVSPropertyOp19
 70
     0
102
RTVSPropertyOp20
 70
     0
102
RTVSPropertyOp21
 70
     0
102
RTVSPropertyOp22
 70
     0
102
RTVSPropertyOp23
 70
     0
102
RTVSPropertyOp24
 70
     0
102
RTVSPropertyOp25
 70
     0
102
RTVSPropertyOp26
 70
     0
102
RTVSPropertyOp27
 70
     0
102
RTVSPropertyOp28
 70
     1
102
RTVSPropertyOp29
 70
     1
102
RTVSPropertyOp30
 70
     1
102
RTVSPropertyOp31
 70
     1
102
RTVSPropertyOp32
 70
     1
102
RTVSPropertyOp33
 70
     1
102
RTVSPropertyOp34
 70
     1
102
RTVSPropertyOp35
 70
     1
102
RTVSPropertyOp36
 70
     1
102
RTVSPropertyOp37
 70
     0
102
RTVSPropertyOp38
 70
     0
102
RTVSPropertyOp39
 70
     0
102
RTVSPropertyOp40
 70
     0
102
RTVSPropertyOp41
 70
     0
102
RTVSPropertyOp42
 70
     0
102
RTVSPropertyOp43
 70
     0
102
RTVSPropertyOp44
 70
     0
102
RTVSPropertyOp45
 70
     1
102
RTVSPropertyOp46
 70
     0
102
RTVSPropertyOp47
 70
     0
102
RTVSPropertyOp48
 70
     0
102
RTVSPropertyOp49
 70
     1
102
RTVSPropertyOp50
 70
     0
102
RTVSPropertyOp51
 70
     0
102
RTVSPropertyOp52
 70
     0
102
RTVSPropertyOp53
 70
     0
102
RTVSPropertyOp54
 70
     0
102
RTVSPropertyOp55
 70
     1
102
RTVSPropertyOp56
 70
     0
102
RTVSPropertyOp57
 70
     0
102
RTVSPropertyOp58
 70
     0
102
RTVSPropertyOp59
 70
     0
102
RTVSPropertyOp60
 70
     0
102
RTVSPropertyOp61
 70
     0
102
RTVSPropertyOp62
 70
     0
  0
XRECORD
  5
BDDD
102
{ACAD_REACTORS
330
BDDC
102
}
330
BDDC
100
AcDbXrecord
280
     1
102
RTVSPost2010Prop28
280
     0
102
RTVSPost2010PropOp28
 70
     1
102
RTVSPost2010Prop29
280
     1
102
RTVSPost2010PropOp29
 70
     1
102
RTVSPost2010Prop30
280
     1
102
RTVSPost2010PropOp30
 70
     1
102
RTVSPost2010Prop31
280
     0
102
RTVSPost2010PropOp31
 70
     1
102
RTVSPost2010Prop32
280
     0
102
RTVSPost2010PropOp32
 70
     1
102
RTVSPost2010Prop33
280
     0
102
RTVSPost2010PropOp33
 70
     1
102
RTVSPost2010Prop34
280
     0
102
RTVSPost2010PropOp34
 70
     1
102
RTVSPost2010Prop35
280
     0
102
RTVSPost2010PropOp35
 70
     1
102
RTVSPost2010Prop36
280
     0
102
RTVSPost2010PropOp36
 70
     1
102
RTVSPost2010Prop37
 90
       50
102
RTVSPost2010PropOp37
 70
     1
102
RTVSPost2010Prop38
140
0.0
102
RTVSPost2010PropOp38
 70
     1
102
RTVSPost2010Prop39
140
1.0
102
RTVSPost2010PropOp39
 70
     1
102
RTVSPost2010Prop40
 90
        0
102
RTVSPost2010PropOp40
 70
     1
102
RTVSPost2010Prop41ColorIndex
 90
       18
102
RTVSPost2010Prop41ColorRGB
 90
        0
102
RTVSPost2010PropOp41
 70
     1
102
RTVSPost2010Prop42
 90
       50
102
RTVSPost2010PropOp42
 70
     1
102
RTVSPost2010Prop43
 90
        3
102
RTVSPost2010PropOp43
 70
     1
102
RTVSPost2010Prop44ColorIndex
 90
        5
102
RTVSPost2010Prop44ColorRGB
 90
      255
102
RTVSPost2010PropOp44
 70
     1
102
RTVSPost2010Prop45
280
     0
102
RTVSPost2010PropOp45
 70
     1
102
RTVSPost2010Prop46
 90
       50
102
RTVSPost2010PropOp46
 70
     1
102
RTVSPost2010Prop47
 90
       50
102
RTVSPost2010PropOp47
 70
     1
102
RTVSPost2010Prop48
 90
       50
102
RTVSPost2010PropOp48
 70
     1
102
RTVSPost2010Prop49
280
     0
102
RTVSPost2010PropOp49
 70
     1
102
RTVSPost2010Prop50
 90
       50
102
RTVSPost2010PropOp50
 70
     1
102
RTVSPost2010Prop51ColorIndex
 90
      256
102
RTVSPost2010Prop51ColorRGB
 90
-16777216
102
RTVSPost2010PropOp51
 70
     0
102
RTVSPost2010Prop52
140
1.0
102
RTVSPost2010PropOp52
 70
     0
102
RTVSPost2010Prop53
 90
        2
102
RTVSPost2010PropOp53
 70
     1
102
RTVSPost2010Prop54
  1
strokes_ogs.tif
102
RTVSPost2010PropOp54
 70
     1
102
RTVSPost2010Prop55
280
     0
102
RTVSPost2010PropOp55
 70
     1
102
RTVSPost2010Prop56
140
1.0
102
RTVSPost2010PropOp56
 70
     1
102
RTVSPost2010Prop57
140
1.0
102
RTVSPost2010PropOp57
 70
     1
102
RTVSPropertyOp0
 70
     1
102
RTVSPropertyOp1
 70
     1
102
RTVSPropertyOp2
 70
     1
102
RTVSPropertyOp3
 70
     1
102
RTVSPropertyOp4
 70
     1
102
RTVSPropertyOp5
 70
     1
102
RTVSPropertyOp6
 70
     1
102
RTVSPropertyOp7
 70
     1
102
RTVSPropertyOp8
 70
     1
102
RTVSPropertyOp9
 70
     1
102
RTVSPropertyOp10
 70
     1
102
RTVSPropertyOp11
 70
     1
102
RTVSPropertyOp12
 70
     1
102
RTVSPropertyOp13
 70
     1
102
RTVSPropertyOp14
 70
     1
102
RTVSPropertyOp15
 70
     1
102
RTVSPropertyOp16
 70
     1
102
RTVSPropertyOp17
 70
     1
102
RTVSPropertyOp18
 70
     1
102
RTVSPropertyOp19
 70
     1
102
RTVSPropertyOp20
 70
     1
102
RTVSPropertyOp21
 70
     1
102
RTVSPropertyOp22
 70
     1
102
RTVSPropertyOp23
 70
     1
102
RTVSPropertyOp24
 70
     1
102
RTVSPropertyOp25
 70
     1
102
RTVSPropertyOp26
 70
     1
102
RTVSPropertyOp27
 70
     1
102
RTVSPropertyOp28
 70
     1
102
RTVSPropertyOp29
 70
     1
102
RTVSPropertyOp30
 70
     1
102
RTVSPropertyOp31
 70
     1
102
RTVSPropertyOp32
 70
     1
102
RTVSPropertyOp33
 70
     1
102
RTVSPropertyOp34
 70
     1
102
RTVSPropertyOp35
 70
     1
102
RTVSPropertyOp36
 70
     1
102
RTVSPropertyOp37
 70
     1
102
RTVSPropertyOp38
 70
     1
102
RTVSPropertyOp39
 70
     1
102
RTVSPropertyOp40
 70
     1
102
RTVSPropertyOp41
 70
     1
102
RTVSPropertyOp42
 70
     1
102
RTVSPropertyOp43
 70
     1
102
RTVSPropertyOp44
 70
     1
102
RTVSPropertyOp45
 70
     1
102
RTVSPropertyOp46
 70
     1
102
RTVSPropertyOp47
 70
     1
102
RTVSPropertyOp48
 70
     1
102
RTVSPropertyOp49
 70
     1
102
RTVSPropertyOp50
 70
     1
102
RTVSPropertyOp51
 70
     0
102
RTVSPropertyOp52
 70
     0
102
RTVSPropertyOp53
 70
     1
102
RTVSPropertyOp54
 70
     1
102
RTVSPropertyOp55
 70
     1
102
RTVSPropertyOp56
 70
     1
102
RTVSPropertyOp57
 70
     1
102
RTVSPropertyOp58
 70
     1
102
RTVSPropertyOp59
 70
     1
102
RTVSPropertyOp60
 70
     1
102
RTVSPropertyOp61
 70
     1
102
RTVSPropertyOp62
 70
     1
  0
XRECORD
  5
BDEF
102
{ACAD_REACTORS
330
BDEE
102
}
330
BDEE
100
AcDbXrecord
280
     1
102
RTVSPost2010Prop28
280
     0
102
RTVSPost2010PropOp28
 70
     1
102
RTVSPost2010Prop29
280
     1
102
RTVSPost2010PropOp29
 70
     1
102
RTVSPost2010Prop30
280
     1
102
RTVSPost2010PropOp30
 70
     1
102
RTVSPost2010Prop31
280
     0
102
RTVSPost2010PropOp31
 70
     1
102
RTVSPost2010Prop32
280
     0
102
RTVSPost2010PropOp32
 70
     1
102
RTVSPost2010Prop33
280
     0
102
RTVSPost2010PropOp33
 70
     1
102
RTVSPost2010Prop34
280
     0
102
RTVSPost2010PropOp34
 70
     1
102
RTVSPost2010Prop35
280
     0
102
RTVSPost2010PropOp35
 70
     1
102
RTVSPost2010Prop36
280
     0
102
RTVSPost2010PropOp36
 70
     1
102
RTVSPost2010Prop37
 90
       50
102
RTVSPost2010PropOp37
 70
     0
102
RTVSPost2010Prop38
140
0.0
102
RTVSPost2010PropOp38
 70
     0
102
RTVSPost2010Prop39
140
1.0
102
RTVSPost2010PropOp39
 70
     0
102
RTVSPost2010Prop40
 90
        0
102
RTVSPost2010PropOp40
 70
     0
102
RTVSPost2010Prop41ColorIndex
 90
       18
102
RTVSPost2010Prop41ColorRGB
 90
        0
102
RTVSPost2010PropOp41
 70
     0
102
RTVSPost2010Prop42
 90
       50
102
RTVSPost2010PropOp42
 70
     0
102
RTVSPost2010Prop43
 90
        3
102
RTVSPost2010PropOp43
 70
     0
102
RTVSPost2010Prop44ColorIndex
 90
        5
102
RTVSPost2010Prop44ColorRGB
 90
      255
102
RTVSPost2010PropOp44
 70
     0
102
RTVSPost2010Prop45
280
     0
102
RTVSPost2010PropOp45
 70
     1
102
RTVSPost2010Prop46
 90
       50
102
RTVSPost2010PropOp46
 70
     0
102
RTVSPost2010Prop47
 90
       50
102
RTVSPost2010PropOp47
 70
     0
102
RTVSPost2010Prop48
 90
       50
102
RTVSPost2010PropOp48
 70
     0
102
RTVSPost2010Prop49
280
     0
102
RTVSPost2010PropOp49
 70
     1
102
RTVSPost2010Prop50
 90
       50
102
RTVSPost2010PropOp50
 70
     0
102
RTVSPost2010Prop51ColorIndex
 90
      256
102
RTVSPost2010Prop51ColorRGB
 90
-16777216
102
RTVSPost2010PropOp51
 70
     0
102
RTVSPost2010Prop52
140
1.0
102
RTVSPost2010PropOp52
 70
     0
102
RTVSPost2010Prop53
 90
        2
102
RTVSPost2010PropOp53
 70
     0
102
RTVSPost2010Prop54
  1
strokes_ogs.tif
102
RTVSPost2010PropOp54
 70
     0
102
RTVSPost2010Prop55
280
     0
102
RTVSPost2010PropOp55
 70
     1
102
RTVSPost2010Prop56
140
1.0
102
RTVSPost2010PropOp56
 70
     0
102
RTVSPost2010Prop57
140
1.0
102
RTVSPost2010PropOp57
 70
     0
102
RTVSPropertyOp0
 70
     0
102
RTVSPropertyOp1
 70
     0
102
RTVSPropertyOp2
 70
     0
102
RTVSPropertyOp3
 70
     0
102
RTVSPropertyOp4
 70
     0
102
RTVSPropertyOp5
 70
     0
102
RTVSPropertyOp6
 70
     0
102
RTVSPropertyOp7
 70
     0
102
RTVSPropertyOp8
 70
     0
102
RTVSPropertyOp9
 70
     0
102
RTVSPropertyOp10
 70
     0
102
RTVSPropertyOp11
 70
     0
102
RTVSPropertyOp12
 70
     0
102
RTVSPropertyOp13
 70
     0
102
RTVSPropertyOp14
 70
     2
102
RTVSPropertyOp15
 70
     0
102
RTVSPropertyOp16
 70
     0
102
RTVSPropertyOp17
 70
     0
102
RTVSPropertyOp18
 70
     0
102
RTVSPropertyOp19
 70
     0
102
RTVSPropertyOp20
 70
     0
102
RTVSPropertyOp21
 70
     0
102
RTVSPropertyOp22
 70
     0
102
RTVSPropertyOp23
 70
     0
102
RTVSPropertyOp24
 70
     0
102
RTVSPropertyOp25
 70
     0
102
RTVSPropertyOp26
 70
     0
102
RTVSPropertyOp27
 70
     0
102
RTVSPropertyOp28
 70
     1
102
RTVSPropertyOp29
 70
     1
102
RTVSPropertyOp30
 70
     1
102
RTVSPropertyOp31
 70
     1
102
RTVSPropertyOp32
 70
     1
102
RTVSPropertyOp33
 70
     1
102
RTVSPropertyOp34
 70
     1
102
RTVSPropertyOp35
 70
     1
102
RTVSPropertyOp36
 70
     1
102
RTVSPropertyOp37
 70
     0
102
RTVSPropertyOp38
 70
     0
102
RTVSPropertyOp39
 70
     0
102
RTVSPropertyOp40
 70
     0
102
RTVSPropertyOp41
 70
     0
102
RTVSPropertyOp42
 70
     0
102
RTVSPropertyOp43
 70
     0
102
RTVSPropertyOp44
 70
     0
102
RTVSPropertyOp45
 70
     1
102
RTVSPropertyOp46
 70
     0
102
RTVSPropertyOp47
 70
     0
102
RTVSPropertyOp48
 70
     0
102
RTVSPropertyOp49
 70
     1
102
RTVSPropertyOp50
 70
     0
102
RTVSPropertyOp51
 70
     0
102
RTVSPropertyOp52
 70
     0
102
RTVSPropertyOp53
 70
     0
102
RTVSPropertyOp54
 70
     0
102
RTVSPropertyOp55
 70
     1
102
RTVSPropertyOp56
 70
     0
102
RTVSPropertyOp57
 70
     0
102
RTVSPropertyOp58
 70
     0
102
RTVSPropertyOp59
 70
     0
102
RTVSPropertyOp60
 70
     0
102
RTVSPropertyOp61
 70
     0
102
RTVSPropertyOp62
 70
     0
  0
XRECORD
  5
BDD5
102
{ACAD_REACTORS
330
BDD4
102
}
330
BDD4
100
AcDbXrecord
280
     1
102
RTVSPost2010Prop28
280
     0
102
RTVSPost2010PropOp28
 70
     1
102
RTVSPost2010Prop29
280
     1
102
RTVSPost2010PropOp29
 70
     1
102
RTVSPost2010Prop30
280
     1
102
RTVSPost2010PropOp30
 70
     1
102
RTVSPost2010Prop31
280
     0
102
RTVSPost2010PropOp31
 70
     1
102
RTVSPost2010Prop32
280
     0
102
RTVSPost2010PropOp32
 70
     1
102
RTVSPost2010Prop33
280
     0
102
RTVSPost2010PropOp33
 70
     1
102
RTVSPost2010Prop34
280
     0
102
RTVSPost2010PropOp34
 70
     1
102
RTVSPost2010Prop35
280
     0
102
RTVSPost2010PropOp35
 70
     1
102
RTVSPost2010Prop36
280
     0
102
RTVSPost2010PropOp36
 70
     1
102
RTVSPost2010Prop37
 90
       50
102
RTVSPost2010PropOp37
 70
     1
102
RTVSPost2010Prop38
140
0.0
102
RTVSPost2010PropOp38
 70
     1
102
RTVSPost2010Prop39
140
1.0
102
RTVSPost2010PropOp39
 70
     1
102
RTVSPost2010Prop40
 90
        0
102
RTVSPost2010PropOp40
 70
     1
102
RTVSPost2010Prop41ColorIndex
 90
       18
102
RTVSPost2010Prop41ColorRGB
 90
        0
102
RTVSPost2010PropOp41
 70
     1
102
RTVSPost2010Prop42
 90
       50
102
RTVSPost2010PropOp42
 70
     1
102
RTVSPost2010Prop43
 90
        3
102
RTVSPost2010PropOp43
 70
     1
102
RTVSPost2010Prop44ColorIndex
 90
        5
102
RTVSPost2010Prop44ColorRGB
 90
      255
102
RTVSPost2010PropOp44
 70
     1
102
RTVSPost2010Prop45
280
     0
102
RTVSPost2010PropOp45
 70
     1
102
RTVSPost2010Prop46
 90
       50
102
RTVSPost2010PropOp46
 70
     1
102
RTVSPost2010Prop47
 90
       50
102
RTVSPost2010PropOp47
 70
     1
102
RTVSPost2010Prop48
 90
       50
102
RTVSPost2010PropOp48
 70
     1
102
RTVSPost2010Prop49
280
     0
102
RTVSPost2010PropOp49
 70
     1
102
RTVSPost2010Prop50
 90
       50
102
RTVSPost2010PropOp50
 70
     1
102
RTVSPost2010Prop51ColorIndex
 90
      256
102
RTVSPost2010Prop51ColorRGB
 90
-16777216
102
RTVSPost2010PropOp51
 70
     0
102
RTVSPost2010Prop52
140
1.0
102
RTVSPost2010PropOp52
 70
     0
102
RTVSPost2010Prop53
 90
        2
102
RTVSPost2010PropOp53
 70
     1
102
RTVSPost2010Prop54
  1
strokes_ogs.tif
102
RTVSPost2010PropOp54
 70
     1
102
RTVSPost2010Prop55
280
     0
102
RTVSPost2010PropOp55
 70
     1
102
RTVSPost2010Prop56
140
1.0
102
RTVSPost2010PropOp56
 70
     1
102
RTVSPost2010Prop57
140
1.0
102
RTVSPost2010PropOp57
 70
     1
102
RTVSPropertyOp0
 70
     1
102
RTVSPropertyOp1
 70
     1
102
RTVSPropertyOp2
 70
     1
102
RTVSPropertyOp3
 70
     1
102
RTVSPropertyOp4
 70
     1
102
RTVSPropertyOp5
 70
     1
102
RTVSPropertyOp6
 70
     1
102
RTVSPropertyOp7
 70
     1
102
RTVSPropertyOp8
 70
     1
102
RTVSPropertyOp9
 70
     1
102
RTVSPropertyOp10
 70
     1
102
RTVSPropertyOp11
 70
     1
102
RTVSPropertyOp12
 70
     1
102
RTVSPropertyOp13
 70
     1
102
RTVSPropertyOp14
 70
     1
102
RTVSPropertyOp15
 70
     1
102
RTVSPropertyOp16
 70
     1
102
RTVSPropertyOp17
 70
     1
102
RTVSPropertyOp18
 70
     1
102
RTVSPropertyOp19
 70
     1
102
RTVSPropertyOp20
 70
     1
102
RTVSPropertyOp21
 70
     1
102
RTVSPropertyOp22
 70
     1
102
RTVSPropertyOp23
 70
     1
102
RTVSPropertyOp24
 70
     1
102
RTVSPropertyOp25
 70
     1
102
RTVSPropertyOp26
 70
     1
102
RTVSPropertyOp27
 70
     1
102
RTVSPropertyOp28
 70
     1
102
RTVSPropertyOp29
 70
     1
102
RTVSPropertyOp30
 70
     1
102
RTVSPropertyOp31
 70
     1
102
RTVSPropertyOp32
 70
     1
102
RTVSPropertyOp33
 70
     1
102
RTVSPropertyOp34
 70
     1
102
RTVSPropertyOp35
 70
     1
102
RTVSPropertyOp36
 70
     1
102
RTVSPropertyOp37
 70
     1
102
RTVSPropertyOp38
 70
     1
102
RTVSPropertyOp39
 70
     1
102
RTVSPropertyOp40
 70
     1
102
RTVSPropertyOp41
 70
     1
102
RTVSPropertyOp42
 70
     1
102
RTVSPropertyOp43
 70
     1
102
RTVSPropertyOp44
 70
     1
102
RTVSPropertyOp45
 70
     1
102
RTVSPropertyOp46
 70
     1
102
RTVSPropertyOp47
 70
     1
102
RTVSPropertyOp48
 70
     1
102
RTVSPropertyOp49
 70
     1
102
RTVSPropertyOp50
 70
     1
102
RTVSPropertyOp51
 70
     0
102
RTVSPropertyOp52
 70
     0
102
RTVSPropertyOp53
 70
     1
102
RTVSPropertyOp54
 70
     1
102
RTVSPropertyOp55
 70
     1
102
RTVSPropertyOp56
 70
     1
102
RTVSPropertyOp57
 70
     1
102
RTVSPropertyOp58
 70
     1
102
RTVSPropertyOp59
 70
     1
102
RTVSPropertyOp60
 70
     1
102
RTVSPropertyOp61
 70
     1
102
RTVSPropertyOp62
 70
     1
  0
XRECORD
  5
BDEB
102
{ACAD_REACTORS
330
BDEA
102
}
330
BDEA
100
AcDbXrecord
280
     1
102
RTVSPost2010Prop28
280
     0
102
RTVSPost2010PropOp28
 70
     1
102
RTVSPost2010Prop29
280
     1
102
RTVSPost2010PropOp29
 70
     1
102
RTVSPost2010Prop30
280
     1
102
RTVSPost2010PropOp30
 70
     1
102
RTVSPost2010Prop31
280
     0
102
RTVSPost2010PropOp31
 70
     1
102
RTVSPost2010Prop32
280
     0
102
RTVSPost2010PropOp32
 70
     1
102
RTVSPost2010Prop33
280
     0
102
RTVSPost2010PropOp33
 70
     1
102
RTVSPost2010Prop34
280
     0
102
RTVSPost2010PropOp34
 70
     1
102
RTVSPost2010Prop35
280
     0
102
RTVSPost2010PropOp35
 70
     1
102
RTVSPost2010Prop36
280
     0
102
RTVSPost2010PropOp36
 70
     1
102
RTVSPost2010Prop37
 90
       50
102
RTVSPost2010PropOp37
 70
     1
102
RTVSPost2010Prop38
140
0.0
102
RTVSPost2010PropOp38
 70
     1
102
RTVSPost2010Prop39
140
1.0
102
RTVSPost2010PropOp39
 70
     1
102
RTVSPost2010Prop40
 90
        0
102
RTVSPost2010PropOp40
 70
     1
102
RTVSPost2010Prop41ColorIndex
 90
       18
102
RTVSPost2010Prop41ColorRGB
 90
        0
102
RTVSPost2010PropOp41
 70
     1
102
RTVSPost2010Prop42
 90
       50
102
RTVSPost2010PropOp42
 70
     1
102
RTVSPost2010Prop43
 90
        3
102
RTVSPost2010PropOp43
 70
     1
102
RTVSPost2010Prop44ColorIndex
 90
        5
102
RTVSPost2010Prop44ColorRGB
 90
      255
102
RTVSPost2010PropOp44
 70
     1
102
RTVSPost2010Prop45
280
     0
102
RTVSPost2010PropOp45
 70
     1
102
RTVSPost2010Prop46
 90
       50
102
RTVSPost2010PropOp46
 70
     1
102
RTVSPost2010Prop47
 90
       50
102
RTVSPost2010PropOp47
 70
     1
102
RTVSPost2010Prop48
 90
       50
102
RTVSPost2010PropOp48
 70
     1
102
RTVSPost2010Prop49
280
     0
102
RTVSPost2010PropOp49
 70
     1
102
RTVSPost2010Prop50
 90
       50
102
RTVSPost2010PropOp50
 70
     1
102
RTVSPost2010Prop51ColorIndex
 90
      256
102
RTVSPost2010Prop51ColorRGB
 90
-16777216
102
RTVSPost2010PropOp51
 70
     0
102
RTVSPost2010Prop52
140
1.0
102
RTVSPost2010PropOp52
 70
     0
102
RTVSPost2010Prop53
 90
        2
102
RTVSPost2010PropOp53
 70
     1
102
RTVSPost2010Prop54
  1
strokes_ogs.tif
102
RTVSPost2010PropOp54
 70
     1
102
RTVSPost2010Prop55
280
     0
102
RTVSPost2010PropOp55
 70
     1
102
RTVSPost2010Prop56
140
1.0
102
RTVSPost2010PropOp56
 70
     1
102
RTVSPost2010Prop57
140
1.0
102
RTVSPost2010PropOp57
 70
     1
102
RTVSPropertyOp0
 70
     1
102
RTVSPropertyOp1
 70
     1
102
RTVSPropertyOp2
 70
     1
102
RTVSPropertyOp3
 70
     1
102
RTVSPropertyOp4
 70
     1
102
RTVSPropertyOp5
 70
     1
102
RTVSPropertyOp6
 70
     1
102
RTVSPropertyOp7
 70
     1
102
RTVSPropertyOp8
 70
     1
102
RTVSPropertyOp9
 70
     1
102
RTVSPropertyOp10
 70
     1
102
RTVSPropertyOp11
 70
     1
102
RTVSPropertyOp12
 70
     1
102
RTVSPropertyOp13
 70
     1
102
RTVSPropertyOp14
 70
     1
102
RTVSPropertyOp15
 70
     1
102
RTVSPropertyOp16
 70
     1
102
RTVSPropertyOp17
 70
     1
102
RTVSPropertyOp18
 70
     1
102
RTVSPropertyOp19
 70
     1
102
RTVSPropertyOp20
 70
     1
102
RTVSPropertyOp21
 70
     1
102
RTVSPropertyOp22
 70
     1
102
RTVSPropertyOp23
 70
     1
102
RTVSPropertyOp24
 70
     1
102
RTVSPropertyOp25
 70
     1
102
RTVSPropertyOp26
 70
     1
102
RTVSPropertyOp27
 70
     1
102
RTVSPropertyOp28
 70
     1
102
RTVSPropertyOp29
 70
     1
102
RTVSPropertyOp30
 70
     1
102
RTVSPropertyOp31
 70
     1
102
RTVSPropertyOp32
 70
     1
102
RTVSPropertyOp33
 70
     1
102
RTVSPropertyOp34
 70
     1
102
RTVSPropertyOp35
 70
     1
102
RTVSPropertyOp36
 70
     1
102
RTVSPropertyOp37
 70
     1
102
RTVSPropertyOp38
 70
     1
102
RTVSPropertyOp39
 70
     1
102
RTVSPropertyOp40
 70
     1
102
RTVSPropertyOp41
 70
     1
102
RTVSPropertyOp42
 70
     1
102
RTVSPropertyOp43
 70
     1
102
RTVSPropertyOp44
 70
     1
102
RTVSPropertyOp45
 70
     1
102
RTVSPropertyOp46
 70
     1
102
RTVSPropertyOp47
 70
     1
102
RTVSPropertyOp48
 70
     1
102
RTVSPropertyOp49
 70
     1
102
RTVSPropertyOp50
 70
     1
102
RTVSPropertyOp51
 70
     0
102
RTVSPropertyOp52
 70
     0
102
RTVSPropertyOp53
 70
     1
102
RTVSPropertyOp54
 70
     1
102
RTVSPropertyOp55
 70
     1
102
RTVSPropertyOp56
 70
     1
102
RTVSPropertyOp57
 70
     1
102
RTVSPropertyOp58
 70
     1
102
RTVSPropertyOp59
 70
     1
102
RTVSPropertyOp60
 70
     1
102
RTVSPropertyOp61
 70
     1
102
RTVSPropertyOp62
 70
     1
  0
XRECORD
  5
BDE9
102
{ACAD_REACTORS
330
BDE8
102
}
330
BDE8
100
AcDbXrecord
280
     1
102
RTVSPost2010Prop28
280
     0
102
RTVSPost2010PropOp28
 70
     1
102
RTVSPost2010Prop29
280
     1
102
RTVSPost2010PropOp29
 70
     1
102
RTVSPost2010Prop30
280
     1
102
RTVSPost2010PropOp30
 70
     1
102
RTVSPost2010Prop31
280
     0
102
RTVSPost2010PropOp31
 70
     1
102
RTVSPost2010Prop32
280
     0
102
RTVSPost2010PropOp32
 70
     1
102
RTVSPost2010Prop33
280
     0
102
RTVSPost2010PropOp33
 70
     1
102
RTVSPost2010Prop34
280
     0
102
RTVSPost2010PropOp34
 70
     1
102
RTVSPost2010Prop35
280
     0
102
RTVSPost2010PropOp35
 70
     1
102
RTVSPost2010Prop36
280
     0
102
RTVSPost2010PropOp36
 70
     1
102
RTVSPost2010Prop37
 90
       50
102
RTVSPost2010PropOp37
 70
     1
102
RTVSPost2010Prop38
140
0.0
102
RTVSPost2010PropOp38
 70
     1
102
RTVSPost2010Prop39
140
1.0
102
RTVSPost2010PropOp39
 70
     1
102
RTVSPost2010Prop40
 90
        0
102
RTVSPost2010PropOp40
 70
     1
102
RTVSPost2010Prop41ColorIndex
 90
       18
102
RTVSPost2010Prop41ColorRGB
 90
        0
102
RTVSPost2010PropOp41
 70
     1
102
RTVSPost2010Prop42
 90
       50
102
RTVSPost2010PropOp42
 70
     1
102
RTVSPost2010Prop43
 90
        3
102
RTVSPost2010PropOp43
 70
     1
102
RTVSPost2010Prop44ColorIndex
 90
        5
102
RTVSPost2010Prop44ColorRGB
 90
      255
102
RTVSPost2010PropOp44
 70
     1
102
RTVSPost2010Prop45
280
     0
102
RTVSPost2010PropOp45
 70
     1
102
RTVSPost2010Prop46
 90
       50
102
RTVSPost2010PropOp46
 70
     1
102
RTVSPost2010Prop47
 90
       50
102
RTVSPost2010PropOp47
 70
     1
102
RTVSPost2010Prop48
 90
       50
102
RTVSPost2010PropOp48
 70
     1
102
RTVSPost2010Prop49
280
     0
102
RTVSPost2010PropOp49
 70
     1
102
RTVSPost2010Prop50
 90
       50
102
RTVSPost2010PropOp50
 70
     1
102
RTVSPost2010Prop51ColorIndex
 90
      256
102
RTVSPost2010Prop51ColorRGB
 90
-16777216
102
RTVSPost2010PropOp51
 70
     0
102
RTVSPost2010Prop52
140
1.0
102
RTVSPost2010PropOp52
 70
     0
102
RTVSPost2010Prop53
 90
        2
102
RTVSPost2010PropOp53
 70
     1
102
RTVSPost2010Prop54
  1
strokes_ogs.tif
102
RTVSPost2010PropOp54
 70
     1
102
RTVSPost2010Prop55
280
     0
102
RTVSPost2010PropOp55
 70
     1
102
RTVSPost2010Prop56
140
1.0
102
RTVSPost2010PropOp56
 70
     1
102
RTVSPost2010Prop57
140
1.0
102
RTVSPost2010PropOp57
 70
     1
102
RTVSPropertyOp0
 70
     1
102
RTVSPropertyOp1
 70
     1
102
RTVSPropertyOp2
 70
     1
102
RTVSPropertyOp3
 70
     1
102
RTVSPropertyOp4
 70
     1
102
RTVSPropertyOp5
 70
     1
102
RTVSPropertyOp6
 70
     1
102
RTVSPropertyOp7
 70
     1
102
RTVSPropertyOp8
 70
     1
102
RTVSPropertyOp9
 70
     1
102
RTVSPropertyOp10
 70
     1
102
RTVSPropertyOp11
 70
     1
102
RTVSPropertyOp12
 70
     1
102
RTVSPropertyOp13
 70
     1
102
RTVSPropertyOp14
 70
     1
102
RTVSPropertyOp15
 70
     1
102
RTVSPropertyOp16
 70
     1
102
RTVSPropertyOp17
 70
     1
102
RTVSPropertyOp18
 70
     1
102
RTVSPropertyOp19
 70
     1
102
RTVSPropertyOp20
 70
     1
102
RTVSPropertyOp21
 70
     1
102
RTVSPropertyOp22
 70
     1
102
RTVSPropertyOp23
 70
     1
102
RTVSPropertyOp24
 70
     1
102
RTVSPropertyOp25
 70
     1
102
RTVSPropertyOp26
 70
     1
102
RTVSPropertyOp27
 70
     1
102
RTVSPropertyOp28
 70
     1
102
RTVSPropertyOp29
 70
     1
102
RTVSPropertyOp30
 70
     1
102
RTVSPropertyOp31
 70
     1
102
RTVSPropertyOp32
 70
     1
102
RTVSPropertyOp33
 70
     1
102
RTVSPropertyOp34
 70
     1
102
RTVSPropertyOp35
 70
     1
102
RTVSPropertyOp36
 70
     1
102
RTVSPropertyOp37
 70
     1
102
RTVSPropertyOp38
 70
     1
102
RTVSPropertyOp39
 70
     1
102
RTVSPropertyOp40
 70
     1
102
RTVSPropertyOp41
 70
     1
102
RTVSPropertyOp42
 70
     1
102
RTVSPropertyOp43
 70
     1
102
RTVSPropertyOp44
 70
     1
102
RTVSPropertyOp45
 70
     1
102
RTVSPropertyOp46
 70
     1
102
RTVSPropertyOp47
 70
     1
102
RTVSPropertyOp48
 70
     1
102
RTVSPropertyOp49
 70
     1
102
RTVSPropertyOp50
 70
     1
102
RTVSPropertyOp51
 70
     0
102
RTVSPropertyOp52
 70
     0
102
RTVSPropertyOp53
 70
     1
102
RTVSPropertyOp54
 70
     1
102
RTVSPropertyOp55
 70
     1
102
RTVSPropertyOp56
 70
     1
102
RTVSPropertyOp57
 70
     1
102
RTVSPropertyOp58
 70
     1
102
RTVSPropertyOp59
 70
     1
102
RTVSPropertyOp60
 70
     1
102
RTVSPropertyOp61
 70
     1
102
RTVSPropertyOp62
 70
     1
  0
XRECORD
  5
BDE3
102
{ACAD_REACTORS
330
BDE2
102
}
330
BDE2
100
AcDbXrecord
280
     1
102
RTVSPost2010Prop28
280
     0
102
RTVSPost2010PropOp28
 70
     1
102
RTVSPost2010Prop29
280
     1
102
RTVSPost2010PropOp29
 70
     1
102
RTVSPost2010Prop30
280
     1
102
RTVSPost2010PropOp30
 70
     1
102
RTVSPost2010Prop31
280
     0
102
RTVSPost2010PropOp31
 70
     1
102
RTVSPost2010Prop32
280
     0
102
RTVSPost2010PropOp32
 70
     1
102
RTVSPost2010Prop33
280
     0
102
RTVSPost2010PropOp33
 70
     1
102
RTVSPost2010Prop34
280
     0
102
RTVSPost2010PropOp34
 70
     1
102
RTVSPost2010Prop35
280
     0
102
RTVSPost2010PropOp35
 70
     1
102
RTVSPost2010Prop36
280
     0
102
RTVSPost2010PropOp36
 70
     1
102
RTVSPost2010Prop37
 90
       50
102
RTVSPost2010PropOp37
 70
     1
102
RTVSPost2010Prop38
140
0.0
102
RTVSPost2010PropOp38
 70
     1
102
RTVSPost2010Prop39
140
1.0
102
RTVSPost2010PropOp39
 70
     1
102
RTVSPost2010Prop40
 90
        0
102
RTVSPost2010PropOp40
 70
     1
102
RTVSPost2010Prop41ColorIndex
 90
       18
102
RTVSPost2010Prop41ColorRGB
 90
        0
102
RTVSPost2010PropOp41
 70
     1
102
RTVSPost2010Prop42
 90
       50
102
RTVSPost2010PropOp42
 70
     1
102
RTVSPost2010Prop43
 90
        3
102
RTVSPost2010PropOp43
 70
     1
102
RTVSPost2010Prop44ColorIndex
 90
        5
102
RTVSPost2010Prop44ColorRGB
 90
      255
102
RTVSPost2010PropOp44
 70
     1
102
RTVSPost2010Prop45
280
     0
102
RTVSPost2010PropOp45
 70
     1
102
RTVSPost2010Prop46
 90
       50
102
RTVSPost2010PropOp46
 70
     1
102
RTVSPost2010Prop47
 90
       50
102
RTVSPost2010PropOp47
 70
     1
102
RTVSPost2010Prop48
 90
       50
102
RTVSPost2010PropOp48
 70
     1
102
RTVSPost2010Prop49
280
     0
102
RTVSPost2010PropOp49
 70
     1
102
RTVSPost2010Prop50
 90
       50
102
RTVSPost2010PropOp50
 70
     1
102
RTVSPost2010Prop51ColorIndex
 90
      256
102
RTVSPost2010Prop51ColorRGB
 90
-16777216
102
RTVSPost2010PropOp51
 70
     0
102
RTVSPost2010Prop52
140
1.0
102
RTVSPost2010PropOp52
 70
     0
102
RTVSPost2010Prop53
 90
        2
102
RTVSPost2010PropOp53
 70
     1
102
RTVSPost2010Prop54
  1
strokes_ogs.tif
102
RTVSPost2010PropOp54
 70
     1
102
RTVSPost2010Prop55
280
     0
102
RTVSPost2010PropOp55
 70
     1
102
RTVSPost2010Prop56
140
1.0
102
RTVSPost2010PropOp56
 70
     1
102
RTVSPost2010Prop57
140
1.0
102
RTVSPost2010PropOp57
 70
     1
102
RTVSPropertyOp0
 70
     1
102
RTVSPropertyOp1
 70
     1
102
RTVSPropertyOp2
 70
     1
102
RTVSPropertyOp3
 70
     1
102
RTVSPropertyOp4
 70
     1
102
RTVSPropertyOp5
 70
     1
102
RTVSPropertyOp6
 70
     1
102
RTVSPropertyOp7
 70
     1
102
RTVSPropertyOp8
 70
     1
102
RTVSPropertyOp9
 70
     1
102
RTVSPropertyOp10
 70
     1
102
RTVSPropertyOp11
 70
     1
102
RTVSPropertyOp12
 70
     1
102
RTVSPropertyOp13
 70
     1
102
RTVSPropertyOp14
 70
     1
102
RTVSPropertyOp15
 70
     1
102
RTVSPropertyOp16
 70
     1
102
RTVSPropertyOp17
 70
     1
102
RTVSPropertyOp18
 70
     1
102
RTVSPropertyOp19
 70
     1
102
RTVSPropertyOp20
 70
     1
102
RTVSPropertyOp21
 70
     1
102
RTVSPropertyOp22
 70
     1
102
RTVSPropertyOp23
 70
     1
102
RTVSPropertyOp24
 70
     1
102
RTVSPropertyOp25
 70
     1
102
RTVSPropertyOp26
 70
     1
102
RTVSPropertyOp27
 70
     1
102
RTVSPropertyOp28
 70
     1
102
RTVSPropertyOp29
 70
     1
102
RTVSPropertyOp30
 70
     1
102
RTVSPropertyOp31
 70
     1
102
RTVSPropertyOp32
 70
     1
102
RTVSPropertyOp33
 70
     1
102
RTVSPropertyOp34
 70
     1
102
RTVSPropertyOp35
 70
     1
102
RTVSPropertyOp36
 70
     1
102
RTVSPropertyOp37
 70
     1
102
RTVSPropertyOp38
 70
     1
102
RTVSPropertyOp39
 70
     1
102
RTVSPropertyOp40
 70
     1
102
RTVSPropertyOp41
 70
     1
102
RTVSPropertyOp42
 70
     1
102
RTVSPropertyOp43
 70
     1
102
RTVSPropertyOp44
 70
     1
102
RTVSPropertyOp45
 70
     1
102
RTVSPropertyOp46
 70
     1
102
RTVSPropertyOp47
 70
     1
102
RTVSPropertyOp48
 70
     1
102
RTVSPropertyOp49
 70
     1
102
RTVSPropertyOp50
 70
     1
102
RTVSPropertyOp51
 70
     0
102
RTVSPropertyOp52
 70
     0
102
RTVSPropertyOp53
 70
     1
102
RTVSPropertyOp54
 70
     1
102
RTVSPropertyOp55
 70
     1
102
RTVSPropertyOp56
 70
     1
102
RTVSPropertyOp57
 70
     1
102
RTVSPropertyOp58
 70
     1
102
RTVSPropertyOp59
 70
     1
102
RTVSPropertyOp60
 70
     1
102
RTVSPropertyOp61
 70
     1
102
RTVSPropertyOp62
 70
     1
  0
XRECORD
  5
BDE5
102
{ACAD_REACTORS
330
BDE4
102
}
330
BDE4
100
AcDbXrecord
280
     1
102
RTVSPost2010Prop28
280
     0
102
RTVSPost2010PropOp28
 70
     1
102
RTVSPost2010Prop29
280
     1
102
RTVSPost2010PropOp29
 70
     1
102
RTVSPost2010Prop30
280
     1
102
RTVSPost2010PropOp30
 70
     1
102
RTVSPost2010Prop31
280
     0
102
RTVSPost2010PropOp31
 70
     1
102
RTVSPost2010Prop32
280
     0
102
RTVSPost2010PropOp32
 70
     1
102
RTVSPost2010Prop33
280
     0
102
RTVSPost2010PropOp33
 70
     1
102
RTVSPost2010Prop34
280
     0
102
RTVSPost2010PropOp34
 70
     1
102
RTVSPost2010Prop35
280
     0
102
RTVSPost2010PropOp35
 70
     1
102
RTVSPost2010Prop36
280
     0
102
RTVSPost2010PropOp36
 70
     1
102
RTVSPost2010Prop37
 90
       50
102
RTVSPost2010PropOp37
 70
     1
102
RTVSPost2010Prop38
140
0.0
102
RTVSPost2010PropOp38
 70
     1
102
RTVSPost2010Prop39
140
1.0
102
RTVSPost2010PropOp39
 70
     1
102
RTVSPost2010Prop40
 90
        0
102
RTVSPost2010PropOp40
 70
     1
102
RTVSPost2010Prop41ColorIndex
 90
       18
102
RTVSPost2010Prop41ColorRGB
 90
        0
102
RTVSPost2010PropOp41
 70
     1
102
RTVSPost2010Prop42
 90
       50
102
RTVSPost2010PropOp42
 70
     1
102
RTVSPost2010Prop43
 90
        3
102
RTVSPost2010PropOp43
 70
     1
102
RTVSPost2010Prop44ColorIndex
 90
        5
102
RTVSPost2010Prop44ColorRGB
 90
      255
102
RTVSPost2010PropOp44
 70
     1
102
RTVSPost2010Prop45
280
     0
102
RTVSPost2010PropOp45
 70
     1
102
RTVSPost2010Prop46
 90
       50
102
RTVSPost2010PropOp46
 70
     1
102
RTVSPost2010Prop47
 90
       50
102
RTVSPost2010PropOp47
 70
     1
102
RTVSPost2010Prop48
 90
       50
102
RTVSPost2010PropOp48
 70
     1
102
RTVSPost2010Prop49
280
     0
102
RTVSPost2010PropOp49
 70
     1
102
RTVSPost2010Prop50
 90
       50
102
RTVSPost2010PropOp50
 70
     1
102
RTVSPost2010Prop51ColorIndex
 90
      256
102
RTVSPost2010Prop51ColorRGB
 90
-16777216
102
RTVSPost2010PropOp51
 70
     0
102
RTVSPost2010Prop52
140
1.0
102
RTVSPost2010PropOp52
 70
     0
102
RTVSPost2010Prop53
 90
        2
102
RTVSPost2010PropOp53
 70
     1
102
RTVSPost2010Prop54
  1
strokes_ogs.tif
102
RTVSPost2010PropOp54
 70
     1
102
RTVSPost2010Prop55
280
     0
102
RTVSPost2010PropOp55
 70
     1
102
RTVSPost2010Prop56
140
1.0
102
RTVSPost2010PropOp56
 70
     1
102
RTVSPost2010Prop57
140
1.0
102
RTVSPost2010PropOp57
 70
     1
102
RTVSPropertyOp0
 70
     1
102
RTVSPropertyOp1
 70
     1
102
RTVSPropertyOp2
 70
     1
102
RTVSPropertyOp3
 70
     1
102
RTVSPropertyOp4
 70
     1
102
RTVSPropertyOp5
 70
     1
102
RTVSPropertyOp6
 70
     1
102
RTVSPropertyOp7
 70
     1
102
RTVSPropertyOp8
 70
     1
102
RTVSPropertyOp9
 70
     1
102
RTVSPropertyOp10
 70
     1
102
RTVSPropertyOp11
 70
     1
102
RTVSPropertyOp12
 70
     1
102
RTVSPropertyOp13
 70
     1
102
RTVSPropertyOp14
 70
     1
102
RTVSPropertyOp15
 70
     1
102
RTVSPropertyOp16
 70
     1
102
RTVSPropertyOp17
 70
     1
102
RTVSPropertyOp18
 70
     1
102
RTVSPropertyOp19
 70
     1
102
RTVSPropertyOp20
 70
     1
102
RTVSPropertyOp21
 70
     1
102
RTVSPropertyOp22
 70
     1
102
RTVSPropertyOp23
 70
     1
102
RTVSPropertyOp24
 70
     1
102
RTVSPropertyOp25
 70
     1
102
RTVSPropertyOp26
 70
     1
102
RTVSPropertyOp27
 70
     1
102
RTVSPropertyOp28
 70
     1
102
RTVSPropertyOp29
 70
     1
102
RTVSPropertyOp30
 70
     1
102
RTVSPropertyOp31
 70
     1
102
RTVSPropertyOp32
 70
     1
102
RTVSPropertyOp33
 70
     1
102
RTVSPropertyOp34
 70
     1
102
RTVSPropertyOp35
 70
     1
102
RTVSPropertyOp36
 70
     1
102
RTVSPropertyOp37
 70
     1
102
RTVSPropertyOp38
 70
     1
102
RTVSPropertyOp39
 70
     1
102
RTVSPropertyOp40
 70
     1
102
RTVSPropertyOp41
 70
     1
102
RTVSPropertyOp42
 70
     1
102
RTVSPropertyOp43
 70
     1
102
RTVSPropertyOp44
 70
     1
102
RTVSPropertyOp45
 70
     1
102
RTVSPropertyOp46
 70
     1
102
RTVSPropertyOp47
 70
     1
102
RTVSPropertyOp48
 70
     1
102
RTVSPropertyOp49
 70
     1
102
RTVSPropertyOp50
 70
     1
102
RTVSPropertyOp51
 70
     0
102
RTVSPropertyOp52
 70
     0
102
RTVSPropertyOp53
 70
     1
102
RTVSPropertyOp54
 70
     1
102
RTVSPropertyOp55
 70
     1
102
RTVSPropertyOp56
 70
     1
102
RTVSPropertyOp57
 70
     1
102
RTVSPropertyOp58
 70
     1
102
RTVSPropertyOp59
 70
     1
102
RTVSPropertyOp60
 70
     1
102
RTVSPropertyOp61
 70
     1
102
RTVSPropertyOp62
 70
     1
  0
XRECORD
  5
BDDB
102
{ACAD_REACTORS
330
BDDA
102
}
330
BDDA
100
AcDbXrecord
280
     1
102
RTVSPost2010Prop28
280
     0
102
RTVSPost2010PropOp28
 70
     1
102
RTVSPost2010Prop29
280
     1
102
RTVSPost2010PropOp29
 70
     1
102
RTVSPost2010Prop30
280
     1
102
RTVSPost2010PropOp30
 70
     1
102
RTVSPost2010Prop31
280
     0
102
RTVSPost2010PropOp31
 70
     1
102
RTVSPost2010Prop32
280
     0
102
RTVSPost2010PropOp32
 70
     1
102
RTVSPost2010Prop33
280
     0
102
RTVSPost2010PropOp33
 70
     1
102
RTVSPost2010Prop34
280
     0
102
RTVSPost2010PropOp34
 70
     1
102
RTVSPost2010Prop35
280
     0
102
RTVSPost2010PropOp35
 70
     1
102
RTVSPost2010Prop36
280
     0
102
RTVSPost2010PropOp36
 70
     1
102
RTVSPost2010Prop37
 90
       50
102
RTVSPost2010PropOp37
 70
     1
102
RTVSPost2010Prop38
140
0.0
102
RTVSPost2010PropOp38
 70
     1
102
RTVSPost2010Prop39
140
1.0
102
RTVSPost2010PropOp39
 70
     1
102
RTVSPost2010Prop40
 90
        0
102
RTVSPost2010PropOp40
 70
     1
102
RTVSPost2010Prop41ColorIndex
 90
       18
102
RTVSPost2010Prop41ColorRGB
 90
        0
102
RTVSPost2010PropOp41
 70
     1
102
RTVSPost2010Prop42
 90
       50
102
RTVSPost2010PropOp42
 70
     1
102
RTVSPost2010Prop43
 90
        3
102
RTVSPost2010PropOp43
 70
     1
102
RTVSPost2010Prop44ColorIndex
 90
        5
102
RTVSPost2010Prop44ColorRGB
 90
      255
102
RTVSPost2010PropOp44
 70
     1
102
RTVSPost2010Prop45
280
     0
102
RTVSPost2010PropOp45
 70
     1
102
RTVSPost2010Prop46
 90
       50
102
RTVSPost2010PropOp46
 70
     1
102
RTVSPost2010Prop47
 90
       50
102
RTVSPost2010PropOp47
 70
     1
102
RTVSPost2010Prop48
 90
       50
102
RTVSPost2010PropOp48
 70
     1
102
RTVSPost2010Prop49
280
     0
102
RTVSPost2010PropOp49
 70
     1
102
RTVSPost2010Prop50
 90
       50
102
RTVSPost2010PropOp50
 70
     1
102
RTVSPost2010Prop51ColorIndex
 90
      256
102
RTVSPost2010Prop51ColorRGB
 90
-16777216
102
RTVSPost2010PropOp51
 70
     0
102
RTVSPost2010Prop52
140
1.0
102
RTVSPost2010PropOp52
 70
     0
102
RTVSPost2010Prop53
 90
        2
102
RTVSPost2010PropOp53
 70
     1
102
RTVSPost2010Prop54
  1
strokes_ogs.tif
102
RTVSPost2010PropOp54
 70
     1
102
RTVSPost2010Prop55
280
     0
102
RTVSPost2010PropOp55
 70
     1
102
RTVSPost2010Prop56
140
1.0
102
RTVSPost2010PropOp56
 70
     1
102
RTVSPost2010Prop57
140
1.0
102
RTVSPost2010PropOp57
 70
     1
102
RTVSPropertyOp0
 70
     1
102
RTVSPropertyOp1
 70
     1
102
RTVSPropertyOp2
 70
     1
102
RTVSPropertyOp3
 70
     1
102
RTVSPropertyOp4
 70
     1
102
RTVSPropertyOp5
 70
     1
102
RTVSPropertyOp6
 70
     1
102
RTVSPropertyOp7
 70
     1
102
RTVSPropertyOp8
 70
     1
102
RTVSPropertyOp9
 70
     1
102
RTVSPropertyOp10
 70
     1
102
RTVSPropertyOp11
 70
     1
102
RTVSPropertyOp12
 70
     1
102
RTVSPropertyOp13
 70
     1
102
RTVSPropertyOp14
 70
     1
102
RTVSPropertyOp15
 70
     1
102
RTVSPropertyOp16
 70
     1
102
RTVSPropertyOp17
 70
     1
102
RTVSPropertyOp18
 70
     1
102
RTVSPropertyOp19
 70
     1
102
RTVSPropertyOp20
 70
     1
102
RTVSPropertyOp21
 70
     1
102
RTVSPropertyOp22
 70
     1
102
RTVSPropertyOp23
 70
     1
102
RTVSPropertyOp24
 70
     1
102
RTVSPropertyOp25
 70
     1
102
RTVSPropertyOp26
 70
     1
102
RTVSPropertyOp27
 70
     1
102
RTVSPropertyOp28
 70
     1
102
RTVSPropertyOp29
 70
     1
102
RTVSPropertyOp30
 70
     1
102
RTVSPropertyOp31
 70
     1
102
RTVSPropertyOp32
 70
     1
102
RTVSPropertyOp33
 70
     1
102
RTVSPropertyOp34
 70
     1
102
RTVSPropertyOp35
 70
     1
102
RTVSPropertyOp36
 70
     1
102
RTVSPropertyOp37
 70
     1
102
RTVSPropertyOp38
 70
     1
102
RTVSPropertyOp39
 70
     1
102
RTVSPropertyOp40
 70
     1
102
RTVSPropertyOp41
 70
     1
102
RTVSPropertyOp42
 70
     1
102
RTVSPropertyOp43
 70
     1
102
RTVSPropertyOp44
 70
     1
102
RTVSPropertyOp45
 70
     1
102
RTVSPropertyOp46
 70
     1
102
RTVSPropertyOp47
 70
     1
102
RTVSPropertyOp48
 70
     1
102
RTVSPropertyOp49
 70
     1
102
RTVSPropertyOp50
 70
     1
102
RTVSPropertyOp51
 70
     0
102
RTVSPropertyOp52
 70
     0
102
RTVSPropertyOp53
 70
     1
102
RTVSPropertyOp54
 70
     1
102
RTVSPropertyOp55
 70
     1
102
RTVSPropertyOp56
 70
     1
102
RTVSPropertyOp57
 70
     1
102
RTVSPropertyOp58
 70
     1
102
RTVSPropertyOp59
 70
     1
102
RTVSPropertyOp60
 70
     1
102
RTVSPropertyOp61
 70
     1
102
RTVSPropertyOp62
 70
     1
  0
XRECORD
  5
BDCF
102
{ACAD_REACTORS
330
BDCE
102
}
330
BDCE
100
AcDbXrecord
280
     1
102
RTVSPost2010Prop28
280
     0
102
RTVSPost2010PropOp28
 70
     1
102
RTVSPost2010Prop29
280
     1
102
RTVSPost2010PropOp29
 70
     1
102
RTVSPost2010Prop30
280
     1
102
RTVSPost2010PropOp30
 70
     1
102
RTVSPost2010Prop31
280
     0
102
RTVSPost2010PropOp31
 70
     1
102
RTVSPost2010Prop32
280
     0
102
RTVSPost2010PropOp32
 70
     1
102
RTVSPost2010Prop33
280
     0
102
RTVSPost2010PropOp33
 70
     1
102
RTVSPost2010Prop34
280
     0
102
RTVSPost2010PropOp34
 70
     1
102
RTVSPost2010Prop35
280
     0
102
RTVSPost2010PropOp35
 70
     1
102
RTVSPost2010Prop36
280
     0
102
RTVSPost2010PropOp36
 70
     1
102
RTVSPost2010Prop37
 90
       50
102
RTVSPost2010PropOp37
 70
     1
102
RTVSPost2010Prop38
140
0.0
102
RTVSPost2010PropOp38
 70
     1
102
RTVSPost2010Prop39
140
1.0
102
RTVSPost2010PropOp39
 70
     1
102
RTVSPost2010Prop40
 90
        0
102
RTVSPost2010PropOp40
 70
     1
102
RTVSPost2010Prop41ColorIndex
 90
       18
102
RTVSPost2010Prop41ColorRGB
 90
        0
102
RTVSPost2010PropOp41
 70
     1
102
RTVSPost2010Prop42
 90
       50
102
RTVSPost2010PropOp42
 70
     1
102
RTVSPost2010Prop43
 90
        3
102
RTVSPost2010PropOp43
 70
     1
102
RTVSPost2010Prop44ColorIndex
 90
        5
102
RTVSPost2010Prop44ColorRGB
 90
      255
102
RTVSPost2010PropOp44
 70
     1
102
RTVSPost2010Prop45
280
     0
102
RTVSPost2010PropOp45
 70
     1
102
RTVSPost2010Prop46
 90
       50
102
RTVSPost2010PropOp46
 70
     1
102
RTVSPost2010Prop47
 90
       50
102
RTVSPost2010PropOp47
 70
     1
102
RTVSPost2010Prop48
 90
       50
102
RTVSPost2010PropOp48
 70
     1
102
RTVSPost2010Prop49
280
     0
102
RTVSPost2010PropOp49
 70
     1
102
RTVSPost2010Prop50
 90
       50
102
RTVSPost2010PropOp50
 70
     1
102
RTVSPost2010Prop51ColorIndex
 90
      256
102
RTVSPost2010Prop51ColorRGB
 90
-16777216
102
RTVSPost2010PropOp51
 70
     0
102
RTVSPost2010Prop52
140
1.0
102
RTVSPost2010PropOp52
 70
     0
102
RTVSPost2010Prop53
 90
        2
102
RTVSPost2010PropOp53
 70
     1
102
RTVSPost2010Prop54
  1
strokes_ogs.tif
102
RTVSPost2010PropOp54
 70
     1
102
RTVSPost2010Prop55
280
     0
102
RTVSPost2010PropOp55
 70
     1
102
RTVSPost2010Prop56
140
1.0
102
RTVSPost2010PropOp56
 70
     1
102
RTVSPost2010Prop57
140
1.0
102
RTVSPost2010PropOp57
 70
     1
102
RTVSPropertyOp0
 70
     1
102
RTVSPropertyOp1
 70
     1
102
RTVSPropertyOp2
 70
     1
102
RTVSPropertyOp3
 70
     1
102
RTVSPropertyOp4
 70
     1
102
RTVSPropertyOp5
 70
     1
102
RTVSPropertyOp6
 70
     1
102
RTVSPropertyOp7
 70
     1
102
RTVSPropertyOp8
 70
     1
102
RTVSPropertyOp9
 70
     1
102
RTVSPropertyOp10
 70
     1
102
RTVSPropertyOp11
 70
     1
102
RTVSPropertyOp12
 70
     1
102
RTVSPropertyOp13
 70
     1
102
RTVSPropertyOp14
 70
     1
102
RTVSPropertyOp15
 70
     1
102
RTVSPropertyOp16
 70
     1
102
RTVSPropertyOp17
 70
     1
102
RTVSPropertyOp18
 70
     1
102
RTVSPropertyOp19
 70
     1
102
RTVSPropertyOp20
 70
     1
102
RTVSPropertyOp21
 70
     1
102
RTVSPropertyOp22
 70
     1
102
RTVSPropertyOp23
 70
     1
102
RTVSPropertyOp24
 70
     1
102
RTVSPropertyOp25
 70
     1
102
RTVSPropertyOp26
 70
     1
102
RTVSPropertyOp27
 70
     1
102
RTVSPropertyOp28
 70
     1
102
RTVSPropertyOp29
 70
     1
102
RTVSPropertyOp30
 70
     1
102
RTVSPropertyOp31
 70
     1
102
RTVSPropertyOp32
 70
     1
102
RTVSPropertyOp33
 70
     1
102
RTVSPropertyOp34
 70
     1
102
RTVSPropertyOp35
 70
     1
102
RTVSPropertyOp36
 70
     1
102
RTVSPropertyOp37
 70
     1
102
RTVSPropertyOp38
 70
     1
102
RTVSPropertyOp39
 70
     1
102
RTVSPropertyOp40
 70
     1
102
RTVSPropertyOp41
 70
     1
102
RTVSPropertyOp42
 70
     1
102
RTVSPropertyOp43
 70
     1
102
RTVSPropertyOp44
 70
     1
102
RTVSPropertyOp45
 70
     1
102
RTVSPropertyOp46
 70
     1
102
RTVSPropertyOp47
 70
     1
102
RTVSPropertyOp48
 70
     1
102
RTVSPropertyOp49
 70
     1
102
RTVSPropertyOp50
 70
     1
102
RTVSPropertyOp51
 70
     0
102
RTVSPropertyOp52
 70
     0
102
RTVSPropertyOp53
 70
     1
102
RTVSPropertyOp54
 70
     1
102
RTVSPropertyOp55
 70
     1
102
RTVSPropertyOp56
 70
     1
102
RTVSPropertyOp57
 70
     1
102
RTVSPropertyOp58
 70
     1
102
RTVSPropertyOp59
 70
     1
102
RTVSPropertyOp60
 70
     1
102
RTVSPropertyOp61
 70
     1
102
RTVSPropertyOp62
 70
     1
  0
XRECORD
  5
BDE7
102
{ACAD_REACTORS
330
BDE6
102
}
330
BDE6
100
AcDbXrecord
280
     1
102
RTVSPost2010Prop28
280
     0
102
RTVSPost2010PropOp28
 70
     1
102
RTVSPost2010Prop29
280
     1
102
RTVSPost2010PropOp29
 70
     1
102
RTVSPost2010Prop30
280
     1
102
RTVSPost2010PropOp30
 70
     1
102
RTVSPost2010Prop31
280
     0
102
RTVSPost2010PropOp31
 70
     1
102
RTVSPost2010Prop32
280
     0
102
RTVSPost2010PropOp32
 70
     1
102
RTVSPost2010Prop33
280
     0
102
RTVSPost2010PropOp33
 70
     1
102
RTVSPost2010Prop34
280
     0
102
RTVSPost2010PropOp34
 70
     1
102
RTVSPost2010Prop35
280
     0
102
RTVSPost2010PropOp35
 70
     1
102
RTVSPost2010Prop36
280
     0
102
RTVSPost2010PropOp36
 70
     1
102
RTVSPost2010Prop37
 90
       50
102
RTVSPost2010PropOp37
 70
     1
102
RTVSPost2010Prop38
140
0.0
102
RTVSPost2010PropOp38
 70
     1
102
RTVSPost2010Prop39
140
1.0
102
RTVSPost2010PropOp39
 70
     1
102
RTVSPost2010Prop40
 90
        0
102
RTVSPost2010PropOp40
 70
     1
102
RTVSPost2010Prop41ColorIndex
 90
       18
102
RTVSPost2010Prop41ColorRGB
 90
        0
102
RTVSPost2010PropOp41
 70
     1
102
RTVSPost2010Prop42
 90
       50
102
RTVSPost2010PropOp42
 70
     1
102
RTVSPost2010Prop43
 90
        3
102
RTVSPost2010PropOp43
 70
     1
102
RTVSPost2010Prop44ColorIndex
 90
        5
102
RTVSPost2010Prop44ColorRGB
 90
      255
102
RTVSPost2010PropOp44
 70
     1
102
RTVSPost2010Prop45
280
     0
102
RTVSPost2010PropOp45
 70
     1
102
RTVSPost2010Prop46
 90
       50
102
RTVSPost2010PropOp46
 70
     1
102
RTVSPost2010Prop47
 90
       50
102
RTVSPost2010PropOp47
 70
     1
102
RTVSPost2010Prop48
 90
       50
102
RTVSPost2010PropOp48
 70
     1
102
RTVSPost2010Prop49
280
     0
102
RTVSPost2010PropOp49
 70
     1
102
RTVSPost2010Prop50
 90
       50
102
RTVSPost2010PropOp50
 70
     1
102
RTVSPost2010Prop51ColorIndex
 90
      256
102
RTVSPost2010Prop51ColorRGB
 90
-16777216
102
RTVSPost2010PropOp51
 70
     0
102
RTVSPost2010Prop52
140
1.0
102
RTVSPost2010PropOp52
 70
     0
102
RTVSPost2010Prop53
 90
        2
102
RTVSPost2010PropOp53
 70
     1
102
RTVSPost2010Prop54
  1
strokes_ogs.tif
102
RTVSPost2010PropOp54
 70
     1
102
RTVSPost2010Prop55
280
     0
102
RTVSPost2010PropOp55
 70
     1
102
RTVSPost2010Prop56
140
1.0
102
RTVSPost2010PropOp56
 70
     1
102
RTVSPost2010Prop57
140
1.0
102
RTVSPost2010PropOp57
 70
     1
102
RTVSPropertyOp0
 70
     1
102
RTVSPropertyOp1
 70
     1
102
RTVSPropertyOp2
 70
     1
102
RTVSPropertyOp3
 70
     1
102
RTVSPropertyOp4
 70
     1
102
RTVSPropertyOp5
 70
     1
102
RTVSPropertyOp6
 70
     1
102
RTVSPropertyOp7
 70
     1
102
RTVSPropertyOp8
 70
     1
102
RTVSPropertyOp9
 70
     1
102
RTVSPropertyOp10
 70
     1
102
RTVSPropertyOp11
 70
     1
102
RTVSPropertyOp12
 70
     1
102
RTVSPropertyOp13
 70
     1
102
RTVSPropertyOp14
 70
     1
102
RTVSPropertyOp15
 70
     1
102
RTVSPropertyOp16
 70
     1
102
RTVSPropertyOp17
 70
     1
102
RTVSPropertyOp18
 70
     1
102
RTVSPropertyOp19
 70
     1
102
RTVSPropertyOp20
 70
     1
102
RTVSPropertyOp21
 70
     1
102
RTVSPropertyOp22
 70
     1
102
RTVSPropertyOp23
 70
     1
102
RTVSPropertyOp24
 70
     1
102
RTVSPropertyOp25
 70
     1
102
RTVSPropertyOp26
 70
     1
102
RTVSPropertyOp27
 70
     1
102
RTVSPropertyOp28
 70
     1
102
RTVSPropertyOp29
 70
     1
102
RTVSPropertyOp30
 70
     1
102
RTVSPropertyOp31
 70
     1
102
RTVSPropertyOp32
 70
     1
102
RTVSPropertyOp33
 70
     1
102
RTVSPropertyOp34
 70
     1
102
RTVSPropertyOp35
 70
     1
102
RTVSPropertyOp36
 70
     1
102
RTVSPropertyOp37
 70
     1
102
RTVSPropertyOp38
 70
     1
102
RTVSPropertyOp39
 70
     1
102
RTVSPropertyOp40
 70
     1
102
RTVSPropertyOp41
 70
     1
102
RTVSPropertyOp42
 70
     1
102
RTVSPropertyOp43
 70
     1
102
RTVSPropertyOp44
 70
     1
102
RTVSPropertyOp45
 70
     1
102
RTVSPropertyOp46
 70
     1
102
RTVSPropertyOp47
 70
     1
102
RTVSPropertyOp48
 70
     1
102
RTVSPropertyOp49
 70
     1
102
RTVSPropertyOp50
 70
     1
102
RTVSPropertyOp51
 70
     0
102
RTVSPropertyOp52
 70
     0
102
RTVSPropertyOp53
 70
     1
102
RTVSPropertyOp54
 70
     1
102
RTVSPropertyOp55
 70
     1
102
RTVSPropertyOp56
 70
     1
102
RTVSPropertyOp57
 70
     1
102
RTVSPropertyOp58
 70
     1
102
RTVSPropertyOp59
 70
     1
102
RTVSPropertyOp60
 70
     1
102
RTVSPropertyOp61
 70
     1
102
RTVSPropertyOp62
 70
     1
  0
ENDSEC
  0
EOF
