  0
SECTION
  2
HEADER
  9
$ACADVER
  1
AC1015
  9
$ACADMAINTVER
 70
    20
  9
$DWGCODEPAGE
  3
ANSI_932
  9
$INSBASE
 10
0.0
 20
0.0
 30
0.0
  9
$EXTMIN
 10
10.0
 20
9.999999999999998
 30
0.0
  9
$EXTMAX
 10
363.5617799999999
 20
300.0674619999998
 30
0.0
  9
$LIMMIN
 10
0.0
 20
0.0
  9
$LIMMAX
 10
495.0
 20
341.25
  9
$ORTHOMODE
 70
     1
  9
$REGENMODE
 70
     1
  9
$FILLMODE
 70
     1
  9
$QTEXTMODE
 70
     0
  9
$MIRRTEXT
 70
     1
  9
$LTSCALE
 40
20.0
  9
$ATTMODE
 70
     1
  9
$TEXTSIZE
 40
5.0
  9
$TRACEWID
 40
1.0
  9
$TEXTSTYLE
  7
STANDARD
  9
$CLAYER
  8
0
  9
$CELTYPE
  6
BYLAYER
  9
$CECOLOR
 62
   256
  9
$CELTSCALE
 40
1.0
  9
$DISPSILH
 70
     0
  9
$DIMSCALE
 40
1.0
  9
$DIMASZ
 40
3.0
  9
$DIMEXO
 40
1.0
  9
$DIMDLI
 40
10.0
  9
$DIMRND
 40
0.0
  9
$DIMDLE
 40
0.0
  9
$DIMEXE
 40
1.0
  9
$DIMTP
 40
0.0
  9
$DIMTM
 40
0.0
  9
$DIMTXT
 40
3.2
  9
$DIMCEN
 40
0.0
  9
$DIMTSZ
 40
0.0
  9
$DIMTOL
 70
     0
  9
$DIMLIM
 70
     0
  9
$DIMTIH
 70
     0
  9
$DIMTOH
 70
     0
  9
$DIMSE1
 70
     0
  9
$DIMSE2
 70
     0
  9
$DIMTAD
 70
     3
  9
$DIMZIN
 70
     8
  9
$DIMBLK
  1

  9
$DIMASO
 70
     1
  9
$DIMSHO
 70
     1
  9
$DIMPOST
  1

  9
$DIMAPOST
  1

  9
$DIMALT
 70
     0
  9
$DIMALTD
 70
     2
  9
$DIMALTF
 40
25.4
  9
$DIMLFAC
 40
1.0
  9
$DIMTOFL
 70
     1
  9
$DIMTVP
 40
0.0
  9
$DIMTIX
 70
     0
  9
$DIMSOXD
 70
     0
  9
$DIMSAH
 70
     1
  9
$DIMBLK1
  1
OPEN
  9
$DIMBLK2
  1
OPEN
  9
$DIMSTYLE
  2
STANDARD
  9
$DIMCLRD
 70
     0
  9
$DIMCLRE
 70
     0
  9
$DIMCLRT
 70
     0
  9
$DIMTFAC
 40
1.0
  9
$DIMGAP
 40
1.0
  9
$DIMJUST
 70
     0
  9
$DIMSD1
 70
     0
  9
$DIMSD2
 70
     0
  9
$DIMTOLJ
 70
     1
  9
$DIMTZIN
 70
     0
  9
$DIMALTZ
 70
     0
  9
$DIMALTTZ
 70
     0
  9
$DIMUPT
 70
     0
  9
$DIMDEC
 70
     4
  9
$DIMTDEC
 70
     4
  9
$DIMALTU
 70
     2
  9
$DIMALTTD
 70
     2
  9
$DIMTXSTY
  7
STANDARD
  9
$DIMAUNIT
 70
     0
  9
$DIMADEC
 70
     0
  9
$DIMALTRND
 40
0.0
  9
$DIMAZIN
 70
     0
  9
$DIMDSEP
 70
    46
  9
$DIMATFIT
 70
     3
  9
$DIMFRAC
 70
     0
  9
$DIMLDRBLK
  1
OPEN
  9
$DIMLUNIT
 70
     2
  9
$DIMLWD
 70
    -2
  9
$DIMLWE
 70
    -2
  9
$DIMTMOVE
 70
     0
  9
$LUNITS
 70
     2
  9
$LUPREC
 70
     4
  9
$SKETCHINC
 40
1.0
  9
$FILLETRAD
 40
6.0
  9
$AUNITS
 70
     0
  9
$AUPREC
 70
     2
  9
$MENU
  1
.
  9
$ELEVATION
 40
0.0
  9
$PELEVATION
 40
0.0
  9
$THICKNESS
 40
0.0
  9
$LIMCHECK
 70
     0
  9
$CHAMFERA
 40
10.0
  9
$CHAMFERB
 40
10.0
  9
$CHAMFERC
 40
0.0
  9
$CHAMFERD
 40
0.0
  9
$SKPOLY
 70
     0
  9
$TDCREATE
 40
2451302.669326852
  9
$TDUCREATE
 40
2451302.294326852
  9
$TDUPDATE
 40
2457192.687885139
  9
$TDUUPDATE
 40
2457192.312885139
  9
$TDINDWG
 40
0.0000130556
  9
$TDUSRTIMER
 40
0.0000127315
  9
$USRTIMER
 70
     1
  9
$ANGBASE
 50
0.0
  9
$ANGDIR
 70
     0
  9
$PDMODE
 70
     0
  9
$PDSIZE
 40
0.0
  9
$PLINEWID
 40
0.0
  9
$SPLFRAME
 70
     0
  9
$SPLINETYPE
 70
     6
  9
$SPLINESEGS
 70
     8
  9
$HANDSEED
  5
C2B3
  9
$SURFTAB1
 70
     6
  9
$SURFTAB2
 70
     6
  9
$SURFTYPE
 70
     6
  9
$SURFU
 70
     6
  9
$SURFV
 70
     6
  9
$UCSBASE
  2

  9
$UCSNAME
  2

  9
$UCSORG
 10
0.0
 20
0.0
 30
0.0
  9
$UCSXDIR
 10
1.0
 20
0.0
 30
0.0
  9
$UCSYDIR
 10
0.0
 20
1.0
 30
0.0
  9
$UCSORTHOREF
  2

  9
$UCSORTHOVIEW
 70
     0
  9
$UCSORGTOP
 10
0.0
 20
0.0
 30
0.0
  9
$UCSORGBOTTOM
 10
0.0
 20
0.0
 30
0.0
  9
$UCSORGLEFT
 10
0.0
 20
0.0
 30
0.0
  9
$UCSORGRIGHT
 10
0.0
 20
0.0
 30
0.0
  9
$UCSORGFRONT
 10
0.0
 20
0.0
 30
0.0
  9
$UCSORGBACK
 10
0.0
 20
0.0
 30
0.0
  9
$PUCSBASE
  2

  9
$PUCSNAME
  2

  9
$PUCSORG
 10
0.0
 20
0.0
 30
0.0
  9
$PUCSXDIR
 10
1.0
 20
0.0
 30
0.0
  9
$PUCSYDIR
 10
0.0
 20
1.0
 30
0.0
  9
$PUCSORTHOREF
  2

  9
$PUCSORTHOVIEW
 70
     0
  9
$PUCSORGTOP
 10
0.0
 20
0.0
 30
0.0
  9
$PUCSORGBOTTOM
 10
0.0
 20
0.0
 30
0.0
  9
$PUCSORGLEFT
 10
0.0
 20
0.0
 30
0.0
  9
$PUCSORGRIGHT
 10
0.0
 20
0.0
 30
0.0
  9
$PUCSORGFRONT
 10
0.0
 20
0.0
 30
0.0
  9
$PUCSORGBACK
 10
0.0
 20
0.0
 30
0.0
  9
$USERI1
 70
     0
  9
$USERI2
 70
     0
  9
$USERI3
 70
     0
  9
$USERI4
 70
     0
  9
$USERI5
 70
     0
  9
$USERR1
 40
0.0
  9
$USERR2
 40
0.0
  9
$USERR3
 40
0.0
  9
$USERR4
 40
0.0
  9
$USERR5
 40
0.0
  9
$WORLDVIEW
 70
     1
  9
$SHADEDGE
 70
     3
  9
$SHADEDIF
 70
    70
  9
$TILEMODE
 70
     1
  9
$MAXACTVP
 70
    16
  9
$PINSBASE
 10
0.0
 20
0.0
 30
0.0
  9
$PLIMCHECK
 70
     0
  9
$PEXTMIN
 10
1.000000000000000E+20
 20
1.000000000000000E+20
 30
1.000000000000000E+20
  9
$PEXTMAX
 10
-1.000000000000000E+20
 20
-1.000000000000000E+20
 30
-1.000000000000000E+20
  9
$PLIMMIN
 10
0.0
 20
0.0
  9
$PLIMMAX
 10
420.0
 20
297.0
  9
$UNITMODE
 70
     0
  9
$VISRETAIN
 70
     0
  9
$PLINEGEN
 70
     0
  9
$PSLTSCALE
 70
     0
  9
$TREEDEPTH
 70
  3020
  9
$CMLSTYLE
  2
STANDARD
  9
$CMLJUST
 70
     0
  9
$CMLSCALE
 40
1.0
  9
$PROXYGRAPHICS
 70
     1
  9
$MEASUREMENT
 70
     0
  9
$CELWEIGHT
370
    -1
  9
$ENDCAPS
280
     0
  9
$JOINSTYLE
280
     0
  9
$LWDISPLAY
290
     0
  9
$INSUNITS
 70
     0
  9
$HYPERLINKBASE
  1

  9
$STYLESHEET
  1

  9
$XEDIT
290
     1
  9
$CEPSNTYPE
380
     0
  9
$PSTYLEMODE
290
     1
  9
$FINGERPRINTGUID
  2
{78B18A5C-66A3-4F38-8D71-5111355E13B2}
  9
$VERSIONGUID
  2
{B5403448-90AF-4EFB-B216-AD54F66BB35F}
  9
$EXTNAMES
290
     1
  9
$PSVPSCALE
 40
0.0
  9
$OLESTARTUP
290
     0
  0
ENDSEC
  0
SECTION
  2
CLASSES
  0
CLASS
  1
ACDBDICTIONARYWDFLT
  2
AcDbDictionaryWithDefault
  3
ObjectDBX Classes
 90
        0
280
     0
281
     0
  0
CLASS
  1
ACDBPLACEHOLDER
  2
AcDbPlaceHolder
  3
ObjectDBX Classes
 90
        0
280
     0
281
     0
  0
CLASS
  1
LAYOUT
  2
AcDbLayout
  3
ObjectDBX Classes
 90
        0
280
     0
281
     0
  0
CLASS
  1
DICTIONARYVAR
  2
AcDbDictionaryVar
  3
ObjectDBX Classes
 90
        0
280
     0
281
     0
  0
CLASS
  1
MATERIAL
  2
AcDbMaterial
  3
ObjectDBX Classes
 90
     1153
280
     0
281
     0
  0
CLASS
  1
VISUALSTYLE
  2
AcDbVisualStyle
  3
ObjectDBX Classes
 90
     4095
280
     0
281
     0
  0
CLASS
  1
TABLESTYLE
  2
AcDbTableStyle
  3
ObjectDBX Classes
 90
     4095
280
     0
281
     0
  0
CLASS
  1
SCALE
  2
AcDbScale
  3
ObjectDBX Classes
 90
     1153
280
     0
281
     0
  0
CLASS
  1
MLEADERSTYLE
  2
AcDbMLeaderStyle
  3
ACDB_MLEADERSTYLE_CLASS
 90
     4095
280
     0
281
     0
  0
CLASS
  1
ACDBSECTIONVIEWSTYLE
  2
AcDbSectionViewStyle
  3
ObjectDBX Classes
 90
     1025
280
     0
281
     0
  0
CLASS
  1
ACDBDETAILVIEWSTYLE
  2
AcDbDetailViewStyle
  3
ObjectDBX Classes
 90
     1025
280
     0
281
     0
  0
CLASS
  1
CELLSTYLEMAP
  2
AcDbCellStyleMap
  3
ObjectDBX Classes
 90
     1152
280
     0
281
     0
  0
ENDSEC
  0
SECTION
  2
TABLES
  0
TABLE
  2
VPORT
  5
BDE4
330
0
100
AcDbSymbolTable
 70
     1
  0
VPORT
  5
C1FC
330
BDE4
100
AcDbSymbolTableRecord
100
AcDbViewportTableRecord
  2
*ACTIVE
 70
     0
 10
0.0
 20
0.0
 11
1.0
 21
1.0
 12
274.6535917575656
 22
155.0298507824829
 13
0.0
 23
0.0
 14
10.0
 24
10.0
 15
10.0
 25
10.0
 16
0.0
 26
0.0
 36
1.0
 17
0.0
 27
0.0
 37
0.0
 40
293.2907746698074
 41
2.35006605019815
 42
50.0
 43
0.0
 44
0.0
 50
0.0
 51
0.0
 71
     0
 72
   100
 73
     1
 74
     0
 75
     0
 76
     0
 77
     0
 78
     0
281
     0
 65
     1
110
0.0
120
0.0
130
0.0
111
1.0
121
0.0
131
0.0
112
0.0
122
1.0
132
0.0
 79
     0
146
0.0
1001
ACAD_NAV_VCDISPLAY
1070
     3
  0
ENDTAB
  0
TABLE
  2
LTYPE
  5
BDE1
330
0
100
AcDbSymbolTable
 70
     4
  0
LTYPE
  5
BDEF
330
BDE1
100
AcDbSymbolTableRecord
100
AcDbLinetypeTableRecord
  2
BYBLOCK
 70
     0
  3

 72
    65
 73
     0
 40
0.0
  0
LTYPE
  5
BDF0
330
BDE1
100
AcDbSymbolTableRecord
100
AcDbLinetypeTableRecord
  2
BYLAYER
 70
     0
  3

 72
    65
 73
     0
 40
0.0
  0
LTYPE
  5
BDF1
330
BDE1
100
AcDbSymbolTableRecord
100
AcDbLinetypeTableRecord
  2
CONTINUOUS
 70
     0
  3
Solid line
 72
    65
 73
     0
 40
0.0
  0
LTYPE
  5
BDFF
330
BDE1
100
AcDbSymbolTableRecord
100
AcDbLinetypeTableRecord
  2
DASHED
 70
     0
  3
__ __ __ __ __ __ __ __ __ __ __ __ __ __ __ __
 72
    65
 73
     2
 40
0.75
 49
0.5
 74
     0
 49
-0.25
 74
     0
  0
LTYPE
  5
BE00
330
BDE1
100
AcDbSymbolTableRecord
100
AcDbLinetypeTableRecord
  2
CENTER
 70
     0
  3
____ _ ____ _ ____ _ ____ _ ____ _ ____ _ ____ 
 72
    65
 73
     4
 40
2.0
 49
1.25
 74
     0
 49
-0.25
 74
     0
 49
0.25
 74
     0
 49
-0.25
 74
     0
  0
LTYPE
  5
BE01
330
BDE1
100
AcDbSymbolTableRecord
100
AcDbLinetypeTableRecord
  2
PHANTOM
 70
     0
  3
______  __  __  ______  __  __  ______  __  __ 
 72
    65
 73
     6
 40
2.5
 49
1.25
 74
     0
 49
-0.25
 74
     0
 49
0.25
 74
     0
 49
-0.25
 74
     0
 49
0.25
 74
     0
 49
-0.25
 74
     0
  0
ENDTAB
  0
TABLE
  2
LAYER
  5
BDDE
330
0
100
AcDbSymbolTable
 70
     8
  0
LAYER
  5
BDEC
102
{ACAD_XDICTIONARY
360
C257
102
}
330
BDDE
100
AcDbSymbolTableRecord
100
AcDbLayerTableRecord
  2
0
 70
     0
 62
     7
  6
CONTINUOUS
370
    -3
390
C205
  0
LAYER
  5
BE02
102
{ACAD_XDICTIONARY
360
C259
102
}
330
BDDE
100
AcDbSymbolTableRecord
100
AcDbLayerTableRecord
  2
4
 70
     0
 62
     1
  6
CENTER
370
    -3
390
C205
  0
LAYER
  5
BE03
102
{ACAD_XDICTIONARY
360
C25B
102
}
330
BDDE
100
AcDbSymbolTableRecord
100
AcDbLayerTableRecord
  2
5
 70
     0
 62
     6
  6
PHANTOM
370
    -3
390
C205
  0
LAYER
  5
BE04
102
{ACAD_XDICTIONARY
360
C25D
102
}
330
BDDE
100
AcDbSymbolTableRecord
100
AcDbLayerTableRecord
  2
1
 70
     0
 62
     7
  6
CONTINUOUS
370
    -3
390
C205
  0
LAYER
  5
BE05
102
{ACAD_XDICTIONARY
360
C25F
102
}
330
BDDE
100
AcDbSymbolTableRecord
100
AcDbLayerTableRecord
  2
2
 70
     0
 62
     4
  6
CONTINUOUS
370
    -3
390
C205
  0
LAYER
  5
BE06
102
{ACAD_XDICTIONARY
360
C261
102
}
330
BDDE
100
AcDbSymbolTableRecord
100
AcDbLayerTableRecord
  2
3
 70
     0
 62
     2
  6
DASHED
370
    -3
390
C205
  0
LAYER
  5
BE07
102
{ACAD_XDICTIONARY
360
C263
102
}
330
BDDE
100
AcDbSymbolTableRecord
100
AcDbLayerTableRecord
  2
6
 70
     0
 62
     5
  6
CONTINUOUS
370
    -3
390
C205
  0
LAYER
  5
BE08
102
{ACAD_XDICTIONARY
360
C265
102
}
330
BDDE
100
AcDbSymbolTableRecord
100
AcDbLayerTableRecord
  2
7
 70
     0
 62
     3
  6
CONTINUOUS
370
    -3
390
C205
  0
ENDTAB
  0
TABLE
  2
STYLE
  5
BDDF
330
0
100
AcDbSymbolTable
 70
     1
  0
STYLE
  5
BDED
330
BDDF
100
AcDbSymbolTableRecord
100
AcDbTextStyleTableRecord
  2
STANDARD
 70
     0
 40
0.0
 41
1.0
 50
0.0
 71
     0
 42
5.0
  3
txt
  4

  0
ENDTAB
  0
TABLE
  2
VIEW
  5
BDE2
330
0
100
AcDbSymbolTable
 70
     0
  0
ENDTAB
  0
TABLE
  2
UCS
  5
BDE3
330
0
100
AcDbSymbolTable
 70
     0
  0
ENDTAB
  0
TABLE
  2
APPID
  5
BDE5
330
0
100
AcDbSymbolTable
 70
     3
  0
APPID
  5
BDEE
330
BDE5
100
AcDbSymbolTableRecord
100
AcDbRegAppTableRecord
  2
ACAD
 70
     0
  0
APPID
  5
C271
330
BDE5
100
AcDbSymbolTableRecord
100
AcDbRegAppTableRecord
  2
ACAD_NAV_VCDISPLAY
 70
     0
  0
APPID
  5
C2AA
330
BDE5
100
AcDbSymbolTableRecord
100
AcDbRegAppTableRecord
  2
ACAD_MLEADERVER
 70
     0
  0
ENDTAB
  0
TABLE
  2
DIMSTYLE
  5
BDE6
330
0
100
AcDbSymbolTable
 70
     1
100
AcDbDimStyleTable
 71
     0
  0
DIMSTYLE
105
BE0A
330
BDE6
100
AcDbSymbolTableRecord
100
AcDbDimStyleTableRecord
  2
STANDARD
 70
     0
 41
3.0
 42
1.0
 43
10.0
 44
1.0
 73
     0
 74
     0
 77
     3
 78
     8
140
3.2
141
0.0
147
1.0
172
     1
173
     1
284
     8
285
     8
286
     8
340
BDED
  0
ENDTAB
  0
TABLE
  2
BLOCK_RECORD
  5
BDDD
330
0
100
AcDbSymbolTable
 70
     1
  0
BLOCK_RECORD
  5
BDFA
102
{ACAD_XDICTIONARY
360
C1FF
102
}
330
BDDD
100
AcDbSymbolTableRecord
100
AcDbBlockTableRecord
  2
*MODEL_SPACE
340
C253
  0
BLOCK_RECORD
  5
BDF6
102
{ACAD_XDICTIONARY
360
C1FD
102
}
330
BDDD
100
AcDbSymbolTableRecord
100
AcDbBlockTableRecord
  2
*PAPER_SPACE
340
C254
  0
BLOCK_RECORD
  5
BE12
330
BDDD
100
AcDbSymbolTableRecord
100
AcDbBlockTableRecord
  2
_OPEN
340
0
  0
ENDTAB
  0
ENDSEC
  0
SECTION
  2
BLOCKS
  0
BLOCK
  5
BDFB
330
BDFA
100
AcDbEntity
  8
0
100
AcDbBlockBegin
  2
*MODEL_SPACE
 70
     0
 10
0.0
 20
0.0
 30
0.0
  3
*MODEL_SPACE
  1

  0
ENDBLK
  5
BDFC
330
BDFA
100
AcDbEntity
  8
0
100
AcDbBlockEnd
  0
BLOCK
  5
BDF7
330
BDF6
100
AcDbEntity
 67
     1
  8
0
100
AcDbBlockBegin
  2
*PAPER_SPACE
 70
     0
 10
0.0
 20
0.0
 30
0.0
  3
*PAPER_SPACE
  1

  0
ENDBLK
  5
BDF8
330
BDF6
100
AcDbEntity
 67
     1
  8
0
100
AcDbBlockEnd
  0
BLOCK
  5
BE13
330
BE12
100
AcDbEntity
  8
0
100
AcDbBlockBegin
  2
_OPEN
 70
     0
 10
0.0
 20
0.0
 30
0.0
  3
_OPEN
  1

  0
LINE
  5
BE14
330
BE12
100
AcDbEntity
  8
0
  6
ByBlock
 62
     0
100
AcDbLine
 10
-1.0
 20
0.166667
 30
0.0
 11
0.0
 21
0.0
 31
0.0
  0
LINE
  5
BE15
330
BE12
100
AcDbEntity
  8
0
  6
ByBlock
 62
     0
100
AcDbLine
 10
0.0
 20
0.0
 30
0.0
 11
-1.0
 21
-0.166667
 31
0.0
  0
LINE
  5
BE16
330
BE12
100
AcDbEntity
  8
0
  6
ByBlock
 62
     0
100
AcDbLine
 10
0.0
 20
0.0
 30
0.0
 11
-1.0
 21
0.0
 31
0.0
  0
ENDBLK
  5
BE17
330
BE12
100
AcDbEntity
  8
0
100
AcDbBlockEnd
  0
ENDSEC
  0
SECTION
  2
ENTITIES
  0
TEXT
  5
BE18
330
BDFA
100
AcDbEntity
  8
7
  6
Continuous
100
AcDbText
 10
10.0
 20
18.0
 30
0.0
 40
3.0
  1
TYPE No.303S
100
AcDbText
  0
TEXT
  5
BE19
330
BDFA
100
AcDbEntity
  8
7
  6
Continuous
100
AcDbText
 10
10.0
 20
26.0
 30
0.0
 40
3.0
  1
CODE No.9316
100
AcDbText
  0
TEXT
  5
BE1A
330
BDFA
100
AcDbEntity
  8
1
  6
Continuous
100
AcDbText
 10
10.0
 20
10.0
 30
0.0
 40
1.399999999999999
  1
LAYER
100
AcDbText
  0
TEXT
  5
BE1B
330
BDFA
100
AcDbEntity
  8
1
  6
Continuous
100
AcDbText
 10
17.97951099999998
 20
10.04873699999998
 30
0.0
 40
1.399999999999999
  1
1
100
AcDbText
  0
TEXT
  5
BE1C
330
BDFA
100
AcDbEntity
  8
7
  6
Continuous
100
AcDbText
 10
29.97951099999999
 20
10.04873699999998
 30
0.0
 40
1.399999999999999
  1
7
100
AcDbText
  0
TEXT
  5
BE1D
330
BDFA
100
AcDbEntity
  8
4
  6
CENTER
100
AcDbText
 10
23.97951099999999
 20
10.04873699999998
 30
0.0
 40
1.399999999999999
  1
4
100
AcDbText
  0
TEXT
  5
BE1E
330
BDFA
100
AcDbEntity
  8
3
  6
DASHED
100
AcDbText
 10
21.979511
 20
10.04873699999998
 30
0.0
 40
1.399999999999999
  1
3
100
AcDbText
  0
TEXT
  5
BE1F
330
BDFA
100
AcDbEntity
  8
2
  6
Continuous
100
AcDbText
 10
19.97951099999999
 20
10.04873699999998
 30
0.0
 40
1.399999999999999
  1
2
100
AcDbText
  0
TEXT
  5
BE20
330
BDFA
100
AcDbEntity
  8
6
  6
Continuous
100
AcDbText
 10
27.979511
 20
10.04873699999998
 30
0.0
 40
1.399999999999999
  1
6
100
AcDbText
  0
TEXT
  5
BE21
330
BDFA
100
AcDbEntity
  8
5
  6
PHANTOM
100
AcDbText
 10
25.97951099999999
 20
10.04873699999998
 30
0.0
 40
1.399999999999999
  1
5
100
AcDbText
  0
LINE
  5
BE22
330
BDFA
100
AcDbEntity
  8
1
  6
Continuous
100
AcDbLine
 10
252.2132029999999
 20
187.022179
 30
0.0
 11
252.2132029999999
 21
166.6221789999999
 31
0.0
  0
ARC
  5
BE23
330
BDFA
100
AcDbEntity
  8
1
  6
Continuous
100
AcDbCircle
 10
217.5132029999998
 20
187.022179
 30
0.0
 40
3.0
100
AcDbArc
 50
90.0
 51
180.0
  0
ARC
  5
BE24
330
BDFA
100
AcDbEntity
  8
1
  6
Continuous
100
AcDbCircle
 10
249.213203
 20
187.022179
 30
0.0
 40
3.0
100
AcDbArc
 50
0.0
 51
90.0
  0
LINE
  5
BE25
330
BDFA
100
AcDbEntity
  8
1
  6
Continuous
100
AcDbLine
 10
217.113104
 20
190.0222369999999
 30
0.0
 11
249.6131039999999
 21
190.022043
 31
0.0
  0
LINE
  5
BE26
330
BDFA
100
AcDbEntity
  8
1
  6
Continuous
100
AcDbLine
 10
220.115879
 20
183.318428
 30
0.0
 11
246.6105279999999
 21
183.318428
 31
0.0
  0
ARC
  5
BE27
330
BDFA
100
AcDbEntity
  8
1
  6
Continuous
100
AcDbCircle
 10
246.6105279999999
 20
179.3697379999999
 30
0.0
 40
3.94869
100
AcDbArc
 50
33.136856
 51
90.0
  0
ARC
  5
BE28
330
BDFA
100
AcDbEntity
  8
1
  6
Continuous
100
AcDbCircle
 10
238.094448
 20
173.8103659999999
 30
0.0
 40
14.11875499999999
100
AcDbArc
 50
0.0
 51
33.136856
  0
ARC
  5
BE29
330
BDFA
100
AcDbEntity
  8
1
  6
Continuous
100
AcDbCircle
 10
236.9536839999999
 20
173.726811
 30
0.0
 40
13.262575
100
AcDbArc
 50
4.189117999999997
 51
46.32007700000001
  0
ARC
  5
BE2A
330
BDFA
100
AcDbEntity
  8
1
  6
Continuous
100
AcDbCircle
 10
220.115879
 20
179.3697379999999
 30
0.0
 40
3.94869
100
AcDbArc
 50
90.0
 51
146.863144
  0
ARC
  5
BE2B
330
BDFA
100
AcDbEntity
  8
1
  6
Continuous
100
AcDbCircle
 10
228.631959
 20
173.8103659999999
 30
0.0
 40
14.11875499999999
100
AcDbArc
 50
146.863144
 51
180.0
  0
LINE
  5
BE2C
330
BDFA
100
AcDbEntity
  8
1
  6
Continuous
100
AcDbLine
 10
223.3632029999998
 20
179.7377409999998
 30
0.0
 11
223.3632029999998
 21
134.9303339999999
 31
0.0
  0
LINE
  5
BE2D
330
BDFA
100
AcDbEntity
  8
1
  6
Continuous
100
AcDbLine
 10
221.8632029999999
 20
165.834038
 30
0.0
 11
221.8632029999999
 21
148.8340379999999
 31
0.0
  0
LINE
  5
BE2E
330
BDFA
100
AcDbEntity
  8
1
  6
Continuous
100
AcDbLine
 10
221.8632029999999
 20
165.834038
 30
0.0
 11
223.3632029999998
 21
165.834038
 31
0.0
  0
ARC
  5
BE2F
330
BDFA
100
AcDbEntity
  8
1
  6
Continuous
100
AcDbCircle
 10
233.3632029999999
 20
147.3340379999999
 30
0.0
 40
35.0
100
AcDbArc
 50
75.30157599999999
 51
104.698424
  0
ARC
  5
BE30
330
BDFA
100
AcDbEntity
  8
1
  6
Continuous
100
AcDbCircle
 10
224.8632029999999
 20
179.7377409999998
 30
0.0
 40
1.5
100
AcDbArc
 50
104.698424
 51
180.0
  0
LINE
  5
BE31
330
BDFA
100
AcDbEntity
  8
1
  6
Continuous
100
AcDbLine
 10
243.3632029999999
 20
179.7377409999998
 30
0.0
 11
243.3632029999999
 21
134.9303339999999
 31
0.0
  0
LINE
  5
BE32
330
BDFA
100
AcDbEntity
  8
1
  6
Continuous
100
AcDbLine
 10
244.8632029999999
 20
165.834038
 30
0.0
 11
243.3632029999999
 21
165.834038
 31
0.0
  0
ARC
  5
BE33
330
BDFA
100
AcDbEntity
  8
1
  6
Continuous
100
AcDbCircle
 10
241.8632029999999
 20
179.7377409999998
 30
0.0
 40
1.5
100
AcDbArc
 50
0.0
 51
75.30157599999999
  0
LINE
  5
BE34
330
BDFA
100
AcDbEntity
  8
1
  6
Continuous
100
AcDbLine
 10
221.8632029999999
 20
148.8340379999999
 30
0.0
 11
223.3632029999998
 21
148.8340379999999
 31
0.0
  0
ARC
  5
BE35
330
BDFA
100
AcDbEntity
  8
1
  6
Continuous
100
AcDbCircle
 10
233.3632029999999
 20
167.3340379999999
 30
0.0
 40
35.0
100
AcDbArc
 50
255.301576
 51
284.6984239999999
  0
ARC
  5
BE36
330
BDFA
100
AcDbEntity
  8
1
  6
Continuous
100
AcDbCircle
 10
224.8632029999999
 20
134.9303339999999
 30
0.0
 40
1.5
100
AcDbArc
 50
180.0
 51
255.301576
  0
LINE
  5
BE37
330
BDFA
100
AcDbEntity
  8
1
  6
Continuous
100
AcDbLine
 10
244.8632029999999
 20
148.8340379999999
 30
0.0
 11
243.3632029999999
 21
148.8340379999999
 31
0.0
  0
ARC
  5
BE38
330
BDFA
100
AcDbEntity
  8
1
  6
Continuous
100
AcDbCircle
 10
241.8632029999999
 20
134.9303339999999
 30
0.0
 40
1.5
100
AcDbArc
 50
284.6984239999999
 51
0.0
  0
LINE
  5
BE39
330
BDFA
100
AcDbEntity
  8
1
  6
Continuous
100
AcDbLine
 10
244.8632029999999
 20
165.834038
 30
0.0
 11
244.8632029999999
 21
148.8340379999999
 31
0.0
  0
LINE
  5
BE3A
330
BDFA
100
AcDbEntity
  8
1
  6
Continuous
100
AcDbLine
 10
220.8632029999999
 20
160.3340379999998
 30
0.0
 11
221.8632029999999
 21
160.3340379999998
 31
0.0
  0
LINE
  5
BE3B
330
BDFA
100
AcDbEntity
  8
1
  6
Continuous
100
AcDbLine
 10
244.8632029999999
 20
160.3340379999998
 30
0.0
 11
245.8632029999999
 21
160.3340379999998
 31
0.0
  0
LINE
  5
BE3C
330
BDFA
100
AcDbEntity
  8
1
  6
Continuous
100
AcDbLine
 10
220.8632029999999
 20
154.334038
 30
0.0
 11
221.8632029999999
 21
154.334038
 31
0.0
  0
LINE
  5
BE3D
330
BDFA
100
AcDbEntity
  8
1
  6
Continuous
100
AcDbLine
 10
244.8632029999999
 20
154.334038
 30
0.0
 11
245.8632029999999
 21
154.334038
 31
0.0
  0
LINE
  5
BE3E
330
BDFA
100
AcDbEntity
  8
4
  6
CENTER
100
AcDbLine
 10
176.0146189999999
 20
276.217462
 30
0.0
 11
103.164626
 21
276.217462
 31
0.0
  0
LINE
  5
BE3F
330
BDFA
100
AcDbEntity
  8
4
  6
CENTER
100
AcDbLine
 10
152.164619
 20
300.0674619999998
 30
0.0
 11
152.164619
 21
252.3674619999999
 31
0.0
  0
LINE
  5
BE40
330
BDFA
100
AcDbEntity
  8
4
  6
CENTER
100
AcDbLine
 10
233.3632029999999
 20
219.3342109999999
 30
0.0
 11
233.3632029999999
 21
127.334038
 31
0.0
  0
LINE
  5
BE41
330
BDFA
100
AcDbEntity
  8
4
  6
CENTER
100
AcDbLine
 10
204.863403
 20
157.3340379999999
 30
0.0
 11
254.8634429999999
 21
157.3340379999999
 31
0.0
  0
LINE
  5
BE42
330
BDFA
100
AcDbEntity
  8
4
  6
CENTER
100
AcDbLine
 10
103.164626
 20
157.3342369999998
 30
0.0
 11
163.164626
 21
157.3342369999998
 31
0.0
  0
LINE
  5
BE43
330
BDFA
100
AcDbEntity
  8
1
  6
Continuous
100
AcDbLine
 10
135.717126
 20
187.2028379999999
 30
0.0
 11
132.0371259999998
 21
187.159028
 31
0.0
  0
ARC
  5
BE44
330
BDFA
100
AcDbEntity
  8
1
  6
Continuous
100
AcDbCircle
 10
133.5146259999999
 20
156.384237
 30
0.0
 40
7.5
100
AcDbArc
 50
221.016873
 51
277.6844179999998
  0
ARC
  5
BE45
330
BDFA
100
AcDbEntity
  8
1
  6
Continuous
100
AcDbCircle
 10
133.164626
 20
157.3342369999998
 30
0.0
 40
8.5
100
AcDbArc
 50
215.770985
 51
279.319315
  0
ARC
  5
BE46
330
BDFA
100
AcDbEntity
  8
1
  6
Continuous
100
AcDbCircle
 10
133.164626
 20
157.3342369999998
 30
0.0
 40
17.5
100
AcDbArc
 50
107.378525
 51
144.752443
  0
ARC
  5
BE47
330
BDFA
100
AcDbEntity
  8
1
  6
Continuous
100
AcDbCircle
 10
133.164626
 20
157.3342369999998
 30
0.0
 40
25.0
100
AcDbArc
 50
99.78061099999999
 51
147.9938109999999
  0
LINE
  5
BE48
330
BDFA
100
AcDbEntity
  8
1
  6
Continuous
100
AcDbLine
 10
141.0146259999999
 20
186.285782
 30
0.0
 11
141.0146259999999
 21
161.9282829999999
 31
0.0
  0
ARC
  5
BE49
330
BDFA
100
AcDbEntity
  8
1
  6
Continuous
100
AcDbCircle
 10
205.7691629999999
 20
136.210325
 30
0.0
 40
63.35981999999999
100
AcDbArc
 50
134.0470019999999
 51
143.333821
  0
LINE
  5
BE4A
330
BDFA
100
AcDbEntity
  8
4
  6
CENTER
100
AcDbLine
 10
152.1646259999999
 20
219.334308
 30
0.0
 11
152.1646259999999
 21
166.79426
 31
0.0
  0
ARC
  5
BE4B
330
BDFA
100
AcDbEntity
  8
1
  6
Continuous
100
AcDbCircle
 10
268.1828499999999
 20
89.74588199999997
 30
0.0
 40
141.169928
100
AcDbArc
 50
143.333821
 51
147.9917129999998
  0
ARC
  5
BE4C
330
BDFA
100
AcDbEntity
  8
1
  6
Continuous
100
AcDbCircle
 10
165.5442449999999
 20
177.796123
 30
0.0
 40
5.502905999999999
100
AcDbArc
 50
90.0
 51
134.0470019999999
  0
LINE
  5
BE4D
330
BDFA
100
AcDbEntity
  8
1
  6
Continuous
100
AcDbLine
 10
169.3501259999998
 20
183.239028
 30
0.0
 11
169.127126
 21
183.2990279999999
 31
0.0
  0
LINE
  5
BE4E
330
BDFA
100
AcDbEntity
  8
1
  6
Continuous
100
AcDbLine
 10
169.127126
 20
183.2990279999999
 30
0.0
 11
165.5442449999999
 21
183.2990279999999
 31
0.0
  0
LINE
  5
BE4F
330
BDFA
100
AcDbEntity
  8
1
  6
Continuous
100
AcDbLine
 10
170.764126
 20
183.326367
 30
0.0
 11
170.015126
 21
183.284028
 31
0.0
  0
ARC
  5
BE50
330
BDFA
100
AcDbEntity
  8
1
  6
Continuous
100
AcDbCircle
 10
167.9451409999998
 20
187.440998
 30
0.0
 40
2.732905
100
AcDbArc
 50
0.0
 51
70.822161
  0
LINE
  5
BE51
330
BDFA
100
AcDbEntity
  8
1
  6
Continuous
100
AcDbLine
 10
170.015126
 20
183.284028
 30
0.0
 11
169.3501259999998
 21
183.239028
 31
0.0
  0
ARC
  5
BE52
330
BDFA
100
AcDbEntity
  8
1
  6
Continuous
100
AcDbCircle
 10
136.8794169999999
 20
186.907869
 30
0.0
 40
3.266183999999998
100
AcDbArc
 50
107.537707
 51
141.743298
  0
ARC
  5
BE53
330
BDFA
100
AcDbEntity
  8
1
  6
Continuous
100
AcDbCircle
 10
137.810311
 20
186.1738349999999
 30
0.0
 40
4.451666999999998
100
AcDbArc
 50
141.743298
 51
156.849068
  0
LINE
  5
BE54
330
BDFA
100
AcDbEntity
  8
1
  6
Continuous
100
AcDbLine
 10
133.717126
 20
187.9240279999999
 30
0.0
 11
133.5721259999999
 21
187.4890279999999
 31
0.0
  0
LINE
  5
BE55
330
BDFA
100
AcDbEntity
  8
1
  6
Continuous
100
AcDbLine
 10
133.5721259999999
 20
187.4890279999999
 30
0.0
 11
133.232126
 21
187.289028
 31
0.0
  0
LINE
  5
BE56
330
BDFA
100
AcDbEntity
  8
1
  6
Continuous
100
AcDbLine
 10
133.232126
 20
187.289028
 30
0.0
 11
133.062126
 21
187.204028
 31
0.0
  0
LINE
  5
BE57
330
BDFA
100
AcDbEntity
  8
1
  6
Continuous
100
AcDbLine
 10
133.062126
 20
187.204028
 30
0.0
 11
132.877126
 21
187.1690279999999
 31
0.0
  0
ARC
  5
BE58
330
BDFA
100
AcDbEntity
  8
1
  6
Continuous
100
AcDbCircle
 10
135.6928139999999
 20
189.2450619999999
 30
0.0
 40
2.042368999999998
100
AcDbArc
 50
270.6820599999999
 51
340.178191
  0
LINE
  5
BE59
330
BDFA
100
AcDbEntity
  8
1
  6
Continuous
100
AcDbLine
 10
130.877126
 20
187.1490279999999
 30
0.0
 11
127.658798
 21
187.213395
 31
0.0
  0
LINE
  5
BE5A
330
BDFA
100
AcDbEntity
  8
1
  6
Continuous
100
AcDbLine
 10
132.0371259999998
 20
187.159028
 30
0.0
 11
131.442126
 21
187.1390279999999
 31
0.0
  0
LINE
  5
BE5B
330
BDFA
100
AcDbEntity
  8
1
  6
Continuous
100
AcDbLine
 10
131.442126
 20
187.1390279999999
 30
0.0
 11
130.877126
 21
187.1490279999999
 31
0.0
  0
ARC
  5
BE5C
330
BDFA
100
AcDbEntity
  8
1
  6
Continuous
100
AcDbCircle
 10
127.631779
 20
185.8624879999999
 30
0.0
 40
1.351175999999999
100
AcDbArc
 50
88.85423700000002
 51
129.236686
  0
LINE
  5
BE5D
330
BDFA
100
AcDbEntity
  8
1
  6
Continuous
100
AcDbLine
 10
129.217126
 20
185.182041
 30
0.0
 11
126.9481689999998
 21
185.215798
 31
0.0
  0
LINE
  5
BE5E
330
BDFA
100
AcDbEntity
  8
1
  6
Continuous
100
AcDbLine
 10
126.7771259999999
 20
186.9090279999998
 30
0.0
 11
126.717126
 21
185.994028
 31
0.0
  0
LINE
  5
BE5F
330
BDFA
100
AcDbEntity
  8
1
  6
Continuous
100
AcDbLine
 10
126.717126
 20
185.994028
 30
0.0
 11
126.717126
 21
185.309028
 31
0.0
  0
ARC
  5
BE60
330
BDFA
100
AcDbEntity
  8
1
  6
Continuous
100
AcDbCircle
 10
126.953311
 20
185.561442
 30
0.0
 40
0.345682
100
AcDbArc
 50
226.9023309999998
 51
269.1476279999998
  0
LINE
  5
BE61
330
BDFA
100
AcDbEntity
  8
1
  6
Continuous
100
AcDbLine
 10
214.5132029999998
 20
187.022179
 30
0.0
 11
214.5132029999998
 21
166.6221789999999
 31
0.0
  0
ARC
  5
BE62
330
BDFA
100
AcDbEntity
  8
1
  6
Continuous
100
AcDbCircle
 10
56.366049
 20
134.9303339999999
 30
0.0
 40
1.5
100
AcDbArc
 50
284.6984239999999
 51
0.0
  0
ARC
  5
BE63
330
BDFA
100
AcDbEntity
  8
1
  6
Continuous
100
AcDbCircle
 10
47.86604899999999
 20
167.3340379999999
 30
0.0
 40
35.0
100
AcDbArc
 50
255.301576
 51
284.6984239999999
  0
ARC
  5
BE64
330
BDFA
100
AcDbEntity
  8
1
  6
Continuous
100
AcDbCircle
 10
39.36604899999998
 20
134.9303339999999
 30
0.0
 40
1.5
100
AcDbArc
 50
180.0
 51
255.301576
  0
LINE
  5
BE65
330
BDFA
100
AcDbEntity
  8
4
  6
CENTER
100
AcDbLine
 10
76.36584899999999
 20
157.3340379999999
 30
0.0
 11
26.365809
 21
157.3340379999999
 31
0.0
  0
ARC
  5
BE66
330
BDFA
100
AcDbEntity
  8
1
  6
Continuous
100
AcDbCircle
 10
56.366049
 20
179.7377409999998
 30
0.0
 40
1.5
100
AcDbArc
 50
0.0
 51
75.30157599999999
  0
LINE
  5
BE67
330
BDFA
100
AcDbEntity
  8
1
  6
Continuous
100
AcDbLine
 10
57.866049
 20
179.7377409999998
 30
0.0
 11
57.866049
 21
134.9303339999999
 31
0.0
  0
LINE
  5
BE68
330
BDFA
100
AcDbEntity
  8
1
  6
Continuous
100
AcDbLine
 10
59.36604899999998
 20
159.4817699999999
 30
0.0
 11
59.36604899999998
 21
148.8340379999999
 31
0.0
  0
LINE
  5
BE69
330
BDFA
100
AcDbEntity
  8
1
  6
Continuous
100
AcDbLine
 10
59.36604899999998
 20
148.8340379999999
 30
0.0
 11
57.866049
 21
148.8340379999999
 31
0.0
  0
LINE
  5
BE6A
330
BDFA
100
AcDbEntity
  8
1
  6
Continuous
100
AcDbLine
 10
59.86604899999999
 20
154.334038
 30
0.0
 11
59.36604899999998
 21
154.334038
 31
0.0
  0
LINE
  5
BE6B
330
BDFA
100
AcDbEntity
  8
1
  6
Continuous
100
AcDbLine
 10
58.47234199999999
 20
165.834038
 30
0.0
 11
57.866049
 21
165.834038
 31
0.0
  0
ARC
  5
BE6C
330
BDFA
100
AcDbEntity
  8
1
  6
Continuous
100
AcDbCircle
 10
39.36604899999998
 20
179.7377409999998
 30
0.0
 40
1.5
100
AcDbArc
 50
104.698424
 51
180.0
  0
LINE
  5
BE6D
330
BDFA
100
AcDbEntity
  8
1
  6
Continuous
100
AcDbLine
 10
37.86604899999999
 20
179.7377409999998
 30
0.0
 11
37.86604899999999
 21
134.9303339999999
 31
0.0
  0
LINE
  5
BE6E
330
BDFA
100
AcDbEntity
  8
1
  6
Continuous
100
AcDbLine
 10
36.366049
 20
165.834038
 30
0.0
 11
36.366049
 21
148.8340379999999
 31
0.0
  0
LINE
  5
BE6F
330
BDFA
100
AcDbEntity
  8
1
  6
Continuous
100
AcDbLine
 10
36.366049
 20
148.8340379999999
 30
0.0
 11
37.86604899999999
 21
148.8340379999999
 31
0.0
  0
LINE
  5
BE70
330
BDFA
100
AcDbEntity
  8
1
  6
Continuous
100
AcDbLine
 10
36.366049
 20
154.334038
 30
0.0
 11
36.266049
 21
154.334038
 31
0.0
  0
LINE
  5
BE71
330
BDFA
100
AcDbEntity
  8
1
  6
Continuous
100
AcDbLine
 10
36.366049
 20
165.834038
 30
0.0
 11
37.86604899999999
 21
165.834038
 31
0.0
  0
LINE
  5
BE72
330
BDFA
100
AcDbEntity
  8
1
  6
Continuous
100
AcDbLine
 10
36.366049
 20
160.3340379999998
 30
0.0
 11
36.162545
 21
160.3340379999998
 31
0.0
  0
ARC
  5
BE73
330
BDFA
100
AcDbEntity
  8
1
  6
Continuous
100
AcDbCircle
 10
47.86604899999999
 20
147.3340379999999
 30
0.0
 40
35.0
100
AcDbArc
 50
75.30157599999999
 51
104.698424
  0
LINE
  5
BE74
330
BDFA
100
AcDbEntity
  8
4
  6
CENTER
100
AcDbLine
 10
47.86604899999999
 20
219.334212
 30
0.0
 11
47.86604899999999
 21
127.334038
 31
0.0
  0
LINE
  5
BE75
330
BDFA
100
AcDbEntity
  8
1
  6
Continuous
100
AcDbLine
 10
31.61595
 20
190.0222369999999
 30
0.0
 11
64.116049
 21
190.022044
 31
0.0
  0
ARC
  5
BE76
330
BDFA
100
AcDbEntity
  8
1
  6
Continuous
100
AcDbCircle
 10
37.11580899999999
 20
183.2330179999999
 30
0.0
 40
3.75
100
AcDbArc
 50
90.0
 51
180.0
  0
LINE
  5
BE77
330
BDFA
100
AcDbEntity
  8
1
  6
Continuous
100
AcDbLine
 10
33.36580899999999
 20
148.897316
 30
0.0
 11
35.36604899999999
 21
148.897316
 31
0.0
  0
ARC
  5
BE78
330
BDFA
100
AcDbEntity
  8
1
  6
Continuous
100
AcDbCircle
 10
55.731462
 20
167.25423
 30
0.0
 40
26.722888
100
AcDbArc
 50
181.355289
 51
204.692905
  0
LINE
  5
BE79
330
BDFA
100
AcDbEntity
  8
1
  6
Continuous
100
AcDbLine
 10
33.36580899999999
 20
183.2330179999999
 30
0.0
 11
33.36580899999999
 21
148.897316
 31
0.0
  0
LINE
  5
BE7A
330
BDFA
100
AcDbEntity
  8
1
  6
Continuous
100
AcDbLine
 10
32.432493
 20
161.5840379999999
 30
0.0
 11
32.432493
 21
153.0840379999999
 31
0.0
  0
ARC
  5
BE7B
330
BDFA
100
AcDbEntity
  8
1
  6
Continuous
100
AcDbCircle
 10
40.36580899999999
 20
157.3340379999999
 30
0.0
 40
9.0
100
AcDbArc
 50
151.821357
 51
208.178643
  0
LINE
  5
BE7C
330
BDFA
100
AcDbEntity
  8
1
  6
Continuous
100
AcDbLine
 10
33.36580899999999
 20
153.0840379999999
 30
0.0
 11
32.432493
 21
153.0840379999999
 31
0.0
  0
LINE
  5
BE7D
330
BDFA
100
AcDbEntity
  8
1
  6
Continuous
100
AcDbLine
 10
29.016049
 20
187.022179
 30
0.0
 11
29.016049
 21
166.6221789999999
 31
0.0
  0
LINE
  5
BE7E
330
BDFA
100
AcDbEntity
  8
1
  6
Continuous
100
AcDbLine
 10
33.36580899999999
 20
161.5840379999999
 30
0.0
 11
32.432493
 21
161.5840379999999
 31
0.0
  0
ARC
  5
BE7F
330
BDFA
100
AcDbEntity
  8
1
  6
Continuous
100
AcDbCircle
 10
32.23066699999999
 20
186.8000939999998
 30
0.0
 40
3.22228
100
AcDbArc
 50
89.37084
 51
176.0479389999999
  0
ARC
  5
BE80
330
BDFA
100
AcDbEntity
  8
1
  6
Continuous
100
AcDbCircle
 10
40.006289
 20
167.091484
 30
0.0
 40
26.713884
100
AcDbArc
 50
353.4437459999999
 51
0.057473
  0
LINE
  5
BE81
330
BDFA
100
AcDbEntity
  8
1
  6
Continuous
100
AcDbLine
 10
35.36604899999999
 20
183.241424
 30
0.0
 11
35.36604899999999
 21
148.897316
 31
0.0
  0
LINE
  5
BE82
330
BDFA
100
AcDbEntity
  8
1
  6
Continuous
100
AcDbLine
 10
60.366049
 20
183.241424
 30
0.0
 11
60.366049
 21
171.938389
 31
0.0
  0
LINE
  5
BE83
330
BDFA
100
AcDbEntity
  8
1
  6
Continuous
100
AcDbLine
 10
62.366289
 20
183.2330179999999
 30
0.0
 11
62.366289
 21
171.941216
 31
0.0
  0
LINE
  5
BE84
330
BDFA
100
AcDbEntity
  8
1
  6
Continuous
100
AcDbLine
 10
35.36604899999999
 20
154.334038
 30
0.0
 11
36.366049
 21
154.334038
 31
0.0
  0
LINE
  5
BE85
330
BDFA
100
AcDbEntity
  8
1
  6
Continuous
100
AcDbLine
 10
60.366049
 20
148.897316
 30
0.0
 11
62.366289
 21
148.897316
 31
0.0
  0
LINE
  5
BE86
330
BDFA
100
AcDbEntity
  8
1
  6
Continuous
100
AcDbLine
 10
60.366049
 20
154.334038
 30
0.0
 11
59.36604899999998
 21
154.334038
 31
0.0
  0
ARC
  5
BE87
330
BDFA
100
AcDbEntity
  8
1
  6
Continuous
100
AcDbCircle
 10
63.50143199999997
 20
186.8000939999998
 30
0.0
 40
3.22228
100
AcDbArc
 50
3.952061
 51
90.62915999999999
  0
LINE
  5
BE88
330
BDFA
100
AcDbEntity
  8
1
  6
Continuous
100
AcDbLine
 10
66.716049
 20
187.022179
 30
0.0
 11
66.716049
 21
171.901218
 31
0.0
  0
LINE
  5
BE89
330
BDFA
100
AcDbEntity
  8
1
  6
Continuous
100
AcDbLine
 10
35.36604899999999
 20
160.3340379999998
 30
0.0
 11
36.366049
 21
160.3340379999998
 31
0.0
  0
LINE
  5
BE8A
330
BDFA
100
AcDbEntity
  8
1
  6
Continuous
100
AcDbLine
 10
37.11604899999999
 20
184.991424
 30
0.0
 11
58.61604899999999
 21
184.991424
 31
0.0
  0
LINE
  5
BE8B
330
BDFA
100
AcDbEntity
  8
1
  6
Continuous
100
AcDbLine
 10
37.11580899999999
 20
186.9830179999999
 30
0.0
 11
58.616289
 21
186.9830179999999
 31
0.0
  0
ARC
  5
BE8C
330
BDFA
100
AcDbEntity
  8
1
  6
Continuous
100
AcDbCircle
 10
37.11604899999999
 20
183.241424
 30
0.0
 40
1.75
100
AcDbArc
 50
90.0
 51
180.0
  0
ARC
  5
BE8D
330
BDFA
100
AcDbEntity
  8
1
  6
Continuous
100
AcDbCircle
 10
58.616289
 20
183.2330179999999
 30
0.0
 40
3.75
100
AcDbArc
 50
0.0
 51
90.0
  0
ARC
  5
BE8E
330
BDFA
100
AcDbEntity
  8
1
  6
Continuous
100
AcDbCircle
 10
58.61604899999999
 20
183.241424
 30
0.0
 40
1.75
100
AcDbArc
 50
0.0
 51
90.0
  0
LINE
  5
BE8F
330
BDFA
100
AcDbEntity
  8
1
  6
Continuous
100
AcDbLine
 10
245.8632029999999
 20
183.241424
 30
0.0
 11
245.8632029999999
 21
148.897316
 31
0.0
  0
LINE
  5
BE90
330
BDFA
100
AcDbEntity
  8
1
  6
Continuous
100
AcDbLine
 10
220.8632029999999
 20
183.241424
 30
0.0
 11
220.8632029999999
 21
148.897316
 31
0.0
  0
ARC
  5
BE91
330
BDFA
100
AcDbEntity
  8
1
  6
Continuous
100
AcDbCircle
 10
241.113443
 20
157.3340379999999
 30
0.0
 40
9.0
100
AcDbArc
 50
331.8213569999999
 51
355.5531859999998
  0
LINE
  5
BE92
330
BDFA
100
AcDbEntity
  8
1
  6
Continuous
100
AcDbLine
 10
249.0467589999998
 20
154.468337
 30
0.0
 11
249.0467589999998
 21
153.0840379999999
 31
0.0
  0
LINE
  5
BE93
330
BDFA
100
AcDbEntity
  8
1
  6
Continuous
100
AcDbLine
 10
248.4357299999998
 20
153.0840379999999
 30
0.0
 11
249.0467589999998
 21
153.0840379999999
 31
0.0
  0
LINE
  5
BE94
330
BDFA
100
AcDbEntity
  8
1
  6
Continuous
100
AcDbLine
 10
129.4032709999999
 20
187.1785049999998
 30
0.0
 11
126.953979
 21
165.213912
 31
0.0
  0
LINE
  5
BE95
330
BDFA
100
AcDbEntity
  8
4
  6
CENTER
100
AcDbLine
 10
176.0146189999999
 20
70.009612
 30
0.0
 11
103.164626
 21
70.009612
 31
0.0
  0
LINE
  5
BE96
330
BDFA
100
AcDbEntity
  8
4
  6
CENTER
100
AcDbLine
 10
152.164619
 20
46.159612
 30
0.0
 11
152.164619
 21
93.859612
 31
0.0
  0
LINE
  5
BE97
330
BDFA
100
AcDbEntity
  8
1
  6
Continuous
100
AcDbLine
 10
138.119246
 20
57.50961199999998
 30
0.0
 11
126.07531
 21
57.50961199999998
 31
0.0
  0
LINE
  5
BE98
330
BDFA
100
AcDbEntity
  8
1
  6
Continuous
100
AcDbLine
 10
138.119597
 20
55.50937199999999
 30
0.0
 11
126.07531
 21
55.50937199999999
 31
0.0
  0
LINE
  5
BE99
330
BDFA
100
AcDbEntity
  8
1
  6
Continuous
100
AcDbLine
 10
138.119246
 20
82.509612
 30
0.0
 11
126.07531
 21
82.509612
 31
0.0
  0
LINE
  5
BE9A
330
BDFA
100
AcDbEntity
  8
1
  6
Continuous
100
AcDbLine
 10
130.164626
 20
81.70961199999998
 30
0.0
 11
130.164626
 21
81.50961200000002
 31
0.0
  0
LINE
  5
BE9B
330
BDFA
100
AcDbEntity
  8
4
  6
CENTER
100
AcDbLine
 10
133.164626
 20
127.334237
 30
0.0
 11
133.164626
 21
185.334237
 31
0.0
  0
LINE
  5
BE9C
330
BDFA
100
AcDbEntity
  8
1
  6
Continuous
100
AcDbLine
 10
126.07531
 20
55.50937199999999
 30
0.0
 11
126.07531
 21
57.50961199999998
 31
0.0
  0
LINE
  5
BE9D
330
BDFA
100
AcDbEntity
  8
1
  6
Continuous
100
AcDbLine
 10
126.07531
 20
82.509612
 30
0.0
 11
126.07531
 21
84.50985199999998
 31
0.0
  0
ARC
  5
BE9E
330
BDFA
100
AcDbEntity
  8
1
  6
Continuous
100
AcDbCircle
 10
152.164619
 20
70.009612
 30
0.0
 40
13.6
100
AcDbArc
 50
227.332075
 51
91.93504199999999
  0
ARC
  5
BE9F
330
BDFA
100
AcDbEntity
  8
1
  6
Continuous
100
AcDbCircle
 10
152.164619
 20
70.009612
 30
0.0
 40
12.0
100
AcDbArc
 50
236.44269
 51
123.55731
  0
LINE
  5
BEA0
330
BDFA
100
AcDbEntity
  8
1
  6
Continuous
100
AcDbLine
 10
110.760923
 20
80.009612
 30
0.0
 11
155.56833
 21
80.009612
 31
0.0
  0
ARC
  5
BEA1
330
BDFA
100
AcDbEntity
  8
1
  6
Continuous
100
AcDbCircle
 10
123.1646259999999
 20
70.009612
 30
0.0
 40
35.0
100
AcDbArc
 50
345.3015759999999
 51
14.698424
  0
ARC
  5
BEA2
330
BDFA
100
AcDbEntity
  8
1
  6
Continuous
100
AcDbCircle
 10
155.56833
 20
78.509612
 30
0.0
 40
1.5
100
AcDbArc
 50
14.698424
 51
90.0
  0
LINE
  5
BEA3
330
BDFA
100
AcDbEntity
  8
1
  6
Continuous
100
AcDbLine
 10
110.760923
 20
60.00961199999998
 30
0.0
 11
155.56833
 21
60.00961199999998
 31
0.0
  0
ARC
  5
BEA4
330
BDFA
100
AcDbEntity
  8
1
  6
Continuous
100
AcDbCircle
 10
155.56833
 20
61.509612
 30
0.0
 40
1.5
100
AcDbArc
 50
270.0
 51
345.3015759999999
  0
LINE
  5
BEA5
330
BDFA
100
AcDbEntity
  8
4
  6
CENTER
100
AcDbLine
 10
133.164626
 20
98.509652
 30
0.0
 11
133.164626
 21
48.509372
 31
0.0
  0
ARC
  5
BEA6
330
BDFA
100
AcDbEntity
  8
1
  6
Continuous
100
AcDbCircle
 10
133.164626
 20
62.509372
 30
0.0
 40
9.0
100
AcDbArc
 50
241.8213569999999
 51
298.178643
  0
LINE
  5
BEA7
330
BDFA
100
AcDbEntity
  8
1
  6
Continuous
100
AcDbLine
 10
128.914626
 20
54.576056
 30
0.0
 11
137.414626
 21
54.576056
 31
0.0
  0
LINE
  5
BEA8
330
BDFA
100
AcDbEntity
  8
1
  6
Continuous
100
AcDbLine
 10
124.664626
 20
58.509612
 30
0.0
 11
141.664626
 21
58.509612
 31
0.0
  0
LINE
  5
BEA9
330
BDFA
100
AcDbEntity
  8
1
  6
Continuous
100
AcDbLine
 10
124.664626
 20
81.50961200000002
 30
0.0
 11
141.664626
 21
81.50961200000002
 31
0.0
  0
LINE
  5
BEAA
330
BDFA
100
AcDbEntity
  8
1
  6
Continuous
100
AcDbLine
 10
136.164626
 20
57.50961199999998
 30
0.0
 11
136.164626
 21
58.109612
 31
0.0
  0
LINE
  5
BEAB
330
BDFA
100
AcDbEntity
  8
1
  6
Continuous
100
AcDbLine
 10
137.414626
 20
55.50937199999999
 30
0.0
 11
137.414626
 21
54.576056
 31
0.0
  0
LINE
  5
BEAC
330
BDFA
100
AcDbEntity
  8
1
  6
Continuous
100
AcDbLine
 10
136.164626
 20
58.509612
 30
0.0
 11
136.164626
 21
58.00961199999999
 31
0.0
  0
LINE
  5
BEAD
330
BDFA
100
AcDbEntity
  8
1
  6
Continuous
100
AcDbLine
 10
141.664626
 20
58.509612
 30
0.0
 11
141.664626
 21
60.00961199999998
 31
0.0
  0
LINE
  5
BEAE
330
BDFA
100
AcDbEntity
  8
1
  6
Continuous
100
AcDbLine
 10
136.164626
 20
81.70961199999998
 30
0.0
 11
136.164626
 21
81.50961200000002
 31
0.0
  0
LINE
  5
BEAF
330
BDFA
100
AcDbEntity
  8
1
  6
Continuous
100
AcDbLine
 10
136.164626
 20
82.509612
 30
0.0
 11
136.164626
 21
81.50961200000002
 31
0.0
  0
LINE
  5
BEB0
330
BDFA
100
AcDbEntity
  8
1
  6
Continuous
100
AcDbLine
 10
141.664626
 20
81.50961200000002
 30
0.0
 11
141.664626
 21
80.009612
 31
0.0
  0
LINE
  5
BEB1
330
BDFA
100
AcDbEntity
  8
1
  6
Continuous
100
AcDbLine
 10
130.164626
 20
57.50961199999998
 30
0.0
 11
130.164626
 21
58.109612
 31
0.0
  0
LINE
  5
BEB2
330
BDFA
100
AcDbEntity
  8
1
  6
Continuous
100
AcDbLine
 10
128.914626
 20
55.50937199999999
 30
0.0
 11
128.914626
 21
54.576056
 31
0.0
  0
LINE
  5
BEB3
330
BDFA
100
AcDbEntity
  8
1
  6
Continuous
100
AcDbLine
 10
130.164626
 20
58.509612
 30
0.0
 11
130.164626
 21
57.90610799999999
 31
0.0
  0
LINE
  5
BEB4
330
BDFA
100
AcDbEntity
  8
1
  6
Continuous
100
AcDbLine
 10
124.664626
 20
58.509612
 30
0.0
 11
124.664626
 21
60.00961199999998
 31
0.0
  0
LINE
  5
BEB5
330
BDFA
100
AcDbEntity
  8
1
  6
Continuous
100
AcDbLine
 10
130.164626
 20
81.50961200000002
 30
0.0
 11
130.164626
 21
81.70961199999998
 31
0.0
  0
LINE
  5
BEB6
330
BDFA
100
AcDbEntity
  8
1
  6
Continuous
100
AcDbLine
 10
130.164626
 20
82.509612
 30
0.0
 11
130.164626
 21
81.50961200000002
 31
0.0
  0
LINE
  5
BEB7
330
BDFA
100
AcDbEntity
  8
1
  6
Continuous
100
AcDbLine
 10
124.664626
 20
81.50961200000002
 30
0.0
 11
124.664626
 21
80.009612
 31
0.0
  0
ARC
  5
BEB8
330
BDFA
100
AcDbEntity
  8
1
  6
Continuous
100
AcDbCircle
 10
110.760923
 20
78.509612
 30
0.0
 40
1.5
100
AcDbArc
 50
90.0
 51
165.301576
  0
ARC
  5
BEB9
330
BDFA
100
AcDbEntity
  8
1
  6
Continuous
100
AcDbCircle
 10
143.1646259999999
 20
70.009612
 30
0.0
 40
35.0
100
AcDbArc
 50
165.301576
 51
194.698424
  0
ARC
  5
BEBA
330
BDFA
100
AcDbEntity
  8
1
  6
Continuous
100
AcDbCircle
 10
110.760923
 20
61.509612
 30
0.0
 40
1.5
100
AcDbArc
 50
194.698424
 51
270.0
  0
ARC
  5
BEBB
330
BDFA
100
AcDbEntity
  8
1
  6
Continuous
100
AcDbCircle
 10
167.167723
 20
70.009612
 30
0.0
 40
40.45257399999999
100
AcDbArc
 50
162.0007939999998
 51
163.4839739999998
  0
ARC
  5
BEBC
330
BDFA
100
AcDbEntity
  8
1
  6
Continuous
100
AcDbCircle
 10
167.167723
 20
70.009612
 30
0.0
 40
40.45257399999999
100
AcDbArc
 50
196.516026
 51
197.9992059999999
  0
LINE
  5
BEBD
330
BDFA
100
AcDbEntity
  8
1
  6
Continuous
100
AcDbLine
 10
170.764126
 20
183.326367
 30
0.0
 11
171.0146259999999
 21
183.326367
 31
0.0
  0
LINE
  5
BEBE
330
BDFA
100
AcDbEntity
  8
1
  6
Continuous
100
AcDbLine
 10
171.0146259999999
 20
183.326367
 30
0.0
 11
170.6780469999999
 21
187.440998
 31
0.0
  0
ARC
  5
BEBF
330
BDFA
100
AcDbEntity
  8
1
  6
Continuous
100
AcDbCircle
 10
152.164619
 20
70.009612
 30
0.0
 40
18.85
100
AcDbArc
 50
235.584371
 51
55.070319
  0
ARC
  5
BEC0
330
BDFA
100
AcDbEntity
  8
1
  6
Continuous
100
AcDbCircle
 10
152.164619
 20
70.009612
 30
0.0
 40
16.85
100
AcDbArc
 50
235.583392
 51
64.19018100000001
  0
ARC
  5
BEC1
330
BDFA
100
AcDbEntity
  8
1
  6
Continuous
100
AcDbCircle
 10
55.731462
 20
167.25423
 30
0.0
 40
26.722888
100
AcDbArc
 50
212.0233099999999
 51
213.180835
  0
LINE
  5
BEC2
330
BDFA
100
AcDbEntity
  8
1
  6
Continuous
100
AcDbLine
 10
247.863443
 20
149.749637
 30
0.0
 11
247.863443
 21
148.897316
 31
0.0
  0
ARC
  5
BEC3
330
BDFA
100
AcDbEntity
  8
1
  6
Continuous
100
AcDbCircle
 10
225.503443
 20
167.091484
 30
0.0
 40
26.713884
100
AcDbArc
 50
331.812974
 51
358.9933849999999
  0
LINE
  5
BEC4
330
BDFA
100
AcDbEntity
  8
1
  6
Continuous
100
AcDbLine
 10
245.8632029999999
 20
148.897316
 30
0.0
 11
247.863443
 21
148.897316
 31
0.0
  0
ARC
  5
BEC5
330
BDFA
100
AcDbEntity
  8
1
  6
Continuous
100
AcDbCircle
 10
257.863443
 20
149.749637
 30
0.0
 40
10.0
100
AcDbArc
 50
151.812974
 51
180.0
  0
LINE
  5
BEC6
330
BDFA
100
AcDbEntity
  8
1
  6
Continuous
100
AcDbLine
 10
250.180827
 20
174.695628
 30
0.0
 11
250.180827
 21
167.5074389999998
 31
0.0
  0
ARC
  5
BEC7
330
BDFA
100
AcDbEntity
  8
1
  6
Continuous
100
AcDbCircle
 10
223.471067
 20
167.976744
 30
0.0
 40
26.713884
100
AcDbArc
 50
331.812974
 51
358.9933849999999
  0
ARC
  5
BEC8
330
BDFA
100
AcDbEntity
  8
1
  6
Continuous
100
AcDbCircle
 10
255.831067
 20
150.634898
 30
0.0
 40
10.0
100
AcDbArc
 50
151.812974
 51
175.405317
  0
ARC
  5
BEC9
330
BDFA
100
AcDbEntity
  8
1
  6
Continuous
100
AcDbCircle
 10
241.222963
 20
167.091484
 30
0.0
 40
26.713884
100
AcDbArc
 50
181.006615
 51
186.53995
  0
ARC
  5
BECA
330
BDFA
100
AcDbEntity
  8
1
  6
Continuous
100
AcDbCircle
 10
208.8629629999998
 20
149.749637
 30
0.0
 40
10.0
100
AcDbArc
 50
0.0
 51
16.808385
  0
LINE
  5
BECB
330
BDFA
100
AcDbEntity
  8
1
  6
Continuous
100
AcDbLine
 10
220.8632029999999
 20
148.897316
 30
0.0
 11
217.825032
 21
148.897316
 31
0.0
  0
LINE
  5
BECC
330
BDFA
100
AcDbEntity
  8
1
  6
Continuous
100
AcDbLine
 10
218.8629629999998
 20
149.749637
 30
0.0
 11
218.8629629999998
 21
148.897316
 31
0.0
  0
ARC
  5
BECD
330
BDFA
100
AcDbEntity
  8
1
  6
Continuous
100
AcDbCircle
 10
210.8953399999998
 20
150.634898
 30
0.0
 40
10.0
100
AcDbArc
 50
4.594682999999998
 51
22.90469499999999
  0
ARC
  5
BECE
330
BDFA
100
AcDbEntity
  8
1
  6
Continuous
100
AcDbCircle
 10
243.2553399999999
 20
167.976744
 30
0.0
 40
26.713884
100
AcDbArc
 50
181.006615
 51
189.878237
  0
LINE
  5
BECF
330
BDFA
100
AcDbEntity
  8
1
  6
Continuous
100
AcDbLine
 10
216.5455799999998
 20
174.695628
 30
0.0
 11
216.5455799999998
 21
167.5074389999998
 31
0.0
  0
ARC
  5
BED0
330
BDFA
100
AcDbEntity
  8
1
  6
Continuous
100
AcDbCircle
 10
229.772722
 20
173.726811
 30
0.0
 40
13.262575
100
AcDbArc
 50
133.679923
 51
175.810882
  0
LINE
  5
BED1
330
BDFA
100
AcDbEntity
  8
1
  6
Continuous
100
AcDbLine
 10
135.8952069999999
 20
190.0222369999999
 30
0.0
 11
168.842904
 21
190.0222369999999
 31
0.0
  0
LINE
  5
BED2
330
BDFA
100
AcDbEntity
  8
1
  6
Continuous
100
AcDbLine
 10
221.164127
 20
195.434231
 30
0.0
 11
245.56224
 21
195.434231
 31
0.0
  0
LINE
  5
BED3
330
BDFA
100
AcDbEntity
  8
1
  6
Continuous
100
AcDbLine
 10
227.3632029999999
 20
213.334211
 30
0.0
 11
239.3632029999999
 21
213.334211
 31
0.0
  0
LINE
  5
BED4
330
BDFA
100
AcDbEntity
  8
1
  6
Continuous
100
AcDbLine
 10
228.3632029999999
 20
214.3342109999999
 30
0.0
 11
238.3632029999999
 21
214.3342109999999
 31
0.0
  0
LINE
  5
BED5
330
BDFA
100
AcDbEntity
  8
1
  6
Continuous
100
AcDbLine
 10
223.8632029999999
 20
199.334211
 30
0.0
 11
242.8632029999999
 21
199.334211
 31
0.0
  0
LINE
  5
BED6
330
BDFA
100
AcDbEntity
  8
1
  6
Continuous
100
AcDbLine
 10
217.1132029999998
 20
191.60441
 30
0.0
 11
249.6132029999999
 21
191.60441
 31
0.0
  0
LINE
  5
BED7
330
BDFA
100
AcDbEntity
  8
1
  6
Continuous
100
AcDbLine
 10
217.8536359999999
 20
193.37441
 30
0.0
 11
248.872771
 21
193.37441
 31
0.0
  0
LINE
  5
BED8
330
BDFA
100
AcDbEntity
  8
1
  6
Continuous
100
AcDbLine
 10
232.864081
 20
190.0221399999999
 30
0.0
 11
231.0608109999999
 21
191.60441
 31
0.0
  0
LINE
  5
BED9
330
BDFA
100
AcDbEntity
  8
1
  6
Continuous
100
AcDbLine
 10
231.0608109999999
 20
190.0221399999999
 30
0.0
 11
232.864081
 21
191.60441
 31
0.0
  0
LINE
  5
BEDA
330
BDFA
100
AcDbEntity
  8
1
  6
Continuous
100
AcDbLine
 10
217.363023
 20
192.798722
 30
0.0
 11
249.363384
 21
192.798722
 31
0.0
  0
LINE
  5
BEDB
330
BDFA
100
AcDbEntity
  8
1
  6
Continuous
100
AcDbLine
 10
227.3632029999999
 20
199.334211
 30
0.0
 11
227.3632029999999
 21
213.334211
 31
0.0
  0
ARC
  5
BEDC
330
BDFA
100
AcDbEntity
  8
1
  6
Continuous
100
AcDbCircle
 10
221.164127
 20
192.934231
 30
0.0
 40
2.5
100
AcDbArc
 50
90.0
 51
169.858981
  0
LINE
  5
BEDD
330
BDFA
100
AcDbEntity
  8
1
  6
Continuous
100
AcDbLine
 10
224.3787989999999
 20
190.0221399999999
 30
0.0
 11
222.5755289999999
 21
191.60441
 31
0.0
  0
LINE
  5
BEDE
330
BDFA
100
AcDbEntity
  8
1
  6
Continuous
100
AcDbLine
 10
222.5755289999999
 20
190.0221399999999
 30
0.0
 11
224.3787989999999
 21
191.60441
 31
0.0
  0
LINE
  5
BEDF
330
BDFA
100
AcDbEntity
  8
1
  6
Continuous
100
AcDbLine
 10
220.1361589999999
 20
190.0221399999999
 30
0.0
 11
218.3328889999999
 21
191.60441
 31
0.0
  0
LINE
  5
BEE0
330
BDFA
100
AcDbEntity
  8
1
  6
Continuous
100
AcDbLine
 10
218.3328889999999
 20
190.0221399999999
 30
0.0
 11
220.1361589999999
 21
191.60441
 31
0.0
  0
LINE
  5
BEE1
330
BDFA
100
AcDbEntity
  8
1
  6
Continuous
100
AcDbLine
 10
217.1132029999998
 20
191.60441
 30
0.0
 11
217.1132029999998
 21
190.0221399999999
 31
0.0
  0
ARC
  5
BEE2
330
BDFA
100
AcDbEntity
  8
1
  6
Continuous
100
AcDbCircle
 10
218.393534
 20
192.4173979999999
 30
0.0
 40
1.098799999999998
100
AcDbArc
 50
119.429525
 51
159.693839
  0
ARC
  5
BEE3
330
BDFA
100
AcDbEntity
  8
1
  6
Continuous
100
AcDbCircle
 10
219.711398
 20
193.129609
 30
0.0
 40
2.371570999999998
100
AcDbArc
 50
188.020211
 51
220.040406
  0
LINE
  5
BEE4
330
BDFA
100
AcDbEntity
  8
1
  6
Continuous
100
AcDbLine
 10
218.0148379999998
 20
190.0221399999999
 30
0.0
 11
217.1132029999998
 21
190.923775
 31
0.0
  0
LINE
  5
BEE5
330
BDFA
100
AcDbEntity
  8
1
  6
Continuous
100
AcDbLine
 10
218.0148379999998
 20
191.60441
 30
0.0
 11
217.1132029999998
 21
190.923775
 31
0.0
  0
LINE
  5
BEE6
330
BDFA
100
AcDbEntity
  8
1
  6
Continuous
100
AcDbLine
 10
222.2574789999999
 20
190.0221399999999
 30
0.0
 11
220.4542089999999
 21
191.60441
 31
0.0
  0
LINE
  5
BEE7
330
BDFA
100
AcDbEntity
  8
1
  6
Continuous
100
AcDbLine
 10
220.4542089999999
 20
190.0221399999999
 30
0.0
 11
222.2574789999999
 21
191.60441
 31
0.0
  0
LINE
  5
BEE8
330
BDFA
100
AcDbEntity
  8
1
  6
Continuous
100
AcDbLine
 10
228.6214399999999
 20
190.0221399999999
 30
0.0
 11
226.8181699999999
 21
191.60441
 31
0.0
  0
LINE
  5
BEE9
330
BDFA
100
AcDbEntity
  8
1
  6
Continuous
100
AcDbLine
 10
226.8181699999999
 20
190.0221399999999
 30
0.0
 11
228.6214399999999
 21
191.60441
 31
0.0
  0
LINE
  5
BEEA
330
BDFA
100
AcDbEntity
  8
1
  6
Continuous
100
AcDbLine
 10
226.5001199999999
 20
190.0221399999999
 30
0.0
 11
224.69685
 21
191.60441
 31
0.0
  0
LINE
  5
BEEB
330
BDFA
100
AcDbEntity
  8
1
  6
Continuous
100
AcDbLine
 10
224.69685
 20
190.0221399999999
 30
0.0
 11
226.5001199999999
 21
191.60441
 31
0.0
  0
LINE
  5
BEEC
330
BDFA
100
AcDbEntity
  8
1
  6
Continuous
100
AcDbLine
 10
230.74276
 20
190.0221399999999
 30
0.0
 11
228.93949
 21
191.60441
 31
0.0
  0
LINE
  5
BEED
330
BDFA
100
AcDbEntity
  8
1
  6
Continuous
100
AcDbLine
 10
228.93949
 20
190.0221399999999
 30
0.0
 11
230.74276
 21
191.60441
 31
0.0
  0
LINE
  5
BEEE
330
BDFA
100
AcDbEntity
  8
1
  6
Continuous
100
AcDbLine
 10
228.3632029999999
 20
214.3342109999999
 30
0.0
 11
227.3632029999999
 21
213.334211
 31
0.0
  0
LINE
  5
BEEF
330
BDFA
100
AcDbEntity
  8
1
  6
Continuous
100
AcDbLine
 10
239.3632029999999
 20
199.334211
 30
0.0
 11
239.3632029999999
 21
213.334211
 31
0.0
  0
ARC
  5
BEF0
330
BDFA
100
AcDbEntity
  8
1
  6
Continuous
100
AcDbCircle
 10
245.56224
 20
192.934231
 30
0.0
 40
2.5
100
AcDbArc
 50
10.141019
 51
90.0
  0
LINE
  5
BEF1
330
BDFA
100
AcDbEntity
  8
1
  6
Continuous
100
AcDbLine
 10
247.713323
 20
190.0221399999999
 30
0.0
 11
245.9100529999998
 21
191.60441
 31
0.0
  0
LINE
  5
BEF2
330
BDFA
100
AcDbEntity
  8
1
  6
Continuous
100
AcDbLine
 10
245.9100529999998
 20
190.0221399999999
 30
0.0
 11
247.713323
 21
191.60441
 31
0.0
  0
LINE
  5
BEF3
330
BDFA
100
AcDbEntity
  8
1
  6
Continuous
100
AcDbLine
 10
234.9854009999999
 20
190.0221399999999
 30
0.0
 11
233.182131
 21
191.60441
 31
0.0
  0
LINE
  5
BEF4
330
BDFA
100
AcDbEntity
  8
1
  6
Continuous
100
AcDbLine
 10
233.182131
 20
190.0221399999999
 30
0.0
 11
234.9854009999999
 21
191.60441
 31
0.0
  0
LINE
  5
BEF5
330
BDFA
100
AcDbEntity
  8
1
  6
Continuous
100
AcDbLine
 10
239.228042
 20
190.0221399999999
 30
0.0
 11
237.424772
 21
191.60441
 31
0.0
  0
LINE
  5
BEF6
330
BDFA
100
AcDbEntity
  8
1
  6
Continuous
100
AcDbLine
 10
237.106721
 20
190.0221399999999
 30
0.0
 11
235.3034509999999
 21
191.60441
 31
0.0
  0
LINE
  5
BEF7
330
BDFA
100
AcDbEntity
  8
1
  6
Continuous
100
AcDbLine
 10
237.424772
 20
190.0221399999999
 30
0.0
 11
239.228042
 21
191.60441
 31
0.0
  0
LINE
  5
BEF8
330
BDFA
100
AcDbEntity
  8
1
  6
Continuous
100
AcDbLine
 10
235.3034509999999
 20
190.0221399999999
 30
0.0
 11
237.106721
 21
191.60441
 31
0.0
  0
LINE
  5
BEF9
330
BDFA
100
AcDbEntity
  8
1
  6
Continuous
100
AcDbLine
 10
243.470683
 20
190.0221399999999
 30
0.0
 11
241.667412
 21
191.60441
 31
0.0
  0
LINE
  5
BEFA
330
BDFA
100
AcDbEntity
  8
1
  6
Continuous
100
AcDbLine
 10
241.349362
 20
190.0221399999999
 30
0.0
 11
239.546092
 21
191.60441
 31
0.0
  0
LINE
  5
BEFB
330
BDFA
100
AcDbEntity
  8
1
  6
Continuous
100
AcDbLine
 10
241.667412
 20
190.0221399999999
 30
0.0
 11
243.470683
 21
191.60441
 31
0.0
  0
LINE
  5
BEFC
330
BDFA
100
AcDbEntity
  8
1
  6
Continuous
100
AcDbLine
 10
239.546092
 20
190.0221399999999
 30
0.0
 11
241.349362
 21
191.60441
 31
0.0
  0
LINE
  5
BEFD
330
BDFA
100
AcDbEntity
  8
1
  6
Continuous
100
AcDbLine
 10
245.5920029999998
 20
190.0221399999999
 30
0.0
 11
243.788733
 21
191.60441
 31
0.0
  0
LINE
  5
BEFE
330
BDFA
100
AcDbEntity
  8
1
  6
Continuous
100
AcDbLine
 10
243.788733
 20
190.0221399999999
 30
0.0
 11
245.5920029999998
 21
191.60441
 31
0.0
  0
LINE
  5
BEFF
330
BDFA
100
AcDbEntity
  8
1
  6
Continuous
100
AcDbLine
 10
249.6132029999999
 20
191.60441
 30
0.0
 11
249.6132029999999
 21
190.0221399999999
 31
0.0
  0
ARC
  5
BF00
330
BDFA
100
AcDbEntity
  8
1
  6
Continuous
100
AcDbCircle
 10
248.332873
 20
192.4173979999999
 30
0.0
 40
1.098799999999998
100
AcDbArc
 50
20.306161
 51
60.57047500000001
  0
ARC
  5
BF01
330
BDFA
100
AcDbEntity
  8
1
  6
Continuous
100
AcDbCircle
 10
247.015009
 20
193.129609
 30
0.0
 40
2.371570999999998
100
AcDbArc
 50
319.959594
 51
351.9797889999999
  0
LINE
  5
BF02
330
BDFA
100
AcDbEntity
  8
1
  6
Continuous
100
AcDbLine
 10
249.6132029999999
 20
190.24358
 30
0.0
 11
248.031374
 21
191.60441
 31
0.0
  0
LINE
  5
BF03
330
BDFA
100
AcDbEntity
  8
1
  6
Continuous
100
AcDbLine
 10
248.031374
 20
190.0221399999999
 30
0.0
 11
249.6132029999999
 21
191.382969
 31
0.0
  0
LINE
  5
BF04
330
BDFA
100
AcDbEntity
  8
1
  6
Continuous
100
AcDbLine
 10
238.3632029999999
 20
214.3342109999999
 30
0.0
 11
239.3632029999999
 21
213.334211
 31
0.0
  0
ARC
  5
BF05
330
BDFA
100
AcDbEntity
  8
1
  6
Continuous
100
AcDbCircle
 10
151.0256709999999
 20
276.217462
 30
0.0
 40
18.0
100
AcDbArc
 50
131.3382719999999
 51
228.4216129999999
  0
CIRCLE
  5
BF06
330
BDFA
100
AcDbEntity
  8
1
  6
Continuous
100
AcDbCircle
 10
152.164619
 20
276.217462
 30
0.0
 40
14.660012
  0
ARC
  5
BF07
330
BDFA
100
AcDbEntity
  8
1
  6
Continuous
100
AcDbCircle
 10
157.1646189999999
 20
276.217462
 30
0.0
 40
30.0
100
AcDbArc
 50
154.381131
 51
205.6188689999999
  0
LINE
  5
BF08
330
BDFA
100
AcDbEntity
  8
1
  6
Continuous
100
AcDbLine
 10
141.194964
 20
276.217462
 30
0.0
 11
146.6797909999999
 21
266.717462
 31
0.0
  0
LINE
  5
BF09
330
BDFA
100
AcDbEntity
  8
1
  6
Continuous
100
AcDbLine
 10
157.6494459999999
 20
266.717462
 30
0.0
 11
163.134274
 21
276.217462
 31
0.0
  0
CIRCLE
  5
BF0A
330
BDFA
100
AcDbEntity
  8
1
  6
Continuous
100
AcDbCircle
 10
152.164619
 20
276.217462
 30
0.0
 40
16.25
  0
CIRCLE
  5
BF0B
330
BDFA
100
AcDbEntity
  8
1
  6
Continuous
100
AcDbCircle
 10
152.164619
 20
276.217462
 30
0.0
 40
16.00018
  0
LINE
  5
BF0C
330
BDFA
100
AcDbEntity
  8
1
  6
Continuous
100
AcDbLine
 10
146.6797909999999
 20
266.717462
 30
0.0
 11
157.6494459999999
 21
266.717462
 31
0.0
  0
ARC
  5
BF0D
330
BDFA
100
AcDbEntity
  8
1
  6
Continuous
100
AcDbCircle
 10
128.3410519999999
 20
262.934592
 30
0.0
 40
1.8
100
AcDbArc
 50
317.443519
 51
9.961921999999999
  0
CIRCLE
  5
BF0E
330
BDFA
100
AcDbEntity
  8
1
  6
Continuous
100
AcDbCircle
 10
152.164619
 20
276.217462
 30
0.0
 40
6.0
  0
LINE
  5
BF0F
330
BDFA
100
AcDbEntity
  8
1
  6
Continuous
100
AcDbLine
 10
146.6797909999999
 20
285.717462
 30
0.0
 11
157.6494459999999
 21
285.717462
 31
0.0
  0
LINE
  5
BF10
330
BDFA
100
AcDbEntity
  8
1
  6
Continuous
100
AcDbLine
 10
157.6494459999999
 20
285.717462
 30
0.0
 11
163.134274
 21
276.217462
 31
0.0
  0
LINE
  5
BF11
330
BDFA
100
AcDbEntity
  8
1
  6
Continuous
100
AcDbLine
 10
141.194964
 20
276.217462
 30
0.0
 11
146.6797909999999
 21
285.717462
 31
0.0
  0
ARC
  5
BF12
330
BDFA
100
AcDbEntity
  8
1
  6
Continuous
100
AcDbCircle
 10
128.3410519999999
 20
289.500333
 30
0.0
 40
1.8
100
AcDbArc
 50
350.0380779999999
 51
42.556437
  0
LINE
  5
BF13
330
BDFA
100
AcDbEntity
  8
1
  6
Continuous
100
AcDbLine
 10
223.8632029999999
 20
199.334211
 30
0.0
 11
223.8632029999999
 21
195.43423
 31
0.0
  0
LINE
  5
BF14
330
BDFA
100
AcDbEntity
  8
1
  6
Continuous
100
AcDbLine
 10
233.3632029999999
 20
199.334211
 30
0.0
 11
233.3632029999999
 21
195.43423
 31
0.0
  0
LINE
  5
BF15
330
BDFA
100
AcDbEntity
  8
1
  6
Continuous
100
AcDbLine
 10
242.8632029999999
 20
199.334211
 30
0.0
 11
242.8632029999999
 21
195.43423
 31
0.0
  0
LINE
  5
BF16
330
BDFA
100
AcDbEntity
  8
1
  6
Continuous
100
AcDbLine
 10
41.86604899999998
 20
213.334212
 30
0.0
 11
53.866049
 21
213.334212
 31
0.0
  0
LINE
  5
BF17
330
BDFA
100
AcDbEntity
  8
1
  6
Continuous
100
AcDbLine
 10
42.86604899999999
 20
214.334212
 30
0.0
 11
52.866049
 21
214.334212
 31
0.0
  0
LINE
  5
BF18
330
BDFA
100
AcDbEntity
  8
1
  6
Continuous
100
AcDbLine
 10
43.44233599999999
 20
190.022141
 30
0.0
 11
45.245606
 21
191.6044109999999
 31
0.0
  0
LINE
  5
BF19
330
BDFA
100
AcDbEntity
  8
1
  6
Continuous
100
AcDbLine
 10
45.245606
 20
190.022141
 30
0.0
 11
43.44233599999999
 21
191.6044109999999
 31
0.0
  0
LINE
  5
BF1A
330
BDFA
100
AcDbEntity
  8
1
  6
Continuous
100
AcDbLine
 10
35.66697299999999
 20
195.434232
 30
0.0
 11
60.065086
 21
195.434232
 31
0.0
  0
LINE
  5
BF1B
330
BDFA
100
AcDbEntity
  8
1
  6
Continuous
100
AcDbLine
 10
31.86586899999999
 20
192.798723
 30
0.0
 11
63.86623
 21
192.798723
 31
0.0
  0
LINE
  5
BF1C
330
BDFA
100
AcDbEntity
  8
1
  6
Continuous
100
AcDbLine
 10
38.36604899999999
 20
199.334212
 30
0.0
 11
57.36604899999999
 21
199.334212
 31
0.0
  0
LINE
  5
BF1D
330
BDFA
100
AcDbEntity
  8
1
  6
Continuous
100
AcDbLine
 10
32.35648199999999
 20
193.374411
 30
0.0
 11
63.37561700000001
 21
193.374411
 31
0.0
  0
LINE
  5
BF1E
330
BDFA
100
AcDbEntity
  8
1
  6
Continuous
100
AcDbLine
 10
31.616049
 20
191.6044109999999
 30
0.0
 11
64.116049
 21
191.6044109999999
 31
0.0
  0
LINE
  5
BF1F
330
BDFA
100
AcDbEntity
  8
1
  6
Continuous
100
AcDbLine
 10
41.86604899999998
 20
199.334212
 30
0.0
 11
41.86604899999998
 21
213.334212
 31
0.0
  0
LINE
  5
BF20
330
BDFA
100
AcDbEntity
  8
1
  6
Continuous
100
AcDbLine
 10
39.199696
 20
190.022141
 30
0.0
 11
41.002966
 21
191.6044109999999
 31
0.0
  0
LINE
  5
BF21
330
BDFA
100
AcDbEntity
  8
1
  6
Continuous
100
AcDbLine
 10
41.002966
 20
190.022141
 30
0.0
 11
39.199696
 21
191.6044109999999
 31
0.0
  0
LINE
  5
BF22
330
BDFA
100
AcDbEntity
  8
1
  6
Continuous
100
AcDbLine
 10
41.321016
 20
190.022141
 30
0.0
 11
43.12428599999999
 21
191.6044109999999
 31
0.0
  0
LINE
  5
BF23
330
BDFA
100
AcDbEntity
  8
1
  6
Continuous
100
AcDbLine
 10
43.12428599999999
 20
190.022141
 30
0.0
 11
41.321016
 21
191.6044109999999
 31
0.0
  0
LINE
  5
BF24
330
BDFA
100
AcDbEntity
  8
1
  6
Continuous
100
AcDbLine
 10
37.078375
 20
190.022141
 30
0.0
 11
38.881645
 21
191.6044109999999
 31
0.0
  0
LINE
  5
BF25
330
BDFA
100
AcDbEntity
  8
1
  6
Continuous
100
AcDbLine
 10
38.881645
 20
190.022141
 30
0.0
 11
37.078375
 21
191.6044109999999
 31
0.0
  0
LINE
  5
BF26
330
BDFA
100
AcDbEntity
  8
1
  6
Continuous
100
AcDbLine
 10
32.517684
 20
191.6044109999999
 30
0.0
 11
31.616049
 21
190.923776
 31
0.0
  0
LINE
  5
BF27
330
BDFA
100
AcDbEntity
  8
1
  6
Continuous
100
AcDbLine
 10
32.517684
 20
190.022141
 30
0.0
 11
31.616049
 21
190.923776
 31
0.0
  0
ARC
  5
BF28
330
BDFA
100
AcDbEntity
  8
1
  6
Continuous
100
AcDbCircle
 10
34.214244
 20
193.12961
 30
0.0
 40
2.371570999999998
100
AcDbArc
 50
188.020211
 51
220.040406
  0
ARC
  5
BF29
330
BDFA
100
AcDbEntity
  8
1
  6
Continuous
100
AcDbCircle
 10
32.89638
 20
192.4173989999999
 30
0.0
 40
1.098799999999998
100
AcDbArc
 50
119.429525
 51
159.693839
  0
LINE
  5
BF2A
330
BDFA
100
AcDbEntity
  8
1
  6
Continuous
100
AcDbLine
 10
31.616049
 20
191.6044109999999
 30
0.0
 11
31.616049
 21
190.022141
 31
0.0
  0
LINE
  5
BF2B
330
BDFA
100
AcDbEntity
  8
1
  6
Continuous
100
AcDbLine
 10
32.835735
 20
190.022141
 30
0.0
 11
34.63900499999999
 21
191.6044109999999
 31
0.0
  0
LINE
  5
BF2C
330
BDFA
100
AcDbEntity
  8
1
  6
Continuous
100
AcDbLine
 10
34.63900499999999
 20
190.022141
 30
0.0
 11
32.835735
 21
191.6044109999999
 31
0.0
  0
ARC
  5
BF2D
330
BDFA
100
AcDbEntity
  8
1
  6
Continuous
100
AcDbCircle
 10
35.66697299999999
 20
192.934232
 30
0.0
 40
2.5
100
AcDbArc
 50
90.0
 51
169.858981
  0
LINE
  5
BF2E
330
BDFA
100
AcDbEntity
  8
1
  6
Continuous
100
AcDbLine
 10
34.95705499999999
 20
190.022141
 30
0.0
 11
36.760325
 21
191.6044109999999
 31
0.0
  0
LINE
  5
BF2F
330
BDFA
100
AcDbEntity
  8
1
  6
Continuous
100
AcDbLine
 10
36.760325
 20
190.022141
 30
0.0
 11
34.95705499999999
 21
191.6044109999999
 31
0.0
  0
LINE
  5
BF30
330
BDFA
100
AcDbEntity
  8
1
  6
Continuous
100
AcDbLine
 10
42.86604899999999
 20
214.334212
 30
0.0
 11
41.86604899999998
 21
213.334212
 31
0.0
  0
LINE
  5
BF31
330
BDFA
100
AcDbEntity
  8
1
  6
Continuous
100
AcDbLine
 10
53.866049
 20
199.334212
 30
0.0
 11
53.866049
 21
213.334212
 31
0.0
  0
LINE
  5
BF32
330
BDFA
100
AcDbEntity
  8
1
  6
Continuous
100
AcDbLine
 10
58.29157900000002
 20
190.022141
 30
0.0
 11
60.094849
 21
191.6044109999999
 31
0.0
  0
LINE
  5
BF33
330
BDFA
100
AcDbEntity
  8
1
  6
Continuous
100
AcDbLine
 10
60.094849
 20
190.022141
 30
0.0
 11
58.29157900000002
 21
191.6044109999999
 31
0.0
  0
LINE
  5
BF34
330
BDFA
100
AcDbEntity
  8
1
  6
Continuous
100
AcDbLine
 10
54.04893799999999
 20
190.022141
 30
0.0
 11
55.852208
 21
191.6044109999999
 31
0.0
  0
LINE
  5
BF35
330
BDFA
100
AcDbEntity
  8
1
  6
Continuous
100
AcDbLine
 10
56.170258
 20
190.022141
 30
0.0
 11
57.97352899999999
 21
191.6044109999999
 31
0.0
  0
LINE
  5
BF36
330
BDFA
100
AcDbEntity
  8
1
  6
Continuous
100
AcDbLine
 10
55.852208
 20
190.022141
 30
0.0
 11
54.04893799999999
 21
191.6044109999999
 31
0.0
  0
LINE
  5
BF37
330
BDFA
100
AcDbEntity
  8
1
  6
Continuous
100
AcDbLine
 10
57.97352899999999
 20
190.022141
 30
0.0
 11
56.170258
 21
191.6044109999999
 31
0.0
  0
LINE
  5
BF38
330
BDFA
100
AcDbEntity
  8
1
  6
Continuous
100
AcDbLine
 10
49.806297
 20
190.022141
 30
0.0
 11
51.60956699999999
 21
191.6044109999999
 31
0.0
  0
LINE
  5
BF39
330
BDFA
100
AcDbEntity
  8
1
  6
Continuous
100
AcDbLine
 10
51.60956699999999
 20
190.022141
 30
0.0
 11
49.806297
 21
191.6044109999999
 31
0.0
  0
LINE
  5
BF3A
330
BDFA
100
AcDbEntity
  8
1
  6
Continuous
100
AcDbLine
 10
47.684977
 20
190.022141
 30
0.0
 11
49.48824699999999
 21
191.6044109999999
 31
0.0
  0
LINE
  5
BF3B
330
BDFA
100
AcDbEntity
  8
1
  6
Continuous
100
AcDbLine
 10
49.48824699999999
 20
190.022141
 30
0.0
 11
47.684977
 21
191.6044109999999
 31
0.0
  0
LINE
  5
BF3C
330
BDFA
100
AcDbEntity
  8
1
  6
Continuous
100
AcDbLine
 10
45.56365699999999
 20
190.022141
 30
0.0
 11
47.36692699999998
 21
191.6044109999999
 31
0.0
  0
LINE
  5
BF3D
330
BDFA
100
AcDbEntity
  8
1
  6
Continuous
100
AcDbLine
 10
47.36692699999998
 20
190.022141
 30
0.0
 11
45.56365699999999
 21
191.6044109999999
 31
0.0
  0
LINE
  5
BF3E
330
BDFA
100
AcDbEntity
  8
1
  6
Continuous
100
AcDbLine
 10
51.927618
 20
190.022141
 30
0.0
 11
53.730888
 21
191.6044109999999
 31
0.0
  0
LINE
  5
BF3F
330
BDFA
100
AcDbEntity
  8
1
  6
Continuous
100
AcDbLine
 10
53.730888
 20
190.022141
 30
0.0
 11
51.927618
 21
191.6044109999999
 31
0.0
  0
LINE
  5
BF40
330
BDFA
100
AcDbEntity
  8
1
  6
Continuous
100
AcDbLine
 10
62.53422
 20
190.022141
 30
0.0
 11
64.116049
 21
191.3829699999998
 31
0.0
  0
LINE
  5
BF41
330
BDFA
100
AcDbEntity
  8
1
  6
Continuous
100
AcDbLine
 10
64.116049
 20
190.243581
 30
0.0
 11
62.53422
 21
191.6044109999999
 31
0.0
  0
ARC
  5
BF42
330
BDFA
100
AcDbEntity
  8
1
  6
Continuous
100
AcDbCircle
 10
61.51785499999999
 20
193.12961
 30
0.0
 40
2.371570999999998
100
AcDbArc
 50
319.959594
 51
351.9797889999999
  0
ARC
  5
BF43
330
BDFA
100
AcDbEntity
  8
1
  6
Continuous
100
AcDbCircle
 10
62.835719
 20
192.4173989999999
 30
0.0
 40
1.098799999999998
100
AcDbArc
 50
20.306161
 51
60.57047500000001
  0
LINE
  5
BF44
330
BDFA
100
AcDbEntity
  8
1
  6
Continuous
100
AcDbLine
 10
64.116049
 20
191.6044109999999
 30
0.0
 11
64.116049
 21
190.022044
 31
0.0
  0
LINE
  5
BF45
330
BDFA
100
AcDbEntity
  8
1
  6
Continuous
100
AcDbLine
 10
60.41289899999998
 20
190.022141
 30
0.0
 11
62.21616899999999
 21
191.6044109999999
 31
0.0
  0
LINE
  5
BF46
330
BDFA
100
AcDbEntity
  8
1
  6
Continuous
100
AcDbLine
 10
62.21616899999999
 20
190.022141
 30
0.0
 11
60.41289899999998
 21
191.6044109999999
 31
0.0
  0
ARC
  5
BF47
330
BDFA
100
AcDbEntity
  8
1
  6
Continuous
100
AcDbCircle
 10
60.065086
 20
192.934232
 30
0.0
 40
2.5
100
AcDbArc
 50
10.141019
 51
90.0
  0
LINE
  5
BF48
330
BDFA
100
AcDbEntity
  8
1
  6
Continuous
100
AcDbLine
 10
52.866049
 20
214.334212
 30
0.0
 11
53.866049
 21
213.334212
 31
0.0
  0
LINE
  5
BF49
330
BDFA
100
AcDbEntity
  8
1
  6
Continuous
100
AcDbLine
 10
38.36604899999999
 20
199.334212
 30
0.0
 11
38.36604899999999
 21
195.434231
 31
0.0
  0
LINE
  5
BF4A
330
BDFA
100
AcDbEntity
  8
1
  6
Continuous
100
AcDbLine
 10
47.86604899999999
 20
199.334212
 30
0.0
 11
47.86604899999999
 21
195.434231
 31
0.0
  0
LINE
  5
BF4B
330
BDFA
100
AcDbEntity
  8
1
  6
Continuous
100
AcDbLine
 10
57.36604899999999
 20
199.334212
 30
0.0
 11
57.36604899999999
 21
195.434231
 31
0.0
  0
LINE
  5
BF4C
330
BDFA
100
AcDbEntity
  8
1
  6
Continuous
100
AcDbLine
 10
158.164626
 20
199.334308
 30
0.0
 11
158.164626
 21
213.3343079999999
 31
0.0
  0
LINE
  5
BF4D
330
BDFA
100
AcDbEntity
  8
1
  6
Continuous
100
AcDbLine
 10
146.164626
 20
199.334308
 30
0.0
 11
146.164626
 21
213.3343079999999
 31
0.0
  0
LINE
  5
BF4E
330
BDFA
100
AcDbEntity
  8
1
  6
Continuous
100
AcDbLine
 10
153.7868239999999
 20
190.0222369999999
 30
0.0
 11
151.983554
 21
191.604507
 31
0.0
  0
LINE
  5
BF4F
330
BDFA
100
AcDbEntity
  8
1
  6
Continuous
100
AcDbLine
 10
151.983554
 20
190.0222369999999
 30
0.0
 11
153.7868239999999
 21
191.604507
 31
0.0
  0
LINE
  5
BF50
330
BDFA
100
AcDbEntity
  8
1
  6
Continuous
100
AcDbLine
 10
135.9146259999999
 20
191.604507
 30
0.0
 11
168.414626
 21
191.604507
 31
0.0
  0
LINE
  5
BF51
330
BDFA
100
AcDbEntity
  8
1
  6
Continuous
100
AcDbLine
 10
136.6550589999999
 20
193.374507
 30
0.0
 11
167.674194
 21
193.374507
 31
0.0
  0
LINE
  5
BF52
330
BDFA
100
AcDbEntity
  8
1
  6
Continuous
100
AcDbLine
 10
141.194971
 20
199.334308
 30
0.0
 11
163.1342809999999
 21
199.334308
 31
0.0
  0
LINE
  5
BF53
330
BDFA
100
AcDbEntity
  8
1
  6
Continuous
100
AcDbLine
 10
136.1644459999999
 20
192.7988189999999
 30
0.0
 11
168.164807
 21
192.7988189999999
 31
0.0
  0
LINE
  5
BF54
330
BDFA
100
AcDbEntity
  8
1
  6
Continuous
100
AcDbLine
 10
139.96555
 20
195.4343279999999
 30
0.0
 11
164.363663
 21
195.4343279999999
 31
0.0
  0
ARC
  5
BF55
330
BDFA
100
AcDbEntity
  8
1
  6
Continuous
100
AcDbCircle
 10
137.1949569999999
 20
192.417495
 30
0.0
 40
1.098799999999998
100
AcDbArc
 50
119.429525
 51
159.693839
  0
ARC
  5
BF56
330
BDFA
100
AcDbEntity
  8
1
  6
Continuous
100
AcDbCircle
 10
138.5128209999998
 20
193.129706
 30
0.0
 40
2.371570999999998
100
AcDbArc
 50
188.020211
 51
220.040406
  0
LINE
  5
BF57
330
BDFA
100
AcDbEntity
  8
1
  6
Continuous
100
AcDbLine
 10
136.8162609999999
 20
190.0222369999999
 30
0.0
 11
135.9146259999999
 21
190.9238719999999
 31
0.0
  0
LINE
  5
BF58
330
BDFA
100
AcDbEntity
  8
1
  6
Continuous
100
AcDbLine
 10
136.8162609999999
 20
191.604507
 30
0.0
 11
135.9146259999999
 21
190.9238719999999
 31
0.0
  0
LINE
  5
BF59
330
BDFA
100
AcDbEntity
  8
1
  6
Continuous
100
AcDbLine
 10
135.9146259999999
 20
191.604507
 30
0.0
 11
135.9146259999999
 21
190.0222369999999
 31
0.0
  0
LINE
  5
BF5A
330
BDFA
100
AcDbEntity
  8
1
  6
Continuous
100
AcDbLine
 10
151.665504
 20
190.0222369999999
 30
0.0
 11
149.862234
 21
191.604507
 31
0.0
  0
LINE
  5
BF5B
330
BDFA
100
AcDbEntity
  8
1
  6
Continuous
100
AcDbLine
 10
149.862234
 20
190.0222369999999
 30
0.0
 11
151.665504
 21
191.604507
 31
0.0
  0
LINE
  5
BF5C
330
BDFA
100
AcDbEntity
  8
1
  6
Continuous
100
AcDbLine
 10
141.0589019999999
 20
190.0222369999999
 30
0.0
 11
139.2556319999999
 21
191.604507
 31
0.0
  0
LINE
  5
BF5D
330
BDFA
100
AcDbEntity
  8
1
  6
Continuous
100
AcDbLine
 10
139.2556319999999
 20
190.0222369999999
 30
0.0
 11
141.0589019999999
 21
191.604507
 31
0.0
  0
ARC
  5
BF5E
330
BDFA
100
AcDbEntity
  8
1
  6
Continuous
100
AcDbCircle
 10
139.96555
 20
192.9343279999999
 30
0.0
 40
2.5
100
AcDbArc
 50
90.0
 51
169.858981
  0
LINE
  5
BF5F
330
BDFA
100
AcDbEntity
  8
1
  6
Continuous
100
AcDbLine
 10
138.9375819999999
 20
190.0222369999999
 30
0.0
 11
137.1343119999999
 21
191.604507
 31
0.0
  0
LINE
  5
BF60
330
BDFA
100
AcDbEntity
  8
1
  6
Continuous
100
AcDbLine
 10
137.1343119999999
 20
190.0222369999999
 30
0.0
 11
138.9375819999999
 21
191.604507
 31
0.0
  0
LINE
  5
BF61
330
BDFA
100
AcDbEntity
  8
1
  6
Continuous
100
AcDbLine
 10
143.1802219999999
 20
190.0222369999999
 30
0.0
 11
141.3769519999999
 21
191.604507
 31
0.0
  0
LINE
  5
BF62
330
BDFA
100
AcDbEntity
  8
1
  6
Continuous
100
AcDbLine
 10
141.3769519999999
 20
190.0222369999999
 30
0.0
 11
143.1802219999999
 21
191.604507
 31
0.0
  0
LINE
  5
BF63
330
BDFA
100
AcDbEntity
  8
1
  6
Continuous
100
AcDbLine
 10
147.4228629999998
 20
190.0222369999999
 30
0.0
 11
145.6195929999998
 21
191.604507
 31
0.0
  0
LINE
  5
BF64
330
BDFA
100
AcDbEntity
  8
1
  6
Continuous
100
AcDbLine
 10
145.6195929999998
 20
190.0222369999999
 30
0.0
 11
147.4228629999998
 21
191.604507
 31
0.0
  0
LINE
  5
BF65
330
BDFA
100
AcDbEntity
  8
1
  6
Continuous
100
AcDbLine
 10
145.3015429999998
 20
190.0222369999999
 30
0.0
 11
143.498273
 21
191.604507
 31
0.0
  0
LINE
  5
BF66
330
BDFA
100
AcDbEntity
  8
1
  6
Continuous
100
AcDbLine
 10
143.498273
 20
190.0222369999999
 30
0.0
 11
145.3015429999998
 21
191.604507
 31
0.0
  0
LINE
  5
BF67
330
BDFA
100
AcDbEntity
  8
1
  6
Continuous
100
AcDbLine
 10
141.194971
 20
195.4343279999999
 30
0.0
 11
141.194971
 21
199.334308
 31
0.0
  0
LINE
  5
BF68
330
BDFA
100
AcDbEntity
  8
1
  6
Continuous
100
AcDbLine
 10
146.679799
 20
195.4343279999999
 30
0.0
 11
146.679799
 21
199.334308
 31
0.0
  0
LINE
  5
BF69
330
BDFA
100
AcDbEntity
  8
1
  6
Continuous
100
AcDbLine
 10
149.544183
 20
190.0222369999999
 30
0.0
 11
147.7409129999998
 21
191.604507
 31
0.0
  0
LINE
  5
BF6A
330
BDFA
100
AcDbEntity
  8
1
  6
Continuous
100
AcDbLine
 10
147.7409129999998
 20
190.0222369999999
 30
0.0
 11
149.544183
 21
191.604507
 31
0.0
  0
ARC
  5
BF6B
330
BDFA
100
AcDbEntity
  8
1
  6
Continuous
100
AcDbCircle
 10
164.363663
 20
192.9343279999999
 30
0.0
 40
2.5
100
AcDbArc
 50
10.141019
 51
90.0
  0
LINE
  5
BF6C
330
BDFA
100
AcDbEntity
  8
1
  6
Continuous
100
AcDbLine
 10
166.514746
 20
190.0222369999999
 30
0.0
 11
164.711476
 21
191.604507
 31
0.0
  0
LINE
  5
BF6D
330
BDFA
100
AcDbEntity
  8
1
  6
Continuous
100
AcDbLine
 10
164.711476
 20
190.0222369999999
 30
0.0
 11
166.514746
 21
191.604507
 31
0.0
  0
LINE
  5
BF6E
330
BDFA
100
AcDbEntity
  8
1
  6
Continuous
100
AcDbLine
 10
168.414626
 20
191.604507
 30
0.0
 11
168.414626
 21
190.0222369999999
 31
0.0
  0
ARC
  5
BF6F
330
BDFA
100
AcDbEntity
  8
1
  6
Continuous
100
AcDbCircle
 10
167.134296
 20
192.417495
 30
0.0
 40
1.098799999999998
100
AcDbArc
 50
20.306161
 51
60.57047500000001
  0
ARC
  5
BF70
330
BDFA
100
AcDbEntity
  8
1
  6
Continuous
100
AcDbCircle
 10
165.816432
 20
193.129706
 30
0.0
 40
2.371570999999998
100
AcDbArc
 50
319.959594
 51
351.9797889999999
  0
LINE
  5
BF71
330
BDFA
100
AcDbEntity
  8
1
  6
Continuous
100
AcDbLine
 10
168.414626
 20
190.2436769999999
 30
0.0
 11
166.8327969999999
 21
191.604507
 31
0.0
  0
LINE
  5
BF72
330
BDFA
100
AcDbEntity
  8
1
  6
Continuous
100
AcDbLine
 10
166.8327969999999
 20
190.0222369999999
 30
0.0
 11
168.414626
 21
191.3830659999999
 31
0.0
  0
LINE
  5
BF73
330
BDFA
100
AcDbEntity
  8
1
  6
Continuous
100
AcDbLine
 10
158.0294649999999
 20
190.0222369999999
 30
0.0
 11
156.2261949999999
 21
191.604507
 31
0.0
  0
LINE
  5
BF74
330
BDFA
100
AcDbEntity
  8
1
  6
Continuous
100
AcDbLine
 10
156.2261949999999
 20
190.0222369999999
 30
0.0
 11
158.0294649999999
 21
191.604507
 31
0.0
  0
LINE
  5
BF75
330
BDFA
100
AcDbEntity
  8
1
  6
Continuous
100
AcDbLine
 10
155.9081439999999
 20
190.0222369999999
 30
0.0
 11
154.1048739999999
 21
191.604507
 31
0.0
  0
LINE
  5
BF76
330
BDFA
100
AcDbEntity
  8
1
  6
Continuous
100
AcDbLine
 10
154.1048739999999
 20
190.0222369999999
 30
0.0
 11
155.9081439999999
 21
191.604507
 31
0.0
  0
LINE
  5
BF77
330
BDFA
100
AcDbEntity
  8
1
  6
Continuous
100
AcDbLine
 10
162.272106
 20
190.0222369999999
 30
0.0
 11
160.468835
 21
191.604507
 31
0.0
  0
LINE
  5
BF78
330
BDFA
100
AcDbEntity
  8
1
  6
Continuous
100
AcDbLine
 10
160.150785
 20
190.0222369999999
 30
0.0
 11
158.3475149999999
 21
191.604507
 31
0.0
  0
LINE
  5
BF79
330
BDFA
100
AcDbEntity
  8
1
  6
Continuous
100
AcDbLine
 10
160.468835
 20
190.0222369999999
 30
0.0
 11
162.272106
 21
191.604507
 31
0.0
  0
LINE
  5
BF7A
330
BDFA
100
AcDbEntity
  8
1
  6
Continuous
100
AcDbLine
 10
158.3475149999999
 20
190.0222369999999
 30
0.0
 11
160.150785
 21
191.604507
 31
0.0
  0
LINE
  5
BF7B
330
BDFA
100
AcDbEntity
  8
1
  6
Continuous
100
AcDbLine
 10
157.6494539999998
 20
195.4343279999999
 30
0.0
 11
157.6494539999998
 21
199.334308
 31
0.0
  0
LINE
  5
BF7C
330
BDFA
100
AcDbEntity
  8
1
  6
Continuous
100
AcDbLine
 10
163.1342809999999
 20
195.4343279999999
 30
0.0
 11
163.1342809999999
 21
199.334308
 31
0.0
  0
LINE
  5
BF7D
330
BDFA
100
AcDbEntity
  8
1
  6
Continuous
100
AcDbLine
 10
164.3934259999998
 20
190.0222369999999
 30
0.0
 11
162.590156
 21
191.604507
 31
0.0
  0
LINE
  5
BF7E
330
BDFA
100
AcDbEntity
  8
1
  6
Continuous
100
AcDbLine
 10
162.590156
 20
190.0222369999999
 30
0.0
 11
164.3934259999998
 21
191.604507
 31
0.0
  0
LINE
  5
BF7F
330
BDFA
100
AcDbEntity
  8
1
  6
Continuous
100
AcDbLine
 10
147.1646259999999
 20
214.334308
 30
0.0
 11
157.164626
 21
214.334308
 31
0.0
  0
LINE
  5
BF80
330
BDFA
100
AcDbEntity
  8
1
  6
Continuous
100
AcDbLine
 10
146.164626
 20
213.3343079999999
 30
0.0
 11
158.164626
 21
213.3343079999999
 31
0.0
  0
LINE
  5
BF81
330
BDFA
100
AcDbEntity
  8
1
  6
Continuous
100
AcDbLine
 10
147.1646259999999
 20
214.334308
 30
0.0
 11
146.164626
 21
213.3343079999999
 31
0.0
  0
LINE
  5
BF82
330
BDFA
100
AcDbEntity
  8
1
  6
Continuous
100
AcDbLine
 10
157.164626
 20
214.334308
 30
0.0
 11
158.164626
 21
213.3343079999999
 31
0.0
  0
ARC
  5
BF83
330
BDFA
100
AcDbEntity
  8
1
  6
Continuous
100
AcDbCircle
 10
152.164619
 20
276.217462
 30
0.0
 40
18.85
100
AcDbArc
 50
235.584371
 51
124.415629
  0
LINE
  5
BF84
330
BDFA
100
AcDbEntity
  8
1
  6
Continuous
100
AcDbLine
 10
110.760923
 20
266.217462
 30
0.0
 11
128.880348
 21
266.217462
 31
0.0
  0
ARC
  5
BF85
330
BDFA
100
AcDbEntity
  8
1
  6
Continuous
100
AcDbCircle
 10
143.1646259999999
 20
276.217462
 30
0.0
 40
35.0
100
AcDbArc
 50
165.301576
 51
194.698424
  0
ARC
  5
BF86
330
BDFA
100
AcDbEntity
  8
1
  6
Continuous
100
AcDbCircle
 10
110.760923
 20
267.717462
 30
0.0
 40
1.5
100
AcDbArc
 50
194.698424
 51
270.0
  0
LINE
  5
BF87
330
BDFA
100
AcDbEntity
  8
1
  6
Continuous
100
AcDbLine
 10
110.760923
 20
286.217462
 30
0.0
 11
129.019303
 21
286.217462
 31
0.0
  0
ARC
  5
BF88
330
BDFA
100
AcDbEntity
  8
1
  6
Continuous
100
AcDbCircle
 10
110.760923
 20
284.717462
 30
0.0
 40
1.5
100
AcDbArc
 50
90.0
 51
165.301576
  0
LINE
  5
BF89
330
BDFA
100
AcDbEntity
  8
1
  6
Continuous
100
AcDbLine
 10
124.525671
 20
264.717462
 30
0.0
 11
129.4563169999999
 21
264.717462
 31
0.0
  0
LINE
  5
BF8A
330
BDFA
100
AcDbEntity
  8
1
  6
Continuous
100
AcDbLine
 10
124.525671
 20
264.717462
 30
0.0
 11
124.525671
 21
266.217462
 31
0.0
  0
LINE
  5
BF8B
330
BDFA
100
AcDbEntity
  8
1
  6
Continuous
100
AcDbLine
 10
124.525671
 20
287.717462
 30
0.0
 11
124.525671
 21
286.217462
 31
0.0
  0
LINE
  5
BF8C
330
BDFA
100
AcDbEntity
  8
1
  6
Continuous
100
AcDbLine
 10
124.525671
 20
287.717462
 30
0.0
 11
129.4563169999999
 21
287.717462
 31
0.0
  0
LINE
  5
BF8D
330
BDFA
100
AcDbEntity
  8
4
  6
CENTER
100
AcDbLine
 10
133.1646189999998
 20
297.3174619999999
 30
0.0
 11
133.1646189999998
 21
247.7176619999999
 31
0.0
  0
ARC
  5
BF8E
330
BDFA
100
AcDbEntity
  8
1
  6
Continuous
100
AcDbCircle
 10
138.119597
 20
90.50985199999999
 30
0.0
 40
6.0
100
AcDbArc
 50
270.0
 51
304.415629
  0
ARC
  5
BF8F
330
BDFA
100
AcDbEntity
  8
1
  6
Continuous
100
AcDbCircle
 10
138.119597
 20
49.509372
 30
0.0
 40
6.0
100
AcDbArc
 50
55.58437099999999
 51
90.0
  0
ARC
  5
BF90
330
BDFA
100
AcDbEntity
  8
1
  6
Continuous
100
AcDbCircle
 10
138.119246
 20
90.50961200000001
 30
0.0
 40
8.0
100
AcDbArc
 50
270.0
 51
304.416608
  0
ARC
  5
BF91
330
BDFA
100
AcDbEntity
  8
1
  6
Continuous
100
AcDbCircle
 10
138.119246
 20
49.509612
 30
0.0
 40
8.0
100
AcDbArc
 50
55.583392
 51
90.0
  0
ARC
  5
BF92
330
BDFA
100
AcDbEntity
  8
1
  6
Continuous
100
AcDbCircle
 10
333.56178
 20
157.3342369999998
 30
0.0
 40
25.0
100
AcDbArc
 50
144.1619329999998
 51
80.219389
  0
ARC
  5
BF93
330
BDFA
100
AcDbEntity
  8
1
  6
Continuous
100
AcDbCircle
 10
333.56178
 20
157.3342369999998
 30
0.0
 40
17.5
100
AcDbArc
 50
153.524335
 51
72.62147500000001
  0
CIRCLE
  5
BF94
330
BDFA
100
AcDbEntity
  8
1
  6
Continuous
100
AcDbCircle
 10
333.56178
 20
157.3342369999998
 30
0.0
 40
4.25
  0
LINE
  5
BF95
330
BDFA
100
AcDbEntity
  8
2
  6
Continuous
100
AcDbLine
 10
42.542549
 20
214.010712
 30
0.0
 11
42.542549
 21
200.50601
 31
0.0
  0
LINE
  5
BF96
330
BDFA
100
AcDbEntity
  8
2
  6
Continuous
100
AcDbLine
 10
53.189549
 20
214.010712
 30
0.0
 11
53.189549
 21
200.50601
 31
0.0
  0
LINE
  5
BF97
330
BDFA
100
AcDbEntity
  8
2
  6
Continuous
100
AcDbLine
 10
146.841126
 20
214.010808
 30
0.0
 11
146.841126
 21
200.506106
 31
0.0
  0
LINE
  5
BF98
330
BDFA
100
AcDbEntity
  8
2
  6
Continuous
100
AcDbLine
 10
157.4881259999999
 20
214.010808
 30
0.0
 11
157.4881259999999
 21
200.506106
 31
0.0
  0
LINE
  5
BF99
330
BDFA
100
AcDbEntity
  8
2
  6
Continuous
100
AcDbLine
 10
228.0397029999999
 20
214.0107109999999
 30
0.0
 11
228.0397029999999
 21
200.506009
 31
0.0
  0
LINE
  5
BF9A
330
BDFA
100
AcDbEntity
  8
2
  6
Continuous
100
AcDbLine
 10
238.6867029999999
 20
214.0107109999999
 30
0.0
 11
238.6867029999999
 21
200.506009
 31
0.0
  0
CIRCLE
  5
BF9B
330
BDFA
100
AcDbEntity
  8
2
  6
Continuous
100
AcDbCircle
 10
152.164619
 20
276.217462
 30
0.0
 40
5.3235
  0
LINE
  5
BF9C
330
BDFA
100
AcDbEntity
  8
1
  6
Continuous
100
AcDbLine
 10
41.86601099999999
 20
200.50601
 30
0.0
 11
53.866011
 21
200.50601
 31
0.0
  0
LINE
  5
BF9D
330
BDFA
100
AcDbEntity
  8
2
  6
Continuous
100
AcDbLine
 10
41.86601099999999
 20
199.334212
 30
0.0
 11
42.542549
 21
200.50601
 31
0.0
  0
LINE
  5
BF9E
330
BDFA
100
AcDbEntity
  8
2
  6
Continuous
100
AcDbLine
 10
53.866011
 20
199.334212
 30
0.0
 11
53.189473
 21
200.50601
 31
0.0
  0
LINE
  5
BF9F
330
BDFA
100
AcDbEntity
  8
1
  6
Continuous
100
AcDbLine
 10
146.1645879999998
 20
200.506106
 30
0.0
 11
158.1645879999999
 21
200.506106
 31
0.0
  0
LINE
  5
BFA0
330
BDFA
100
AcDbEntity
  8
2
  6
Continuous
100
AcDbLine
 10
146.1645879999998
 20
199.334308
 30
0.0
 11
146.841126
 21
200.506106
 31
0.0
  0
LINE
  5
BFA1
330
BDFA
100
AcDbEntity
  8
2
  6
Continuous
100
AcDbLine
 10
158.1645879999999
 20
199.334308
 30
0.0
 11
157.4880499999999
 21
200.506106
 31
0.0
  0
LINE
  5
BFA2
330
BDFA
100
AcDbEntity
  8
1
  6
Continuous
100
AcDbLine
 10
227.363165
 20
200.506009
 30
0.0
 11
239.3631649999999
 21
200.506009
 31
0.0
  0
LINE
  5
BFA3
330
BDFA
100
AcDbEntity
  8
2
  6
Continuous
100
AcDbLine
 10
227.363165
 20
199.334211
 30
0.0
 11
228.0397029999999
 21
200.506009
 31
0.0
  0
LINE
  5
BFA4
330
BDFA
100
AcDbEntity
  8
2
  6
Continuous
100
AcDbLine
 10
239.3631649999999
 20
199.334211
 30
0.0
 11
238.686627
 21
200.506009
 31
0.0
  0
ARC
  5
BFA5
330
BDFA
100
AcDbEntity
  8
1
  6
Continuous
100
AcDbCircle
 10
65.012106
 20
137.1219259999998
 30
0.0
 40
1.0
100
AcDbArc
 50
97.370643
 51
135.3226
  0
LINE
  5
BFA6
330
BDFA
100
AcDbEntity
  8
1
  6
Continuous
100
AcDbLine
 10
65.472342
 20
169.941216
 30
0.0
 11
60.47234200000001
 21
169.941216
 31
0.0
  0
LINE
  5
BFA7
330
BDFA
100
AcDbEntity
  8
1
  6
Continuous
100
AcDbLine
 10
65.472342
 20
169.941216
 30
0.0
 11
60.47234200000001
 21
169.941216
 31
0.0
  0
LINE
  5
BFA8
330
BDFA
100
AcDbEntity
  8
1
  6
Continuous
100
AcDbLine
 10
65.472342
 20
171.941216
 30
0.0
 11
60.47234200000001
 21
171.941216
 31
0.0
  0
LINE
  5
BFA9
330
BDFA
100
AcDbEntity
  8
1
  6
Continuous
100
AcDbLine
 10
64.366049
 20
149.654907
 30
0.0
 11
67.363196
 21
149.654907
 31
0.0
  0
LINE
  5
BFAA
330
BDFA
100
AcDbEntity
  8
1
  6
Continuous
100
AcDbLine
 10
63.79228799999999
 20
148.78286
 30
0.0
 11
65.48921800000001
 21
148.2746659999999
 31
0.0
  0
LINE
  5
BFAB
330
BDFA
100
AcDbEntity
  8
1
  6
Continuous
100
AcDbLine
 10
65.472342
 20
167.0780179999999
 30
0.0
 11
60.47234200000001
 21
167.0780179999999
 31
0.0
  0
ARC
  5
BFAC
330
BDFA
100
AcDbEntity
  8
1
  6
Continuous
100
AcDbCircle
 10
64.60680299999999
 20
163.5413289999999
 30
0.0
 40
0.5
100
AcDbArc
 50
3.077856
 51
90.00000500000002
  0
LINE
  5
BFAD
330
BDFA
100
AcDbEntity
  8
1
  6
Continuous
100
AcDbLine
 10
64.366049
 20
164.0413289999998
 30
0.0
 11
66.915274
 21
164.0413289999998
 31
0.0
  0
LINE
  5
BFAE
330
BDFA
100
AcDbEntity
  8
1
  6
Continuous
100
AcDbLine
 10
67.84488499999999
 20
149.0992819999999
 30
0.0
 11
63.95801399999999
 21
136.7337879999998
 31
0.0
  0
LINE
  5
BFAF
330
BDFA
100
AcDbEntity
  8
1
  6
Continuous
100
AcDbLine
 10
65.489203
 20
148.2746659999999
 30
0.0
 11
62.05005500000001
 21
137.3335189999999
 31
0.0
  0
LINE
  5
BFB0
330
BDFA
100
AcDbEntity
  8
1
  6
Continuous
100
AcDbLine
 10
64.366049
 20
167.0780179999999
 30
0.0
 11
64.366049
 21
149.654907
 31
0.0
  0
LINE
  5
BFB1
330
BDFA
100
AcDbEntity
  8
1
  6
Continuous
100
AcDbLine
 10
62.36604899999999
 20
159.4761049999999
 30
0.0
 11
62.36604899999999
 21
150.6987839999999
 31
0.0
  0
ARC
  5
BFB2
330
BDFA
100
AcDbEntity
  8
1
  6
Continuous
100
AcDbCircle
 10
64.366049
 20
150.6987839999999
 30
0.0
 40
2.0
100
AcDbArc
 50
179.999997
 51
253.3282509999999
  0
LINE
  5
BFB3
330
BDFA
100
AcDbEntity
  8
1
  6
Continuous
100
AcDbLine
 10
63.95801399999999
 20
136.7337879999998
 30
0.0
 11
62.05005500000001
 21
137.3335189999999
 31
0.0
  0
LINE
  5
BFB4
330
BDFA
100
AcDbEntity
  8
1
  6
Continuous
100
AcDbLine
 10
63.40444
 20
148.8990019999999
 30
0.0
 11
61.98283299999999
 21
137.119667
 31
0.0
  0
ARC
  5
BFB5
330
BDFA
100
AcDbEntity
  8
1
  6
Continuous
100
AcDbCircle
 10
60.47234200000001
 20
169.941216
 30
0.0
 40
2.0
100
AcDbArc
 50
90.00000500000002
 51
180.0000009999999
  0
LINE
  5
BFB6
330
BDFA
100
AcDbEntity
  8
1
  6
Continuous
100
AcDbLine
 10
59.472342
 20
159.4761049999999
 30
0.0
 11
62.36604899999999
 21
159.4761049999999
 31
0.0
  0
LINE
  5
BFB7
330
BDFA
100
AcDbEntity
  8
1
  6
Continuous
100
AcDbLine
 10
60.47234200000001
 20
159.9761049999999
 30
0.0
 11
63.366049
 21
159.9761049999999
 31
0.0
  0
ARC
  5
BFB8
330
BDFA
100
AcDbEntity
  8
1
  6
Continuous
100
AcDbCircle
 10
59.472342
 20
160.476105
 30
0.0
 40
1.0
100
AcDbArc
 50
179.999997
 51
269.9999969999999
  0
ARC
  5
BFB9
330
BDFA
100
AcDbEntity
  8
1
  6
Continuous
100
AcDbCircle
 10
63.366049
 20
158.9761049999999
 30
0.0
 40
1.0
100
AcDbArc
 50
0.000003
 51
90.00000500000002
  0
LINE
  5
BFBA
330
BDFA
100
AcDbEntity
  8
1
  6
Continuous
100
AcDbLine
 10
60.47234200000001
 20
169.941216
 30
0.0
 11
60.47234200000001
 21
159.9761049999999
 31
0.0
  0
LINE
  5
BFBB
330
BDFA
100
AcDbEntity
  8
1
  6
Continuous
100
AcDbLine
 10
58.47234199999999
 20
169.941216
 30
0.0
 11
58.47234199999999
 21
160.476105
 31
0.0
  0
ARC
  5
BFBC
330
BDFA
100
AcDbEntity
  8
1
  6
Continuous
100
AcDbCircle
 10
215.7569169999999
 20
188.4344259999998
 30
0.0
 40
19.356407
100
AcDbArc
 50
255.410175
 51
266.3160179999999
  0
LINE
  5
BFBD
330
BDFA
100
AcDbEntity
  8
1
  6
Continuous
100
AcDbLine
 10
210.2569169999999
 20
170.509621
 30
0.0
 11
210.2569169999999
 21
169.0780259999999
 31
0.0
  0
LINE
  5
BFBE
330
BDFA
100
AcDbEntity
  8
5
  6
PHANTOM
100
AcDbLine
 10
119.312118
 20
158.644303
 30
0.0
 11
123.0762169999999
 21
159.724107
 31
0.0
  0
ARC
  5
BFBF
330
BDFA
100
AcDbEntity
  8
1
  6
Continuous
100
AcDbCircle
 10
121.6620929999999
 20
171.6137019999998
 30
0.0
 40
4.93677
100
AcDbArc
 50
251.7994349999999
 51
284.6765299999999
  0
ARC
  5
BFC0
330
BDFA
100
AcDbEntity
  8
5
  6
PHANTOM
100
AcDbCircle
 10
459.239837
 20
-896.617057
 30
0.0
 40
1096.410278
100
AcDbArc
 50
107.688082
 51
107.9409899999999
  0
ARC
  5
BFC1
330
BDFA
100
AcDbEntity
  8
1
  6
Continuous
100
AcDbCircle
 10
108.907211
 20
121.4790889999999
 30
0.0
 40
35.431274
100
AcDbArc
 50
59.45394900000001
 51
68.68807700000001
  0
ARC
  5
BFC2
330
BDFA
100
AcDbEntity
  8
1
  6
Continuous
100
AcDbCircle
 10
117.27948
 20
84.50985199999998
 30
0.0
 40
2.0
100
AcDbArc
 50
90.00000300000001
 51
153.4156519999999
  0
ARC
  5
BFC3
330
BDFA
100
AcDbEntity
  8
1
  6
Continuous
100
AcDbCircle
 10
116.216629
 20
82.61614499999998
 30
0.0
 40
2.0
100
AcDbArc
 50
269.9999969999999
 51
333.4156469999999
  0
LINE
  5
BFC4
330
BDFA
100
AcDbEntity
  8
1
  6
Continuous
100
AcDbLine
 10
117.221878
 20
84.50984400000001
 30
0.0
 11
115.826325
 21
81.72109499999997
 31
0.0
  0
LINE
  5
BFC5
330
BDFA
100
AcDbEntity
  8
1
  6
Continuous
100
AcDbLine
 10
115.490921
 20
85.40487199999999
 30
0.0
 11
114.095383
 21
82.61613699999998
 31
0.0
  0
LINE
  5
BFC6
330
BDFA
100
AcDbEntity
  8
1
  6
Continuous
100
AcDbLine
 10
105.899826
 20
80.61614500000002
 30
0.0
 11
105.899826
 21
87.61614499999996
 31
0.0
  0
ARC
  5
BFC7
330
BDFA
100
AcDbEntity
  8
1
  6
Continuous
100
AcDbCircle
 10
111.399826
 20
87.61614499999996
 30
0.0
 40
5.5
100
AcDbArc
 50
0.0
 51
180.000005
  0
ARC
  5
BFC8
330
BDFA
100
AcDbEntity
  8
1
  6
Continuous
100
AcDbCircle
 10
114.037781
 20
82.61614499999998
 30
0.0
 40
2.0
100
AcDbArc
 50
269.9999969999999
 51
333.4156469999999
  0
LINE
  5
BFC9
330
BDFA
100
AcDbEntity
  8
1
  6
Continuous
100
AcDbLine
 10
107.3939519999999
 20
80.61614500000002
 30
0.0
 11
107.3939519999999
 21
82.61614499999998
 31
0.0
  0
LINE
  5
BFCA
330
BDFA
100
AcDbEntity
  8
1
  6
Continuous
100
AcDbLine
 10
105.899826
 20
80.61614500000002
 30
0.0
 11
116.216629
 21
80.61614500000002
 31
0.0
  0
LINE
  5
BFCB
330
BDFA
100
AcDbEntity
  8
1
  6
Continuous
100
AcDbLine
 10
105.899826
 20
82.61614499999998
 30
0.0
 11
114.095383
 21
82.61614499999998
 31
0.0
  0
LINE
  5
BFCC
330
BDFA
100
AcDbEntity
  8
1
  6
Continuous
100
AcDbLine
 10
116.9591529999999
 20
86.50985199999999
 30
0.0
 11
116.9591529999999
 21
87.61614499999996
 31
0.0
  0
LINE
  5
BFCD
330
BDFA
100
AcDbEntity
  8
1
  6
Continuous
100
AcDbLine
 10
67.84488499999999
 20
151.5605379999998
 30
0.0
 11
67.84488499999999
 21
149.099289
 31
0.0
  0
ARC
  5
BFCE
330
BDFA
100
AcDbEntity
  8
1
  6
Continuous
100
AcDbCircle
 10
69.876227
 20
145.152466
 30
0.0
 40
6.340179
100
AcDbArc
 50
277.370682
 51
309.623304
  0
LINE
  5
BFCF
330
BDFA
100
AcDbEntity
  8
1
  6
Continuous
100
AcDbLine
 10
75.376227
 20
144.545525
 30
0.0
 11
75.376227
 21
143.3660509999999
 31
0.0
  0
ARC
  5
BFD0
330
BDFA
100
AcDbEntity
  8
1
  6
Continuous
100
AcDbCircle
 10
71.355307
 20
144.545525
 30
0.0
 40
4.020926
100
AcDbArc
 50
351.566194
 51
50.37669799999999
  0
ARC
  5
BFD1
330
BDFA
100
AcDbEntity
  8
1
  6
Continuous
100
AcDbCircle
 10
71.355307
 20
143.3660509999999
 30
0.0
 40
4.020926
100
AcDbArc
 50
309.623304
 51
61.115504
  0
LINE
  5
BFD2
330
BDFA
100
AcDbEntity
  8
1
  6
Continuous
100
AcDbLine
 10
67.47414300000001
 20
147.919815
 30
0.0
 11
69.876227
 21
147.919815
 31
0.0
  0
LINE
  5
BFD3
330
BDFA
100
AcDbEntity
  8
1
  6
Continuous
100
AcDbLine
 10
67.84488499999999
 20
149.099289
 30
0.0
 11
69.876227
 21
149.099289
 31
0.0
  0
ARC
  5
BFD4
330
BDFA
100
AcDbEntity
  8
1
  6
Continuous
100
AcDbCircle
 10
67.363196
 20
149.17321
 30
0.0
 40
0.481696
100
AcDbArc
 50
342.5503990000001
 51
90.00000500000002
  0
LINE
  5
BFD5
330
BDFA
100
AcDbEntity
  8
1
  6
Continuous
100
AcDbLine
 10
64.883826
 20
138.1136549999999
 30
0.0
 11
70.68959699999997
 21
138.86467
 31
0.0
  0
ARC
  5
BFD6
330
BDFA
100
AcDbEntity
  8
1
  6
Continuous
100
AcDbCircle
 10
69.876227
 20
141.5796359999999
 30
0.0
 40
6.340179
100
AcDbArc
 50
50.37669799999999
 51
90.00000500000002
  0
ARC
  5
BFD7
330
BDFA
100
AcDbEntity
  8
1
  6
Continuous
100
AcDbCircle
 10
69.876227
 20
142.7591099999999
 30
0.0
 40
6.340179
100
AcDbArc
 50
50.37669799999999
 51
90.00000500000002
  0
ARC
  5
BFD8
330
BDFA
100
AcDbEntity
  8
1
  6
Continuous
100
AcDbCircle
 10
65.472342
 20
150.584809
 30
0.0
 40
19.356407
100
AcDbArc
 50
75.41017499999998
 51
90.00000500000002
  0
ARC
  5
BFD9
330
BDFA
100
AcDbEntity
  8
1
  6
Continuous
100
AcDbCircle
 10
65.472342
 20
152.584809
 30
0.0
 40
19.356407
100
AcDbArc
 50
75.41017499999998
 51
90.00000500000002
  0
ARC
  5
BFDA
330
BDFA
100
AcDbEntity
  8
1
  6
Continuous
100
AcDbCircle
 10
70.138007
 20
170.509613
 30
0.0
 40
0.834336
100
AcDbArc
 50
0.000003
 51
75.41017499999998
  0
ARC
  5
BFDB
330
BDFA
100
AcDbEntity
  8
1
  6
Continuous
100
AcDbCircle
 10
65.472342
 20
186.434426
 30
0.0
 40
19.356407
100
AcDbArc
 50
269.9999969999999
 51
284.589829
  0
ARC
  5
BFDC
330
BDFA
100
AcDbEntity
  8
1
  6
Continuous
100
AcDbCircle
 10
66.915274
 20
163.5413289999999
 30
0.0
 40
0.5
100
AcDbArc
 50
3.077856
 51
90.00000500000002
  0
LINE
  5
BFDD
330
BDFA
100
AcDbEntity
  8
1
  6
Continuous
100
AcDbLine
 10
65.106085
 20
163.5681759999999
 30
0.0
 11
65.113298
 21
163.4340379999999
 31
0.0
  0
LINE
  5
BFDE
330
BDFA
100
AcDbEntity
  8
1
  6
Continuous
100
AcDbLine
 10
67.41455699999999
 20
163.5681759999999
 30
0.0
 11
67.43932700000001
 21
163.1075379999998
 31
0.0
  0
LINE
  5
BFDF
330
BDFA
100
AcDbEntity
  8
1
  6
Continuous
100
AcDbLine
 10
70.97234199999999
 20
170.509613
 30
0.0
 11
70.97234199999999
 21
168.5096129999998
 31
0.0
  0
ARC
  5
BFE0
330
BDFA
100
AcDbEntity
  8
1
  6
Continuous
100
AcDbCircle
 10
70.138007
 20
168.5096129999998
 30
0.0
 40
0.834336
100
AcDbArc
 50
284.589829
 51
75.41017499999998
  0
LINE
  5
BFE1
330
BDFA
100
AcDbEntity
  8
1
  6
Continuous
100
AcDbLine
 10
118.9802999999999
 20
167.355943
 30
0.0
 11
115.083312
 21
156.8265539999999
 31
0.0
  0
ARC
  5
BFE2
330
BDFA
100
AcDbEntity
  8
5
  6
PHANTOM
100
AcDbCircle
 10
115.23912
 20
161.1926809999999
 30
0.0
 40
4.93677
100
AcDbArc
 50
290.799433
 51
323.676531
  0
ARC
  5
BFE3
330
BDFA
100
AcDbEntity
  8
1
  6
Continuous
100
AcDbCircle
 10
105.5099019999999
 20
136.206033
 30
0.0
 40
22.719694
100
AcDbArc
 50
65.227289
 51
72.51581100000001
  0
ARC
  5
BFE4
330
BDFA
100
AcDbEntity
  8
5
  6
PHANTOM
100
AcDbCircle
 10
-1788.187012
 20
-4923.843986
 30
0.0
 40
5415.550781
100
AcDbArc
 50
69.50158
 51
69.53411200000001
  0
LINE
  5
BFE5
330
BDFA
100
AcDbEntity
  8
5
  6
PHANTOM
100
AcDbLine
 10
104.059875
 20
150.1721349999999
 30
0.0
 11
114.5244589999999
 21
154.8328559999999
 31
0.0
  0
LINE
  5
BFE6
330
BDFA
100
AcDbEntity
  8
5
  6
PHANTOM
100
AcDbLine
 10
103.504958
 20
152.112237
 30
0.0
 11
113.729827
 21
156.707909
 31
0.0
  0
LINE
  5
BFE7
330
BDFA
100
AcDbEntity
  8
5
  6
PHANTOM
100
AcDbLine
 10
103.504974
 20
152.112237
 30
0.0
 11
104.1032399999999
 21
150.020562
 31
0.0
  0
ARC
  5
BFE8
330
BDFA
100
AcDbEntity
  8
5
  6
PHANTOM
100
AcDbCircle
 10
104.450927
 20
147.44925
 30
0.0
 40
2.594708999999999
100
AcDbArc
 50
69.53411200000001
 51
97.70087700000001
  0
ARC
  5
BFE9
330
BDFA
100
AcDbEntity
  8
5
  6
PHANTOM
100
AcDbCircle
 10
115.6734919999999
 20
158.631562
 30
0.0
 40
2.440793999999999
100
AcDbArc
 50
271.258398
 51
302.701659
  0
LINE
  5
BFEA
330
BDFA
100
AcDbEntity
  8
5
  6
PHANTOM
100
AcDbLine
 10
114.5244589999999
 20
154.8328479999999
 30
0.0
 11
113.896056
 21
156.7106029999998
 31
0.0
  0
ARC
  5
BFEB
330
BDFA
100
AcDbEntity
  8
5
  6
PHANTOM
100
AcDbCircle
 10
114.3748159999999
 20
154.974641
 30
0.0
 40
1.038931
100
AcDbArc
 50
70.09784200000002
 51
103.151006
  0
ARC
  5
BFEC
330
BDFA
100
AcDbEntity
  8
5
  6
PHANTOM
100
AcDbCircle
 10
116.0645289999999
 20
152.5874639999998
 30
0.0
 40
3.619658999999998
100
AcDbArc
 50
95.34903100000002
 51
111.6606219999999
  0
ARC
  5
BFED
330
BDFA
100
AcDbEntity
  8
1
  6
Continuous
100
AcDbCircle
 10
-276.7003639999999
 20
-866.9455479999996
 30
0.0
 40
1096.410278
100
AcDbArc
 50
68.68807700000001
 51
68.940993
  0
ARC
  5
BFEE
330
BDFA
100
AcDbEntity
  8
1
  6
Continuous
100
AcDbCircle
 10
113.3554379999998
 20
146.064988
 30
0.0
 40
10.8994
100
AcDbArc
 50
68.940993
 51
81.16270799999998
  0
ARC
  5
BFEF
330
BDFA
100
AcDbEntity
  8
5
  6
PHANTOM
100
AcDbCircle
 10
124.861968
 20
136.1100629999999
 30
0.0
 40
10.8994
100
AcDbArc
 50
107.9409899999999
 51
120.162712
  0
ARC
  5
BFF0
330
BDFA
100
AcDbEntity
  8
5
  6
PHANTOM
100
AcDbCircle
 10
124.969283
 20
123.5108569999999
 30
0.0
 40
22.719694
100
AcDbArc
 50
104.227287
 51
111.515809
  0
ARC
  5
BFF1
330
BDFA
100
AcDbEntity
  8
5
  6
PHANTOM
100
AcDbCircle
 10
106.775436
 20
169.661294
 30
0.0
 40
26.88754799999999
100
AcDbArc
 50
287.720507
 51
291.5158109999999
  0
ARC
  5
BFF2
330
BDFA
100
AcDbEntity
  8
5
  6
PHANTOM
100
AcDbCircle
 10
105.8788749999998
 20
142.4909979999999
 30
0.0
 40
6.739846
100
AcDbArc
 50
25.095239
 51
69.50158
  0
ARC
  5
BFF3
330
BDFA
100
AcDbEntity
  8
5
  6
PHANTOM
100
AcDbCircle
 10
114.210479
 20
146.3929599999999
 30
0.0
 40
2.460205999999999
100
AcDbArc
 50
205.095244
 51
287.720507
  0
LINE
  5
BFF4
330
BDFA
100
AcDbEntity
  8
5
  6
PHANTOM
100
AcDbLine
 10
115.8344719999999
 20
156.196076
 30
0.0
 11
119.432296
 21
145.560754
 31
0.0
  0
ARC
  5
BFF5
330
BDFA
100
AcDbEntity
  8
1
  6
Continuous
100
AcDbCircle
 10
104.6290579999999
 20
167.722283
 30
0.0
 40
2.594708999999999
100
AcDbArc
 50
30.53411500000001
 51
58.700872
  0
LINE
  5
BFF6
330
BDFA
100
AcDbEntity
  8
1
  6
Continuous
100
AcDbLine
 10
106.828429
 20
171.9414149999998
 30
0.0
 11
105.977035
 21
169.939378
 31
0.0
  0
LINE
  5
BFF7
330
BDFA
100
AcDbEntity
  8
1
  6
Continuous
100
AcDbLine
 10
106.0387259999999
 20
170.084451
 30
0.0
 11
117.104324
 21
167.120934
 31
0.0
  0
LINE
  5
BFF8
330
BDFA
100
AcDbEntity
  8
5
  6
PHANTOM
100
AcDbLine
 10
119.3121029999999
 20
158.644303
 30
0.0
 11
119.2166129999999
 21
158.268426
 31
0.0
  0
ARC
  5
BFF9
330
BDFA
100
AcDbEntity
  8
1
  6
Continuous
100
AcDbCircle
 10
117.6130669999998
 20
168.8748329999999
 30
0.0
 40
0.210357
100
AcDbArc
 50
28.650816
 51
75.20206299999998
  0
ARC
  5
BFFA
330
BDFA
100
AcDbEntity
  8
1
  6
Continuous
100
AcDbCircle
 10
116.888107
 20
164.4067469999999
 30
0.0
 40
3.619658999999998
100
AcDbArc
 50
56.349033
 51
72.66062499999998
  0
ARC
  5
BFFB
330
BDFA
100
AcDbEntity
  8
1
  6
Continuous
100
AcDbCircle
 10
117.0772549999999
 20
167.3253029999998
 30
0.0
 40
1.038931
100
AcDbArc
 50
31.097841
 51
64.15100799999999
  0
LINE
  5
BFFC
330
BDFA
100
AcDbEntity
  8
1
  6
Continuous
100
AcDbLine
 10
117.104324
 20
167.120934
 30
0.0
 11
117.7976679999999
 21
168.975694
 31
0.0
  0
ARC
  5
BFFD
330
BDFA
100
AcDbEntity
  8
1
  6
Continuous
100
AcDbCircle
 10
120.3878929999999
 20
169.349984
 30
0.0
 40
2.440793999999999
100
AcDbArc
 50
232.2584009999999
 51
263.7016609999998
  0
ARC
  5
BFFE
330
BDFA
100
AcDbEntity
  8
1
  6
Continuous
100
AcDbCircle
 10
111.5489189999999
 20
160.759507
 30
0.0
 40
2.460205999999999
100
AcDbArc
 50
166.0952429999998
 51
248.7204919999999
  0
ARC
  5
BFFF
330
BDFA
100
AcDbEntity
  8
1
  6
Continuous
100
AcDbCircle
 10
120.4140309999999
 20
183.521417
 30
0.0
 40
26.88754799999999
100
AcDbArc
 50
248.720502
 51
252.5158129999999
  0
ARC
  5
C000
330
BDFA
100
AcDbEntity
  8
1
  6
Continuous
100
AcDbCircle
 10
102.618453
 20
162.9703609999999
 30
0.0
 40
6.739846
100
AcDbArc
 50
346.095239
 51
30.501579
  0
ARC
  5
C001
330
BDFA
100
AcDbEntity
  8
1
  6
Continuous
100
AcDbCircle
 10
-4557.695190999999
 20
-2582.33715
 30
0.0
 40
5415.550781
100
AcDbArc
 50
30.501579
 51
30.53411500000001
  0
LINE
  5
C002
330
BDFA
100
AcDbEntity
  8
1
  6
Continuous
100
AcDbLine
 10
106.828429
 20
171.9414149999998
 30
0.0
 11
117.666793
 21
169.07821
 31
0.0
  0
LWPOLYLINE
  5
C003
330
BDFA
100
AcDbEntity
  8
1
  6
Continuous
100
AcDbPolyline
 90
        2
 70
     0
 43
0.0
 10
148.983353
 20
86.73414099999998
 10
149.519837
 20
83.91758199999998
  0
LINE
  5
C007
330
BDFA
100
AcDbEntity
  8
1
  6
Continuous
100
AcDbLine
 10
139.7997589999999
 20
88.09226499999999
 30
0.0
 11
161.738999
 21
84.84773500000001
 31
0.0
  0
LINE
  5
C008
330
BDFA
100
AcDbEntity
  8
1
  6
Continuous
100
AcDbLine
 10
140.647278
 20
89.98867999999999
 30
0.0
 11
162.031586
 21
86.82622
 31
0.0
  0
LINE
  5
C009
330
BDFA
100
AcDbEntity
  8
1
  6
Continuous
100
AcDbLine
 10
119.4007269999999
 20
84.50984400000001
 30
0.0
 11
118.0051879999999
 21
81.72110999999999
 31
0.0
  0
LINE
  5
C00A
330
BDFA
100
AcDbEntity
  8
1
  6
Continuous
100
AcDbLine
 10
117.221878
 20
84.50985199999998
 30
0.0
 11
138.119597
 21
84.50985199999998
 31
0.0
  0
LINE
  5
C00B
330
BDFA
100
AcDbEntity
  8
1
  6
Continuous
100
AcDbLine
 10
117.27948
 20
86.50985199999999
 30
0.0
 11
136.341126
 21
86.50985199999999
 31
0.0
  0
LWPOLYLINE
  5
C00C
330
BDFA
100
AcDbEntity
  8
1
  6
Continuous
100
AcDbPolyline
 90
        2
 70
     0
 43
0.0
 10
140.1840819999999
 20
85.40044599999998
 10
141.802887
 20
87.828654
  0
ARC
  5
C010
330
BDFA
100
AcDbEntity
  8
1
  6
Continuous
100
AcDbCircle
 10
140.040055
 20
87.55129499999998
 30
0.0
 40
0.5
100
AcDbArc
 50
81.58765499999999
 51
146.309933
  0
ARC
  5
C011
330
BDFA
100
AcDbEntity
  8
1
  6
Continuous
100
AcDbCircle
 10
136.341126
 20
86.50985199999999
 30
0.0
 40
2.0
100
AcDbArc
 50
269.9999969999999
 51
326.309931
  0
LWPOLYLINE
  5
C012
330
BDFA
100
AcDbEntity
  8
1
  6
Continuous
100
AcDbPolyline
 90
        2
 70
     0
 43
0.0
 10
136.341126
 20
86.50985199999999
 10
137.823746
 20
88.73378999999998
  0
LWPOLYLINE
  5
C016
330
BDFA
100
AcDbEntity
  8
1
  6
Continuous
100
AcDbPolyline
 90
        2
 70
     0
 43
0.0
 10
138.0052339999998
 20
85.40044599999998
 10
139.7997739999998
 20
88.09226499999999
  0
ARC
  5
C01A
330
BDFA
100
AcDbEntity
  8
1
  6
Continuous
100
AcDbCircle
 10
138.519974
 20
86.50985199999999
 30
0.0
 40
2.0
100
AcDbArc
 50
269.9999969999999
 51
326.309931
  0
LWPOLYLINE
  5
C01B
330
BDFA
100
AcDbEntity
  8
1
  6
Continuous
100
AcDbPolyline
 90
       18
 70
     0
 43
0.0
 10
137.823731
 20
88.73375899999997
 10
137.939728
 20
88.884821
 10
138.064896
 20
89.02837599999998
 10
138.198731
 20
89.16387399999996
 10
138.3407899999999
 20
89.29082699999998
 10
138.490418
 20
89.408671
 10
138.647095
 20
89.51699299999999
 10
138.810227
 20
89.61538199999997
 10
138.9791419999999
 20
89.70340999999995
 10
139.153183
 20
89.78077199999999
 10
139.331757
 20
89.847178
 10
139.5140539999999
 20
89.90233899999998
 10
139.699433
 20
89.946055
 10
139.887177
 20
89.97816
 10
140.0765989999999
 20
89.99854499999996
 10
140.266877
 20
90.00710500000002
 10
140.4573059999999
 20
90.003825
 10
140.6472629999998
 20
89.98868799999998
  0
ARC
  5
C02F
330
BDFA
100
AcDbEntity
  8
1
  6
Continuous
100
AcDbCircle
 10
161.5612639999999
 20
86.89577699999999
 30
0.0
 40
2.0
100
AcDbArc
 50
261.5876559999999
 51
351.5876549999999
  0
ARC
  5
C030
330
BDFA
100
AcDbEntity
  8
1
  6
Continuous
100
AcDbCircle
 10
160.0472719999999
 20
94.791377
 30
0.0
 40
2.909844999999998
100
AcDbArc
 50
23.929797
 51
136.0702089999997
  0
ARC
  5
C031
330
BDFA
100
AcDbEntity
  8
1
  6
Continuous
100
AcDbCircle
 10
163.389237
 20
91.57198599999999
 30
0.0
 40
7.550231
100
AcDbArc
 50
136.0702089999997
 51
170.7781019999998
  0
ARC
  5
C032
330
BDFA
100
AcDbEntity
  8
1
  6
Continuous
100
AcDbCircle
 10
161.060807
 20
94.64149
 30
0.0
 40
2.909844999999998
100
AcDbArc
 50
23.929797
 51
81.58765499999999
  0
ARC
  5
C033
330
BDFA
100
AcDbEntity
  8
1
  6
Continuous
100
AcDbCircle
 10
156.819306
 20
92.75927199999999
 30
0.0
 40
7.550231
100
AcDbArc
 50
352.7213919999999
 51
23.929797
  0
LINE
  5
C034
330
BDFA
100
AcDbEntity
  8
1
  6
Continuous
100
AcDbLine
 10
162.5993499999998
 20
87.24769100000001
 30
0.0
 11
163.295151
 21
91.95259300000001
 31
0.0
  0
ARC
  5
C035
330
BDFA
100
AcDbEntity
  8
1
  6
Continuous
100
AcDbCircle
 10
162.104737
 20
87.32084099999999
 30
0.0
 40
0.5
100
AcDbArc
 50
261.5876559999999
 51
351.5876549999999
  0
LINE
  5
C036
330
BDFA
100
AcDbEntity
  8
1
  6
Continuous
100
AcDbLine
 10
163.539749
 20
86.60317499999996
 30
0.0
 11
164.3087399999998
 21
91.80305000000002
 31
0.0
  0
ARC
  5
C037
330
BDFA
100
AcDbEntity
  8
1
  6
Continuous
100
AcDbCircle
 10
155.8057559999998
 20
92.90915899999999
 30
0.0
 40
7.550231
100
AcDbArc
 50
352.7213919999999
 51
23.929797
  0
LINE
  5
C038
330
BDFA
100
AcDbEntity
  8
1
  6
Continuous
100
AcDbLine
 10
160.4729769999999
 20
97.669917
 30
0.0
 11
161.486512
 21
97.52002199999999
 31
0.0
  0
LWPOLYLINE
  5
C039
330
BDFA
100
AcDbEntity
  8
1
  6
Continuous
100
AcDbPolyline
 90
        2
 70
     0
 43
0.0
 10
151.565842
 20
86.35221300000003
 10
150.7273869999999
 20
83.83684800000002
  0
LWPOLYLINE
  5
C03D
330
BDFA
100
AcDbEntity
  8
1
  6
Continuous
100
AcDbPolyline
 90
        2
 70
     0
 43
0.0
 10
152.5793919999999
 20
86.20232599999999
 10
151.7409209999998
 20
83.68694599999997
  0
ARC
  5
C041
330
BDFA
100
AcDbEntity
  8
1
  6
Continuous
100
AcDbCircle
 10
150.13414
 20
84.03458699999999
 30
0.0
 40
0.625342
100
AcDbArc
 50
190.7843039999999
 51
341.5650509999999
  0
LINE
  5
C042
330
BDFA
100
AcDbEntity
  8
1
  6
Continuous
100
AcDbLine
 10
150.042649
 20
83.41597199999998
 30
0.0
 11
151.056198
 21
83.266085
 31
0.0
  0
ARC
  5
C043
330
BDFA
100
AcDbEntity
  8
1
  6
Continuous
100
AcDbCircle
 10
151.1476749999999
 20
83.884699
 30
0.0
 40
0.625342
100
AcDbArc
 50
261.5876559999999
 51
341.5650509999999
  0
LINE
  5
C044
330
BDFA
100
AcDbEntity
  8
1
  6
Continuous
100
AcDbLine
 10
155.2043459999999
 20
87.835879
 30
0.0
 11
155.920227
 21
92.676554
 31
0.0
  0
LINE
  5
C045
330
BDFA
100
AcDbEntity
  8
1
  6
Continuous
100
AcDbLine
 10
154.7288049999998
 20
159.225068
 30
0.0
 11
153.3648059999999
 21
155.513436
 31
0.0
  0
LINE
  5
C046
330
BDFA
100
AcDbEntity
  8
1
  6
Continuous
100
AcDbLine
 10
153.3648059999999
 20
155.513421
 30
0.0
 11
155.5083919999999
 21
154.509599
 31
0.0
  0
ARC
  5
C047
330
BDFA
100
AcDbEntity
  8
5
  6
PHANTOM
100
AcDbCircle
 10
155.484298
 20
166.6622859999999
 30
0.0
 40
1.414184999999997
100
AcDbArc
 50
184.9331399999999
 51
286.3461699999998
  0
ARC
  5
C048
330
BDFA
100
AcDbEntity
  8
1
  6
Continuous
100
AcDbCircle
 10
151.5886379999998
 20
160.152207
 30
0.0
 40
3.187289999999998
100
AcDbArc
 50
24.02594
 51
70.284901
  0
LINE
  5
C049
330
BDFA
100
AcDbEntity
  8
1
  6
Continuous
100
AcDbLine
 10
144.3960109999999
 20
163.1231159999998
 30
0.0
 11
154.7288049999998
 21
159.22506
 31
0.0
  0
ARC
  5
C04A
330
BDFA
100
AcDbEntity
  8
1
  6
Continuous
100
AcDbCircle
 10
177.9001609999999
 20
192.887628
 30
0.0
 40
56.58425499999999
100
AcDbArc
 50
237.84417
 51
247.0983529999998
  0
ARC
  5
C04B
330
BDFA
100
AcDbEntity
  8
5
  6
PHANTOM
100
AcDbCircle
 10
145.5561969999999
 20
213.117394
 30
0.0
 40
56.58425499999999
100
AcDbArc
 50
276.844168
 51
286.0983499999999
  0
ARC
  5
C04C
330
BDFA
100
AcDbEntity
  8
1
  6
Continuous
100
AcDbCircle
 10
155.747863
 20
318.9747399999999
 30
0.0
 40
171.423233
100
AcDbArc
 50
263.532088
 51
264.8760509999998
  0
ARC
  5
C04D
330
BDFA
100
AcDbEntity
  8
5
  6
PHANTOM
100
AcDbCircle
 10
128.7661129999999
 20
173.0672619999998
 30
0.0
 40
23.93382099999999
100
AcDbArc
 50
287.737541
 51
299.683153
  0
ARC
  5
C04E
330
BDFA
100
AcDbEntity
  8
5
  6
PHANTOM
100
AcDbCircle
 10
127.575286
 20
176.790231
 30
0.0
 40
27.842596
100
AcDbArc
 50
278.453948
 51
287.737541
  0
ARC
  5
C04F
330
BDFA
100
AcDbEntity
  8
1
  6
Continuous
100
AcDbCircle
 10
136.385482
 20
151.3136379999999
 30
0.0
 40
2.671529999999997
100
AcDbArc
 50
256.74801
 51
271.11771
  0
ARC
  5
C050
330
BDFA
100
AcDbEntity
  8
1
  6
Continuous
100
AcDbCircle
 10
139.6474599999999
 20
172.3291709999998
 30
0.0
 40
23.93382099999999
100
AcDbArc
 50
248.737537
 51
260.6831549999998
  0
ARC
  5
C051
330
BDFA
100
AcDbEntity
  8
1
  6
Continuous
100
AcDbCircle
 10
255.052886
 20
115.140107
 30
0.0
 40
123.5627139999998
100
AcDbArc
 50
162.1740479999999
 51
164.262006
  0
ARC
  5
C052
330
BDFA
100
AcDbEntity
  8
5
  6
PHANTOM
100
AcDbCircle
 10
136.877456
 20
114.2038659999999
 30
0.0
 40
35.431274
100
AcDbArc
 50
98.453946
 51
107.688082
  0
ARC
  5
C053
330
BDFA
100
AcDbEntity
  8
1
  6
Continuous
100
AcDbCircle
 10
141.0649409999998
 20
175.971871
 30
0.0
 40
27.842596
100
AcDbArc
 50
239.45395
 51
248.737537
  0
ARC
  5
C054
330
BDFA
100
AcDbEntity
  8
5
  6
PHANTOM
100
AcDbCircle
 10
48.99143099999999
 20
297.16459
 30
0.0
 40
171.423233
100
AcDbArc
 50
302.5320859999999
 51
303.876052
  0
ARC
  5
C055
330
BDFA
100
AcDbEntity
  8
5
  6
PHANTOM
100
AcDbCircle
 10
139.4565879999998
 20
154.6822979999998
 30
0.0
 40
2.671529999999997
100
AcDbArc
 50
295.748014
 51
310.1177079999998
  0
ARC
  5
C056
330
BDFA
100
AcDbEntity
  8
5
  6
PHANTOM
100
AcDbCircle
 10
254.443206
 20
201.2499929999999
 30
0.0
 40
123.5627139999998
100
AcDbArc
 50
200.9023819999999
 51
203.262007
  0
ARC
  5
C057
330
BDFA
100
AcDbEntity
  8
5
  6
PHANTOM
100
AcDbCircle
 10
155.6275019999999
 20
129.2070019999999
 30
0.0
 40
27.92838099999999
100
AcDbArc
 50
96.844166
 51
113.385232
  0
ARC
  5
C058
330
BDFA
100
AcDbEntity
  8
1
  6
Continuous
100
AcDbCircle
 10
132.9205159999999
 20
121.338921
 30
0.0
 40
27.92838099999999
100
AcDbArc
 50
57.844169
 51
74.38523399999998
  0
ARC
  5
C059
330
BDFA
100
AcDbEntity
  8
5
  6
PHANTOM
100
AcDbCircle
 10
141.4627529999999
 20
169.299218
 30
0.0
 40
3.284759999999999
100
AcDbArc
 50
129.8009419999999
 51
184.4514439999999
  0
ARC
  5
C05A
330
BDFA
100
AcDbEntity
  8
5
  6
PHANTOM
100
AcDbCircle
 10
139.0056299999999
 20
162.113625
 30
0.0
 40
3.732066
100
AcDbArc
 50
85.56350100000001
 51
106.7198209999999
  0
ARC
  5
C05B
330
BDFA
100
AcDbEntity
  8
5
  6
PHANTOM
100
AcDbCircle
 10
119.0046379999998
 20
160.636178
 30
0.0
 40
20.94500899999999
100
AcDbArc
 50
14.37038999999999
 51
23.668023
  0
ARC
  5
C05C
330
BDFA
100
AcDbEntity
  8
1
  6
Continuous
100
AcDbCircle
 10
129.203506
 20
145.436524
 30
0.0
 40
20.298761
100
AcDbArc
 50
55.98089599999998
 51
63.073792
  0
LINE
  5
C05D
330
BDFA
100
AcDbEntity
  8
5
  6
PHANTOM
100
AcDbLine
 10
138.249999
 20
168.901177
 30
0.0
 11
148.733215
 21
172.374459
 31
0.0
  0
ARC
  5
C05E
330
BDFA
100
AcDbEntity
  8
5
  6
PHANTOM
100
AcDbCircle
 10
254.443206
 20
201.2499929999999
 30
0.0
 40
123.5627139999998
100
AcDbArc
 50
196.650248
 51
198.908923
  0
ARC
  5
C05F
330
BDFA
100
AcDbEntity
  8
5
  6
PHANTOM
100
AcDbCircle
 10
137.57373
 20
145.595162
 30
0.0
 40
20.298761
100
AcDbArc
 50
94.98089699999999
 51
102.073789
  0
ARC
  5
C060
330
BDFA
100
AcDbEntity
  8
5
  6
PHANTOM
100
AcDbCircle
 10
136.0583949999998
 20
164.7588429999998
 30
0.0
 40
1.086873999999999
100
AcDbArc
 50
77.954486
 51
103.139634
  0
ARC
  5
C061
330
BDFA
100
AcDbEntity
  8
5
  6
PHANTOM
100
AcDbCircle
 10
137.2796779999999
 20
167.8593069999998
 30
0.0
 40
2.267253999999998
100
AcDbArc
 50
243.9841279999999
 51
286.719816
  0
ARC
  5
C062
330
BDFA
100
AcDbEntity
  8
1
  6
Continuous
100
AcDbCircle
 10
129.61209
 20
178.2976769999999
 30
0.0
 40
13.95287699999999
100
AcDbArc
 50
269.5458449999999
 51
279.438779
  0
ARC
  5
C063
330
BDFA
100
AcDbEntity
  8
1
  6
Continuous
100
AcDbCircle
 10
133.6271509999999
 20
154.146142
 30
0.0
 40
10.530131
100
AcDbArc
 50
63.073792
 51
99.43877800000002
  0
ARC
  5
C064
330
BDFA
100
AcDbEntity
  8
5
  6
PHANTOM
100
AcDbCircle
 10
117.2110739999999
 20
171.3902139999999
 30
0.0
 40
13.95287699999999
100
AcDbArc
 50
308.5458459999999
 51
318.438777
  0
ARC
  5
C065
330
BDFA
100
AcDbEntity
  8
5
  6
PHANTOM
100
AcDbCircle
 10
123.2453449999999
 20
163.816537
 30
0.0
 40
4.269231999999997
100
AcDbArc
 50
269.844337
 51
308.5458459999999
  0
LINE
  5
C066
330
BDFA
100
AcDbEntity
  8
5
  6
PHANTOM
100
AcDbLine
 10
123.0762169999999
 20
159.724107
 30
0.0
 11
123.233733
 21
159.5473179999999
 31
0.0
  0
LINE
  5
C067
330
BDFA
100
AcDbEntity
  8
1
  6
Continuous
100
AcDbLine
 10
123.2236469999999
 20
167.0700309999998
 30
0.0
 11
126.82846
 21
165.5403599999999
 31
0.0
  0
LINE
  5
C068
330
BDFA
100
AcDbEntity
  8
1
  6
Continuous
100
AcDbLine
 10
123.2236469999999
 20
167.070023
 30
0.0
 11
122.912887
 21
166.838006
 31
0.0
  0
LINE
  5
C069
330
BDFA
100
AcDbEntity
  8
1
  6
Continuous
100
AcDbLine
 10
126.828475
 20
165.5403599999999
 30
0.0
 11
126.839629
 21
165.303841
 31
0.0
  0
ARC
  5
C06A
330
BDFA
100
AcDbEntity
  8
5
  6
PHANTOM
100
AcDbCircle
 10
135.5304099999999
 20
155.1476979999999
 30
0.0
 40
10.530131
100
AcDbArc
 50
102.073789
 51
138.438782
  0
ARC
  5
C06B
330
BDFA
100
AcDbEntity
  8
1
  6
Continuous
100
AcDbCircle
 10
129.535339
 20
168.6143429999999
 30
0.0
 40
4.269231999999997
100
AcDbArc
 50
230.844333
 51
269.5458449999999
  0
ARC
  5
C06C
330
BDFA
100
AcDbEntity
  8
5
  6
PHANTOM
100
AcDbCircle
 10
150.256423
 20
166.2110529999999
 30
0.0
 40
3.833123
100
AcDbArc
 50
4.933144999999997
 51
26.958099
  0
LINE
  5
C06D
330
BDFA
100
AcDbEntity
  8
5
  6
PHANTOM
100
AcDbLine
 10
152.3065939999999
 20
169.2004779999998
 30
0.0
 11
153.673034
 21
167.9487469999999
 31
0.0
  0
ARC
  5
C06E
330
BDFA
100
AcDbEntity
  8
5
  6
PHANTOM
100
AcDbCircle
 10
145.5266109999998
 20
170.7597129999998
 30
0.0
 40
3.590214
100
AcDbArc
 50
15.150125
 51
63.02593899999999
  0
ARC
  5
C06F
330
BDFA
100
AcDbEntity
  8
5
  6
PHANTOM
100
AcDbCircle
 10
150.056106
 20
173.365426
 30
0.0
 40
4.734078
100
AcDbArc
 50
269.4296699999999
 51
298.3840579999998
  0
ARC
  5
C070
330
BDFA
100
AcDbEntity
  8
5
  6
PHANTOM
100
AcDbCircle
 10
161.334991
 20
175.2648859999999
 30
0.0
 40
13.106242
100
AcDbArc
 50
197.688805
 51
210.4064539999999
  0
ARC
  5
C071
330
BDFA
100
AcDbEntity
  8
5
  6
PHANTOM
100
AcDbCircle
 10
149.198241
 20
171.3941739999999
 30
0.0
 40
0.367205
100
AcDbArc
 50
124.162457
 51
197.688802
  0
ARC
  5
C072
330
BDFA
100
AcDbEntity
  8
1
  6
Continuous
100
AcDbCircle
 10
147.191222
 20
157.9815909999998
 30
0.0
 40
6.714102999999997
100
AcDbArc
 50
70.284901
 51
90.80094499999995
  0
LINE
  5
C073
330
BDFA
100
AcDbEntity
  8
1
  6
Continuous
100
AcDbLine
 10
149.4561909999999
 20
164.3021249999998
 30
0.0
 11
152.663848
 21
163.1526649999998
 31
0.0
  0
ARC
  5
C074
330
BDFA
100
AcDbEntity
  8
1
  6
Continuous
100
AcDbCircle
 10
255.052886
 20
115.140107
 30
0.0
 40
123.5627139999998
100
AcDbArc
 50
157.650246
 51
159.637255
  0
LINE
  5
C075
330
BDFA
100
AcDbEntity
  8
1
  6
Continuous
100
AcDbLine
 10
144.4378039999998
 20
163.2734
 30
0.0
 11
143.277679
 21
160.08265
 31
0.0
  0
LINE
  5
C076
330
BDFA
100
AcDbEntity
  8
1
  6
Continuous
100
AcDbLine
 10
140.772201
 20
162.1259929999999
 30
0.0
 11
143.277679
 21
160.08265
 31
0.0
  0
LINE
  5
C077
330
BDFA
100
AcDbEntity
  8
5
  6
PHANTOM
100
AcDbLine
 10
141.4405209999999
 20
173.0019079999999
 30
0.0
 11
144.656722
 21
174.127259
 31
0.0
  0
ARC
  5
C078
330
BDFA
100
AcDbEntity
  8
5
  6
PHANTOM
100
AcDbCircle
 10
143.657958
 20
166.664544
 30
0.0
 40
6.714102999999997
100
AcDbArc
 50
109.284898
 51
129.8009419999999
  0
ARC
  5
C079
330
BDFA
100
AcDbEntity
  8
1
  6
Continuous
100
AcDbCircle
 10
140.0859669999998
 20
161.2831429999999
 30
0.0
 40
1.086873999999999
100
AcDbArc
 50
38.954485
 51
64.13963599999999
  0
ARC
  5
C07A
330
BDFA
100
AcDbEntity
  8
1
  6
Continuous
100
AcDbCircle
 10
147.143295
 20
161.4105999999999
 30
0.0
 40
3.284759999999999
100
AcDbArc
 50
90.80094499999995
 51
145.451447
  0
ARC
  5
C07B
330
BDFA
100
AcDbEntity
  8
5
  6
PHANTOM
100
AcDbCircle
 10
145.709365
 20
171.118813
 30
0.0
 40
3.187289999999998
100
AcDbArc
 50
63.02593899999999
 51
109.284898
  0
ARC
  5
C07C
330
BDFA
100
AcDbEntity
  8
1
  6
Continuous
100
AcDbCircle
 10
162.0298149999999
 20
140.6248019999999
 30
0.0
 40
1.162484
100
AcDbArc
 50
268.9252189999999
 51
323.707377
  0
LINE
  5
C07D
330
BDFA
100
AcDbEntity
  8
1
  6
Continuous
100
AcDbLine
 10
163.9107349999999
 20
138.812478
 30
0.0
 11
165.2591699999998
 21
139.9919439999999
 31
0.0
  0
LINE
  5
C07E
330
BDFA
100
AcDbEntity
  8
1
  6
Continuous
100
AcDbLine
 10
155.5083919999999
 20
154.509614
 30
0.0
 11
155.7825919999999
 21
152.676911
 31
0.0
  0
ARC
  5
C07F
330
BDFA
100
AcDbEntity
  8
1
  6
Continuous
100
AcDbCircle
 10
156.3805989999998
 20
150.53727
 30
0.0
 40
1.414184999999997
100
AcDbArc
 50
145.9331389999998
 51
247.3461759999999
  0
ARC
  5
C080
330
BDFA
100
AcDbEntity
  8
1
  6
Continuous
100
AcDbCircle
 10
157.01979
 20
151.9927759999999
 30
0.0
 40
3.003727999999998
100
AcDbArc
 50
246.787777
 51
285.585185
  0
LINE
  5
C081
330
BDFA
100
AcDbEntity
  8
1
  6
Continuous
100
AcDbLine
 10
155.8359059999999
 20
149.2321939999999
 30
0.0
 11
155.8488
 21
148.414185
 31
0.0
  0
ARC
  5
C082
330
BDFA
100
AcDbEntity
  8
1
  6
Continuous
100
AcDbCircle
 10
152.0338129999998
 20
153.476602
 30
0.0
 40
3.833123
100
AcDbArc
 50
325.9331439999999
 51
347.9581
  0
LINE
  5
C083
330
BDFA
100
AcDbEntity
  8
1
  6
Continuous
100
AcDbLine
 10
157.8268119999999
 20
149.0994879999998
 30
0.0
 11
165.2591699999998
 21
139.991952
 31
0.0
  0
LINE
  5
C084
330
BDFA
100
AcDbEntity
  8
1
  6
Continuous
100
AcDbLine
 10
163.9107199999999
 20
138.812478
 30
0.0
 11
155.8488
 21
148.4141779999999
 31
0.0
  0
ARC
  5
C085
330
BDFA
100
AcDbEntity
  8
1
  6
Continuous
100
AcDbCircle
 10
162.318328
 20
156.003205
 30
0.0
 40
16.543596
100
AcDbArc
 50
247.0983529999998
 51
268.9252189999999
  0
ARC
  5
C086
330
BDFA
100
AcDbEntity
  8
5
  6
PHANTOM
100
AcDbCircle
 10
156.65895
 20
174.6468439999999
 30
0.0
 40
16.543596
100
AcDbArc
 50
286.0983499999999
 51
307.925221
  0
LINE
  5
C087
330
BDFA
100
AcDbEntity
  8
5
  6
PHANTOM
100
AcDbLine
 10
168.7149499999998
 20
162.2892769999999
 30
0.0
 11
169.0206139999999
 21
164.054498
 31
0.0
  0
ARC
  5
C088
330
BDFA
100
AcDbEntity
  8
5
  6
PHANTOM
100
AcDbCircle
 10
166.112685
 20
162.5140159999999
 30
0.0
 40
1.162484
100
AcDbArc
 50
307.925221
 51
2.707376
  0
ARC
  5
C089
330
BDFA
100
AcDbEntity
  8
1
  6
Continuous
100
AcDbCircle
 10
151.2206109999999
 20
159.988152
 30
0.0
 40
3.590214
100
AcDbArc
 50
336.150123
 51
24.02594
  0
LINE
  5
C08A
330
BDFA
100
AcDbEntity
  8
5
  6
PHANTOM
100
AcDbLine
 10
155.882293
 20
165.305261
 30
0.0
 11
156.4071039999998
 21
164.6776669999999
 31
0.0
  0
ARC
  5
C08B
330
BDFA
100
AcDbEntity
  8
5
  6
PHANTOM
100
AcDbCircle
 10
155.0650629999998
 20
168.19568
 30
0.0
 40
3.003727999999998
100
AcDbArc
 50
285.787782
 51
324.5851859999999
  0
LINE
  5
C08C
330
BDFA
100
AcDbEntity
  8
5
  6
PHANTOM
100
AcDbLine
 10
157.513046
 20
166.4550409999999
 30
0.0
 11
169.020629
 21
164.054498
 31
0.0
  0
LINE
  5
C08D
330
BDFA
100
AcDbEntity
  8
5
  6
PHANTOM
100
AcDbLine
 10
168.7149499999998
 20
162.289285
 30
0.0
 11
156.4071039999998
 21
164.6776739999999
 31
0.0
  0
ARC
  5
C08E
330
BDFA
100
AcDbEntity
  8
1
  6
Continuous
100
AcDbCircle
 10
215.7569169999999
 20
187.002831
 30
0.0
 40
19.356407
100
AcDbArc
 50
255.410175
 51
266.3160179999999
  0
LINE
  5
C08F
330
BDFA
100
AcDbEntity
  8
1
  6
Continuous
100
AcDbLine
 10
219.5298509999998
 20
153.607033
 30
0.0
 11
216.2287339999998
 21
152.0665669999999
 31
0.0
  0
LINE
  5
C090
330
BDFA
100
AcDbEntity
  8
1
  6
Continuous
100
AcDbLine
 10
219.5298509999998
 20
153.151924
 30
0.0
 11
217.4298139999999
 21
152.171944
 31
0.0
  0
LINE
  5
C091
330
BDFA
100
AcDbEntity
  8
1
  6
Continuous
100
AcDbLine
 10
219.1069689999999
 20
155.513237
 30
0.0
 11
216.246968
 21
155.513237
 31
0.0
  0
ARC
  5
C092
330
BDFA
100
AcDbEntity
  8
1
  6
Continuous
100
AcDbCircle
 10
218.126347
 20
138.054436
 30
0.0
 40
1.0
100
AcDbArc
 50
6.881516
 51
82.629368
  0
LINE
  5
C093
330
BDFA
100
AcDbEntity
  8
1
  6
Continuous
100
AcDbLine
 10
217.271229
 20
136.7337879999998
 30
0.0
 11
219.2710459999999
 21
136.915596
 31
0.0
  0
LINE
  5
C094
330
BDFA
100
AcDbEntity
  8
1
  6
Continuous
100
AcDbLine
 10
217.429829
 20
152.171944
 30
0.0
 11
219.271062
 21
136.915581
 31
0.0
  0
ARC
  5
C095
330
BDFA
100
AcDbEntity
  8
1
  6
Continuous
100
AcDbCircle
 10
216.0275159999999
 20
147.099297
 30
0.0
 40
2.0
100
AcDbArc
 50
6.881516
 51
90.00000300000001
  0
ARC
  5
C096
330
BDFA
100
AcDbEntity
  8
1
  6
Continuous
100
AcDbCircle
 10
209.873952
 20
144.545525
 30
0.0
 40
4.020926
100
AcDbArc
 50
129.6233039999999
 51
230.3767119999998
  0
ARC
  5
C097
330
BDFA
100
AcDbEntity
  8
1
  6
Continuous
100
AcDbCircle
 10
211.3530319999999
 20
145.152474
 30
0.0
 40
6.340179
100
AcDbArc
 50
230.376698
 51
262.629318
  0
ARC
  5
C098
330
BDFA
100
AcDbEntity
  8
1
  6
Continuous
100
AcDbCircle
 10
211.3530319999999
 20
146.3319319999999
 30
0.0
 40
6.340179
100
AcDbArc
 50
230.376698
 51
262.674645
  0
LINE
  5
C099
330
BDFA
100
AcDbEntity
  8
1
  6
Continuous
100
AcDbLine
 10
218.2546429999999
 20
139.0461659999998
 30
0.0
 11
210.544637
 21
140.0435009999999
 31
0.0
  0
LINE
  5
C09A
330
BDFA
100
AcDbEntity
  8
1
  6
Continuous
100
AcDbLine
 10
205.853032
 20
144.545525
 30
0.0
 11
205.853032
 21
143.3660509999999
 31
0.0
  0
LINE
  5
C09B
330
BDFA
100
AcDbEntity
  8
1
  6
Continuous
100
AcDbLine
 10
217.11675
 20
138.013878
 30
0.0
 11
210.539662
 21
138.864662
 31
0.0
  0
LINE
  5
C09C
330
BDFA
100
AcDbEntity
  8
1
  6
Continuous
100
AcDbLine
 10
217.11675
 20
138.013878
 30
0.0
 11
217.271245
 21
136.7337879999998
 31
0.0
  0
ARC
  5
C09D
330
BDFA
100
AcDbEntity
  8
1
  6
Continuous
100
AcDbCircle
 10
209.873952
 20
143.3660509999999
 30
0.0
 40
4.020926
100
AcDbArc
 50
180.0000029999999
 51
230.376698
  0
ARC
  5
C09E
330
BDFA
100
AcDbEntity
  8
1
  6
Continuous
100
AcDbCircle
 10
211.0912519999998
 20
169.0780259999999
 30
0.0
 40
0.834336
100
AcDbArc
 50
180.0000029999999
 51
255.410175
  0
ARC
  5
C09F
330
BDFA
100
AcDbEntity
  8
1
  6
Continuous
100
AcDbCircle
 10
216.246968
 20
154.513237
 30
0.0
 40
1.0
100
AcDbArc
 50
90.0
 51
186.8815209999999
  0
LINE
  5
C0A0
330
BDFA
100
AcDbEntity
  8
1
  6
Continuous
100
AcDbLine
 10
214.303899
 20
164.041237
 30
0.0
 11
216.308949
 21
164.081673
 31
0.0
  0
LINE
  5
C0A1
330
BDFA
100
AcDbEntity
  8
1
  6
Continuous
100
AcDbLine
 10
214.776158
 20
163.7320789999999
 30
0.0
 11
215.0415849999999
 21
163.088921
 31
0.0
  0
LINE
  5
C0A2
330
BDFA
100
AcDbEntity
  8
1
  6
Continuous
100
AcDbLine
 10
213.7926529999998
 20
163.122917
 30
0.0
 11
215.320744
 21
159.224861
 31
0.0
  0
LINE
  5
C0A3
330
BDFA
100
AcDbEntity
  8
1
  6
Continuous
100
AcDbLine
 10
216.0275159999999
 20
149.099297
 30
0.0
 11
211.3530319999999
 21
149.099297
 31
0.0
  0
ARC
  5
C0A4
330
BDFA
100
AcDbEntity
  8
1
  6
Continuous
100
AcDbCircle
 10
216.6516009999999
 20
151.1603929999999
 30
0.0
 40
1.0
100
AcDbArc
 50
115.01613
 51
186.8815209999999
  0
LINE
  5
C0A5
330
BDFA
100
AcDbEntity
  8
1
  6
Continuous
100
AcDbLine
 10
215.6588029999999
 20
151.0405659999999
 30
0.0
 11
215.8936349999999
 21
149.0947949999998
 31
0.0
  0
LINE
  5
C0A6
330
BDFA
100
AcDbEntity
  8
1
  6
Continuous
100
AcDbLine
 10
217.41747
 20
160.950432
 30
0.0
 11
217.121983
 21
155.513237
 31
0.0
  0
LINE
  5
C0A7
330
BDFA
100
AcDbEntity
  8
1
  6
Continuous
100
AcDbLine
 10
215.4123279999998
 20
160.9101789999999
 30
0.0
 11
215.119023
 21
155.5132219999999
 31
0.0
  0
LINE
  5
C0A8
330
BDFA
100
AcDbEntity
  8
1
  6
Continuous
100
AcDbLine
 10
215.119023
 20
155.5132219999999
 30
0.0
 11
215.25417
 21
154.393425
 31
0.0
  0
ARC
  5
C0A9
330
BDFA
100
AcDbEntity
  8
1
  6
Continuous
100
AcDbCircle
 10
212.4248399999999
 20
161.221779
 30
0.0
 40
5.0
100
AcDbArc
 50
356.8891879999998
 51
22.42549599999999
  0
ARC
  5
C0AA
330
BDFA
100
AcDbEntity
  8
1
  6
Continuous
100
AcDbCircle
 10
210.419698
 20
161.181526
 30
0.0
 40
5.0
100
AcDbArc
 50
356.8891879999998
 51
22.42549599999999
  0
LINE
  5
C0AB
330
BDFA
100
AcDbEntity
  8
1
  6
Continuous
100
AcDbLine
 10
216.7812239999999
 20
163.772515
 30
0.0
 11
217.046727
 21
163.1291889999999
 31
0.0
  0
LINE
  5
C0AC
330
BDFA
100
AcDbEntity
  8
1
  6
Continuous
100
AcDbLine
 10
213.384373
 20
161.421974
 30
0.0
 11
213.384373
 21
149.099297
 31
0.0
  0
LINE
  5
C0AD
330
BDFA
100
AcDbEntity
  8
1
  6
Continuous
100
AcDbLine
 10
213.384373
 20
161.421974
 30
0.0
 11
213.704396
 21
161.5168689999999
 31
0.0
  0
LINE
  5
C0AE
330
BDFA
100
AcDbEntity
  8
1
  6
Continuous
100
AcDbLine
 10
213.384373
 20
161.4219589999999
 30
0.0
 11
213.627263
 21
160.0824659999998
 31
0.0
  0
LINE
  5
C0AF
330
BDFA
100
AcDbEntity
  8
1
  6
Continuous
100
AcDbLine
 10
213.8146869999999
 20
163.568169
 30
0.0
 11
213.627263
 21
160.0824509999999
 31
0.0
  0
ARC
  5
C0B0
330
BDFA
100
AcDbEntity
  8
1
  6
Continuous
100
AcDbCircle
 10
211.3530319999999
 20
142.759117
 30
0.0
 40
6.340179
100
AcDbArc
 50
90.00000300000001
 51
129.6233039999999
  0
ARC
  5
C0B1
330
BDFA
100
AcDbEntity
  8
1
  6
Continuous
100
AcDbCircle
 10
216.319035
 20
163.5817639999999
 30
0.0
 40
0.5
100
AcDbArc
 50
22.42549599999999
 51
91.155404
  0
ARC
  5
C0B2
330
BDFA
100
AcDbEntity
  8
1
  6
Continuous
100
AcDbCircle
 10
214.3139689999999
 20
163.5413289999999
 30
0.0
 40
0.5
100
AcDbArc
 50
22.42549599999999
 51
176.9221419999998
  0
ARC
  5
C0B3
330
BDFA
100
AcDbEntity
  8
1
  6
Continuous
100
AcDbCircle
 10
219.1069689999999
 20
154.513237
 30
0.0
 40
1.0
100
AcDbArc
 50
295.0161229999998
 51
90.0
  0
ARC
  5
C0B4
330
BDFA
100
AcDbEntity
  8
1
  6
Continuous
100
AcDbCircle
 10
219.1069689999999
 20
154.0581129999999
 30
0.0
 40
1.0
100
AcDbArc
 50
295.0161229999998
 51
13.15351399999999
  0
ARC
  5
C0B5
330
BDFA
100
AcDbEntity
  8
1
  6
Continuous
100
AcDbCircle
 10
122.1659529999999
 20
260.717462
 30
0.0
 40
1.0
100
AcDbArc
 50
269.9999969999999
 51
355.1494599999998
  0
ARC
  5
C0B6
330
BDFA
100
AcDbEntity
  8
1
  6
Continuous
100
AcDbCircle
 10
124.038062
 20
263.217462
 30
0.0
 40
1.5
100
AcDbArc
 50
73.55996299999998
 51
175.1494639999999
  0
LINE
  5
C0B7
330
BDFA
100
AcDbEntity
  8
1
  6
Continuous
100
AcDbLine
 10
117.808134
 20
259.717462
 30
0.0
 11
139.368956
 21
259.717462
 31
0.0
  0
ARC
  5
C0B8
330
BDFA
100
AcDbEntity
  8
1
  6
Continuous
100
AcDbCircle
 10
120.249709
 20
261.717462
 30
0.0
 40
2.0
100
AcDbArc
 50
206.584348
 51
269.9999969999999
  0
LINE
  5
C0B9
330
BDFA
100
AcDbEntity
  8
1
  6
Continuous
100
AcDbLine
 10
117.808134
 20
264.611173
 30
0.0
 11
117.808134
 21
258.611177
 31
0.0
  0
LINE
  5
C0BA
330
BDFA
100
AcDbEntity
  8
1
  6
Continuous
100
AcDbLine
 10
106.748808
 20
265.611173
 30
0.0
 11
106.748808
 21
258.611177
 31
0.0
  0
LINE
  5
C0BB
330
BDFA
100
AcDbEntity
  8
1
  6
Continuous
100
AcDbLine
 10
105.899771
 20
265.611173
 30
0.0
 11
105.899771
 21
258.611177
 31
0.0
  0
ARC
  5
C0BC
330
BDFA
100
AcDbEntity
  8
1
  6
Continuous
100
AcDbCircle
 10
112.248808
 20
258.611177
 30
0.0
 40
5.5
100
AcDbArc
 50
179.9999909999999
 51
0.00001
  0
ARC
  5
C0BD
330
BDFA
100
AcDbEntity
  8
1
  6
Continuous
100
AcDbCircle
 10
111.399771
 20
258.611177
 30
0.0
 40
5.5
100
AcDbArc
 50
179.9999909999999
 51
274.426783
  0
LINE
  5
C0BE
330
BDFA
100
AcDbEntity
  8
1
  6
Continuous
100
AcDbLine
 10
105.899771
 20
265.611173
 30
0.0
 11
117.065611
 21
265.611173
 31
0.0
  0
ARC
  5
C0BF
330
BDFA
100
AcDbEntity
  8
1
  6
Continuous
100
AcDbCircle
 10
116.808134
 20
264.611173
 30
0.0
 40
1.0
100
AcDbArc
 50
0.0
 51
90.00000300000001
  0
ARC
  5
C0C0
330
BDFA
100
AcDbEntity
  8
1
  6
Continuous
100
AcDbCircle
 10
117.065611
 20
263.611173
 30
0.0
 40
2.0
100
AcDbArc
 50
26.58435300000001
 51
90.00000300000001
  0
LINE
  5
C0C1
330
BDFA
100
AcDbEntity
  8
1
  6
Continuous
100
AcDbLine
 10
122.4053779999999
 20
261.717463
 30
0.0
 11
122.5434329999999
 21
263.3442989999999
 31
0.0
  0
LINE
  5
C0C2
330
BDFA
100
AcDbEntity
  8
1
  6
Continuous
100
AcDbLine
 10
118.4611599999998
 20
260.822431
 30
0.0
 11
117.808137
 21
262.1273779999999
 31
0.0
  0
LINE
  5
C0C3
330
BDFA
100
AcDbEntity
  8
1
  6
Continuous
100
AcDbLine
 10
120.249709
 20
261.717462
 30
0.0
 11
122.405379
 21
261.717462
 31
0.0
  0
LINE
  5
C0C4
330
BDFA
100
AcDbEntity
  8
1
  6
Continuous
100
AcDbLine
 10
120.2497129999999
 20
261.71746
 30
0.0
 11
118.8541649999999
 21
264.5062069999998
 31
0.0
  0
ARC
  5
C0C5
330
BDFA
100
AcDbEntity
  8
1
  6
Continuous
100
AcDbCircle
 10
162.410239
 20
259.331537
 30
0.0
 40
2.0
100
AcDbArc
 50
8.412345
 51
60.648381
  0
LWPOLYLINE
  5
C0C6
330
BDFA
100
AcDbEntity
  8
1
  6
Continuous
100
AcDbPolyline
 90
        2
 70
     0
 43
0.0
 10
141.033057
 20
260.8268639999999
 10
142.6320709999999
 20
258.42835
  0
LWPOLYLINE
  5
C0CA
330
BDFA
100
AcDbEntity
  8
1
  6
Continuous
100
AcDbPolyline
 90
        2
 70
     0
 43
0.0
 10
137.190108
 20
259.717462
 10
138.672728
 20
257.4935279999999
  0
LWPOLYLINE
  5
C0CE
330
BDFA
100
AcDbEntity
  8
1
  6
Continuous
100
AcDbPolyline
 90
        2
 70
     0
 43
0.0
 10
139.368956
 20
259.717462
 10
140.96797
 20
257.3189479999999
  0
ARC
  5
C0D2
330
BDFA
100
AcDbEntity
  8
1
  6
Continuous
100
AcDbCircle
 10
125.6010419999998
 20
260.717462
 30
0.0
 40
1.0
100
AcDbArc
 50
269.9999969999999
 51
4.850539999999998
  0
LWPOLYLINE
  5
C0D3
330
BDFA
100
AcDbEntity
  8
1
  6
Continuous
100
AcDbPolyline
 90
       18
 70
     0
 43
0.0
 10
138.6727129999999
 20
257.4935469999999
 10
138.7887019999998
 20
257.3424999999999
 10
138.9138699999998
 20
257.198934
 10
139.0477129999998
 20
257.0634359999999
 10
139.189764
 20
256.936483
 10
139.3394
 20
256.818639
 10
139.496069
 20
256.710325
 10
139.659209
 20
256.61194
 10
139.828116
 20
256.523904
 10
140.002158
 20
256.4465419999998
 10
140.180731
 20
256.38014
 10
140.363036
 20
256.3249789999999
 10
140.5484149999997
 20
256.2812589999999
 10
140.7361589999999
 20
256.2491469999998
 10
140.925574
 20
256.228769
 10
141.1158509999999
 20
256.2202089999999
 10
141.306288
 20
256.223493
 10
141.496237
 20
256.238622
  0
LINE
  5
C0E7
330
BDFA
100
AcDbEntity
  8
1
  6
Continuous
100
AcDbLine
 10
142.9246589999999
 20
256.4498669999999
 30
0.0
 11
142.632067
 21
258.42835
 31
0.0
  0
ARC
  5
C0E8
330
BDFA
100
AcDbEntity
  8
1
  6
Continuous
100
AcDbCircle
 10
142.6320709999999
 20
258.42835
 30
0.0
 40
2.0
100
AcDbArc
 50
213.690067
 51
278.412345
  0
LINE
  5
C0E9
330
BDFA
100
AcDbEntity
  8
1
  6
Continuous
100
AcDbLine
 10
164.3887259999999
 20
259.6241319999999
 30
0.0
 11
165.120207
 21
254.677926
 31
0.0
  0
LINE
  5
C0EA
330
BDFA
100
AcDbEntity
  8
1
  6
Continuous
100
AcDbLine
 10
161.321946
 20
248.557399
 30
0.0
 11
162.33549
 21
248.70729
 31
0.0
  0
ARC
  5
C0EB
330
BDFA
100
AcDbEntity
  8
1
  6
Continuous
100
AcDbCircle
 10
161.9097879999999
 20
251.585824
 30
0.0
 40
2.909844999999998
100
AcDbArc
 50
278.412345
 51
336.070203
  0
ARC
  5
C0EC
330
BDFA
100
AcDbEntity
  8
1
  6
Continuous
100
AcDbCircle
 10
157.66828
 20
253.468046
 30
0.0
 40
7.550231
100
AcDbArc
 50
336.070203
 51
9.546331
  0
ARC
  5
C0ED
330
BDFA
100
AcDbEntity
  8
1
  6
Continuous
100
AcDbCircle
 10
165.251753
 20
254.805215
 30
0.0
 40
7.550231
100
AcDbArc
 50
188.4123429999999
 51
223.9297909999999
  0
ARC
  5
C0EE
330
BDFA
100
AcDbEntity
  8
1
  6
Continuous
100
AcDbCircle
 10
164.2382109999998
 20
254.6553279999999
 30
0.0
 40
7.550231
100
AcDbArc
 50
188.4123429999999
 51
223.9297909999999
  0
LINE
  5
C0EF
330
BDFA
100
AcDbEntity
  8
1
  6
Continuous
100
AcDbLine
 10
157.1415599999999
 20
258.036357
 30
0.0
 11
157.782757
 21
253.700645
 31
0.0
  0
LINE
  5
C0F0
330
BDFA
100
AcDbEntity
  8
1
  6
Continuous
100
AcDbLine
 10
156.142009
 20
257.7918579999998
 30
0.0
 11
156.7692129999998
 21
253.5507599999998
 31
0.0
  0
ARC
  5
C0F1
330
BDFA
100
AcDbEntity
  8
1
  6
Continuous
100
AcDbCircle
 10
161.9097879999999
 20
251.585824
 30
0.0
 40
2.909844999999998
100
AcDbArc
 50
223.9297909999999
 51
336.070203
  0
ARC
  5
C0F2
330
BDFA
100
AcDbEntity
  8
1
  6
Continuous
100
AcDbCircle
 10
160.8962459999998
 20
251.435937
 30
0.0
 40
2.909844999999998
100
AcDbArc
 50
223.9297909999999
 51
278.412345
  0
LINE
  5
C0F3
330
BDFA
100
AcDbEntity
  8
1
  6
Continuous
100
AcDbLine
 10
126.5974629999999
 20
260.802018
 30
0.0
 11
126.3817229999998
 21
263.3442989999999
 31
0.0
  0
LINE
  5
C0F4
330
BDFA
100
AcDbEntity
  8
1
  6
Continuous
100
AcDbLine
 10
123.162375
 20
260.6329029999999
 30
0.0
 11
123.3924659999999
 21
263.3442959999998
 31
0.0
  0
ARC
  5
C0F5
330
BDFA
100
AcDbEntity
  8
1
  6
Continuous
100
AcDbCircle
 10
124.8870909999999
 20
263.217462
 30
0.0
 40
1.5
100
AcDbArc
 50
0.0
 51
175.1494639999999
  0
ARC
  5
C0F6
330
BDFA
100
AcDbEntity
  8
1
  6
Continuous
100
AcDbCircle
 10
139.368956
 20
259.717462
 30
0.0
 40
2.0
100
AcDbArc
 50
33.690069
 51
42.11166399999998
  0
ARC
  5
C0F7
330
BDFA
100
AcDbEntity
  8
1
  6
Continuous
100
AcDbCircle
 10
215.7569169999999
 20
152.5848159999999
 30
0.0
 40
19.356407
100
AcDbArc
 50
93.68398199999999
 51
104.589825
  0
ARC
  5
C0F8
330
BDFA
100
AcDbEntity
  8
1
  6
Continuous
100
AcDbCircle
 10
211.0912519999998
 20
170.509621
 30
0.0
 40
0.834336
100
AcDbArc
 50
104.589825
 51
255.410175
  0
ARC
  5
C0F9
330
BDFA
100
AcDbEntity
  8
1
  6
Continuous
100
AcDbCircle
 10
133.164626
 20
157.3342369999998
 30
0.0
 40
25.0
100
AcDbArc
 50
163.4853389999999
 51
322.4205609999998
  0
ARC
  5
C0FA
330
BDFA
100
AcDbEntity
  8
1
  6
Continuous
100
AcDbCircle
 10
133.164626
 20
157.3342369999998
 30
0.0
 40
17.5
100
AcDbArc
 50
182.0292169999999
 51
318.8861289999999
  0
ARC
  5
C0FB
330
BDFA
100
AcDbEntity
  8
1
  6
Continuous
100
AcDbCircle
 10
133.164626
 20
157.3342369999998
 30
0.0
 40
17.5
100
AcDbArc
 50
23.79675099999999
 51
26.47566499999999
  0
ARC
  5
C0FC
330
BDFA
100
AcDbEntity
  8
1
  6
Continuous
100
AcDbCircle
 10
133.164626
 20
157.3342369999998
 30
0.0
 40
25.0
100
AcDbArc
 50
340.5327529999999
 51
35.83806699999998
  0
LINE
  5
C0FD
330
BDFA
100
AcDbEntity
  8
1
  6
Continuous
100
AcDbLine
 10
62.366289
 20
167.0780179999999
 30
0.0
 11
62.366289
 21
159.9761049999999
 31
0.0
  0
LINE
  5
C0FE
330
BDFA
100
AcDbEntity
  8
1
  6
Continuous
100
AcDbLine
 10
62.366289
 20
150.6678009999999
 30
0.0
 11
62.366289
 21
148.897316
 31
0.0
  0
LINE
  5
C0FF
330
BDFA
100
AcDbEntity
  8
1
  6
Continuous
100
AcDbLine
 10
60.366049
 20
159.4761049999999
 30
0.0
 11
60.366049
 21
148.897316
 31
0.0
  0
ARC
  5
C100
330
BDFA
100
AcDbEntity
  8
1
  6
Continuous
100
AcDbCircle
 10
243.2553399999999
 20
167.976744
 30
0.0
 40
26.713884
100
AcDbArc
 50
194.772977
 51
208.187026
  0
ARC
  5
C101
330
BDFA
100
AcDbEntity
  8
1
  6
Continuous
100
AcDbCircle
 10
210.8953399999998
 20
150.634898
 30
0.0
 40
10.0
100
AcDbArc
 50
27.65789499999999
 51
28.18702599999999
  0
LINE
  5
C102
330
BDFA
100
AcDbEntity
  8
1
  6
Continuous
100
AcDbLine
 10
129.8928389999999
 20
288.717462
 30
0.0
 11
126.07531
 21
288.717462
 31
0.0
  0
LINE
  5
C103
330
BDFA
100
AcDbEntity
  8
1
  6
Continuous
100
AcDbLine
 10
138.119597
 20
290.7177019999998
 30
0.0
 11
126.07531
 21
290.7177019999998
 31
0.0
  0
LINE
  5
C104
330
BDFA
100
AcDbEntity
  8
1
  6
Continuous
100
AcDbLine
 10
138.119597
 20
261.717222
 30
0.0
 11
126.5197979999998
 21
261.717222
 31
0.0
  0
LINE
  5
C105
330
BDFA
100
AcDbEntity
  8
1
  6
Continuous
100
AcDbLine
 10
129.8928389999999
 20
263.717462
 30
0.0
 11
126.301305
 21
263.717462
 31
0.0
  0
LINE
  5
C106
330
BDFA
100
AcDbEntity
  8
1
  6
Continuous
100
AcDbLine
 10
126.07531
 20
288.717462
 30
0.0
 11
126.07531
 21
290.7177019999998
 31
0.0
  0
LINE
  5
C107
330
BDFA
100
AcDbEntity
  8
1
  6
Continuous
100
AcDbLine
 10
128.914626
 20
290.7177019999998
 30
0.0
 11
128.914626
 21
291.651018
 31
0.0
  0
LINE
  5
C108
330
BDFA
100
AcDbEntity
  8
1
  6
Continuous
100
AcDbLine
 10
137.414626
 20
290.7177019999998
 30
0.0
 11
137.414626
 21
291.651018
 31
0.0
  0
LINE
  5
C109
330
BDFA
100
AcDbEntity
  8
1
  6
Continuous
100
AcDbLine
 10
128.914626
 20
291.651018
 30
0.0
 11
137.414626
 21
291.651018
 31
0.0
  0
ARC
  5
C10A
330
BDFA
100
AcDbEntity
  8
1
  6
Continuous
100
AcDbCircle
 10
133.164626
 20
283.717702
 30
0.0
 40
9.0
100
AcDbArc
 50
61.82135699999999
 51
118.178643
  0
ARC
  5
C10B
330
BDFA
100
AcDbEntity
  8
1
  6
Continuous
100
AcDbCircle
 10
138.119597
 20
296.7177019999999
 30
0.0
 40
6.0
100
AcDbArc
 50
270.0
 51
304.415629
  0
ARC
  5
C10C
330
BDFA
100
AcDbEntity
  8
1
  6
Continuous
100
AcDbCircle
 10
138.119597
 20
255.7172219999999
 30
0.0
 40
6.0
100
AcDbArc
 50
55.58437099999999
 51
90.0
  0
LWPOLYLINE
  5
C10D
330
BDFA
100
AcDbEntity
  8
1
  6
Continuous
100
AcDbPolyline
 90
        2
 70
     0
 43
0.0
 10
145.006436
 20
258.779489
 10
142.6320709999999
 20
258.42835
  0
LWPOLYLINE
  5
C111
330
BDFA
100
AcDbEntity
  8
1
  6
Continuous
100
AcDbPolyline
 90
        2
 70
     0
 43
0.0
 10
149.9846159999998
 20
257.493945
 10
141.1215959999998
 20
256.183217
  0
ARC
  5
C115
330
BDFA
100
AcDbEntity
  8
1
  6
Continuous
100
AcDbCircle
 10
152.164619
 20
70.009612
 30
0.0
 40
18.85
100
AcDbArc
 50
113.047487
 51
124.415629
  0
ARC
  5
C116
330
BDFA
100
AcDbEntity
  8
1
  6
Continuous
100
AcDbCircle
 10
152.164619
 20
70.009612
 30
0.0
 40
16.85
100
AcDbArc
 50
100.769741
 51
124.416608
  0
ARC
  5
C117
330
BDFA
100
AcDbEntity
  8
1
  6
Continuous
100
AcDbCircle
 10
152.164619
 20
70.009612
 30
0.0
 40
18.85
100
AcDbArc
 50
80.37444999999998
 51
98.02956600000001
  0
ARC
  5
C118
330
BDFA
100
AcDbEntity
  8
1
  6
Continuous
100
AcDbCircle
 10
152.164619
 20
70.009612
 30
0.0
 40
13.6
100
AcDbArc
 50
99.288345
 51
132.6679249999999
  0
LINE
  5
C119
330
BDFA
100
AcDbEntity
  8
1
  6
Continuous
100
AcDbLine
 10
138.1646259999999
 20
92.00985199999999
 30
0.0
 11
128.164626
 21
92.00985199999999
 31
0.0
  0
ARC
  5
C11A
330
BDFA
100
AcDbEntity
  8
1
  6
Continuous
100
AcDbCircle
 10
135.6646259999999
 20
84.78455999999999
 30
0.0
 40
7.225291999999997
100
AcDbArc
 50
69.75673399999999
 51
110.2432659999999
  0
LINE
  5
C11B
330
BDFA
100
AcDbEntity
  8
1
  6
Continuous
100
AcDbLine
 10
66.266049
 20
159.2340379999999
 30
0.0
 11
64.366049
 21
157.3340379999999
 31
0.0
  0
ARC
  5
C11C
330
BDFA
100
AcDbEntity
  8
1
  6
Continuous
100
AcDbCircle
 10
75.826998
 20
157.3345379999999
 30
0.0
 40
9.560949
100
AcDbArc
 50
162.4247879999998
 51
197.5752119999999
  0
ARC
  5
C11D
330
BDFA
100
AcDbEntity
  8
1
  6
Continuous
100
AcDbCircle
 10
60.305101
 20
157.3345379999999
 30
0.0
 40
9.560949
100
AcDbArc
 50
342.4247879999999
 51
17.575212
  0
LINE
  5
C11E
330
BDFA
100
AcDbEntity
  8
1
  6
Continuous
100
AcDbLine
 10
71.36584899999999
 20
159.7925379999998
 30
0.0
 11
71.36584899999999
 21
154.8755379999998
 31
0.0
  0
LINE
  5
C11F
330
BDFA
100
AcDbEntity
  8
1
  6
Continuous
100
AcDbLine
 10
70.82434899999999
 20
160.3340379999998
 30
0.0
 11
70.82434899999999
 21
154.334038
 31
0.0
  0
LINE
  5
C120
330
BDFA
100
AcDbEntity
  8
1
  6
Continuous
100
AcDbLine
 10
66.266049
 20
163.4340379999999
 30
0.0
 11
66.266049
 21
151.2340379999999
 31
0.0
  0
LINE
  5
C121
330
BDFA
100
AcDbEntity
  8
1
  6
Continuous
100
AcDbLine
 10
69.866049
 20
162.3345379999999
 30
0.0
 11
69.866049
 21
152.3335379999998
 31
0.0
  0
ARC
  5
C122
330
BDFA
100
AcDbEntity
  8
1
  6
Continuous
100
AcDbCircle
 10
130.6646259999999
 20
95.635144
 30
0.0
 40
7.225291999999997
100
AcDbArc
 50
249.7567339999999
 51
290.243266
  0
ARC
  5
C123
330
BDFA
100
AcDbEntity
  8
1
  6
Continuous
100
AcDbCircle
 10
130.6646259999999
 20
84.78455999999999
 30
0.0
 40
7.225291999999997
100
AcDbArc
 50
69.75673399999999
 51
110.2432659999999
  0
LINE
  5
C124
330
BDFA
100
AcDbEntity
  8
1
  6
Continuous
100
AcDbLine
 10
128.164626
 20
88.409852
 30
0.0
 11
128.164626
 21
92.00985199999999
 31
0.0
  0
ARC
  5
C125
330
BDFA
100
AcDbEntity
  8
1
  6
Continuous
100
AcDbCircle
 10
135.6646259999999
 20
95.635144
 30
0.0
 40
7.225291999999997
100
AcDbArc
 50
249.7567339999999
 51
288.2942969999998
  0
LINE
  5
C126
330
BDFA
100
AcDbEntity
  8
1
  6
Continuous
100
AcDbLine
 10
133.164626
 20
91.56356
 30
0.0
 11
133.164626
 21
88.85614399999999
 31
0.0
  0
LINE
  5
C127
330
BDFA
100
AcDbEntity
  8
2
  6
Continuous
100
AcDbLine
 10
135.623126
 20
93.509652
 30
0.0
 11
135.623126
 21
92.00985199999999
 31
0.0
  0
LINE
  5
C128
330
BDFA
100
AcDbEntity
  8
1
  6
Continuous
100
AcDbLine
 10
136.164626
 20
92.96815200000001
 30
0.0
 11
136.164626
 21
92.00985199999999
 31
0.0
  0
LINE
  5
C129
330
BDFA
100
AcDbEntity
  8
1
  6
Continuous
100
AcDbLine
 10
136.164626
 20
92.96815200000001
 30
0.0
 11
130.164626
 21
92.96815200000001
 31
0.0
  0
LINE
  5
C12A
330
BDFA
100
AcDbEntity
  8
1
  6
Continuous
100
AcDbLine
 10
135.623126
 20
93.509652
 30
0.0
 11
136.164626
 21
92.96815200000001
 31
0.0
  0
LINE
  5
C12B
330
BDFA
100
AcDbEntity
  8
1
  6
Continuous
100
AcDbLine
 10
135.623126
 20
93.509652
 30
0.0
 11
130.706126
 21
93.509652
 31
0.0
  0
LINE
  5
C12C
330
BDFA
100
AcDbEntity
  8
1
  6
Continuous
100
AcDbLine
 10
130.164626
 20
92.96815200000001
 30
0.0
 11
130.164626
 21
92.00985199999999
 31
0.0
  0
LINE
  5
C12D
330
BDFA
100
AcDbEntity
  8
2
  6
Continuous
100
AcDbLine
 10
130.706126
 20
93.509652
 30
0.0
 11
130.706126
 21
92.00985199999999
 31
0.0
  0
LINE
  5
C12E
330
BDFA
100
AcDbEntity
  8
1
  6
Continuous
100
AcDbLine
 10
130.706126
 20
93.509652
 30
0.0
 11
130.164626
 21
92.96815200000001
 31
0.0
  0
LINE
  5
C12F
330
BDFA
100
AcDbEntity
  8
1
  6
Continuous
100
AcDbLine
 10
131.2646259999999
 20
88.409852
 30
0.0
 11
133.164626
 21
86.50985199999999
 31
0.0
  0
LINE
  5
C130
330
BDFA
100
AcDbEntity
  8
1
  6
Continuous
100
AcDbLine
 10
133.164626
 20
88.409852
 30
0.0
 11
135.0646259999997
 21
86.50985199999999
 31
0.0
  0
LINE
  5
C131
330
BDFA
100
AcDbEntity
  8
1
  6
Continuous
100
AcDbLine
 10
127.064626
 20
88.409852
 30
0.0
 11
127.064626
 21
86.50985199999999
 31
0.0
  0
LINE
  5
C132
330
BDFA
100
AcDbEntity
  8
1
  6
Continuous
100
AcDbLine
 10
127.064626
 20
88.409852
 30
0.0
 11
137.6849879999997
 21
88.409852
 31
0.0
  0
LINE
  5
C133
330
BDFA
100
AcDbEntity
  8
1
  6
Continuous
100
AcDbLine
 10
66.266049
 20
157.3340379999999
 30
0.0
 11
64.366049
 21
155.434038
 31
0.0
  0
LINE
  5
C134
330
BDFA
100
AcDbEntity
  8
1
  6
Continuous
100
AcDbLine
 10
66.266049
 20
151.2340379999999
 30
0.0
 11
64.366049
 21
151.2340379999999
 31
0.0
  0
LINE
  5
C135
330
BDFA
100
AcDbEntity
  8
1
  6
Continuous
100
AcDbLine
 10
66.71234100000001
 20
154.4475379999998
 30
0.0
 11
69.419758
 21
154.4475379999998
 31
0.0
  0
LINE
  5
C136
330
BDFA
100
AcDbEntity
  8
2
  6
Continuous
100
AcDbLine
 10
71.36584899999999
 20
154.8755379999998
 30
0.0
 11
69.866049
 21
154.8755379999998
 31
0.0
  0
LINE
  5
C137
330
BDFA
100
AcDbEntity
  8
1
  6
Continuous
100
AcDbLine
 10
70.82434899999999
 20
154.334038
 30
0.0
 11
69.866049
 21
154.334038
 31
0.0
  0
LINE
  5
C138
330
BDFA
100
AcDbEntity
  8
1
  6
Continuous
100
AcDbLine
 10
71.36584899999999
 20
154.8755379999998
 30
0.0
 11
70.82434899999999
 21
154.334038
 31
0.0
  0
LINE
  5
C139
330
BDFA
100
AcDbEntity
  8
1
  6
Continuous
100
AcDbLine
 10
66.71234100000001
 20
151.5605379999998
 30
0.0
 11
69.419758
 21
151.5605379999998
 31
0.0
  0
LINE
  5
C13A
330
BDFA
100
AcDbEntity
  8
1
  6
Continuous
100
AcDbLine
 10
66.266049
 20
152.3335379999998
 30
0.0
 11
66.71234100000001
 21
151.5605379999998
 31
0.0
  0
ARC
  5
C13B
330
BDFA
100
AcDbEntity
  8
1
  6
Continuous
100
AcDbCircle
 10
68.82204899999999
 20
153.0045379999999
 30
0.0
 40
2.55582
100
AcDbArc
 50
214.3528569999999
 51
214.3839999999999
  0
ARC
  5
C13C
330
BDFA
100
AcDbEntity
  8
1
  6
Continuous
100
AcDbCircle
 10
67.31004899999999
 20
153.0045379999999
 30
0.0
 40
2.55582
100
AcDbArc
 50
325.6159999999998
 51
325.647143
  0
LINE
  5
C13D
330
BDFA
100
AcDbEntity
  8
1
  6
Continuous
100
AcDbLine
 10
69.866049
 20
152.3335379999998
 30
0.0
 11
69.419758
 21
151.5605379999998
 31
0.0
  0
ARC
  5
C13E
330
BDFA
100
AcDbEntity
  8
1
  6
Continuous
100
AcDbCircle
 10
67.31006999999999
 20
153.0035379999999
 30
0.0
 40
2.555979999999999
100
AcDbArc
 50
334.371637
 51
34.371637
  0
ARC
  5
C13F
330
BDFA
100
AcDbEntity
  8
1
  6
Continuous
100
AcDbCircle
 10
68.822029
 20
153.0035379999999
 30
0.0
 40
2.555979999999999
100
AcDbArc
 50
145.6283629999998
 51
205.6283629999998
  0
LINE
  5
C140
330
BDFA
100
AcDbEntity
  8
1
  6
Continuous
100
AcDbLine
 10
66.266049
 20
163.4340379999999
 30
0.0
 11
64.366049
 21
163.4340379999999
 31
0.0
  0
LINE
  5
C141
330
BDFA
100
AcDbEntity
  8
1
  6
Continuous
100
AcDbLine
 10
66.71234100000001
 20
163.1075379999998
 30
0.0
 11
69.419758
 21
163.1075379999998
 31
0.0
  0
LINE
  5
C142
330
BDFA
100
AcDbEntity
  8
1
  6
Continuous
100
AcDbLine
 10
66.71234100000001
 20
160.2215379999998
 30
0.0
 11
69.419758
 21
160.2215379999998
 31
0.0
  0
LINE
  5
C143
330
BDFA
100
AcDbEntity
  8
1
  6
Continuous
100
AcDbLine
 10
66.266049
 20
162.3345379999999
 30
0.0
 11
66.71234100000001
 21
163.1075379999998
 31
0.0
  0
ARC
  5
C144
330
BDFA
100
AcDbEntity
  8
1
  6
Continuous
100
AcDbCircle
 10
68.822029
 20
161.664538
 30
0.0
 40
2.555979999999999
100
AcDbArc
 50
154.371637
 51
214.371637
  0
LINE
  5
C145
330
BDFA
100
AcDbEntity
  8
1
  6
Continuous
100
AcDbLine
 10
69.866049
 20
162.3345379999999
 30
0.0
 11
69.419758
 21
163.1075379999998
 31
0.0
  0
ARC
  5
C146
330
BDFA
100
AcDbEntity
  8
1
  6
Continuous
100
AcDbCircle
 10
67.31006999999999
 20
161.664538
 30
0.0
 40
2.555979999999999
100
AcDbArc
 50
325.6283629999999
 51
25.628363
  0
LINE
  5
C147
330
BDFA
100
AcDbEntity
  8
2
  6
Continuous
100
AcDbLine
 10
71.36584899999999
 20
159.7925379999998
 30
0.0
 11
69.866049
 21
159.7925379999998
 31
0.0
  0
LINE
  5
C148
330
BDFA
100
AcDbEntity
  8
1
  6
Continuous
100
AcDbLine
 10
70.82434899999999
 20
160.3340379999998
 30
0.0
 11
69.866049
 21
160.3340379999998
 31
0.0
  0
LINE
  5
C149
330
BDFA
100
AcDbEntity
  8
1
  6
Continuous
100
AcDbLine
 10
71.36584899999999
 20
159.7925379999998
 30
0.0
 11
70.82434899999999
 21
160.3340379999998
 31
0.0
  0
LINE
  5
C14A
330
BDFA
100
AcDbEntity
  8
1
  6
Continuous
100
AcDbLine
 10
138.1646259999999
 20
154.447237
 30
0.0
 11
138.1646259999999
 21
160.221237
 31
0.0
  0
LINE
  5
C14B
330
BDFA
100
AcDbEntity
  8
1
  6
Continuous
100
AcDbLine
 10
128.164626
 20
154.447237
 30
0.0
 11
128.164626
 21
160.221237
 31
0.0
  0
CIRCLE
  5
C14C
330
BDFA
100
AcDbEntity
  8
1
  6
Continuous
100
AcDbCircle
 10
133.164626
 20
157.3342369999998
 30
0.0
 40
3.0
  0
CIRCLE
  5
C14D
330
BDFA
100
AcDbEntity
  8
1
  6
Continuous
100
AcDbCircle
 10
133.164626
 20
157.3342369999998
 30
0.0
 40
5.0
  0
CIRCLE
  5
C14E
330
BDFA
100
AcDbEntity
  8
1
  6
Continuous
100
AcDbCircle
 10
133.164626
 20
157.3342369999998
 30
0.0
 40
6.099999999999997
  0
LINE
  5
C14F
330
BDFA
100
AcDbEntity
  8
1
  6
Continuous
100
AcDbLine
 10
138.1646259999999
 20
89.051187
 30
0.0
 11
138.1646259999999
 21
92.00985199999999
 31
0.0
  0
LINE
  5
C150
330
BDFA
100
AcDbEntity
  8
1
  6
Continuous
100
AcDbLine
 10
138.1646259999999
 20
154.447237
 30
0.0
 11
133.164626
 21
151.560237
 31
0.0
  0
CIRCLE
  5
C151
330
BDFA
100
AcDbEntity
  8
2
  6
Continuous
100
AcDbCircle
 10
133.164626
 20
157.3342369999998
 30
0.0
 40
2.458499999999999
  0
LINE
  5
C152
330
BDFA
100
AcDbEntity
  8
1
  6
Continuous
100
AcDbLine
 10
128.164626
 20
154.447237
 30
0.0
 11
133.164626
 21
151.560237
 31
0.0
  0
LINE
  5
C153
330
BDFA
100
AcDbEntity
  8
1
  6
Continuous
100
AcDbLine
 10
133.164626
 20
163.107237
 30
0.0
 11
138.1646259999999
 21
160.221237
 31
0.0
  0
LINE
  5
C154
330
BDFA
100
AcDbEntity
  8
1
  6
Continuous
100
AcDbLine
 10
133.164626
 20
163.107237
 30
0.0
 11
128.164626
 21
160.221237
 31
0.0
  0
LINE
  5
C155
330
BDFA
100
AcDbEntity
  8
1
  6
Continuous
100
AcDbLine
 10
64.366049
 20
163.4340379999999
 30
0.0
 11
64.366049
 21
151.2340379999999
 31
0.0
  0
LINE
  5
C156
330
BDFA
100
AcDbEntity
  8
1
  6
Continuous
100
AcDbLine
 10
211.3632029999999
 20
162.3345379999999
 30
0.0
 11
211.3632029999999
 21
152.3335379999998
 31
0.0
  0
ARC
  5
C157
330
BDFA
100
AcDbEntity
  8
1
  6
Continuous
100
AcDbCircle
 10
213.919183
 20
153.0035379999999
 30
0.0
 40
2.555979999999999
100
AcDbArc
 50
145.6283629999998
 51
205.6283629999998
  0
LINE
  5
C158
330
BDFA
100
AcDbEntity
  8
1
  6
Continuous
100
AcDbLine
 10
213.384373
 20
151.5605379999998
 30
0.0
 11
211.809495
 21
151.5605379999998
 31
0.0
  0
LINE
  5
C159
330
BDFA
100
AcDbEntity
  8
1
  6
Continuous
100
AcDbLine
 10
211.3632029999999
 20
152.3335379999998
 30
0.0
 11
211.809495
 21
151.5605379999998
 31
0.0
  0
ARC
  5
C15A
330
BDFA
100
AcDbEntity
  8
1
  6
Continuous
100
AcDbCircle
 10
213.9192029999999
 20
153.0045379999999
 30
0.0
 40
2.55582
100
AcDbArc
 50
214.3528569999999
 51
214.3839999999999
  0
LINE
  5
C15B
330
BDFA
100
AcDbEntity
  8
1
  6
Continuous
100
AcDbLine
 10
210.404903
 20
160.3340379999998
 30
0.0
 11
210.404903
 21
154.334038
 31
0.0
  0
LINE
  5
C15C
330
BDFA
100
AcDbEntity
  8
1
  6
Continuous
100
AcDbLine
 10
209.8634029999999
 20
159.7925379999998
 30
0.0
 11
209.8634029999999
 21
154.8755379999998
 31
0.0
  0
ARC
  5
C15D
330
BDFA
100
AcDbEntity
  8
1
  6
Continuous
100
AcDbCircle
 10
220.9241519999999
 20
157.3345379999999
 30
0.0
 40
9.560949
100
AcDbArc
 50
162.4247879999998
 51
197.5752119999999
  0
LINE
  5
C15E
330
BDFA
100
AcDbEntity
  8
1
  6
Continuous
100
AcDbLine
 10
213.384373
 20
154.4475379999998
 30
0.0
 11
211.809495
 21
154.4475379999998
 31
0.0
  0
LINE
  5
C15F
330
BDFA
100
AcDbEntity
  8
1
  6
Continuous
100
AcDbLine
 10
209.8634029999999
 20
154.8755379999998
 30
0.0
 11
210.404903
 21
154.334038
 31
0.0
  0
LINE
  5
C160
330
BDFA
100
AcDbEntity
  8
1
  6
Continuous
100
AcDbLine
 10
210.404903
 20
154.334038
 30
0.0
 11
211.3632029999999
 21
154.334038
 31
0.0
  0
LINE
  5
C161
330
BDFA
100
AcDbEntity
  8
2
  6
Continuous
100
AcDbLine
 10
209.8634029999999
 20
154.8755379999998
 30
0.0
 11
211.3632029999999
 21
154.8755379999998
 31
0.0
  0
LINE
  5
C162
330
BDFA
100
AcDbEntity
  8
1
  6
Continuous
100
AcDbLine
 10
213.384373
 20
160.2215379999998
 30
0.0
 11
211.809495
 21
160.2215379999998
 31
0.0
  0
LINE
  5
C163
330
BDFA
100
AcDbEntity
  8
1
  6
Continuous
100
AcDbLine
 10
213.789919
 20
163.1075379999998
 30
0.0
 11
211.809495
 21
163.1075379999998
 31
0.0
  0
LINE
  5
C164
330
BDFA
100
AcDbEntity
  8
1
  6
Continuous
100
AcDbLine
 10
209.8634029999999
 20
159.7925379999998
 30
0.0
 11
210.404903
 21
160.3340379999998
 31
0.0
  0
LINE
  5
C165
330
BDFA
100
AcDbEntity
  8
1
  6
Continuous
100
AcDbLine
 10
210.404903
 20
160.3340379999998
 30
0.0
 11
211.3632029999999
 21
160.3340379999998
 31
0.0
  0
LINE
  5
C166
330
BDFA
100
AcDbEntity
  8
2
  6
Continuous
100
AcDbLine
 10
209.8634029999999
 20
159.7925379999998
 30
0.0
 11
211.3632029999999
 21
159.7925379999998
 31
0.0
  0
ARC
  5
C167
330
BDFA
100
AcDbEntity
  8
1
  6
Continuous
100
AcDbCircle
 10
213.919183
 20
161.664538
 30
0.0
 40
2.555979999999999
100
AcDbArc
 50
154.371637
 51
214.371637
  0
LINE
  5
C168
330
BDFA
100
AcDbEntity
  8
1
  6
Continuous
100
AcDbLine
 10
211.3632029999999
 20
162.3345379999999
 30
0.0
 11
211.809495
 21
163.1075379999998
 31
0.0
  0
LINE
  5
C169
330
BDFA
100
AcDbEntity
  8
1
  6
Continuous
100
AcDbLine
 10
138.1646189999998
 20
254.217462
 30
0.0
 11
128.1646189999999
 21
254.217462
 31
0.0
  0
ARC
  5
C16A
330
BDFA
100
AcDbEntity
  8
1
  6
Continuous
100
AcDbCircle
 10
135.6646189999999
 20
261.4427539999999
 30
0.0
 40
7.225291999999997
100
AcDbArc
 50
249.7567339999999
 51
290.243266
  0
ARC
  5
C16B
330
BDFA
100
AcDbEntity
  8
1
  6
Continuous
100
AcDbCircle
 10
130.6646189999999
 20
250.59217
 30
0.0
 40
7.225291999999997
100
AcDbArc
 50
69.75673399999999
 51
110.2432659999999
  0
ARC
  5
C16C
330
BDFA
100
AcDbEntity
  8
1
  6
Continuous
100
AcDbCircle
 10
130.6646189999999
 20
261.4427539999999
 30
0.0
 40
7.225291999999997
100
AcDbArc
 50
249.7567339999999
 51
290.243266
  0
LINE
  5
C16D
330
BDFA
100
AcDbEntity
  8
1
  6
Continuous
100
AcDbLine
 10
128.1646189999999
 20
257.8174619999999
 30
0.0
 11
128.1646189999999
 21
254.217462
 31
0.0
  0
ARC
  5
C16E
330
BDFA
100
AcDbEntity
  8
1
  6
Continuous
100
AcDbCircle
 10
135.6646189999999
 20
250.59217
 30
0.0
 40
7.225291999999997
100
AcDbArc
 50
69.75673399999999
 51
110.2432659999999
  0
LINE
  5
C16F
330
BDFA
100
AcDbEntity
  8
1
  6
Continuous
100
AcDbLine
 10
133.1646189999998
 20
254.663754
 30
0.0
 11
133.1646189999998
 21
257.37117
 31
0.0
  0
LINE
  5
C170
330
BDFA
100
AcDbEntity
  8
2
  6
Continuous
100
AcDbLine
 10
135.623119
 20
252.717662
 30
0.0
 11
135.623119
 21
254.217462
 31
0.0
  0
LINE
  5
C171
330
BDFA
100
AcDbEntity
  8
1
  6
Continuous
100
AcDbLine
 10
136.1646189999998
 20
253.259162
 30
0.0
 11
136.1646189999998
 21
254.217462
 31
0.0
  0
LINE
  5
C172
330
BDFA
100
AcDbEntity
  8
1
  6
Continuous
100
AcDbLine
 10
136.1646189999998
 20
253.259162
 30
0.0
 11
130.1646189999999
 21
253.259162
 31
0.0
  0
LINE
  5
C173
330
BDFA
100
AcDbEntity
  8
1
  6
Continuous
100
AcDbLine
 10
135.623119
 20
252.717662
 30
0.0
 11
136.1646189999998
 21
253.259162
 31
0.0
  0
LINE
  5
C174
330
BDFA
100
AcDbEntity
  8
1
  6
Continuous
100
AcDbLine
 10
135.623119
 20
252.717662
 30
0.0
 11
130.7061189999998
 21
252.717662
 31
0.0
  0
LINE
  5
C175
330
BDFA
100
AcDbEntity
  8
1
  6
Continuous
100
AcDbLine
 10
130.1646189999999
 20
253.259162
 30
0.0
 11
130.1646189999999
 21
254.217462
 31
0.0
  0
LINE
  5
C176
330
BDFA
100
AcDbEntity
  8
2
  6
Continuous
100
AcDbLine
 10
130.7061189999998
 20
252.717662
 30
0.0
 11
130.7061189999998
 21
254.217462
 31
0.0
  0
LINE
  5
C177
330
BDFA
100
AcDbEntity
  8
1
  6
Continuous
100
AcDbLine
 10
130.7061189999998
 20
252.717662
 30
0.0
 11
130.1646189999999
 21
253.259162
 31
0.0
  0
LINE
  5
C178
330
BDFA
100
AcDbEntity
  8
1
  6
Continuous
100
AcDbLine
 10
127.0646189999998
 20
257.8174619999999
 30
0.0
 11
127.0646189999998
 21
259.717462
 31
0.0
  0
LINE
  5
C179
330
BDFA
100
AcDbEntity
  8
1
  6
Continuous
100
AcDbLine
 10
127.0646189999998
 20
257.8174619999999
 30
0.0
 11
138.4567719999998
 21
257.8174619999999
 31
0.0
  0
LINE
  5
C17A
330
BDFA
100
AcDbEntity
  8
1
  6
Continuous
100
AcDbLine
 10
138.1646189999998
 20
257.8174619999999
 30
0.0
 11
138.1646189999998
 21
254.217462
 31
0.0
  0
LINE
  5
C17B
330
BDFA
100
AcDbEntity
  8
1
  6
Continuous
100
AcDbLine
 10
325.7117799999999
 20
186.285782
 30
0.0
 11
325.7117799999999
 21
161.9282829999999
 31
0.0
  0
LINE
  5
C17C
330
BDFA
100
AcDbEntity
  8
4
  6
CENTER
100
AcDbLine
 10
333.56178
 20
127.334237
 30
0.0
 11
333.56178
 21
185.334237
 31
0.0
  0
LINE
  5
C17D
330
BDFA
100
AcDbEntity
  8
4
  6
CENTER
100
AcDbLine
 10
314.56178
 20
219.334308
 30
0.0
 11
314.56178
 21
166.79426
 31
0.0
  0
LINE
  5
C17E
330
BDFA
100
AcDbEntity
  8
4
  6
CENTER
100
AcDbLine
 10
363.5617799999999
 20
157.3342369999998
 30
0.0
 11
303.56178
 21
157.3342369999998
 31
0.0
  0
LINE
  5
C17F
330
BDFA
100
AcDbEntity
  8
5
  6
PHANTOM
100
AcDbLine
 10
363.221448
 20
152.112237
 30
0.0
 11
358.375763
 21
154.2901799999999
 31
0.0
  0
ARC
  5
C180
330
BDFA
100
AcDbEntity
  8
5
  6
PHANTOM
100
AcDbCircle
 10
360.847532
 20
142.4909979999999
 30
0.0
 40
6.739846
100
AcDbArc
 50
110.49842
 51
128.3985869999999
  0
ARC
  5
C181
330
BDFA
100
AcDbEntity
  8
5
  6
PHANTOM
100
AcDbCircle
 10
2254.913419
 20
-4923.843986
 30
0.0
 40
5415.550781
100
AcDbArc
 50
110.4658879999998
 51
110.49842
  0
ARC
  5
C182
330
BDFA
100
AcDbEntity
  8
5
  6
PHANTOM
100
AcDbCircle
 10
362.2754799999999
 20
147.44925
 30
0.0
 40
2.594708999999999
100
AcDbArc
 50
82.299123
 51
110.4658879999998
  0
LINE
  5
C183
330
BDFA
100
AcDbEntity
  8
5
  6
PHANTOM
100
AcDbLine
 10
363.221433
 20
152.112237
 30
0.0
 11
362.623166
 21
150.020562
 31
0.0
  0
LINE
  5
C184
330
BDFA
100
AcDbEntity
  8
1
  6
Continuous
100
AcDbLine
 10
359.8979770000001
 20
171.9414149999998
 30
0.0
 11
354.7615519999998
 21
170.5845089999999
 31
0.0
  0
ARC
  5
C185
330
BDFA
100
AcDbEntity
  8
1
  6
Continuous
100
AcDbCircle
 10
362.097349
 20
167.722283
 30
0.0
 40
2.594708999999999
100
AcDbArc
 50
121.299128
 51
149.4658849999999
  0
LINE
  5
C186
330
BDFA
100
AcDbEntity
  8
1
  6
Continuous
100
AcDbLine
 10
359.8979770000001
 20
171.9414149999998
 30
0.0
 11
360.7493719999998
 21
169.939378
 31
0.0
  0
ARC
  5
C187
330
BDFA
100
AcDbEntity
  8
1
  6
Continuous
100
AcDbCircle
 10
364.1079529999998
 20
162.9703609999999
 30
0.0
 40
6.739846
100
AcDbArc
 50
149.498421
 51
167.3987689999998
  0
ARC
  5
C188
330
BDFA
100
AcDbEntity
  8
1
  6
Continuous
100
AcDbCircle
 10
5024.421597999999
 20
-2582.33715
 30
0.0
 40
5415.550781
100
AcDbArc
 50
149.4658849999999
 51
149.498421
  0
ARC
  5
C189
330
BDFA
100
AcDbEntity
  8
5
  6
PHANTOM
100
AcDbCircle
 10
321.170209
 20
213.117394
 30
0.0
 40
56.58425499999999
100
AcDbArc
 50
253.9016499999999
 51
257.132924
  0
ARC
  5
C18A
330
BDFA
100
AcDbEntity
  8
1
  6
Continuous
100
AcDbCircle
 10
304.4080789999998
 20
156.003205
 30
0.0
 40
16.543596
100
AcDbArc
 50
271.0747809999999
 51
292.901647
  0
LINE
  5
C18B
330
BDFA
100
AcDbEntity
  8
1
  6
Continuous
100
AcDbLine
 10
308.8995949999999
 20
149.0994879999998
 30
0.0
 11
301.4672369999999
 21
139.991952
 31
0.0
  0
LINE
  5
C18C
330
BDFA
100
AcDbEntity
  8
1
  6
Continuous
100
AcDbLine
 10
302.815687
 20
138.812478
 30
0.0
 11
303.7596299999999
 21
139.936709
 31
0.0
  0
LINE
  5
C18D
330
BDFA
100
AcDbEntity
  8
5
  6
PHANTOM
100
AcDbLine
 10
309.2133609999998
 20
166.4550409999999
 30
0.0
 11
297.7057779999999
 21
164.054498
 31
0.0
  0
LINE
  5
C18E
330
BDFA
100
AcDbEntity
  8
5
  6
PHANTOM
100
AcDbLine
 10
298.0114569999999
 20
162.289285
 30
0.0
 11
299.4525349999999
 21
162.568932
 31
0.0
  0
ARC
  5
C18F
330
BDFA
100
AcDbEntity
  8
1
  6
Continuous
100
AcDbCircle
 10
288.8262459999999
 20
192.887628
 30
0.0
 40
56.58425499999999
100
AcDbArc
 50
292.901647
 51
296.132919
  0
ARC
  5
C190
330
BDFA
100
AcDbEntity
  8
1
  6
Continuous
100
AcDbCircle
 10
309.706617
 20
151.9927759999999
 30
0.0
 40
3.003727999999998
100
AcDbArc
 50
254.414815
 51
275.4322649999999
  0
ARC
  5
C191
330
BDFA
100
AcDbEntity
  8
5
  6
PHANTOM
100
AcDbCircle
 10
311.661344
 20
168.19568
 30
0.0
 40
3.003727999999998
100
AcDbArc
 50
215.4148139999998
 51
236.4322789999999
  0
LINE
  5
C192
330
BDFA
100
AcDbEntity
  8
1
  6
Continuous
100
AcDbLine
 10
302.815671
 20
138.812478
 30
0.0
 11
301.4672369999999
 21
139.9919439999999
 31
0.0
  0
ARC
  5
C193
330
BDFA
100
AcDbEntity
  8
1
  6
Continuous
100
AcDbCircle
 10
304.696592
 20
140.6248019999999
 30
0.0
 40
1.162484
100
AcDbArc
 50
216.292623
 51
271.0747809999999
  0
LINE
  5
C194
330
BDFA
100
AcDbEntity
  8
5
  6
PHANTOM
100
AcDbLine
 10
298.0114569999999
 20
162.2892769999999
 30
0.0
 11
297.705793
 21
164.054498
 31
0.0
  0
ARC
  5
C195
330
BDFA
100
AcDbEntity
  8
5
  6
PHANTOM
100
AcDbCircle
 10
300.6137209999999
 20
162.5140159999999
 30
0.0
 40
1.162484
100
AcDbArc
 50
177.2926239999999
 51
232.0747789999999
  0
ARC
  5
C196
330
BDFA
100
AcDbEntity
  8
5
  6
PHANTOM
100
AcDbCircle
 10
310.0674569999998
 20
174.6468439999999
 30
0.0
 40
16.543596
100
AcDbArc
 50
232.0747789999999
 51
253.9016499999999
  0
LINE
  5
C197
330
BDFA
100
AcDbEntity
  8
1
  6
Continuous
100
AcDbLine
 10
337.50928
 20
185.182041
 30
0.0
 11
339.7782369999998
 21
185.215798
 31
0.0
  0
ARC
  5
C198
330
BDFA
100
AcDbEntity
  8
1
  6
Continuous
100
AcDbCircle
 10
339.094627
 20
185.8624879999999
 30
0.0
 40
1.351175999999999
100
AcDbArc
 50
50.763314
 51
91.14576300000001
  0
ARC
  5
C199
330
BDFA
100
AcDbEntity
  8
1
  6
Continuous
100
AcDbCircle
 10
339.773095
 20
185.561442
 30
0.0
 40
0.345682
100
AcDbArc
 50
270.852372
 51
313.097669
  0
LINE
  5
C19A
330
BDFA
100
AcDbEntity
  8
1
  6
Continuous
100
AcDbLine
 10
340.0092799999999
 20
185.994028
 30
0.0
 11
340.0092799999999
 21
185.309028
 31
0.0
  0
LINE
  5
C19B
330
BDFA
100
AcDbEntity
  8
1
  6
Continuous
100
AcDbLine
 10
339.9492799999998
 20
186.9090279999998
 30
0.0
 11
340.0092799999999
 21
185.994028
 31
0.0
  0
LINE
  5
C19C
330
BDFA
100
AcDbEntity
  8
1
  6
Continuous
100
AcDbLine
 10
308.3788909999999
 20
190.0222369999999
 30
0.0
 11
306.5756209999999
 21
191.604507
 31
0.0
  0
LINE
  5
C19D
330
BDFA
100
AcDbEntity
  8
1
  6
Continuous
100
AcDbLine
 10
306.5756209999999
 20
190.0222369999999
 30
0.0
 11
308.3788909999999
 21
191.604507
 31
0.0
  0
LINE
  5
C19E
330
BDFA
100
AcDbEntity
  8
1
  6
Continuous
100
AcDbLine
 10
326.7608559999998
 20
195.4343279999999
 30
0.0
 11
302.362743
 21
195.4343279999999
 31
0.0
  0
LINE
  5
C19F
330
BDFA
100
AcDbEntity
  8
1
  6
Continuous
100
AcDbLine
 10
330.5619599999999
 20
192.7988189999999
 30
0.0
 11
298.5615989999999
 21
192.7988189999999
 31
0.0
  0
LINE
  5
C1A0
330
BDFA
100
AcDbEntity
  8
1
  6
Continuous
100
AcDbLine
 10
325.5314349999999
 20
199.334308
 30
0.0
 11
303.592125
 21
199.334308
 31
0.0
  0
LINE
  5
C1A1
330
BDFA
100
AcDbEntity
  8
1
  6
Continuous
100
AcDbLine
 10
330.071347
 20
193.374507
 30
0.0
 11
299.052213
 21
193.374507
 31
0.0
  0
LINE
  5
C1A2
330
BDFA
100
AcDbEntity
  8
1
  6
Continuous
100
AcDbLine
 10
330.81178
 20
191.604507
 30
0.0
 11
298.31178
 21
191.604507
 31
0.0
  0
LINE
  5
C1A3
330
BDFA
100
AcDbEntity
  8
1
  6
Continuous
100
AcDbLine
 10
330.8312
 20
190.0222369999999
 30
0.0
 11
297.883502
 21
190.0222369999999
 31
0.0
  0
LINE
  5
C1A4
330
BDFA
100
AcDbEntity
  8
1
  6
Continuous
100
AcDbLine
 10
309.076952
 20
195.4343279999999
 30
0.0
 11
309.076952
 21
199.334308
 31
0.0
  0
LINE
  5
C1A5
330
BDFA
100
AcDbEntity
  8
1
  6
Continuous
100
AcDbLine
 10
320.046607
 20
195.4343279999999
 30
0.0
 11
320.046607
 21
199.334308
 31
0.0
  0
LINE
  5
C1A6
330
BDFA
100
AcDbEntity
  8
1
  6
Continuous
100
AcDbLine
 10
325.5314349999999
 20
195.4343279999999
 30
0.0
 11
325.5314349999999
 21
199.334308
 31
0.0
  0
LINE
  5
C1A7
330
BDFA
100
AcDbEntity
  8
1
  6
Continuous
100
AcDbLine
 10
323.228133
 20
190.0222369999999
 30
0.0
 11
321.424863
 21
191.604507
 31
0.0
  0
LINE
  5
C1A8
330
BDFA
100
AcDbEntity
  8
1
  6
Continuous
100
AcDbLine
 10
321.424863
 20
190.0222369999999
 30
0.0
 11
323.228133
 21
191.604507
 31
0.0
  0
LINE
  5
C1A9
330
BDFA
100
AcDbEntity
  8
1
  6
Continuous
100
AcDbLine
 10
325.3494539999999
 20
190.0222369999999
 30
0.0
 11
323.5461839999999
 21
191.604507
 31
0.0
  0
LINE
  5
C1AA
330
BDFA
100
AcDbEntity
  8
1
  6
Continuous
100
AcDbLine
 10
323.5461839999999
 20
190.0222369999999
 30
0.0
 11
325.3494539999999
 21
191.604507
 31
0.0
  0
LINE
  5
C1AB
330
BDFA
100
AcDbEntity
  8
1
  6
Continuous
100
AcDbLine
 10
329.5920939999998
 20
190.0222369999999
 30
0.0
 11
327.7888239999999
 21
191.604507
 31
0.0
  0
LINE
  5
C1AC
330
BDFA
100
AcDbEntity
  8
1
  6
Continuous
100
AcDbLine
 10
327.7888239999999
 20
190.0222369999999
 30
0.0
 11
329.5920939999998
 21
191.604507
 31
0.0
  0
ARC
  5
C1AD
330
BDFA
100
AcDbEntity
  8
1
  6
Continuous
100
AcDbCircle
 10
326.7608559999998
 20
192.9343279999999
 30
0.0
 40
2.5
100
AcDbArc
 50
10.141019
 51
90.0
  0
LINE
  5
C1AE
330
BDFA
100
AcDbEntity
  8
1
  6
Continuous
100
AcDbLine
 10
327.470774
 20
190.0222369999999
 30
0.0
 11
325.667504
 21
191.604507
 31
0.0
  0
LINE
  5
C1AF
330
BDFA
100
AcDbEntity
  8
1
  6
Continuous
100
AcDbLine
 10
325.667504
 20
190.0222369999999
 30
0.0
 11
327.470774
 21
191.604507
 31
0.0
  0
LINE
  5
C1B0
330
BDFA
100
AcDbEntity
  8
1
  6
Continuous
100
AcDbLine
 10
330.81178
 20
191.604507
 30
0.0
 11
330.81178
 21
190.0222369999999
 31
0.0
  0
LINE
  5
C1B1
330
BDFA
100
AcDbEntity
  8
1
  6
Continuous
100
AcDbLine
 10
329.910145
 20
191.604507
 30
0.0
 11
330.81178
 21
190.9238719999999
 31
0.0
  0
LINE
  5
C1B2
330
BDFA
100
AcDbEntity
  8
1
  6
Continuous
100
AcDbLine
 10
329.910145
 20
190.0222369999999
 30
0.0
 11
330.81178
 21
190.9238719999999
 31
0.0
  0
ARC
  5
C1B3
330
BDFA
100
AcDbEntity
  8
1
  6
Continuous
100
AcDbCircle
 10
328.213585
 20
193.129706
 30
0.0
 40
2.371570999999998
100
AcDbArc
 50
319.959594
 51
351.9797889999999
  0
ARC
  5
C1B4
330
BDFA
100
AcDbEntity
  8
1
  6
Continuous
100
AcDbCircle
 10
329.5314489999999
 20
192.417495
 30
0.0
 40
1.098799999999998
100
AcDbArc
 50
20.306161
 51
60.57047500000001
  0
LINE
  5
C1B5
330
BDFA
100
AcDbEntity
  8
1
  6
Continuous
100
AcDbLine
 10
335.2842799999999
 20
187.1390279999999
 30
0.0
 11
335.8492799999999
 21
187.1490279999999
 31
0.0
  0
LINE
  5
C1B6
330
BDFA
100
AcDbEntity
  8
1
  6
Continuous
100
AcDbLine
 10
334.68928
 20
187.159028
 30
0.0
 11
335.2842799999999
 21
187.1390279999999
 31
0.0
  0
LINE
  5
C1B7
330
BDFA
100
AcDbEntity
  8
1
  6
Continuous
100
AcDbLine
 10
335.8492799999999
 20
187.1490279999999
 30
0.0
 11
339.0676079999999
 21
187.213395
 31
0.0
  0
ARC
  5
C1B8
330
BDFA
100
AcDbEntity
  8
1
  6
Continuous
100
AcDbCircle
 10
331.0335919999999
 20
189.2450619999999
 30
0.0
 40
2.042368999999998
100
AcDbArc
 50
199.821809
 51
269.3179399999999
  0
LINE
  5
C1B9
330
BDFA
100
AcDbEntity
  8
1
  6
Continuous
100
AcDbLine
 10
333.6642799999999
 20
187.204028
 30
0.0
 11
333.8492799999999
 21
187.1690279999999
 31
0.0
  0
LINE
  5
C1BA
330
BDFA
100
AcDbEntity
  8
1
  6
Continuous
100
AcDbLine
 10
333.49428
 20
187.289028
 30
0.0
 11
333.6642799999999
 21
187.204028
 31
0.0
  0
LINE
  5
C1BB
330
BDFA
100
AcDbEntity
  8
1
  6
Continuous
100
AcDbLine
 10
333.1542799999998
 20
187.4890279999999
 30
0.0
 11
333.49428
 21
187.289028
 31
0.0
  0
LINE
  5
C1BC
330
BDFA
100
AcDbEntity
  8
1
  6
Continuous
100
AcDbLine
 10
333.00928
 20
187.9240279999999
 30
0.0
 11
333.1542799999998
 21
187.4890279999999
 31
0.0
  0
ARC
  5
C1BD
330
BDFA
100
AcDbEntity
  8
1
  6
Continuous
100
AcDbCircle
 10
328.9160949999999
 20
186.1738349999999
 30
0.0
 40
4.451666999999998
100
AcDbArc
 50
23.150932
 51
38.25670199999999
  0
ARC
  5
C1BE
330
BDFA
100
AcDbEntity
  8
1
  6
Continuous
100
AcDbCircle
 10
329.846989
 20
186.907869
 30
0.0
 40
3.266183999999998
100
AcDbArc
 50
38.25670199999999
 51
72.462293
  0
LINE
  5
C1BF
330
BDFA
100
AcDbEntity
  8
1
  6
Continuous
100
AcDbLine
 10
331.00928
 20
187.2028379999999
 30
0.0
 11
334.68928
 21
187.159028
 31
0.0
  0
LINE
  5
C1C0
330
BDFA
100
AcDbEntity
  8
1
  6
Continuous
100
AcDbLine
 10
312.621532
 20
190.0222369999999
 30
0.0
 11
310.818262
 21
191.604507
 31
0.0
  0
LINE
  5
C1C1
330
BDFA
100
AcDbEntity
  8
1
  6
Continuous
100
AcDbLine
 10
310.818262
 20
190.0222369999999
 30
0.0
 11
312.621532
 21
191.604507
 31
0.0
  0
LINE
  5
C1C2
330
BDFA
100
AcDbEntity
  8
1
  6
Continuous
100
AcDbLine
 10
310.500211
 20
190.0222369999999
 30
0.0
 11
308.696941
 21
191.604507
 31
0.0
  0
LINE
  5
C1C3
330
BDFA
100
AcDbEntity
  8
1
  6
Continuous
100
AcDbLine
 10
308.696941
 20
190.0222369999999
 30
0.0
 11
310.500211
 21
191.604507
 31
0.0
  0
LINE
  5
C1C4
330
BDFA
100
AcDbEntity
  8
1
  6
Continuous
100
AcDbLine
 10
318.985493
 20
190.0222369999999
 30
0.0
 11
317.182223
 21
191.604507
 31
0.0
  0
LINE
  5
C1C5
330
BDFA
100
AcDbEntity
  8
1
  6
Continuous
100
AcDbLine
 10
317.182223
 20
190.0222369999999
 30
0.0
 11
318.985493
 21
191.604507
 31
0.0
  0
LINE
  5
C1C6
330
BDFA
100
AcDbEntity
  8
1
  6
Continuous
100
AcDbLine
 10
321.106813
 20
190.0222369999999
 30
0.0
 11
319.303543
 21
191.604507
 31
0.0
  0
LINE
  5
C1C7
330
BDFA
100
AcDbEntity
  8
1
  6
Continuous
100
AcDbLine
 10
319.303543
 20
190.0222369999999
 30
0.0
 11
321.106813
 21
191.604507
 31
0.0
  0
LINE
  5
C1C8
330
BDFA
100
AcDbEntity
  8
1
  6
Continuous
100
AcDbLine
 10
316.864172
 20
190.0222369999999
 30
0.0
 11
315.060902
 21
191.604507
 31
0.0
  0
LINE
  5
C1C9
330
BDFA
100
AcDbEntity
  8
1
  6
Continuous
100
AcDbLine
 10
315.060902
 20
190.0222369999999
 30
0.0
 11
316.864172
 21
191.604507
 31
0.0
  0
LINE
  5
C1CA
330
BDFA
100
AcDbEntity
  8
1
  6
Continuous
100
AcDbLine
 10
314.742852
 20
190.0222369999999
 30
0.0
 11
312.9395819999999
 21
191.604507
 31
0.0
  0
LINE
  5
C1CB
330
BDFA
100
AcDbEntity
  8
1
  6
Continuous
100
AcDbLine
 10
312.9395819999999
 20
190.0222369999999
 30
0.0
 11
314.742852
 21
191.604507
 31
0.0
  0
LINE
  5
C1CC
330
BDFA
100
AcDbEntity
  8
2
  6
Continuous
100
AcDbLine
 10
308.561818
 20
199.334308
 30
0.0
 11
309.238356
 21
200.506106
 31
0.0
  0
LINE
  5
C1CD
330
BDFA
100
AcDbEntity
  8
2
  6
Continuous
100
AcDbLine
 10
320.561818
 20
199.334308
 30
0.0
 11
319.8852799999999
 21
200.506106
 31
0.0
  0
LINE
  5
C1CE
330
BDFA
100
AcDbEntity
  8
1
  6
Continuous
100
AcDbLine
 10
320.561818
 20
200.506106
 30
0.0
 11
308.561818
 21
200.506106
 31
0.0
  0
LINE
  5
C1CF
330
BDFA
100
AcDbEntity
  8
2
  6
Continuous
100
AcDbLine
 10
309.2382799999999
 20
214.010808
 30
0.0
 11
309.2382799999999
 21
200.506106
 31
0.0
  0
LINE
  5
C1D0
330
BDFA
100
AcDbEntity
  8
2
  6
Continuous
100
AcDbLine
 10
319.8852799999999
 20
214.010808
 30
0.0
 11
319.8852799999999
 21
200.506106
 31
0.0
  0
LINE
  5
C1D1
330
BDFA
100
AcDbEntity
  8
1
  6
Continuous
100
AcDbLine
 10
309.5617799999998
 20
214.334308
 30
0.0
 11
308.56178
 21
213.3343079999999
 31
0.0
  0
LINE
  5
C1D2
330
BDFA
100
AcDbEntity
  8
1
  6
Continuous
100
AcDbLine
 10
319.5617799999999
 20
214.334308
 30
0.0
 11
320.56178
 21
213.3343079999999
 31
0.0
  0
LINE
  5
C1D3
330
BDFA
100
AcDbEntity
  8
1
  6
Continuous
100
AcDbLine
 10
320.56178
 20
213.3343079999999
 30
0.0
 11
308.56178
 21
213.3343079999999
 31
0.0
  0
LINE
  5
C1D4
330
BDFA
100
AcDbEntity
  8
1
  6
Continuous
100
AcDbLine
 10
319.5617799999999
 20
214.334308
 30
0.0
 11
309.5617799999998
 21
214.334308
 31
0.0
  0
LINE
  5
C1D5
330
BDFA
100
AcDbEntity
  8
1
  6
Continuous
100
AcDbLine
 10
320.56178
 20
199.334308
 30
0.0
 11
320.56178
 21
213.3343079999999
 31
0.0
  0
LINE
  5
C1D6
330
BDFA
100
AcDbEntity
  8
1
  6
Continuous
100
AcDbLine
 10
308.56178
 20
199.334308
 30
0.0
 11
308.56178
 21
213.3343079999999
 31
0.0
  0
LINE
  5
C1D7
330
BDFA
100
AcDbEntity
  8
1
  6
Continuous
100
AcDbLine
 10
303.592125
 20
195.4343279999999
 30
0.0
 11
303.592125
 21
199.334308
 31
0.0
  0
LINE
  5
C1D8
330
BDFA
100
AcDbEntity
  8
1
  6
Continuous
100
AcDbLine
 10
304.13625
 20
190.0222369999999
 30
0.0
 11
302.3329799999999
 21
191.604507
 31
0.0
  0
LINE
  5
C1D9
330
BDFA
100
AcDbEntity
  8
1
  6
Continuous
100
AcDbLine
 10
302.3329799999999
 20
190.0222369999999
 30
0.0
 11
304.13625
 21
191.604507
 31
0.0
  0
LINE
  5
C1DA
330
BDFA
100
AcDbEntity
  8
1
  6
Continuous
100
AcDbLine
 10
306.2575709999999
 20
190.0222369999999
 30
0.0
 11
304.4542999999998
 21
191.604507
 31
0.0
  0
LINE
  5
C1DB
330
BDFA
100
AcDbEntity
  8
1
  6
Continuous
100
AcDbLine
 10
304.4542999999998
 20
190.0222369999999
 30
0.0
 11
306.2575709999999
 21
191.604507
 31
0.0
  0
LINE
  5
C1DC
330
BDFA
100
AcDbEntity
  8
1
  6
Continuous
100
AcDbLine
 10
299.8936089999999
 20
190.0222369999999
 30
0.0
 11
298.31178
 21
191.3830659999999
 31
0.0
  0
LINE
  5
C1DD
330
BDFA
100
AcDbEntity
  8
1
  6
Continuous
100
AcDbLine
 10
298.31178
 20
190.2436769999999
 30
0.0
 11
299.8936089999999
 21
191.604507
 31
0.0
  0
ARC
  5
C1DE
330
BDFA
100
AcDbEntity
  8
1
  6
Continuous
100
AcDbCircle
 10
300.9099739999999
 20
193.129706
 30
0.0
 40
2.371570999999998
100
AcDbArc
 50
188.020211
 51
220.040406
  0
ARC
  5
C1DF
330
BDFA
100
AcDbEntity
  8
1
  6
Continuous
100
AcDbCircle
 10
299.5921099999998
 20
192.417495
 30
0.0
 40
1.098799999999998
100
AcDbArc
 50
119.429525
 51
159.693839
  0
LINE
  5
C1E0
330
BDFA
100
AcDbEntity
  8
1
  6
Continuous
100
AcDbLine
 10
298.31178
 20
191.604507
 30
0.0
 11
298.31178
 21
190.0222369999999
 31
0.0
  0
LINE
  5
C1E1
330
BDFA
100
AcDbEntity
  8
1
  6
Continuous
100
AcDbLine
 10
302.0149299999999
 20
190.0222369999999
 30
0.0
 11
300.2116599999999
 21
191.604507
 31
0.0
  0
LINE
  5
C1E2
330
BDFA
100
AcDbEntity
  8
1
  6
Continuous
100
AcDbLine
 10
300.2116599999999
 20
190.0222369999999
 30
0.0
 11
302.0149299999999
 21
191.604507
 31
0.0
  0
ARC
  5
C1E3
330
BDFA
100
AcDbEntity
  8
1
  6
Continuous
100
AcDbCircle
 10
302.362743
 20
192.9343279999999
 30
0.0
 40
2.5
100
AcDbArc
 50
90.0
 51
169.858981
  0
LINE
  5
C1E4
330
BDFA
100
AcDbEntity
  8
1
  6
Continuous
100
AcDbLine
 10
295.7117799999998
 20
183.326367
 30
0.0
 11
296.0483599999998
 21
187.440998
 31
0.0
  0
LINE
  5
C1E5
330
BDFA
100
AcDbEntity
  8
1
  6
Continuous
100
AcDbLine
 10
295.9622799999999
 20
183.326367
 30
0.0
 11
295.7117799999998
 21
183.326367
 31
0.0
  0
LINE
  5
C1E6
330
BDFA
100
AcDbEntity
  8
1
  6
Continuous
100
AcDbLine
 10
296.7112799999998
 20
183.284028
 30
0.0
 11
297.37628
 21
183.239028
 31
0.0
  0
ARC
  5
C1E7
330
BDFA
100
AcDbEntity
  8
1
  6
Continuous
100
AcDbCircle
 10
298.781266
 20
187.440998
 30
0.0
 40
2.732905
100
AcDbArc
 50
109.1778389999999
 51
180.0
  0
LINE
  5
C1E8
330
BDFA
100
AcDbEntity
  8
1
  6
Continuous
100
AcDbLine
 10
295.9622799999999
 20
183.326367
 30
0.0
 11
296.7112799999998
 21
183.284028
 31
0.0
  0
LINE
  5
C1E9
330
BDFA
100
AcDbEntity
  8
1
  6
Continuous
100
AcDbLine
 10
297.5992799999999
 20
183.2990279999999
 30
0.0
 11
301.182161
 21
183.2990279999999
 31
0.0
  0
LINE
  5
C1EA
330
BDFA
100
AcDbEntity
  8
1
  6
Continuous
100
AcDbLine
 10
297.37628
 20
183.239028
 30
0.0
 11
297.5992799999999
 21
183.2990279999999
 31
0.0
  0
LINE
  5
C1EB
330
BDFA
100
AcDbEntity
  8
1
  6
Continuous
100
AcDbLine
 10
337.3231349999999
 20
187.1785049999998
 30
0.0
 11
340.679392
 21
157.080497
 31
0.0
  0
ARC
  5
C1EC
330
BDFA
100
AcDbEntity
  8
1
  6
Continuous
100
AcDbCircle
 10
260.957243
 20
136.210325
 30
0.0
 40
63.35981999999999
100
AcDbArc
 50
36.666179
 51
45.952998
  0
ARC
  5
C1ED
330
BDFA
100
AcDbEntity
  8
1
  6
Continuous
100
AcDbCircle
 10
333.56178
 20
157.3342369999998
 30
0.0
 40
8.5
100
AcDbArc
 50
258.2104419999998
 51
40.37695
  0
ARC
  5
C1EE
330
BDFA
100
AcDbEntity
  8
1
  6
Continuous
100
AcDbCircle
 10
333.2117799999999
 20
156.384237
 30
0.0
 40
7.5
100
AcDbArc
 50
244.0790989999999
 51
5.326703
  0
ARC
  5
C1EF
330
BDFA
100
AcDbEntity
  8
1
  6
Continuous
100
AcDbCircle
 10
375.6036619999999
 20
192.043394
 30
0.0
 40
63.31738699999998
100
AcDbArc
 50
210.0174259999998
 51
218.02512
  0
ARC
  5
C1F0
330
BDFA
100
AcDbEntity
  8
1
  6
Continuous
100
AcDbCircle
 10
335.1788649999999
 20
160.43153
 30
0.0
 40
12.0
100
AcDbArc
 50
218.02512
 51
244.0790989999999
  0
ARC
  5
C1F1
330
BDFA
100
AcDbEntity
  8
1
  6
Continuous
100
AcDbCircle
 10
198.5435559999999
 20
89.74588199999997
 30
0.0
 40
141.169928
100
AcDbArc
 50
30.017426
 51
36.666179
  0
ARC
  5
C1F2
330
BDFA
100
AcDbEntity
  8
1
  6
Continuous
100
AcDbCircle
 10
301.182161
 20
177.796123
 30
0.0
 40
5.502905999999999
100
AcDbArc
 50
45.952998
 51
90.0
  0
LINE
  5
C1F3
330
BDFA
100
AcDbEntity
  8
1
  6
Continuous
100
AcDbLine
 10
133.1646189999998
 20
259.717462
 30
0.0
 11
135.0646189999999
 21
257.8174619999999
 31
0.0
  0
LINE
  5
C1F4
330
BDFA
100
AcDbEntity
  8
1
  6
Continuous
100
AcDbLine
 10
131.2646189999999
 20
259.717462
 30
0.0
 11
133.1646189999998
 21
257.8174619999999
 31
0.0
  0
ENDSEC
  0
SECTION
  2
OBJECTS
  0
DICTIONARY
  5
BDE8
330
0
100
AcDbDictionary
281
     1
  3
ACAD_CIP_PREVIOUS_PRODUCT_INFO
350
C256
  3
ACAD_COLOR
350
C238
  3
ACAD_DETAILVIEWSTYLE
350
C251
  3
ACAD_GROUP
350
BDE9
  3
ACAD_LAYOUT
350
BDF5
  3
ACAD_MATERIAL
350
C206
  3
ACAD_MLEADERSTYLE
350
C24D
  3
ACAD_MLINESTYLE
350
BDF2
  3
ACAD_PLOTSETTINGS
350
BDF4
  3
ACAD_PLOTSTYLENAME
350
C204
  3
ACAD_SCALELIST
350
C23B
  3
ACAD_SECTIONVIEWSTYLE
350
C24F
  3
ACAD_TABLESTYLE
350
C239
  3
ACAD_VISUALSTYLE
350
C21F
  3
ACDB_RECOMPOSE_DATA
350
C274
  3
AcDbVariableDictionary
350
C267
  3
DWGPROPS
350
C275
  0
DICTIONARY
  5
C257
330
BDEC
100
AcDbDictionary
280
     1
281
     1
  3
ADSK_XREC_LAYER_RECONCILED
360
C258
  0
DICTIONARY
  5
C259
330
BE02
100
AcDbDictionary
280
     1
281
     1
  3
ADSK_XREC_LAYER_RECONCILED
360
C25A
  0
DICTIONARY
  5
C25B
330
BE03
100
AcDbDictionary
280
     1
281
     1
  3
ADSK_XREC_LAYER_RECONCILED
360
C25C
  0
DICTIONARY
  5
C25D
330
BE04
100
AcDbDictionary
280
     1
281
     1
  3
ADSK_XREC_LAYER_RECONCILED
360
C25E
  0
DICTIONARY
  5
C25F
330
BE05
100
AcDbDictionary
280
     1
281
     1
  3
ADSK_XREC_LAYER_RECONCILED
360
C260
  0
DICTIONARY
  5
C261
330
BE06
100
AcDbDictionary
280
     1
281
     1
  3
ADSK_XREC_LAYER_RECONCILED
360
C262
  0
DICTIONARY
  5
C263
330
BE07
100
AcDbDictionary
280
     1
281
     1
  3
ADSK_XREC_LAYER_RECONCILED
360
C264
  0
DICTIONARY
  5
C265
330
BE08
100
AcDbDictionary
280
     1
281
     1
  3
ADSK_XREC_LAYER_RECONCILED
360
C266
  0
DICTIONARY
  5
C1FF
330
BDFA
100
AcDbDictionary
281
     1
  3
ACAD_LAYOUTSELFREF
350
C200
  0
DICTIONARY
  5
C1FD
330
BDF6
100
AcDbDictionary
281
     1
  3
ACAD_LAYOUTSELFREF
350
C1FE
  0
XRECORD
  5
C256
102
{ACAD_REACTORS
330
BDE8
102
}
330
BDE8
100
AcDbXrecord
280
     1
300
ACDLT
300
2014
300
ACDLT_F_S
  0
DICTIONARY
  5
C238
102
{ACAD_REACTORS
330
BDE8
102
}
330
BDE8
100
AcDbDictionary
281
     1
  0
DICTIONARY
  5
C251
102
{ACAD_REACTORS
330
BDE8
102
}
330
BDE8
100
AcDbDictionary
281
     1
  3
Imperial24
350
C252
  0
DICTIONARY
  5
BDE9
102
{ACAD_REACTORS
330
BDE8
102
}
330
BDE8
100
AcDbDictionary
281
     1
  0
DICTIONARY
  5
BDF5
102
{ACAD_REACTORS
330
BDE8
102
}
330
BDE8
100
AcDbDictionary
281
     1
  3
Model
350
C253
  3
レイアウト1
350
C254
  0
DICTIONARY
  5
C206
102
{ACAD_REACTORS
330
BDE8
102
}
330
BDE8
100
AcDbDictionary
281
     1
  3
ByBlock
350
C20F
  3
ByLayer
350
C207
  3
Global
350
C217
  0
DICTIONARY
  5
C24D
102
{ACAD_REACTORS
330
BDE8
102
}
330
BDE8
100
AcDbDictionary
281
     1
  3
Standard
350
C24E
  0
DICTIONARY
  5
BDF2
102
{ACAD_REACTORS
330
BDE8
102
}
330
BDE8
100
AcDbDictionary
281
     1
  3
STANDARD
350
BDF3
  0
DICTIONARY
  5
BDF4
102
{ACAD_REACTORS
330
BDE8
102
}
330
BDE8
100
AcDbDictionary
281
     1
  0
ACDBDICTIONARYWDFLT
  5
C204
102
{ACAD_REACTORS
330
BDE8
102
}
330
BDE8
100
AcDbDictionary
281
     1
  3
Normal
350
C205
100
AcDbDictionaryWithDefault
340
C205
  0
DICTIONARY
  5
C23B
102
{ACAD_REACTORS
330
BDE8
102
}
330
BDE8
100
AcDbDictionary
281
     1
  3
A0
350
C23C
  3
A1
350
C23D
  3
A2
350
C23E
  3
A3
350
C23F
  3
A4
350
C240
  3
A5
350
C241
  3
A6
350
C242
  3
A7
350
C243
  3
A8
350
C244
  3
A9
350
C245
  3
B0
350
C246
  3
B1
350
C247
  3
B2
350
C248
  3
B3
350
C249
  3
B4
350
C24A
  3
B5
350
C24B
  3
B6
350
C24C
  0
DICTIONARY
  5
C24F
102
{ACAD_REACTORS
330
BDE8
102
}
330
BDE8
100
AcDbDictionary
281
     1
  3
Imperial24
350
C250
  0
DICTIONARY
  5
C239
102
{ACAD_REACTORS
330
BDE8
102
}
330
BDE8
100
AcDbDictionary
281
     1
  3
Standard
350
C23A
  0
DICTIONARY
  5
C21F
102
{ACAD_REACTORS
330
BDE8
102
}
330
BDE8
100
AcDbDictionary
281
     1
  3
2dWireframe
350
C225
  3
Basic
350
C224
  3
Brighten
350
C22B
  3
ColorChange
350
C22F
  3
Conceptual
350
C228
  3
Dim
350
C22A
  3
EdgeColorOff
350
C237
  3
Facepattern
350
C22E
  3
Flat
350
C220
  3
FlatWithEdges
350
C221
  3
Gouraud
350
C222
  3
GouraudWithEdges
350
C223
  3
Hidden
350
C227
  3
JitterOff
350
C235
  3
Linepattern
350
C22D
  3
OverhangOff
350
C236
  3
Realistic
350
C229
  3
Shaded
350
C234
  3
Shaded with edges
350
C233
  3
Shades of Gray
350
C230
  3
Sketchy
350
C231
  3
Thicken
350
C22C
  3
Wireframe
350
C226
  3
X-Ray
350
C232
  0
XRECORD
  5
C274
102
{ACAD_REACTORS
330
BDE8
102
}
330
BDE8
100
AcDbXrecord
280
     1
 90
        1
330
C23A
  0
DICTIONARY
  5
C267
102
{ACAD_REACTORS
330
BDE8
102
}
330
BDE8
100
AcDbDictionary
281
     1
  3
CANNOSCALE
350
C26C
  3
CMLEADERSTYLE
350
C269
  3
CTABLESTYLE
350
C268
  3
CVIEWDETAILSTYLE
350
C26A
  3
CVIEWSECTIONSTYLE
350
C26B
  3
DIMASSOC
350
C26F
  3
INDEXCTL
350
C26E
  3
SORTENTS
350
C26D
  3
XCLIPFRAME
350
C270
  0
XRECORD
  5
C275
102
{ACAD_REACTORS
330
BDE8
102
}
330
BDE8
100
AcDbXrecord
280
     1
  1
DWGPROPS COOKIE
  2

  3

  4

  6

  7

  8
Yoshitsune
  9

300
=
301
=
302
=
303
=
304
=
305
=
306
=
307
=
308
=
309
=
 40
0.0000123611111111
 41
2451302.669326852
 42
2457192.687885139
  1

 90
        0
  0
XRECORD
  5
C258
102
{ACAD_REACTORS
330
C257
102
}
330
C257
100
AcDbXrecord
280
     1
290
     1
  0
XRECORD
  5
C25A
102
{ACAD_REACTORS
330
C259
102
}
330
C259
100
AcDbXrecord
280
     1
290
     1
  0
XRECORD
  5
C25C
102
{ACAD_REACTORS
330
C25B
102
}
330
C25B
100
AcDbXrecord
280
     1
290
     1
  0
XRECORD
  5
C25E
102
{ACAD_REACTORS
330
C25D
102
}
330
C25D
100
AcDbXrecord
280
     1
290
     1
  0
XRECORD
  5
C260
102
{ACAD_REACTORS
330
C25F
102
}
330
C25F
100
AcDbXrecord
280
     1
290
     1
  0
XRECORD
  5
C262
102
{ACAD_REACTORS
330
C261
102
}
330
C261
100
AcDbXrecord
280
     1
290
     1
  0
XRECORD
  5
C264
102
{ACAD_REACTORS
330
C263
102
}
330
C263
100
AcDbXrecord
280
     1
290
     1
  0
XRECORD
  5
C266
102
{ACAD_REACTORS
330
C265
102
}
330
C265
100
AcDbXrecord
280
     1
290
     1
  0
XRECORD
  5
C200
102
{ACAD_REACTORS
330
C1FF
102
}
330
C1FF
100
AcDbXrecord
280
     1
340
BDFA
  0
XRECORD
  5
C1FE
102
{ACAD_REACTORS
330
C1FD
102
}
330
C1FD
100
AcDbXrecord
280
     1
340
BDF6
  0
ACDBDETAILVIEWSTYLE
  5
C252
102
{ACAD_XDICTIONARY
360
C2AD
102
}
102
{ACAD_REACTORS
330
C251
102
}
330
C251
100
AcDbModelDocViewStyle
 70
     0
  3
Imperial24
290
     0
100
AcDbDetailViewStyle
 70
     0
 71
     0
 90
        3
 71
     1
340
BDED
 40
0.24
340
0
 40
0.24
300

 40
0.36
280
     3
 71
     2
340
BDF1
 90
       25
 71
     3
340
BDED
 40
0.24
 90
        1
 40
0.75
 90
        1
300
%<\AcVar ViewType \f "%tc1">% %<\AcVar ViewDetailId>%\PSCALE %<\AcVar ViewScale \f "%sn">%
 71
     4
340
BDF1
 90
       25
340
BDF1
 90
       25
280
     0
  0
LAYOUT
  5
C253
102
{ACAD_XDICTIONARY
360
C2AF
102
}
102
{ACAD_REACTORS
330
BDF5
102
}
330
BDF5
100
AcDbPlotSettings
  1

  2
Canon LBP9100C
  4

  6

 40
0.0
 41
0.0
 42
0.0
 43
0.0
 44
0.0
 45
0.0
 46
0.0
 47
0.0
 48
0.0
 49
0.0
140
0.0
141
0.0
142
1.0
143
1.0
 70
  1712
 72
     0
 73
     0
 74
     0
  7

 75
     0
147
1.0
148
0.0
149
0.0
100
AcDbLayout
  1
Model
 70
     1
 71
     0
 10
0.0
 20
0.0
 11
12.0
 21
9.0
 12
0.0
 22
0.0
 32
0.0
 14
0.0
 24
0.0
 34
0.0
 15
0.0
 25
0.0
 35
0.0
146
0.0
 13
0.0
 23
0.0
 33
0.0
 16
1.0
 26
0.0
 36
0.0
 17
0.0
 27
1.0
 37
0.0
 76
     0
330
BDFA
331
C1FC
  0
LAYOUT
  5
C254
102
{ACAD_XDICTIONARY
360
C2B1
102
}
102
{ACAD_REACTORS
330
BDF5
102
}
330
BDF5
100
AcDbPlotSettings
  1

  2
Canon LBP9100C
  4

  6

 40
0.0
 41
0.0
 42
0.0
 43
0.0
 44
0.0
 45
0.0
 46
0.0
 47
0.0
 48
0.0
 49
0.0
140
0.0
141
0.0
142
1.0
143
1.0
 70
   688
 72
     0
 73
     0
 74
     5
  7

 75
    16
147
1.0
148
0.0
149
0.0
100
AcDbLayout
  1
レイアウト1
 70
     0
 71
     1
 10
0.0
 20
0.0
 11
420.0
 21
297.0
 12
0.0
 22
0.0
 32
0.0
 14
1.000000000000000E+20
 24
1.000000000000000E+20
 34
1.000000000000000E+20
 15
-1.000000000000000E+20
 25
-1.000000000000000E+20
 35
-1.000000000000000E+20
146
0.0
 13
0.0
 23
0.0
 33
0.0
 16
1.0
 26
0.0
 36
0.0
 17
0.0
 27
1.0
 37
0.0
 76
     0
330
BDF6
  0
MATERIAL
  5
C20F
102
{ACAD_XDICTIONARY
360
C210
102
}
102
{ACAD_REACTORS
330
C206
102
}
330
C206
100
AcDbMaterial
  1
ByBlock
 72
     0
 43
0.0208333333333333
 43
0.0
 43
0.0
 43
0.0
 43
0.0
 43
0.0208333333333333
 43
0.0
 43
0.0
 43
0.0
 43
0.0
 43
1.0
 43
0.0
 43
0.0
 43
0.0
 43
0.0
 43
1.0
 77
     0
 47
0.0208333333333333
 47
0.0
 47
0.0
 47
0.0
 47
0.0
 47
0.0208333333333333
 47
0.0
 47
0.0
 47
0.0
 47
0.0
 47
1.0
 47
0.0
 47
0.0
 47
0.0
 47
0.0
 47
1.0
171
     0
 49
0.0208333333333333
 49
0.0
 49
0.0
 49
0.0
 49
0.0
 49
0.0208333333333333
 49
0.0
 49
0.0
 49
0.0
 49
0.0
 49
1.0
 49
0.0
 49
0.0
 49
0.0
 49
0.0
 49
1.0
175
     0
142
0.0208333333333333
142
0.0
142
0.0
142
0.0
142
0.0
142
0.0208333333333333
142
0.0
142
0.0
142
0.0
142
0.0
142
1.0
142
0.0
142
0.0
142
0.0
142
0.0
142
1.0
179
     0
144
0.0208333333333333
144
0.0
144
0.0
144
0.0
144
0.0
144
0.0208333333333333
144
0.0
144
0.0
144
0.0
144
0.0
144
1.0
144
0.0
144
0.0
144
0.0
144
0.0
144
1.0
147
0.0208333333333333
147
0.0
147
0.0
147
0.0
147
0.0
147
0.0208333333333333
147
0.0
147
0.0
147
0.0
147
0.0
147
1.0
147
0.0
147
0.0
147
0.0
147
0.0
147
1.0
  0
MATERIAL
  5
C207
102
{ACAD_XDICTIONARY
360
C208
102
}
102
{ACAD_REACTORS
330
C206
102
}
330
C206
100
AcDbMaterial
  1
ByLayer
 72
     0
 43
0.0208333333333333
 43
0.0
 43
0.0
 43
0.0
 43
0.0
 43
0.0208333333333333
 43
0.0
 43
0.0
 43
0.0
 43
0.0
 43
1.0
 43
0.0
 43
0.0
 43
0.0
 43
0.0
 43
1.0
 77
     0
 47
0.0208333333333333
 47
0.0
 47
0.0
 47
0.0
 47
0.0
 47
0.0208333333333333
 47
0.0
 47
0.0
 47
0.0
 47
0.0
 47
1.0
 47
0.0
 47
0.0
 47
0.0
 47
0.0
 47
1.0
171
     0
 49
0.0208333333333333
 49
0.0
 49
0.0
 49
0.0
 49
0.0
 49
0.0208333333333333
 49
0.0
 49
0.0
 49
0.0
 49
0.0
 49
1.0
 49
0.0
 49
0.0
 49
0.0
 49
0.0
 49
1.0
175
     0
142
0.0208333333333333
142
0.0
142
0.0
142
0.0
142
0.0
142
0.0208333333333333
142
0.0
142
0.0
142
0.0
142
0.0
142
1.0
142
0.0
142
0.0
142
0.0
142
0.0
142
1.0
179
     0
144
0.0208333333333333
144
0.0
144
0.0
144
0.0
144
0.0
144
0.0208333333333333
144
0.0
144
0.0
144
0.0
144
0.0
144
1.0
144
0.0
144
0.0
144
0.0
144
0.0
144
1.0
147
0.0208333333333333
147
0.0
147
0.0
147
0.0
147
0.0
147
0.0208333333333333
147
0.0
147
0.0
147
0.0
147
0.0
147
1.0
147
0.0
147
0.0
147
0.0
147
0.0
147
1.0
  0
MATERIAL
  5
C217
102
{ACAD_XDICTIONARY
360
C218
102
}
102
{ACAD_REACTORS
330
C206
102
}
330
C206
100
AcDbMaterial
  1
Global
 72
     0
 43
0.0208333333333333
 43
0.0
 43
0.0
 43
0.0
 43
0.0
 43
0.0208333333333333
 43
0.0
 43
0.0
 43
0.0
 43
0.0
 43
1.0
 43
0.0
 43
0.0
 43
0.0
 43
0.0
 43
1.0
 77
     0
 47
0.0208333333333333
 47
0.0
 47
0.0
 47
0.0
 47
0.0
 47
0.0208333333333333
 47
0.0
 47
0.0
 47
0.0
 47
0.0
 47
1.0
 47
0.0
 47
0.0
 47
0.0
 47
0.0
 47
1.0
171
     0
 49
0.0208333333333333
 49
0.0
 49
0.0
 49
0.0
 49
0.0
 49
0.0208333333333333
 49
0.0
 49
0.0
 49
0.0
 49
0.0
 49
1.0
 49
0.0
 49
0.0
 49
0.0
 49
0.0
 49
1.0
175
     0
142
0.0208333333333333
142
0.0
142
0.0
142
0.0
142
0.0
142
0.0208333333333333
142
0.0
142
0.0
142
0.0
142
0.0
142
1.0
142
0.0
142
0.0
142
0.0
142
0.0
142
1.0
179
     0
144
0.0208333333333333
144
0.0
144
0.0
144
0.0
144
0.0
144
0.0208333333333333
144
0.0
144
0.0
144
0.0
144
0.0
144
1.0
144
0.0
144
0.0
144
0.0
144
0.0
144
1.0
147
0.0208333333333333
147
0.0
147
0.0
147
0.0
147
0.0
147
0.0208333333333333
147
0.0
147
0.0
147
0.0
147
0.0
147
1.0
147
0.0
147
0.0
147
0.0
147
0.0
147
1.0
  0
MLEADERSTYLE
  5
C24E
102
{ACAD_REACTORS
330
C24D
102
}
330
C24D
100
AcDbMLeaderStyle
170
     2
171
     1
172
     0
 90
        2
 40
0.0
 41
0.0
173
     1
 91
-1056964608
340
BDEF
 92
       -2
290
     1
 42
0.09
291
     1
 43
0.36
  3
Standard
 44
0.18
300

342
BDED
174
     1
178
     6
175
     1
176
     0
 93
-1056964608
 45
0.18
292
     0
297
     0
 46
0.18
 94
-1056964608
 47
1.0
 49
1.0
140
1.0
293
     1
141
0.0
294
     1
177
     0
142
1.0
295
     0
296
     0
143
0.125
1001
ACAD_MLEADERVER
1070
     2
  0
MLINESTYLE
  5
BDF3
102
{ACAD_REACTORS
330
BDF2
102
}
330
BDF2
100
AcDbMlineStyle
  2
STANDARD
 70
     0
  3

 62
   256
 51
90.0
 52
90.0
 71
     2
 49
0.5
 62
   256
  6
BYLAYER
 49
-0.5
 62
   256
  6
BYLAYER
  0
ACDBPLACEHOLDER
  5
C205
102
{ACAD_REACTORS
330
C204
102
}
330
C204
  0
SCALE
  5
C23C
102
{ACAD_REACTORS
330
C23B
102
}
330
C23B
100
AcDbScale
 70
     0
300
1:1
140
1.0
141
1.0
290
     1
  0
SCALE
  5
C23D
102
{ACAD_REACTORS
330
C23B
102
}
330
C23B
100
AcDbScale
 70
     0
300
1/128" = 1'-0"
140
0.0078125
141
12.0
290
     0
  0
SCALE
  5
C23E
102
{ACAD_REACTORS
330
C23B
102
}
330
C23B
100
AcDbScale
 70
     0
300
1/64" = 1'-0"
140
0.015625
141
12.0
290
     0
  0
SCALE
  5
C23F
102
{ACAD_REACTORS
330
C23B
102
}
330
C23B
100
AcDbScale
 70
     0
300
1/32" = 1'-0"
140
0.03125
141
12.0
290
     0
  0
SCALE
  5
C240
102
{ACAD_REACTORS
330
C23B
102
}
330
C23B
100
AcDbScale
 70
     0
300
1/16" = 1'-0"
140
0.0625
141
12.0
290
     0
  0
SCALE
  5
C241
102
{ACAD_REACTORS
330
C23B
102
}
330
C23B
100
AcDbScale
 70
     0
300
3/32" = 1'-0"
140
0.09375
141
12.0
290
     0
  0
SCALE
  5
C242
102
{ACAD_REACTORS
330
C23B
102
}
330
C23B
100
AcDbScale
 70
     0
300
1/8" = 1'-0"
140
0.125
141
12.0
290
     0
  0
SCALE
  5
C243
102
{ACAD_REACTORS
330
C23B
102
}
330
C23B
100
AcDbScale
 70
     0
300
3/16" = 1'-0"
140
0.1875
141
12.0
290
     0
  0
SCALE
  5
C244
102
{ACAD_REACTORS
330
C23B
102
}
330
C23B
100
AcDbScale
 70
     0
300
1/4" = 1'-0"
140
0.25
141
12.0
290
     0
  0
SCALE
  5
C245
102
{ACAD_REACTORS
330
C23B
102
}
330
C23B
100
AcDbScale
 70
     0
300
3/8" = 1'-0"
140
0.375
141
12.0
290
     0
  0
SCALE
  5
C246
102
{ACAD_REACTORS
330
C23B
102
}
330
C23B
100
AcDbScale
 70
     0
300
1/2" = 1'-0"
140
0.5
141
12.0
290
     0
  0
SCALE
  5
C247
102
{ACAD_REACTORS
330
C23B
102
}
330
C23B
100
AcDbScale
 70
     0
300
3/4" = 1'-0"
140
0.75
141
12.0
290
     0
  0
SCALE
  5
C248
102
{ACAD_REACTORS
330
C23B
102
}
330
C23B
100
AcDbScale
 70
     0
300
1" = 1'-0"
140
1.0
141
12.0
290
     0
  0
SCALE
  5
C249
102
{ACAD_REACTORS
330
C23B
102
}
330
C23B
100
AcDbScale
 70
     0
300
1-1/2" = 1'-0"
140
1.5
141
12.0
290
     0
  0
SCALE
  5
C24A
102
{ACAD_REACTORS
330
C23B
102
}
330
C23B
100
AcDbScale
 70
     0
300
3" = 1'-0"
140
3.0
141
12.0
290
     0
  0
SCALE
  5
C24B
102
{ACAD_REACTORS
330
C23B
102
}
330
C23B
100
AcDbScale
 70
     0
300
6" = 1'-0"
140
6.0
141
12.0
290
     0
  0
SCALE
  5
C24C
102
{ACAD_REACTORS
330
C23B
102
}
330
C23B
100
AcDbScale
 70
     0
300
1'-0" = 1'-0"
140
12.0
141
12.0
290
     0
  0
ACDBSECTIONVIEWSTYLE
  5
C250
102
{ACAD_XDICTIONARY
360
C2AB
102
}
102
{ACAD_REACTORS
330
C24F
102
}
330
C24F
100
AcDbModelDocViewStyle
 70
     0
  3
Imperial24
290
     0
100
AcDbSectionViewStyle
 70
     0
 71
     0
 90
       78
 71
     1
340
BDED
 40
0.24
340
0
340
0
 40
0.24
300
I, O, Q, S, X, Z
 40
0.48
 90
        3
 40
0.18
 90
        1
 71
     2
340
BDF1
 90
       25
340
BDF1
 90
       50
 40
0.24
 40
0.0
 40
0.24
 71
     3
340
BDED
 40
0.24
 90
        1
 40
0.75
 90
        1
300
%<\AcVar ViewType \f "%tc1">% %<\AcVar ViewSectionStartId>%-%<\AcVar ViewSectionEndId>%\PSCALE %<\AcVar ViewScale \f "%sn">%
 71
     4
300
ANSI31
 40
1.0
 90
        0
290
     0
290
     0
 90
        6
 40
0.0
 40
1.570796326794896
 40
0.2617993877991494
 40
1.308996938995747
 40
-0.2617993877991494
 40
1.832595714594046
  0
TABLESTYLE
  5
C23A
102
{ACAD_XDICTIONARY
360
C272
102
}
102
{ACAD_REACTORS
330
C239
102
}
330
C239
100
AcDbTableStyle
  3
Standard
 70
     0
 71
     0
 40
0.06
 41
0.06
280
     0
281
     0
  7
STANDARD
140
0.18
170
     2
 62
     0
 63
     7
283
     0
274
    -2
284
     1
 64
     0
275
    -2
285
     1
 65
     0
276
    -2
286
     1
 66
     0
277
    -2
287
     1
 67
     0
278
    -2
288
     1
 68
     0
279
    -2
289
     1
 69
     0
  7
STANDARD
140
0.25
170
     5
 62
     0
 63
     7
283
     0
274
    -2
284
     1
 64
     0
275
    -2
285
     1
 65
     0
276
    -2
286
     1
 66
     0
277
    -2
287
     1
 67
     0
278
    -2
288
     1
 68
     0
279
    -2
289
     1
 69
     0
  7
STANDARD
140
0.18
170
     5
 62
     0
 63
     7
283
     0
274
    -2
284
     1
 64
     0
275
    -2
285
     1
 65
     0
276
    -2
286
     1
 66
     0
277
    -2
287
     1
 67
     0
278
    -2
288
     1
 68
     0
279
    -2
289
     1
 69
     0
  0
VISUALSTYLE
  5
C225
102
{ACAD_XDICTIONARY
360
C283
102
}
102
{ACAD_REACTORS
330
C21F
102
}
330
C21F
100
AcDbVisualStyle
  2
2dWireframe
 70
     4
 71
     0
 72
     2
 73
     0
 90
        0
 40
-0.6
 41
-30.0
 62
     5
 63
     7
 74
     1
 91
        4
 64
     7
 65
   257
 75
     1
175
     1
 42
1.0
 92
        0
 66
   257
 43
1.0
 76
     1
 77
     6
 78
     2
 67
     7
 79
     5
170
     0
171
     0
290
     0
174
     0
 93
        1
 44
0.0
173
     0
291
     0
 45
0.0
1001
ACAD
1000
AcDbSavedByObjectVersion
1070
     0
  0
VISUALSTYLE
  5
C224
102
{ACAD_XDICTIONARY
360
C281
102
}
102
{ACAD_REACTORS
330
C21F
102
}
330
C21F
100
AcDbVisualStyle
  2
Basic
 70
     7
 71
     1
 72
     0
 73
     1
 90
        0
 40
-0.6
 41
-30.0
 62
     5
 63
     7
 74
     0
 91
        4
 64
     7
 65
   257
 75
     1
175
     1
 42
1.0
 92
        8
 66
     7
 43
1.0
 76
     1
 77
     6
 78
     2
 67
     7
 79
     5
170
     0
171
     0
290
     0
174
     0
 93
        1
 44
0.0
173
     0
291
     1
 45
0.0
1001
ACAD
1000
AcDbSavedByObjectVersion
1070
     0
  0
VISUALSTYLE
  5
C22B
102
{ACAD_XDICTIONARY
360
C28F
102
}
102
{ACAD_REACTORS
330
C21F
102
}
330
C21F
100
AcDbVisualStyle
  2
Brighten
 70
    12
 71
     2
 72
     2
 73
     0
 90
        0
 40
-0.6
 41
-30.0
 62
     5
 63
     7
 74
     1
 91
        4
 64
     7
 65
   257
 75
     1
175
     1
 42
1.0
 92
        8
 66
     7
 43
1.0
 76
     1
 77
     6
 78
     2
 67
     7
 79
     5
170
     0
171
     0
290
     0
174
     0
 93
        1
 44
50.0
173
     0
291
     1
 45
0.0
1001
ACAD
1000
AcDbSavedByObjectVersion
1070
     0
  0
VISUALSTYLE
  5
C22F
102
{ACAD_XDICTIONARY
360
C297
102
}
102
{ACAD_REACTORS
330
C21F
102
}
330
C21F
100
AcDbVisualStyle
  2
ColorChange
 70
    16
 71
     2
 72
     2
 73
     3
 90
        0
 40
-0.6
 41
-30.0
 62
     5
 63
     8
 74
     1
 91
        4
 64
     7
 65
   257
 75
     1
175
     1
 42
1.0
 92
        8
 66
     8
 43
1.0
 76
     1
 77
     6
 78
     2
 67
     7
 79
     5
170
     0
171
     0
290
     0
174
     0
 93
        1
 44
0.0
173
     0
291
     1
 45
0.0
1001
ACAD
1000
AcDbSavedByObjectVersion
1070
     0
  0
VISUALSTYLE
  5
C228
102
{ACAD_XDICTIONARY
360
C289
102
}
102
{ACAD_REACTORS
330
C21F
102
}
330
C21F
100
AcDbVisualStyle
  2
Conceptual
 70
     9
 71
     3
 72
     2
 73
     0
 90
        0
 40
-0.6
 41
-30.0
 62
     5
 63
     7
 74
     2
 91
        2
 64
     7
 65
   257
 75
     1
175
     1
 42
179.0
 92
        8
 66
     7
 43
1.0
 76
     1
 77
     6
 78
     2
 67
     7
 79
     3
170
     0
171
     0
290
     0
174
     0
 93
        1
 44
0.0
173
     0
291
     0
 45
0.0
1001
ACAD
1000
AcDbSavedByObjectVersion
1070
     0
  0
VISUALSTYLE
  5
C22A
102
{ACAD_XDICTIONARY
360
C28D
102
}
102
{ACAD_REACTORS
330
C21F
102
}
330
C21F
100
AcDbVisualStyle
  2
Dim
 70
    11
 71
     2
 72
     2
 73
     0
 90
        0
 40
-0.6
 41
-30.0
 62
     5
 63
     7
 74
     1
 91
        4
 64
     7
 65
   257
 75
     1
175
     1
 42
1.0
 92
        8
 66
     7
 43
1.0
 76
     1
 77
     6
 78
     2
 67
     7
 79
     5
170
     0
171
     0
290
     0
174
     0
 93
        1
 44
-50.0
173
     0
291
     1
 45
0.0
1001
ACAD
1000
AcDbSavedByObjectVersion
1070
     0
  0
VISUALSTYLE
  5
C237
102
{ACAD_XDICTIONARY
360
C2A7
102
}
102
{ACAD_REACTORS
330
C21F
102
}
330
C21F
100
AcDbVisualStyle
  2
EdgeColorOff
 70
    22
 71
     2
 72
     2
 73
     0
 90
        0
 40
-0.6
 41
-30.0
 62
     5
 63
     7
 74
     1
 91
        4
 64
     7
 65
   257
 75
     1
175
     1
 42
1.0
 92
        8
 66
     7
 43
1.0
 76
     1
 77
     6
 78
     2
 67
     7
 79
     5
170
     0
171
     0
290
     0
174
     0
 93
        1
 44
0.0
173
     0
291
     1
 45
0.0
1001
ACAD
1000
AcDbSavedByObjectVersion
1070
     0
  0
VISUALSTYLE
  5
C22E
102
{ACAD_XDICTIONARY
360
C295
102
}
102
{ACAD_REACTORS
330
C21F
102
}
330
C21F
100
AcDbVisualStyle
  2
Facepattern
 70
    15
 71
     2
 72
     2
 73
     0
 90
        0
 40
-0.6
 41
-30.0
 62
     5
 63
     7
 74
     1
 91
        4
 64
     7
 65
   257
 75
     1
175
     1
 42
1.0
 92
        8
 66
     7
 43
1.0
 76
     1
 77
     6
 78
     2
 67
     7
 79
     5
170
     0
171
     0
290
     0
174
     0
 93
        1
 44
0.0
173
     0
291
     1
 45
0.0
1001
ACAD
1000
AcDbSavedByObjectVersion
1070
     0
  0
VISUALSTYLE
  5
C220
102
{ACAD_XDICTIONARY
360
C279
102
}
102
{ACAD_REACTORS
330
C21F
102
}
330
C21F
100
AcDbVisualStyle
  2
Flat
 70
     0
 71
     2
 72
     1
 73
     1
 90
        2
 40
-0.6
 41
30.0
 62
     5
 63
     7
 74
     0
 91
        0
 64
     7
 65
   257
 75
     1
175
     1
 42
1.0
 92
        8
 66
     7
 43
1.0
 76
     1
 77
     6
 78
     2
 67
     7
 79
     5
170
     0
171
     0
290
     0
174
     0
 93
       13
 44
0.0
173
     0
291
     1
 45
0.0
1001
ACAD
1000
AcDbSavedByObjectVersion
1070
     0
  0
VISUALSTYLE
  5
C221
102
{ACAD_XDICTIONARY
360
C27B
102
}
102
{ACAD_REACTORS
330
C21F
102
}
330
C21F
100
AcDbVisualStyle
  2
FlatWithEdges
 70
     1
 71
     2
 72
     1
 73
     1
 90
        2
 40
-0.6
 41
30.0
 62
     5
 63
     7
 74
     1
 91
        0
 64
     7
 65
   257
 75
     1
175
     1
 42
1.0
 92
        0
 66
   257
 43
1.0
 76
     1
 77
     6
 78
     2
 67
     7
 79
     5
170
     0
171
     0
290
     0
174
     0
 93
       13
 44
0.0
173
     0
291
     1
 45
0.0
1001
ACAD
1000
AcDbSavedByObjectVersion
1070
     0
  0
VISUALSTYLE
  5
C222
102
{ACAD_XDICTIONARY
360
C27D
102
}
102
{ACAD_REACTORS
330
C21F
102
}
330
C21F
100
AcDbVisualStyle
  2
Gouraud
 70
     2
 71
     2
 72
     2
 73
     1
 90
        2
 40
-0.6
 41
30.0
 62
     5
 63
     7
 74
     0
 91
        0
 64
     7
 65
   257
 75
     1
175
     1
 42
1.0
 92
        0
 66
     7
 43
1.0
 76
     1
 77
     6
 78
     2
 67
     7
 79
     5
170
     0
171
     0
290
     0
174
     0
 93
       13
 44
0.0
173
     0
291
     1
 45
0.0
1001
ACAD
1000
AcDbSavedByObjectVersion
1070
     0
  0
VISUALSTYLE
  5
C223
102
{ACAD_XDICTIONARY
360
C27F
102
}
102
{ACAD_REACTORS
330
C21F
102
}
330
C21F
100
AcDbVisualStyle
  2
GouraudWithEdges
 70
     3
 71
     2
 72
     2
 73
     1
 90
        2
 40
-0.6
 41
30.0
 62
     5
 63
     7
 74
     1
 91
        0
 64
     7
 65
   257
 75
     1
175
     1
 42
1.0
 92
        0
 66
   257
 43
1.0
 76
     1
 77
     6
 78
     2
 67
     7
 79
     5
170
     0
171
     0
290
     0
174
     0
 93
       13
 44
0.0
173
     0
291
     1
 45
0.0
1001
ACAD
1000
AcDbSavedByObjectVersion
1070
     0
  0
VISUALSTYLE
  5
C227
102
{ACAD_XDICTIONARY
360
C287
102
}
102
{ACAD_REACTORS
330
C21F
102
}
330
C21F
100
AcDbVisualStyle
  2
Hidden
 70
     6
 71
     1
 72
     2
 73
     2
 90
        0
 40
-0.6
 41
-30.0
 62
     5
 63
     7
 74
     2
 91
        2
 64
     7
 65
   257
 75
     2
175
     1
 42
40.0
 92
        0
 66
   257
 43
1.0
 76
     1
 77
     6
 78
     2
 67
     7
 79
     3
170
     0
171
     0
290
     0
174
     0
 93
        1
 44
0.0
173
     0
291
     0
 45
0.0
1001
ACAD
1000
AcDbSavedByObjectVersion
1070
     0
  0
VISUALSTYLE
  5
C235
102
{ACAD_XDICTIONARY
360
C2A3
102
}
102
{ACAD_REACTORS
330
C21F
102
}
330
C21F
100
AcDbVisualStyle
  2
JitterOff
 70
    20
 71
     2
 72
     2
 73
     0
 90
        0
 40
-0.6
 41
-30.0
 62
     5
 63
     7
 74
     1
 91
        4
 64
     7
 65
   257
 75
     1
175
     1
 42
1.0
 92
       10
 66
     7
 43
1.0
 76
     1
 77
     6
 78
     2
 67
     7
 79
     5
170
     0
171
     0
290
     0
174
     0
 93
        1
 44
0.0
173
     0
291
     1
 45
0.0
1001
ACAD
1000
AcDbSavedByObjectVersion
1070
     0
  0
VISUALSTYLE
  5
C22D
102
{ACAD_XDICTIONARY
360
C293
102
}
102
{ACAD_REACTORS
330
C21F
102
}
330
C21F
100
AcDbVisualStyle
  2
Linepattern
 70
    14
 71
     2
 72
     2
 73
     0
 90
        0
 40
-0.6
 41
-30.0
 62
     5
 63
     7
 74
     1
 91
        4
 64
     7
 65
   257
 75
     7
175
     7
 42
1.0
 92
        8
 66
     7
 43
1.0
 76
     1
 77
     6
 78
     2
 67
     7
 79
     5
170
     0
171
     0
290
     0
174
     0
 93
        1
 44
0.0
173
     0
291
     1
 45
0.0
1001
ACAD
1000
AcDbSavedByObjectVersion
1070
     0
  0
VISUALSTYLE
  5
C236
102
{ACAD_XDICTIONARY
360
C2A5
102
}
102
{ACAD_REACTORS
330
C21F
102
}
330
C21F
100
AcDbVisualStyle
  2
OverhangOff
 70
    21
 71
     2
 72
     2
 73
     0
 90
        0
 40
-0.6
 41
-30.0
 62
     5
 63
     7
 74
     1
 91
        4
 64
     7
 65
   257
 75
     1
175
     1
 42
1.0
 92
        9
 66
     7
 43
1.0
 76
     1
 77
     6
 78
     2
 67
     7
 79
     5
170
     0
171
     0
290
     0
174
     0
 93
        1
 44
0.0
173
     0
291
     1
 45
0.0
1001
ACAD
1000
AcDbSavedByObjectVersion
1070
     0
  0
VISUALSTYLE
  5
C229
102
{ACAD_XDICTIONARY
360
C28B
102
}
102
{ACAD_REACTORS
330
C21F
102
}
330
C21F
100
AcDbVisualStyle
  2
Realistic
 70
     8
 71
     2
 72
     3
 73
     0
 90
        2
 40
-0.6
 41
30.0
 62
     5
 63
     7
 74
     0
 91
        0
 64
     7
 65
   257
 75
     1
175
     1
 42
1.0
 92
        8
 66
   257
 43
1.0
 76
     1
 77
     6
 78
     2
 67
     7
 79
     3
170
     0
171
     0
290
     0
174
     0
 93
       13
 44
0.0
173
     0
291
     0
 45
0.0
1001
ACAD
1000
AcDbSavedByObjectVersion
1070
     0
  0
VISUALSTYLE
  5
C234
102
{ACAD_XDICTIONARY
360
C2A1
102
}
102
{ACAD_REACTORS
330
C21F
102
}
330
C21F
100
AcDbVisualStyle
  2
Shaded
 70
    27
 71
     2
 72
     2
 73
     1
 90
        2
 40
-0.6
 41
30.0
 62
     5
 63
     7
 74
     0
 91
        4
 64
     7
 65
   257
 75
     1
175
     1
 42
1.0
 92
        8
 66
   257
 43
1.0
 76
     1
 77
     6
 78
     2
 67
     8
 79
     3
170
     0
171
     0
290
     0
174
     0
 93
        5
 44
0.0
173
     0
291
     0
 45
0.0
1001
ACAD
1000
AcDbSavedByObjectVersion
1070
     0
  0
VISUALSTYLE
  5
C233
102
{ACAD_XDICTIONARY
360
C29F
102
}
102
{ACAD_REACTORS
330
C21F
102
}
330
C21F
100
AcDbVisualStyle
  2
Shaded with edges
 70
    26
 71
     2
 72
     2
 73
     1
 90
        2
 40
-0.6
 41
30.0
 62
     5
 63
     7
 74
     1
 91
       10
 64
     7
 65
   257
 75
     2
175
     1
 42
1.0
 92
        8
 66
   257
 43
1.0
 76
     1
 77
     6
 78
     2
 67
     7
 79
     3
170
     0
171
     0
290
     0
174
     0
 93
        5
 44
0.0
173
     0
291
     0
 45
0.0
1001
ACAD
1000
AcDbSavedByObjectVersion
1070
     0
  0
VISUALSTYLE
  5
C230
102
{ACAD_XDICTIONARY
360
C299
102
}
102
{ACAD_REACTORS
330
C21F
102
}
330
C21F
100
AcDbVisualStyle
  2
Shades of Gray
 70
    23
 71
     2
 72
     2
 73
     3
 90
        0
 40
-0.6
 41
-30.0
 62
     5
 63
     7
 74
     2
 91
        2
 64
     7
 65
     7
 75
     1
175
     1
 42
40.0
 92
        8
 66
     7
 43
1.0
 76
     1
 77
     6
 78
     2
 67
     7
 79
     3
170
     0
171
     0
290
     0
174
     0
 93
        1
 44
0.0
173
     0
291
     0
 45
0.0
1001
ACAD
1000
AcDbSavedByObjectVersion
1070
     0
  0
VISUALSTYLE
  5
C231
102
{ACAD_XDICTIONARY
360
C29B
102
}
102
{ACAD_REACTORS
330
C21F
102
}
330
C21F
100
AcDbVisualStyle
  2
Sketchy
 70
    24
 71
     1
 72
     2
 73
     2
 90
        0
 40
-0.6
 41
-30.0
 62
     5
 63
     7
 74
     2
 91
        2
 64
     7
 65
     7
 75
     1
175
     1
 42
40.0
 92
       11
 66
     7
 43
1.0
 76
     1
 77
     6
 78
     2
 67
     7
 79
     6
170
     0
171
     0
290
     0
174
     0
 93
        1
 44
0.0
173
     0
291
     0
 45
0.0
1001
ACAD
1000
AcDbSavedByObjectVersion
1070
     0
  0
VISUALSTYLE
  5
C22C
102
{ACAD_XDICTIONARY
360
C291
102
}
102
{ACAD_REACTORS
330
C21F
102
}
330
C21F
100
AcDbVisualStyle
  2
Thicken
 70
    13
 71
     2
 72
     2
 73
     0
 90
        0
 40
-0.6
 41
-30.0
 62
     5
 63
     7
 74
     1
 91
        4
 64
     7
 65
   257
 75
     1
175
     1
 42
1.0
 92
       12
 66
     7
 43
1.0
 76
     1
 77
     6
 78
     2
 67
     7
 79
     5
170
     0
171
     0
290
     0
174
     0
 93
        1
 44
0.0
173
     0
291
     1
 45
0.0
1001
ACAD
1000
AcDbSavedByObjectVersion
1070
     0
  0
VISUALSTYLE
  5
C226
102
{ACAD_XDICTIONARY
360
C285
102
}
102
{ACAD_REACTORS
330
C21F
102
}
330
C21F
100
AcDbVisualStyle
  2
Wireframe
 70
     5
 71
     0
 72
     2
 73
     0
 90
        0
 40
-0.6
 41
-30.0
 62
     5
 63
     7
 74
     1
 91
        4
 64
     7
 65
   257
 75
     1
175
     1
 42
1.0
 92
        0
 66
   257
 43
1.0
 76
     1
 77
     6
 78
     2
 67
     7
 79
     3
170
     0
171
     0
290
     0
174
     0
 93
        1
 44
0.0
173
     0
291
     0
 45
0.0
1001
ACAD
1000
AcDbSavedByObjectVersion
1070
     0
  0
VISUALSTYLE
  5
C232
102
{ACAD_XDICTIONARY
360
C29D
102
}
102
{ACAD_REACTORS
330
C21F
102
}
330
C21F
100
AcDbVisualStyle
  2
X-Ray
 70
    25
 71
     2
 72
     2
 73
     1
 90
        1
 40
0.5
 41
-30.0
 62
     5
 63
     7
 74
     1
 91
        0
 64
     7
 65
   257
 75
     1
175
     1
 42
1.0
 92
        8
 66
     7
 43
1.0
 76
     1
 77
     6
 78
     2
 67
     7
 79
     3
170
     0
171
     0
290
     0
174
     0
 93
       13
 44
0.0
173
     0
291
     0
 45
0.0
1001
ACAD
1000
AcDbSavedByObjectVersion
1070
     0
  0
DICTIONARYVAR
  5
C26C
102
{ACAD_REACTORS
330
C267
102
}
330
C267
100
DictionaryVariables
280
     0
  1
1:1
  0
DICTIONARYVAR
  5
C269
102
{ACAD_REACTORS
330
C267
102
}
330
C267
100
DictionaryVariables
280
     0
  1
STANDARD
  0
DICTIONARYVAR
  5
C268
102
{ACAD_REACTORS
330
C267
102
}
330
C267
100
DictionaryVariables
280
     0
  1
STANDARD
  0
DICTIONARYVAR
  5
C26A
102
{ACAD_REACTORS
330
C267
102
}
330
C267
100
DictionaryVariables
280
     0
  1
Imperial24
  0
DICTIONARYVAR
  5
C26B
102
{ACAD_REACTORS
330
C267
102
}
330
C267
100
DictionaryVariables
280
     0
  1
Imperial24
  0
DICTIONARYVAR
  5
C26F
102
{ACAD_REACTORS
330
C267
102
}
330
C267
100
DictionaryVariables
280
     0
  1
1
  0
DICTIONARYVAR
  5
C26E
102
{ACAD_REACTORS
330
C267
102
}
330
C267
100
DictionaryVariables
280
     0
  1
0
  0
DICTIONARYVAR
  5
C26D
102
{ACAD_REACTORS
330
C267
102
}
330
C267
100
DictionaryVariables
280
     0
  1
127
  0
DICTIONARYVAR
  5
C270
102
{ACAD_REACTORS
330
C267
102
}
330
C267
100
DictionaryVariables
280
     0
  1
2
  0
DICTIONARY
  5
C2AD
330
C252
100
AcDbDictionary
280
     1
281
     1
  3
ACAD_XREC_ROUNDTRIP
360
C2AE
  0
DICTIONARY
  5
C2AF
330
C253
100
AcDbDictionary
280
     1
281
     1
  3
ACAD_XREC_ROUNDTRIP
360
C2B0
  0
DICTIONARY
  5
C2B1
330
C254
100
AcDbDictionary
280
     1
281
     1
  3
ACAD_XREC_ROUNDTRIP
360
C2B2
  0
DICTIONARY
  5
C210
330
C20F
100
AcDbDictionary
280
     1
281
     1
  3
ACAD_XREC_ROUNDTRIP
360
C277
  3
BUMPTILE
360
C212
  3
DIFFUSETILE
360
C211
  3
OPACITYTILE
360
C215
  3
REFLECTIONTILE
360
C214
  3
REFRACTIONTILE
360
C216
  3
SPECULARTILE
360
C213
  0
DICTIONARY
  5
C208
330
C207
100
AcDbDictionary
280
     1
281
     1
  3
ACAD_XREC_ROUNDTRIP
360
C276
  3
BUMPTILE
360
C20A
  3
DIFFUSETILE
360
C209
  3
OPACITYTILE
360
C20D
  3
REFLECTIONTILE
360
C20C
  3
REFRACTIONTILE
360
C20E
  3
SPECULARTILE
360
C20B
  0
DICTIONARY
  5
C218
330
C217
100
AcDbDictionary
280
     1
281
     1
  3
ACAD_XREC_ROUNDTRIP
360
C278
  3
BUMPTILE
360
C21A
  3
DIFFUSETILE
360
C219
  3
OPACITYTILE
360
C21D
  3
REFLECTIONTILE
360
C21C
  3
REFRACTIONTILE
360
C21E
  3
SPECULARTILE
360
C21B
  0
DICTIONARY
  5
C2AB
330
C250
100
AcDbDictionary
280
     1
281
     1
  3
ACAD_XREC_ROUNDTRIP
360
C2AC
  0
DICTIONARY
  5
C272
330
C23A
100
AcDbDictionary
280
     1
281
     1
  3
ACAD_ROUNDTRIP_2008_TABLESTYLE_CELLSTYLEMAP
360
C273
  3
ACAD_XREC_ROUNDTRIP
360
C2A9
  0
DICTIONARY
  5
C283
330
C225
100
AcDbDictionary
280
     1
281
     1
  3
ACAD_XREC_ROUNDTRIP
360
C284
  0
DICTIONARY
  5
C281
330
C224
100
AcDbDictionary
280
     1
281
     1
  3
ACAD_XREC_ROUNDTRIP
360
C282
  0
DICTIONARY
  5
C28F
330
C22B
100
AcDbDictionary
280
     1
281
     1
  3
ACAD_XREC_ROUNDTRIP
360
C290
  0
DICTIONARY
  5
C297
330
C22F
100
AcDbDictionary
280
     1
281
     1
  3
ACAD_XREC_ROUNDTRIP
360
C298
  0
DICTIONARY
  5
C289
330
C228
100
AcDbDictionary
280
     1
281
     1
  3
ACAD_XREC_ROUNDTRIP
360
C28A
  0
DICTIONARY
  5
C28D
330
C22A
100
AcDbDictionary
280
     1
281
     1
  3
ACAD_XREC_ROUNDTRIP
360
C28E
  0
DICTIONARY
  5
C2A7
330
C237
100
AcDbDictionary
280
     1
281
     1
  3
ACAD_XREC_ROUNDTRIP
360
C2A8
  0
DICTIONARY
  5
C295
330
C22E
100
AcDbDictionary
280
     1
281
     1
  3
ACAD_XREC_ROUNDTRIP
360
C296
  0
DICTIONARY
  5
C279
330
C220
100
AcDbDictionary
280
     1
281
     1
  3
ACAD_XREC_ROUNDTRIP
360
C27A
  0
DICTIONARY
  5
C27B
330
C221
100
AcDbDictionary
280
     1
281
     1
  3
ACAD_XREC_ROUNDTRIP
360
C27C
  0
DICTIONARY
  5
C27D
330
C222
100
AcDbDictionary
280
     1
281
     1
  3
ACAD_XREC_ROUNDTRIP
360
C27E
  0
DICTIONARY
  5
C27F
330
C223
100
AcDbDictionary
280
     1
281
     1
  3
ACAD_XREC_ROUNDTRIP
360
C280
  0
DICTIONARY
  5
C287
330
C227
100
AcDbDictionary
280
     1
281
     1
  3
ACAD_XREC_ROUNDTRIP
360
C288
  0
DICTIONARY
  5
C2A3
330
C235
100
AcDbDictionary
280
     1
281
     1
  3
ACAD_XREC_ROUNDTRIP
360
C2A4
  0
DICTIONARY
  5
C293
330
C22D
100
AcDbDictionary
280
     1
281
     1
  3
ACAD_XREC_ROUNDTRIP
360
C294
  0
DICTIONARY
  5
C2A5
330
C236
100
AcDbDictionary
280
     1
281
     1
  3
ACAD_XREC_ROUNDTRIP
360
C2A6
  0
DICTIONARY
  5
C28B
330
C229
100
AcDbDictionary
280
     1
281
     1
  3
ACAD_XREC_ROUNDTRIP
360
C28C
  0
DICTIONARY
  5
C2A1
330
C234
100
AcDbDictionary
280
     1
281
     1
  3
ACAD_XREC_ROUNDTRIP
360
C2A2
  0
DICTIONARY
  5
C29F
330
C233
100
AcDbDictionary
280
     1
281
     1
  3
ACAD_XREC_ROUNDTRIP
360
C2A0
  0
DICTIONARY
  5
C299
330
C230
100
AcDbDictionary
280
     1
281
     1
  3
ACAD_XREC_ROUNDTRIP
360
C29A
  0
DICTIONARY
  5
C29B
330
C231
100
AcDbDictionary
280
     1
281
     1
  3
ACAD_XREC_ROUNDTRIP
360
C29C
  0
DICTIONARY
  5
C291
330
C22C
100
AcDbDictionary
280
     1
281
     1
  3
ACAD_XREC_ROUNDTRIP
360
C292
  0
DICTIONARY
  5
C285
330
C226
100
AcDbDictionary
280
     1
281
     1
  3
ACAD_XREC_ROUNDTRIP
360
C286
  0
DICTIONARY
  5
C29D
330
C232
100
AcDbDictionary
280
     1
281
     1
  3
ACAD_XREC_ROUNDTRIP
360
C29E
  0
XRECORD
  5
C2AE
102
{ACAD_REACTORS
330
C2AD
102
}
330
C2AD
100
AcDbXrecord
280
     1
102
DISPLAYNAME
  1
Imperial24
102
FLAGS
 90
        0
  0
XRECORD
  5
C2B0
102
{ACAD_REACTORS
330
C2AF
102
}
330
C2AF
100
AcDbXrecord
280
     1
102
SHADEPLOT
 70
     0
102
SHADEPLOTRESLEVEL
 70
     2
102
SHADEPLOTCUSTOMDPI
 70
   300
  0
XRECORD
  5
C2B2
102
{ACAD_REACTORS
330
C2B1
102
}
330
C2B1
100
AcDbXrecord
280
     1
102
SHADEPLOT
 70
     0
102
SHADEPLOTRESLEVEL
 70
     2
102
SHADEPLOTCUSTOMDPI
 70
   300
  0
XRECORD
  5
C277
102
{ACAD_REACTORS
330
C210
102
}
330
C210
100
AcDbXrecord
280
     1
102
MATERIAL
148
0.0
149
0.0
149
0.0
 93
        0
 94
      127
282
     0
 72
     0
 77
     0
171
     0
175
     0
179
     0
273
     0
  0
XRECORD
  5
C212
102
{ACAD_REACTORS
330
C210
102
}
330
C210
100
AcDbXrecord
280
     1
270
     1
271
     1
  0
XRECORD
  5
C211
102
{ACAD_REACTORS
330
C210
102
}
330
C210
100
AcDbXrecord
280
     1
270
     1
271
     1
  0
XRECORD
  5
C215
102
{ACAD_REACTORS
330
C210
102
}
330
C210
100
AcDbXrecord
280
     1
270
     1
271
     1
  0
XRECORD
  5
C214
102
{ACAD_REACTORS
330
C210
102
}
330
C210
100
AcDbXrecord
280
     1
270
     1
271
     1
  0
XRECORD
  5
C216
102
{ACAD_REACTORS
330
C210
102
}
330
C210
100
AcDbXrecord
280
     1
270
     1
271
     1
  0
XRECORD
  5
C213
102
{ACAD_REACTORS
330
C210
102
}
330
C210
100
AcDbXrecord
280
     1
270
     1
271
     1
  0
XRECORD
  5
C276
102
{ACAD_REACTORS
330
C208
102
}
330
C208
100
AcDbXrecord
280
     1
102
MATERIAL
148
0.0
149
0.0
149
0.0
 93
        0
 94
      127
282
     0
 72
     0
 77
     0
171
     0
175
     0
179
     0
273
     0
  0
XRECORD
  5
C20A
102
{ACAD_REACTORS
330
C208
102
}
330
C208
100
AcDbXrecord
280
     1
270
     1
271
     1
  0
XRECORD
  5
C209
102
{ACAD_REACTORS
330
C208
102
}
330
C208
100
AcDbXrecord
280
     1
270
     1
271
     1
  0
XRECORD
  5
C20D
102
{ACAD_REACTORS
330
C208
102
}
330
C208
100
AcDbXrecord
280
     1
270
     1
271
     1
  0
XRECORD
  5
C20C
102
{ACAD_REACTORS
330
C208
102
}
330
C208
100
AcDbXrecord
280
     1
270
     1
271
     1
  0
XRECORD
  5
C20E
102
{ACAD_REACTORS
330
C208
102
}
330
C208
100
AcDbXrecord
280
     1
270
     1
271
     1
  0
XRECORD
  5
C20B
102
{ACAD_REACTORS
330
C208
102
}
330
C208
100
AcDbXrecord
280
     1
270
     1
271
     1
  0
XRECORD
  5
C278
102
{ACAD_REACTORS
330
C218
102
}
330
C218
100
AcDbXrecord
280
     1
102
MATERIAL
148
0.0
149
0.0
149
0.0
 93
        0
 94
      127
282
     0
 72
     0
 77
     0
171
     0
175
     0
179
     0
273
     0
  0
XRECORD
  5
C21A
102
{ACAD_REACTORS
330
C218
102
}
330
C218
100
AcDbXrecord
280
     1
270
     1
271
     1
  0
XRECORD
  5
C219
102
{ACAD_REACTORS
330
C218
102
}
330
C218
100
AcDbXrecord
280
     1
270
     1
271
     1
  0
XRECORD
  5
C21D
102
{ACAD_REACTORS
330
C218
102
}
330
C218
100
AcDbXrecord
280
     1
270
     1
271
     1
  0
XRECORD
  5
C21C
102
{ACAD_REACTORS
330
C218
102
}
330
C218
100
AcDbXrecord
280
     1
270
     1
271
     1
  0
XRECORD
  5
C21E
102
{ACAD_REACTORS
330
C218
102
}
330
C218
100
AcDbXrecord
280
     1
270
     1
271
     1
  0
XRECORD
  5
C21B
102
{ACAD_REACTORS
330
C218
102
}
330
C218
100
AcDbXrecord
280
     1
270
     1
271
     1
  0
XRECORD
  5
C2AC
102
{ACAD_REACTORS
330
C2AB
102
}
330
C2AB
100
AcDbXrecord
280
     1
102
DISPLAYNAME
  1
Imperial24
102
FLAGS
 90
        0
  0
CELLSTYLEMAP
  5
C273
102
{ACAD_REACTORS
330
C272
102
}
330
C272
100
AcDbCellStyleMap
 90
        3
300
CELLSTYLE
  1
TABLEFORMAT_BEGIN
 90
        5
170
     1
 91
        0
 92
    32768
 62
   257
 93
        1
300
CONTENTFORMAT
  1
CONTENTFORMAT_BEGIN
 90
        0
 91
        0
 92
      512
 93
        0
300

 40
0.0
140
1.0
 94
        5
 62
     0
340
BDED
144
0.25
309
CONTENTFORMAT_END
171
     0
 94
        0
309
TABLEFORMAT_END
  1
CELLSTYLE_BEGIN
 90
        1
 91
        1
300
_TITLE
309
CELLSTYLE_END
300
CELLSTYLE
  1
TABLEFORMAT_BEGIN
 90
        5
170
     1
 91
        0
 92
        0
 62
   257
 93
        1
300
CONTENTFORMAT
  1
CONTENTFORMAT_BEGIN
 90
        0
 91
        0
 92
      512
 93
        0
300

 40
0.0
140
1.0
 94
        5
 62
     0
340
BDED
144
0.18
309
CONTENTFORMAT_END
171
     0
 94
        0
309
TABLEFORMAT_END
  1
CELLSTYLE_BEGIN
 90
        2
 91
        1
300
_HEADER
309
CELLSTYLE_END
300
CELLSTYLE
  1
TABLEFORMAT_BEGIN
 90
        5
170
     1
 91
        0
 92
        0
 62
   257
 93
        1
300
CONTENTFORMAT
  1
CONTENTFORMAT_BEGIN
 90
        0
 91
        0
 92
      512
 93
        0
300

 40
0.0
140
1.0
 94
        2
 62
     0
340
BDED
144
0.18
309
CONTENTFORMAT_END
171
     0
 94
        0
309
TABLEFORMAT_END
  1
CELLSTYLE_BEGIN
 90
        3
 91
        2
300
_DATA
309
CELLSTYLE_END
  0
XRECORD
  5
C2A9
102
{ACAD_REACTORS
330
C272
102
}
330
C272
100
AcDbXrecord
280
     1
102
ACAD_ROUNDTRIP_PRE2007_TABLESTYLE
 90
      512
 91
        0
  1

 92
      512
 93
        0
  2

 94
      512
 95
        0
  3

  0
XRECORD
  5
C284
102
{ACAD_REACTORS
330
C283
102
}
330
C283
100
AcDbXrecord
280
     1
102
RTVSPost2010Prop28
280
     1
102
RTVSPost2010PropOp28
 70
     1
102
RTVSPost2010Prop29
280
     1
102
RTVSPost2010PropOp29
 70
     1
102
RTVSPost2010Prop30
280
     0
102
RTVSPost2010PropOp30
 70
     1
102
RTVSPost2010Prop31
280
     0
102
RTVSPost2010PropOp31
 70
     1
102
RTVSPost2010Prop32
280
     0
102
RTVSPost2010PropOp32
 70
     1
102
RTVSPost2010Prop33
280
     0
102
RTVSPost2010PropOp33
 70
     1
102
RTVSPost2010Prop34
280
     0
102
RTVSPost2010PropOp34
 70
     1
102
RTVSPost2010Prop35
280
     0
102
RTVSPost2010PropOp35
 70
     1
102
RTVSPost2010Prop36
280
     0
102
RTVSPost2010PropOp36
 70
     1
102
RTVSPost2010Prop37
 90
       50
102
RTVSPost2010PropOp37
 70
     1
102
RTVSPost2010Prop38
140
0.0
102
RTVSPost2010PropOp38
 70
     1
102
RTVSPost2010Prop39
140
1.0
102
RTVSPost2010PropOp39
 70
     1
102
RTVSPost2010Prop40
 90
        0
102
RTVSPost2010PropOp40
 70
     1
102
RTVSPost2010Prop41ColorIndex
 90
       18
102
RTVSPost2010Prop41ColorRGB
 90
        0
102
RTVSPost2010PropOp41
 70
     1
102
RTVSPost2010Prop42
 90
       50
102
RTVSPost2010PropOp42
 70
     1
102
RTVSPost2010Prop43
 90
        3
102
RTVSPost2010PropOp43
 70
     1
102
RTVSPost2010Prop44ColorIndex
 90
        5
102
RTVSPost2010Prop44ColorRGB
 90
      255
102
RTVSPost2010PropOp44
 70
     1
102
RTVSPost2010Prop45
280
     0
102
RTVSPost2010PropOp45
 70
     1
102
RTVSPost2010Prop46
 90
       50
102
RTVSPost2010PropOp46
 70
     1
102
RTVSPost2010Prop47
 90
       50
102
RTVSPost2010PropOp47
 70
     1
102
RTVSPost2010Prop48
 90
       50
102
RTVSPost2010PropOp48
 70
     1
102
RTVSPost2010Prop49
280
     0
102
RTVSPost2010PropOp49
 70
     1
102
RTVSPost2010Prop50
 90
       50
102
RTVSPost2010PropOp50
 70
     1
102
RTVSPost2010Prop51ColorIndex
 90
      256
102
RTVSPost2010Prop51ColorRGB
 90
-16777216
102
RTVSPost2010PropOp51
 70
     0
102
RTVSPost2010Prop52
140
1.0
102
RTVSPost2010PropOp52
 70
     0
102
RTVSPost2010Prop53
 90
        2
102
RTVSPost2010PropOp53
 70
     1
102
RTVSPost2010Prop54
  1
strokes_ogs.tif
102
RTVSPost2010PropOp54
 70
     1
102
RTVSPost2010Prop55
280
     0
102
RTVSPost2010PropOp55
 70
     1
102
RTVSPost2010Prop56
140
1.0
102
RTVSPost2010PropOp56
 70
     1
102
RTVSPost2010Prop57
140
1.0
102
RTVSPost2010PropOp57
 70
     1
102
RTVSPropertyOp0
 70
     1
102
RTVSPropertyOp1
 70
     1
102
RTVSPropertyOp2
 70
     1
102
RTVSPropertyOp3
 70
     1
102
RTVSPropertyOp4
 70
     1
102
RTVSPropertyOp5
 70
     1
102
RTVSPropertyOp6
 70
     1
102
RTVSPropertyOp7
 70
     1
102
RTVSPropertyOp8
 70
     1
102
RTVSPropertyOp9
 70
     1
102
RTVSPropertyOp10
 70
     1
102
RTVSPropertyOp11
 70
     1
102
RTVSPropertyOp12
 70
     1
102
RTVSPropertyOp13
 70
     1
102
RTVSPropertyOp14
 70
     1
102
RTVSPropertyOp15
 70
     1
102
RTVSPropertyOp16
 70
     1
102
RTVSPropertyOp17
 70
     1
102
RTVSPropertyOp18
 70
     1
102
RTVSPropertyOp19
 70
     1
102
RTVSPropertyOp20
 70
     1
102
RTVSPropertyOp21
 70
     1
102
RTVSPropertyOp22
 70
     1
102
RTVSPropertyOp23
 70
     1
102
RTVSPropertyOp24
 70
     1
102
RTVSPropertyOp25
 70
     1
102
RTVSPropertyOp26
 70
     1
102
RTVSPropertyOp27
 70
     1
102
RTVSPropertyOp28
 70
     1
102
RTVSPropertyOp29
 70
     1
102
RTVSPropertyOp30
 70
     1
102
RTVSPropertyOp31
 70
     1
102
RTVSPropertyOp32
 70
     1
102
RTVSPropertyOp33
 70
     1
102
RTVSPropertyOp34
 70
     1
102
RTVSPropertyOp35
 70
     1
102
RTVSPropertyOp36
 70
     1
102
RTVSPropertyOp37
 70
     1
102
RTVSPropertyOp38
 70
     1
102
RTVSPropertyOp39
 70
     1
102
RTVSPropertyOp40
 70
     1
102
RTVSPropertyOp41
 70
     1
102
RTVSPropertyOp42
 70
     1
102
RTVSPropertyOp43
 70
     1
102
RTVSPropertyOp44
 70
     1
102
RTVSPropertyOp45
 70
     1
102
RTVSPropertyOp46
 70
     1
102
RTVSPropertyOp47
 70
     1
102
RTVSPropertyOp48
 70
     1
102
RTVSPropertyOp49
 70
     1
102
RTVSPropertyOp50
 70
     1
102
RTVSPropertyOp51
 70
     0
102
RTVSPropertyOp52
 70
     0
102
RTVSPropertyOp53
 70
     1
102
RTVSPropertyOp54
 70
     1
102
RTVSPropertyOp55
 70
     1
102
RTVSPropertyOp56
 70
     1
102
RTVSPropertyOp57
 70
     1
102
RTVSPropertyOp58
 70
     1
102
RTVSPropertyOp59
 70
     1
102
RTVSPropertyOp60
 70
     1
102
RTVSPropertyOp61
 70
     1
102
RTVSPropertyOp62
 70
     1
  0
XRECORD
  5
C282
102
{ACAD_REACTORS
330
C281
102
}
330
C281
100
AcDbXrecord
280
     1
102
RTVSPost2010Prop28
280
     0
102
RTVSPost2010PropOp28
 70
     1
102
RTVSPost2010Prop29
280
     1
102
RTVSPost2010PropOp29
 70
     1
102
RTVSPost2010Prop30
280
     1
102
RTVSPost2010PropOp30
 70
     1
102
RTVSPost2010Prop31
280
     0
102
RTVSPost2010PropOp31
 70
     1
102
RTVSPost2010Prop32
280
     0
102
RTVSPost2010PropOp32
 70
     1
102
RTVSPost2010Prop33
280
     0
102
RTVSPost2010PropOp33
 70
     1
102
RTVSPost2010Prop34
280
     0
102
RTVSPost2010PropOp34
 70
     1
102
RTVSPost2010Prop35
280
     0
102
RTVSPost2010PropOp35
 70
     1
102
RTVSPost2010Prop36
280
     0
102
RTVSPost2010PropOp36
 70
     1
102
RTVSPost2010Prop37
 90
       50
102
RTVSPost2010PropOp37
 70
     1
102
RTVSPost2010Prop38
140
0.0
102
RTVSPost2010PropOp38
 70
     1
102
RTVSPost2010Prop39
140
1.0
102
RTVSPost2010PropOp39
 70
     1
102
RTVSPost2010Prop40
 90
        0
102
RTVSPost2010PropOp40
 70
     1
102
RTVSPost2010Prop41ColorIndex
 90
       18
102
RTVSPost2010Prop41ColorRGB
 90
        0
102
RTVSPost2010PropOp41
 70
     1
102
RTVSPost2010Prop42
 90
       50
102
RTVSPost2010PropOp42
 70
     1
102
RTVSPost2010Prop43
 90
        3
102
RTVSPost2010PropOp43
 70
     1
102
RTVSPost2010Prop44ColorIndex
 90
        5
102
RTVSPost2010Prop44ColorRGB
 90
      255
102
RTVSPost2010PropOp44
 70
     1
102
RTVSPost2010Prop45
280
     0
102
RTVSPost2010PropOp45
 70
     1
102
RTVSPost2010Prop46
 90
       50
102
RTVSPost2010PropOp46
 70
     1
102
RTVSPost2010Prop47
 90
       50
102
RTVSPost2010PropOp47
 70
     1
102
RTVSPost2010Prop48
 90
       50
102
RTVSPost2010PropOp48
 70
     1
102
RTVSPost2010Prop49
280
     0
102
RTVSPost2010PropOp49
 70
     1
102
RTVSPost2010Prop50
 90
       50
102
RTVSPost2010PropOp50
 70
     1
102
RTVSPost2010Prop51ColorIndex
 90
      256
102
RTVSPost2010Prop51ColorRGB
 90
-16777216
102
RTVSPost2010PropOp51
 70
     0
102
RTVSPost2010Prop52
140
1.0
102
RTVSPost2010PropOp52
 70
     0
102
RTVSPost2010Prop53
 90
        2
102
RTVSPost2010PropOp53
 70
     1
102
RTVSPost2010Prop54
  1
strokes_ogs.tif
102
RTVSPost2010PropOp54
 70
     1
102
RTVSPost2010Prop55
280
     0
102
RTVSPost2010PropOp55
 70
     1
102
RTVSPost2010Prop56
140
1.0
102
RTVSPost2010PropOp56
 70
     1
102
RTVSPost2010Prop57
140
1.0
102
RTVSPost2010PropOp57
 70
     1
102
RTVSPropertyOp0
 70
     1
102
RTVSPropertyOp1
 70
     1
102
RTVSPropertyOp2
 70
     1
102
RTVSPropertyOp3
 70
     1
102
RTVSPropertyOp4
 70
     1
102
RTVSPropertyOp5
 70
     1
102
RTVSPropertyOp6
 70
     1
102
RTVSPropertyOp7
 70
     1
102
RTVSPropertyOp8
 70
     1
102
RTVSPropertyOp9
 70
     1
102
RTVSPropertyOp10
 70
     1
102
RTVSPropertyOp11
 70
     1
102
RTVSPropertyOp12
 70
     1
102
RTVSPropertyOp13
 70
     1
102
RTVSPropertyOp14
 70
     1
102
RTVSPropertyOp15
 70
     1
102
RTVSPropertyOp16
 70
     1
102
RTVSPropertyOp17
 70
     1
102
RTVSPropertyOp18
 70
     1
102
RTVSPropertyOp19
 70
     1
102
RTVSPropertyOp20
 70
     1
102
RTVSPropertyOp21
 70
     1
102
RTVSPropertyOp22
 70
     1
102
RTVSPropertyOp23
 70
     1
102
RTVSPropertyOp24
 70
     1
102
RTVSPropertyOp25
 70
     1
102
RTVSPropertyOp26
 70
     1
102
RTVSPropertyOp27
 70
     1
102
RTVSPropertyOp28
 70
     1
102
RTVSPropertyOp29
 70
     1
102
RTVSPropertyOp30
 70
     1
102
RTVSPropertyOp31
 70
     1
102
RTVSPropertyOp32
 70
     1
102
RTVSPropertyOp33
 70
     1
102
RTVSPropertyOp34
 70
     1
102
RTVSPropertyOp35
 70
     1
102
RTVSPropertyOp36
 70
     1
102
RTVSPropertyOp37
 70
     1
102
RTVSPropertyOp38
 70
     1
102
RTVSPropertyOp39
 70
     1
102
RTVSPropertyOp40
 70
     1
102
RTVSPropertyOp41
 70
     1
102
RTVSPropertyOp42
 70
     1
102
RTVSPropertyOp43
 70
     1
102
RTVSPropertyOp44
 70
     1
102
RTVSPropertyOp45
 70
     1
102
RTVSPropertyOp46
 70
     1
102
RTVSPropertyOp47
 70
     1
102
RTVSPropertyOp48
 70
     1
102
RTVSPropertyOp49
 70
     1
102
RTVSPropertyOp50
 70
     1
102
RTVSPropertyOp51
 70
     0
102
RTVSPropertyOp52
 70
     0
102
RTVSPropertyOp53
 70
     1
102
RTVSPropertyOp54
 70
     1
102
RTVSPropertyOp55
 70
     1
102
RTVSPropertyOp56
 70
     1
102
RTVSPropertyOp57
 70
     1
102
RTVSPropertyOp58
 70
     1
102
RTVSPropertyOp59
 70
     1
102
RTVSPropertyOp60
 70
     1
102
RTVSPropertyOp61
 70
     1
102
RTVSPropertyOp62
 70
     1
  0
XRECORD
  5
C290
102
{ACAD_REACTORS
330
C28F
102
}
330
C28F
100
AcDbXrecord
280
     1
102
RTVSPost2010Prop28
280
     0
102
RTVSPost2010PropOp28
 70
     1
102
RTVSPost2010Prop29
280
     1
102
RTVSPost2010PropOp29
 70
     1
102
RTVSPost2010Prop30
280
     1
102
RTVSPost2010PropOp30
 70
     1
102
RTVSPost2010Prop31
280
     0
102
RTVSPost2010PropOp31
 70
     1
102
RTVSPost2010Prop32
280
     0
102
RTVSPost2010PropOp32
 70
     1
102
RTVSPost2010Prop33
280
     0
102
RTVSPost2010PropOp33
 70
     1
102
RTVSPost2010Prop34
280
     0
102
RTVSPost2010PropOp34
 70
     1
102
RTVSPost2010Prop35
280
     0
102
RTVSPost2010PropOp35
 70
     1
102
RTVSPost2010Prop36
280
     0
102
RTVSPost2010PropOp36
 70
     1
102
RTVSPost2010Prop37
 90
       50
102
RTVSPost2010PropOp37
 70
     1
102
RTVSPost2010Prop38
140
0.0
102
RTVSPost2010PropOp38
 70
     1
102
RTVSPost2010Prop39
140
1.0
102
RTVSPost2010PropOp39
 70
     1
102
RTVSPost2010Prop40
 90
        0
102
RTVSPost2010PropOp40
 70
     1
102
RTVSPost2010Prop41ColorIndex
 90
       18
102
RTVSPost2010Prop41ColorRGB
 90
        0
102
RTVSPost2010PropOp41
 70
     1
102
RTVSPost2010Prop42
 90
       50
102
RTVSPost2010PropOp42
 70
     1
102
RTVSPost2010Prop43
 90
        3
102
RTVSPost2010PropOp43
 70
     1
102
RTVSPost2010Prop44ColorIndex
 90
        5
102
RTVSPost2010Prop44ColorRGB
 90
      255
102
RTVSPost2010PropOp44
 70
     1
102
RTVSPost2010Prop45
280
     0
102
RTVSPost2010PropOp45
 70
     1
102
RTVSPost2010Prop46
 90
       50
102
RTVSPost2010PropOp46
 70
     1
102
RTVSPost2010Prop47
 90
       50
102
RTVSPost2010PropOp47
 70
     1
102
RTVSPost2010Prop48
 90
       50
102
RTVSPost2010PropOp48
 70
     1
102
RTVSPost2010Prop49
280
     0
102
RTVSPost2010PropOp49
 70
     1
102
RTVSPost2010Prop50
 90
       50
102
RTVSPost2010PropOp50
 70
     1
102
RTVSPost2010Prop51ColorIndex
 90
      256
102
RTVSPost2010Prop51ColorRGB
 90
-16777216
102
RTVSPost2010PropOp51
 70
     0
102
RTVSPost2010Prop52
140
1.0
102
RTVSPost2010PropOp52
 70
     0
102
RTVSPost2010Prop53
 90
        2
102
RTVSPost2010PropOp53
 70
     1
102
RTVSPost2010Prop54
  1
strokes_ogs.tif
102
RTVSPost2010PropOp54
 70
     1
102
RTVSPost2010Prop55
280
     0
102
RTVSPost2010PropOp55
 70
     1
102
RTVSPost2010Prop56
140
1.0
102
RTVSPost2010PropOp56
 70
     1
102
RTVSPost2010Prop57
140
1.0
102
RTVSPost2010PropOp57
 70
     1
102
RTVSPropertyOp0
 70
     1
102
RTVSPropertyOp1
 70
     1
102
RTVSPropertyOp2
 70
     1
102
RTVSPropertyOp3
 70
     1
102
RTVSPropertyOp4
 70
     1
102
RTVSPropertyOp5
 70
     1
102
RTVSPropertyOp6
 70
     1
102
RTVSPropertyOp7
 70
     1
102
RTVSPropertyOp8
 70
     1
102
RTVSPropertyOp9
 70
     1
102
RTVSPropertyOp10
 70
     1
102
RTVSPropertyOp11
 70
     1
102
RTVSPropertyOp12
 70
     1
102
RTVSPropertyOp13
 70
     1
102
RTVSPropertyOp14
 70
     1
102
RTVSPropertyOp15
 70
     1
102
RTVSPropertyOp16
 70
     1
102
RTVSPropertyOp17
 70
     1
102
RTVSPropertyOp18
 70
     1
102
RTVSPropertyOp19
 70
     1
102
RTVSPropertyOp20
 70
     1
102
RTVSPropertyOp21
 70
     1
102
RTVSPropertyOp22
 70
     1
102
RTVSPropertyOp23
 70
     1
102
RTVSPropertyOp24
 70
     1
102
RTVSPropertyOp25
 70
     1
102
RTVSPropertyOp26
 70
     1
102
RTVSPropertyOp27
 70
     1
102
RTVSPropertyOp28
 70
     1
102
RTVSPropertyOp29
 70
     1
102
RTVSPropertyOp30
 70
     1
102
RTVSPropertyOp31
 70
     1
102
RTVSPropertyOp32
 70
     1
102
RTVSPropertyOp33
 70
     1
102
RTVSPropertyOp34
 70
     1
102
RTVSPropertyOp35
 70
     1
102
RTVSPropertyOp36
 70
     1
102
RTVSPropertyOp37
 70
     1
102
RTVSPropertyOp38
 70
     1
102
RTVSPropertyOp39
 70
     1
102
RTVSPropertyOp40
 70
     1
102
RTVSPropertyOp41
 70
     1
102
RTVSPropertyOp42
 70
     1
102
RTVSPropertyOp43
 70
     1
102
RTVSPropertyOp44
 70
     1
102
RTVSPropertyOp45
 70
     1
102
RTVSPropertyOp46
 70
     1
102
RTVSPropertyOp47
 70
     1
102
RTVSPropertyOp48
 70
     1
102
RTVSPropertyOp49
 70
     1
102
RTVSPropertyOp50
 70
     1
102
RTVSPropertyOp51
 70
     0
102
RTVSPropertyOp52
 70
     0
102
RTVSPropertyOp53
 70
     1
102
RTVSPropertyOp54
 70
     1
102
RTVSPropertyOp55
 70
     1
102
RTVSPropertyOp56
 70
     1
102
RTVSPropertyOp57
 70
     1
102
RTVSPropertyOp58
 70
     1
102
RTVSPropertyOp59
 70
     1
102
RTVSPropertyOp60
 70
     1
102
RTVSPropertyOp61
 70
     1
102
RTVSPropertyOp62
 70
     1
  0
XRECORD
  5
C298
102
{ACAD_REACTORS
330
C297
102
}
330
C297
100
AcDbXrecord
280
     1
102
RTVSPost2010Prop28
280
     0
102
RTVSPost2010PropOp28
 70
     1
102
RTVSPost2010Prop29
280
     1
102
RTVSPost2010PropOp29
 70
     1
102
RTVSPost2010Prop30
280
     1
102
RTVSPost2010PropOp30
 70
     1
102
RTVSPost2010Prop31
280
     0
102
RTVSPost2010PropOp31
 70
     1
102
RTVSPost2010Prop32
280
     0
102
RTVSPost2010PropOp32
 70
     1
102
RTVSPost2010Prop33
280
     0
102
RTVSPost2010PropOp33
 70
     1
102
RTVSPost2010Prop34
280
     0
102
RTVSPost2010PropOp34
 70
     1
102
RTVSPost2010Prop35
280
     0
102
RTVSPost2010PropOp35
 70
     1
102
RTVSPost2010Prop36
280
     0
102
RTVSPost2010PropOp36
 70
     1
102
RTVSPost2010Prop37
 90
       50
102
RTVSPost2010PropOp37
 70
     1
102
RTVSPost2010Prop38
140
0.0
102
RTVSPost2010PropOp38
 70
     1
102
RTVSPost2010Prop39
140
1.0
102
RTVSPost2010PropOp39
 70
     1
102
RTVSPost2010Prop40
 90
        0
102
RTVSPost2010PropOp40
 70
     1
102
RTVSPost2010Prop41ColorIndex
 90
       18
102
RTVSPost2010Prop41ColorRGB
 90
        0
102
RTVSPost2010PropOp41
 70
     1
102
RTVSPost2010Prop42
 90
       50
102
RTVSPost2010PropOp42
 70
     1
102
RTVSPost2010Prop43
 90
        3
102
RTVSPost2010PropOp43
 70
     1
102
RTVSPost2010Prop44ColorIndex
 90
        5
102
RTVSPost2010Prop44ColorRGB
 90
      255
102
RTVSPost2010PropOp44
 70
     1
102
RTVSPost2010Prop45
280
     0
102
RTVSPost2010PropOp45
 70
     1
102
RTVSPost2010Prop46
 90
       50
102
RTVSPost2010PropOp46
 70
     1
102
RTVSPost2010Prop47
 90
       50
102
RTVSPost2010PropOp47
 70
     1
102
RTVSPost2010Prop48
 90
       50
102
RTVSPost2010PropOp48
 70
     1
102
RTVSPost2010Prop49
280
     0
102
RTVSPost2010PropOp49
 70
     1
102
RTVSPost2010Prop50
 90
       50
102
RTVSPost2010PropOp50
 70
     1
102
RTVSPost2010Prop51ColorIndex
 90
      256
102
RTVSPost2010Prop51ColorRGB
 90
-16777216
102
RTVSPost2010PropOp51
 70
     0
102
RTVSPost2010Prop52
140
1.0
102
RTVSPost2010PropOp52
 70
     0
102
RTVSPost2010Prop53
 90
        2
102
RTVSPost2010PropOp53
 70
     1
102
RTVSPost2010Prop54
  1
strokes_ogs.tif
102
RTVSPost2010PropOp54
 70
     1
102
RTVSPost2010Prop55
280
     0
102
RTVSPost2010PropOp55
 70
     1
102
RTVSPost2010Prop56
140
1.0
102
RTVSPost2010PropOp56
 70
     1
102
RTVSPost2010Prop57
140
1.0
102
RTVSPost2010PropOp57
 70
     1
102
RTVSPropertyOp0
 70
     1
102
RTVSPropertyOp1
 70
     1
102
RTVSPropertyOp2
 70
     1
102
RTVSPropertyOp3
 70
     1
102
RTVSPropertyOp4
 70
     1
102
RTVSPropertyOp5
 70
     1
102
RTVSPropertyOp6
 70
     1
102
RTVSPropertyOp7
 70
     1
102
RTVSPropertyOp8
 70
     1
102
RTVSPropertyOp9
 70
     1
102
RTVSPropertyOp10
 70
     1
102
RTVSPropertyOp11
 70
     1
102
RTVSPropertyOp12
 70
     1
102
RTVSPropertyOp13
 70
     1
102
RTVSPropertyOp14
 70
     1
102
RTVSPropertyOp15
 70
     1
102
RTVSPropertyOp16
 70
     1
102
RTVSPropertyOp17
 70
     1
102
RTVSPropertyOp18
 70
     1
102
RTVSPropertyOp19
 70
     1
102
RTVSPropertyOp20
 70
     1
102
RTVSPropertyOp21
 70
     1
102
RTVSPropertyOp22
 70
     1
102
RTVSPropertyOp23
 70
     1
102
RTVSPropertyOp24
 70
     1
102
RTVSPropertyOp25
 70
     1
102
RTVSPropertyOp26
 70
     1
102
RTVSPropertyOp27
 70
     1
102
RTVSPropertyOp28
 70
     1
102
RTVSPropertyOp29
 70
     1
102
RTVSPropertyOp30
 70
     1
102
RTVSPropertyOp31
 70
     1
102
RTVSPropertyOp32
 70
     1
102
RTVSPropertyOp33
 70
     1
102
RTVSPropertyOp34
 70
     1
102
RTVSPropertyOp35
 70
     1
102
RTVSPropertyOp36
 70
     1
102
RTVSPropertyOp37
 70
     1
102
RTVSPropertyOp38
 70
     1
102
RTVSPropertyOp39
 70
     1
102
RTVSPropertyOp40
 70
     1
102
RTVSPropertyOp41
 70
     1
102
RTVSPropertyOp42
 70
     1
102
RTVSPropertyOp43
 70
     1
102
RTVSPropertyOp44
 70
     1
102
RTVSPropertyOp45
 70
     1
102
RTVSPropertyOp46
 70
     1
102
RTVSPropertyOp47
 70
     1
102
RTVSPropertyOp48
 70
     1
102
RTVSPropertyOp49
 70
     1
102
RTVSPropertyOp50
 70
     1
102
RTVSPropertyOp51
 70
     0
102
RTVSPropertyOp52
 70
     0
102
RTVSPropertyOp53
 70
     1
102
RTVSPropertyOp54
 70
     1
102
RTVSPropertyOp55
 70
     1
102
RTVSPropertyOp56
 70
     1
102
RTVSPropertyOp57
 70
     1
102
RTVSPropertyOp58
 70
     1
102
RTVSPropertyOp59
 70
     1
102
RTVSPropertyOp60
 70
     1
102
RTVSPropertyOp61
 70
     1
102
RTVSPropertyOp62
 70
     1
  0
XRECORD
  5
C28A
102
{ACAD_REACTORS
330
C289
102
}
330
C289
100
AcDbXrecord
280
     1
102
RTVSPost2010Prop28
280
     0
102
RTVSPost2010PropOp28
 70
     1
102
RTVSPost2010Prop29
280
     1
102
RTVSPost2010PropOp29
 70
     1
102
RTVSPost2010Prop30
280
     1
102
RTVSPost2010PropOp30
 70
     1
102
RTVSPost2010Prop31
280
     0
102
RTVSPost2010PropOp31
 70
     1
102
RTVSPost2010Prop32
280
     0
102
RTVSPost2010PropOp32
 70
     1
102
RTVSPost2010Prop33
280
     0
102
RTVSPost2010PropOp33
 70
     1
102
RTVSPost2010Prop34
280
     0
102
RTVSPost2010PropOp34
 70
     1
102
RTVSPost2010Prop35
280
     0
102
RTVSPost2010PropOp35
 70
     1
102
RTVSPost2010Prop36
280
     0
102
RTVSPost2010PropOp36
 70
     1
102
RTVSPost2010Prop37
 90
       50
102
RTVSPost2010PropOp37
 70
     1
102
RTVSPost2010Prop38
140
0.0
102
RTVSPost2010PropOp38
 70
     1
102
RTVSPost2010Prop39
140
1.0
102
RTVSPost2010PropOp39
 70
     1
102
RTVSPost2010Prop40
 90
        0
102
RTVSPost2010PropOp40
 70
     1
102
RTVSPost2010Prop41ColorIndex
 90
       18
102
RTVSPost2010Prop41ColorRGB
 90
        0
102
RTVSPost2010PropOp41
 70
     1
102
RTVSPost2010Prop42
 90
       50
102
RTVSPost2010PropOp42
 70
     1
102
RTVSPost2010Prop43
 90
        3
102
RTVSPost2010PropOp43
 70
     1
102
RTVSPost2010Prop44ColorIndex
 90
        5
102
RTVSPost2010Prop44ColorRGB
 90
      255
102
RTVSPost2010PropOp44
 70
     1
102
RTVSPost2010Prop45
280
     0
102
RTVSPost2010PropOp45
 70
     1
102
RTVSPost2010Prop46
 90
       50
102
RTVSPost2010PropOp46
 70
     1
102
RTVSPost2010Prop47
 90
       50
102
RTVSPost2010PropOp47
 70
     1
102
RTVSPost2010Prop48
 90
       50
102
RTVSPost2010PropOp48
 70
     1
102
RTVSPost2010Prop49
280
     0
102
RTVSPost2010PropOp49
 70
     1
102
RTVSPost2010Prop50
 90
       50
102
RTVSPost2010PropOp50
 70
     1
102
RTVSPost2010Prop51ColorIndex
 90
      256
102
RTVSPost2010Prop51ColorRGB
 90
-16777216
102
RTVSPost2010PropOp51
 70
     0
102
RTVSPost2010Prop52
140
1.0
102
RTVSPost2010PropOp52
 70
     0
102
RTVSPost2010Prop53
 90
        2
102
RTVSPost2010PropOp53
 70
     1
102
RTVSPost2010Prop54
  1
strokes_ogs.tif
102
RTVSPost2010PropOp54
 70
     1
102
RTVSPost2010Prop55
280
     0
102
RTVSPost2010PropOp55
 70
     1
102
RTVSPost2010Prop56
140
1.0
102
RTVSPost2010PropOp56
 70
     1
102
RTVSPost2010Prop57
140
1.0
102
RTVSPost2010PropOp57
 70
     1
102
RTVSPropertyOp0
 70
     1
102
RTVSPropertyOp1
 70
     1
102
RTVSPropertyOp2
 70
     1
102
RTVSPropertyOp3
 70
     1
102
RTVSPropertyOp4
 70
     1
102
RTVSPropertyOp5
 70
     1
102
RTVSPropertyOp6
 70
     1
102
RTVSPropertyOp7
 70
     1
102
RTVSPropertyOp8
 70
     1
102
RTVSPropertyOp9
 70
     1
102
RTVSPropertyOp10
 70
     1
102
RTVSPropertyOp11
 70
     1
102
RTVSPropertyOp12
 70
     1
102
RTVSPropertyOp13
 70
     1
102
RTVSPropertyOp14
 70
     1
102
RTVSPropertyOp15
 70
     1
102
RTVSPropertyOp16
 70
     1
102
RTVSPropertyOp17
 70
     1
102
RTVSPropertyOp18
 70
     1
102
RTVSPropertyOp19
 70
     1
102
RTVSPropertyOp20
 70
     1
102
RTVSPropertyOp21
 70
     1
102
RTVSPropertyOp22
 70
     1
102
RTVSPropertyOp23
 70
     1
102
RTVSPropertyOp24
 70
     1
102
RTVSPropertyOp25
 70
     1
102
RTVSPropertyOp26
 70
     1
102
RTVSPropertyOp27
 70
     1
102
RTVSPropertyOp28
 70
     1
102
RTVSPropertyOp29
 70
     1
102
RTVSPropertyOp30
 70
     1
102
RTVSPropertyOp31
 70
     1
102
RTVSPropertyOp32
 70
     1
102
RTVSPropertyOp33
 70
     1
102
RTVSPropertyOp34
 70
     1
102
RTVSPropertyOp35
 70
     1
102
RTVSPropertyOp36
 70
     1
102
RTVSPropertyOp37
 70
     1
102
RTVSPropertyOp38
 70
     1
102
RTVSPropertyOp39
 70
     1
102
RTVSPropertyOp40
 70
     1
102
RTVSPropertyOp41
 70
     1
102
RTVSPropertyOp42
 70
     1
102
RTVSPropertyOp43
 70
     1
102
RTVSPropertyOp44
 70
     1
102
RTVSPropertyOp45
 70
     1
102
RTVSPropertyOp46
 70
     1
102
RTVSPropertyOp47
 70
     1
102
RTVSPropertyOp48
 70
     1
102
RTVSPropertyOp49
 70
     1
102
RTVSPropertyOp50
 70
     1
102
RTVSPropertyOp51
 70
     0
102
RTVSPropertyOp52
 70
     0
102
RTVSPropertyOp53
 70
     1
102
RTVSPropertyOp54
 70
     1
102
RTVSPropertyOp55
 70
     1
102
RTVSPropertyOp56
 70
     1
102
RTVSPropertyOp57
 70
     1
102
RTVSPropertyOp58
 70
     1
102
RTVSPropertyOp59
 70
     1
102
RTVSPropertyOp60
 70
     1
102
RTVSPropertyOp61
 70
     1
102
RTVSPropertyOp62
 70
     1
  0
XRECORD
  5
C28E
102
{ACAD_REACTORS
330
C28D
102
}
330
C28D
100
AcDbXrecord
280
     1
102
RTVSPost2010Prop28
280
     0
102
RTVSPost2010PropOp28
 70
     1
102
RTVSPost2010Prop29
280
     1
102
RTVSPost2010PropOp29
 70
     1
102
RTVSPost2010Prop30
280
     1
102
RTVSPost2010PropOp30
 70
     1
102
RTVSPost2010Prop31
280
     0
102
RTVSPost2010PropOp31
 70
     1
102
RTVSPost2010Prop32
280
     0
102
RTVSPost2010PropOp32
 70
     1
102
RTVSPost2010Prop33
280
     0
102
RTVSPost2010PropOp33
 70
     1
102
RTVSPost2010Prop34
280
     0
102
RTVSPost2010PropOp34
 70
     1
102
RTVSPost2010Prop35
280
     0
102
RTVSPost2010PropOp35
 70
     1
102
RTVSPost2010Prop36
280
     0
102
RTVSPost2010PropOp36
 70
     1
102
RTVSPost2010Prop37
 90
       50
102
RTVSPost2010PropOp37
 70
     1
102
RTVSPost2010Prop38
140
0.0
102
RTVSPost2010PropOp38
 70
     1
102
RTVSPost2010Prop39
140
1.0
102
RTVSPost2010PropOp39
 70
     1
102
RTVSPost2010Prop40
 90
        0
102
RTVSPost2010PropOp40
 70
     1
102
RTVSPost2010Prop41ColorIndex
 90
       18
102
RTVSPost2010Prop41ColorRGB
 90
        0
102
RTVSPost2010PropOp41
 70
     1
102
RTVSPost2010Prop42
 90
       50
102
RTVSPost2010PropOp42
 70
     1
102
RTVSPost2010Prop43
 90
        3
102
RTVSPost2010PropOp43
 70
     1
102
RTVSPost2010Prop44ColorIndex
 90
        5
102
RTVSPost2010Prop44ColorRGB
 90
      255
102
RTVSPost2010PropOp44
 70
     1
102
RTVSPost2010Prop45
280
     0
102
RTVSPost2010PropOp45
 70
     1
102
RTVSPost2010Prop46
 90
       50
102
RTVSPost2010PropOp46
 70
     1
102
RTVSPost2010Prop47
 90
       50
102
RTVSPost2010PropOp47
 70
     1
102
RTVSPost2010Prop48
 90
       50
102
RTVSPost2010PropOp48
 70
     1
102
RTVSPost2010Prop49
280
     0
102
RTVSPost2010PropOp49
 70
     1
102
RTVSPost2010Prop50
 90
       50
102
RTVSPost2010PropOp50
 70
     1
102
RTVSPost2010Prop51ColorIndex
 90
      256
102
RTVSPost2010Prop51ColorRGB
 90
-16777216
102
RTVSPost2010PropOp51
 70
     0
102
RTVSPost2010Prop52
140
1.0
102
RTVSPost2010PropOp52
 70
     0
102
RTVSPost2010Prop53
 90
        2
102
RTVSPost2010PropOp53
 70
     1
102
RTVSPost2010Prop54
  1
strokes_ogs.tif
102
RTVSPost2010PropOp54
 70
     1
102
RTVSPost2010Prop55
280
     0
102
RTVSPost2010PropOp55
 70
     1
102
RTVSPost2010Prop56
140
1.0
102
RTVSPost2010PropOp56
 70
     1
102
RTVSPost2010Prop57
140
1.0
102
RTVSPost2010PropOp57
 70
     1
102
RTVSPropertyOp0
 70
     1
102
RTVSPropertyOp1
 70
     1
102
RTVSPropertyOp2
 70
     1
102
RTVSPropertyOp3
 70
     1
102
RTVSPropertyOp4
 70
     1
102
RTVSPropertyOp5
 70
     1
102
RTVSPropertyOp6
 70
     1
102
RTVSPropertyOp7
 70
     1
102
RTVSPropertyOp8
 70
     1
102
RTVSPropertyOp9
 70
     1
102
RTVSPropertyOp10
 70
     1
102
RTVSPropertyOp11
 70
     1
102
RTVSPropertyOp12
 70
     1
102
RTVSPropertyOp13
 70
     1
102
RTVSPropertyOp14
 70
     1
102
RTVSPropertyOp15
 70
     1
102
RTVSPropertyOp16
 70
     1
102
RTVSPropertyOp17
 70
     1
102
RTVSPropertyOp18
 70
     1
102
RTVSPropertyOp19
 70
     1
102
RTVSPropertyOp20
 70
     1
102
RTVSPropertyOp21
 70
     1
102
RTVSPropertyOp22
 70
     1
102
RTVSPropertyOp23
 70
     1
102
RTVSPropertyOp24
 70
     1
102
RTVSPropertyOp25
 70
     1
102
RTVSPropertyOp26
 70
     1
102
RTVSPropertyOp27
 70
     1
102
RTVSPropertyOp28
 70
     1
102
RTVSPropertyOp29
 70
     1
102
RTVSPropertyOp30
 70
     1
102
RTVSPropertyOp31
 70
     1
102
RTVSPropertyOp32
 70
     1
102
RTVSPropertyOp33
 70
     1
102
RTVSPropertyOp34
 70
     1
102
RTVSPropertyOp35
 70
     1
102
RTVSPropertyOp36
 70
     1
102
RTVSPropertyOp37
 70
     1
102
RTVSPropertyOp38
 70
     1
102
RTVSPropertyOp39
 70
     1
102
RTVSPropertyOp40
 70
     1
102
RTVSPropertyOp41
 70
     1
102
RTVSPropertyOp42
 70
     1
102
RTVSPropertyOp43
 70
     1
102
RTVSPropertyOp44
 70
     1
102
RTVSPropertyOp45
 70
     1
102
RTVSPropertyOp46
 70
     1
102
RTVSPropertyOp47
 70
     1
102
RTVSPropertyOp48
 70
     1
102
RTVSPropertyOp49
 70
     1
102
RTVSPropertyOp50
 70
     1
102
RTVSPropertyOp51
 70
     0
102
RTVSPropertyOp52
 70
     0
102
RTVSPropertyOp53
 70
     1
102
RTVSPropertyOp54
 70
     1
102
RTVSPropertyOp55
 70
     1
102
RTVSPropertyOp56
 70
     1
102
RTVSPropertyOp57
 70
     1
102
RTVSPropertyOp58
 70
     1
102
RTVSPropertyOp59
 70
     1
102
RTVSPropertyOp60
 70
     1
102
RTVSPropertyOp61
 70
     1
102
RTVSPropertyOp62
 70
     1
  0
XRECORD
  5
C2A8
102
{ACAD_REACTORS
330
C2A7
102
}
330
C2A7
100
AcDbXrecord
280
     1
102
RTVSPost2010Prop28
280
     0
102
RTVSPost2010PropOp28
 70
     1
102
RTVSPost2010Prop29
280
     1
102
RTVSPost2010PropOp29
 70
     1
102
RTVSPost2010Prop30
280
     1
102
RTVSPost2010PropOp30
 70
     1
102
RTVSPost2010Prop31
280
     0
102
RTVSPost2010PropOp31
 70
     1
102
RTVSPost2010Prop32
280
     0
102
RTVSPost2010PropOp32
 70
     1
102
RTVSPost2010Prop33
280
     0
102
RTVSPost2010PropOp33
 70
     1
102
RTVSPost2010Prop34
280
     0
102
RTVSPost2010PropOp34
 70
     1
102
RTVSPost2010Prop35
280
     0
102
RTVSPost2010PropOp35
 70
     1
102
RTVSPost2010Prop36
280
     0
102
RTVSPost2010PropOp36
 70
     1
102
RTVSPost2010Prop37
 90
       50
102
RTVSPost2010PropOp37
 70
     0
102
RTVSPost2010Prop38
140
0.0
102
RTVSPost2010PropOp38
 70
     0
102
RTVSPost2010Prop39
140
1.0
102
RTVSPost2010PropOp39
 70
     0
102
RTVSPost2010Prop40
 90
        0
102
RTVSPost2010PropOp40
 70
     0
102
RTVSPost2010Prop41ColorIndex
 90
       18
102
RTVSPost2010Prop41ColorRGB
 90
        0
102
RTVSPost2010PropOp41
 70
     0
102
RTVSPost2010Prop42
 90
       50
102
RTVSPost2010PropOp42
 70
     0
102
RTVSPost2010Prop43
 90
        3
102
RTVSPost2010PropOp43
 70
     0
102
RTVSPost2010Prop44ColorIndex
 90
        5
102
RTVSPost2010Prop44ColorRGB
 90
      255
102
RTVSPost2010PropOp44
 70
     0
102
RTVSPost2010Prop45
280
     0
102
RTVSPost2010PropOp45
 70
     1
102
RTVSPost2010Prop46
 90
       50
102
RTVSPost2010PropOp46
 70
     0
102
RTVSPost2010Prop47
 90
       50
102
RTVSPost2010PropOp47
 70
     0
102
RTVSPost2010Prop48
 90
       50
102
RTVSPost2010PropOp48
 70
     0
102
RTVSPost2010Prop49
280
     0
102
RTVSPost2010PropOp49
 70
     1
102
RTVSPost2010Prop50
 90
       50
102
RTVSPost2010PropOp50
 70
     0
102
RTVSPost2010Prop51ColorIndex
 90
      256
102
RTVSPost2010Prop51ColorRGB
 90
-16777216
102
RTVSPost2010PropOp51
 70
     0
102
RTVSPost2010Prop52
140
1.0
102
RTVSPost2010PropOp52
 70
     0
102
RTVSPost2010Prop53
 90
        2
102
RTVSPost2010PropOp53
 70
     0
102
RTVSPost2010Prop54
  1
strokes_ogs.tif
102
RTVSPost2010PropOp54
 70
     0
102
RTVSPost2010Prop55
280
     0
102
RTVSPost2010PropOp55
 70
     1
102
RTVSPost2010Prop56
140
1.0
102
RTVSPost2010PropOp56
 70
     0
102
RTVSPost2010Prop57
140
1.0
102
RTVSPost2010PropOp57
 70
     0
102
RTVSPropertyOp0
 70
     0
102
RTVSPropertyOp1
 70
     0
102
RTVSPropertyOp2
 70
     0
102
RTVSPropertyOp3
 70
     0
102
RTVSPropertyOp4
 70
     0
102
RTVSPropertyOp5
 70
     0
102
RTVSPropertyOp6
 70
     0
102
RTVSPropertyOp7
 70
     0
102
RTVSPropertyOp8
 70
     0
102
RTVSPropertyOp9
 70
     0
102
RTVSPropertyOp10
 70
     0
102
RTVSPropertyOp11
 70
     0
102
RTVSPropertyOp12
 70
     0
102
RTVSPropertyOp13
 70
     0
102
RTVSPropertyOp14
 70
     2
102
RTVSPropertyOp15
 70
     0
102
RTVSPropertyOp16
 70
     0
102
RTVSPropertyOp17
 70
     0
102
RTVSPropertyOp18
 70
     0
102
RTVSPropertyOp19
 70
     0
102
RTVSPropertyOp20
 70
     0
102
RTVSPropertyOp21
 70
     0
102
RTVSPropertyOp22
 70
     0
102
RTVSPropertyOp23
 70
     0
102
RTVSPropertyOp24
 70
     0
102
RTVSPropertyOp25
 70
     0
102
RTVSPropertyOp26
 70
     0
102
RTVSPropertyOp27
 70
     0
102
RTVSPropertyOp28
 70
     1
102
RTVSPropertyOp29
 70
     1
102
RTVSPropertyOp30
 70
     1
102
RTVSPropertyOp31
 70
     1
102
RTVSPropertyOp32
 70
     1
102
RTVSPropertyOp33
 70
     1
102
RTVSPropertyOp34
 70
     1
102
RTVSPropertyOp35
 70
     1
102
RTVSPropertyOp36
 70
     1
102
RTVSPropertyOp37
 70
     0
102
RTVSPropertyOp38
 70
     0
102
RTVSPropertyOp39
 70
     0
102
RTVSPropertyOp40
 70
     0
102
RTVSPropertyOp41
 70
     0
102
RTVSPropertyOp42
 70
     0
102
RTVSPropertyOp43
 70
     0
102
RTVSPropertyOp44
 70
     0
102
RTVSPropertyOp45
 70
     1
102
RTVSPropertyOp46
 70
     0
102
RTVSPropertyOp47
 70
     0
102
RTVSPropertyOp48
 70
     0
102
RTVSPropertyOp49
 70
     1
102
RTVSPropertyOp50
 70
     0
102
RTVSPropertyOp51
 70
     0
102
RTVSPropertyOp52
 70
     0
102
RTVSPropertyOp53
 70
     0
102
RTVSPropertyOp54
 70
     0
102
RTVSPropertyOp55
 70
     1
102
RTVSPropertyOp56
 70
     0
102
RTVSPropertyOp57
 70
     0
102
RTVSPropertyOp58
 70
     0
102
RTVSPropertyOp59
 70
     0
102
RTVSPropertyOp60
 70
     0
102
RTVSPropertyOp61
 70
     0
102
RTVSPropertyOp62
 70
     0
  0
XRECORD
  5
C296
102
{ACAD_REACTORS
330
C295
102
}
330
C295
100
AcDbXrecord
280
     1
102
RTVSPost2010Prop28
280
     0
102
RTVSPost2010PropOp28
 70
     1
102
RTVSPost2010Prop29
280
     1
102
RTVSPost2010PropOp29
 70
     1
102
RTVSPost2010Prop30
280
     1
102
RTVSPost2010PropOp30
 70
     1
102
RTVSPost2010Prop31
280
     0
102
RTVSPost2010PropOp31
 70
     1
102
RTVSPost2010Prop32
280
     0
102
RTVSPost2010PropOp32
 70
     1
102
RTVSPost2010Prop33
280
     0
102
RTVSPost2010PropOp33
 70
     1
102
RTVSPost2010Prop34
280
     0
102
RTVSPost2010PropOp34
 70
     1
102
RTVSPost2010Prop35
280
     0
102
RTVSPost2010PropOp35
 70
     1
102
RTVSPost2010Prop36
280
     0
102
RTVSPost2010PropOp36
 70
     1
102
RTVSPost2010Prop37
 90
       50
102
RTVSPost2010PropOp37
 70
     1
102
RTVSPost2010Prop38
140
0.0
102
RTVSPost2010PropOp38
 70
     1
102
RTVSPost2010Prop39
140
1.0
102
RTVSPost2010PropOp39
 70
     1
102
RTVSPost2010Prop40
 90
        0
102
RTVSPost2010PropOp40
 70
     1
102
RTVSPost2010Prop41ColorIndex
 90
       18
102
RTVSPost2010Prop41ColorRGB
 90
        0
102
RTVSPost2010PropOp41
 70
     1
102
RTVSPost2010Prop42
 90
       50
102
RTVSPost2010PropOp42
 70
     1
102
RTVSPost2010Prop43
 90
        3
102
RTVSPost2010PropOp43
 70
     1
102
RTVSPost2010Prop44ColorIndex
 90
        5
102
RTVSPost2010Prop44ColorRGB
 90
      255
102
RTVSPost2010PropOp44
 70
     1
102
RTVSPost2010Prop45
280
     0
102
RTVSPost2010PropOp45
 70
     1
102
RTVSPost2010Prop46
 90
       50
102
RTVSPost2010PropOp46
 70
     1
102
RTVSPost2010Prop47
 90
       50
102
RTVSPost2010PropOp47
 70
     1
102
RTVSPost2010Prop48
 90
       50
102
RTVSPost2010PropOp48
 70
     1
102
RTVSPost2010Prop49
280
     0
102
RTVSPost2010PropOp49
 70
     1
102
RTVSPost2010Prop50
 90
       50
102
RTVSPost2010PropOp50
 70
     1
102
RTVSPost2010Prop51ColorIndex
 90
      256
102
RTVSPost2010Prop51ColorRGB
 90
-16777216
102
RTVSPost2010PropOp51
 70
     0
102
RTVSPost2010Prop52
140
1.0
102
RTVSPost2010PropOp52
 70
     0
102
RTVSPost2010Prop53
 90
        2
102
RTVSPost2010PropOp53
 70
     1
102
RTVSPost2010Prop54
  1
strokes_ogs.tif
102
RTVSPost2010PropOp54
 70
     1
102
RTVSPost2010Prop55
280
     0
102
RTVSPost2010PropOp55
 70
     1
102
RTVSPost2010Prop56
140
1.0
102
RTVSPost2010PropOp56
 70
     1
102
RTVSPost2010Prop57
140
1.0
102
RTVSPost2010PropOp57
 70
     1
102
RTVSPropertyOp0
 70
     1
102
RTVSPropertyOp1
 70
     1
102
RTVSPropertyOp2
 70
     1
102
RTVSPropertyOp3
 70
     1
102
RTVSPropertyOp4
 70
     1
102
RTVSPropertyOp5
 70
     1
102
RTVSPropertyOp6
 70
     1
102
RTVSPropertyOp7
 70
     1
102
RTVSPropertyOp8
 70
     1
102
RTVSPropertyOp9
 70
     1
102
RTVSPropertyOp10
 70
     1
102
RTVSPropertyOp11
 70
     1
102
RTVSPropertyOp12
 70
     1
102
RTVSPropertyOp13
 70
     1
102
RTVSPropertyOp14
 70
     1
102
RTVSPropertyOp15
 70
     1
102
RTVSPropertyOp16
 70
     1
102
RTVSPropertyOp17
 70
     1
102
RTVSPropertyOp18
 70
     1
102
RTVSPropertyOp19
 70
     1
102
RTVSPropertyOp20
 70
     1
102
RTVSPropertyOp21
 70
     1
102
RTVSPropertyOp22
 70
     1
102
RTVSPropertyOp23
 70
     1
102
RTVSPropertyOp24
 70
     1
102
RTVSPropertyOp25
 70
     1
102
RTVSPropertyOp26
 70
     1
102
RTVSPropertyOp27
 70
     1
102
RTVSPropertyOp28
 70
     1
102
RTVSPropertyOp29
 70
     1
102
RTVSPropertyOp30
 70
     1
102
RTVSPropertyOp31
 70
     1
102
RTVSPropertyOp32
 70
     1
102
RTVSPropertyOp33
 70
     1
102
RTVSPropertyOp34
 70
     1
102
RTVSPropertyOp35
 70
     1
102
RTVSPropertyOp36
 70
     1
102
RTVSPropertyOp37
 70
     1
102
RTVSPropertyOp38
 70
     1
102
RTVSPropertyOp39
 70
     1
102
RTVSPropertyOp40
 70
     1
102
RTVSPropertyOp41
 70
     1
102
RTVSPropertyOp42
 70
     1
102
RTVSPropertyOp43
 70
     1
102
RTVSPropertyOp44
 70
     1
102
RTVSPropertyOp45
 70
     1
102
RTVSPropertyOp46
 70
     1
102
RTVSPropertyOp47
 70
     1
102
RTVSPropertyOp48
 70
     1
102
RTVSPropertyOp49
 70
     1
102
RTVSPropertyOp50
 70
     1
102
RTVSPropertyOp51
 70
     0
102
RTVSPropertyOp52
 70
     0
102
RTVSPropertyOp53
 70
     1
102
RTVSPropertyOp54
 70
     1
102
RTVSPropertyOp55
 70
     1
102
RTVSPropertyOp56
 70
     1
102
RTVSPropertyOp57
 70
     1
102
RTVSPropertyOp58
 70
     1
102
RTVSPropertyOp59
 70
     1
102
RTVSPropertyOp60
 70
     1
102
RTVSPropertyOp61
 70
     1
102
RTVSPropertyOp62
 70
     1
  0
XRECORD
  5
C27A
102
{ACAD_REACTORS
330
C279
102
}
330
C279
100
AcDbXrecord
280
     1
102
RTVSPost2010Prop28
280
     0
102
RTVSPost2010PropOp28
 70
     1
102
RTVSPost2010Prop29
280
     1
102
RTVSPost2010PropOp29
 70
     1
102
RTVSPost2010Prop30
280
     1
102
RTVSPost2010PropOp30
 70
     1
102
RTVSPost2010Prop31
280
     0
102
RTVSPost2010PropOp31
 70
     1
102
RTVSPost2010Prop32
280
     0
102
RTVSPost2010PropOp32
 70
     1
102
RTVSPost2010Prop33
280
     0
102
RTVSPost2010PropOp33
 70
     1
102
RTVSPost2010Prop34
280
     0
102
RTVSPost2010PropOp34
 70
     1
102
RTVSPost2010Prop35
280
     0
102
RTVSPost2010PropOp35
 70
     1
102
RTVSPost2010Prop36
280
     0
102
RTVSPost2010PropOp36
 70
     1
102
RTVSPost2010Prop37
 90
       50
102
RTVSPost2010PropOp37
 70
     1
102
RTVSPost2010Prop38
140
0.0
102
RTVSPost2010PropOp38
 70
     1
102
RTVSPost2010Prop39
140
1.0
102
RTVSPost2010PropOp39
 70
     1
102
RTVSPost2010Prop40
 90
        0
102
RTVSPost2010PropOp40
 70
     1
102
RTVSPost2010Prop41ColorIndex
 90
       18
102
RTVSPost2010Prop41ColorRGB
 90
        0
102
RTVSPost2010PropOp41
 70
     1
102
RTVSPost2010Prop42
 90
       50
102
RTVSPost2010PropOp42
 70
     1
102
RTVSPost2010Prop43
 90
        3
102
RTVSPost2010PropOp43
 70
     1
102
RTVSPost2010Prop44ColorIndex
 90
        5
102
RTVSPost2010Prop44ColorRGB
 90
      255
102
RTVSPost2010PropOp44
 70
     1
102
RTVSPost2010Prop45
280
     0
102
RTVSPost2010PropOp45
 70
     1
102
RTVSPost2010Prop46
 90
       50
102
RTVSPost2010PropOp46
 70
     1
102
RTVSPost2010Prop47
 90
       50
102
RTVSPost2010PropOp47
 70
     1
102
RTVSPost2010Prop48
 90
       50
102
RTVSPost2010PropOp48
 70
     1
102
RTVSPost2010Prop49
280
     0
102
RTVSPost2010PropOp49
 70
     1
102
RTVSPost2010Prop50
 90
       50
102
RTVSPost2010PropOp50
 70
     1
102
RTVSPost2010Prop51ColorIndex
 90
      256
102
RTVSPost2010Prop51ColorRGB
 90
-16777216
102
RTVSPost2010PropOp51
 70
     0
102
RTVSPost2010Prop52
140
1.0
102
RTVSPost2010PropOp52
 70
     0
102
RTVSPost2010Prop53
 90
        2
102
RTVSPost2010PropOp53
 70
     1
102
RTVSPost2010Prop54
  1
strokes_ogs.tif
102
RTVSPost2010PropOp54
 70
     1
102
RTVSPost2010Prop55
280
     0
102
RTVSPost2010PropOp55
 70
     1
102
RTVSPost2010Prop56
140
1.0
102
RTVSPost2010PropOp56
 70
     1
102
RTVSPost2010Prop57
140
1.0
102
RTVSPost2010PropOp57
 70
     1
102
RTVSPropertyOp0
 70
     1
102
RTVSPropertyOp1
 70
     1
102
RTVSPropertyOp2
 70
     1
102
RTVSPropertyOp3
 70
     1
102
RTVSPropertyOp4
 70
     1
102
RTVSPropertyOp5
 70
     1
102
RTVSPropertyOp6
 70
     1
102
RTVSPropertyOp7
 70
     1
102
RTVSPropertyOp8
 70
     1
102
RTVSPropertyOp9
 70
     1
102
RTVSPropertyOp10
 70
     1
102
RTVSPropertyOp11
 70
     1
102
RTVSPropertyOp12
 70
     1
102
RTVSPropertyOp13
 70
     1
102
RTVSPropertyOp14
 70
     1
102
RTVSPropertyOp15
 70
     1
102
RTVSPropertyOp16
 70
     1
102
RTVSPropertyOp17
 70
     1
102
RTVSPropertyOp18
 70
     1
102
RTVSPropertyOp19
 70
     1
102
RTVSPropertyOp20
 70
     1
102
RTVSPropertyOp21
 70
     1
102
RTVSPropertyOp22
 70
     1
102
RTVSPropertyOp23
 70
     1
102
RTVSPropertyOp24
 70
     1
102
RTVSPropertyOp25
 70
     1
102
RTVSPropertyOp26
 70
     1
102
RTVSPropertyOp27
 70
     1
102
RTVSPropertyOp28
 70
     1
102
RTVSPropertyOp29
 70
     1
102
RTVSPropertyOp30
 70
     1
102
RTVSPropertyOp31
 70
     1
102
RTVSPropertyOp32
 70
     1
102
RTVSPropertyOp33
 70
     1
102
RTVSPropertyOp34
 70
     1
102
RTVSPropertyOp35
 70
     1
102
RTVSPropertyOp36
 70
     1
102
RTVSPropertyOp37
 70
     1
102
RTVSPropertyOp38
 70
     1
102
RTVSPropertyOp39
 70
     1
102
RTVSPropertyOp40
 70
     1
102
RTVSPropertyOp41
 70
     1
102
RTVSPropertyOp42
 70
     1
102
RTVSPropertyOp43
 70
     1
102
RTVSPropertyOp44
 70
     1
102
RTVSPropertyOp45
 70
     1
102
RTVSPropertyOp46
 70
     1
102
RTVSPropertyOp47
 70
     1
102
RTVSPropertyOp48
 70
     1
102
RTVSPropertyOp49
 70
     1
102
RTVSPropertyOp50
 70
     1
102
RTVSPropertyOp51
 70
     0
102
RTVSPropertyOp52
 70
     0
102
RTVSPropertyOp53
 70
     1
102
RTVSPropertyOp54
 70
     1
102
RTVSPropertyOp55
 70
     1
102
RTVSPropertyOp56
 70
     1
102
RTVSPropertyOp57
 70
     1
102
RTVSPropertyOp58
 70
     1
102
RTVSPropertyOp59
 70
     1
102
RTVSPropertyOp60
 70
     1
102
RTVSPropertyOp61
 70
     1
102
RTVSPropertyOp62
 70
     1
  0
XRECORD
  5
C27C
102
{ACAD_REACTORS
330
C27B
102
}
330
C27B
100
AcDbXrecord
280
     1
102
RTVSPost2010Prop28
280
     0
102
RTVSPost2010PropOp28
 70
     1
102
RTVSPost2010Prop29
280
     1
102
RTVSPost2010PropOp29
 70
     1
102
RTVSPost2010Prop30
280
     1
102
RTVSPost2010PropOp30
 70
     1
102
RTVSPost2010Prop31
280
     0
102
RTVSPost2010PropOp31
 70
     1
102
RTVSPost2010Prop32
280
     0
102
RTVSPost2010PropOp32
 70
     1
102
RTVSPost2010Prop33
280
     0
102
RTVSPost2010PropOp33
 70
     1
102
RTVSPost2010Prop34
280
     0
102
RTVSPost2010PropOp34
 70
     1
102
RTVSPost2010Prop35
280
     0
102
RTVSPost2010PropOp35
 70
     1
102
RTVSPost2010Prop36
280
     0
102
RTVSPost2010PropOp36
 70
     1
102
RTVSPost2010Prop37
 90
       50
102
RTVSPost2010PropOp37
 70
     1
102
RTVSPost2010Prop38
140
0.0
102
RTVSPost2010PropOp38
 70
     1
102
RTVSPost2010Prop39
140
1.0
102
RTVSPost2010PropOp39
 70
     1
102
RTVSPost2010Prop40
 90
        0
102
RTVSPost2010PropOp40
 70
     1
102
RTVSPost2010Prop41ColorIndex
 90
       18
102
RTVSPost2010Prop41ColorRGB
 90
        0
102
RTVSPost2010PropOp41
 70
     1
102
RTVSPost2010Prop42
 90
       50
102
RTVSPost2010PropOp42
 70
     1
102
RTVSPost2010Prop43
 90
        3
102
RTVSPost2010PropOp43
 70
     1
102
RTVSPost2010Prop44ColorIndex
 90
        5
102
RTVSPost2010Prop44ColorRGB
 90
      255
102
RTVSPost2010PropOp44
 70
     1
102
RTVSPost2010Prop45
280
     0
102
RTVSPost2010PropOp45
 70
     1
102
RTVSPost2010Prop46
 90
       50
102
RTVSPost2010PropOp46
 70
     1
102
RTVSPost2010Prop47
 90
       50
102
RTVSPost2010PropOp47
 70
     1
102
RTVSPost2010Prop48
 90
       50
102
RTVSPost2010PropOp48
 70
     1
102
RTVSPost2010Prop49
280
     0
102
RTVSPost2010PropOp49
 70
     1
102
RTVSPost2010Prop50
 90
       50
102
RTVSPost2010PropOp50
 70
     1
102
RTVSPost2010Prop51ColorIndex
 90
      256
102
RTVSPost2010Prop51ColorRGB
 90
-16777216
102
RTVSPost2010PropOp51
 70
     0
102
RTVSPost2010Prop52
140
1.0
102
RTVSPost2010PropOp52
 70
     0
102
RTVSPost2010Prop53
 90
        2
102
RTVSPost2010PropOp53
 70
     1
102
RTVSPost2010Prop54
  1
strokes_ogs.tif
102
RTVSPost2010PropOp54
 70
     1
102
RTVSPost2010Prop55
280
     0
102
RTVSPost2010PropOp55
 70
     1
102
RTVSPost2010Prop56
140
1.0
102
RTVSPost2010PropOp56
 70
     1
102
RTVSPost2010Prop57
140
1.0
102
RTVSPost2010PropOp57
 70
     1
102
RTVSPropertyOp0
 70
     1
102
RTVSPropertyOp1
 70
     1
102
RTVSPropertyOp2
 70
     1
102
RTVSPropertyOp3
 70
     1
102
RTVSPropertyOp4
 70
     1
102
RTVSPropertyOp5
 70
     1
102
RTVSPropertyOp6
 70
     1
102
RTVSPropertyOp7
 70
     1
102
RTVSPropertyOp8
 70
     1
102
RTVSPropertyOp9
 70
     1
102
RTVSPropertyOp10
 70
     1
102
RTVSPropertyOp11
 70
     1
102
RTVSPropertyOp12
 70
     1
102
RTVSPropertyOp13
 70
     1
102
RTVSPropertyOp14
 70
     1
102
RTVSPropertyOp15
 70
     1
102
RTVSPropertyOp16
 70
     1
102
RTVSPropertyOp17
 70
     1
102
RTVSPropertyOp18
 70
     1
102
RTVSPropertyOp19
 70
     1
102
RTVSPropertyOp20
 70
     1
102
RTVSPropertyOp21
 70
     1
102
RTVSPropertyOp22
 70
     1
102
RTVSPropertyOp23
 70
     1
102
RTVSPropertyOp24
 70
     1
102
RTVSPropertyOp25
 70
     1
102
RTVSPropertyOp26
 70
     1
102
RTVSPropertyOp27
 70
     1
102
RTVSPropertyOp28
 70
     1
102
RTVSPropertyOp29
 70
     1
102
RTVSPropertyOp30
 70
     1
102
RTVSPropertyOp31
 70
     1
102
RTVSPropertyOp32
 70
     1
102
RTVSPropertyOp33
 70
     1
102
RTVSPropertyOp34
 70
     1
102
RTVSPropertyOp35
 70
     1
102
RTVSPropertyOp36
 70
     1
102
RTVSPropertyOp37
 70
     1
102
RTVSPropertyOp38
 70
     1
102
RTVSPropertyOp39
 70
     1
102
RTVSPropertyOp40
 70
     1
102
RTVSPropertyOp41
 70
     1
102
RTVSPropertyOp42
 70
     1
102
RTVSPropertyOp43
 70
     1
102
RTVSPropertyOp44
 70
     1
102
RTVSPropertyOp45
 70
     1
102
RTVSPropertyOp46
 70
     1
102
RTVSPropertyOp47
 70
     1
102
RTVSPropertyOp48
 70
     1
102
RTVSPropertyOp49
 70
     1
102
RTVSPropertyOp50
 70
     1
102
RTVSPropertyOp51
 70
     0
102
RTVSPropertyOp52
 70
     0
102
RTVSPropertyOp53
 70
     1
102
RTVSPropertyOp54
 70
     1
102
RTVSPropertyOp55
 70
     1
102
RTVSPropertyOp56
 70
     1
102
RTVSPropertyOp57
 70
     1
102
RTVSPropertyOp58
 70
     1
102
RTVSPropertyOp59
 70
     1
102
RTVSPropertyOp60
 70
     1
102
RTVSPropertyOp61
 70
     1
102
RTVSPropertyOp62
 70
     1
  0
XRECORD
  5
C27E
102
{ACAD_REACTORS
330
C27D
102
}
330
C27D
100
AcDbXrecord
280
     1
102
RTVSPost2010Prop28
280
     0
102
RTVSPost2010PropOp28
 70
     1
102
RTVSPost2010Prop29
280
     1
102
RTVSPost2010PropOp29
 70
     1
102
RTVSPost2010Prop30
280
     1
102
RTVSPost2010PropOp30
 70
     1
102
RTVSPost2010Prop31
280
     0
102
RTVSPost2010PropOp31
 70
     1
102
RTVSPost2010Prop32
280
     0
102
RTVSPost2010PropOp32
 70
     1
102
RTVSPost2010Prop33
280
     0
102
RTVSPost2010PropOp33
 70
     1
102
RTVSPost2010Prop34
280
     0
102
RTVSPost2010PropOp34
 70
     1
102
RTVSPost2010Prop35
280
     0
102
RTVSPost2010PropOp35
 70
     1
102
RTVSPost2010Prop36
280
     0
102
RTVSPost2010PropOp36
 70
     1
102
RTVSPost2010Prop37
 90
       50
102
RTVSPost2010PropOp37
 70
     1
102
RTVSPost2010Prop38
140
0.0
102
RTVSPost2010PropOp38
 70
     1
102
RTVSPost2010Prop39
140
1.0
102
RTVSPost2010PropOp39
 70
     1
102
RTVSPost2010Prop40
 90
        0
102
RTVSPost2010PropOp40
 70
     1
102
RTVSPost2010Prop41ColorIndex
 90
       18
102
RTVSPost2010Prop41ColorRGB
 90
        0
102
RTVSPost2010PropOp41
 70
     1
102
RTVSPost2010Prop42
 90
       50
102
RTVSPost2010PropOp42
 70
     1
102
RTVSPost2010Prop43
 90
        3
102
RTVSPost2010PropOp43
 70
     1
102
RTVSPost2010Prop44ColorIndex
 90
        5
102
RTVSPost2010Prop44ColorRGB
 90
      255
102
RTVSPost2010PropOp44
 70
     1
102
RTVSPost2010Prop45
280
     0
102
RTVSPost2010PropOp45
 70
     1
102
RTVSPost2010Prop46
 90
       50
102
RTVSPost2010PropOp46
 70
     1
102
RTVSPost2010Prop47
 90
       50
102
RTVSPost2010PropOp47
 70
     1
102
RTVSPost2010Prop48
 90
       50
102
RTVSPost2010PropOp48
 70
     1
102
RTVSPost2010Prop49
280
     0
102
RTVSPost2010PropOp49
 70
     1
102
RTVSPost2010Prop50
 90
       50
102
RTVSPost2010PropOp50
 70
     1
102
RTVSPost2010Prop51ColorIndex
 90
      256
102
RTVSPost2010Prop51ColorRGB
 90
-16777216
102
RTVSPost2010PropOp51
 70
     0
102
RTVSPost2010Prop52
140
1.0
102
RTVSPost2010PropOp52
 70
     0
102
RTVSPost2010Prop53
 90
        2
102
RTVSPost2010PropOp53
 70
     1
102
RTVSPost2010Prop54
  1
strokes_ogs.tif
102
RTVSPost2010PropOp54
 70
     1
102
RTVSPost2010Prop55
280
     0
102
RTVSPost2010PropOp55
 70
     1
102
RTVSPost2010Prop56
140
1.0
102
RTVSPost2010PropOp56
 70
     1
102
RTVSPost2010Prop57
140
1.0
102
RTVSPost2010PropOp57
 70
     1
102
RTVSPropertyOp0
 70
     1
102
RTVSPropertyOp1
 70
     1
102
RTVSPropertyOp2
 70
     1
102
RTVSPropertyOp3
 70
     1
102
RTVSPropertyOp4
 70
     1
102
RTVSPropertyOp5
 70
     1
102
RTVSPropertyOp6
 70
     1
102
RTVSPropertyOp7
 70
     1
102
RTVSPropertyOp8
 70
     1
102
RTVSPropertyOp9
 70
     1
102
RTVSPropertyOp10
 70
     1
102
RTVSPropertyOp11
 70
     1
102
RTVSPropertyOp12
 70
     1
102
RTVSPropertyOp13
 70
     1
102
RTVSPropertyOp14
 70
     1
102
RTVSPropertyOp15
 70
     1
102
RTVSPropertyOp16
 70
     1
102
RTVSPropertyOp17
 70
     1
102
RTVSPropertyOp18
 70
     1
102
RTVSPropertyOp19
 70
     1
102
RTVSPropertyOp20
 70
     1
102
RTVSPropertyOp21
 70
     1
102
RTVSPropertyOp22
 70
     1
102
RTVSPropertyOp23
 70
     1
102
RTVSPropertyOp24
 70
     1
102
RTVSPropertyOp25
 70
     1
102
RTVSPropertyOp26
 70
     1
102
RTVSPropertyOp27
 70
     1
102
RTVSPropertyOp28
 70
     1
102
RTVSPropertyOp29
 70
     1
102
RTVSPropertyOp30
 70
     1
102
RTVSPropertyOp31
 70
     1
102
RTVSPropertyOp32
 70
     1
102
RTVSPropertyOp33
 70
     1
102
RTVSPropertyOp34
 70
     1
102
RTVSPropertyOp35
 70
     1
102
RTVSPropertyOp36
 70
     1
102
RTVSPropertyOp37
 70
     1
102
RTVSPropertyOp38
 70
     1
102
RTVSPropertyOp39
 70
     1
102
RTVSPropertyOp40
 70
     1
102
RTVSPropertyOp41
 70
     1
102
RTVSPropertyOp42
 70
     1
102
RTVSPropertyOp43
 70
     1
102
RTVSPropertyOp44
 70
     1
102
RTVSPropertyOp45
 70
     1
102
RTVSPropertyOp46
 70
     1
102
RTVSPropertyOp47
 70
     1
102
RTVSPropertyOp48
 70
     1
102
RTVSPropertyOp49
 70
     1
102
RTVSPropertyOp50
 70
     1
102
RTVSPropertyOp51
 70
     0
102
RTVSPropertyOp52
 70
     0
102
RTVSPropertyOp53
 70
     1
102
RTVSPropertyOp54
 70
     1
102
RTVSPropertyOp55
 70
     1
102
RTVSPropertyOp56
 70
     1
102
RTVSPropertyOp57
 70
     1
102
RTVSPropertyOp58
 70
     1
102
RTVSPropertyOp59
 70
     1
102
RTVSPropertyOp60
 70
     1
102
RTVSPropertyOp61
 70
     1
102
RTVSPropertyOp62
 70
     1
  0
XRECORD
  5
C280
102
{ACAD_REACTORS
330
C27F
102
}
330
C27F
100
AcDbXrecord
280
     1
102
RTVSPost2010Prop28
280
     0
102
RTVSPost2010PropOp28
 70
     1
102
RTVSPost2010Prop29
280
     1
102
RTVSPost2010PropOp29
 70
     1
102
RTVSPost2010Prop30
280
     1
102
RTVSPost2010PropOp30
 70
     1
102
RTVSPost2010Prop31
280
     0
102
RTVSPost2010PropOp31
 70
     1
102
RTVSPost2010Prop32
280
     0
102
RTVSPost2010PropOp32
 70
     1
102
RTVSPost2010Prop33
280
     0
102
RTVSPost2010PropOp33
 70
     1
102
RTVSPost2010Prop34
280
     0
102
RTVSPost2010PropOp34
 70
     1
102
RTVSPost2010Prop35
280
     0
102
RTVSPost2010PropOp35
 70
     1
102
RTVSPost2010Prop36
280
     0
102
RTVSPost2010PropOp36
 70
     1
102
RTVSPost2010Prop37
 90
       50
102
RTVSPost2010PropOp37
 70
     1
102
RTVSPost2010Prop38
140
0.0
102
RTVSPost2010PropOp38
 70
     1
102
RTVSPost2010Prop39
140
1.0
102
RTVSPost2010PropOp39
 70
     1
102
RTVSPost2010Prop40
 90
        0
102
RTVSPost2010PropOp40
 70
     1
102
RTVSPost2010Prop41ColorIndex
 90
       18
102
RTVSPost2010Prop41ColorRGB
 90
        0
102
RTVSPost2010PropOp41
 70
     1
102
RTVSPost2010Prop42
 90
       50
102
RTVSPost2010PropOp42
 70
     1
102
RTVSPost2010Prop43
 90
        3
102
RTVSPost2010PropOp43
 70
     1
102
RTVSPost2010Prop44ColorIndex
 90
        5
102
RTVSPost2010Prop44ColorRGB
 90
      255
102
RTVSPost2010PropOp44
 70
     1
102
RTVSPost2010Prop45
280
     0
102
RTVSPost2010PropOp45
 70
     1
102
RTVSPost2010Prop46
 90
       50
102
RTVSPost2010PropOp46
 70
     1
102
RTVSPost2010Prop47
 90
       50
102
RTVSPost2010PropOp47
 70
     1
102
RTVSPost2010Prop48
 90
       50
102
RTVSPost2010PropOp48
 70
     1
102
RTVSPost2010Prop49
280
     0
102
RTVSPost2010PropOp49
 70
     1
102
RTVSPost2010Prop50
 90
       50
102
RTVSPost2010PropOp50
 70
     1
102
RTVSPost2010Prop51ColorIndex
 90
      256
102
RTVSPost2010Prop51ColorRGB
 90
-16777216
102
RTVSPost2010PropOp51
 70
     0
102
RTVSPost2010Prop52
140
1.0
102
RTVSPost2010PropOp52
 70
     0
102
RTVSPost2010Prop53
 90
        2
102
RTVSPost2010PropOp53
 70
     1
102
RTVSPost2010Prop54
  1
strokes_ogs.tif
102
RTVSPost2010PropOp54
 70
     1
102
RTVSPost2010Prop55
280
     0
102
RTVSPost2010PropOp55
 70
     1
102
RTVSPost2010Prop56
140
1.0
102
RTVSPost2010PropOp56
 70
     1
102
RTVSPost2010Prop57
140
1.0
102
RTVSPost2010PropOp57
 70
     1
102
RTVSPropertyOp0
 70
     1
102
RTVSPropertyOp1
 70
     1
102
RTVSPropertyOp2
 70
     1
102
RTVSPropertyOp3
 70
     1
102
RTVSPropertyOp4
 70
     1
102
RTVSPropertyOp5
 70
     1
102
RTVSPropertyOp6
 70
     1
102
RTVSPropertyOp7
 70
     1
102
RTVSPropertyOp8
 70
     1
102
RTVSPropertyOp9
 70
     1
102
RTVSPropertyOp10
 70
     1
102
RTVSPropertyOp11
 70
     1
102
RTVSPropertyOp12
 70
     1
102
RTVSPropertyOp13
 70
     1
102
RTVSPropertyOp14
 70
     1
102
RTVSPropertyOp15
 70
     1
102
RTVSPropertyOp16
 70
     1
102
RTVSPropertyOp17
 70
     1
102
RTVSPropertyOp18
 70
     1
102
RTVSPropertyOp19
 70
     1
102
RTVSPropertyOp20
 70
     1
102
RTVSPropertyOp21
 70
     1
102
RTVSPropertyOp22
 70
     1
102
RTVSPropertyOp23
 70
     1
102
RTVSPropertyOp24
 70
     1
102
RTVSPropertyOp25
 70
     1
102
RTVSPropertyOp26
 70
     1
102
RTVSPropertyOp27
 70
     1
102
RTVSPropertyOp28
 70
     1
102
RTVSPropertyOp29
 70
     1
102
RTVSPropertyOp30
 70
     1
102
RTVSPropertyOp31
 70
     1
102
RTVSPropertyOp32
 70
     1
102
RTVSPropertyOp33
 70
     1
102
RTVSPropertyOp34
 70
     1
102
RTVSPropertyOp35
 70
     1
102
RTVSPropertyOp36
 70
     1
102
RTVSPropertyOp37
 70
     1
102
RTVSPropertyOp38
 70
     1
102
RTVSPropertyOp39
 70
     1
102
RTVSPropertyOp40
 70
     1
102
RTVSPropertyOp41
 70
     1
102
RTVSPropertyOp42
 70
     1
102
RTVSPropertyOp43
 70
     1
102
RTVSPropertyOp44
 70
     1
102
RTVSPropertyOp45
 70
     1
102
RTVSPropertyOp46
 70
     1
102
RTVSPropertyOp47
 70
     1
102
RTVSPropertyOp48
 70
     1
102
RTVSPropertyOp49
 70
     1
102
RTVSPropertyOp50
 70
     1
102
RTVSPropertyOp51
 70
     0
102
RTVSPropertyOp52
 70
     0
102
RTVSPropertyOp53
 70
     1
102
RTVSPropertyOp54
 70
     1
102
RTVSPropertyOp55
 70
     1
102
RTVSPropertyOp56
 70
     1
102
RTVSPropertyOp57
 70
     1
102
RTVSPropertyOp58
 70
     1
102
RTVSPropertyOp59
 70
     1
102
RTVSPropertyOp60
 70
     1
102
RTVSPropertyOp61
 70
     1
102
RTVSPropertyOp62
 70
     1
  0
XRECORD
  5
C288
102
{ACAD_REACTORS
330
C287
102
}
330
C287
100
AcDbXrecord
280
     1
102
RTVSPost2010Prop28
280
     0
102
RTVSPost2010PropOp28
 70
     1
102
RTVSPost2010Prop29
280
     1
102
RTVSPost2010PropOp29
 70
     1
102
RTVSPost2010Prop30
280
     1
102
RTVSPost2010PropOp30
 70
     1
102
RTVSPost2010Prop31
280
     0
102
RTVSPost2010PropOp31
 70
     1
102
RTVSPost2010Prop32
280
     0
102
RTVSPost2010PropOp32
 70
     1
102
RTVSPost2010Prop33
280
     0
102
RTVSPost2010PropOp33
 70
     1
102
RTVSPost2010Prop34
280
     0
102
RTVSPost2010PropOp34
 70
     1
102
RTVSPost2010Prop35
280
     0
102
RTVSPost2010PropOp35
 70
     1
102
RTVSPost2010Prop36
280
     0
102
RTVSPost2010PropOp36
 70
     1
102
RTVSPost2010Prop37
 90
       50
102
RTVSPost2010PropOp37
 70
     1
102
RTVSPost2010Prop38
140
0.0
102
RTVSPost2010PropOp38
 70
     1
102
RTVSPost2010Prop39
140
1.0
102
RTVSPost2010PropOp39
 70
     1
102
RTVSPost2010Prop40
 90
        0
102
RTVSPost2010PropOp40
 70
     1
102
RTVSPost2010Prop41ColorIndex
 90
       18
102
RTVSPost2010Prop41ColorRGB
 90
        0
102
RTVSPost2010PropOp41
 70
     1
102
RTVSPost2010Prop42
 90
       50
102
RTVSPost2010PropOp42
 70
     1
102
RTVSPost2010Prop43
 90
        3
102
RTVSPost2010PropOp43
 70
     1
102
RTVSPost2010Prop44ColorIndex
 90
        5
102
RTVSPost2010Prop44ColorRGB
 90
      255
102
RTVSPost2010PropOp44
 70
     1
102
RTVSPost2010Prop45
280
     0
102
RTVSPost2010PropOp45
 70
     1
102
RTVSPost2010Prop46
 90
       50
102
RTVSPost2010PropOp46
 70
     1
102
RTVSPost2010Prop47
 90
       50
102
RTVSPost2010PropOp47
 70
     1
102
RTVSPost2010Prop48
 90
       50
102
RTVSPost2010PropOp48
 70
     1
102
RTVSPost2010Prop49
280
     0
102
RTVSPost2010PropOp49
 70
     1
102
RTVSPost2010Prop50
 90
       50
102
RTVSPost2010PropOp50
 70
     1
102
RTVSPost2010Prop51ColorIndex
 90
      256
102
RTVSPost2010Prop51ColorRGB
 90
-16777216
102
RTVSPost2010PropOp51
 70
     0
102
RTVSPost2010Prop52
140
1.0
102
RTVSPost2010PropOp52
 70
     0
102
RTVSPost2010Prop53
 90
        2
102
RTVSPost2010PropOp53
 70
     1
102
RTVSPost2010Prop54
  1
strokes_ogs.tif
102
RTVSPost2010PropOp54
 70
     1
102
RTVSPost2010Prop55
280
     0
102
RTVSPost2010PropOp55
 70
     1
102
RTVSPost2010Prop56
140
1.0
102
RTVSPost2010PropOp56
 70
     1
102
RTVSPost2010Prop57
140
1.0
102
RTVSPost2010PropOp57
 70
     1
102
RTVSPropertyOp0
 70
     1
102
RTVSPropertyOp1
 70
     1
102
RTVSPropertyOp2
 70
     1
102
RTVSPropertyOp3
 70
     1
102
RTVSPropertyOp4
 70
     1
102
RTVSPropertyOp5
 70
     1
102
RTVSPropertyOp6
 70
     1
102
RTVSPropertyOp7
 70
     1
102
RTVSPropertyOp8
 70
     1
102
RTVSPropertyOp9
 70
     1
102
RTVSPropertyOp10
 70
     1
102
RTVSPropertyOp11
 70
     1
102
RTVSPropertyOp12
 70
     1
102
RTVSPropertyOp13
 70
     1
102
RTVSPropertyOp14
 70
     1
102
RTVSPropertyOp15
 70
     1
102
RTVSPropertyOp16
 70
     1
102
RTVSPropertyOp17
 70
     1
102
RTVSPropertyOp18
 70
     1
102
RTVSPropertyOp19
 70
     1
102
RTVSPropertyOp20
 70
     1
102
RTVSPropertyOp21
 70
     1
102
RTVSPropertyOp22
 70
     1
102
RTVSPropertyOp23
 70
     1
102
RTVSPropertyOp24
 70
     1
102
RTVSPropertyOp25
 70
     1
102
RTVSPropertyOp26
 70
     1
102
RTVSPropertyOp27
 70
     1
102
RTVSPropertyOp28
 70
     1
102
RTVSPropertyOp29
 70
     1
102
RTVSPropertyOp30
 70
     1
102
RTVSPropertyOp31
 70
     1
102
RTVSPropertyOp32
 70
     1
102
RTVSPropertyOp33
 70
     1
102
RTVSPropertyOp34
 70
     1
102
RTVSPropertyOp35
 70
     1
102
RTVSPropertyOp36
 70
     1
102
RTVSPropertyOp37
 70
     1
102
RTVSPropertyOp38
 70
     1
102
RTVSPropertyOp39
 70
     1
102
RTVSPropertyOp40
 70
     1
102
RTVSPropertyOp41
 70
     1
102
RTVSPropertyOp42
 70
     1
102
RTVSPropertyOp43
 70
     1
102
RTVSPropertyOp44
 70
     1
102
RTVSPropertyOp45
 70
     1
102
RTVSPropertyOp46
 70
     1
102
RTVSPropertyOp47
 70
     1
102
RTVSPropertyOp48
 70
     1
102
RTVSPropertyOp49
 70
     1
102
RTVSPropertyOp50
 70
     1
102
RTVSPropertyOp51
 70
     0
102
RTVSPropertyOp52
 70
     0
102
RTVSPropertyOp53
 70
     1
102
RTVSPropertyOp54
 70
     1
102
RTVSPropertyOp55
 70
     1
102
RTVSPropertyOp56
 70
     1
102
RTVSPropertyOp57
 70
     1
102
RTVSPropertyOp58
 70
     1
102
RTVSPropertyOp59
 70
     1
102
RTVSPropertyOp60
 70
     1
102
RTVSPropertyOp61
 70
     1
102
RTVSPropertyOp62
 70
     1
  0
XRECORD
  5
C2A4
102
{ACAD_REACTORS
330
C2A3
102
}
330
C2A3
100
AcDbXrecord
280
     1
102
RTVSPost2010Prop28
280
     0
102
RTVSPost2010PropOp28
 70
     1
102
RTVSPost2010Prop29
280
     1
102
RTVSPost2010PropOp29
 70
     1
102
RTVSPost2010Prop30
280
     1
102
RTVSPost2010PropOp30
 70
     1
102
RTVSPost2010Prop31
280
     0
102
RTVSPost2010PropOp31
 70
     1
102
RTVSPost2010Prop32
280
     0
102
RTVSPost2010PropOp32
 70
     1
102
RTVSPost2010Prop33
280
     0
102
RTVSPost2010PropOp33
 70
     1
102
RTVSPost2010Prop34
280
     0
102
RTVSPost2010PropOp34
 70
     1
102
RTVSPost2010Prop35
280
     0
102
RTVSPost2010PropOp35
 70
     1
102
RTVSPost2010Prop36
280
     0
102
RTVSPost2010PropOp36
 70
     1
102
RTVSPost2010Prop37
 90
       50
102
RTVSPost2010PropOp37
 70
     0
102
RTVSPost2010Prop38
140
0.0
102
RTVSPost2010PropOp38
 70
     0
102
RTVSPost2010Prop39
140
1.0
102
RTVSPost2010PropOp39
 70
     0
102
RTVSPost2010Prop40
 90
        0
102
RTVSPost2010PropOp40
 70
     0
102
RTVSPost2010Prop41ColorIndex
 90
       18
102
RTVSPost2010Prop41ColorRGB
 90
        0
102
RTVSPost2010PropOp41
 70
     0
102
RTVSPost2010Prop42
 90
       50
102
RTVSPost2010PropOp42
 70
     0
102
RTVSPost2010Prop43
 90
        3
102
RTVSPost2010PropOp43
 70
     0
102
RTVSPost2010Prop44ColorIndex
 90
        5
102
RTVSPost2010Prop44ColorRGB
 90
      255
102
RTVSPost2010PropOp44
 70
     0
102
RTVSPost2010Prop45
280
     0
102
RTVSPost2010PropOp45
 70
     1
102
RTVSPost2010Prop46
 90
       50
102
RTVSPost2010PropOp46
 70
     0
102
RTVSPost2010Prop47
 90
       50
102
RTVSPost2010PropOp47
 70
     0
102
RTVSPost2010Prop48
 90
       50
102
RTVSPost2010PropOp48
 70
     0
102
RTVSPost2010Prop49
280
     0
102
RTVSPost2010PropOp49
 70
     1
102
RTVSPost2010Prop50
 90
       50
102
RTVSPost2010PropOp50
 70
     0
102
RTVSPost2010Prop51ColorIndex
 90
      256
102
RTVSPost2010Prop51ColorRGB
 90
-16777216
102
RTVSPost2010PropOp51
 70
     0
102
RTVSPost2010Prop52
140
1.0
102
RTVSPost2010PropOp52
 70
     0
102
RTVSPost2010Prop53
 90
        2
102
RTVSPost2010PropOp53
 70
     0
102
RTVSPost2010Prop54
  1
strokes_ogs.tif
102
RTVSPost2010PropOp54
 70
     0
102
RTVSPost2010Prop55
280
     0
102
RTVSPost2010PropOp55
 70
     1
102
RTVSPost2010Prop56
140
1.0
102
RTVSPost2010PropOp56
 70
     0
102
RTVSPost2010Prop57
140
1.0
102
RTVSPost2010PropOp57
 70
     0
102
RTVSPropertyOp0
 70
     0
102
RTVSPropertyOp1
 70
     0
102
RTVSPropertyOp2
 70
     0
102
RTVSPropertyOp3
 70
     0
102
RTVSPropertyOp4
 70
     0
102
RTVSPropertyOp5
 70
     0
102
RTVSPropertyOp6
 70
     0
102
RTVSPropertyOp7
 70
     0
102
RTVSPropertyOp8
 70
     0
102
RTVSPropertyOp9
 70
     0
102
RTVSPropertyOp10
 70
     0
102
RTVSPropertyOp11
 70
     0
102
RTVSPropertyOp12
 70
     0
102
RTVSPropertyOp13
 70
     0
102
RTVSPropertyOp14
 70
     2
102
RTVSPropertyOp15
 70
     0
102
RTVSPropertyOp16
 70
     0
102
RTVSPropertyOp17
 70
     0
102
RTVSPropertyOp18
 70
     0
102
RTVSPropertyOp19
 70
     0
102
RTVSPropertyOp20
 70
     0
102
RTVSPropertyOp21
 70
     0
102
RTVSPropertyOp22
 70
     0
102
RTVSPropertyOp23
 70
     0
102
RTVSPropertyOp24
 70
     0
102
RTVSPropertyOp25
 70
     0
102
RTVSPropertyOp26
 70
     0
102
RTVSPropertyOp27
 70
     0
102
RTVSPropertyOp28
 70
     1
102
RTVSPropertyOp29
 70
     1
102
RTVSPropertyOp30
 70
     1
102
RTVSPropertyOp31
 70
     1
102
RTVSPropertyOp32
 70
     1
102
RTVSPropertyOp33
 70
     1
102
RTVSPropertyOp34
 70
     1
102
RTVSPropertyOp35
 70
     1
102
RTVSPropertyOp36
 70
     1
102
RTVSPropertyOp37
 70
     0
102
RTVSPropertyOp38
 70
     0
102
RTVSPropertyOp39
 70
     0
102
RTVSPropertyOp40
 70
     0
102
RTVSPropertyOp41
 70
     0
102
RTVSPropertyOp42
 70
     0
102
RTVSPropertyOp43
 70
     0
102
RTVSPropertyOp44
 70
     0
102
RTVSPropertyOp45
 70
     1
102
RTVSPropertyOp46
 70
     0
102
RTVSPropertyOp47
 70
     0
102
RTVSPropertyOp48
 70
     0
102
RTVSPropertyOp49
 70
     1
102
RTVSPropertyOp50
 70
     0
102
RTVSPropertyOp51
 70
     0
102
RTVSPropertyOp52
 70
     0
102
RTVSPropertyOp53
 70
     0
102
RTVSPropertyOp54
 70
     0
102
RTVSPropertyOp55
 70
     1
102
RTVSPropertyOp56
 70
     0
102
RTVSPropertyOp57
 70
     0
102
RTVSPropertyOp58
 70
     0
102
RTVSPropertyOp59
 70
     0
102
RTVSPropertyOp60
 70
     0
102
RTVSPropertyOp61
 70
     0
102
RTVSPropertyOp62
 70
     0
  0
XRECORD
  5
C294
102
{ACAD_REACTORS
330
C293
102
}
330
C293
100
AcDbXrecord
280
     1
102
RTVSPost2010Prop28
280
     0
102
RTVSPost2010PropOp28
 70
     1
102
RTVSPost2010Prop29
280
     1
102
RTVSPost2010PropOp29
 70
     1
102
RTVSPost2010Prop30
280
     1
102
RTVSPost2010PropOp30
 70
     1
102
RTVSPost2010Prop31
280
     0
102
RTVSPost2010PropOp31
 70
     1
102
RTVSPost2010Prop32
280
     0
102
RTVSPost2010PropOp32
 70
     1
102
RTVSPost2010Prop33
280
     0
102
RTVSPost2010PropOp33
 70
     1
102
RTVSPost2010Prop34
280
     0
102
RTVSPost2010PropOp34
 70
     1
102
RTVSPost2010Prop35
280
     0
102
RTVSPost2010PropOp35
 70
     1
102
RTVSPost2010Prop36
280
     0
102
RTVSPost2010PropOp36
 70
     1
102
RTVSPost2010Prop37
 90
       50
102
RTVSPost2010PropOp37
 70
     1
102
RTVSPost2010Prop38
140
0.0
102
RTVSPost2010PropOp38
 70
     1
102
RTVSPost2010Prop39
140
1.0
102
RTVSPost2010PropOp39
 70
     1
102
RTVSPost2010Prop40
 90
        0
102
RTVSPost2010PropOp40
 70
     1
102
RTVSPost2010Prop41ColorIndex
 90
       18
102
RTVSPost2010Prop41ColorRGB
 90
        0
102
RTVSPost2010PropOp41
 70
     1
102
RTVSPost2010Prop42
 90
       50
102
RTVSPost2010PropOp42
 70
     1
102
RTVSPost2010Prop43
 90
        3
102
RTVSPost2010PropOp43
 70
     1
102
RTVSPost2010Prop44ColorIndex
 90
        5
102
RTVSPost2010Prop44ColorRGB
 90
      255
102
RTVSPost2010PropOp44
 70
     1
102
RTVSPost2010Prop45
280
     0
102
RTVSPost2010PropOp45
 70
     1
102
RTVSPost2010Prop46
 90
       50
102
RTVSPost2010PropOp46
 70
     1
102
RTVSPost2010Prop47
 90
       50
102
RTVSPost2010PropOp47
 70
     1
102
RTVSPost2010Prop48
 90
       50
102
RTVSPost2010PropOp48
 70
     1
102
RTVSPost2010Prop49
280
     0
102
RTVSPost2010PropOp49
 70
     1
102
RTVSPost2010Prop50
 90
       50
102
RTVSPost2010PropOp50
 70
     1
102
RTVSPost2010Prop51ColorIndex
 90
      256
102
RTVSPost2010Prop51ColorRGB
 90
-16777216
102
RTVSPost2010PropOp51
 70
     0
102
RTVSPost2010Prop52
140
1.0
102
RTVSPost2010PropOp52
 70
     0
102
RTVSPost2010Prop53
 90
        2
102
RTVSPost2010PropOp53
 70
     1
102
RTVSPost2010Prop54
  1
strokes_ogs.tif
102
RTVSPost2010PropOp54
 70
     1
102
RTVSPost2010Prop55
280
     0
102
RTVSPost2010PropOp55
 70
     1
102
RTVSPost2010Prop56
140
1.0
102
RTVSPost2010PropOp56
 70
     1
102
RTVSPost2010Prop57
140
1.0
102
RTVSPost2010PropOp57
 70
     1
102
RTVSPropertyOp0
 70
     1
102
RTVSPropertyOp1
 70
     1
102
RTVSPropertyOp2
 70
     1
102
RTVSPropertyOp3
 70
     1
102
RTVSPropertyOp4
 70
     1
102
RTVSPropertyOp5
 70
     1
102
RTVSPropertyOp6
 70
     1
102
RTVSPropertyOp7
 70
     1
102
RTVSPropertyOp8
 70
     1
102
RTVSPropertyOp9
 70
     1
102
RTVSPropertyOp10
 70
     1
102
RTVSPropertyOp11
 70
     1
102
RTVSPropertyOp12
 70
     1
102
RTVSPropertyOp13
 70
     1
102
RTVSPropertyOp14
 70
     1
102
RTVSPropertyOp15
 70
     1
102
RTVSPropertyOp16
 70
     1
102
RTVSPropertyOp17
 70
     1
102
RTVSPropertyOp18
 70
     1
102
RTVSPropertyOp19
 70
     1
102
RTVSPropertyOp20
 70
     1
102
RTVSPropertyOp21
 70
     1
102
RTVSPropertyOp22
 70
     1
102
RTVSPropertyOp23
 70
     1
102
RTVSPropertyOp24
 70
     1
102
RTVSPropertyOp25
 70
     1
102
RTVSPropertyOp26
 70
     1
102
RTVSPropertyOp27
 70
     1
102
RTVSPropertyOp28
 70
     1
102
RTVSPropertyOp29
 70
     1
102
RTVSPropertyOp30
 70
     1
102
RTVSPropertyOp31
 70
     1
102
RTVSPropertyOp32
 70
     1
102
RTVSPropertyOp33
 70
     1
102
RTVSPropertyOp34
 70
     1
102
RTVSPropertyOp35
 70
     1
102
RTVSPropertyOp36
 70
     1
102
RTVSPropertyOp37
 70
     1
102
RTVSPropertyOp38
 70
     1
102
RTVSPropertyOp39
 70
     1
102
RTVSPropertyOp40
 70
     1
102
RTVSPropertyOp41
 70
     1
102
RTVSPropertyOp42
 70
     1
102
RTVSPropertyOp43
 70
     1
102
RTVSPropertyOp44
 70
     1
102
RTVSPropertyOp45
 70
     1
102
RTVSPropertyOp46
 70
     1
102
RTVSPropertyOp47
 70
     1
102
RTVSPropertyOp48
 70
     1
102
RTVSPropertyOp49
 70
     1
102
RTVSPropertyOp50
 70
     1
102
RTVSPropertyOp51
 70
     0
102
RTVSPropertyOp52
 70
     0
102
RTVSPropertyOp53
 70
     1
102
RTVSPropertyOp54
 70
     1
102
RTVSPropertyOp55
 70
     1
102
RTVSPropertyOp56
 70
     1
102
RTVSPropertyOp57
 70
     1
102
RTVSPropertyOp58
 70
     1
102
RTVSPropertyOp59
 70
     1
102
RTVSPropertyOp60
 70
     1
102
RTVSPropertyOp61
 70
     1
102
RTVSPropertyOp62
 70
     1
  0
XRECORD
  5
C2A6
102
{ACAD_REACTORS
330
C2A5
102
}
330
C2A5
100
AcDbXrecord
280
     1
102
RTVSPost2010Prop28
280
     0
102
RTVSPost2010PropOp28
 70
     1
102
RTVSPost2010Prop29
280
     1
102
RTVSPost2010PropOp29
 70
     1
102
RTVSPost2010Prop30
280
     1
102
RTVSPost2010PropOp30
 70
     1
102
RTVSPost2010Prop31
280
     0
102
RTVSPost2010PropOp31
 70
     1
102
RTVSPost2010Prop32
280
     0
102
RTVSPost2010PropOp32
 70
     1
102
RTVSPost2010Prop33
280
     0
102
RTVSPost2010PropOp33
 70
     1
102
RTVSPost2010Prop34
280
     0
102
RTVSPost2010PropOp34
 70
     1
102
RTVSPost2010Prop35
280
     0
102
RTVSPost2010PropOp35
 70
     1
102
RTVSPost2010Prop36
280
     0
102
RTVSPost2010PropOp36
 70
     1
102
RTVSPost2010Prop37
 90
       50
102
RTVSPost2010PropOp37
 70
     0
102
RTVSPost2010Prop38
140
0.0
102
RTVSPost2010PropOp38
 70
     0
102
RTVSPost2010Prop39
140
1.0
102
RTVSPost2010PropOp39
 70
     0
102
RTVSPost2010Prop40
 90
        0
102
RTVSPost2010PropOp40
 70
     0
102
RTVSPost2010Prop41ColorIndex
 90
       18
102
RTVSPost2010Prop41ColorRGB
 90
        0
102
RTVSPost2010PropOp41
 70
     0
102
RTVSPost2010Prop42
 90
       50
102
RTVSPost2010PropOp42
 70
     0
102
RTVSPost2010Prop43
 90
        3
102
RTVSPost2010PropOp43
 70
     0
102
RTVSPost2010Prop44ColorIndex
 90
        5
102
RTVSPost2010Prop44ColorRGB
 90
      255
102
RTVSPost2010PropOp44
 70
     0
102
RTVSPost2010Prop45
280
     0
102
RTVSPost2010PropOp45
 70
     1
102
RTVSPost2010Prop46
 90
       50
102
RTVSPost2010PropOp46
 70
     0
102
RTVSPost2010Prop47
 90
       50
102
RTVSPost2010PropOp47
 70
     0
102
RTVSPost2010Prop48
 90
       50
102
RTVSPost2010PropOp48
 70
     0
102
RTVSPost2010Prop49
280
     0
102
RTVSPost2010PropOp49
 70
     1
102
RTVSPost2010Prop50
 90
       50
102
RTVSPost2010PropOp50
 70
     0
102
RTVSPost2010Prop51ColorIndex
 90
      256
102
RTVSPost2010Prop51ColorRGB
 90
-16777216
102
RTVSPost2010PropOp51
 70
     0
102
RTVSPost2010Prop52
140
1.0
102
RTVSPost2010PropOp52
 70
     0
102
RTVSPost2010Prop53
 90
        2
102
RTVSPost2010PropOp53
 70
     0
102
RTVSPost2010Prop54
  1
strokes_ogs.tif
102
RTVSPost2010PropOp54
 70
     0
102
RTVSPost2010Prop55
280
     0
102
RTVSPost2010PropOp55
 70
     1
102
RTVSPost2010Prop56
140
1.0
102
RTVSPost2010PropOp56
 70
     0
102
RTVSPost2010Prop57
140
1.0
102
RTVSPost2010PropOp57
 70
     0
102
RTVSPropertyOp0
 70
     0
102
RTVSPropertyOp1
 70
     0
102
RTVSPropertyOp2
 70
     0
102
RTVSPropertyOp3
 70
     0
102
RTVSPropertyOp4
 70
     0
102
RTVSPropertyOp5
 70
     0
102
RTVSPropertyOp6
 70
     0
102
RTVSPropertyOp7
 70
     0
102
RTVSPropertyOp8
 70
     0
102
RTVSPropertyOp9
 70
     0
102
RTVSPropertyOp10
 70
     0
102
RTVSPropertyOp11
 70
     0
102
RTVSPropertyOp12
 70
     0
102
RTVSPropertyOp13
 70
     0
102
RTVSPropertyOp14
 70
     2
102
RTVSPropertyOp15
 70
     0
102
RTVSPropertyOp16
 70
     0
102
RTVSPropertyOp17
 70
     0
102
RTVSPropertyOp18
 70
     0
102
RTVSPropertyOp19
 70
     0
102
RTVSPropertyOp20
 70
     0
102
RTVSPropertyOp21
 70
     0
102
RTVSPropertyOp22
 70
     0
102
RTVSPropertyOp23
 70
     0
102
RTVSPropertyOp24
 70
     0
102
RTVSPropertyOp25
 70
     0
102
RTVSPropertyOp26
 70
     0
102
RTVSPropertyOp27
 70
     0
102
RTVSPropertyOp28
 70
     1
102
RTVSPropertyOp29
 70
     1
102
RTVSPropertyOp30
 70
     1
102
RTVSPropertyOp31
 70
     1
102
RTVSPropertyOp32
 70
     1
102
RTVSPropertyOp33
 70
     1
102
RTVSPropertyOp34
 70
     1
102
RTVSPropertyOp35
 70
     1
102
RTVSPropertyOp36
 70
     1
102
RTVSPropertyOp37
 70
     0
102
RTVSPropertyOp38
 70
     0
102
RTVSPropertyOp39
 70
     0
102
RTVSPropertyOp40
 70
     0
102
RTVSPropertyOp41
 70
     0
102
RTVSPropertyOp42
 70
     0
102
RTVSPropertyOp43
 70
     0
102
RTVSPropertyOp44
 70
     0
102
RTVSPropertyOp45
 70
     1
102
RTVSPropertyOp46
 70
     0
102
RTVSPropertyOp47
 70
     0
102
RTVSPropertyOp48
 70
     0
102
RTVSPropertyOp49
 70
     1
102
RTVSPropertyOp50
 70
     0
102
RTVSPropertyOp51
 70
     0
102
RTVSPropertyOp52
 70
     0
102
RTVSPropertyOp53
 70
     0
102
RTVSPropertyOp54
 70
     0
102
RTVSPropertyOp55
 70
     1
102
RTVSPropertyOp56
 70
     0
102
RTVSPropertyOp57
 70
     0
102
RTVSPropertyOp58
 70
     0
102
RTVSPropertyOp59
 70
     0
102
RTVSPropertyOp60
 70
     0
102
RTVSPropertyOp61
 70
     0
102
RTVSPropertyOp62
 70
     0
  0
XRECORD
  5
C28C
102
{ACAD_REACTORS
330
C28B
102
}
330
C28B
100
AcDbXrecord
280
     1
102
RTVSPost2010Prop28
280
     0
102
RTVSPost2010PropOp28
 70
     1
102
RTVSPost2010Prop29
280
     1
102
RTVSPost2010PropOp29
 70
     1
102
RTVSPost2010Prop30
280
     1
102
RTVSPost2010PropOp30
 70
     1
102
RTVSPost2010Prop31
280
     0
102
RTVSPost2010PropOp31
 70
     1
102
RTVSPost2010Prop32
280
     0
102
RTVSPost2010PropOp32
 70
     1
102
RTVSPost2010Prop33
280
     0
102
RTVSPost2010PropOp33
 70
     1
102
RTVSPost2010Prop34
280
     0
102
RTVSPost2010PropOp34
 70
     1
102
RTVSPost2010Prop35
280
     0
102
RTVSPost2010PropOp35
 70
     1
102
RTVSPost2010Prop36
280
     0
102
RTVSPost2010PropOp36
 70
     1
102
RTVSPost2010Prop37
 90
       50
102
RTVSPost2010PropOp37
 70
     1
102
RTVSPost2010Prop38
140
0.0
102
RTVSPost2010PropOp38
 70
     1
102
RTVSPost2010Prop39
140
1.0
102
RTVSPost2010PropOp39
 70
     1
102
RTVSPost2010Prop40
 90
        0
102
RTVSPost2010PropOp40
 70
     1
102
RTVSPost2010Prop41ColorIndex
 90
       18
102
RTVSPost2010Prop41ColorRGB
 90
        0
102
RTVSPost2010PropOp41
 70
     1
102
RTVSPost2010Prop42
 90
       50
102
RTVSPost2010PropOp42
 70
     1
102
RTVSPost2010Prop43
 90
        3
102
RTVSPost2010PropOp43
 70
     1
102
RTVSPost2010Prop44ColorIndex
 90
        5
102
RTVSPost2010Prop44ColorRGB
 90
      255
102
RTVSPost2010PropOp44
 70
     1
102
RTVSPost2010Prop45
280
     0
102
RTVSPost2010PropOp45
 70
     1
102
RTVSPost2010Prop46
 90
       50
102
RTVSPost2010PropOp46
 70
     1
102
RTVSPost2010Prop47
 90
       50
102
RTVSPost2010PropOp47
 70
     1
102
RTVSPost2010Prop48
 90
       50
102
RTVSPost2010PropOp48
 70
     1
102
RTVSPost2010Prop49
280
     0
102
RTVSPost2010PropOp49
 70
     1
102
RTVSPost2010Prop50
 90
       50
102
RTVSPost2010PropOp50
 70
     1
102
RTVSPost2010Prop51ColorIndex
 90
      256
102
RTVSPost2010Prop51ColorRGB
 90
-16777216
102
RTVSPost2010PropOp51
 70
     0
102
RTVSPost2010Prop52
140
1.0
102
RTVSPost2010PropOp52
 70
     0
102
RTVSPost2010Prop53
 90
        2
102
RTVSPost2010PropOp53
 70
     1
102
RTVSPost2010Prop54
  1
strokes_ogs.tif
102
RTVSPost2010PropOp54
 70
     1
102
RTVSPost2010Prop55
280
     0
102
RTVSPost2010PropOp55
 70
     1
102
RTVSPost2010Prop56
140
1.0
102
RTVSPost2010PropOp56
 70
     1
102
RTVSPost2010Prop57
140
1.0
102
RTVSPost2010PropOp57
 70
     1
102
RTVSPropertyOp0
 70
     1
102
RTVSPropertyOp1
 70
     1
102
RTVSPropertyOp2
 70
     1
102
RTVSPropertyOp3
 70
     1
102
RTVSPropertyOp4
 70
     1
102
RTVSPropertyOp5
 70
     1
102
RTVSPropertyOp6
 70
     1
102
RTVSPropertyOp7
 70
     1
102
RTVSPropertyOp8
 70
     1
102
RTVSPropertyOp9
 70
     1
102
RTVSPropertyOp10
 70
     1
102
RTVSPropertyOp11
 70
     1
102
RTVSPropertyOp12
 70
     1
102
RTVSPropertyOp13
 70
     1
102
RTVSPropertyOp14
 70
     1
102
RTVSPropertyOp15
 70
     1
102
RTVSPropertyOp16
 70
     1
102
RTVSPropertyOp17
 70
     1
102
RTVSPropertyOp18
 70
     1
102
RTVSPropertyOp19
 70
     1
102
RTVSPropertyOp20
 70
     1
102
RTVSPropertyOp21
 70
     1
102
RTVSPropertyOp22
 70
     1
102
RTVSPropertyOp23
 70
     1
102
RTVSPropertyOp24
 70
     1
102
RTVSPropertyOp25
 70
     1
102
RTVSPropertyOp26
 70
     1
102
RTVSPropertyOp27
 70
     1
102
RTVSPropertyOp28
 70
     1
102
RTVSPropertyOp29
 70
     1
102
RTVSPropertyOp30
 70
     1
102
RTVSPropertyOp31
 70
     1
102
RTVSPropertyOp32
 70
     1
102
RTVSPropertyOp33
 70
     1
102
RTVSPropertyOp34
 70
     1
102
RTVSPropertyOp35
 70
     1
102
RTVSPropertyOp36
 70
     1
102
RTVSPropertyOp37
 70
     1
102
RTVSPropertyOp38
 70
     1
102
RTVSPropertyOp39
 70
     1
102
RTVSPropertyOp40
 70
     1
102
RTVSPropertyOp41
 70
     1
102
RTVSPropertyOp42
 70
     1
102
RTVSPropertyOp43
 70
     1
102
RTVSPropertyOp44
 70
     1
102
RTVSPropertyOp45
 70
     1
102
RTVSPropertyOp46
 70
     1
102
RTVSPropertyOp47
 70
     1
102
RTVSPropertyOp48
 70
     1
102
RTVSPropertyOp49
 70
     1
102
RTVSPropertyOp50
 70
     1
102
RTVSPropertyOp51
 70
     0
102
RTVSPropertyOp52
 70
     0
102
RTVSPropertyOp53
 70
     1
102
RTVSPropertyOp54
 70
     1
102
RTVSPropertyOp55
 70
     1
102
RTVSPropertyOp56
 70
     1
102
RTVSPropertyOp57
 70
     1
102
RTVSPropertyOp58
 70
     1
102
RTVSPropertyOp59
 70
     1
102
RTVSPropertyOp60
 70
     1
102
RTVSPropertyOp61
 70
     1
102
RTVSPropertyOp62
 70
     1
  0
XRECORD
  5
C2A2
102
{ACAD_REACTORS
330
C2A1
102
}
330
C2A1
100
AcDbXrecord
280
     1
102
RTVSPost2010Prop28
280
     0
102
RTVSPost2010PropOp28
 70
     1
102
RTVSPost2010Prop29
280
     1
102
RTVSPost2010PropOp29
 70
     1
102
RTVSPost2010Prop30
280
     1
102
RTVSPost2010PropOp30
 70
     1
102
RTVSPost2010Prop31
280
     0
102
RTVSPost2010PropOp31
 70
     1
102
RTVSPost2010Prop32
280
     0
102
RTVSPost2010PropOp32
 70
     1
102
RTVSPost2010Prop33
280
     0
102
RTVSPost2010PropOp33
 70
     1
102
RTVSPost2010Prop34
280
     0
102
RTVSPost2010PropOp34
 70
     1
102
RTVSPost2010Prop35
280
     0
102
RTVSPost2010PropOp35
 70
     1
102
RTVSPost2010Prop36
280
     0
102
RTVSPost2010PropOp36
 70
     1
102
RTVSPost2010Prop37
 90
       50
102
RTVSPost2010PropOp37
 70
     1
102
RTVSPost2010Prop38
140
0.0
102
RTVSPost2010PropOp38
 70
     1
102
RTVSPost2010Prop39
140
1.0
102
RTVSPost2010PropOp39
 70
     1
102
RTVSPost2010Prop40
 90
        0
102
RTVSPost2010PropOp40
 70
     1
102
RTVSPost2010Prop41ColorIndex
 90
       18
102
RTVSPost2010Prop41ColorRGB
 90
        0
102
RTVSPost2010PropOp41
 70
     1
102
RTVSPost2010Prop42
 90
       50
102
RTVSPost2010PropOp42
 70
     1
102
RTVSPost2010Prop43
 90
        3
102
RTVSPost2010PropOp43
 70
     1
102
RTVSPost2010Prop44ColorIndex
 90
        5
102
RTVSPost2010Prop44ColorRGB
 90
      255
102
RTVSPost2010PropOp44
 70
     1
102
RTVSPost2010Prop45
280
     0
102
RTVSPost2010PropOp45
 70
     1
102
RTVSPost2010Prop46
 90
       50
102
RTVSPost2010PropOp46
 70
     1
102
RTVSPost2010Prop47
 90
       50
102
RTVSPost2010PropOp47
 70
     1
102
RTVSPost2010Prop48
 90
       50
102
RTVSPost2010PropOp48
 70
     1
102
RTVSPost2010Prop49
280
     0
102
RTVSPost2010PropOp49
 70
     1
102
RTVSPost2010Prop50
 90
       50
102
RTVSPost2010PropOp50
 70
     1
102
RTVSPost2010Prop51ColorIndex
 90
      256
102
RTVSPost2010Prop51ColorRGB
 90
-16777216
102
RTVSPost2010PropOp51
 70
     0
102
RTVSPost2010Prop52
140
1.0
102
RTVSPost2010PropOp52
 70
     0
102
RTVSPost2010Prop53
 90
        2
102
RTVSPost2010PropOp53
 70
     1
102
RTVSPost2010Prop54
  1
strokes_ogs.tif
102
RTVSPost2010PropOp54
 70
     1
102
RTVSPost2010Prop55
280
     0
102
RTVSPost2010PropOp55
 70
     1
102
RTVSPost2010Prop56
140
1.0
102
RTVSPost2010PropOp56
 70
     1
102
RTVSPost2010Prop57
140
1.0
102
RTVSPost2010PropOp57
 70
     1
102
RTVSPropertyOp0
 70
     1
102
RTVSPropertyOp1
 70
     1
102
RTVSPropertyOp2
 70
     1
102
RTVSPropertyOp3
 70
     1
102
RTVSPropertyOp4
 70
     1
102
RTVSPropertyOp5
 70
     1
102
RTVSPropertyOp6
 70
     1
102
RTVSPropertyOp7
 70
     1
102
RTVSPropertyOp8
 70
     1
102
RTVSPropertyOp9
 70
     1
102
RTVSPropertyOp10
 70
     1
102
RTVSPropertyOp11
 70
     1
102
RTVSPropertyOp12
 70
     1
102
RTVSPropertyOp13
 70
     1
102
RTVSPropertyOp14
 70
     1
102
RTVSPropertyOp15
 70
     1
102
RTVSPropertyOp16
 70
     1
102
RTVSPropertyOp17
 70
     1
102
RTVSPropertyOp18
 70
     1
102
RTVSPropertyOp19
 70
     1
102
RTVSPropertyOp20
 70
     1
102
RTVSPropertyOp21
 70
     1
102
RTVSPropertyOp22
 70
     1
102
RTVSPropertyOp23
 70
     1
102
RTVSPropertyOp24
 70
     1
102
RTVSPropertyOp25
 70
     1
102
RTVSPropertyOp26
 70
     1
102
RTVSPropertyOp27
 70
     1
102
RTVSPropertyOp28
 70
     1
102
RTVSPropertyOp29
 70
     1
102
RTVSPropertyOp30
 70
     1
102
RTVSPropertyOp31
 70
     1
102
RTVSPropertyOp32
 70
     1
102
RTVSPropertyOp33
 70
     1
102
RTVSPropertyOp34
 70
     1
102
RTVSPropertyOp35
 70
     1
102
RTVSPropertyOp36
 70
     1
102
RTVSPropertyOp37
 70
     1
102
RTVSPropertyOp38
 70
     1
102
RTVSPropertyOp39
 70
     1
102
RTVSPropertyOp40
 70
     1
102
RTVSPropertyOp41
 70
     1
102
RTVSPropertyOp42
 70
     1
102
RTVSPropertyOp43
 70
     1
102
RTVSPropertyOp44
 70
     1
102
RTVSPropertyOp45
 70
     1
102
RTVSPropertyOp46
 70
     1
102
RTVSPropertyOp47
 70
     1
102
RTVSPropertyOp48
 70
     1
102
RTVSPropertyOp49
 70
     1
102
RTVSPropertyOp50
 70
     1
102
RTVSPropertyOp51
 70
     0
102
RTVSPropertyOp52
 70
     0
102
RTVSPropertyOp53
 70
     1
102
RTVSPropertyOp54
 70
     1
102
RTVSPropertyOp55
 70
     1
102
RTVSPropertyOp56
 70
     1
102
RTVSPropertyOp57
 70
     1
102
RTVSPropertyOp58
 70
     1
102
RTVSPropertyOp59
 70
     1
102
RTVSPropertyOp60
 70
     1
102
RTVSPropertyOp61
 70
     1
102
RTVSPropertyOp62
 70
     1
  0
XRECORD
  5
C2A0
102
{ACAD_REACTORS
330
C29F
102
}
330
C29F
100
AcDbXrecord
280
     1
102
RTVSPost2010Prop28
280
     0
102
RTVSPost2010PropOp28
 70
     1
102
RTVSPost2010Prop29
280
     1
102
RTVSPost2010PropOp29
 70
     1
102
RTVSPost2010Prop30
280
     1
102
RTVSPost2010PropOp30
 70
     1
102
RTVSPost2010Prop31
280
     0
102
RTVSPost2010PropOp31
 70
     1
102
RTVSPost2010Prop32
280
     0
102
RTVSPost2010PropOp32
 70
     1
102
RTVSPost2010Prop33
280
     0
102
RTVSPost2010PropOp33
 70
     1
102
RTVSPost2010Prop34
280
     0
102
RTVSPost2010PropOp34
 70
     1
102
RTVSPost2010Prop35
280
     0
102
RTVSPost2010PropOp35
 70
     1
102
RTVSPost2010Prop36
280
     0
102
RTVSPost2010PropOp36
 70
     1
102
RTVSPost2010Prop37
 90
       50
102
RTVSPost2010PropOp37
 70
     1
102
RTVSPost2010Prop38
140
0.0
102
RTVSPost2010PropOp38
 70
     1
102
RTVSPost2010Prop39
140
1.0
102
RTVSPost2010PropOp39
 70
     1
102
RTVSPost2010Prop40
 90
        0
102
RTVSPost2010PropOp40
 70
     1
102
RTVSPost2010Prop41ColorIndex
 90
       18
102
RTVSPost2010Prop41ColorRGB
 90
        0
102
RTVSPost2010PropOp41
 70
     1
102
RTVSPost2010Prop42
 90
       50
102
RTVSPost2010PropOp42
 70
     1
102
RTVSPost2010Prop43
 90
        3
102
RTVSPost2010PropOp43
 70
     1
102
RTVSPost2010Prop44ColorIndex
 90
        5
102
RTVSPost2010Prop44ColorRGB
 90
      255
102
RTVSPost2010PropOp44
 70
     1
102
RTVSPost2010Prop45
280
     0
102
RTVSPost2010PropOp45
 70
     1
102
RTVSPost2010Prop46
 90
       50
102
RTVSPost2010PropOp46
 70
     1
102
RTVSPost2010Prop47
 90
       50
102
RTVSPost2010PropOp47
 70
     1
102
RTVSPost2010Prop48
 90
       50
102
RTVSPost2010PropOp48
 70
     1
102
RTVSPost2010Prop49
280
     0
102
RTVSPost2010PropOp49
 70
     1
102
RTVSPost2010Prop50
 90
       50
102
RTVSPost2010PropOp50
 70
     1
102
RTVSPost2010Prop51ColorIndex
 90
      256
102
RTVSPost2010Prop51ColorRGB
 90
-16777216
102
RTVSPost2010PropOp51
 70
     0
102
RTVSPost2010Prop52
140
1.0
102
RTVSPost2010PropOp52
 70
     0
102
RTVSPost2010Prop53
 90
        2
102
RTVSPost2010PropOp53
 70
     1
102
RTVSPost2010Prop54
  1
strokes_ogs.tif
102
RTVSPost2010PropOp54
 70
     1
102
RTVSPost2010Prop55
280
     0
102
RTVSPost2010PropOp55
 70
     1
102
RTVSPost2010Prop56
140
1.0
102
RTVSPost2010PropOp56
 70
     1
102
RTVSPost2010Prop57
140
1.0
102
RTVSPost2010PropOp57
 70
     1
102
RTVSPropertyOp0
 70
     1
102
RTVSPropertyOp1
 70
     1
102
RTVSPropertyOp2
 70
     1
102
RTVSPropertyOp3
 70
     1
102
RTVSPropertyOp4
 70
     1
102
RTVSPropertyOp5
 70
     1
102
RTVSPropertyOp6
 70
     1
102
RTVSPropertyOp7
 70
     1
102
RTVSPropertyOp8
 70
     1
102
RTVSPropertyOp9
 70
     1
102
RTVSPropertyOp10
 70
     1
102
RTVSPropertyOp11
 70
     1
102
RTVSPropertyOp12
 70
     1
102
RTVSPropertyOp13
 70
     1
102
RTVSPropertyOp14
 70
     1
102
RTVSPropertyOp15
 70
     1
102
RTVSPropertyOp16
 70
     1
102
RTVSPropertyOp17
 70
     1
102
RTVSPropertyOp18
 70
     1
102
RTVSPropertyOp19
 70
     1
102
RTVSPropertyOp20
 70
     1
102
RTVSPropertyOp21
 70
     1
102
RTVSPropertyOp22
 70
     1
102
RTVSPropertyOp23
 70
     1
102
RTVSPropertyOp24
 70
     1
102
RTVSPropertyOp25
 70
     1
102
RTVSPropertyOp26
 70
     1
102
RTVSPropertyOp27
 70
     1
102
RTVSPropertyOp28
 70
     1
102
RTVSPropertyOp29
 70
     1
102
RTVSPropertyOp30
 70
     1
102
RTVSPropertyOp31
 70
     1
102
RTVSPropertyOp32
 70
     1
102
RTVSPropertyOp33
 70
     1
102
RTVSPropertyOp34
 70
     1
102
RTVSPropertyOp35
 70
     1
102
RTVSPropertyOp36
 70
     1
102
RTVSPropertyOp37
 70
     1
102
RTVSPropertyOp38
 70
     1
102
RTVSPropertyOp39
 70
     1
102
RTVSPropertyOp40
 70
     1
102
RTVSPropertyOp41
 70
     1
102
RTVSPropertyOp42
 70
     1
102
RTVSPropertyOp43
 70
     1
102
RTVSPropertyOp44
 70
     1
102
RTVSPropertyOp45
 70
     1
102
RTVSPropertyOp46
 70
     1
102
RTVSPropertyOp47
 70
     1
102
RTVSPropertyOp48
 70
     1
102
RTVSPropertyOp49
 70
     1
102
RTVSPropertyOp50
 70
     1
102
RTVSPropertyOp51
 70
     0
102
RTVSPropertyOp52
 70
     0
102
RTVSPropertyOp53
 70
     1
102
RTVSPropertyOp54
 70
     1
102
RTVSPropertyOp55
 70
     1
102
RTVSPropertyOp56
 70
     1
102
RTVSPropertyOp57
 70
     1
102
RTVSPropertyOp58
 70
     1
102
RTVSPropertyOp59
 70
     1
102
RTVSPropertyOp60
 70
     1
102
RTVSPropertyOp61
 70
     1
102
RTVSPropertyOp62
 70
     1
  0
XRECORD
  5
C29A
102
{ACAD_REACTORS
330
C299
102
}
330
C299
100
AcDbXrecord
280
     1
102
RTVSPost2010Prop28
280
     0
102
RTVSPost2010PropOp28
 70
     1
102
RTVSPost2010Prop29
280
     1
102
RTVSPost2010PropOp29
 70
     1
102
RTVSPost2010Prop30
280
     1
102
RTVSPost2010PropOp30
 70
     1
102
RTVSPost2010Prop31
280
     0
102
RTVSPost2010PropOp31
 70
     1
102
RTVSPost2010Prop32
280
     0
102
RTVSPost2010PropOp32
 70
     1
102
RTVSPost2010Prop33
280
     0
102
RTVSPost2010PropOp33
 70
     1
102
RTVSPost2010Prop34
280
     0
102
RTVSPost2010PropOp34
 70
     1
102
RTVSPost2010Prop35
280
     0
102
RTVSPost2010PropOp35
 70
     1
102
RTVSPost2010Prop36
280
     0
102
RTVSPost2010PropOp36
 70
     1
102
RTVSPost2010Prop37
 90
       50
102
RTVSPost2010PropOp37
 70
     1
102
RTVSPost2010Prop38
140
0.0
102
RTVSPost2010PropOp38
 70
     1
102
RTVSPost2010Prop39
140
1.0
102
RTVSPost2010PropOp39
 70
     1
102
RTVSPost2010Prop40
 90
        0
102
RTVSPost2010PropOp40
 70
     1
102
RTVSPost2010Prop41ColorIndex
 90
       18
102
RTVSPost2010Prop41ColorRGB
 90
        0
102
RTVSPost2010PropOp41
 70
     1
102
RTVSPost2010Prop42
 90
       50
102
RTVSPost2010PropOp42
 70
     1
102
RTVSPost2010Prop43
 90
        3
102
RTVSPost2010PropOp43
 70
     1
102
RTVSPost2010Prop44ColorIndex
 90
        5
102
RTVSPost2010Prop44ColorRGB
 90
      255
102
RTVSPost2010PropOp44
 70
     1
102
RTVSPost2010Prop45
280
     0
102
RTVSPost2010PropOp45
 70
     1
102
RTVSPost2010Prop46
 90
       50
102
RTVSPost2010PropOp46
 70
     1
102
RTVSPost2010Prop47
 90
       50
102
RTVSPost2010PropOp47
 70
     1
102
RTVSPost2010Prop48
 90
       50
102
RTVSPost2010PropOp48
 70
     1
102
RTVSPost2010Prop49
280
     0
102
RTVSPost2010PropOp49
 70
     1
102
RTVSPost2010Prop50
 90
       50
102
RTVSPost2010PropOp50
 70
     1
102
RTVSPost2010Prop51ColorIndex
 90
      256
102
RTVSPost2010Prop51ColorRGB
 90
-16777216
102
RTVSPost2010PropOp51
 70
     0
102
RTVSPost2010Prop52
140
1.0
102
RTVSPost2010PropOp52
 70
     0
102
RTVSPost2010Prop53
 90
        2
102
RTVSPost2010PropOp53
 70
     1
102
RTVSPost2010Prop54
  1
strokes_ogs.tif
102
RTVSPost2010PropOp54
 70
     1
102
RTVSPost2010Prop55
280
     0
102
RTVSPost2010PropOp55
 70
     1
102
RTVSPost2010Prop56
140
1.0
102
RTVSPost2010PropOp56
 70
     1
102
RTVSPost2010Prop57
140
1.0
102
RTVSPost2010PropOp57
 70
     1
102
RTVSPropertyOp0
 70
     1
102
RTVSPropertyOp1
 70
     1
102
RTVSPropertyOp2
 70
     1
102
RTVSPropertyOp3
 70
     1
102
RTVSPropertyOp4
 70
     1
102
RTVSPropertyOp5
 70
     1
102
RTVSPropertyOp6
 70
     1
102
RTVSPropertyOp7
 70
     1
102
RTVSPropertyOp8
 70
     1
102
RTVSPropertyOp9
 70
     1
102
RTVSPropertyOp10
 70
     1
102
RTVSPropertyOp11
 70
     1
102
RTVSPropertyOp12
 70
     1
102
RTVSPropertyOp13
 70
     1
102
RTVSPropertyOp14
 70
     1
102
RTVSPropertyOp15
 70
     1
102
RTVSPropertyOp16
 70
     1
102
RTVSPropertyOp17
 70
     1
102
RTVSPropertyOp18
 70
     1
102
RTVSPropertyOp19
 70
     1
102
RTVSPropertyOp20
 70
     1
102
RTVSPropertyOp21
 70
     1
102
RTVSPropertyOp22
 70
     1
102
RTVSPropertyOp23
 70
     1
102
RTVSPropertyOp24
 70
     1
102
RTVSPropertyOp25
 70
     1
102
RTVSPropertyOp26
 70
     1
102
RTVSPropertyOp27
 70
     1
102
RTVSPropertyOp28
 70
     1
102
RTVSPropertyOp29
 70
     1
102
RTVSPropertyOp30
 70
     1
102
RTVSPropertyOp31
 70
     1
102
RTVSPropertyOp32
 70
     1
102
RTVSPropertyOp33
 70
     1
102
RTVSPropertyOp34
 70
     1
102
RTVSPropertyOp35
 70
     1
102
RTVSPropertyOp36
 70
     1
102
RTVSPropertyOp37
 70
     1
102
RTVSPropertyOp38
 70
     1
102
RTVSPropertyOp39
 70
     1
102
RTVSPropertyOp40
 70
     1
102
RTVSPropertyOp41
 70
     1
102
RTVSPropertyOp42
 70
     1
102
RTVSPropertyOp43
 70
     1
102
RTVSPropertyOp44
 70
     1
102
RTVSPropertyOp45
 70
     1
102
RTVSPropertyOp46
 70
     1
102
RTVSPropertyOp47
 70
     1
102
RTVSPropertyOp48
 70
     1
102
RTVSPropertyOp49
 70
     1
102
RTVSPropertyOp50
 70
     1
102
RTVSPropertyOp51
 70
     0
102
RTVSPropertyOp52
 70
     0
102
RTVSPropertyOp53
 70
     1
102
RTVSPropertyOp54
 70
     1
102
RTVSPropertyOp55
 70
     1
102
RTVSPropertyOp56
 70
     1
102
RTVSPropertyOp57
 70
     1
102
RTVSPropertyOp58
 70
     1
102
RTVSPropertyOp59
 70
     1
102
RTVSPropertyOp60
 70
     1
102
RTVSPropertyOp61
 70
     1
102
RTVSPropertyOp62
 70
     1
  0
XRECORD
  5
C29C
102
{ACAD_REACTORS
330
C29B
102
}
330
C29B
100
AcDbXrecord
280
     1
102
RTVSPost2010Prop28
280
     0
102
RTVSPost2010PropOp28
 70
     1
102
RTVSPost2010Prop29
280
     1
102
RTVSPost2010PropOp29
 70
     1
102
RTVSPost2010Prop30
280
     1
102
RTVSPost2010PropOp30
 70
     1
102
RTVSPost2010Prop31
280
     0
102
RTVSPost2010PropOp31
 70
     1
102
RTVSPost2010Prop32
280
     0
102
RTVSPost2010PropOp32
 70
     1
102
RTVSPost2010Prop33
280
     0
102
RTVSPost2010PropOp33
 70
     1
102
RTVSPost2010Prop34
280
     0
102
RTVSPost2010PropOp34
 70
     1
102
RTVSPost2010Prop35
280
     0
102
RTVSPost2010PropOp35
 70
     1
102
RTVSPost2010Prop36
280
     0
102
RTVSPost2010PropOp36
 70
     1
102
RTVSPost2010Prop37
 90
       50
102
RTVSPost2010PropOp37
 70
     1
102
RTVSPost2010Prop38
140
0.0
102
RTVSPost2010PropOp38
 70
     1
102
RTVSPost2010Prop39
140
1.0
102
RTVSPost2010PropOp39
 70
     1
102
RTVSPost2010Prop40
 90
        0
102
RTVSPost2010PropOp40
 70
     1
102
RTVSPost2010Prop41ColorIndex
 90
       18
102
RTVSPost2010Prop41ColorRGB
 90
        0
102
RTVSPost2010PropOp41
 70
     1
102
RTVSPost2010Prop42
 90
       50
102
RTVSPost2010PropOp42
 70
     1
102
RTVSPost2010Prop43
 90
        3
102
RTVSPost2010PropOp43
 70
     1
102
RTVSPost2010Prop44ColorIndex
 90
        5
102
RTVSPost2010Prop44ColorRGB
 90
      255
102
RTVSPost2010PropOp44
 70
     1
102
RTVSPost2010Prop45
280
     0
102
RTVSPost2010PropOp45
 70
     1
102
RTVSPost2010Prop46
 90
       50
102
RTVSPost2010PropOp46
 70
     1
102
RTVSPost2010Prop47
 90
       50
102
RTVSPost2010PropOp47
 70
     1
102
RTVSPost2010Prop48
 90
       50
102
RTVSPost2010PropOp48
 70
     1
102
RTVSPost2010Prop49
280
     0
102
RTVSPost2010PropOp49
 70
     1
102
RTVSPost2010Prop50
 90
       50
102
RTVSPost2010PropOp50
 70
     1
102
RTVSPost2010Prop51ColorIndex
 90
      256
102
RTVSPost2010Prop51ColorRGB
 90
-16777216
102
RTVSPost2010PropOp51
 70
     0
102
RTVSPost2010Prop52
140
1.0
102
RTVSPost2010PropOp52
 70
     0
102
RTVSPost2010Prop53
 90
        2
102
RTVSPost2010PropOp53
 70
     1
102
RTVSPost2010Prop54
  1
strokes_ogs.tif
102
RTVSPost2010PropOp54
 70
     1
102
RTVSPost2010Prop55
280
     0
102
RTVSPost2010PropOp55
 70
     1
102
RTVSPost2010Prop56
140
1.0
102
RTVSPost2010PropOp56
 70
     1
102
RTVSPost2010Prop57
140
1.0
102
RTVSPost2010PropOp57
 70
     1
102
RTVSPropertyOp0
 70
     1
102
RTVSPropertyOp1
 70
     1
102
RTVSPropertyOp2
 70
     1
102
RTVSPropertyOp3
 70
     1
102
RTVSPropertyOp4
 70
     1
102
RTVSPropertyOp5
 70
     1
102
RTVSPropertyOp6
 70
     1
102
RTVSPropertyOp7
 70
     1
102
RTVSPropertyOp8
 70
     1
102
RTVSPropertyOp9
 70
     1
102
RTVSPropertyOp10
 70
     1
102
RTVSPropertyOp11
 70
     1
102
RTVSPropertyOp12
 70
     1
102
RTVSPropertyOp13
 70
     1
102
RTVSPropertyOp14
 70
     1
102
RTVSPropertyOp15
 70
     1
102
RTVSPropertyOp16
 70
     1
102
RTVSPropertyOp17
 70
     1
102
RTVSPropertyOp18
 70
     1
102
RTVSPropertyOp19
 70
     1
102
RTVSPropertyOp20
 70
     1
102
RTVSPropertyOp21
 70
     1
102
RTVSPropertyOp22
 70
     1
102
RTVSPropertyOp23
 70
     1
102
RTVSPropertyOp24
 70
     1
102
RTVSPropertyOp25
 70
     1
102
RTVSPropertyOp26
 70
     1
102
RTVSPropertyOp27
 70
     1
102
RTVSPropertyOp28
 70
     1
102
RTVSPropertyOp29
 70
     1
102
RTVSPropertyOp30
 70
     1
102
RTVSPropertyOp31
 70
     1
102
RTVSPropertyOp32
 70
     1
102
RTVSPropertyOp33
 70
     1
102
RTVSPropertyOp34
 70
     1
102
RTVSPropertyOp35
 70
     1
102
RTVSPropertyOp36
 70
     1
102
RTVSPropertyOp37
 70
     1
102
RTVSPropertyOp38
 70
     1
102
RTVSPropertyOp39
 70
     1
102
RTVSPropertyOp40
 70
     1
102
RTVSPropertyOp41
 70
     1
102
RTVSPropertyOp42
 70
     1
102
RTVSPropertyOp43
 70
     1
102
RTVSPropertyOp44
 70
     1
102
RTVSPropertyOp45
 70
     1
102
RTVSPropertyOp46
 70
     1
102
RTVSPropertyOp47
 70
     1
102
RTVSPropertyOp48
 70
     1
102
RTVSPropertyOp49
 70
     1
102
RTVSPropertyOp50
 70
     1
102
RTVSPropertyOp51
 70
     0
102
RTVSPropertyOp52
 70
     0
102
RTVSPropertyOp53
 70
     1
102
RTVSPropertyOp54
 70
     1
102
RTVSPropertyOp55
 70
     1
102
RTVSPropertyOp56
 70
     1
102
RTVSPropertyOp57
 70
     1
102
RTVSPropertyOp58
 70
     1
102
RTVSPropertyOp59
 70
     1
102
RTVSPropertyOp60
 70
     1
102
RTVSPropertyOp61
 70
     1
102
RTVSPropertyOp62
 70
     1
  0
XRECORD
  5
C292
102
{ACAD_REACTORS
330
C291
102
}
330
C291
100
AcDbXrecord
280
     1
102
RTVSPost2010Prop28
280
     0
102
RTVSPost2010PropOp28
 70
     1
102
RTVSPost2010Prop29
280
     1
102
RTVSPost2010PropOp29
 70
     1
102
RTVSPost2010Prop30
280
     1
102
RTVSPost2010PropOp30
 70
     1
102
RTVSPost2010Prop31
280
     0
102
RTVSPost2010PropOp31
 70
     1
102
RTVSPost2010Prop32
280
     0
102
RTVSPost2010PropOp32
 70
     1
102
RTVSPost2010Prop33
280
     0
102
RTVSPost2010PropOp33
 70
     1
102
RTVSPost2010Prop34
280
     0
102
RTVSPost2010PropOp34
 70
     1
102
RTVSPost2010Prop35
280
     0
102
RTVSPost2010PropOp35
 70
     1
102
RTVSPost2010Prop36
280
     0
102
RTVSPost2010PropOp36
 70
     1
102
RTVSPost2010Prop37
 90
       50
102
RTVSPost2010PropOp37
 70
     1
102
RTVSPost2010Prop38
140
0.0
102
RTVSPost2010PropOp38
 70
     1
102
RTVSPost2010Prop39
140
1.0
102
RTVSPost2010PropOp39
 70
     1
102
RTVSPost2010Prop40
 90
        0
102
RTVSPost2010PropOp40
 70
     1
102
RTVSPost2010Prop41ColorIndex
 90
       18
102
RTVSPost2010Prop41ColorRGB
 90
        0
102
RTVSPost2010PropOp41
 70
     1
102
RTVSPost2010Prop42
 90
       50
102
RTVSPost2010PropOp42
 70
     1
102
RTVSPost2010Prop43
 90
        3
102
RTVSPost2010PropOp43
 70
     1
102
RTVSPost2010Prop44ColorIndex
 90
        5
102
RTVSPost2010Prop44ColorRGB
 90
      255
102
RTVSPost2010PropOp44
 70
     1
102
RTVSPost2010Prop45
280
     0
102
RTVSPost2010PropOp45
 70
     1
102
RTVSPost2010Prop46
 90
       50
102
RTVSPost2010PropOp46
 70
     1
102
RTVSPost2010Prop47
 90
       50
102
RTVSPost2010PropOp47
 70
     1
102
RTVSPost2010Prop48
 90
       50
102
RTVSPost2010PropOp48
 70
     1
102
RTVSPost2010Prop49
280
     0
102
RTVSPost2010PropOp49
 70
     1
102
RTVSPost2010Prop50
 90
       50
102
RTVSPost2010PropOp50
 70
     1
102
RTVSPost2010Prop51ColorIndex
 90
      256
102
RTVSPost2010Prop51ColorRGB
 90
-16777216
102
RTVSPost2010PropOp51
 70
     0
102
RTVSPost2010Prop52
140
1.0
102
RTVSPost2010PropOp52
 70
     0
102
RTVSPost2010Prop53
 90
        2
102
RTVSPost2010PropOp53
 70
     1
102
RTVSPost2010Prop54
  1
strokes_ogs.tif
102
RTVSPost2010PropOp54
 70
     1
102
RTVSPost2010Prop55
280
     0
102
RTVSPost2010PropOp55
 70
     1
102
RTVSPost2010Prop56
140
1.0
102
RTVSPost2010PropOp56
 70
     1
102
RTVSPost2010Prop57
140
1.0
102
RTVSPost2010PropOp57
 70
     1
102
RTVSPropertyOp0
 70
     1
102
RTVSPropertyOp1
 70
     1
102
RTVSPropertyOp2
 70
     1
102
RTVSPropertyOp3
 70
     1
102
RTVSPropertyOp4
 70
     1
102
RTVSPropertyOp5
 70
     1
102
RTVSPropertyOp6
 70
     1
102
RTVSPropertyOp7
 70
     1
102
RTVSPropertyOp8
 70
     1
102
RTVSPropertyOp9
 70
     1
102
RTVSPropertyOp10
 70
     1
102
RTVSPropertyOp11
 70
     1
102
RTVSPropertyOp12
 70
     1
102
RTVSPropertyOp13
 70
     1
102
RTVSPropertyOp14
 70
     1
102
RTVSPropertyOp15
 70
     1
102
RTVSPropertyOp16
 70
     1
102
RTVSPropertyOp17
 70
     1
102
RTVSPropertyOp18
 70
     1
102
RTVSPropertyOp19
 70
     1
102
RTVSPropertyOp20
 70
     1
102
RTVSPropertyOp21
 70
     1
102
RTVSPropertyOp22
 70
     1
102
RTVSPropertyOp23
 70
     1
102
RTVSPropertyOp24
 70
     1
102
RTVSPropertyOp25
 70
     1
102
RTVSPropertyOp26
 70
     1
102
RTVSPropertyOp27
 70
     1
102
RTVSPropertyOp28
 70
     1
102
RTVSPropertyOp29
 70
     1
102
RTVSPropertyOp30
 70
     1
102
RTVSPropertyOp31
 70
     1
102
RTVSPropertyOp32
 70
     1
102
RTVSPropertyOp33
 70
     1
102
RTVSPropertyOp34
 70
     1
102
RTVSPropertyOp35
 70
     1
102
RTVSPropertyOp36
 70
     1
102
RTVSPropertyOp37
 70
     1
102
RTVSPropertyOp38
 70
     1
102
RTVSPropertyOp39
 70
     1
102
RTVSPropertyOp40
 70
     1
102
RTVSPropertyOp41
 70
     1
102
RTVSPropertyOp42
 70
     1
102
RTVSPropertyOp43
 70
     1
102
RTVSPropertyOp44
 70
     1
102
RTVSPropertyOp45
 70
     1
102
RTVSPropertyOp46
 70
     1
102
RTVSPropertyOp47
 70
     1
102
RTVSPropertyOp48
 70
     1
102
RTVSPropertyOp49
 70
     1
102
RTVSPropertyOp50
 70
     1
102
RTVSPropertyOp51
 70
     0
102
RTVSPropertyOp52
 70
     0
102
RTVSPropertyOp53
 70
     1
102
RTVSPropertyOp54
 70
     1
102
RTVSPropertyOp55
 70
     1
102
RTVSPropertyOp56
 70
     1
102
RTVSPropertyOp57
 70
     1
102
RTVSPropertyOp58
 70
     1
102
RTVSPropertyOp59
 70
     1
102
RTVSPropertyOp60
 70
     1
102
RTVSPropertyOp61
 70
     1
102
RTVSPropertyOp62
 70
     1
  0
XRECORD
  5
C286
102
{ACAD_REACTORS
330
C285
102
}
330
C285
100
AcDbXrecord
280
     1
102
RTVSPost2010Prop28
280
     0
102
RTVSPost2010PropOp28
 70
     1
102
RTVSPost2010Prop29
280
     1
102
RTVSPost2010PropOp29
 70
     1
102
RTVSPost2010Prop30
280
     1
102
RTVSPost2010PropOp30
 70
     1
102
RTVSPost2010Prop31
280
     0
102
RTVSPost2010PropOp31
 70
     1
102
RTVSPost2010Prop32
280
     0
102
RTVSPost2010PropOp32
 70
     1
102
RTVSPost2010Prop33
280
     0
102
RTVSPost2010PropOp33
 70
     1
102
RTVSPost2010Prop34
280
     0
102
RTVSPost2010PropOp34
 70
     1
102
RTVSPost2010Prop35
280
     0
102
RTVSPost2010PropOp35
 70
     1
102
RTVSPost2010Prop36
280
     0
102
RTVSPost2010PropOp36
 70
     1
102
RTVSPost2010Prop37
 90
       50
102
RTVSPost2010PropOp37
 70
     1
102
RTVSPost2010Prop38
140
0.0
102
RTVSPost2010PropOp38
 70
     1
102
RTVSPost2010Prop39
140
1.0
102
RTVSPost2010PropOp39
 70
     1
102
RTVSPost2010Prop40
 90
        0
102
RTVSPost2010PropOp40
 70
     1
102
RTVSPost2010Prop41ColorIndex
 90
       18
102
RTVSPost2010Prop41ColorRGB
 90
        0
102
RTVSPost2010PropOp41
 70
     1
102
RTVSPost2010Prop42
 90
       50
102
RTVSPost2010PropOp42
 70
     1
102
RTVSPost2010Prop43
 90
        3
102
RTVSPost2010PropOp43
 70
     1
102
RTVSPost2010Prop44ColorIndex
 90
        5
102
RTVSPost2010Prop44ColorRGB
 90
      255
102
RTVSPost2010PropOp44
 70
     1
102
RTVSPost2010Prop45
280
     0
102
RTVSPost2010PropOp45
 70
     1
102
RTVSPost2010Prop46
 90
       50
102
RTVSPost2010PropOp46
 70
     1
102
RTVSPost2010Prop47
 90
       50
102
RTVSPost2010PropOp47
 70
     1
102
RTVSPost2010Prop48
 90
       50
102
RTVSPost2010PropOp48
 70
     1
102
RTVSPost2010Prop49
280
     0
102
RTVSPost2010PropOp49
 70
     1
102
RTVSPost2010Prop50
 90
       50
102
RTVSPost2010PropOp50
 70
     1
102
RTVSPost2010Prop51ColorIndex
 90
      256
102
RTVSPost2010Prop51ColorRGB
 90
-16777216
102
RTVSPost2010PropOp51
 70
     0
102
RTVSPost2010Prop52
140
1.0
102
RTVSPost2010PropOp52
 70
     0
102
RTVSPost2010Prop53
 90
        2
102
RTVSPost2010PropOp53
 70
     1
102
RTVSPost2010Prop54
  1
strokes_ogs.tif
102
RTVSPost2010PropOp54
 70
     1
102
RTVSPost2010Prop55
280
     0
102
RTVSPost2010PropOp55
 70
     1
102
RTVSPost2010Prop56
140
1.0
102
RTVSPost2010PropOp56
 70
     1
102
RTVSPost2010Prop57
140
1.0
102
RTVSPost2010PropOp57
 70
     1
102
RTVSPropertyOp0
 70
     1
102
RTVSPropertyOp1
 70
     1
102
RTVSPropertyOp2
 70
     1
102
RTVSPropertyOp3
 70
     1
102
RTVSPropertyOp4
 70
     1
102
RTVSPropertyOp5
 70
     1
102
RTVSPropertyOp6
 70
     1
102
RTVSPropertyOp7
 70
     1
102
RTVSPropertyOp8
 70
     1
102
RTVSPropertyOp9
 70
     1
102
RTVSPropertyOp10
 70
     1
102
RTVSPropertyOp11
 70
     1
102
RTVSPropertyOp12
 70
     1
102
RTVSPropertyOp13
 70
     1
102
RTVSPropertyOp14
 70
     1
102
RTVSPropertyOp15
 70
     1
102
RTVSPropertyOp16
 70
     1
102
RTVSPropertyOp17
 70
     1
102
RTVSPropertyOp18
 70
     1
102
RTVSPropertyOp19
 70
     1
102
RTVSPropertyOp20
 70
     1
102
RTVSPropertyOp21
 70
     1
102
RTVSPropertyOp22
 70
     1
102
RTVSPropertyOp23
 70
     1
102
RTVSPropertyOp24
 70
     1
102
RTVSPropertyOp25
 70
     1
102
RTVSPropertyOp26
 70
     1
102
RTVSPropertyOp27
 70
     1
102
RTVSPropertyOp28
 70
     1
102
RTVSPropertyOp29
 70
     1
102
RTVSPropertyOp30
 70
     1
102
RTVSPropertyOp31
 70
     1
102
RTVSPropertyOp32
 70
     1
102
RTVSPropertyOp33
 70
     1
102
RTVSPropertyOp34
 70
     1
102
RTVSPropertyOp35
 70
     1
102
RTVSPropertyOp36
 70
     1
102
RTVSPropertyOp37
 70
     1
102
RTVSPropertyOp38
 70
     1
102
RTVSPropertyOp39
 70
     1
102
RTVSPropertyOp40
 70
     1
102
RTVSPropertyOp41
 70
     1
102
RTVSPropertyOp42
 70
     1
102
RTVSPropertyOp43
 70
     1
102
RTVSPropertyOp44
 70
     1
102
RTVSPropertyOp45
 70
     1
102
RTVSPropertyOp46
 70
     1
102
RTVSPropertyOp47
 70
     1
102
RTVSPropertyOp48
 70
     1
102
RTVSPropertyOp49
 70
     1
102
RTVSPropertyOp50
 70
     1
102
RTVSPropertyOp51
 70
     0
102
RTVSPropertyOp52
 70
     0
102
RTVSPropertyOp53
 70
     1
102
RTVSPropertyOp54
 70
     1
102
RTVSPropertyOp55
 70
     1
102
RTVSPropertyOp56
 70
     1
102
RTVSPropertyOp57
 70
     1
102
RTVSPropertyOp58
 70
     1
102
RTVSPropertyOp59
 70
     1
102
RTVSPropertyOp60
 70
     1
102
RTVSPropertyOp61
 70
     1
102
RTVSPropertyOp62
 70
     1
  0
XRECORD
  5
C29E
102
{ACAD_REACTORS
330
C29D
102
}
330
C29D
100
AcDbXrecord
280
     1
102
RTVSPost2010Prop28
280
     0
102
RTVSPost2010PropOp28
 70
     1
102
RTVSPost2010Prop29
280
     1
102
RTVSPost2010PropOp29
 70
     1
102
RTVSPost2010Prop30
280
     1
102
RTVSPost2010PropOp30
 70
     1
102
RTVSPost2010Prop31
280
     0
102
RTVSPost2010PropOp31
 70
     1
102
RTVSPost2010Prop32
280
     0
102
RTVSPost2010PropOp32
 70
     1
102
RTVSPost2010Prop33
280
     0
102
RTVSPost2010PropOp33
 70
     1
102
RTVSPost2010Prop34
280
     0
102
RTVSPost2010PropOp34
 70
     1
102
RTVSPost2010Prop35
280
     0
102
RTVSPost2010PropOp35
 70
     1
102
RTVSPost2010Prop36
280
     0
102
RTVSPost2010PropOp36
 70
     1
102
RTVSPost2010Prop37
 90
       50
102
RTVSPost2010PropOp37
 70
     1
102
RTVSPost2010Prop38
140
0.0
102
RTVSPost2010PropOp38
 70
     1
102
RTVSPost2010Prop39
140
1.0
102
RTVSPost2010PropOp39
 70
     1
102
RTVSPost2010Prop40
 90
        0
102
RTVSPost2010PropOp40
 70
     1
102
RTVSPost2010Prop41ColorIndex
 90
       18
102
RTVSPost2010Prop41ColorRGB
 90
        0
102
RTVSPost2010PropOp41
 70
     1
102
RTVSPost2010Prop42
 90
       50
102
RTVSPost2010PropOp42
 70
     1
102
RTVSPost2010Prop43
 90
        3
102
RTVSPost2010PropOp43
 70
     1
102
RTVSPost2010Prop44ColorIndex
 90
        5
102
RTVSPost2010Prop44ColorRGB
 90
      255
102
RTVSPost2010PropOp44
 70
     1
102
RTVSPost2010Prop45
280
     0
102
RTVSPost2010PropOp45
 70
     1
102
RTVSPost2010Prop46
 90
       50
102
RTVSPost2010PropOp46
 70
     1
102
RTVSPost2010Prop47
 90
       50
102
RTVSPost2010PropOp47
 70
     1
102
RTVSPost2010Prop48
 90
       50
102
RTVSPost2010PropOp48
 70
     1
102
RTVSPost2010Prop49
280
     0
102
RTVSPost2010PropOp49
 70
     1
102
RTVSPost2010Prop50
 90
       50
102
RTVSPost2010PropOp50
 70
     1
102
RTVSPost2010Prop51ColorIndex
 90
      256
102
RTVSPost2010Prop51ColorRGB
 90
-16777216
102
RTVSPost2010PropOp51
 70
     0
102
RTVSPost2010Prop52
140
1.0
102
RTVSPost2010PropOp52
 70
     0
102
RTVSPost2010Prop53
 90
        2
102
RTVSPost2010PropOp53
 70
     1
102
RTVSPost2010Prop54
  1
strokes_ogs.tif
102
RTVSPost2010PropOp54
 70
     1
102
RTVSPost2010Prop55
280
     0
102
RTVSPost2010PropOp55
 70
     1
102
RTVSPost2010Prop56
140
1.0
102
RTVSPost2010PropOp56
 70
     1
102
RTVSPost2010Prop57
140
1.0
102
RTVSPost2010PropOp57
 70
     1
102
RTVSPropertyOp0
 70
     1
102
RTVSPropertyOp1
 70
     1
102
RTVSPropertyOp2
 70
     1
102
RTVSPropertyOp3
 70
     1
102
RTVSPropertyOp4
 70
     1
102
RTVSPropertyOp5
 70
     1
102
RTVSPropertyOp6
 70
     1
102
RTVSPropertyOp7
 70
     1
102
RTVSPropertyOp8
 70
     1
102
RTVSPropertyOp9
 70
     1
102
RTVSPropertyOp10
 70
     1
102
RTVSPropertyOp11
 70
     1
102
RTVSPropertyOp12
 70
     1
102
RTVSPropertyOp13
 70
     1
102
RTVSPropertyOp14
 70
     1
102
RTVSPropertyOp15
 70
     1
102
RTVSPropertyOp16
 70
     1
102
RTVSPropertyOp17
 70
     1
102
RTVSPropertyOp18
 70
     1
102
RTVSPropertyOp19
 70
     1
102
RTVSPropertyOp20
 70
     1
102
RTVSPropertyOp21
 70
     1
102
RTVSPropertyOp22
 70
     1
102
RTVSPropertyOp23
 70
     1
102
RTVSPropertyOp24
 70
     1
102
RTVSPropertyOp25
 70
     1
102
RTVSPropertyOp26
 70
     1
102
RTVSPropertyOp27
 70
     1
102
RTVSPropertyOp28
 70
     1
102
RTVSPropertyOp29
 70
     1
102
RTVSPropertyOp30
 70
     1
102
RTVSPropertyOp31
 70
     1
102
RTVSPropertyOp32
 70
     1
102
RTVSPropertyOp33
 70
     1
102
RTVSPropertyOp34
 70
     1
102
RTVSPropertyOp35
 70
     1
102
RTVSPropertyOp36
 70
     1
102
RTVSPropertyOp37
 70
     1
102
RTVSPropertyOp38
 70
     1
102
RTVSPropertyOp39
 70
     1
102
RTVSPropertyOp40
 70
     1
102
RTVSPropertyOp41
 70
     1
102
RTVSPropertyOp42
 70
     1
102
RTVSPropertyOp43
 70
     1
102
RTVSPropertyOp44
 70
     1
102
RTVSPropertyOp45
 70
     1
102
RTVSPropertyOp46
 70
     1
102
RTVSPropertyOp47
 70
     1
102
RTVSPropertyOp48
 70
     1
102
RTVSPropertyOp49
 70
     1
102
RTVSPropertyOp50
 70
     1
102
RTVSPropertyOp51
 70
     0
102
RTVSPropertyOp52
 70
     0
102
RTVSPropertyOp53
 70
     1
102
RTVSPropertyOp54
 70
     1
102
RTVSPropertyOp55
 70
     1
102
RTVSPropertyOp56
 70
     1
102
RTVSPropertyOp57
 70
     1
102
RTVSPropertyOp58
 70
     1
102
RTVSPropertyOp59
 70
     1
102
RTVSPropertyOp60
 70
     1
102
RTVSPropertyOp61
 70
     1
102
RTVSPropertyOp62
 70
     1
  0
ENDSEC
  0
EOF
