  0
SECTION
  2
HEADER
  9
$ACADVER
  1
AC1015
  9
$ACADMAINTVER
 70
    20
  9
$DWGCODEPAGE
  3
ANSI_932
  9
$INSBASE
 10
0.0
 20
0.0
 30
0.0
  9
$EXTMIN
 10
10.0
 20
9.999999999999998
 30
0.0
  9
$EXTMAX
 10
359.5617799999998
 20
305.636462
 30
0.0
  9
$LIMMIN
 10
0.0
 20
0.0
  9
$LIMMAX
 10
495.0
 20
341.25
  9
$ORTHOMODE
 70
     1
  9
$REGENMODE
 70
     1
  9
$FILLMODE
 70
     1
  9
$QTEXTMODE
 70
     0
  9
$MIRRTEXT
 70
     1
  9
$LTSCALE
 40
20.0
  9
$ATTMODE
 70
     1
  9
$TEXTSIZE
 40
5.0
  9
$TRACEWID
 40
1.0
  9
$TEXTSTYLE
  7
STANDARD
  9
$CLAYER
  8
0
  9
$CELTYPE
  6
BYLAYER
  9
$CECOLOR
 62
   256
  9
$CELTSCALE
 40
1.0
  9
$DISPSILH
 70
     0
  9
$DIMSCALE
 40
1.0
  9
$DIMASZ
 40
3.0
  9
$DIMEXO
 40
1.0
  9
$DIMDLI
 40
10.0
  9
$DIMRND
 40
0.0
  9
$DIMDLE
 40
0.0
  9
$DIMEXE
 40
1.0
  9
$DIMTP
 40
0.0
  9
$DIMTM
 40
0.0
  9
$DIMTXT
 40
3.2
  9
$DIMCEN
 40
0.0
  9
$DIMTSZ
 40
0.0
  9
$DIMTOL
 70
     0
  9
$DIMLIM
 70
     0
  9
$DIMTIH
 70
     0
  9
$DIMTOH
 70
     0
  9
$DIMSE1
 70
     0
  9
$DIMSE2
 70
     0
  9
$DIMTAD
 70
     3
  9
$DIMZIN
 70
     8
  9
$DIMBLK
  1

  9
$DIMASO
 70
     1
  9
$DIMSHO
 70
     1
  9
$DIMPOST
  1

  9
$DIMAPOST
  1

  9
$DIMALT
 70
     0
  9
$DIMALTD
 70
     2
  9
$DIMALTF
 40
25.4
  9
$DIMLFAC
 40
1.0
  9
$DIMTOFL
 70
     1
  9
$DIMTVP
 40
0.0
  9
$DIMTIX
 70
     0
  9
$DIMSOXD
 70
     0
  9
$DIMSAH
 70
     1
  9
$DIMBLK1
  1
OPEN
  9
$DIMBLK2
  1
OPEN
  9
$DIMSTYLE
  2
STANDARD
  9
$DIMCLRD
 70
     0
  9
$DIMCLRE
 70
     0
  9
$DIMCLRT
 70
     0
  9
$DIMTFAC
 40
1.0
  9
$DIMGAP
 40
1.0
  9
$DIMJUST
 70
     0
  9
$DIMSD1
 70
     0
  9
$DIMSD2
 70
     0
  9
$DIMTOLJ
 70
     1
  9
$DIMTZIN
 70
     0
  9
$DIMALTZ
 70
     0
  9
$DIMALTTZ
 70
     0
  9
$DIMUPT
 70
     0
  9
$DIMDEC
 70
     4
  9
$DIMTDEC
 70
     4
  9
$DIMALTU
 70
     2
  9
$DIMALTTD
 70
     2
  9
$DIMTXSTY
  7
STANDARD
  9
$DIMAUNIT
 70
     0
  9
$DIMADEC
 70
     0
  9
$DIMALTRND
 40
0.0
  9
$DIMAZIN
 70
     0
  9
$DIMDSEP
 70
    46
  9
$DIMATFIT
 70
     3
  9
$DIMFRAC
 70
     0
  9
$DIMLDRBLK
  1
OPEN
  9
$DIMLUNIT
 70
     2
  9
$DIMLWD
 70
    -2
  9
$DIMLWE
 70
    -2
  9
$DIMTMOVE
 70
     0
  9
$LUNITS
 70
     2
  9
$LUPREC
 70
     4
  9
$SKETCHINC
 40
1.0
  9
$FILLETRAD
 40
0.0
  9
$AUNITS
 70
     0
  9
$AUPREC
 70
     2
  9
$MENU
  1
.
  9
$ELEVATION
 40
0.0
  9
$PELEVATION
 40
0.0
  9
$THICKNESS
 40
0.0
  9
$LIMCHECK
 70
     0
  9
$CHAMFERA
 40
10.0
  9
$CHAMFERB
 40
10.0
  9
$CHAMFERC
 40
0.0
  9
$CHAMFERD
 40
0.0
  9
$SKPOLY
 70
     0
  9
$TDCREATE
 40
2451302.666827199
  9
$TDUCREATE
 40
2451302.291827199
  9
$TDUPDATE
 40
2457192.687893044
  9
$TDUUPDATE
 40
2457192.312893044
  9
$TDINDWG
 40
0.0000102083
  9
$TDUSRTIMER
 40
0.0000100810
  9
$USRTIMER
 70
     1
  9
$ANGBASE
 50
0.0
  9
$ANGDIR
 70
     0
  9
$PDMODE
 70
     0
  9
$PDSIZE
 40
0.0
  9
$PLINEWID
 40
0.0
  9
$SPLFRAME
 70
     0
  9
$SPLINETYPE
 70
     6
  9
$SPLINESEGS
 70
     8
  9
$HANDSEED
  5
B19C
  9
$SURFTAB1
 70
     6
  9
$SURFTAB2
 70
     6
  9
$SURFTYPE
 70
     6
  9
$SURFU
 70
     6
  9
$SURFV
 70
     6
  9
$UCSBASE
  2

  9
$UCSNAME
  2

  9
$UCSORG
 10
0.0
 20
0.0
 30
0.0
  9
$UCSXDIR
 10
1.0
 20
0.0
 30
0.0
  9
$UCSYDIR
 10
0.0
 20
1.0
 30
0.0
  9
$UCSORTHOREF
  2

  9
$UCSORTHOVIEW
 70
     0
  9
$UCSORGTOP
 10
0.0
 20
0.0
 30
0.0
  9
$UCSORGBOTTOM
 10
0.0
 20
0.0
 30
0.0
  9
$UCSORGLEFT
 10
0.0
 20
0.0
 30
0.0
  9
$UCSORGRIGHT
 10
0.0
 20
0.0
 30
0.0
  9
$UCSORGFRONT
 10
0.0
 20
0.0
 30
0.0
  9
$UCSORGBACK
 10
0.0
 20
0.0
 30
0.0
  9
$PUCSBASE
  2

  9
$PUCSNAME
  2

  9
$PUCSORG
 10
0.0
 20
0.0
 30
0.0
  9
$PUCSXDIR
 10
1.0
 20
0.0
 30
0.0
  9
$PUCSYDIR
 10
0.0
 20
1.0
 30
0.0
  9
$PUCSORTHOREF
  2

  9
$PUCSORTHOVIEW
 70
     0
  9
$PUCSORGTOP
 10
0.0
 20
0.0
 30
0.0
  9
$PUCSORGBOTTOM
 10
0.0
 20
0.0
 30
0.0
  9
$PUCSORGLEFT
 10
0.0
 20
0.0
 30
0.0
  9
$PUCSORGRIGHT
 10
0.0
 20
0.0
 30
0.0
  9
$PUCSORGFRONT
 10
0.0
 20
0.0
 30
0.0
  9
$PUCSORGBACK
 10
0.0
 20
0.0
 30
0.0
  9
$USERI1
 70
     0
  9
$USERI2
 70
     0
  9
$USERI3
 70
     0
  9
$USERI4
 70
     0
  9
$USERI5
 70
     0
  9
$USERR1
 40
0.0
  9
$USERR2
 40
0.0
  9
$USERR3
 40
0.0
  9
$USERR4
 40
0.0
  9
$USERR5
 40
0.0
  9
$WORLDVIEW
 70
     1
  9
$SHADEDGE
 70
     3
  9
$SHADEDIF
 70
    70
  9
$TILEMODE
 70
     1
  9
$MAXACTVP
 70
    16
  9
$PINSBASE
 10
0.0
 20
0.0
 30
0.0
  9
$PLIMCHECK
 70
     0
  9
$PEXTMIN
 10
1.000000000000000E+20
 20
1.000000000000000E+20
 30
1.000000000000000E+20
  9
$PEXTMAX
 10
-1.000000000000000E+20
 20
-1.000000000000000E+20
 30
-1.000000000000000E+20
  9
$PLIMMIN
 10
0.0
 20
0.0
  9
$PLIMMAX
 10
420.0
 20
297.0
  9
$UNITMODE
 70
     0
  9
$VISRETAIN
 70
     0
  9
$PLINEGEN
 70
     0
  9
$PSLTSCALE
 70
     0
  9
$TREEDEPTH
 70
  3020
  9
$CMLSTYLE
  2
STANDARD
  9
$CMLJUST
 70
     0
  9
$CMLSCALE
 40
1.0
  9
$PROXYGRAPHICS
 70
     1
  9
$MEASUREMENT
 70
     0
  9
$CELWEIGHT
370
    -1
  9
$ENDCAPS
280
     0
  9
$JOINSTYLE
280
     0
  9
$LWDISPLAY
290
     0
  9
$INSUNITS
 70
     0
  9
$HYPERLINKBASE
  1

  9
$STYLESHEET
  1

  9
$XEDIT
290
     1
  9
$CEPSNTYPE
380
     0
  9
$PSTYLEMODE
290
     1
  9
$FINGERPRINTGUID
  2
{156D6EA8-9184-4F87-9B1E-C47B0ACA2B1A}
  9
$VERSIONGUID
  2
{BA5A57CD-AEFA-4A3D-B1FB-3F90D1DF3C79}
  9
$EXTNAMES
290
     1
  9
$PSVPSCALE
 40
0.0
  9
$OLESTARTUP
290
     0
  0
ENDSEC
  0
SECTION
  2
CLASSES
  0
CLASS
  1
ACDBDICTIONARYWDFLT
  2
AcDbDictionaryWithDefault
  3
ObjectDBX Classes
 90
        0
280
     0
281
     0
  0
CLASS
  1
ACDBPLACEHOLDER
  2
AcDbPlaceHolder
  3
ObjectDBX Classes
 90
        0
280
     0
281
     0
  0
CLASS
  1
LAYOUT
  2
AcDbLayout
  3
ObjectDBX Classes
 90
        0
280
     0
281
     0
  0
CLASS
  1
DICTIONARYVAR
  2
AcDbDictionaryVar
  3
ObjectDBX Classes
 90
        0
280
     0
281
     0
  0
CLASS
  1
MATERIAL
  2
AcDbMaterial
  3
ObjectDBX Classes
 90
     1153
280
     0
281
     0
  0
CLASS
  1
VISUALSTYLE
  2
AcDbVisualStyle
  3
ObjectDBX Classes
 90
     4095
280
     0
281
     0
  0
CLASS
  1
TABLESTYLE
  2
AcDbTableStyle
  3
ObjectDBX Classes
 90
     4095
280
     0
281
     0
  0
CLASS
  1
SCALE
  2
AcDbScale
  3
ObjectDBX Classes
 90
     1153
280
     0
281
     0
  0
CLASS
  1
MLEADERSTYLE
  2
AcDbMLeaderStyle
  3
ACDB_MLEADERSTYLE_CLASS
 90
     4095
280
     0
281
     0
  0
CLASS
  1
ACDBSECTIONVIEWSTYLE
  2
AcDbSectionViewStyle
  3
ObjectDBX Classes
 90
     1025
280
     0
281
     0
  0
CLASS
  1
ACDBDETAILVIEWSTYLE
  2
AcDbDetailViewStyle
  3
ObjectDBX Classes
 90
     1025
280
     0
281
     0
  0
CLASS
  1
CELLSTYLEMAP
  2
AcDbCellStyleMap
  3
ObjectDBX Classes
 90
     1152
280
     0
281
     0
  0
ENDSEC
  0
SECTION
  2
TABLES
  0
TABLE
  2
VPORT
  5
AE82
330
0
100
AcDbSymbolTable
 70
     1
  0
VPORT
  5
B0E5
330
AE82
100
AcDbSymbolTableRecord
100
AcDbViewportTableRecord
  2
*ACTIVE
 70
     0
 10
0.0
 20
0.0
 11
1.0
 21
1.0
 12
274.3395439076879
 22
157.8156288313802
 13
0.0
 23
0.0
 14
10.0
 24
10.0
 15
10.0
 25
10.0
 16
0.0
 26
0.0
 36
1.0
 17
0.0
 27
0.0
 37
0.0
 40
298.9238949233788
 41
2.35006605019815
 42
50.0
 43
0.0
 44
0.0
 50
0.0
 51
0.0
 71
     0
 72
   100
 73
     1
 74
     0
 75
     0
 76
     0
 77
     0
 78
     0
281
     0
 65
     1
110
0.0
120
0.0
130
0.0
111
1.0
121
0.0
131
0.0
112
0.0
122
1.0
132
0.0
 79
     0
146
0.0
1001
ACAD_NAV_VCDISPLAY
1070
     3
  0
ENDTAB
  0
TABLE
  2
LTYPE
  5
AE7F
330
0
100
AcDbSymbolTable
 70
     4
  0
LTYPE
  5
AE8D
330
AE7F
100
AcDbSymbolTableRecord
100
AcDbLinetypeTableRecord
  2
BYBLOCK
 70
     0
  3

 72
    65
 73
     0
 40
0.0
  0
LTYPE
  5
AE8E
330
AE7F
100
AcDbSymbolTableRecord
100
AcDbLinetypeTableRecord
  2
BYLAYER
 70
     0
  3

 72
    65
 73
     0
 40
0.0
  0
LTYPE
  5
AE8F
330
AE7F
100
AcDbSymbolTableRecord
100
AcDbLinetypeTableRecord
  2
CONTINUOUS
 70
     0
  3
Solid line
 72
    65
 73
     0
 40
0.0
  0
LTYPE
  5
AE9D
330
AE7F
100
AcDbSymbolTableRecord
100
AcDbLinetypeTableRecord
  2
DASHED
 70
     0
  3
__ __ __ __ __ __ __ __ __ __ __ __ __ __ __ __
 72
    65
 73
     2
 40
0.75
 49
0.5
 74
     0
 49
-0.25
 74
     0
  0
LTYPE
  5
AE9E
330
AE7F
100
AcDbSymbolTableRecord
100
AcDbLinetypeTableRecord
  2
CENTER
 70
     0
  3
____ _ ____ _ ____ _ ____ _ ____ _ ____ _ ____ 
 72
    65
 73
     4
 40
2.0
 49
1.25
 74
     0
 49
-0.25
 74
     0
 49
0.25
 74
     0
 49
-0.25
 74
     0
  0
LTYPE
  5
AE9F
330
AE7F
100
AcDbSymbolTableRecord
100
AcDbLinetypeTableRecord
  2
PHANTOM
 70
     0
  3
______  __  __  ______  __  __  ______  __  __ 
 72
    65
 73
     6
 40
2.5
 49
1.25
 74
     0
 49
-0.25
 74
     0
 49
0.25
 74
     0
 49
-0.25
 74
     0
 49
0.25
 74
     0
 49
-0.25
 74
     0
  0
ENDTAB
  0
TABLE
  2
LAYER
  5
AE7C
330
0
100
AcDbSymbolTable
 70
     8
  0
LAYER
  5
AE8A
102
{ACAD_XDICTIONARY
360
B140
102
}
330
AE7C
100
AcDbSymbolTableRecord
100
AcDbLayerTableRecord
  2
0
 70
     0
 62
     7
  6
CONTINUOUS
370
    -3
390
B0EE
  0
LAYER
  5
AEA0
102
{ACAD_XDICTIONARY
360
B142
102
}
330
AE7C
100
AcDbSymbolTableRecord
100
AcDbLayerTableRecord
  2
4
 70
     0
 62
     1
  6
CENTER
370
    -3
390
B0EE
  0
LAYER
  5
AEA1
102
{ACAD_XDICTIONARY
360
B144
102
}
330
AE7C
100
AcDbSymbolTableRecord
100
AcDbLayerTableRecord
  2
5
 70
     0
 62
     6
  6
PHANTOM
370
    -3
390
B0EE
  0
LAYER
  5
AEA2
102
{ACAD_XDICTIONARY
360
B146
102
}
330
AE7C
100
AcDbSymbolTableRecord
100
AcDbLayerTableRecord
  2
1
 70
     0
 62
     7
  6
CONTINUOUS
370
    -3
390
B0EE
  0
LAYER
  5
AEA3
102
{ACAD_XDICTIONARY
360
B148
102
}
330
AE7C
100
AcDbSymbolTableRecord
100
AcDbLayerTableRecord
  2
2
 70
     0
 62
     4
  6
CONTINUOUS
370
    -3
390
B0EE
  0
LAYER
  5
AEA4
102
{ACAD_XDICTIONARY
360
B14A
102
}
330
AE7C
100
AcDbSymbolTableRecord
100
AcDbLayerTableRecord
  2
3
 70
     0
 62
     2
  6
DASHED
370
    -3
390
B0EE
  0
LAYER
  5
AEA5
102
{ACAD_XDICTIONARY
360
B14C
102
}
330
AE7C
100
AcDbSymbolTableRecord
100
AcDbLayerTableRecord
  2
6
 70
     0
 62
     5
  6
CONTINUOUS
370
    -3
390
B0EE
  0
LAYER
  5
AEA6
102
{ACAD_XDICTIONARY
360
B14E
102
}
330
AE7C
100
AcDbSymbolTableRecord
100
AcDbLayerTableRecord
  2
7
 70
     0
 62
     3
  6
CONTINUOUS
370
    -3
390
B0EE
  0
ENDTAB
  0
TABLE
  2
STYLE
  5
AE7D
330
0
100
AcDbSymbolTable
 70
     1
  0
STYLE
  5
AE8B
330
AE7D
100
AcDbSymbolTableRecord
100
AcDbTextStyleTableRecord
  2
STANDARD
 70
     0
 40
0.0
 41
1.0
 50
0.0
 71
     0
 42
5.0
  3
txt
  4

  0
ENDTAB
  0
TABLE
  2
VIEW
  5
AE80
330
0
100
AcDbSymbolTable
 70
     0
  0
ENDTAB
  0
TABLE
  2
UCS
  5
AE81
330
0
100
AcDbSymbolTable
 70
     0
  0
ENDTAB
  0
TABLE
  2
APPID
  5
AE83
330
0
100
AcDbSymbolTable
 70
     3
  0
APPID
  5
AE8C
330
AE83
100
AcDbSymbolTableRecord
100
AcDbRegAppTableRecord
  2
ACAD
 70
     0
  0
APPID
  5
B15A
330
AE83
100
AcDbSymbolTableRecord
100
AcDbRegAppTableRecord
  2
ACAD_NAV_VCDISPLAY
 70
     0
  0
APPID
  5
B193
330
AE83
100
AcDbSymbolTableRecord
100
AcDbRegAppTableRecord
  2
ACAD_MLEADERVER
 70
     0
  0
ENDTAB
  0
TABLE
  2
DIMSTYLE
  5
AE84
330
0
100
AcDbSymbolTable
 70
     1
100
AcDbDimStyleTable
 71
     0
  0
DIMSTYLE
105
AEA8
330
AE84
100
AcDbSymbolTableRecord
100
AcDbDimStyleTableRecord
  2
STANDARD
 70
     0
 41
3.0
 42
1.0
 43
10.0
 44
1.0
 73
     0
 74
     0
 77
     3
 78
     8
140
3.2
141
0.0
147
1.0
172
     1
173
     1
284
     8
285
     8
286
     8
340
AE8B
  0
ENDTAB
  0
TABLE
  2
BLOCK_RECORD
  5
AE7B
330
0
100
AcDbSymbolTable
 70
     1
  0
BLOCK_RECORD
  5
AE98
102
{ACAD_XDICTIONARY
360
B0E8
102
}
330
AE7B
100
AcDbSymbolTableRecord
100
AcDbBlockTableRecord
  2
*MODEL_SPACE
340
B13C
  0
BLOCK_RECORD
  5
AE94
102
{ACAD_XDICTIONARY
360
B0E6
102
}
330
AE7B
100
AcDbSymbolTableRecord
100
AcDbBlockTableRecord
  2
*PAPER_SPACE
340
B13D
  0
BLOCK_RECORD
  5
AEB0
330
AE7B
100
AcDbSymbolTableRecord
100
AcDbBlockTableRecord
  2
_OPEN
340
0
  0
ENDTAB
  0
ENDSEC
  0
SECTION
  2
BLOCKS
  0
BLOCK
  5
AE99
330
AE98
100
AcDbEntity
  8
0
100
AcDbBlockBegin
  2
*MODEL_SPACE
 70
     0
 10
0.0
 20
0.0
 30
0.0
  3
*MODEL_SPACE
  1

  0
ENDBLK
  5
AE9A
330
AE98
100
AcDbEntity
  8
0
100
AcDbBlockEnd
  0
BLOCK
  5
AE95
330
AE94
100
AcDbEntity
 67
     1
  8
0
100
AcDbBlockBegin
  2
*PAPER_SPACE
 70
     0
 10
0.0
 20
0.0
 30
0.0
  3
*PAPER_SPACE
  1

  0
ENDBLK
  5
AE96
330
AE94
100
AcDbEntity
 67
     1
  8
0
100
AcDbBlockEnd
  0
BLOCK
  5
AEB1
330
AEB0
100
AcDbEntity
  8
0
100
AcDbBlockBegin
  2
_OPEN
 70
     0
 10
0.0
 20
0.0
 30
0.0
  3
_OPEN
  1

  0
LINE
  5
AEB2
330
AEB0
100
AcDbEntity
  8
0
  6
ByBlock
 62
     0
100
AcDbLine
 10
-1.0
 20
0.166667
 30
0.0
 11
0.0
 21
0.0
 31
0.0
  0
LINE
  5
AEB3
330
AEB0
100
AcDbEntity
  8
0
  6
ByBlock
 62
     0
100
AcDbLine
 10
0.0
 20
0.0
 30
0.0
 11
-1.0
 21
-0.166667
 31
0.0
  0
LINE
  5
AEB4
330
AEB0
100
AcDbEntity
  8
0
  6
ByBlock
 62
     0
100
AcDbLine
 10
0.0
 20
0.0
 30
0.0
 11
-1.0
 21
0.0
 31
0.0
  0
ENDBLK
  5
AEB5
330
AEB0
100
AcDbEntity
  8
0
100
AcDbBlockEnd
  0
ENDSEC
  0
SECTION
  2
ENTITIES
  0
TEXT
  5
AEB6
330
AE98
100
AcDbEntity
  8
7
  6
Continuous
100
AcDbText
 10
10.0
 20
18.0
 30
0.0
 40
3.0
  1
TYPE No.303T
100
AcDbText
  0
TEXT
  5
AEB7
330
AE98
100
AcDbEntity
  8
7
  6
Continuous
100
AcDbText
 10
10.0
 20
26.0
 30
0.0
 40
3.0
  1
CODE No.9305
100
AcDbText
  0
TEXT
  5
AEB8
330
AE98
100
AcDbEntity
  8
1
  6
Continuous
100
AcDbText
 10
10.0
 20
10.0
 30
0.0
 40
1.399999999999999
  1
LAYER
100
AcDbText
  0
TEXT
  5
AEB9
330
AE98
100
AcDbEntity
  8
1
  6
Continuous
100
AcDbText
 10
17.97951099999998
 20
10.04873699999998
 30
0.0
 40
1.399999999999999
  1
1
100
AcDbText
  0
TEXT
  5
AEBA
330
AE98
100
AcDbEntity
  8
7
  6
Continuous
100
AcDbText
 10
29.97951099999999
 20
10.04873699999998
 30
0.0
 40
1.399999999999999
  1
7
100
AcDbText
  0
TEXT
  5
AEBB
330
AE98
100
AcDbEntity
  8
4
  6
CENTER
100
AcDbText
 10
23.97951099999999
 20
10.04873699999998
 30
0.0
 40
1.399999999999999
  1
4
100
AcDbText
  0
TEXT
  5
AEBC
330
AE98
100
AcDbEntity
  8
3
  6
DASHED
100
AcDbText
 10
21.979511
 20
10.04873699999998
 30
0.0
 40
1.399999999999999
  1
3
100
AcDbText
  0
TEXT
  5
AEBD
330
AE98
100
AcDbEntity
  8
2
  6
Continuous
100
AcDbText
 10
19.97951099999999
 20
10.04873699999998
 30
0.0
 40
1.399999999999999
  1
2
100
AcDbText
  0
TEXT
  5
AEBE
330
AE98
100
AcDbEntity
  8
6
  6
Continuous
100
AcDbText
 10
27.979511
 20
10.04873699999998
 30
0.0
 40
1.399999999999999
  1
6
100
AcDbText
  0
TEXT
  5
AEBF
330
AE98
100
AcDbEntity
  8
5
  6
PHANTOM
100
AcDbText
 10
25.97951099999999
 20
10.04873699999998
 30
0.0
 40
1.399999999999999
  1
5
100
AcDbText
  0
LINE
  5
AEC0
330
AE98
100
AcDbEntity
  8
1
  6
Continuous
100
AcDbLine
 10
250.2132029999999
 20
187.370179
 30
0.0
 11
250.2132029999999
 21
166.9701789999998
 31
0.0
  0
ARC
  5
AEC1
330
AE98
100
AcDbEntity
  8
1
  6
Continuous
100
AcDbCircle
 10
215.5132029999998
 20
187.370179
 30
0.0
 40
3.0
100
AcDbArc
 50
90.0
 51
180.0
  0
ARC
  5
AEC2
330
AE98
100
AcDbEntity
  8
1
  6
Continuous
100
AcDbCircle
 10
247.213203
 20
187.370179
 30
0.0
 40
3.0
100
AcDbArc
 50
0.0
 51
90.0
  0
LINE
  5
AEC3
330
AE98
100
AcDbEntity
  8
1
  6
Continuous
100
AcDbLine
 10
215.113104
 20
190.3702369999998
 30
0.0
 11
247.6131039999999
 21
190.3700429999999
 31
0.0
  0
LINE
  5
AEC4
330
AE98
100
AcDbEntity
  8
1
  6
Continuous
100
AcDbLine
 10
218.115879
 20
183.6664279999999
 30
0.0
 11
244.6105279999999
 21
183.6664279999999
 31
0.0
  0
ARC
  5
AEC5
330
AE98
100
AcDbEntity
  8
1
  6
Continuous
100
AcDbCircle
 10
244.6105279999999
 20
179.7177379999999
 30
0.0
 40
3.94869
100
AcDbArc
 50
33.136856
 51
90.0
  0
ARC
  5
AEC6
330
AE98
100
AcDbEntity
  8
1
  6
Continuous
100
AcDbCircle
 10
236.094448
 20
174.158366
 30
0.0
 40
14.11875499999999
100
AcDbArc
 50
0.0
 51
33.136856
  0
ARC
  5
AEC7
330
AE98
100
AcDbEntity
  8
1
  6
Continuous
100
AcDbCircle
 10
234.9536839999999
 20
174.074811
 30
0.0
 40
13.262575
100
AcDbArc
 50
4.189117999999997
 51
46.32007700000001
  0
ARC
  5
AEC8
330
AE98
100
AcDbEntity
  8
1
  6
Continuous
100
AcDbCircle
 10
218.115879
 20
179.7177379999999
 30
0.0
 40
3.94869
100
AcDbArc
 50
90.0
 51
146.863144
  0
ARC
  5
AEC9
330
AE98
100
AcDbEntity
  8
1
  6
Continuous
100
AcDbCircle
 10
226.631959
 20
174.158366
 30
0.0
 40
14.11875499999999
100
AcDbArc
 50
146.863144
 51
180.0
  0
LINE
  5
AECA
330
AE98
100
AcDbEntity
  8
4
  6
CENTER
100
AcDbLine
 10
176.0146189999999
 20
281.7864619999999
 30
0.0
 11
103.715027
 21
281.7864619999999
 31
0.0
  0
LINE
  5
AECB
330
AE98
100
AcDbEntity
  8
4
  6
CENTER
100
AcDbLine
 10
152.164619
 20
305.636462
 30
0.0
 11
152.164619
 21
257.936462
 31
0.0
  0
LINE
  5
AECC
330
AE98
100
AcDbEntity
  8
4
  6
CENTER
100
AcDbLine
 10
231.3632029999999
 20
226.6824779999998
 30
0.0
 11
231.3632029999999
 21
127.6820379999999
 31
0.0
  0
LINE
  5
AECD
330
AE98
100
AcDbEntity
  8
4
  6
CENTER
100
AcDbLine
 10
209.6129629999999
 20
157.6820379999998
 30
0.0
 11
252.8634429999999
 21
157.6820379999998
 31
0.0
  0
LINE
  5
AECE
330
AE98
100
AcDbEntity
  8
4
  6
CENTER
100
AcDbLine
 10
103.164626
 20
157.6822369999999
 30
0.0
 11
163.164626
 21
157.6822369999999
 31
0.0
  0
LINE
  5
AECF
330
AE98
100
AcDbEntity
  8
1
  6
Continuous
100
AcDbLine
 10
135.717126
 20
187.550838
 30
0.0
 11
132.0371259999998
 21
187.5070279999999
 31
0.0
  0
ARC
  5
AED0
330
AE98
100
AcDbEntity
  8
1
  6
Continuous
100
AcDbCircle
 10
133.5146259999999
 20
156.732237
 30
0.0
 40
7.5
100
AcDbArc
 50
174.673297
 51
295.9209009999998
  0
LINE
  5
AED1
330
AE98
100
AcDbEntity
  8
1
  6
Continuous
100
AcDbLine
 10
141.0146259999999
 20
186.633782
 30
0.0
 11
141.0146259999999
 21
156.449475
 31
0.0
  0
ARC
  5
AED2
330
AE98
100
AcDbEntity
  8
1
  6
Continuous
100
AcDbCircle
 10
205.7691629999999
 20
136.558325
 30
0.0
 40
63.35981999999999
100
AcDbArc
 50
134.0470019999999
 51
143.333821
  0
LINE
  5
AED3
330
AE98
100
AcDbEntity
  8
4
  6
CENTER
100
AcDbLine
 10
152.1646259999999
 20
226.682479
 30
0.0
 11
152.1646259999999
 21
167.1422599999999
 31
0.0
  0
ARC
  5
AED4
330
AE98
100
AcDbEntity
  8
1
  6
Continuous
100
AcDbCircle
 10
91.122744
 20
192.391394
 30
0.0
 40
63.31738699999998
100
AcDbArc
 50
321.97488
 51
329.982574
  0
ARC
  5
AED5
330
AE98
100
AcDbEntity
  8
1
  6
Continuous
100
AcDbCircle
 10
268.1828499999999
 20
90.093882
 30
0.0
 40
141.169928
100
AcDbArc
 50
143.333821
 51
149.982574
  0
ARC
  5
AED6
330
AE98
100
AcDbEntity
  8
1
  6
Continuous
100
AcDbCircle
 10
165.5442449999999
 20
178.144123
 30
0.0
 40
5.502905999999999
100
AcDbArc
 50
90.0
 51
134.0470019999999
  0
LINE
  5
AED7
330
AE98
100
AcDbEntity
  8
1
  6
Continuous
100
AcDbLine
 10
169.3501259999998
 20
183.5870279999998
 30
0.0
 11
169.127126
 21
183.647028
 31
0.0
  0
LINE
  5
AED8
330
AE98
100
AcDbEntity
  8
1
  6
Continuous
100
AcDbLine
 10
169.127126
 20
183.647028
 30
0.0
 11
165.5442449999999
 21
183.647028
 31
0.0
  0
LINE
  5
AED9
330
AE98
100
AcDbEntity
  8
1
  6
Continuous
100
AcDbLine
 10
170.764126
 20
183.6743669999999
 30
0.0
 11
170.015126
 21
183.6320279999999
 31
0.0
  0
ARC
  5
AEDA
330
AE98
100
AcDbEntity
  8
1
  6
Continuous
100
AcDbCircle
 10
167.9451409999998
 20
187.7889979999999
 30
0.0
 40
2.732905
100
AcDbArc
 50
0.0
 51
70.822161
  0
LINE
  5
AEDB
330
AE98
100
AcDbEntity
  8
1
  6
Continuous
100
AcDbLine
 10
170.015126
 20
183.6320279999999
 30
0.0
 11
169.3501259999998
 21
183.5870279999998
 31
0.0
  0
ARC
  5
AEDC
330
AE98
100
AcDbEntity
  8
1
  6
Continuous
100
AcDbCircle
 10
136.8794169999999
 20
187.2558689999999
 30
0.0
 40
3.266183999999998
100
AcDbArc
 50
107.537707
 51
141.743298
  0
ARC
  5
AEDD
330
AE98
100
AcDbEntity
  8
1
  6
Continuous
100
AcDbCircle
 10
137.810311
 20
186.521835
 30
0.0
 40
4.451666999999998
100
AcDbArc
 50
141.743298
 51
156.849068
  0
LINE
  5
AEDE
330
AE98
100
AcDbEntity
  8
1
  6
Continuous
100
AcDbLine
 10
133.717126
 20
188.272028
 30
0.0
 11
133.5721259999999
 21
187.837028
 31
0.0
  0
LINE
  5
AEDF
330
AE98
100
AcDbEntity
  8
1
  6
Continuous
100
AcDbLine
 10
133.5721259999999
 20
187.837028
 30
0.0
 11
133.232126
 21
187.6370279999999
 31
0.0
  0
LINE
  5
AEE0
330
AE98
100
AcDbEntity
  8
1
  6
Continuous
100
AcDbLine
 10
133.232126
 20
187.6370279999999
 30
0.0
 11
133.062126
 21
187.552028
 31
0.0
  0
LINE
  5
AEE1
330
AE98
100
AcDbEntity
  8
1
  6
Continuous
100
AcDbLine
 10
133.062126
 20
187.552028
 30
0.0
 11
132.877126
 21
187.517028
 31
0.0
  0
ARC
  5
AEE2
330
AE98
100
AcDbEntity
  8
1
  6
Continuous
100
AcDbCircle
 10
135.6928139999999
 20
189.593062
 30
0.0
 40
2.042368999999998
100
AcDbArc
 50
270.6820599999999
 51
340.178191
  0
LINE
  5
AEE3
330
AE98
100
AcDbEntity
  8
1
  6
Continuous
100
AcDbLine
 10
130.877126
 20
187.497028
 30
0.0
 11
127.658798
 21
187.5613949999998
 31
0.0
  0
LINE
  5
AEE4
330
AE98
100
AcDbEntity
  8
1
  6
Continuous
100
AcDbLine
 10
132.0371259999998
 20
187.5070279999999
 30
0.0
 11
131.442126
 21
187.487028
 31
0.0
  0
LINE
  5
AEE5
330
AE98
100
AcDbEntity
  8
1
  6
Continuous
100
AcDbLine
 10
131.442126
 20
187.487028
 30
0.0
 11
130.877126
 21
187.497028
 31
0.0
  0
ARC
  5
AEE6
330
AE98
100
AcDbEntity
  8
1
  6
Continuous
100
AcDbCircle
 10
127.631779
 20
186.210488
 30
0.0
 40
1.351175999999999
100
AcDbArc
 50
88.85423700000002
 51
129.236686
  0
LINE
  5
AEE7
330
AE98
100
AcDbEntity
  8
1
  6
Continuous
100
AcDbLine
 10
129.217126
 20
185.5300409999999
 30
0.0
 11
126.9481689999998
 21
185.563798
 31
0.0
  0
LINE
  5
AEE8
330
AE98
100
AcDbEntity
  8
1
  6
Continuous
100
AcDbLine
 10
126.7771259999999
 20
187.2570279999999
 30
0.0
 11
126.717126
 21
186.3420279999999
 31
0.0
  0
LINE
  5
AEE9
330
AE98
100
AcDbEntity
  8
1
  6
Continuous
100
AcDbLine
 10
126.717126
 20
186.3420279999999
 30
0.0
 11
126.717126
 21
185.6570279999999
 31
0.0
  0
ARC
  5
AEEA
330
AE98
100
AcDbEntity
  8
1
  6
Continuous
100
AcDbCircle
 10
126.953311
 20
185.9094419999999
 30
0.0
 40
0.345682
100
AcDbArc
 50
226.9023309999998
 51
269.1476279999998
  0
LINE
  5
AEEB
330
AE98
100
AcDbEntity
  8
1
  6
Continuous
100
AcDbLine
 10
212.5132029999998
 20
187.370179
 30
0.0
 11
212.5132029999998
 21
166.9701789999998
 31
0.0
  0
LINE
  5
AEEC
330
AE98
100
AcDbEntity
  8
4
  6
CENTER
100
AcDbLine
 10
68.822001
 20
157.6820379999998
 30
0.0
 11
26.365809
 21
157.6820379999998
 31
0.0
  0
LINE
  5
AEED
330
AE98
100
AcDbEntity
  8
4
  6
CENTER
100
AcDbLine
 10
47.86604899999999
 20
226.682479
 30
0.0
 11
47.86604899999999
 21
127.6820379999999
 31
0.0
  0
LINE
  5
AEEE
330
AE98
100
AcDbEntity
  8
1
  6
Continuous
100
AcDbLine
 10
31.616049
 20
190.3702369999998
 30
0.0
 11
64.116049
 21
190.370044
 31
0.0
  0
ARC
  5
AEEF
330
AE98
100
AcDbEntity
  8
1
  6
Continuous
100
AcDbCircle
 10
37.11580899999999
 20
183.581018
 30
0.0
 40
3.75
100
AcDbArc
 50
90.0
 51
180.0
  0
LINE
  5
AEF0
330
AE98
100
AcDbEntity
  8
1
  6
Continuous
100
AcDbLine
 10
33.36580899999999
 20
149.2453159999998
 30
0.0
 11
35.36604899999999
 21
149.2453159999998
 31
0.0
  0
ARC
  5
AEF1
330
AE98
100
AcDbEntity
  8
1
  6
Continuous
100
AcDbCircle
 10
55.731462
 20
167.6022299999999
 30
0.0
 40
26.722888
100
AcDbArc
 50
181.355289
 51
204.692905
  0
LINE
  5
AEF2
330
AE98
100
AcDbEntity
  8
1
  6
Continuous
100
AcDbLine
 10
33.36580899999999
 20
183.581018
 30
0.0
 11
33.36580899999999
 21
149.2453159999998
 31
0.0
  0
LINE
  5
AEF3
330
AE98
100
AcDbEntity
  8
1
  6
Continuous
100
AcDbLine
 10
32.432493
 20
161.9320379999998
 30
0.0
 11
32.432493
 21
153.4320379999998
 31
0.0
  0
ARC
  5
AEF4
330
AE98
100
AcDbEntity
  8
1
  6
Continuous
100
AcDbCircle
 10
40.36580899999999
 20
157.6820379999998
 30
0.0
 40
9.0
100
AcDbArc
 50
151.821357
 51
208.178643
  0
LINE
  5
AEF5
330
AE98
100
AcDbEntity
  8
1
  6
Continuous
100
AcDbLine
 10
33.36580899999999
 20
153.4320379999998
 30
0.0
 11
32.432493
 21
153.4320379999998
 31
0.0
  0
LINE
  5
AEF6
330
AE98
100
AcDbEntity
  8
1
  6
Continuous
100
AcDbLine
 10
29.016049
 20
187.370179
 30
0.0
 11
29.016049
 21
166.9701789999998
 31
0.0
  0
LINE
  5
AEF7
330
AE98
100
AcDbEntity
  8
1
  6
Continuous
100
AcDbLine
 10
33.36580899999999
 20
161.9320379999998
 30
0.0
 11
32.432493
 21
161.9320379999998
 31
0.0
  0
ARC
  5
AEF8
330
AE98
100
AcDbEntity
  8
1
  6
Continuous
100
AcDbCircle
 10
32.23066699999999
 20
187.1480939999999
 30
0.0
 40
3.22228
100
AcDbArc
 50
89.37084
 51
176.0479389999999
  0
ARC
  5
AEF9
330
AE98
100
AcDbEntity
  8
1
  6
Continuous
100
AcDbCircle
 10
40.006289
 20
167.4394839999999
 30
0.0
 40
26.713884
100
AcDbArc
 50
326.8265529999998
 51
358.9933849999999
  0
LINE
  5
AEFA
330
AE98
100
AcDbEntity
  8
1
  6
Continuous
100
AcDbLine
 10
35.36604899999999
 20
183.589424
 30
0.0
 11
35.36604899999999
 21
149.2453159999998
 31
0.0
  0
LINE
  5
AEFB
330
AE98
100
AcDbEntity
  8
1
  6
Continuous
100
AcDbLine
 10
60.366049
 20
183.589424
 30
0.0
 11
60.366049
 21
149.2453159999998
 31
0.0
  0
LINE
  5
AEFC
330
AE98
100
AcDbEntity
  8
1
  6
Continuous
100
AcDbLine
 10
62.366289
 20
183.581018
 30
0.0
 11
62.366289
 21
149.2453159999998
 31
0.0
  0
LINE
  5
AEFD
330
AE98
100
AcDbEntity
  8
1
  6
Continuous
100
AcDbLine
 10
60.366049
 20
149.2453159999998
 30
0.0
 11
62.366289
 21
149.2453159999998
 31
0.0
  0
ARC
  5
AEFE
330
AE98
100
AcDbEntity
  8
1
  6
Continuous
100
AcDbCircle
 10
63.50143199999997
 20
187.1480939999999
 30
0.0
 40
3.22228
100
AcDbArc
 50
3.952061
 51
90.62915999999999
  0
LINE
  5
AEFF
330
AE98
100
AcDbEntity
  8
1
  6
Continuous
100
AcDbLine
 10
66.716049
 20
187.370179
 30
0.0
 11
66.716049
 21
166.9701789999998
 31
0.0
  0
LINE
  5
AF00
330
AE98
100
AcDbEntity
  8
1
  6
Continuous
100
AcDbLine
 10
37.11604899999999
 20
185.339424
 30
0.0
 11
58.61604899999999
 21
185.339424
 31
0.0
  0
LINE
  5
AF01
330
AE98
100
AcDbEntity
  8
1
  6
Continuous
100
AcDbLine
 10
37.11580899999999
 20
187.331018
 30
0.0
 11
58.616289
 21
187.331018
 31
0.0
  0
ARC
  5
AF02
330
AE98
100
AcDbEntity
  8
1
  6
Continuous
100
AcDbCircle
 10
37.11604899999999
 20
183.589424
 30
0.0
 40
1.75
100
AcDbArc
 50
90.0
 51
180.0
  0
ARC
  5
AF03
330
AE98
100
AcDbEntity
  8
1
  6
Continuous
100
AcDbCircle
 10
58.616289
 20
183.581018
 30
0.0
 40
3.75
100
AcDbArc
 50
0.0
 51
90.0
  0
ARC
  5
AF04
330
AE98
100
AcDbEntity
  8
1
  6
Continuous
100
AcDbCircle
 10
58.61604899999999
 20
183.589424
 30
0.0
 40
1.75
100
AcDbArc
 50
0.0
 51
90.0
  0
LINE
  5
AF05
330
AE98
100
AcDbEntity
  8
1
  6
Continuous
100
AcDbLine
 10
243.8632029999999
 20
183.589424
 30
0.0
 11
243.8632029999999
 21
149.2453159999998
 31
0.0
  0
LINE
  5
AF06
330
AE98
100
AcDbEntity
  8
1
  6
Continuous
100
AcDbLine
 10
218.8632029999999
 20
183.589424
 30
0.0
 11
218.8632029999999
 21
149.2453159999998
 31
0.0
  0
ARC
  5
AF07
330
AE98
100
AcDbEntity
  8
1
  6
Continuous
100
AcDbCircle
 10
239.113443
 20
157.6820379999998
 30
0.0
 40
9.0
100
AcDbArc
 50
331.8213569999999
 51
355.5531859999998
  0
LINE
  5
AF08
330
AE98
100
AcDbEntity
  8
1
  6
Continuous
100
AcDbLine
 10
247.0467589999998
 20
154.816337
 30
0.0
 11
247.0467589999998
 21
153.4320379999998
 31
0.0
  0
LINE
  5
AF09
330
AE98
100
AcDbEntity
  8
1
  6
Continuous
100
AcDbLine
 10
246.4357299999999
 20
153.4320379999998
 30
0.0
 11
247.0467589999998
 21
153.4320379999998
 31
0.0
  0
LINE
  5
AF0A
330
AE98
100
AcDbEntity
  8
1
  6
Continuous
100
AcDbLine
 10
129.4032709999999
 20
187.5265049999999
 30
0.0
 11
126.0470149999999
 21
157.4284969999999
 31
0.0
  0
ARC
  5
AF0B
330
AE98
100
AcDbEntity
  8
1
  6
Continuous
100
AcDbCircle
 10
131.547542
 20
160.77953
 30
0.0
 40
12.0
100
AcDbArc
 50
295.9209009999998
 51
321.97488
  0
LINE
  5
AF0C
330
AE98
100
AcDbEntity
  8
4
  6
CENTER
100
AcDbLine
 10
176.0146189999999
 20
70.009612
 30
0.0
 11
103.164626
 21
70.009612
 31
0.0
  0
LINE
  5
AF0D
330
AE98
100
AcDbEntity
  8
4
  6
CENTER
100
AcDbLine
 10
152.164619
 20
46.159612
 30
0.0
 11
152.164619
 21
93.859612
 31
0.0
  0
LINE
  5
AF0E
330
AE98
100
AcDbEntity
  8
1
  6
Continuous
100
AcDbLine
 10
137.8128769999999
 20
57.50961199999998
 30
0.0
 11
126.07531
 21
57.50961199999998
 31
0.0
  0
LINE
  5
AF0F
330
AE98
100
AcDbEntity
  8
1
  6
Continuous
100
AcDbLine
 10
137.8132369999999
 20
55.50937199999999
 30
0.0
 11
126.07531
 21
55.50937199999999
 31
0.0
  0
LINE
  5
AF10
330
AE98
100
AcDbEntity
  8
1
  6
Continuous
100
AcDbLine
 10
137.8132369999999
 20
84.50985199999998
 30
0.0
 11
126.07531
 21
84.50985199999998
 31
0.0
  0
LINE
  5
AF11
330
AE98
100
AcDbEntity
  8
1
  6
Continuous
100
AcDbLine
 10
137.8128769999999
 20
82.509612
 30
0.0
 11
126.07531
 21
82.509612
 31
0.0
  0
LINE
  5
AF12
330
AE98
100
AcDbEntity
  8
1
  6
Continuous
100
AcDbLine
 10
130.164626
 20
81.70961199999998
 30
0.0
 11
130.164626
 21
81.50961200000002
 31
0.0
  0
LINE
  5
AF13
330
AE98
100
AcDbEntity
  8
4
  6
CENTER
100
AcDbLine
 10
133.164626
 20
127.682237
 30
0.0
 11
133.164626
 21
185.6822369999999
 31
0.0
  0
LINE
  5
AF14
330
AE98
100
AcDbEntity
  8
1
  6
Continuous
100
AcDbLine
 10
126.07531
 20
55.50937199999999
 30
0.0
 11
126.07531
 21
57.50961199999998
 31
0.0
  0
LINE
  5
AF15
330
AE98
100
AcDbEntity
  8
1
  6
Continuous
100
AcDbLine
 10
126.07531
 20
82.509612
 30
0.0
 11
126.07531
 21
84.50985199999998
 31
0.0
  0
ARC
  5
AF16
330
AE98
100
AcDbEntity
  8
1
  6
Continuous
100
AcDbCircle
 10
152.164619
 20
70.009612
 30
0.0
 40
13.6
100
AcDbArc
 50
227.332075
 51
132.6679249999999
  0
ARC
  5
AF17
330
AE98
100
AcDbEntity
  8
1
  6
Continuous
100
AcDbCircle
 10
152.164619
 20
70.009612
 30
0.0
 40
12.0
100
AcDbArc
 50
236.44269
 51
123.55731
  0
LINE
  5
AF18
330
AE98
100
AcDbEntity
  8
4
  6
CENTER
100
AcDbLine
 10
133.164626
 20
90.96532399999999
 30
0.0
 11
133.164626
 21
48.509372
 31
0.0
  0
ARC
  5
AF19
330
AE98
100
AcDbEntity
  8
1
  6
Continuous
100
AcDbCircle
 10
133.164626
 20
62.509372
 30
0.0
 40
9.0
100
AcDbArc
 50
241.8213569999999
 51
298.178643
  0
LINE
  5
AF1A
330
AE98
100
AcDbEntity
  8
1
  6
Continuous
100
AcDbLine
 10
128.914626
 20
54.576056
 30
0.0
 11
137.414626
 21
54.576056
 31
0.0
  0
LINE
  5
AF1B
330
AE98
100
AcDbEntity
  8
1
  6
Continuous
100
AcDbLine
 10
136.164626
 20
57.50961199999998
 30
0.0
 11
136.164626
 21
58.109612
 31
0.0
  0
LINE
  5
AF1C
330
AE98
100
AcDbEntity
  8
1
  6
Continuous
100
AcDbLine
 10
137.414626
 20
55.50937199999999
 30
0.0
 11
137.414626
 21
54.576056
 31
0.0
  0
LINE
  5
AF1D
330
AE98
100
AcDbEntity
  8
1
  6
Continuous
100
AcDbLine
 10
136.164626
 20
58.509612
 30
0.0
 11
136.164626
 21
58.00961199999999
 31
0.0
  0
LINE
  5
AF1E
330
AE98
100
AcDbEntity
  8
1
  6
Continuous
100
AcDbLine
 10
136.164626
 20
81.70961199999998
 30
0.0
 11
136.164626
 21
81.50961200000002
 31
0.0
  0
LINE
  5
AF1F
330
AE98
100
AcDbEntity
  8
1
  6
Continuous
100
AcDbLine
 10
136.164626
 20
82.509612
 30
0.0
 11
136.164626
 21
81.50961200000002
 31
0.0
  0
LINE
  5
AF20
330
AE98
100
AcDbEntity
  8
1
  6
Continuous
100
AcDbLine
 10
130.164626
 20
57.50961199999998
 30
0.0
 11
130.164626
 21
58.109612
 31
0.0
  0
LINE
  5
AF21
330
AE98
100
AcDbEntity
  8
1
  6
Continuous
100
AcDbLine
 10
128.914626
 20
55.50937199999999
 30
0.0
 11
128.914626
 21
54.576056
 31
0.0
  0
LINE
  5
AF22
330
AE98
100
AcDbEntity
  8
1
  6
Continuous
100
AcDbLine
 10
130.164626
 20
58.509612
 30
0.0
 11
130.164626
 21
57.90610799999999
 31
0.0
  0
LINE
  5
AF23
330
AE98
100
AcDbEntity
  8
1
  6
Continuous
100
AcDbLine
 10
130.164626
 20
81.50961200000002
 30
0.0
 11
130.164626
 21
81.70961199999998
 31
0.0
  0
LINE
  5
AF24
330
AE98
100
AcDbEntity
  8
1
  6
Continuous
100
AcDbLine
 10
130.164626
 20
82.509612
 30
0.0
 11
130.164626
 21
81.50961200000002
 31
0.0
  0
LINE
  5
AF25
330
AE98
100
AcDbEntity
  8
1
  6
Continuous
100
AcDbLine
 10
170.764126
 20
183.6743669999999
 30
0.0
 11
171.0146259999999
 21
183.6743669999999
 31
0.0
  0
LINE
  5
AF26
330
AE98
100
AcDbEntity
  8
1
  6
Continuous
100
AcDbLine
 10
171.0146259999999
 20
183.6743669999999
 30
0.0
 11
170.6780469999999
 21
187.7889979999999
 31
0.0
  0
ARC
  5
AF27
330
AE98
100
AcDbEntity
  8
1
  6
Continuous
100
AcDbCircle
 10
152.164619
 20
70.009612
 30
0.0
 40
18.85
100
AcDbArc
 50
236.2769409999999
 51
123.723059
  0
ARC
  5
AF28
330
AE98
100
AcDbEntity
  8
1
  6
Continuous
100
AcDbCircle
 10
152.164619
 20
70.009612
 30
0.0
 40
16.85
100
AcDbArc
 50
236.2759829999999
 51
123.7240169999999
  0
LINE
  5
AF29
330
AE98
100
AcDbEntity
  8
1
  6
Continuous
100
AcDbLine
 10
62.666289
 20
161.6820379999998
 30
0.0
 11
62.666289
 21
153.6820379999998
 31
0.0
  0
ARC
  5
AF2A
330
AE98
100
AcDbEntity
  8
1
  6
Continuous
100
AcDbCircle
 10
56.322001
 20
157.6820379999998
 30
0.0
 40
7.5
100
AcDbArc
 50
327.769047
 51
32.230953
  0
LINE
  5
AF2B
330
AE98
100
AcDbEntity
  8
1
  6
Continuous
100
AcDbLine
 10
62.666289
 20
153.6820379999998
 30
0.0
 11
62.366289
 21
153.6820379999998
 31
0.0
  0
LINE
  5
AF2C
330
AE98
100
AcDbEntity
  8
1
  6
Continuous
100
AcDbLine
 10
62.666289
 20
161.6820379999998
 30
0.0
 11
62.366289
 21
161.6820379999998
 31
0.0
  0
CIRCLE
  5
AF2D
330
AE98
100
AcDbEntity
  8
1
  6
Continuous
100
AcDbCircle
 10
133.164626
 20
157.6822369999999
 30
0.0
 40
4.0
  0
LINE
  5
AF2E
330
AE98
100
AcDbEntity
  8
1
  6
Continuous
100
AcDbLine
 10
137.164626
 20
84.80961200000001
 30
0.0
 11
137.164626
 21
84.509612
 31
0.0
  0
LINE
  5
AF2F
330
AE98
100
AcDbEntity
  8
1
  6
Continuous
100
AcDbLine
 10
129.164626
 20
84.80961200000001
 30
0.0
 11
129.164626
 21
84.509612
 31
0.0
  0
LINE
  5
AF30
330
AE98
100
AcDbEntity
  8
1
  6
Continuous
100
AcDbLine
 10
137.164626
 20
84.80961200000001
 30
0.0
 11
129.164626
 21
84.80961200000001
 31
0.0
  0
ARC
  5
AF31
330
AE98
100
AcDbEntity
  8
1
  6
Continuous
100
AcDbCircle
 10
133.164626
 20
78.46532399999998
 30
0.0
 40
7.5
100
AcDbArc
 50
57.76904700000001
 51
122.230953
  0
ARC
  5
AF32
330
AE98
100
AcDbEntity
  8
1
  6
Continuous
100
AcDbCircle
 10
55.731462
 20
167.6022299999999
 30
0.0
 40
26.722888
100
AcDbArc
 50
212.0233099999999
 51
213.180835
  0
LINE
  5
AF33
330
AE98
100
AcDbEntity
  8
1
  6
Continuous
100
AcDbLine
 10
245.863443
 20
150.097637
 30
0.0
 11
245.863443
 21
149.2453159999998
 31
0.0
  0
ARC
  5
AF34
330
AE98
100
AcDbEntity
  8
1
  6
Continuous
100
AcDbCircle
 10
223.503443
 20
167.4394839999999
 30
0.0
 40
26.713884
100
AcDbArc
 50
331.812974
 51
358.9933849999999
  0
LINE
  5
AF35
330
AE98
100
AcDbEntity
  8
1
  6
Continuous
100
AcDbLine
 10
243.8632029999999
 20
149.2453159999998
 30
0.0
 11
245.863443
 21
149.2453159999998
 31
0.0
  0
ARC
  5
AF36
330
AE98
100
AcDbEntity
  8
1
  6
Continuous
100
AcDbCircle
 10
255.863443
 20
150.097637
 30
0.0
 40
10.0
100
AcDbArc
 50
151.812974
 51
180.0
  0
LINE
  5
AF37
330
AE98
100
AcDbEntity
  8
1
  6
Continuous
100
AcDbLine
 10
248.180827
 20
175.043628
 30
0.0
 11
248.180827
 21
167.8554389999999
 31
0.0
  0
ARC
  5
AF38
330
AE98
100
AcDbEntity
  8
1
  6
Continuous
100
AcDbCircle
 10
221.471067
 20
168.3247439999998
 30
0.0
 40
26.713884
100
AcDbArc
 50
331.812974
 51
358.9933849999999
  0
ARC
  5
AF39
330
AE98
100
AcDbEntity
  8
1
  6
Continuous
100
AcDbCircle
 10
253.8310669999999
 20
150.9828979999998
 30
0.0
 40
10.0
100
AcDbArc
 50
151.812974
 51
175.405317
  0
ARC
  5
AF3A
330
AE98
100
AcDbEntity
  8
1
  6
Continuous
100
AcDbCircle
 10
239.222963
 20
167.4394839999999
 30
0.0
 40
26.713884
100
AcDbArc
 50
181.006615
 51
208.187026
  0
ARC
  5
AF3B
330
AE98
100
AcDbEntity
  8
1
  6
Continuous
100
AcDbCircle
 10
206.8629629999998
 20
150.097637
 30
0.0
 40
10.0
100
AcDbArc
 50
0.0
 51
28.18702599999999
  0
LINE
  5
AF3C
330
AE98
100
AcDbEntity
  8
1
  6
Continuous
100
AcDbLine
 10
218.8632029999999
 20
149.2453159999998
 30
0.0
 11
216.8629629999998
 21
149.2453159999998
 31
0.0
  0
LINE
  5
AF3D
330
AE98
100
AcDbEntity
  8
1
  6
Continuous
100
AcDbLine
 10
216.8629629999998
 20
150.097637
 30
0.0
 11
216.8629629999998
 21
149.2453159999998
 31
0.0
  0
ARC
  5
AF3E
330
AE98
100
AcDbEntity
  8
1
  6
Continuous
100
AcDbCircle
 10
208.89534
 20
150.9828979999998
 30
0.0
 40
10.0
100
AcDbArc
 50
4.594682999999998
 51
28.18702599999999
  0
ARC
  5
AF3F
330
AE98
100
AcDbEntity
  8
1
  6
Continuous
100
AcDbCircle
 10
241.2553399999999
 20
168.3247439999998
 30
0.0
 40
26.713884
100
AcDbArc
 50
181.006615
 51
208.187026
  0
LINE
  5
AF40
330
AE98
100
AcDbEntity
  8
1
  6
Continuous
100
AcDbLine
 10
214.5455799999998
 20
175.043628
 30
0.0
 11
214.5455799999998
 21
167.8554389999999
 31
0.0
  0
ARC
  5
AF41
330
AE98
100
AcDbEntity
  8
1
  6
Continuous
100
AcDbCircle
 10
227.772722
 20
174.074811
 30
0.0
 40
13.262575
100
AcDbArc
 50
133.679923
 51
175.810882
  0
LINE
  5
AF42
330
AE98
100
AcDbEntity
  8
1
  6
Continuous
100
AcDbLine
 10
135.8952069999999
 20
190.3702369999998
 30
0.0
 11
168.842904
 21
190.3702369999998
 31
0.0
  0
LINE
  5
AF43
330
AE98
100
AcDbEntity
  8
1
  6
Continuous
100
AcDbLine
 10
144.834619
 20
294.482394
 30
0.0
 11
137.5046189999999
 21
281.7864619999999
 31
0.0
  0
LINE
  5
AF44
330
AE98
100
AcDbEntity
  8
1
  6
Continuous
100
AcDbLine
 10
137.5046189999999
 20
281.7864619999999
 30
0.0
 11
144.834619
 21
269.09053
 31
0.0
  0
CIRCLE
  5
AF45
330
AE98
100
AcDbEntity
  8
1
  6
Continuous
100
AcDbCircle
 10
152.164619
 20
281.7864619999999
 30
0.0
 40
14.660012
  0
CIRCLE
  5
AF46
330
AE98
100
AcDbEntity
  8
1
  6
Continuous
100
AcDbCircle
 10
152.164619
 20
281.7864619999999
 30
0.0
 40
16.25
  0
CIRCLE
  5
AF47
330
AE98
100
AcDbEntity
  8
1
  6
Continuous
100
AcDbCircle
 10
152.164619
 20
281.7864619999999
 30
0.0
 40
16.00018
  0
LINE
  5
AF48
330
AE98
100
AcDbEntity
  8
1
  6
Continuous
100
AcDbLine
 10
166.8246189999998
 20
281.7864619999999
 30
0.0
 11
159.4946189999998
 21
294.482394
 31
0.0
  0
LINE
  5
AF49
330
AE98
100
AcDbEntity
  8
1
  6
Continuous
100
AcDbLine
 10
159.4946189999998
 20
269.09053
 30
0.0
 11
166.8246189999998
 21
281.7864619999999
 31
0.0
  0
CIRCLE
  5
AF4A
330
AE98
100
AcDbEntity
  8
1
  6
Continuous
100
AcDbCircle
 10
152.164619
 20
281.7864619999999
 30
0.0
 40
4.0
  0
LINE
  5
AF4B
330
AE98
100
AcDbEntity
  8
4
  6
CENTER
100
AcDbLine
 10
133.165027
 20
260.286422
 30
0.0
 11
133.165027
 21
302.7864619999999
 31
0.0
  0
LINE
  5
AF4C
330
AE98
100
AcDbEntity
  8
1
  6
Continuous
100
AcDbLine
 10
137.8128769999999
 20
267.2864619999999
 30
0.0
 11
126.015027
 21
267.2864619999999
 31
0.0
  0
LINE
  5
AF4D
330
AE98
100
AcDbEntity
  8
1
  6
Continuous
100
AcDbLine
 10
128.8957469999998
 20
269.2864619999999
 30
0.0
 11
126.015027
 21
269.2864619999999
 31
0.0
  0
ARC
  5
AF4E
330
AE98
100
AcDbEntity
  8
1
  6
Continuous
100
AcDbCircle
 10
156.167527
 20
281.7864619999999
 30
0.0
 40
30.0
100
AcDbArc
 50
154.381133
 51
205.6188689999999
  0
ARC
  5
AF4F
330
AE98
100
AcDbEntity
  8
1
  6
Continuous
100
AcDbCircle
 10
152.572527
 20
281.7864619999999
 30
0.0
 40
19.0
100
AcDbArc
 50
127.799415
 51
232.200585
  0
LINE
  5
AF50
330
AE98
100
AcDbEntity
  8
1
  6
Continuous
100
AcDbLine
 10
137.415027
 20
297.2198179999999
 30
0.0
 11
128.915027
 21
297.2198179999999
 31
0.0
  0
ARC
  5
AF51
330
AE98
100
AcDbEntity
  8
1
  6
Continuous
100
AcDbCircle
 10
133.165027
 20
289.2865019999998
 30
0.0
 40
9.0
100
AcDbArc
 50
61.82135699999999
 51
118.178643
  0
ARC
  5
AF52
330
AE98
100
AcDbEntity
  8
1
  6
Continuous
100
AcDbCircle
 10
127.34396
 20
268.5035919999999
 30
0.0
 40
1.8
100
AcDbArc
 50
317.4539069999998
 51
9.961921999999999
  0
LINE
  5
AF53
330
AE98
100
AcDbEntity
  8
1
  6
Continuous
100
AcDbLine
 10
128.915027
 20
296.2864619999999
 30
0.0
 11
128.915027
 21
297.2198179999999
 31
0.0
  0
LINE
  5
AF54
330
AE98
100
AcDbEntity
  8
1
  6
Continuous
100
AcDbLine
 10
126.015027
 20
267.2864619999999
 30
0.0
 11
126.015027
 21
269.2864619999999
 31
0.0
  0
LINE
  5
AF55
330
AE98
100
AcDbEntity
  8
1
  6
Continuous
100
AcDbLine
 10
137.8128769999999
 20
296.2864619999999
 30
0.0
 11
126.015027
 21
296.2864619999999
 31
0.0
  0
LINE
  5
AF56
330
AE98
100
AcDbEntity
  8
1
  6
Continuous
100
AcDbLine
 10
128.8957469999998
 20
294.2864619999999
 30
0.0
 11
126.015027
 21
294.2864619999999
 31
0.0
  0
LINE
  5
AF57
330
AE98
100
AcDbEntity
  8
1
  6
Continuous
100
AcDbLine
 10
137.165027
 20
266.942173
 30
0.0
 11
129.165027
 21
266.942173
 31
0.0
  0
ARC
  5
AF58
330
AE98
100
AcDbEntity
  8
1
  6
Continuous
100
AcDbCircle
 10
133.165027
 20
273.2864619999999
 30
0.0
 40
7.5
100
AcDbArc
 50
237.769047
 51
302.230953
  0
LINE
  5
AF59
330
AE98
100
AcDbEntity
  8
1
  6
Continuous
100
AcDbLine
 10
129.165027
 20
266.942173
 30
0.0
 11
129.165027
 21
267.2864619999999
 31
0.0
  0
ARC
  5
AF5A
330
AE98
100
AcDbEntity
  8
1
  6
Continuous
100
AcDbCircle
 10
127.34396
 20
295.0693319999999
 30
0.0
 40
1.8
100
AcDbArc
 50
350.0380779999999
 51
42.546093
  0
LINE
  5
AF5B
330
AE98
100
AcDbEntity
  8
1
  6
Continuous
100
AcDbLine
 10
126.015027
 20
294.2864619999999
 30
0.0
 11
126.015027
 21
296.2864619999999
 31
0.0
  0
LINE
  5
AF5C
330
AE98
100
AcDbEntity
  8
1
  6
Continuous
100
AcDbLine
 10
244.0592339999998
 20
195.782458
 30
0.0
 11
218.66737
 21
195.782458
 31
0.0
  0
LINE
  5
AF5D
330
AE98
100
AcDbEntity
  8
1
  6
Continuous
100
AcDbLine
 10
218.66737
 20
198.682458
 30
0.0
 11
244.0592339999998
 21
198.682458
 31
0.0
  0
LINE
  5
AF5E
330
AE98
100
AcDbEntity
  8
1
  6
Continuous
100
AcDbLine
 10
247.6132029999999
 20
191.8011929999999
 30
0.0
 11
215.1132029999998
 21
191.801273
 31
0.0
  0
LINE
  5
AF5F
330
AE98
100
AcDbEntity
  8
1
  6
Continuous
100
AcDbLine
 10
215.853735
 20
193.7226369999999
 30
0.0
 11
246.872869
 21
193.7226369999999
 31
0.0
  0
LINE
  5
AF60
330
AE98
100
AcDbEntity
  8
1
  6
Continuous
100
AcDbLine
 10
247.3634829999999
 20
193.1469489999998
 30
0.0
 11
215.363122
 21
193.1469489999998
 31
0.0
  0
LINE
  5
AF61
330
AE98
100
AcDbEntity
  8
1
  6
Continuous
100
AcDbLine
 10
242.3974759999999
 20
191.8012329999999
 30
0.0
 11
244.3974729999999
 21
190.3702369999998
 31
0.0
  0
LINE
  5
AF62
330
AE98
100
AcDbEntity
  8
1
  6
Continuous
100
AcDbLine
 10
244.3974729999999
 20
191.8012329999999
 30
0.0
 11
242.3974759999999
 21
190.3702369999998
 31
0.0
  0
LINE
  5
AF63
330
AE98
100
AcDbEntity
  8
1
  6
Continuous
100
AcDbLine
 10
225.426914
 20
191.8012329999999
 30
0.0
 11
227.42691
 21
190.3702369999998
 31
0.0
  0
LINE
  5
AF64
330
AE98
100
AcDbEntity
  8
1
  6
Continuous
100
AcDbLine
 10
228.841124
 20
191.8012329999999
 30
0.0
 11
226.841127
 21
190.3702369999998
 31
0.0
  0
LINE
  5
AF65
330
AE98
100
AcDbEntity
  8
1
  6
Continuous
100
AcDbLine
 10
227.42691
 20
191.8012329999999
 30
0.0
 11
225.426914
 21
190.3702369999998
 31
0.0
  0
LINE
  5
AF66
330
AE98
100
AcDbEntity
  8
1
  6
Continuous
100
AcDbLine
 10
218.66737
 20
195.782458
 30
0.0
 11
218.66737
 21
198.682458
 31
0.0
  0
LINE
  5
AF67
330
AE98
100
AcDbEntity
  8
1
  6
Continuous
100
AcDbLine
 10
216.9416319999999
 20
191.8012329999999
 30
0.0
 11
218.941629
 21
190.3702369999998
 31
0.0
  0
LINE
  5
AF68
330
AE98
100
AcDbEntity
  8
1
  6
Continuous
100
AcDbLine
 10
216.113202
 20
190.3702369999998
 30
0.0
 11
215.1132029999998
 21
191.370235
 31
0.0
  0
LINE
  5
AF69
330
AE98
100
AcDbEntity
  8
1
  6
Continuous
100
AcDbLine
 10
218.941629
 20
191.8012329999999
 30
0.0
 11
216.9416319999999
 21
190.3702369999998
 31
0.0
  0
LINE
  5
AF6A
330
AE98
100
AcDbEntity
  8
1
  6
Continuous
100
AcDbLine
 10
217.5274149999999
 20
191.8012329999999
 30
0.0
 11
215.5274189999999
 21
190.3702369999998
 31
0.0
  0
LINE
  5
AF6B
330
AE98
100
AcDbEntity
  8
1
  6
Continuous
100
AcDbLine
 10
215.1132029999998
 20
191.8012329999999
 30
0.0
 11
215.1132029999998
 21
190.3702369999998
 31
0.0
  0
ARC
  5
AF6C
330
AE98
100
AcDbEntity
  8
1
  6
Continuous
100
AcDbCircle
 10
219.164266
 20
193.2824579999999
 30
0.0
 40
2.5
100
AcDbArc
 50
90.0
 51
169.858981
  0
LINE
  5
AF6D
330
AE98
100
AcDbEntity
  8
1
  6
Continuous
100
AcDbLine
 10
216.113202
 20
191.8012329999999
 30
0.0
 11
215.1132029999998
 21
191.370235
 31
0.0
  0
ARC
  5
AF6E
330
AE98
100
AcDbEntity
  8
1
  6
Continuous
100
AcDbCircle
 10
216.3936329999999
 20
192.765625
 30
0.0
 40
1.098799999999998
100
AcDbArc
 50
119.429525
 51
159.693839
  0
ARC
  5
AF6F
330
AE98
100
AcDbEntity
  8
1
  6
Continuous
100
AcDbCircle
 10
217.711497
 20
193.4778359999999
 30
0.0
 40
2.371570999999998
100
AcDbArc
 50
188.020211
 51
224.9867219999999
  0
LINE
  5
AF70
330
AE98
100
AcDbEntity
  8
1
  6
Continuous
100
AcDbLine
 10
222.598486
 20
191.8012329999999
 30
0.0
 11
224.5984829999999
 21
190.3702369999998
 31
0.0
  0
LINE
  5
AF71
330
AE98
100
AcDbEntity
  8
1
  6
Continuous
100
AcDbLine
 10
219.7700589999998
 20
191.8012329999999
 30
0.0
 11
221.770056
 21
190.3702369999998
 31
0.0
  0
LINE
  5
AF72
330
AE98
100
AcDbEntity
  8
1
  6
Continuous
100
AcDbLine
 10
226.012696
 20
191.8012329999999
 30
0.0
 11
224.0127
 21
190.3702369999998
 31
0.0
  0
LINE
  5
AF73
330
AE98
100
AcDbEntity
  8
1
  6
Continuous
100
AcDbLine
 10
224.5984829999999
 20
191.8012329999999
 30
0.0
 11
222.598486
 21
190.3702369999998
 31
0.0
  0
LINE
  5
AF74
330
AE98
100
AcDbEntity
  8
1
  6
Continuous
100
AcDbLine
 10
223.184269
 20
191.8012329999999
 30
0.0
 11
221.1842729999999
 21
190.3702369999998
 31
0.0
  0
LINE
  5
AF75
330
AE98
100
AcDbEntity
  8
1
  6
Continuous
100
AcDbLine
 10
221.770056
 20
191.8012329999999
 30
0.0
 11
219.7700589999998
 21
190.3702369999998
 31
0.0
  0
LINE
  5
AF76
330
AE98
100
AcDbEntity
  8
1
  6
Continuous
100
AcDbLine
 10
220.3558419999999
 20
191.8012329999999
 30
0.0
 11
218.3558459999999
 21
190.3702369999998
 31
0.0
  0
LINE
  5
AF77
330
AE98
100
AcDbEntity
  8
1
  6
Continuous
100
AcDbLine
 10
231.363302
 20
195.782458
 30
0.0
 11
231.363302
 21
198.682458
 31
0.0
  0
LINE
  5
AF78
330
AE98
100
AcDbEntity
  8
1
  6
Continuous
100
AcDbLine
 10
228.2553409999999
 20
191.8012329999999
 30
0.0
 11
230.255337
 21
190.3702369999998
 31
0.0
  0
LINE
  5
AF79
330
AE98
100
AcDbEntity
  8
1
  6
Continuous
100
AcDbLine
 10
231.6695509999999
 20
191.8012329999999
 30
0.0
 11
229.6695539999999
 21
190.3702369999998
 31
0.0
  0
LINE
  5
AF7A
330
AE98
100
AcDbEntity
  8
1
  6
Continuous
100
AcDbLine
 10
230.255337
 20
191.8012329999999
 30
0.0
 11
228.2553409999999
 21
190.3702369999998
 31
0.0
  0
LINE
  5
AF7B
330
AE98
100
AcDbEntity
  8
1
  6
Continuous
100
AcDbLine
 10
239.569049
 20
191.8012329999999
 30
0.0
 11
241.5690459999999
 21
190.3702369999998
 31
0.0
  0
LINE
  5
AF7C
330
AE98
100
AcDbEntity
  8
1
  6
Continuous
100
AcDbLine
 10
236.740622
 20
191.8012329999999
 30
0.0
 11
238.7406189999999
 21
190.3702369999998
 31
0.0
  0
LINE
  5
AF7D
330
AE98
100
AcDbEntity
  8
1
  6
Continuous
100
AcDbLine
 10
233.912195
 20
191.8012329999999
 30
0.0
 11
235.912191
 21
190.3702369999998
 31
0.0
  0
LINE
  5
AF7E
330
AE98
100
AcDbEntity
  8
1
  6
Continuous
100
AcDbLine
 10
231.083768
 20
191.8012329999999
 30
0.0
 11
233.0837639999999
 21
190.3702369999998
 31
0.0
  0
LINE
  5
AF7F
330
AE98
100
AcDbEntity
  8
1
  6
Continuous
100
AcDbLine
 10
242.9832589999998
 20
191.8012329999999
 30
0.0
 11
240.9832629999999
 21
190.3702369999998
 31
0.0
  0
LINE
  5
AF80
330
AE98
100
AcDbEntity
  8
1
  6
Continuous
100
AcDbLine
 10
241.5690459999999
 20
191.8012329999999
 30
0.0
 11
239.569049
 21
190.3702369999998
 31
0.0
  0
LINE
  5
AF81
330
AE98
100
AcDbEntity
  8
1
  6
Continuous
100
AcDbLine
 10
240.1548319999999
 20
191.8012329999999
 30
0.0
 11
238.154836
 21
190.3702369999998
 31
0.0
  0
LINE
  5
AF82
330
AE98
100
AcDbEntity
  8
1
  6
Continuous
100
AcDbLine
 10
238.7406189999999
 20
191.8012329999999
 30
0.0
 11
236.740622
 21
190.3702369999998
 31
0.0
  0
LINE
  5
AF83
330
AE98
100
AcDbEntity
  8
1
  6
Continuous
100
AcDbLine
 10
237.3264049999999
 20
191.8012329999999
 30
0.0
 11
235.3264089999999
 21
190.3702369999998
 31
0.0
  0
LINE
  5
AF84
330
AE98
100
AcDbEntity
  8
1
  6
Continuous
100
AcDbLine
 10
235.912191
 20
191.8012329999999
 30
0.0
 11
233.912195
 21
190.3702369999998
 31
0.0
  0
LINE
  5
AF85
330
AE98
100
AcDbEntity
  8
1
  6
Continuous
100
AcDbLine
 10
234.497978
 20
191.8012329999999
 30
0.0
 11
232.497981
 21
190.3702369999998
 31
0.0
  0
LINE
  5
AF86
330
AE98
100
AcDbEntity
  8
1
  6
Continuous
100
AcDbLine
 10
233.0837639999999
 20
191.8012329999999
 30
0.0
 11
231.083768
 21
190.3702369999998
 31
0.0
  0
LINE
  5
AF87
330
AE98
100
AcDbEntity
  8
1
  6
Continuous
100
AcDbLine
 10
244.0592339999998
 20
198.682458
 30
0.0
 11
244.0592339999998
 21
195.782458
 31
0.0
  0
LINE
  5
AF88
330
AE98
100
AcDbEntity
  8
1
  6
Continuous
100
AcDbLine
 10
245.225903
 20
191.8012329999999
 30
0.0
 11
247.2259
 21
190.3702369999998
 31
0.0
  0
LINE
  5
AF89
330
AE98
100
AcDbEntity
  8
1
  6
Continuous
100
AcDbLine
 10
247.6132029999999
 20
191.343323
 30
0.0
 11
246.640117
 21
190.3702369999998
 31
0.0
  0
LINE
  5
AF8A
330
AE98
100
AcDbEntity
  8
1
  6
Continuous
100
AcDbLine
 10
247.2259
 20
191.8012329999999
 30
0.0
 11
245.225903
 21
190.3702369999998
 31
0.0
  0
LINE
  5
AF8B
330
AE98
100
AcDbEntity
  8
1
  6
Continuous
100
AcDbLine
 10
245.811686
 20
191.8012329999999
 30
0.0
 11
243.81169
 21
190.3702369999998
 31
0.0
  0
LINE
  5
AF8C
330
AE98
100
AcDbEntity
  8
1
  6
Continuous
100
AcDbLine
 10
247.6132029999999
 20
191.8012329999999
 30
0.0
 11
247.6132029999999
 21
190.3702369999998
 31
0.0
  0
ARC
  5
AF8D
330
AE98
100
AcDbEntity
  8
1
  6
Continuous
100
AcDbCircle
 10
243.562379
 20
193.2824579999999
 30
0.0
 40
2.5
100
AcDbArc
 50
10.141019
 51
90.0
  0
ARC
  5
AF8E
330
AE98
100
AcDbEntity
  8
1
  6
Continuous
100
AcDbCircle
 10
246.332971
 20
192.765625
 30
0.0
 40
1.098799999999998
100
AcDbArc
 50
20.306161
 51
60.57047500000001
  0
ARC
  5
AF8F
330
AE98
100
AcDbEntity
  8
1
  6
Continuous
100
AcDbCircle
 10
245.0151079999999
 20
193.4778359999999
 30
0.0
 40
2.371570999999998
100
AcDbArc
 50
315.0106999999998
 51
351.9797889999999
  0
LINE
  5
AF90
330
AE98
100
AcDbEntity
  8
1
  6
Continuous
100
AcDbLine
 10
39.68711499999999
 20
191.8012339999999
 30
0.0
 11
37.687119
 21
190.370238
 31
0.0
  0
LINE
  5
AF91
330
AE98
100
AcDbEntity
  8
1
  6
Continuous
100
AcDbLine
 10
60.56208
 20
195.7824589999999
 30
0.0
 11
35.17021599999999
 21
195.7824589999999
 31
0.0
  0
LINE
  5
AF92
330
AE98
100
AcDbEntity
  8
1
  6
Continuous
100
AcDbLine
 10
35.17021599999999
 20
198.6824589999999
 30
0.0
 11
60.56208
 21
198.6824589999999
 31
0.0
  0
LINE
  5
AF93
330
AE98
100
AcDbEntity
  8
1
  6
Continuous
100
AcDbLine
 10
64.116049
 20
191.8011939999999
 30
0.0
 11
31.616049
 21
191.8012739999998
 31
0.0
  0
LINE
  5
AF94
330
AE98
100
AcDbEntity
  8
1
  6
Continuous
100
AcDbLine
 10
32.356581
 20
193.722638
 30
0.0
 11
63.375715
 21
193.722638
 31
0.0
  0
LINE
  5
AF95
330
AE98
100
AcDbEntity
  8
1
  6
Continuous
100
AcDbLine
 10
63.866329
 20
193.14695
 30
0.0
 11
31.865968
 21
193.14695
 31
0.0
  0
LINE
  5
AF96
330
AE98
100
AcDbEntity
  8
1
  6
Continuous
100
AcDbLine
 10
33.44447799999999
 20
191.8012339999999
 30
0.0
 11
35.44447499999999
 21
190.370238
 31
0.0
  0
LINE
  5
AF97
330
AE98
100
AcDbEntity
  8
1
  6
Continuous
100
AcDbLine
 10
32.616048
 20
190.370238
 30
0.0
 11
31.616049
 21
191.370236
 31
0.0
  0
LINE
  5
AF98
330
AE98
100
AcDbEntity
  8
1
  6
Continuous
100
AcDbLine
 10
35.44447499999999
 20
191.8012339999999
 30
0.0
 11
33.44447799999999
 21
190.370238
 31
0.0
  0
LINE
  5
AF99
330
AE98
100
AcDbEntity
  8
1
  6
Continuous
100
AcDbLine
 10
34.03026099999999
 20
191.8012339999999
 30
0.0
 11
32.03026499999999
 21
190.370238
 31
0.0
  0
LINE
  5
AF9A
330
AE98
100
AcDbEntity
  8
1
  6
Continuous
100
AcDbLine
 10
31.616049
 20
191.8012339999999
 30
0.0
 11
31.616049
 21
190.370238
 31
0.0
  0
ARC
  5
AF9B
330
AE98
100
AcDbEntity
  8
1
  6
Continuous
100
AcDbCircle
 10
35.66711200000001
 20
193.2824589999999
 30
0.0
 40
2.5
100
AcDbArc
 50
90.0
 51
169.858981
  0
LINE
  5
AF9C
330
AE98
100
AcDbEntity
  8
1
  6
Continuous
100
AcDbLine
 10
32.616048
 20
191.8012339999999
 30
0.0
 11
31.616049
 21
191.370236
 31
0.0
  0
ARC
  5
AF9D
330
AE98
100
AcDbEntity
  8
1
  6
Continuous
100
AcDbCircle
 10
32.896479
 20
192.765626
 30
0.0
 40
1.098799999999998
100
AcDbArc
 50
119.429525
 51
159.693839
  0
LINE
  5
AF9E
330
AE98
100
AcDbEntity
  8
1
  6
Continuous
100
AcDbLine
 10
36.272905
 20
191.8012339999999
 30
0.0
 11
38.272902
 21
190.370238
 31
0.0
  0
LINE
  5
AF9F
330
AE98
100
AcDbEntity
  8
1
  6
Continuous
100
AcDbLine
 10
38.272902
 20
191.8012339999999
 30
0.0
 11
36.272905
 21
190.370238
 31
0.0
  0
LINE
  5
AFA0
330
AE98
100
AcDbEntity
  8
1
  6
Continuous
100
AcDbLine
 10
36.858688
 20
191.8012339999999
 30
0.0
 11
34.85869199999999
 21
190.370238
 31
0.0
  0
ARC
  5
AFA1
330
AE98
100
AcDbEntity
  8
1
  6
Continuous
100
AcDbCircle
 10
34.214343
 20
193.477837
 30
0.0
 40
2.371570999999998
100
AcDbArc
 50
188.020211
 51
224.9867219999999
  0
LINE
  5
AFA2
330
AE98
100
AcDbEntity
  8
1
  6
Continuous
100
AcDbLine
 10
35.17021599999999
 20
195.7824589999999
 30
0.0
 11
35.17021599999999
 21
198.6824589999999
 31
0.0
  0
LINE
  5
AFA3
330
AE98
100
AcDbEntity
  8
1
  6
Continuous
100
AcDbLine
 10
53.243468
 20
191.8012339999999
 30
0.0
 11
55.243465
 21
190.370238
 31
0.0
  0
LINE
  5
AFA4
330
AE98
100
AcDbEntity
  8
1
  6
Continuous
100
AcDbLine
 10
55.243465
 20
191.8012339999999
 30
0.0
 11
53.243468
 21
190.370238
 31
0.0
  0
LINE
  5
AFA5
330
AE98
100
AcDbEntity
  8
1
  6
Continuous
100
AcDbLine
 10
56.65767800000001
 20
191.8012339999999
 30
0.0
 11
54.65768199999999
 21
190.370238
 31
0.0
  0
LINE
  5
AFA6
330
AE98
100
AcDbEntity
  8
1
  6
Continuous
100
AcDbLine
 10
41.92975999999997
 20
191.8012339999999
 30
0.0
 11
43.92975599999998
 21
190.370238
 31
0.0
  0
LINE
  5
AFA7
330
AE98
100
AcDbEntity
  8
1
  6
Continuous
100
AcDbLine
 10
45.34397
 20
191.8012339999999
 30
0.0
 11
43.343973
 21
190.370238
 31
0.0
  0
LINE
  5
AFA8
330
AE98
100
AcDbEntity
  8
1
  6
Continuous
100
AcDbLine
 10
43.92975599999998
 20
191.8012339999999
 30
0.0
 11
41.92975999999997
 21
190.370238
 31
0.0
  0
LINE
  5
AFA9
330
AE98
100
AcDbEntity
  8
1
  6
Continuous
100
AcDbLine
 10
42.515542
 20
191.8012339999999
 30
0.0
 11
40.515546
 21
190.370238
 31
0.0
  0
LINE
  5
AFAA
330
AE98
100
AcDbEntity
  8
1
  6
Continuous
100
AcDbLine
 10
44.758187
 20
191.8012339999999
 30
0.0
 11
46.758183
 21
190.370238
 31
0.0
  0
LINE
  5
AFAB
330
AE98
100
AcDbEntity
  8
1
  6
Continuous
100
AcDbLine
 10
48.172397
 20
191.8012339999999
 30
0.0
 11
46.1724
 21
190.370238
 31
0.0
  0
LINE
  5
AFAC
330
AE98
100
AcDbEntity
  8
1
  6
Continuous
100
AcDbLine
 10
46.758183
 20
191.8012339999999
 30
0.0
 11
44.758187
 21
190.370238
 31
0.0
  0
LINE
  5
AFAD
330
AE98
100
AcDbEntity
  8
1
  6
Continuous
100
AcDbLine
 10
50.415041
 20
191.8012339999999
 30
0.0
 11
52.41503699999999
 21
190.370238
 31
0.0
  0
LINE
  5
AFAE
330
AE98
100
AcDbEntity
  8
1
  6
Continuous
100
AcDbLine
 10
47.586614
 20
191.8012339999999
 30
0.0
 11
49.58661
 21
190.370238
 31
0.0
  0
LINE
  5
AFAF
330
AE98
100
AcDbEntity
  8
1
  6
Continuous
100
AcDbLine
 10
53.829251
 20
191.8012339999999
 30
0.0
 11
51.82925499999999
 21
190.370238
 31
0.0
  0
LINE
  5
AFB0
330
AE98
100
AcDbEntity
  8
1
  6
Continuous
100
AcDbLine
 10
52.41503699999999
 20
191.8012339999999
 30
0.0
 11
50.415041
 21
190.370238
 31
0.0
  0
LINE
  5
AFB1
330
AE98
100
AcDbEntity
  8
1
  6
Continuous
100
AcDbLine
 10
51.000824
 20
191.8012339999999
 30
0.0
 11
49.000827
 21
190.370238
 31
0.0
  0
LINE
  5
AFB2
330
AE98
100
AcDbEntity
  8
1
  6
Continuous
100
AcDbLine
 10
49.58661
 20
191.8012339999999
 30
0.0
 11
47.586614
 21
190.370238
 31
0.0
  0
LINE
  5
AFB3
330
AE98
100
AcDbEntity
  8
1
  6
Continuous
100
AcDbLine
 10
47.86614799999997
 20
195.7824589999999
 30
0.0
 11
47.86614799999997
 21
198.6824589999999
 31
0.0
  0
LINE
  5
AFB4
330
AE98
100
AcDbEntity
  8
1
  6
Continuous
100
AcDbLine
 10
39.101332
 20
191.8012339999999
 30
0.0
 11
41.10132899999999
 21
190.370238
 31
0.0
  0
LINE
  5
AFB5
330
AE98
100
AcDbEntity
  8
1
  6
Continuous
100
AcDbLine
 10
41.10132899999999
 20
191.8012339999999
 30
0.0
 11
39.101332
 21
190.370238
 31
0.0
  0
LINE
  5
AFB6
330
AE98
100
AcDbEntity
  8
1
  6
Continuous
100
AcDbLine
 10
58.900322
 20
191.8012339999999
 30
0.0
 11
60.90031899999999
 21
190.370238
 31
0.0
  0
LINE
  5
AFB7
330
AE98
100
AcDbEntity
  8
1
  6
Continuous
100
AcDbLine
 10
60.90031899999999
 20
191.8012339999999
 30
0.0
 11
58.900322
 21
190.370238
 31
0.0
  0
LINE
  5
AFB8
330
AE98
100
AcDbEntity
  8
1
  6
Continuous
100
AcDbLine
 10
56.071895
 20
191.8012339999999
 30
0.0
 11
58.07189199999999
 21
190.370238
 31
0.0
  0
LINE
  5
AFB9
330
AE98
100
AcDbEntity
  8
1
  6
Continuous
100
AcDbLine
 10
59.486105
 20
191.8012339999999
 30
0.0
 11
57.486109
 21
190.370238
 31
0.0
  0
LINE
  5
AFBA
330
AE98
100
AcDbEntity
  8
1
  6
Continuous
100
AcDbLine
 10
58.07189199999999
 20
191.8012339999999
 30
0.0
 11
56.071895
 21
190.370238
 31
0.0
  0
LINE
  5
AFBB
330
AE98
100
AcDbEntity
  8
1
  6
Continuous
100
AcDbLine
 10
61.728749
 20
191.8012339999999
 30
0.0
 11
63.72874599999999
 21
190.370238
 31
0.0
  0
LINE
  5
AFBC
330
AE98
100
AcDbEntity
  8
1
  6
Continuous
100
AcDbLine
 10
64.116049
 20
191.3433239999999
 30
0.0
 11
63.142963
 21
190.370238
 31
0.0
  0
LINE
  5
AFBD
330
AE98
100
AcDbEntity
  8
1
  6
Continuous
100
AcDbLine
 10
63.72874599999999
 20
191.8012339999999
 30
0.0
 11
61.728749
 21
190.370238
 31
0.0
  0
LINE
  5
AFBE
330
AE98
100
AcDbEntity
  8
1
  6
Continuous
100
AcDbLine
 10
62.31453199999999
 20
191.8012339999999
 30
0.0
 11
60.31453599999998
 21
190.370238
 31
0.0
  0
LINE
  5
AFBF
330
AE98
100
AcDbEntity
  8
1
  6
Continuous
100
AcDbLine
 10
64.116049
 20
191.8012339999999
 30
0.0
 11
64.116049
 21
190.370238
 31
0.0
  0
ARC
  5
AFC0
330
AE98
100
AcDbEntity
  8
1
  6
Continuous
100
AcDbCircle
 10
60.06522499999999
 20
193.2824589999999
 30
0.0
 40
2.5
100
AcDbArc
 50
10.141019
 51
90.0
  0
ARC
  5
AFC1
330
AE98
100
AcDbEntity
  8
1
  6
Continuous
100
AcDbCircle
 10
62.835817
 20
192.765626
 30
0.0
 40
1.098799999999998
100
AcDbArc
 50
20.306161
 51
60.57047500000001
  0
ARC
  5
AFC2
330
AE98
100
AcDbEntity
  8
1
  6
Continuous
100
AcDbCircle
 10
61.51795400000001
 20
193.477837
 30
0.0
 40
2.371570999999998
100
AcDbArc
 50
315.0106999999998
 51
351.9797889999999
  0
LINE
  5
AFC3
330
AE98
100
AcDbEntity
  8
1
  6
Continuous
100
AcDbLine
 10
60.56208
 20
198.6824589999999
 30
0.0
 11
60.56208
 21
195.7824589999999
 31
0.0
  0
LINE
  5
AFC4
330
AE98
100
AcDbEntity
  8
1
  6
Continuous
100
AcDbLine
 10
137.5046259999998
 20
195.7823409999998
 30
0.0
 11
137.5046259999998
 21
198.6824589999999
 31
0.0
  0
LINE
  5
AFC5
330
AE98
100
AcDbEntity
  8
1
  6
Continuous
100
AcDbLine
 10
144.8346259999999
 20
198.6824589999999
 30
0.0
 11
144.8346259999999
 21
195.782415
 31
0.0
  0
LINE
  5
AFC6
330
AE98
100
AcDbEntity
  8
1
  6
Continuous
100
AcDbLine
 10
159.494626
 20
198.6824589999999
 30
0.0
 11
159.494626
 21
195.782415
 31
0.0
  0
LINE
  5
AFC7
330
AE98
100
AcDbEntity
  8
1
  6
Continuous
100
AcDbLine
 10
166.824626
 20
195.7823409999998
 30
0.0
 11
166.824626
 21
198.6824589999999
 31
0.0
  0
LINE
  5
AFC8
330
AE98
100
AcDbEntity
  8
1
  6
Continuous
100
AcDbLine
 10
168.4145069999999
 20
191.3433239999999
 30
0.0
 11
167.4414209999999
 21
190.370238
 31
0.0
  0
ARC
  5
AFC9
330
AE98
100
AcDbEntity
  8
1
  6
Continuous
100
AcDbCircle
 10
165.816412
 20
193.477837
 30
0.0
 40
2.371570999999998
100
AcDbArc
 50
315.0106999999998
 51
351.9797889999999
  0
ARC
  5
AFCA
330
AE98
100
AcDbEntity
  8
1
  6
Continuous
100
AcDbCircle
 10
167.1342749999998
 20
192.765626
 30
0.0
 40
1.098799999999998
100
AcDbArc
 50
20.306161
 51
60.57047500000001
  0
LINE
  5
AFCB
330
AE98
100
AcDbEntity
  8
1
  6
Continuous
100
AcDbLine
 10
168.1647869999999
 20
193.14695
 30
0.0
 11
136.164426
 21
193.14695
 31
0.0
  0
LINE
  5
AFCC
330
AE98
100
AcDbEntity
  8
1
  6
Continuous
100
AcDbLine
 10
168.4145069999999
 20
191.8011939999999
 30
0.0
 11
135.9145069999999
 21
191.8012739999998
 31
0.0
  0
LINE
  5
AFCD
330
AE98
100
AcDbEntity
  8
1
  6
Continuous
100
AcDbLine
 10
136.9145059999999
 20
190.370238
 30
0.0
 11
135.9145069999999
 21
191.370236
 31
0.0
  0
ARC
  5
AFCE
330
AE98
100
AcDbEntity
  8
1
  6
Continuous
100
AcDbCircle
 10
138.512801
 20
193.477837
 30
0.0
 40
2.371570999999998
100
AcDbArc
 50
188.020211
 51
224.9867219999999
  0
ARC
  5
AFCF
330
AE98
100
AcDbEntity
  8
1
  6
Continuous
100
AcDbCircle
 10
137.194937
 20
192.765626
 30
0.0
 40
1.098799999999998
100
AcDbArc
 50
119.429525
 51
159.693839
  0
LINE
  5
AFD0
330
AE98
100
AcDbEntity
  8
1
  6
Continuous
100
AcDbLine
 10
136.9145059999999
 20
191.8012339999999
 30
0.0
 11
135.9145069999999
 21
191.370236
 31
0.0
  0
LINE
  5
AFD1
330
AE98
100
AcDbEntity
  8
1
  6
Continuous
100
AcDbLine
 10
135.9145069999999
 20
191.8012339999999
 30
0.0
 11
135.9145069999999
 21
190.370238
 31
0.0
  0
LINE
  5
AFD2
330
AE98
100
AcDbEntity
  8
1
  6
Continuous
100
AcDbLine
 10
153.8850679999999
 20
191.8012339999999
 30
0.0
 11
151.885072
 21
190.370238
 31
0.0
  0
LINE
  5
AFD3
330
AE98
100
AcDbEntity
  8
1
  6
Continuous
100
AcDbLine
 10
151.885072
 20
191.8012339999999
 30
0.0
 11
153.8850679999999
 21
190.370238
 31
0.0
  0
LINE
  5
AFD4
330
AE98
100
AcDbEntity
  8
1
  6
Continuous
100
AcDbLine
 10
152.4708549999998
 20
191.8012339999999
 30
0.0
 11
150.4708579999999
 21
190.370238
 31
0.0
  0
LINE
  5
AFD5
330
AE98
100
AcDbEntity
  8
1
  6
Continuous
100
AcDbLine
 10
136.655039
 20
193.722638
 30
0.0
 11
167.6741729999999
 21
193.722638
 31
0.0
  0
LINE
  5
AFD6
330
AE98
100
AcDbEntity
  8
1
  6
Continuous
100
AcDbLine
 10
166.824626
 20
195.7824589999999
 30
0.0
 11
137.5046259999998
 21
195.7824589999999
 31
0.0
  0
LINE
  5
AFD7
330
AE98
100
AcDbEntity
  8
1
  6
Continuous
100
AcDbLine
 10
145.399787
 20
191.8012339999999
 30
0.0
 11
143.39979
 21
190.370238
 31
0.0
  0
LINE
  5
AFD8
330
AE98
100
AcDbEntity
  8
1
  6
Continuous
100
AcDbLine
 10
143.39979
 20
191.8012339999999
 30
0.0
 11
145.399787
 21
190.370238
 31
0.0
  0
LINE
  5
AFD9
330
AE98
100
AcDbEntity
  8
1
  6
Continuous
100
AcDbLine
 10
151.0566409999999
 20
191.8012339999999
 30
0.0
 11
149.056645
 21
190.370238
 31
0.0
  0
LINE
  5
AFDA
330
AE98
100
AcDbEntity
  8
1
  6
Continuous
100
AcDbLine
 10
149.056645
 20
191.8012339999999
 30
0.0
 11
151.0566409999999
 21
190.370238
 31
0.0
  0
LINE
  5
AFDB
330
AE98
100
AcDbEntity
  8
1
  6
Continuous
100
AcDbLine
 10
146.814
 20
191.8012339999999
 30
0.0
 11
144.814004
 21
190.370238
 31
0.0
  0
LINE
  5
AFDC
330
AE98
100
AcDbEntity
  8
1
  6
Continuous
100
AcDbLine
 10
148.2282139999998
 20
191.8012339999999
 30
0.0
 11
146.228218
 21
190.370238
 31
0.0
  0
LINE
  5
AFDD
330
AE98
100
AcDbEntity
  8
1
  6
Continuous
100
AcDbLine
 10
149.642428
 20
191.8012339999999
 30
0.0
 11
147.6424309999999
 21
190.370238
 31
0.0
  0
LINE
  5
AFDE
330
AE98
100
AcDbEntity
  8
1
  6
Continuous
100
AcDbLine
 10
146.228218
 20
191.8012339999999
 30
0.0
 11
148.2282139999998
 21
190.370238
 31
0.0
  0
LINE
  5
AFDF
330
AE98
100
AcDbEntity
  8
1
  6
Continuous
100
AcDbLine
 10
141.1571459999999
 20
191.8012339999999
 30
0.0
 11
139.1571499999998
 21
190.370238
 31
0.0
  0
LINE
  5
AFE0
330
AE98
100
AcDbEntity
  8
1
  6
Continuous
100
AcDbLine
 10
142.5713599999999
 20
191.8012339999999
 30
0.0
 11
140.5713629999999
 21
190.370238
 31
0.0
  0
LINE
  5
AFE1
330
AE98
100
AcDbEntity
  8
1
  6
Continuous
100
AcDbLine
 10
140.5713629999999
 20
191.8012339999999
 30
0.0
 11
142.5713599999999
 21
190.370238
 31
0.0
  0
LINE
  5
AFE2
330
AE98
100
AcDbEntity
  8
1
  6
Continuous
100
AcDbLine
 10
138.328719
 20
191.8012339999999
 30
0.0
 11
136.328723
 21
190.370238
 31
0.0
  0
LINE
  5
AFE3
330
AE98
100
AcDbEntity
  8
1
  6
Continuous
100
AcDbLine
 10
139.742933
 20
191.8012339999999
 30
0.0
 11
137.7429359999999
 21
190.370238
 31
0.0
  0
LINE
  5
AFE4
330
AE98
100
AcDbEntity
  8
1
  6
Continuous
100
AcDbLine
 10
137.7429359999999
 20
191.8012339999999
 30
0.0
 11
139.742933
 21
190.370238
 31
0.0
  0
LINE
  5
AFE5
330
AE98
100
AcDbEntity
  8
1
  6
Continuous
100
AcDbLine
 10
143.9855729999998
 20
191.8012339999999
 30
0.0
 11
141.985577
 21
190.370238
 31
0.0
  0
ARC
  5
AFE6
330
AE98
100
AcDbEntity
  8
1
  6
Continuous
100
AcDbCircle
 10
139.9655699999998
 20
193.2824589999999
 30
0.0
 40
2.5
100
AcDbArc
 50
90.0
 51
169.858981
  0
LINE
  5
AFE7
330
AE98
100
AcDbEntity
  8
1
  6
Continuous
100
AcDbLine
 10
166.61299
 20
191.8012339999999
 30
0.0
 11
164.6129939999999
 21
190.370238
 31
0.0
  0
LINE
  5
AFE8
330
AE98
100
AcDbEntity
  8
1
  6
Continuous
100
AcDbLine
 10
168.027204
 20
191.8012339999999
 30
0.0
 11
166.0272069999998
 21
190.370238
 31
0.0
  0
LINE
  5
AFE9
330
AE98
100
AcDbEntity
  8
1
  6
Continuous
100
AcDbLine
 10
166.0272069999998
 20
191.8012339999999
 30
0.0
 11
168.027204
 21
190.370238
 31
0.0
  0
LINE
  5
AFEA
330
AE98
100
AcDbEntity
  8
1
  6
Continuous
100
AcDbLine
 10
162.3703499999998
 20
191.8012339999999
 30
0.0
 11
160.3703529999999
 21
190.370238
 31
0.0
  0
LINE
  5
AFEB
330
AE98
100
AcDbEntity
  8
1
  6
Continuous
100
AcDbLine
 10
163.7845629999999
 20
191.8012339999999
 30
0.0
 11
161.7845669999999
 21
190.370238
 31
0.0
  0
LINE
  5
AFEC
330
AE98
100
AcDbEntity
  8
1
  6
Continuous
100
AcDbLine
 10
160.3703529999999
 20
191.8012339999999
 30
0.0
 11
162.3703499999998
 21
190.370238
 31
0.0
  0
LINE
  5
AFED
330
AE98
100
AcDbEntity
  8
1
  6
Continuous
100
AcDbLine
 10
165.198777
 20
191.8012339999999
 30
0.0
 11
163.19878
 21
190.370238
 31
0.0
  0
LINE
  5
AFEE
330
AE98
100
AcDbEntity
  8
1
  6
Continuous
100
AcDbLine
 10
163.19878
 20
191.8012339999999
 30
0.0
 11
165.198777
 21
190.370238
 31
0.0
  0
LINE
  5
AFEF
330
AE98
100
AcDbEntity
  8
1
  6
Continuous
100
AcDbLine
 10
155.299282
 20
191.8012339999999
 30
0.0
 11
153.299285
 21
190.370238
 31
0.0
  0
LINE
  5
AFF0
330
AE98
100
AcDbEntity
  8
1
  6
Continuous
100
AcDbLine
 10
156.7134949999999
 20
191.8012339999999
 30
0.0
 11
154.713499
 21
190.370238
 31
0.0
  0
LINE
  5
AFF1
330
AE98
100
AcDbEntity
  8
1
  6
Continuous
100
AcDbLine
 10
158.127709
 20
191.8012339999999
 30
0.0
 11
156.127713
 21
190.370238
 31
0.0
  0
LINE
  5
AFF2
330
AE98
100
AcDbEntity
  8
1
  6
Continuous
100
AcDbLine
 10
154.713499
 20
191.8012339999999
 30
0.0
 11
156.7134949999999
 21
190.370238
 31
0.0
  0
LINE
  5
AFF3
330
AE98
100
AcDbEntity
  8
1
  6
Continuous
100
AcDbLine
 10
160.9561359999999
 20
191.8012339999999
 30
0.0
 11
158.95614
 21
190.370238
 31
0.0
  0
LINE
  5
AFF4
330
AE98
100
AcDbEntity
  8
1
  6
Continuous
100
AcDbLine
 10
159.541923
 20
191.8012339999999
 30
0.0
 11
157.5419259999998
 21
190.370238
 31
0.0
  0
LINE
  5
AFF5
330
AE98
100
AcDbEntity
  8
1
  6
Continuous
100
AcDbLine
 10
157.5419259999998
 20
191.8012339999999
 30
0.0
 11
159.541923
 21
190.370238
 31
0.0
  0
ARC
  5
AFF6
330
AE98
100
AcDbEntity
  8
1
  6
Continuous
100
AcDbCircle
 10
164.363683
 20
193.2824589999999
 30
0.0
 40
2.5
100
AcDbArc
 50
10.141019
 51
90.0
  0
LINE
  5
AFF7
330
AE98
100
AcDbEntity
  8
1
  6
Continuous
100
AcDbLine
 10
137.5046259999998
 20
198.6824589999999
 30
0.0
 11
166.824626
 21
198.6824589999999
 31
0.0
  0
LINE
  5
AFF8
330
AE98
100
AcDbEntity
  8
1
  6
Continuous
100
AcDbLine
 10
168.4145069999999
 20
191.8012339999999
 30
0.0
 11
168.4145069999999
 21
190.370238
 31
0.0
  0
ARC
  5
AFF9
330
AE98
100
AcDbEntity
  8
1
  6
Continuous
100
AcDbCircle
 10
137.8132369999999
 20
91.50985199999999
 30
0.0
 40
7.0
100
AcDbArc
 50
270.0
 51
303.723059
  0
ARC
  5
AFFA
330
AE98
100
AcDbEntity
  8
1
  6
Continuous
100
AcDbCircle
 10
137.8128769999999
 20
91.50961200000001
 30
0.0
 40
9.0
100
AcDbArc
 50
270.0
 51
303.724017
  0
ARC
  5
AFFB
330
AE98
100
AcDbEntity
  8
1
  6
Continuous
100
AcDbCircle
 10
137.8132369999999
 20
48.509372
 30
0.0
 40
7.0
100
AcDbArc
 50
56.276941
 51
90.0
  0
ARC
  5
AFFC
330
AE98
100
AcDbEntity
  8
1
  6
Continuous
100
AcDbCircle
 10
137.8128769999999
 20
48.509612
 30
0.0
 40
9.0
100
AcDbArc
 50
56.27598299999999
 51
90.0
  0
CIRCLE
  5
AFFD
330
AE98
100
AcDbEntity
  8
2
  6
Continuous
100
AcDbCircle
 10
152.164619
 20
281.7864619999999
 30
0.0
 40
3.3235
  0
ARC
  5
AFFE
330
AE98
100
AcDbEntity
  8
1
  6
Continuous
100
AcDbCircle
 10
152.164619
 20
281.7864619999999
 30
0.0
 40
18.85
100
AcDbArc
 50
236.2759829999999
 51
123.7240169999999
  0
LINE
  5
AFFF
330
AE98
100
AcDbEntity
  8
1
  6
Continuous
100
AcDbLine
 10
137.165027
 20
266.942173
 30
0.0
 11
137.165027
 21
267.2864619999999
 31
0.0
  0
ARC
  5
B000
330
AE98
100
AcDbEntity
  8
1
  6
Continuous
100
AcDbCircle
 10
137.8128769999999
 20
303.2864619999998
 30
0.0
 40
7.0
100
AcDbArc
 50
270.0
 51
303.724017
  0
LINE
  5
B001
330
AE98
100
AcDbEntity
  8
1
  6
Continuous
100
AcDbLine
 10
137.415027
 20
296.2864619999999
 30
0.0
 11
137.415027
 21
297.2198179999999
 31
0.0
  0
ARC
  5
B002
330
AE98
100
AcDbEntity
  8
1
  6
Continuous
100
AcDbCircle
 10
137.8128769999999
 20
260.2864619999999
 30
0.0
 40
7.0
100
AcDbArc
 50
56.27598299999999
 51
90.0
  0
CIRCLE
  5
B003
330
AE98
100
AcDbEntity
  8
1
  6
Continuous
100
AcDbCircle
 10
152.164619
 20
281.7864619999999
 30
0.0
 40
2.5
  0
ARC
  5
B004
330
AE98
100
AcDbEntity
  8
1
  6
Continuous
100
AcDbCircle
 10
156.167527
 20
70.009612
 30
0.0
 40
30.0
100
AcDbArc
 50
155.375682
 51
159.002124
  0
ARC
  5
B005
330
AE98
100
AcDbEntity
  8
1
  6
Continuous
100
AcDbCircle
 10
156.167527
 20
70.009612
 30
0.0
 40
30.0
100
AcDbArc
 50
200.997876
 51
204.6243179999999
  0
LINE
  5
B006
330
AE98
100
AcDbEntity
  8
1
  6
Continuous
100
AcDbLine
 10
144.834619
 20
294.482394
 30
0.0
 11
159.4946189999998
 21
294.482394
 31
0.0
  0
LINE
  5
B007
330
AE98
100
AcDbEntity
  8
1
  6
Continuous
100
AcDbLine
 10
144.834619
 20
269.09053
 30
0.0
 11
159.4946189999998
 21
269.09053
 31
0.0
  0
ARC
  5
B008
330
AE98
100
AcDbEntity
  8
1
  6
Continuous
100
AcDbCircle
 10
133.164626
 20
157.6822369999999
 30
0.0
 40
25.0
100
AcDbArc
 50
100.00639
 51
35.83806699999998
  0
ARC
  5
B009
330
AE98
100
AcDbEntity
  8
1
  6
Continuous
100
AcDbCircle
 10
133.164626
 20
157.6822369999999
 30
0.0
 40
19.5
100
AcDbArc
 50
104.8181719999998
 51
29.916719
  0
LINE
  5
B00A
330
AE98
100
AcDbEntity
  8
1
  6
Continuous
100
AcDbLine
 10
227.3632029999999
 20
198.682478
 30
0.0
 11
227.3632029999999
 21
220.482478
 31
0.0
  0
LINE
  5
B00B
330
AE98
100
AcDbEntity
  8
1
  6
Continuous
100
AcDbLine
 10
235.3632029999999
 20
198.682478
 30
0.0
 11
235.3632029999999
 21
220.482478
 31
0.0
  0
LINE
  5
B00C
330
AE98
100
AcDbEntity
  8
1
  6
Continuous
100
AcDbLine
 10
110.492104
 20
291.7864619999999
 30
0.0
 11
127.883256
 21
291.7864619999999
 31
0.0
  0
LINE
  5
B00D
330
AE98
100
AcDbEntity
  8
1
  6
Continuous
100
AcDbLine
 10
110.492104
 20
271.7864619999999
 30
0.0
 11
127.883256
 21
271.7864619999999
 31
0.0
  0
LINE
  5
B00E
330
AE98
100
AcDbEntity
  8
1
  6
Continuous
100
AcDbLine
 10
127.5845769999999
 20
271.0364619999999
 30
0.0
 11
128.159716
 21
271.0364619999999
 31
0.0
  0
LINE
  5
B00F
330
AE98
100
AcDbEntity
  8
1
  6
Continuous
100
AcDbLine
 10
127.5845769999999
 20
292.5364619999998
 30
0.0
 11
128.159716
 21
292.5364619999998
 31
0.0
  0
ARC
  5
B010
330
AE98
100
AcDbEntity
  8
1
  6
Continuous
100
AcDbCircle
 10
208.1650269999999
 20
281.7864619999999
 30
0.0
 40
100.0
100
AcDbArc
 50
175.317583
 51
184.6824169999998
  0
ARC
  5
B011
330
AE98
100
AcDbEntity
  8
1
  6
Continuous
100
AcDbCircle
 10
127.5845769999999
 20
271.5364619999999
 30
0.0
 40
0.5
100
AcDbArc
 50
190.0
 51
270.0
  0
LINE
  5
B012
330
AE98
100
AcDbEntity
  8
1
  6
Continuous
100
AcDbLine
 10
127.0921729999999
 20
271.4496379999999
 30
0.0
 11
127.032782
 21
271.7864619999999
 31
0.0
  0
ARC
  5
B013
330
AE98
100
AcDbEntity
  8
1
  6
Continuous
100
AcDbCircle
 10
110.492104
 20
273.7864619999999
 30
0.0
 40
2.0
100
AcDbArc
 50
184.6824169999998
 51
270.0
  0
ARC
  5
B014
330
AE98
100
AcDbEntity
  8
1
  6
Continuous
100
AcDbCircle
 10
127.5845769999999
 20
292.0364619999999
 30
0.0
 40
0.5
100
AcDbArc
 50
90.0
 51
170.0
  0
LINE
  5
B015
330
AE98
100
AcDbEntity
  8
1
  6
Continuous
100
AcDbLine
 10
127.0921729999999
 20
292.1232859999999
 30
0.0
 11
127.032782
 21
291.7864619999999
 31
0.0
  0
ARC
  5
B016
330
AE98
100
AcDbEntity
  8
1
  6
Continuous
100
AcDbCircle
 10
110.492104
 20
289.7864619999999
 30
0.0
 40
2.0
100
AcDbArc
 50
90.0
 51
175.317583
  0
LINE
  5
B017
330
AE98
100
AcDbEntity
  8
2
  6
Continuous
100
AcDbLine
 10
228.0397029999999
 20
221.1588789999999
 30
0.0
 11
228.0397029999999
 21
199.85421
 31
0.0
  0
LINE
  5
B018
330
AE98
100
AcDbEntity
  8
2
  6
Continuous
100
AcDbLine
 10
234.6867029999999
 20
221.1590769999999
 30
0.0
 11
234.6867029999999
 21
199.85421
 31
0.0
  0
LINE
  5
B019
330
AE98
100
AcDbEntity
  8
2
  6
Continuous
100
AcDbLine
 10
234.6867029999999
 20
199.85421
 30
0.0
 11
235.363215
 21
198.682458
 31
0.0
  0
LINE
  5
B01A
330
AE98
100
AcDbEntity
  8
2
  6
Continuous
100
AcDbLine
 10
228.0397029999999
 20
199.85421
 30
0.0
 11
227.363192
 21
198.682458
 31
0.0
  0
LINE
  5
B01B
330
AE98
100
AcDbEntity
  8
1
  6
Continuous
100
AcDbLine
 10
227.3632029999999
 20
199.85421
 30
0.0
 11
235.3632029999999
 21
199.85421
 31
0.0
  0
LINE
  5
B01C
330
AE98
100
AcDbEntity
  8
1
  6
Continuous
100
AcDbLine
 10
51.866148
 20
198.682479
 30
0.0
 11
51.866148
 21
220.4824789999999
 31
0.0
  0
LINE
  5
B01D
330
AE98
100
AcDbEntity
  8
1
  6
Continuous
100
AcDbLine
 10
43.86614799999999
 20
198.682479
 30
0.0
 11
43.86614799999999
 21
220.4824789999999
 31
0.0
  0
LINE
  5
B01E
330
AE98
100
AcDbEntity
  8
2
  6
Continuous
100
AcDbLine
 10
44.54264799999999
 20
221.158979
 30
0.0
 11
44.54264799999999
 21
199.8542109999999
 31
0.0
  0
LINE
  5
B01F
330
AE98
100
AcDbEntity
  8
2
  6
Continuous
100
AcDbLine
 10
51.189648
 20
221.158979
 30
0.0
 11
51.189648
 21
199.8542109999999
 31
0.0
  0
LINE
  5
B020
330
AE98
100
AcDbEntity
  8
1
  6
Continuous
100
AcDbLine
 10
43.86614799999999
 20
199.8542109999999
 30
0.0
 11
51.866148
 21
199.8542109999999
 31
0.0
  0
LINE
  5
B021
330
AE98
100
AcDbEntity
  8
2
  6
Continuous
100
AcDbLine
 10
44.54264799999999
 20
199.8542109999999
 30
0.0
 11
43.866137
 21
198.6824589999999
 31
0.0
  0
LINE
  5
B022
330
AE98
100
AcDbEntity
  8
2
  6
Continuous
100
AcDbLine
 10
51.189648
 20
199.8542109999999
 30
0.0
 11
51.86616
 21
198.6824589999999
 31
0.0
  0
LINE
  5
B023
330
AE98
100
AcDbEntity
  8
1
  6
Continuous
100
AcDbLine
 10
50.66614799999999
 20
221.6824789999999
 30
0.0
 11
45.066148
 21
221.6824789999999
 31
0.0
  0
LINE
  5
B024
330
AE98
100
AcDbEntity
  8
1
  6
Continuous
100
AcDbLine
 10
148.1646259999999
 20
199.8542109999999
 30
0.0
 11
156.164626
 21
199.8542109999999
 31
0.0
  0
LINE
  5
B025
330
AE98
100
AcDbEntity
  8
2
  6
Continuous
100
AcDbLine
 10
148.841126
 20
221.1588799999999
 30
0.0
 11
148.841126
 21
199.8542109999999
 31
0.0
  0
LINE
  5
B026
330
AE98
100
AcDbEntity
  8
1
  6
Continuous
100
AcDbLine
 10
148.1646259999999
 20
198.682479
 30
0.0
 11
148.1646259999999
 21
220.4824789999999
 31
0.0
  0
LINE
  5
B027
330
AE98
100
AcDbEntity
  8
2
  6
Continuous
100
AcDbLine
 10
148.841126
 20
199.8542109999999
 30
0.0
 11
148.1646149999999
 21
198.6824589999999
 31
0.0
  0
LINE
  5
B028
330
AE98
100
AcDbEntity
  8
2
  6
Continuous
100
AcDbLine
 10
155.4881259999999
 20
221.1590779999999
 30
0.0
 11
155.4881259999999
 21
199.8542109999999
 31
0.0
  0
LINE
  5
B029
330
AE98
100
AcDbEntity
  8
1
  6
Continuous
100
AcDbLine
 10
156.164626
 20
198.682479
 30
0.0
 11
156.164626
 21
220.4824789999999
 31
0.0
  0
LINE
  5
B02A
330
AE98
100
AcDbEntity
  8
2
  6
Continuous
100
AcDbLine
 10
155.4881259999999
 20
199.8542109999999
 30
0.0
 11
156.164638
 21
198.6824589999999
 31
0.0
  0
LINE
  5
B02B
330
AE98
100
AcDbEntity
  8
1
  6
Continuous
100
AcDbLine
 10
60.366049
 20
154.6820379999998
 30
0.0
 11
58.61604899999999
 21
154.6820379999998
 31
0.0
  0
LINE
  5
B02C
330
AE98
100
AcDbEntity
  8
1
  6
Continuous
100
AcDbLine
 10
58.61604899999999
 20
160.6820379999998
 30
0.0
 11
60.366049
 21
160.6820379999998
 31
0.0
  0
LINE
  5
B02D
330
AE98
100
AcDbEntity
  8
1
  6
Continuous
100
AcDbLine
 10
37.86604899999999
 20
180.354961
 30
0.0
 11
37.86604899999999
 21
135.0091139999999
 31
0.0
  0
LINE
  5
B02E
330
AE98
100
AcDbEntity
  8
1
  6
Continuous
100
AcDbLine
 10
57.866049
 20
180.354961
 30
0.0
 11
57.866049
 21
135.0091139999999
 31
0.0
  0
ARC
  5
B02F
330
AE98
100
AcDbEntity
  8
1
  6
Continuous
100
AcDbCircle
 10
47.86604899999999
 20
232.682038
 30
0.0
 40
100.0
100
AcDbArc
 50
265.317583
 51
274.682417
  0
ARC
  5
B030
330
AE98
100
AcDbEntity
  8
1
  6
Continuous
100
AcDbCircle
 10
39.86604899999999
 20
135.0091139999999
 30
0.0
 40
2.0
100
AcDbArc
 50
180.0
 51
265.317583
  0
ARC
  5
B031
330
AE98
100
AcDbEntity
  8
1
  6
Continuous
100
AcDbCircle
 10
55.866049
 20
135.0091139999999
 30
0.0
 40
2.0
100
AcDbArc
 50
274.682417
 51
0.0
  0
LINE
  5
B032
330
AE98
100
AcDbEntity
  8
1
  6
Continuous
100
AcDbLine
 10
37.11604899999999
 20
163.2624879999999
 30
0.0
 11
37.11604899999999
 21
152.101587
 31
0.0
  0
LINE
  5
B033
330
AE98
100
AcDbEntity
  8
1
  6
Continuous
100
AcDbLine
 10
37.52922499999999
 20
163.7548919999999
 30
0.0
 11
37.86604899999999
 21
163.8142829999999
 31
0.0
  0
ARC
  5
B034
330
AE98
100
AcDbEntity
  8
1
  6
Continuous
100
AcDbCircle
 10
37.616049
 20
163.2624879999999
 30
0.0
 40
0.5
100
AcDbArc
 50
100.0
 51
180.0
  0
LINE
  5
B035
330
AE98
100
AcDbEntity
  8
1
  6
Continuous
100
AcDbLine
 10
35.36604899999999
 20
160.6820379999998
 30
0.0
 11
37.11604899999999
 21
160.6820379999998
 31
0.0
  0
LINE
  5
B036
330
AE98
100
AcDbEntity
  8
1
  6
Continuous
100
AcDbLine
 10
37.52922499999999
 20
151.609184
 30
0.0
 11
37.86604899999999
 21
151.549792
 31
0.0
  0
ARC
  5
B037
330
AE98
100
AcDbEntity
  8
1
  6
Continuous
100
AcDbCircle
 10
37.616049
 20
152.101587
 30
0.0
 40
0.5
100
AcDbArc
 50
180.0
 51
260.0
  0
LINE
  5
B038
330
AE98
100
AcDbEntity
  8
1
  6
Continuous
100
AcDbLine
 10
35.36604899999999
 20
154.6820379999998
 30
0.0
 11
37.11604899999999
 21
154.6820379999998
 31
0.0
  0
LINE
  5
B039
330
AE98
100
AcDbEntity
  8
1
  6
Continuous
100
AcDbLine
 10
58.61604899999999
 20
163.2624879999999
 30
0.0
 11
58.61604899999999
 21
152.101587
 31
0.0
  0
LINE
  5
B03A
330
AE98
100
AcDbEntity
  8
1
  6
Continuous
100
AcDbLine
 10
58.202873
 20
151.609184
 30
0.0
 11
57.866049
 21
151.549792
 31
0.0
  0
ARC
  5
B03B
330
AE98
100
AcDbEntity
  8
1
  6
Continuous
100
AcDbCircle
 10
58.11604899999998
 20
152.101587
 30
0.0
 40
0.5
100
AcDbArc
 50
280.0
 51
0.0
  0
LINE
  5
B03C
330
AE98
100
AcDbEntity
  8
1
  6
Continuous
100
AcDbLine
 10
58.202873
 20
163.7548919999999
 30
0.0
 11
57.866049
 21
163.8142829999999
 31
0.0
  0
ARC
  5
B03D
330
AE98
100
AcDbEntity
  8
1
  6
Continuous
100
AcDbCircle
 10
58.11604899999998
 20
163.2624879999999
 30
0.0
 40
0.5
100
AcDbArc
 50
0.0
 51
80.0
  0
ARC
  5
B03E
330
AE98
100
AcDbEntity
  8
1
  6
Continuous
100
AcDbCircle
 10
47.86604899999999
 20
82.682038
 30
0.0
 40
100.0
100
AcDbArc
 50
85.31758299999998
 51
94.682417
  0
ARC
  5
B03F
330
AE98
100
AcDbEntity
  8
1
  6
Continuous
100
AcDbCircle
 10
39.86604899999999
 20
180.354961
 30
0.0
 40
2.0
100
AcDbArc
 50
94.682417
 51
180.0
  0
ARC
  5
B040
330
AE98
100
AcDbEntity
  8
1
  6
Continuous
100
AcDbCircle
 10
55.866049
 20
180.354961
 30
0.0
 40
2.0
100
AcDbArc
 50
0.0
 51
85.31758299999998
  0
ARC
  5
B041
330
AE98
100
AcDbEntity
  8
1
  6
Continuous
100
AcDbCircle
 10
239.3632029999999
 20
180.354961
 30
0.0
 40
2.0
100
AcDbArc
 50
0.0
 51
85.31758299999998
  0
ARC
  5
B042
330
AE98
100
AcDbEntity
  8
1
  6
Continuous
100
AcDbCircle
 10
223.3632029999998
 20
180.354961
 30
0.0
 40
2.0
100
AcDbArc
 50
94.682417
 51
180.0
  0
ARC
  5
B043
330
AE98
100
AcDbEntity
  8
1
  6
Continuous
100
AcDbCircle
 10
221.1132029999999
 20
152.101587
 30
0.0
 40
0.5
100
AcDbArc
 50
180.0
 51
260.0
  0
ARC
  5
B044
330
AE98
100
AcDbEntity
  8
1
  6
Continuous
100
AcDbCircle
 10
221.1132029999999
 20
163.2624879999999
 30
0.0
 40
0.5
100
AcDbArc
 50
100.0
 51
180.0
  0
ARC
  5
B045
330
AE98
100
AcDbEntity
  8
1
  6
Continuous
100
AcDbCircle
 10
223.3632029999998
 20
135.0091139999999
 30
0.0
 40
2.0
100
AcDbArc
 50
180.0
 51
265.317583
  0
LINE
  5
B046
330
AE98
100
AcDbEntity
  8
1
  6
Continuous
100
AcDbLine
 10
220.6132029999999
 20
163.2624879999999
 30
0.0
 11
220.6132029999999
 21
152.101587
 31
0.0
  0
LINE
  5
B047
330
AE98
100
AcDbEntity
  8
1
  6
Continuous
100
AcDbLine
 10
218.8632029999999
 20
154.6820379999998
 30
0.0
 11
220.6132029999999
 21
154.6820379999998
 31
0.0
  0
LINE
  5
B048
330
AE98
100
AcDbEntity
  8
1
  6
Continuous
100
AcDbLine
 10
218.8632029999999
 20
160.6820379999998
 30
0.0
 11
220.6132029999999
 21
160.6820379999998
 31
0.0
  0
LINE
  5
B049
330
AE98
100
AcDbEntity
  8
1
  6
Continuous
100
AcDbLine
 10
241.3632029999999
 20
180.354961
 30
0.0
 11
241.3632029999999
 21
135.0091139999999
 31
0.0
  0
LINE
  5
B04A
330
AE98
100
AcDbEntity
  8
1
  6
Continuous
100
AcDbLine
 10
221.3632029999998
 20
180.354961
 30
0.0
 11
221.3632029999998
 21
135.0091139999999
 31
0.0
  0
ARC
  5
B04B
330
AE98
100
AcDbEntity
  8
1
  6
Continuous
100
AcDbCircle
 10
231.3632029999999
 20
232.682038
 30
0.0
 40
100.0
100
AcDbArc
 50
265.317583
 51
274.682417
  0
ARC
  5
B04C
330
AE98
100
AcDbEntity
  8
1
  6
Continuous
100
AcDbCircle
 10
239.3632029999999
 20
135.0091139999999
 30
0.0
 40
2.0
100
AcDbArc
 50
274.682417
 51
0.0
  0
LINE
  5
B04D
330
AE98
100
AcDbEntity
  8
1
  6
Continuous
100
AcDbLine
 10
242.1132029999998
 20
163.2624879999999
 30
0.0
 11
242.1132029999998
 21
152.101587
 31
0.0
  0
LINE
  5
B04E
330
AE98
100
AcDbEntity
  8
1
  6
Continuous
100
AcDbLine
 10
221.0263789999999
 20
151.609184
 30
0.0
 11
221.3632029999998
 21
151.549792
 31
0.0
  0
ARC
  5
B04F
330
AE98
100
AcDbEntity
  8
1
  6
Continuous
100
AcDbCircle
 10
241.6132029999999
 20
152.101587
 30
0.0
 40
0.5
100
AcDbArc
 50
280.0
 51
0.0
  0
LINE
  5
B050
330
AE98
100
AcDbEntity
  8
1
  6
Continuous
100
AcDbLine
 10
241.7000269999999
 20
151.609184
 30
0.0
 11
241.3632029999999
 21
151.549792
 31
0.0
  0
LINE
  5
B051
330
AE98
100
AcDbEntity
  8
1
  6
Continuous
100
AcDbLine
 10
242.1132029999998
 20
160.6820379999998
 30
0.0
 11
243.8632029999999
 21
160.6820379999998
 31
0.0
  0
LINE
  5
B052
330
AE98
100
AcDbEntity
  8
1
  6
Continuous
100
AcDbLine
 10
243.8632029999999
 20
154.6820379999998
 30
0.0
 11
242.1132029999998
 21
154.6820379999998
 31
0.0
  0
ARC
  5
B053
330
AE98
100
AcDbEntity
  8
1
  6
Continuous
100
AcDbCircle
 10
231.3632029999999
 20
82.682038
 30
0.0
 40
100.0
100
AcDbArc
 50
85.31758299999998
 51
94.682417
  0
LINE
  5
B054
330
AE98
100
AcDbEntity
  8
1
  6
Continuous
100
AcDbLine
 10
221.0263789999999
 20
163.7548919999999
 30
0.0
 11
221.3632029999998
 21
163.8142829999999
 31
0.0
  0
ARC
  5
B055
330
AE98
100
AcDbEntity
  8
1
  6
Continuous
100
AcDbCircle
 10
241.6132029999999
 20
163.2624879999999
 30
0.0
 40
0.5
100
AcDbArc
 50
0.0
 51
80.0
  0
LINE
  5
B056
330
AE98
100
AcDbEntity
  8
1
  6
Continuous
100
AcDbLine
 10
241.7000269999999
 20
163.7548919999999
 30
0.0
 11
241.3632029999999
 21
163.8142829999999
 31
0.0
  0
ARC
  5
B057
330
AE98
100
AcDbEntity
  8
1
  6
Continuous
100
AcDbCircle
 10
208.1646259999998
 20
70.009612
 30
0.0
 40
100.0
100
AcDbArc
 50
175.317583
 51
184.6824169999998
  0
ARC
  5
B058
330
AE98
100
AcDbEntity
  8
1
  6
Continuous
100
AcDbCircle
 10
58.164626
 20
70.009612
 30
0.0
 40
100.0
100
AcDbArc
 50
355.317583
 51
4.682417
  0
LINE
  5
B059
330
AE98
100
AcDbEntity
  8
1
  6
Continuous
100
AcDbLine
 10
127.584176
 20
59.25961199999999
 30
0.0
 11
138.745077
 21
59.25961199999999
 31
0.0
  0
LINE
  5
B05A
330
AE98
100
AcDbEntity
  8
1
  6
Continuous
100
AcDbLine
 10
110.4917029999999
 20
60.00961199999998
 30
0.0
 11
155.8375499999999
 21
60.00961199999998
 31
0.0
  0
ARC
  5
B05B
330
AE98
100
AcDbEntity
  8
1
  6
Continuous
100
AcDbCircle
 10
110.4917029999999
 20
62.009612
 30
0.0
 40
2.0
100
AcDbArc
 50
184.6824169999998
 51
270.0
  0
ARC
  5
B05C
330
AE98
100
AcDbEntity
  8
1
  6
Continuous
100
AcDbCircle
 10
127.584176
 20
59.759612
 30
0.0
 40
0.5
100
AcDbArc
 50
190.0
 51
270.0
  0
LINE
  5
B05D
330
AE98
100
AcDbEntity
  8
1
  6
Continuous
100
AcDbLine
 10
127.0917719999999
 20
59.67278799999998
 30
0.0
 11
127.032381
 21
60.00961199999998
 31
0.0
  0
LINE
  5
B05E
330
AE98
100
AcDbEntity
  8
1
  6
Continuous
100
AcDbLine
 10
136.164626
 20
57.50961199999998
 30
0.0
 11
136.164626
 21
59.25961199999999
 31
0.0
  0
LINE
  5
B05F
330
AE98
100
AcDbEntity
  8
1
  6
Continuous
100
AcDbLine
 10
130.164626
 20
57.50961199999998
 30
0.0
 11
130.164626
 21
59.25961199999999
 31
0.0
  0
ARC
  5
B060
330
AE98
100
AcDbEntity
  8
1
  6
Continuous
100
AcDbCircle
 10
138.745077
 20
59.759612
 30
0.0
 40
0.5
100
AcDbArc
 50
270.0
 51
350.0
  0
LINE
  5
B061
330
AE98
100
AcDbEntity
  8
1
  6
Continuous
100
AcDbLine
 10
139.23748
 20
59.67278799999998
 30
0.0
 11
139.296872
 21
60.00961199999998
 31
0.0
  0
ARC
  5
B062
330
AE98
100
AcDbEntity
  8
1
  6
Continuous
100
AcDbCircle
 10
155.8375499999999
 20
62.009612
 30
0.0
 40
2.0
100
AcDbArc
 50
270.0
 51
355.317583
  0
LINE
  5
B063
330
AE98
100
AcDbEntity
  8
1
  6
Continuous
100
AcDbLine
 10
110.4917029999999
 20
80.009612
 30
0.0
 11
155.8375499999999
 21
80.009612
 31
0.0
  0
LINE
  5
B064
330
AE98
100
AcDbEntity
  8
1
  6
Continuous
100
AcDbLine
 10
127.584176
 20
80.759612
 30
0.0
 11
138.745077
 21
80.759612
 31
0.0
  0
ARC
  5
B065
330
AE98
100
AcDbEntity
  8
1
  6
Continuous
100
AcDbCircle
 10
110.4917029999999
 20
78.009612
 30
0.0
 40
2.0
100
AcDbArc
 50
90.0
 51
175.317583
  0
ARC
  5
B066
330
AE98
100
AcDbEntity
  8
1
  6
Continuous
100
AcDbCircle
 10
127.584176
 20
80.25961200000002
 30
0.0
 40
0.5
100
AcDbArc
 50
90.0
 51
170.0
  0
LINE
  5
B067
330
AE98
100
AcDbEntity
  8
1
  6
Continuous
100
AcDbLine
 10
127.0917719999999
 20
80.34643599999998
 30
0.0
 11
127.032381
 21
80.009612
 31
0.0
  0
LINE
  5
B068
330
AE98
100
AcDbEntity
  8
1
  6
Continuous
100
AcDbLine
 10
130.164626
 20
80.759612
 30
0.0
 11
130.164626
 21
82.509612
 31
0.0
  0
LINE
  5
B069
330
AE98
100
AcDbEntity
  8
1
  6
Continuous
100
AcDbLine
 10
136.164626
 20
82.509612
 30
0.0
 11
136.164626
 21
80.759612
 31
0.0
  0
ARC
  5
B06A
330
AE98
100
AcDbEntity
  8
1
  6
Continuous
100
AcDbCircle
 10
138.745077
 20
80.25961200000002
 30
0.0
 40
0.5
100
AcDbArc
 50
10.0
 51
90.0
  0
LINE
  5
B06B
330
AE98
100
AcDbEntity
  8
1
  6
Continuous
100
AcDbLine
 10
139.23748
 20
80.34643599999998
 30
0.0
 11
139.296872
 21
80.009612
 31
0.0
  0
ARC
  5
B06C
330
AE98
100
AcDbEntity
  8
1
  6
Continuous
100
AcDbCircle
 10
155.8375499999999
 20
78.009612
 30
0.0
 40
2.0
100
AcDbArc
 50
4.682417
 51
90.0
  0
ARC
  5
B06D
330
AE98
100
AcDbEntity
  8
1
  6
Continuous
100
AcDbCircle
 10
329.56178
 20
157.6822369999999
 30
0.0
 40
25.0
100
AcDbArc
 50
144.1619329999998
 51
79.99361000000003
  0
ARC
  5
B06E
330
AE98
100
AcDbEntity
  8
1
  6
Continuous
100
AcDbCircle
 10
329.56178
 20
157.6822369999999
 30
0.0
 40
19.5
100
AcDbArc
 50
150.083281
 51
75.18182799999998
  0
LINE
  5
B06F
330
AE98
100
AcDbEntity
  8
4
  6
CENTER
100
AcDbLine
 10
310.56178
 20
226.682479
 30
0.0
 11
310.56178
 21
167.1422599999999
 31
0.0
  0
LINE
  5
B070
330
AE98
100
AcDbEntity
  8
4
  6
CENTER
100
AcDbLine
 10
329.56178
 20
127.682237
 30
0.0
 11
329.56178
 21
185.6822369999999
 31
0.0
  0
LINE
  5
B071
330
AE98
100
AcDbEntity
  8
1
  6
Continuous
100
AcDbLine
 10
333.3231349999999
 20
187.5265049999999
 30
0.0
 11
336.679392
 21
157.4284969999999
 31
0.0
  0
ARC
  5
B072
330
AE98
100
AcDbEntity
  8
1
  6
Continuous
100
AcDbCircle
 10
256.957243
 20
136.558325
 30
0.0
 40
63.35981999999999
100
AcDbArc
 50
36.666179
 51
45.952998
  0
LINE
  5
B073
330
AE98
100
AcDbEntity
  8
1
  6
Continuous
100
AcDbLine
 10
321.71178
 20
186.633782
 30
0.0
 11
321.71178
 21
156.449475
 31
0.0
  0
ARC
  5
B074
330
AE98
100
AcDbEntity
  8
1
  6
Continuous
100
AcDbCircle
 10
329.2117799999999
 20
156.732237
 30
0.0
 40
7.5
100
AcDbArc
 50
244.0790989999999
 51
5.326703
  0
LINE
  5
B075
330
AE98
100
AcDbEntity
  8
4
  6
CENTER
100
AcDbLine
 10
359.5617799999998
 20
157.6822369999999
 30
0.0
 11
299.56178
 21
157.6822369999999
 31
0.0
  0
ARC
  5
B076
330
AE98
100
AcDbEntity
  8
1
  6
Continuous
100
AcDbCircle
 10
371.603662
 20
192.391394
 30
0.0
 40
63.31738699999998
100
AcDbArc
 50
210.0174259999998
 51
218.02512
  0
ARC
  5
B077
330
AE98
100
AcDbEntity
  8
1
  6
Continuous
100
AcDbCircle
 10
331.178865
 20
160.77953
 30
0.0
 40
12.0
100
AcDbArc
 50
218.02512
 51
244.0790989999999
  0
ARC
  5
B078
330
AE98
100
AcDbEntity
  8
1
  6
Continuous
100
AcDbCircle
 10
194.5435559999999
 20
90.093882
 30
0.0
 40
141.169928
100
AcDbArc
 50
30.017426
 51
36.666179
  0
LINE
  5
B079
330
AE98
100
AcDbEntity
  8
1
  6
Continuous
100
AcDbLine
 10
333.5092799999998
 20
185.5300409999999
 30
0.0
 11
335.7782369999998
 21
185.563798
 31
0.0
  0
ARC
  5
B07A
330
AE98
100
AcDbEntity
  8
1
  6
Continuous
100
AcDbCircle
 10
335.094627
 20
186.210488
 30
0.0
 40
1.351175999999999
100
AcDbArc
 50
50.763314
 51
91.14576300000001
  0
ARC
  5
B07B
330
AE98
100
AcDbEntity
  8
1
  6
Continuous
100
AcDbCircle
 10
335.773095
 20
185.9094419999999
 30
0.0
 40
0.345682
100
AcDbArc
 50
270.852372
 51
313.097669
  0
LINE
  5
B07C
330
AE98
100
AcDbEntity
  8
1
  6
Continuous
100
AcDbLine
 10
336.0092799999998
 20
186.3420279999999
 30
0.0
 11
336.0092799999998
 21
185.6570279999999
 31
0.0
  0
LINE
  5
B07D
330
AE98
100
AcDbEntity
  8
1
  6
Continuous
100
AcDbLine
 10
335.9492799999998
 20
187.2570279999999
 30
0.0
 11
336.0092799999998
 21
186.3420279999999
 31
0.0
  0
LINE
  5
B07E
330
AE98
100
AcDbEntity
  8
1
  6
Continuous
100
AcDbLine
 10
306.56178
 20
198.682479
 30
0.0
 11
306.56178
 21
220.4824789999999
 31
0.0
  0
LINE
  5
B07F
330
AE98
100
AcDbEntity
  8
2
  6
Continuous
100
AcDbLine
 10
307.2382799999999
 20
221.1588799999999
 30
0.0
 11
307.2382799999999
 21
199.8542109999999
 31
0.0
  0
LINE
  5
B080
330
AE98
100
AcDbEntity
  8
1
  6
Continuous
100
AcDbLine
 10
314.56178
 20
198.682479
 30
0.0
 11
314.56178
 21
220.4824789999999
 31
0.0
  0
LINE
  5
B081
330
AE98
100
AcDbEntity
  8
2
  6
Continuous
100
AcDbLine
 10
313.8852799999999
 20
221.1590779999999
 30
0.0
 11
313.8852799999999
 21
199.8542109999999
 31
0.0
  0
LINE
  5
B082
330
AE98
100
AcDbEntity
  8
1
  6
Continuous
100
AcDbLine
 10
325.2217799999999
 20
198.6824589999999
 30
0.0
 11
295.9017799999998
 21
198.6824589999999
 31
0.0
  0
LINE
  5
B083
330
AE98
100
AcDbEntity
  8
1
  6
Continuous
100
AcDbLine
 10
301.77027
 20
191.8012339999999
 30
0.0
 11
303.7702659999998
 21
190.370238
 31
0.0
  0
LINE
  5
B084
330
AE98
100
AcDbEntity
  8
1
  6
Continuous
100
AcDbLine
 10
295.9017799999998
 20
195.7824589999999
 30
0.0
 11
325.2217799999999
 21
195.7824589999999
 31
0.0
  0
LINE
  5
B085
330
AE98
100
AcDbEntity
  8
1
  6
Continuous
100
AcDbLine
 10
326.071367
 20
193.722638
 30
0.0
 11
295.052234
 21
193.722638
 31
0.0
  0
LINE
  5
B086
330
AE98
100
AcDbEntity
  8
1
  6
Continuous
100
AcDbLine
 10
326.831199
 20
190.3702369999998
 30
0.0
 11
293.882942
 21
190.3700419999999
 31
0.0
  0
LINE
  5
B087
330
AE98
100
AcDbEntity
  8
1
  6
Continuous
100
AcDbLine
 10
294.3118989999998
 20
191.8011939999999
 30
0.0
 11
326.811899
 21
191.8012739999998
 31
0.0
  0
LINE
  5
B088
330
AE98
100
AcDbEntity
  8
1
  6
Continuous
100
AcDbLine
 10
294.5616189999999
 20
193.14695
 30
0.0
 11
326.56198
 21
193.14695
 31
0.0
  0
LINE
  5
B089
330
AE98
100
AcDbEntity
  8
1
  6
Continuous
100
AcDbLine
 10
303.2317799999999
 20
198.6824589999999
 30
0.0
 11
303.2317799999999
 21
195.782415
 31
0.0
  0
LINE
  5
B08A
330
AE98
100
AcDbEntity
  8
1
  6
Continuous
100
AcDbLine
 10
317.8917799999999
 20
198.6824589999999
 30
0.0
 11
317.8917799999999
 21
195.782415
 31
0.0
  0
LINE
  5
B08B
330
AE98
100
AcDbEntity
  8
1
  6
Continuous
100
AcDbLine
 10
325.2217799999999
 20
195.7823409999998
 30
0.0
 11
325.2217799999999
 21
198.6824589999999
 31
0.0
  0
LINE
  5
B08C
330
AE98
100
AcDbEntity
  8
1
  6
Continuous
100
AcDbLine
 10
318.740833
 20
191.8012339999999
 30
0.0
 11
320.740829
 21
190.370238
 31
0.0
  0
LINE
  5
B08D
330
AE98
100
AcDbEntity
  8
1
  6
Continuous
100
AcDbLine
 10
319.326616
 20
191.8012339999999
 30
0.0
 11
317.326619
 21
190.370238
 31
0.0
  0
LINE
  5
B08E
330
AE98
100
AcDbEntity
  8
1
  6
Continuous
100
AcDbLine
 10
317.326619
 20
191.8012339999999
 30
0.0
 11
319.326616
 21
190.370238
 31
0.0
  0
ARC
  5
B08F
330
AE98
100
AcDbEntity
  8
1
  6
Continuous
100
AcDbCircle
 10
322.760836
 20
193.2824589999999
 30
0.0
 40
2.5
100
AcDbArc
 50
10.141019
 51
90.0
  0
LINE
  5
B090
330
AE98
100
AcDbEntity
  8
1
  6
Continuous
100
AcDbLine
 10
324.98347
 20
191.8012339999999
 30
0.0
 11
322.983473
 21
190.370238
 31
0.0
  0
LINE
  5
B091
330
AE98
100
AcDbEntity
  8
1
  6
Continuous
100
AcDbLine
 10
322.983473
 20
191.8012339999999
 30
0.0
 11
324.98347
 21
190.370238
 31
0.0
  0
LINE
  5
B092
330
AE98
100
AcDbEntity
  8
1
  6
Continuous
100
AcDbLine
 10
324.397687
 20
191.8012339999999
 30
0.0
 11
326.3976829999998
 21
190.370238
 31
0.0
  0
LINE
  5
B093
330
AE98
100
AcDbEntity
  8
1
  6
Continuous
100
AcDbLine
 10
322.1550429999999
 20
191.8012339999999
 30
0.0
 11
320.1550459999999
 21
190.370238
 31
0.0
  0
LINE
  5
B094
330
AE98
100
AcDbEntity
  8
1
  6
Continuous
100
AcDbLine
 10
320.1550459999999
 20
191.8012339999999
 30
0.0
 11
322.1550429999999
 21
190.370238
 31
0.0
  0
LINE
  5
B095
330
AE98
100
AcDbEntity
  8
1
  6
Continuous
100
AcDbLine
 10
321.56926
 20
191.8012339999999
 30
0.0
 11
323.5692559999999
 21
190.370238
 31
0.0
  0
LINE
  5
B096
330
AE98
100
AcDbEntity
  8
1
  6
Continuous
100
AcDbLine
 10
326.811899
 20
191.8012339999999
 30
0.0
 11
326.811899
 21
190.370238
 31
0.0
  0
LINE
  5
B097
330
AE98
100
AcDbEntity
  8
1
  6
Continuous
100
AcDbLine
 10
325.8118999999999
 20
191.8012339999999
 30
0.0
 11
326.811899
 21
191.370236
 31
0.0
  0
ARC
  5
B098
330
AE98
100
AcDbEntity
  8
1
  6
Continuous
100
AcDbCircle
 10
325.531469
 20
192.765626
 30
0.0
 40
1.098799999999998
100
AcDbArc
 50
20.306161
 51
60.57047500000001
  0
ARC
  5
B099
330
AE98
100
AcDbEntity
  8
1
  6
Continuous
100
AcDbCircle
 10
324.2136049999999
 20
193.477837
 30
0.0
 40
2.371570999999998
100
AcDbArc
 50
315.0132779999998
 51
351.9797889999999
  0
LINE
  5
B09A
330
AE98
100
AcDbEntity
  8
1
  6
Continuous
100
AcDbLine
 10
325.8118999999999
 20
190.370238
 30
0.0
 11
326.811899
 21
191.370236
 31
0.0
  0
LINE
  5
B09B
330
AE98
100
AcDbEntity
  8
1
  6
Continuous
100
AcDbLine
 10
331.2842799999998
 20
187.487028
 30
0.0
 11
331.8492799999999
 21
187.497028
 31
0.0
  0
LINE
  5
B09C
330
AE98
100
AcDbEntity
  8
1
  6
Continuous
100
AcDbLine
 10
330.6892799999999
 20
187.5070279999999
 30
0.0
 11
331.2842799999998
 21
187.487028
 31
0.0
  0
LINE
  5
B09D
330
AE98
100
AcDbEntity
  8
1
  6
Continuous
100
AcDbLine
 10
331.8492799999999
 20
187.497028
 30
0.0
 11
335.0676079999999
 21
187.5613949999998
 31
0.0
  0
ARC
  5
B09E
330
AE98
100
AcDbEntity
  8
1
  6
Continuous
100
AcDbCircle
 10
327.0335919999999
 20
189.593062
 30
0.0
 40
2.042368999999998
100
AcDbArc
 50
199.821809
 51
269.3179399999999
  0
LINE
  5
B09F
330
AE98
100
AcDbEntity
  8
1
  6
Continuous
100
AcDbLine
 10
329.6642799999998
 20
187.552028
 30
0.0
 11
329.8492799999999
 21
187.517028
 31
0.0
  0
LINE
  5
B0A0
330
AE98
100
AcDbEntity
  8
1
  6
Continuous
100
AcDbLine
 10
329.49428
 20
187.6370279999999
 30
0.0
 11
329.6642799999998
 21
187.552028
 31
0.0
  0
LINE
  5
B0A1
330
AE98
100
AcDbEntity
  8
1
  6
Continuous
100
AcDbLine
 10
329.1542799999998
 20
187.837028
 30
0.0
 11
329.49428
 21
187.6370279999999
 31
0.0
  0
LINE
  5
B0A2
330
AE98
100
AcDbEntity
  8
1
  6
Continuous
100
AcDbLine
 10
329.00928
 20
188.272028
 30
0.0
 11
329.1542799999998
 21
187.837028
 31
0.0
  0
ARC
  5
B0A3
330
AE98
100
AcDbEntity
  8
1
  6
Continuous
100
AcDbCircle
 10
324.9160949999999
 20
186.521835
 30
0.0
 40
4.451666999999998
100
AcDbArc
 50
23.150932
 51
38.25670199999999
  0
ARC
  5
B0A4
330
AE98
100
AcDbEntity
  8
1
  6
Continuous
100
AcDbCircle
 10
325.846989
 20
187.2558689999999
 30
0.0
 40
3.266183999999998
100
AcDbArc
 50
38.25670199999999
 51
72.462293
  0
LINE
  5
B0A5
330
AE98
100
AcDbEntity
  8
1
  6
Continuous
100
AcDbLine
 10
327.00928
 20
187.550838
 30
0.0
 11
330.6892799999999
 21
187.5070279999999
 31
0.0
  0
LINE
  5
B0A6
330
AE98
100
AcDbEntity
  8
1
  6
Continuous
100
AcDbLine
 10
305.18448
 20
191.8012339999999
 30
0.0
 11
303.184483
 21
190.370238
 31
0.0
  0
LINE
  5
B0A7
330
AE98
100
AcDbEntity
  8
1
  6
Continuous
100
AcDbLine
 10
303.184483
 20
191.8012339999999
 30
0.0
 11
305.18448
 21
190.370238
 31
0.0
  0
LINE
  5
B0A8
330
AE98
100
AcDbEntity
  8
1
  6
Continuous
100
AcDbLine
 10
308.0129069999999
 20
191.8012339999999
 30
0.0
 11
306.0129109999999
 21
190.370238
 31
0.0
  0
LINE
  5
B0A9
330
AE98
100
AcDbEntity
  8
1
  6
Continuous
100
AcDbLine
 10
304.598697
 20
191.8012339999999
 30
0.0
 11
306.5986930000001
 21
190.370238
 31
0.0
  0
LINE
  5
B0AA
330
AE98
100
AcDbEntity
  8
1
  6
Continuous
100
AcDbLine
 10
306.0129109999999
 20
191.8012339999999
 30
0.0
 11
308.0129069999999
 21
190.370238
 31
0.0
  0
LINE
  5
B0AB
330
AE98
100
AcDbEntity
  8
1
  6
Continuous
100
AcDbLine
 10
307.4271239999999
 20
191.8012339999999
 30
0.0
 11
309.427121
 21
190.370238
 31
0.0
  0
LINE
  5
B0AC
330
AE98
100
AcDbEntity
  8
1
  6
Continuous
100
AcDbLine
 10
316.4981879999999
 20
191.8012339999999
 30
0.0
 11
314.498192
 21
190.370238
 31
0.0
  0
LINE
  5
B0AD
330
AE98
100
AcDbEntity
  8
1
  6
Continuous
100
AcDbLine
 10
313.083978
 20
191.8012339999999
 30
0.0
 11
315.083975
 21
190.370238
 31
0.0
  0
LINE
  5
B0AE
330
AE98
100
AcDbEntity
  8
1
  6
Continuous
100
AcDbLine
 10
314.498192
 20
191.8012339999999
 30
0.0
 11
316.4981879999999
 21
190.370238
 31
0.0
  0
LINE
  5
B0AF
330
AE98
100
AcDbEntity
  8
1
  6
Continuous
100
AcDbLine
 10
315.9124059999999
 20
191.8012339999999
 30
0.0
 11
317.9124019999998
 21
190.370238
 31
0.0
  0
LINE
  5
B0B0
330
AE98
100
AcDbEntity
  8
1
  6
Continuous
100
AcDbLine
 10
313.669761
 20
191.8012339999999
 30
0.0
 11
311.6697649999999
 21
190.370238
 31
0.0
  0
LINE
  5
B0B1
330
AE98
100
AcDbEntity
  8
1
  6
Continuous
100
AcDbLine
 10
311.6697649999999
 20
191.8012339999999
 30
0.0
 11
313.669761
 21
190.370238
 31
0.0
  0
LINE
  5
B0B2
330
AE98
100
AcDbEntity
  8
1
  6
Continuous
100
AcDbLine
 10
310.2555509999999
 20
191.8012339999999
 30
0.0
 11
312.2555479999999
 21
190.370238
 31
0.0
  0
LINE
  5
B0B3
330
AE98
100
AcDbEntity
  8
1
  6
Continuous
100
AcDbLine
 10
310.8413339999998
 20
191.8012339999999
 30
0.0
 11
308.8413379999999
 21
190.370238
 31
0.0
  0
LINE
  5
B0B4
330
AE98
100
AcDbEntity
  8
1
  6
Continuous
100
AcDbLine
 10
308.8413379999999
 20
191.8012339999999
 30
0.0
 11
310.8413339999998
 21
190.370238
 31
0.0
  0
LINE
  5
B0B5
330
AE98
100
AcDbEntity
  8
2
  6
Continuous
100
AcDbLine
 10
307.2382799999999
 20
199.8542109999999
 30
0.0
 11
306.5617689999999
 21
198.6824589999999
 31
0.0
  0
LINE
  5
B0B6
330
AE98
100
AcDbEntity
  8
2
  6
Continuous
100
AcDbLine
 10
313.8852799999999
 20
199.8542109999999
 30
0.0
 11
314.5617919999999
 21
198.6824589999999
 31
0.0
  0
LINE
  5
B0B7
330
AE98
100
AcDbEntity
  8
1
  6
Continuous
100
AcDbLine
 10
314.56178
 20
199.8542109999999
 30
0.0
 11
306.56178
 21
199.8542109999999
 31
0.0
  0
LINE
  5
B0B8
330
AE98
100
AcDbEntity
  8
1
  6
Continuous
100
AcDbLine
 10
295.9017799999998
 20
195.7823409999998
 30
0.0
 11
295.9017799999998
 21
198.6824589999999
 31
0.0
  0
LINE
  5
B0B9
330
AE98
100
AcDbEntity
  8
1
  6
Continuous
100
AcDbLine
 10
294.3118989999998
 20
191.8012339999999
 30
0.0
 11
294.3118989999998
 21
190.370238
 31
0.0
  0
ARC
  5
B0BA
330
AE98
100
AcDbEntity
  8
1
  6
Continuous
100
AcDbCircle
 10
298.362723
 20
193.2824589999999
 30
0.0
 40
2.5
100
AcDbArc
 50
90.0
 51
169.858981
  0
LINE
  5
B0BB
330
AE98
100
AcDbEntity
  8
1
  6
Continuous
100
AcDbLine
 10
299.527626
 20
191.8012339999999
 30
0.0
 11
297.527629
 21
190.370238
 31
0.0
  0
LINE
  5
B0BC
330
AE98
100
AcDbEntity
  8
1
  6
Continuous
100
AcDbLine
 10
297.527629
 20
191.8012339999999
 30
0.0
 11
299.527626
 21
190.370238
 31
0.0
  0
LINE
  5
B0BD
330
AE98
100
AcDbEntity
  8
1
  6
Continuous
100
AcDbLine
 10
302.3560529999999
 20
191.8012339999999
 30
0.0
 11
300.356056
 21
190.370238
 31
0.0
  0
LINE
  5
B0BE
330
AE98
100
AcDbEntity
  8
1
  6
Continuous
100
AcDbLine
 10
298.941843
 20
191.8012339999999
 30
0.0
 11
300.941839
 21
190.370238
 31
0.0
  0
LINE
  5
B0BF
330
AE98
100
AcDbEntity
  8
1
  6
Continuous
100
AcDbLine
 10
300.356056
 20
191.8012339999999
 30
0.0
 11
302.3560529999999
 21
190.370238
 31
0.0
  0
LINE
  5
B0C0
330
AE98
100
AcDbEntity
  8
1
  6
Continuous
100
AcDbLine
 10
296.699199
 20
191.8012339999999
 30
0.0
 11
294.699202
 21
190.370238
 31
0.0
  0
LINE
  5
B0C1
330
AE98
100
AcDbEntity
  8
1
  6
Continuous
100
AcDbLine
 10
294.699202
 20
191.8012339999999
 30
0.0
 11
296.699199
 21
190.370238
 31
0.0
  0
LINE
  5
B0C2
330
AE98
100
AcDbEntity
  8
1
  6
Continuous
100
AcDbLine
 10
296.1134159999998
 20
191.8012339999999
 30
0.0
 11
298.1134119999999
 21
190.370238
 31
0.0
  0
ARC
  5
B0C3
330
AE98
100
AcDbEntity
  8
1
  6
Continuous
100
AcDbCircle
 10
295.5921309999999
 20
192.765626
 30
0.0
 40
1.098799999999998
100
AcDbArc
 50
119.429525
 51
159.693839
  0
ARC
  5
B0C4
330
AE98
100
AcDbEntity
  8
1
  6
Continuous
100
AcDbCircle
 10
296.9099939999999
 20
193.477837
 30
0.0
 40
2.371570999999998
100
AcDbArc
 50
188.020211
 51
224.9892999999999
  0
LINE
  5
B0C5
330
AE98
100
AcDbEntity
  8
1
  6
Continuous
100
AcDbLine
 10
294.3118989999998
 20
191.3433239999999
 30
0.0
 11
295.284985
 21
190.370238
 31
0.0
  0
LINE
  5
B0C6
330
AE98
100
AcDbEntity
  8
1
  6
Continuous
100
AcDbLine
 10
291.7117799999999
 20
183.6743669999999
 30
0.0
 11
292.04836
 21
187.7889979999999
 31
0.0
  0
LINE
  5
B0C7
330
AE98
100
AcDbEntity
  8
1
  6
Continuous
100
AcDbLine
 10
291.9622799999999
 20
183.6743669999999
 30
0.0
 11
291.7117799999999
 21
183.6743669999999
 31
0.0
  0
LINE
  5
B0C8
330
AE98
100
AcDbEntity
  8
1
  6
Continuous
100
AcDbLine
 10
292.7112799999998
 20
183.6320279999999
 30
0.0
 11
293.37628
 21
183.5870279999998
 31
0.0
  0
ARC
  5
B0C9
330
AE98
100
AcDbEntity
  8
1
  6
Continuous
100
AcDbCircle
 10
294.781266
 20
187.7889979999999
 30
0.0
 40
2.732905
100
AcDbArc
 50
109.1778389999999
 51
180.0
  0
LINE
  5
B0CA
330
AE98
100
AcDbEntity
  8
1
  6
Continuous
100
AcDbLine
 10
291.9622799999999
 20
183.6743669999999
 30
0.0
 11
292.7112799999998
 21
183.6320279999999
 31
0.0
  0
LINE
  5
B0CB
330
AE98
100
AcDbEntity
  8
1
  6
Continuous
100
AcDbLine
 10
293.5992799999999
 20
183.647028
 30
0.0
 11
297.182161
 21
183.647028
 31
0.0
  0
LINE
  5
B0CC
330
AE98
100
AcDbEntity
  8
1
  6
Continuous
100
AcDbLine
 10
293.37628
 20
183.5870279999998
 30
0.0
 11
293.5992799999999
 21
183.647028
 31
0.0
  0
ARC
  5
B0CD
330
AE98
100
AcDbEntity
  8
1
  6
Continuous
100
AcDbCircle
 10
297.182161
 20
178.144123
 30
0.0
 40
5.502905999999999
100
AcDbArc
 50
45.952998
 51
90.0
  0
CIRCLE
  5
B0CE
330
AE98
100
AcDbEntity
  8
1
  6
Continuous
100
AcDbCircle
 10
329.56178
 20
157.6822369999999
 30
0.0
 40
4.25
  0
LINE
  5
B0CF
330
AE98
100
AcDbEntity
  8
1
  6
Continuous
100
AcDbLine
 10
51.866148
 20
220.4824789999999
 30
0.0
 11
43.86614799999999
 21
220.4824789999999
 31
0.0
  0
LINE
  5
B0D0
330
AE98
100
AcDbEntity
  8
1
  6
Continuous
100
AcDbLine
 10
50.66614799999999
 20
221.6824789999999
 30
0.0
 11
51.866148
 21
220.4824789999999
 31
0.0
  0
LINE
  5
B0D1
330
AE98
100
AcDbEntity
  8
1
  6
Continuous
100
AcDbLine
 10
45.066148
 20
221.6824789999999
 30
0.0
 11
43.86614799999999
 21
220.4824789999999
 31
0.0
  0
LINE
  5
B0D2
330
AE98
100
AcDbEntity
  8
1
  6
Continuous
100
AcDbLine
 10
154.9647249999999
 20
221.6824789999999
 30
0.0
 11
149.3647249999999
 21
221.6824789999999
 31
0.0
  0
LINE
  5
B0D3
330
AE98
100
AcDbEntity
  8
1
  6
Continuous
100
AcDbLine
 10
156.164725
 20
220.4824789999999
 30
0.0
 11
148.1647249999998
 21
220.4824789999999
 31
0.0
  0
LINE
  5
B0D4
330
AE98
100
AcDbEntity
  8
1
  6
Continuous
100
AcDbLine
 10
149.3647249999999
 20
221.6824789999999
 30
0.0
 11
148.1647249999998
 21
220.4824789999999
 31
0.0
  0
LINE
  5
B0D5
330
AE98
100
AcDbEntity
  8
1
  6
Continuous
100
AcDbLine
 10
154.9647249999999
 20
221.6824789999999
 30
0.0
 11
156.164725
 21
220.4824789999999
 31
0.0
  0
LINE
  5
B0D6
330
AE98
100
AcDbEntity
  8
1
  6
Continuous
100
AcDbLine
 10
234.1633019999999
 20
221.6824779999999
 30
0.0
 11
228.563302
 21
221.6824779999999
 31
0.0
  0
LINE
  5
B0D7
330
AE98
100
AcDbEntity
  8
1
  6
Continuous
100
AcDbLine
 10
235.363302
 20
220.482478
 30
0.0
 11
227.363302
 21
220.482478
 31
0.0
  0
LINE
  5
B0D8
330
AE98
100
AcDbEntity
  8
1
  6
Continuous
100
AcDbLine
 10
228.563302
 20
221.6824779999999
 30
0.0
 11
227.363302
 21
220.482478
 31
0.0
  0
LINE
  5
B0D9
330
AE98
100
AcDbEntity
  8
1
  6
Continuous
100
AcDbLine
 10
234.1633019999999
 20
221.6824779999999
 30
0.0
 11
235.363302
 21
220.482478
 31
0.0
  0
LINE
  5
B0DA
330
AE98
100
AcDbEntity
  8
1
  6
Continuous
100
AcDbLine
 10
313.3618789999998
 20
221.6824789999999
 30
0.0
 11
307.761879
 21
221.6824789999999
 31
0.0
  0
LINE
  5
B0DB
330
AE98
100
AcDbEntity
  8
1
  6
Continuous
100
AcDbLine
 10
314.5618789999998
 20
220.4824789999999
 30
0.0
 11
306.5618789999998
 21
220.4824789999999
 31
0.0
  0
LINE
  5
B0DC
330
AE98
100
AcDbEntity
  8
1
  6
Continuous
100
AcDbLine
 10
307.761879
 20
221.6824789999999
 30
0.0
 11
306.5618789999998
 21
220.4824789999999
 31
0.0
  0
LINE
  5
B0DD
330
AE98
100
AcDbEntity
  8
1
  6
Continuous
100
AcDbLine
 10
313.3618789999998
 20
221.6824789999999
 30
0.0
 11
314.5618789999998
 21
220.4824789999999
 31
0.0
  0
ENDSEC
  0
SECTION
  2
OBJECTS
  0
DICTIONARY
  5
AE86
330
0
100
AcDbDictionary
281
     1
  3
ACAD_CIP_PREVIOUS_PRODUCT_INFO
350
B13F
  3
ACAD_COLOR
350
B121
  3
ACAD_DETAILVIEWSTYLE
350
B13A
  3
ACAD_GROUP
350
AE87
  3
ACAD_LAYOUT
350
AE93
  3
ACAD_MATERIAL
350
B0EF
  3
ACAD_MLEADERSTYLE
350
B136
  3
ACAD_MLINESTYLE
350
AE90
  3
ACAD_PLOTSETTINGS
350
AE92
  3
ACAD_PLOTSTYLENAME
350
B0ED
  3
ACAD_SCALELIST
350
B124
  3
ACAD_SECTIONVIEWSTYLE
350
B138
  3
ACAD_TABLESTYLE
350
B122
  3
ACAD_VISUALSTYLE
350
B108
  3
ACDB_RECOMPOSE_DATA
350
B15D
  3
AcDbVariableDictionary
350
B150
  3
DWGPROPS
350
B15E
  0
DICTIONARY
  5
B140
330
AE8A
100
AcDbDictionary
280
     1
281
     1
  3
ADSK_XREC_LAYER_RECONCILED
360
B141
  0
DICTIONARY
  5
B142
330
AEA0
100
AcDbDictionary
280
     1
281
     1
  3
ADSK_XREC_LAYER_RECONCILED
360
B143
  0
DICTIONARY
  5
B144
330
AEA1
100
AcDbDictionary
280
     1
281
     1
  3
ADSK_XREC_LAYER_RECONCILED
360
B145
  0
DICTIONARY
  5
B146
330
AEA2
100
AcDbDictionary
280
     1
281
     1
  3
ADSK_XREC_LAYER_RECONCILED
360
B147
  0
DICTIONARY
  5
B148
330
AEA3
100
AcDbDictionary
280
     1
281
     1
  3
ADSK_XREC_LAYER_RECONCILED
360
B149
  0
DICTIONARY
  5
B14A
330
AEA4
100
AcDbDictionary
280
     1
281
     1
  3
ADSK_XREC_LAYER_RECONCILED
360
B14B
  0
DICTIONARY
  5
B14C
330
AEA5
100
AcDbDictionary
280
     1
281
     1
  3
ADSK_XREC_LAYER_RECONCILED
360
B14D
  0
DICTIONARY
  5
B14E
330
AEA6
100
AcDbDictionary
280
     1
281
     1
  3
ADSK_XREC_LAYER_RECONCILED
360
B14F
  0
DICTIONARY
  5
B0E8
330
AE98
100
AcDbDictionary
281
     1
  3
ACAD_LAYOUTSELFREF
350
B0E9
  0
DICTIONARY
  5
B0E6
330
AE94
100
AcDbDictionary
281
     1
  3
ACAD_LAYOUTSELFREF
350
B0E7
  0
XRECORD
  5
B13F
102
{ACAD_REACTORS
330
AE86
102
}
330
AE86
100
AcDbXrecord
280
     1
300
ACDLT
300
2014
300
ACDLT_F_S
  0
DICTIONARY
  5
B121
102
{ACAD_REACTORS
330
AE86
102
}
330
AE86
100
AcDbDictionary
281
     1
  0
DICTIONARY
  5
B13A
102
{ACAD_REACTORS
330
AE86
102
}
330
AE86
100
AcDbDictionary
281
     1
  3
Imperial24
350
B13B
  0
DICTIONARY
  5
AE87
102
{ACAD_REACTORS
330
AE86
102
}
330
AE86
100
AcDbDictionary
281
     1
  0
DICTIONARY
  5
AE93
102
{ACAD_REACTORS
330
AE86
102
}
330
AE86
100
AcDbDictionary
281
     1
  3
Model
350
B13C
  3
レイアウト1
350
B13D
  0
DICTIONARY
  5
B0EF
102
{ACAD_REACTORS
330
AE86
102
}
330
AE86
100
AcDbDictionary
281
     1
  3
ByBlock
350
B0F8
  3
ByLayer
350
B0F0
  3
Global
350
B100
  0
DICTIONARY
  5
B136
102
{ACAD_REACTORS
330
AE86
102
}
330
AE86
100
AcDbDictionary
281
     1
  3
Standard
350
B137
  0
DICTIONARY
  5
AE90
102
{ACAD_REACTORS
330
AE86
102
}
330
AE86
100
AcDbDictionary
281
     1
  3
STANDARD
350
AE91
  0
DICTIONARY
  5
AE92
102
{ACAD_REACTORS
330
AE86
102
}
330
AE86
100
AcDbDictionary
281
     1
  0
ACDBDICTIONARYWDFLT
  5
B0ED
102
{ACAD_REACTORS
330
AE86
102
}
330
AE86
100
AcDbDictionary
281
     1
  3
Normal
350
B0EE
100
AcDbDictionaryWithDefault
340
B0EE
  0
DICTIONARY
  5
B124
102
{ACAD_REACTORS
330
AE86
102
}
330
AE86
100
AcDbDictionary
281
     1
  3
A0
350
B125
  3
A1
350
B126
  3
A2
350
B127
  3
A3
350
B128
  3
A4
350
B129
  3
A5
350
B12A
  3
A6
350
B12B
  3
A7
350
B12C
  3
A8
350
B12D
  3
A9
350
B12E
  3
B0
350
B12F
  3
B1
350
B130
  3
B2
350
B131
  3
B3
350
B132
  3
B4
350
B133
  3
B5
350
B134
  3
B6
350
B135
  0
DICTIONARY
  5
B138
102
{ACAD_REACTORS
330
AE86
102
}
330
AE86
100
AcDbDictionary
281
     1
  3
Imperial24
350
B139
  0
DICTIONARY
  5
B122
102
{ACAD_REACTORS
330
AE86
102
}
330
AE86
100
AcDbDictionary
281
     1
  3
Standard
350
B123
  0
DICTIONARY
  5
B108
102
{ACAD_REACTORS
330
AE86
102
}
330
AE86
100
AcDbDictionary
281
     1
  3
2dWireframe
350
B10E
  3
Basic
350
B10D
  3
Brighten
350
B114
  3
ColorChange
350
B118
  3
Conceptual
350
B111
  3
Dim
350
B113
  3
EdgeColorOff
350
B120
  3
Facepattern
350
B117
  3
Flat
350
B109
  3
FlatWithEdges
350
B10A
  3
Gouraud
350
B10B
  3
GouraudWithEdges
350
B10C
  3
Hidden
350
B110
  3
JitterOff
350
B11E
  3
Linepattern
350
B116
  3
OverhangOff
350
B11F
  3
Realistic
350
B112
  3
Shaded
350
B11D
  3
Shaded with edges
350
B11C
  3
Shades of Gray
350
B119
  3
Sketchy
350
B11A
  3
Thicken
350
B115
  3
Wireframe
350
B10F
  3
X-Ray
350
B11B
  0
XRECORD
  5
B15D
102
{ACAD_REACTORS
330
AE86
102
}
330
AE86
100
AcDbXrecord
280
     1
 90
        1
330
B123
  0
DICTIONARY
  5
B150
102
{ACAD_REACTORS
330
AE86
102
}
330
AE86
100
AcDbDictionary
281
     1
  3
CANNOSCALE
350
B155
  3
CMLEADERSTYLE
350
B152
  3
CTABLESTYLE
350
B151
  3
CVIEWDETAILSTYLE
350
B153
  3
CVIEWSECTIONSTYLE
350
B154
  3
DIMASSOC
350
B158
  3
INDEXCTL
350
B157
  3
SORTENTS
350
B156
  3
XCLIPFRAME
350
B159
  0
XRECORD
  5
B15E
102
{ACAD_REACTORS
330
AE86
102
}
330
AE86
100
AcDbXrecord
280
     1
  1
DWGPROPS COOKIE
  2

  3

  4

  6

  7

  8
Yoshitsune
  9

300
=
301
=
302
=
303
=
304
=
305
=
306
=
307
=
308
=
309
=
 40
0.0000095138888889
 41
2451302.666827199
 42
2457192.687893044
  1

 90
        0
  0
XRECORD
  5
B141
102
{ACAD_REACTORS
330
B140
102
}
330
B140
100
AcDbXrecord
280
     1
290
     1
  0
XRECORD
  5
B143
102
{ACAD_REACTORS
330
B142
102
}
330
B142
100
AcDbXrecord
280
     1
290
     1
  0
XRECORD
  5
B145
102
{ACAD_REACTORS
330
B144
102
}
330
B144
100
AcDbXrecord
280
     1
290
     1
  0
XRECORD
  5
B147
102
{ACAD_REACTORS
330
B146
102
}
330
B146
100
AcDbXrecord
280
     1
290
     1
  0
XRECORD
  5
B149
102
{ACAD_REACTORS
330
B148
102
}
330
B148
100
AcDbXrecord
280
     1
290
     1
  0
XRECORD
  5
B14B
102
{ACAD_REACTORS
330
B14A
102
}
330
B14A
100
AcDbXrecord
280
     1
290
     1
  0
XRECORD
  5
B14D
102
{ACAD_REACTORS
330
B14C
102
}
330
B14C
100
AcDbXrecord
280
     1
290
     1
  0
XRECORD
  5
B14F
102
{ACAD_REACTORS
330
B14E
102
}
330
B14E
100
AcDbXrecord
280
     1
290
     1
  0
XRECORD
  5
B0E9
102
{ACAD_REACTORS
330
B0E8
102
}
330
B0E8
100
AcDbXrecord
280
     1
340
AE98
  0
XRECORD
  5
B0E7
102
{ACAD_REACTORS
330
B0E6
102
}
330
B0E6
100
AcDbXrecord
280
     1
340
AE94
  0
ACDBDETAILVIEWSTYLE
  5
B13B
102
{ACAD_XDICTIONARY
360
B196
102
}
102
{ACAD_REACTORS
330
B13A
102
}
330
B13A
100
AcDbModelDocViewStyle
 70
     0
  3
Imperial24
290
     0
100
AcDbDetailViewStyle
 70
     0
 71
     0
 90
        3
 71
     1
340
AE8B
 40
0.24
340
0
 40
0.24
300

 40
0.36
280
     3
 71
     2
340
AE8F
 90
       25
 71
     3
340
AE8B
 40
0.24
 90
        1
 40
0.75
 90
        1
300
%<\AcVar ViewType \f "%tc1">% %<\AcVar ViewDetailId>%\PSCALE %<\AcVar ViewScale \f "%sn">%
 71
     4
340
AE8F
 90
       25
340
AE8F
 90
       25
280
     0
  0
LAYOUT
  5
B13C
102
{ACAD_XDICTIONARY
360
B198
102
}
102
{ACAD_REACTORS
330
AE93
102
}
330
AE93
100
AcDbPlotSettings
  1

  2
Canon LBP9100C
  4

  6

 40
0.0
 41
0.0
 42
0.0
 43
0.0
 44
0.0
 45
0.0
 46
0.0
 47
0.0
 48
0.0
 49
0.0
140
0.0
141
0.0
142
1.0
143
1.0
 70
  1712
 72
     0
 73
     0
 74
     0
  7

 75
     0
147
1.0
148
0.0
149
0.0
100
AcDbLayout
  1
Model
 70
     1
 71
     0
 10
0.0
 20
0.0
 11
12.0
 21
9.0
 12
0.0
 22
0.0
 32
0.0
 14
0.0
 24
0.0
 34
0.0
 15
0.0
 25
0.0
 35
0.0
146
0.0
 13
0.0
 23
0.0
 33
0.0
 16
1.0
 26
0.0
 36
0.0
 17
0.0
 27
1.0
 37
0.0
 76
     0
330
AE98
331
B0E5
  0
LAYOUT
  5
B13D
102
{ACAD_XDICTIONARY
360
B19A
102
}
102
{ACAD_REACTORS
330
AE93
102
}
330
AE93
100
AcDbPlotSettings
  1

  2
Canon LBP9100C
  4

  6

 40
0.0
 41
0.0
 42
0.0
 43
0.0
 44
0.0
 45
0.0
 46
0.0
 47
0.0
 48
0.0
 49
0.0
140
0.0
141
0.0
142
1.0
143
1.0
 70
   688
 72
     0
 73
     0
 74
     5
  7

 75
    16
147
1.0
148
0.0
149
0.0
100
AcDbLayout
  1
レイアウト1
 70
     0
 71
     1
 10
0.0
 20
0.0
 11
420.0
 21
297.0
 12
0.0
 22
0.0
 32
0.0
 14
1.000000000000000E+20
 24
1.000000000000000E+20
 34
1.000000000000000E+20
 15
-1.000000000000000E+20
 25
-1.000000000000000E+20
 35
-1.000000000000000E+20
146
0.0
 13
0.0
 23
0.0
 33
0.0
 16
1.0
 26
0.0
 36
0.0
 17
0.0
 27
1.0
 37
0.0
 76
     0
330
AE94
  0
MATERIAL
  5
B0F8
102
{ACAD_XDICTIONARY
360
B0F9
102
}
102
{ACAD_REACTORS
330
B0EF
102
}
330
B0EF
100
AcDbMaterial
  1
ByBlock
 72
     0
 43
0.0208333333333333
 43
0.0
 43
0.0
 43
0.0
 43
0.0
 43
0.0208333333333333
 43
0.0
 43
0.0
 43
0.0
 43
0.0
 43
1.0
 43
0.0
 43
0.0
 43
0.0
 43
0.0
 43
1.0
 77
     0
 47
0.0208333333333333
 47
0.0
 47
0.0
 47
0.0
 47
0.0
 47
0.0208333333333333
 47
0.0
 47
0.0
 47
0.0
 47
0.0
 47
1.0
 47
0.0
 47
0.0
 47
0.0
 47
0.0
 47
1.0
171
     0
 49
0.0208333333333333
 49
0.0
 49
0.0
 49
0.0
 49
0.0
 49
0.0208333333333333
 49
0.0
 49
0.0
 49
0.0
 49
0.0
 49
1.0
 49
0.0
 49
0.0
 49
0.0
 49
0.0
 49
1.0
175
     0
142
0.0208333333333333
142
0.0
142
0.0
142
0.0
142
0.0
142
0.0208333333333333
142
0.0
142
0.0
142
0.0
142
0.0
142
1.0
142
0.0
142
0.0
142
0.0
142
0.0
142
1.0
179
     0
144
0.0208333333333333
144
0.0
144
0.0
144
0.0
144
0.0
144
0.0208333333333333
144
0.0
144
0.0
144
0.0
144
0.0
144
1.0
144
0.0
144
0.0
144
0.0
144
0.0
144
1.0
147
0.0208333333333333
147
0.0
147
0.0
147
0.0
147
0.0
147
0.0208333333333333
147
0.0
147
0.0
147
0.0
147
0.0
147
1.0
147
0.0
147
0.0
147
0.0
147
0.0
147
1.0
  0
MATERIAL
  5
B0F0
102
{ACAD_XDICTIONARY
360
B0F1
102
}
102
{ACAD_REACTORS
330
B0EF
102
}
330
B0EF
100
AcDbMaterial
  1
ByLayer
 72
     0
 43
0.0208333333333333
 43
0.0
 43
0.0
 43
0.0
 43
0.0
 43
0.0208333333333333
 43
0.0
 43
0.0
 43
0.0
 43
0.0
 43
1.0
 43
0.0
 43
0.0
 43
0.0
 43
0.0
 43
1.0
 77
     0
 47
0.0208333333333333
 47
0.0
 47
0.0
 47
0.0
 47
0.0
 47
0.0208333333333333
 47
0.0
 47
0.0
 47
0.0
 47
0.0
 47
1.0
 47
0.0
 47
0.0
 47
0.0
 47
0.0
 47
1.0
171
     0
 49
0.0208333333333333
 49
0.0
 49
0.0
 49
0.0
 49
0.0
 49
0.0208333333333333
 49
0.0
 49
0.0
 49
0.0
 49
0.0
 49
1.0
 49
0.0
 49
0.0
 49
0.0
 49
0.0
 49
1.0
175
     0
142
0.0208333333333333
142
0.0
142
0.0
142
0.0
142
0.0
142
0.0208333333333333
142
0.0
142
0.0
142
0.0
142
0.0
142
1.0
142
0.0
142
0.0
142
0.0
142
0.0
142
1.0
179
     0
144
0.0208333333333333
144
0.0
144
0.0
144
0.0
144
0.0
144
0.0208333333333333
144
0.0
144
0.0
144
0.0
144
0.0
144
1.0
144
0.0
144
0.0
144
0.0
144
0.0
144
1.0
147
0.0208333333333333
147
0.0
147
0.0
147
0.0
147
0.0
147
0.0208333333333333
147
0.0
147
0.0
147
0.0
147
0.0
147
1.0
147
0.0
147
0.0
147
0.0
147
0.0
147
1.0
  0
MATERIAL
  5
B100
102
{ACAD_XDICTIONARY
360
B101
102
}
102
{ACAD_REACTORS
330
B0EF
102
}
330
B0EF
100
AcDbMaterial
  1
Global
 72
     0
 43
0.0208333333333333
 43
0.0
 43
0.0
 43
0.0
 43
0.0
 43
0.0208333333333333
 43
0.0
 43
0.0
 43
0.0
 43
0.0
 43
1.0
 43
0.0
 43
0.0
 43
0.0
 43
0.0
 43
1.0
 77
     0
 47
0.0208333333333333
 47
0.0
 47
0.0
 47
0.0
 47
0.0
 47
0.0208333333333333
 47
0.0
 47
0.0
 47
0.0
 47
0.0
 47
1.0
 47
0.0
 47
0.0
 47
0.0
 47
0.0
 47
1.0
171
     0
 49
0.0208333333333333
 49
0.0
 49
0.0
 49
0.0
 49
0.0
 49
0.0208333333333333
 49
0.0
 49
0.0
 49
0.0
 49
0.0
 49
1.0
 49
0.0
 49
0.0
 49
0.0
 49
0.0
 49
1.0
175
     0
142
0.0208333333333333
142
0.0
142
0.0
142
0.0
142
0.0
142
0.0208333333333333
142
0.0
142
0.0
142
0.0
142
0.0
142
1.0
142
0.0
142
0.0
142
0.0
142
0.0
142
1.0
179
     0
144
0.0208333333333333
144
0.0
144
0.0
144
0.0
144
0.0
144
0.0208333333333333
144
0.0
144
0.0
144
0.0
144
0.0
144
1.0
144
0.0
144
0.0
144
0.0
144
0.0
144
1.0
147
0.0208333333333333
147
0.0
147
0.0
147
0.0
147
0.0
147
0.0208333333333333
147
0.0
147
0.0
147
0.0
147
0.0
147
1.0
147
0.0
147
0.0
147
0.0
147
0.0
147
1.0
  0
MLEADERSTYLE
  5
B137
102
{ACAD_REACTORS
330
B136
102
}
330
B136
100
AcDbMLeaderStyle
170
     2
171
     1
172
     0
 90
        2
 40
0.0
 41
0.0
173
     1
 91
-1056964608
340
AE8D
 92
       -2
290
     1
 42
0.09
291
     1
 43
0.36
  3
Standard
 44
0.18
300

342
AE8B
174
     1
178
     6
175
     1
176
     0
 93
-1056964608
 45
0.18
292
     0
297
     0
 46
0.18
 94
-1056964608
 47
1.0
 49
1.0
140
1.0
293
     1
141
0.0
294
     1
177
     0
142
1.0
295
     0
296
     0
143
0.125
1001
ACAD_MLEADERVER
1070
     2
  0
MLINESTYLE
  5
AE91
102
{ACAD_REACTORS
330
AE90
102
}
330
AE90
100
AcDbMlineStyle
  2
STANDARD
 70
     0
  3

 62
   256
 51
90.0
 52
90.0
 71
     2
 49
0.5
 62
   256
  6
BYLAYER
 49
-0.5
 62
   256
  6
BYLAYER
  0
ACDBPLACEHOLDER
  5
B0EE
102
{ACAD_REACTORS
330
B0ED
102
}
330
B0ED
  0
SCALE
  5
B125
102
{ACAD_REACTORS
330
B124
102
}
330
B124
100
AcDbScale
 70
     0
300
1:1
140
1.0
141
1.0
290
     1
  0
SCALE
  5
B126
102
{ACAD_REACTORS
330
B124
102
}
330
B124
100
AcDbScale
 70
     0
300
1/128" = 1'-0"
140
0.0078125
141
12.0
290
     0
  0
SCALE
  5
B127
102
{ACAD_REACTORS
330
B124
102
}
330
B124
100
AcDbScale
 70
     0
300
1/64" = 1'-0"
140
0.015625
141
12.0
290
     0
  0
SCALE
  5
B128
102
{ACAD_REACTORS
330
B124
102
}
330
B124
100
AcDbScale
 70
     0
300
1/32" = 1'-0"
140
0.03125
141
12.0
290
     0
  0
SCALE
  5
B129
102
{ACAD_REACTORS
330
B124
102
}
330
B124
100
AcDbScale
 70
     0
300
1/16" = 1'-0"
140
0.0625
141
12.0
290
     0
  0
SCALE
  5
B12A
102
{ACAD_REACTORS
330
B124
102
}
330
B124
100
AcDbScale
 70
     0
300
3/32" = 1'-0"
140
0.09375
141
12.0
290
     0
  0
SCALE
  5
B12B
102
{ACAD_REACTORS
330
B124
102
}
330
B124
100
AcDbScale
 70
     0
300
1/8" = 1'-0"
140
0.125
141
12.0
290
     0
  0
SCALE
  5
B12C
102
{ACAD_REACTORS
330
B124
102
}
330
B124
100
AcDbScale
 70
     0
300
3/16" = 1'-0"
140
0.1875
141
12.0
290
     0
  0
SCALE
  5
B12D
102
{ACAD_REACTORS
330
B124
102
}
330
B124
100
AcDbScale
 70
     0
300
1/4" = 1'-0"
140
0.25
141
12.0
290
     0
  0
SCALE
  5
B12E
102
{ACAD_REACTORS
330
B124
102
}
330
B124
100
AcDbScale
 70
     0
300
3/8" = 1'-0"
140
0.375
141
12.0
290
     0
  0
SCALE
  5
B12F
102
{ACAD_REACTORS
330
B124
102
}
330
B124
100
AcDbScale
 70
     0
300
1/2" = 1'-0"
140
0.5
141
12.0
290
     0
  0
SCALE
  5
B130
102
{ACAD_REACTORS
330
B124
102
}
330
B124
100
AcDbScale
 70
     0
300
3/4" = 1'-0"
140
0.75
141
12.0
290
     0
  0
SCALE
  5
B131
102
{ACAD_REACTORS
330
B124
102
}
330
B124
100
AcDbScale
 70
     0
300
1" = 1'-0"
140
1.0
141
12.0
290
     0
  0
SCALE
  5
B132
102
{ACAD_REACTORS
330
B124
102
}
330
B124
100
AcDbScale
 70
     0
300
1-1/2" = 1'-0"
140
1.5
141
12.0
290
     0
  0
SCALE
  5
B133
102
{ACAD_REACTORS
330
B124
102
}
330
B124
100
AcDbScale
 70
     0
300
3" = 1'-0"
140
3.0
141
12.0
290
     0
  0
SCALE
  5
B134
102
{ACAD_REACTORS
330
B124
102
}
330
B124
100
AcDbScale
 70
     0
300
6" = 1'-0"
140
6.0
141
12.0
290
     0
  0
SCALE
  5
B135
102
{ACAD_REACTORS
330
B124
102
}
330
B124
100
AcDbScale
 70
     0
300
1'-0" = 1'-0"
140
12.0
141
12.0
290
     0
  0
ACDBSECTIONVIEWSTYLE
  5
B139
102
{ACAD_XDICTIONARY
360
B194
102
}
102
{ACAD_REACTORS
330
B138
102
}
330
B138
100
AcDbModelDocViewStyle
 70
     0
  3
Imperial24
290
     0
100
AcDbSectionViewStyle
 70
     0
 71
     0
 90
       78
 71
     1
340
AE8B
 40
0.24
340
0
340
0
 40
0.24
300
I, O, Q, S, X, Z
 40
0.48
 90
        3
 40
0.18
 90
        1
 71
     2
340
AE8F
 90
       25
340
AE8F
 90
       50
 40
0.24
 40
0.0
 40
0.24
 71
     3
340
AE8B
 40
0.24
 90
        1
 40
0.75
 90
        1
300
%<\AcVar ViewType \f "%tc1">% %<\AcVar ViewSectionStartId>%-%<\AcVar ViewSectionEndId>%\PSCALE %<\AcVar ViewScale \f "%sn">%
 71
     4
300
ANSI31
 40
1.0
 90
        0
290
     0
290
     0
 90
        6
 40
0.0
 40
1.570796326794896
 40
0.2617993877991494
 40
1.308996938995747
 40
-0.2617993877991494
 40
1.832595714594046
  0
TABLESTYLE
  5
B123
102
{ACAD_XDICTIONARY
360
B15B
102
}
102
{ACAD_REACTORS
330
B122
102
}
330
B122
100
AcDbTableStyle
  3
Standard
 70
     0
 71
     0
 40
0.06
 41
0.06
280
     0
281
     0
  7
STANDARD
140
0.18
170
     2
 62
     0
 63
     7
283
     0
274
    -2
284
     1
 64
     0
275
    -2
285
     1
 65
     0
276
    -2
286
     1
 66
     0
277
    -2
287
     1
 67
     0
278
    -2
288
     1
 68
     0
279
    -2
289
     1
 69
     0
  7
STANDARD
140
0.25
170
     5
 62
     0
 63
     7
283
     0
274
    -2
284
     1
 64
     0
275
    -2
285
     1
 65
     0
276
    -2
286
     1
 66
     0
277
    -2
287
     1
 67
     0
278
    -2
288
     1
 68
     0
279
    -2
289
     1
 69
     0
  7
STANDARD
140
0.18
170
     5
 62
     0
 63
     7
283
     0
274
    -2
284
     1
 64
     0
275
    -2
285
     1
 65
     0
276
    -2
286
     1
 66
     0
277
    -2
287
     1
 67
     0
278
    -2
288
     1
 68
     0
279
    -2
289
     1
 69
     0
  0
VISUALSTYLE
  5
B10E
102
{ACAD_XDICTIONARY
360
B16C
102
}
102
{ACAD_REACTORS
330
B108
102
}
330
B108
100
AcDbVisualStyle
  2
2dWireframe
 70
     4
 71
     0
 72
     2
 73
     0
 90
        0
 40
-0.6
 41
-30.0
 62
     5
 63
     7
 74
     1
 91
        4
 64
     7
 65
   257
 75
     1
175
     1
 42
1.0
 92
        0
 66
   257
 43
1.0
 76
     1
 77
     6
 78
     2
 67
     7
 79
     5
170
     0
171
     0
290
     0
174
     0
 93
        1
 44
0.0
173
     0
291
     0
 45
0.0
1001
ACAD
1000
AcDbSavedByObjectVersion
1070
     0
  0
VISUALSTYLE
  5
B10D
102
{ACAD_XDICTIONARY
360
B16A
102
}
102
{ACAD_REACTORS
330
B108
102
}
330
B108
100
AcDbVisualStyle
  2
Basic
 70
     7
 71
     1
 72
     0
 73
     1
 90
        0
 40
-0.6
 41
-30.0
 62
     5
 63
     7
 74
     0
 91
        4
 64
     7
 65
   257
 75
     1
175
     1
 42
1.0
 92
        8
 66
     7
 43
1.0
 76
     1
 77
     6
 78
     2
 67
     7
 79
     5
170
     0
171
     0
290
     0
174
     0
 93
        1
 44
0.0
173
     0
291
     1
 45
0.0
1001
ACAD
1000
AcDbSavedByObjectVersion
1070
     0
  0
VISUALSTYLE
  5
B114
102
{ACAD_XDICTIONARY
360
B178
102
}
102
{ACAD_REACTORS
330
B108
102
}
330
B108
100
AcDbVisualStyle
  2
Brighten
 70
    12
 71
     2
 72
     2
 73
     0
 90
        0
 40
-0.6
 41
-30.0
 62
     5
 63
     7
 74
     1
 91
        4
 64
     7
 65
   257
 75
     1
175
     1
 42
1.0
 92
        8
 66
     7
 43
1.0
 76
     1
 77
     6
 78
     2
 67
     7
 79
     5
170
     0
171
     0
290
     0
174
     0
 93
        1
 44
50.0
173
     0
291
     1
 45
0.0
1001
ACAD
1000
AcDbSavedByObjectVersion
1070
     0
  0
VISUALSTYLE
  5
B118
102
{ACAD_XDICTIONARY
360
B180
102
}
102
{ACAD_REACTORS
330
B108
102
}
330
B108
100
AcDbVisualStyle
  2
ColorChange
 70
    16
 71
     2
 72
     2
 73
     3
 90
        0
 40
-0.6
 41
-30.0
 62
     5
 63
     8
 74
     1
 91
        4
 64
     7
 65
   257
 75
     1
175
     1
 42
1.0
 92
        8
 66
     8
 43
1.0
 76
     1
 77
     6
 78
     2
 67
     7
 79
     5
170
     0
171
     0
290
     0
174
     0
 93
        1
 44
0.0
173
     0
291
     1
 45
0.0
1001
ACAD
1000
AcDbSavedByObjectVersion
1070
     0
  0
VISUALSTYLE
  5
B111
102
{ACAD_XDICTIONARY
360
B172
102
}
102
{ACAD_REACTORS
330
B108
102
}
330
B108
100
AcDbVisualStyle
  2
Conceptual
 70
     9
 71
     3
 72
     2
 73
     0
 90
        0
 40
-0.6
 41
-30.0
 62
     5
 63
     7
 74
     2
 91
        2
 64
     7
 65
   257
 75
     1
175
     1
 42
179.0
 92
        8
 66
     7
 43
1.0
 76
     1
 77
     6
 78
     2
 67
     7
 79
     3
170
     0
171
     0
290
     0
174
     0
 93
        1
 44
0.0
173
     0
291
     0
 45
0.0
1001
ACAD
1000
AcDbSavedByObjectVersion
1070
     0
  0
VISUALSTYLE
  5
B113
102
{ACAD_XDICTIONARY
360
B176
102
}
102
{ACAD_REACTORS
330
B108
102
}
330
B108
100
AcDbVisualStyle
  2
Dim
 70
    11
 71
     2
 72
     2
 73
     0
 90
        0
 40
-0.6
 41
-30.0
 62
     5
 63
     7
 74
     1
 91
        4
 64
     7
 65
   257
 75
     1
175
     1
 42
1.0
 92
        8
 66
     7
 43
1.0
 76
     1
 77
     6
 78
     2
 67
     7
 79
     5
170
     0
171
     0
290
     0
174
     0
 93
        1
 44
-50.0
173
     0
291
     1
 45
0.0
1001
ACAD
1000
AcDbSavedByObjectVersion
1070
     0
  0
VISUALSTYLE
  5
B120
102
{ACAD_XDICTIONARY
360
B190
102
}
102
{ACAD_REACTORS
330
B108
102
}
330
B108
100
AcDbVisualStyle
  2
EdgeColorOff
 70
    22
 71
     2
 72
     2
 73
     0
 90
        0
 40
-0.6
 41
-30.0
 62
     5
 63
     7
 74
     1
 91
        4
 64
     7
 65
   257
 75
     1
175
     1
 42
1.0
 92
        8
 66
     7
 43
1.0
 76
     1
 77
     6
 78
     2
 67
     7
 79
     5
170
     0
171
     0
290
     0
174
     0
 93
        1
 44
0.0
173
     0
291
     1
 45
0.0
1001
ACAD
1000
AcDbSavedByObjectVersion
1070
     0
  0
VISUALSTYLE
  5
B117
102
{ACAD_XDICTIONARY
360
B17E
102
}
102
{ACAD_REACTORS
330
B108
102
}
330
B108
100
AcDbVisualStyle
  2
Facepattern
 70
    15
 71
     2
 72
     2
 73
     0
 90
        0
 40
-0.6
 41
-30.0
 62
     5
 63
     7
 74
     1
 91
        4
 64
     7
 65
   257
 75
     1
175
     1
 42
1.0
 92
        8
 66
     7
 43
1.0
 76
     1
 77
     6
 78
     2
 67
     7
 79
     5
170
     0
171
     0
290
     0
174
     0
 93
        1
 44
0.0
173
     0
291
     1
 45
0.0
1001
ACAD
1000
AcDbSavedByObjectVersion
1070
     0
  0
VISUALSTYLE
  5
B109
102
{ACAD_XDICTIONARY
360
B162
102
}
102
{ACAD_REACTORS
330
B108
102
}
330
B108
100
AcDbVisualStyle
  2
Flat
 70
     0
 71
     2
 72
     1
 73
     1
 90
        2
 40
-0.6
 41
30.0
 62
     5
 63
     7
 74
     0
 91
        0
 64
     7
 65
   257
 75
     1
175
     1
 42
1.0
 92
        8
 66
     7
 43
1.0
 76
     1
 77
     6
 78
     2
 67
     7
 79
     5
170
     0
171
     0
290
     0
174
     0
 93
       13
 44
0.0
173
     0
291
     1
 45
0.0
1001
ACAD
1000
AcDbSavedByObjectVersion
1070
     0
  0
VISUALSTYLE
  5
B10A
102
{ACAD_XDICTIONARY
360
B164
102
}
102
{ACAD_REACTORS
330
B108
102
}
330
B108
100
AcDbVisualStyle
  2
FlatWithEdges
 70
     1
 71
     2
 72
     1
 73
     1
 90
        2
 40
-0.6
 41
30.0
 62
     5
 63
     7
 74
     1
 91
        0
 64
     7
 65
   257
 75
     1
175
     1
 42
1.0
 92
        0
 66
   257
 43
1.0
 76
     1
 77
     6
 78
     2
 67
     7
 79
     5
170
     0
171
     0
290
     0
174
     0
 93
       13
 44
0.0
173
     0
291
     1
 45
0.0
1001
ACAD
1000
AcDbSavedByObjectVersion
1070
     0
  0
VISUALSTYLE
  5
B10B
102
{ACAD_XDICTIONARY
360
B166
102
}
102
{ACAD_REACTORS
330
B108
102
}
330
B108
100
AcDbVisualStyle
  2
Gouraud
 70
     2
 71
     2
 72
     2
 73
     1
 90
        2
 40
-0.6
 41
30.0
 62
     5
 63
     7
 74
     0
 91
        0
 64
     7
 65
   257
 75
     1
175
     1
 42
1.0
 92
        0
 66
     7
 43
1.0
 76
     1
 77
     6
 78
     2
 67
     7
 79
     5
170
     0
171
     0
290
     0
174
     0
 93
       13
 44
0.0
173
     0
291
     1
 45
0.0
1001
ACAD
1000
AcDbSavedByObjectVersion
1070
     0
  0
VISUALSTYLE
  5
B10C
102
{ACAD_XDICTIONARY
360
B168
102
}
102
{ACAD_REACTORS
330
B108
102
}
330
B108
100
AcDbVisualStyle
  2
GouraudWithEdges
 70
     3
 71
     2
 72
     2
 73
     1
 90
        2
 40
-0.6
 41
30.0
 62
     5
 63
     7
 74
     1
 91
        0
 64
     7
 65
   257
 75
     1
175
     1
 42
1.0
 92
        0
 66
   257
 43
1.0
 76
     1
 77
     6
 78
     2
 67
     7
 79
     5
170
     0
171
     0
290
     0
174
     0
 93
       13
 44
0.0
173
     0
291
     1
 45
0.0
1001
ACAD
1000
AcDbSavedByObjectVersion
1070
     0
  0
VISUALSTYLE
  5
B110
102
{ACAD_XDICTIONARY
360
B170
102
}
102
{ACAD_REACTORS
330
B108
102
}
330
B108
100
AcDbVisualStyle
  2
Hidden
 70
     6
 71
     1
 72
     2
 73
     2
 90
        0
 40
-0.6
 41
-30.0
 62
     5
 63
     7
 74
     2
 91
        2
 64
     7
 65
   257
 75
     2
175
     1
 42
40.0
 92
        0
 66
   257
 43
1.0
 76
     1
 77
     6
 78
     2
 67
     7
 79
     3
170
     0
171
     0
290
     0
174
     0
 93
        1
 44
0.0
173
     0
291
     0
 45
0.0
1001
ACAD
1000
AcDbSavedByObjectVersion
1070
     0
  0
VISUALSTYLE
  5
B11E
102
{ACAD_XDICTIONARY
360
B18C
102
}
102
{ACAD_REACTORS
330
B108
102
}
330
B108
100
AcDbVisualStyle
  2
JitterOff
 70
    20
 71
     2
 72
     2
 73
     0
 90
        0
 40
-0.6
 41
-30.0
 62
     5
 63
     7
 74
     1
 91
        4
 64
     7
 65
   257
 75
     1
175
     1
 42
1.0
 92
       10
 66
     7
 43
1.0
 76
     1
 77
     6
 78
     2
 67
     7
 79
     5
170
     0
171
     0
290
     0
174
     0
 93
        1
 44
0.0
173
     0
291
     1
 45
0.0
1001
ACAD
1000
AcDbSavedByObjectVersion
1070
     0
  0
VISUALSTYLE
  5
B116
102
{ACAD_XDICTIONARY
360
B17C
102
}
102
{ACAD_REACTORS
330
B108
102
}
330
B108
100
AcDbVisualStyle
  2
Linepattern
 70
    14
 71
     2
 72
     2
 73
     0
 90
        0
 40
-0.6
 41
-30.0
 62
     5
 63
     7
 74
     1
 91
        4
 64
     7
 65
   257
 75
     7
175
     7
 42
1.0
 92
        8
 66
     7
 43
1.0
 76
     1
 77
     6
 78
     2
 67
     7
 79
     5
170
     0
171
     0
290
     0
174
     0
 93
        1
 44
0.0
173
     0
291
     1
 45
0.0
1001
ACAD
1000
AcDbSavedByObjectVersion
1070
     0
  0
VISUALSTYLE
  5
B11F
102
{ACAD_XDICTIONARY
360
B18E
102
}
102
{ACAD_REACTORS
330
B108
102
}
330
B108
100
AcDbVisualStyle
  2
OverhangOff
 70
    21
 71
     2
 72
     2
 73
     0
 90
        0
 40
-0.6
 41
-30.0
 62
     5
 63
     7
 74
     1
 91
        4
 64
     7
 65
   257
 75
     1
175
     1
 42
1.0
 92
        9
 66
     7
 43
1.0
 76
     1
 77
     6
 78
     2
 67
     7
 79
     5
170
     0
171
     0
290
     0
174
     0
 93
        1
 44
0.0
173
     0
291
     1
 45
0.0
1001
ACAD
1000
AcDbSavedByObjectVersion
1070
     0
  0
VISUALSTYLE
  5
B112
102
{ACAD_XDICTIONARY
360
B174
102
}
102
{ACAD_REACTORS
330
B108
102
}
330
B108
100
AcDbVisualStyle
  2
Realistic
 70
     8
 71
     2
 72
     3
 73
     0
 90
        2
 40
-0.6
 41
30.0
 62
     5
 63
     7
 74
     0
 91
        0
 64
     7
 65
   257
 75
     1
175
     1
 42
1.0
 92
        8
 66
   257
 43
1.0
 76
     1
 77
     6
 78
     2
 67
     7
 79
     3
170
     0
171
     0
290
     0
174
     0
 93
       13
 44
0.0
173
     0
291
     0
 45
0.0
1001
ACAD
1000
AcDbSavedByObjectVersion
1070
     0
  0
VISUALSTYLE
  5
B11D
102
{ACAD_XDICTIONARY
360
B18A
102
}
102
{ACAD_REACTORS
330
B108
102
}
330
B108
100
AcDbVisualStyle
  2
Shaded
 70
    27
 71
     2
 72
     2
 73
     1
 90
        2
 40
-0.6
 41
30.0
 62
     5
 63
     7
 74
     0
 91
        4
 64
     7
 65
   257
 75
     1
175
     1
 42
1.0
 92
        8
 66
   257
 43
1.0
 76
     1
 77
     6
 78
     2
 67
     8
 79
     3
170
     0
171
     0
290
     0
174
     0
 93
        5
 44
0.0
173
     0
291
     0
 45
0.0
1001
ACAD
1000
AcDbSavedByObjectVersion
1070
     0
  0
VISUALSTYLE
  5
B11C
102
{ACAD_XDICTIONARY
360
B188
102
}
102
{ACAD_REACTORS
330
B108
102
}
330
B108
100
AcDbVisualStyle
  2
Shaded with edges
 70
    26
 71
     2
 72
     2
 73
     1
 90
        2
 40
-0.6
 41
30.0
 62
     5
 63
     7
 74
     1
 91
       10
 64
     7
 65
   257
 75
     2
175
     1
 42
1.0
 92
        8
 66
   257
 43
1.0
 76
     1
 77
     6
 78
     2
 67
     7
 79
     3
170
     0
171
     0
290
     0
174
     0
 93
        5
 44
0.0
173
     0
291
     0
 45
0.0
1001
ACAD
1000
AcDbSavedByObjectVersion
1070
     0
  0
VISUALSTYLE
  5
B119
102
{ACAD_XDICTIONARY
360
B182
102
}
102
{ACAD_REACTORS
330
B108
102
}
330
B108
100
AcDbVisualStyle
  2
Shades of Gray
 70
    23
 71
     2
 72
     2
 73
     3
 90
        0
 40
-0.6
 41
-30.0
 62
     5
 63
     7
 74
     2
 91
        2
 64
     7
 65
     7
 75
     1
175
     1
 42
40.0
 92
        8
 66
     7
 43
1.0
 76
     1
 77
     6
 78
     2
 67
     7
 79
     3
170
     0
171
     0
290
     0
174
     0
 93
        1
 44
0.0
173
     0
291
     0
 45
0.0
1001
ACAD
1000
AcDbSavedByObjectVersion
1070
     0
  0
VISUALSTYLE
  5
B11A
102
{ACAD_XDICTIONARY
360
B184
102
}
102
{ACAD_REACTORS
330
B108
102
}
330
B108
100
AcDbVisualStyle
  2
Sketchy
 70
    24
 71
     1
 72
     2
 73
     2
 90
        0
 40
-0.6
 41
-30.0
 62
     5
 63
     7
 74
     2
 91
        2
 64
     7
 65
     7
 75
     1
175
     1
 42
40.0
 92
       11
 66
     7
 43
1.0
 76
     1
 77
     6
 78
     2
 67
     7
 79
     6
170
     0
171
     0
290
     0
174
     0
 93
        1
 44
0.0
173
     0
291
     0
 45
0.0
1001
ACAD
1000
AcDbSavedByObjectVersion
1070
     0
  0
VISUALSTYLE
  5
B115
102
{ACAD_XDICTIONARY
360
B17A
102
}
102
{ACAD_REACTORS
330
B108
102
}
330
B108
100
AcDbVisualStyle
  2
Thicken
 70
    13
 71
     2
 72
     2
 73
     0
 90
        0
 40
-0.6
 41
-30.0
 62
     5
 63
     7
 74
     1
 91
        4
 64
     7
 65
   257
 75
     1
175
     1
 42
1.0
 92
       12
 66
     7
 43
1.0
 76
     1
 77
     6
 78
     2
 67
     7
 79
     5
170
     0
171
     0
290
     0
174
     0
 93
        1
 44
0.0
173
     0
291
     1
 45
0.0
1001
ACAD
1000
AcDbSavedByObjectVersion
1070
     0
  0
VISUALSTYLE
  5
B10F
102
{ACAD_XDICTIONARY
360
B16E
102
}
102
{ACAD_REACTORS
330
B108
102
}
330
B108
100
AcDbVisualStyle
  2
Wireframe
 70
     5
 71
     0
 72
     2
 73
     0
 90
        0
 40
-0.6
 41
-30.0
 62
     5
 63
     7
 74
     1
 91
        4
 64
     7
 65
   257
 75
     1
175
     1
 42
1.0
 92
        0
 66
   257
 43
1.0
 76
     1
 77
     6
 78
     2
 67
     7
 79
     3
170
     0
171
     0
290
     0
174
     0
 93
        1
 44
0.0
173
     0
291
     0
 45
0.0
1001
ACAD
1000
AcDbSavedByObjectVersion
1070
     0
  0
VISUALSTYLE
  5
B11B
102
{ACAD_XDICTIONARY
360
B186
102
}
102
{ACAD_REACTORS
330
B108
102
}
330
B108
100
AcDbVisualStyle
  2
X-Ray
 70
    25
 71
     2
 72
     2
 73
     1
 90
        1
 40
0.5
 41
-30.0
 62
     5
 63
     7
 74
     1
 91
        0
 64
     7
 65
   257
 75
     1
175
     1
 42
1.0
 92
        8
 66
     7
 43
1.0
 76
     1
 77
     6
 78
     2
 67
     7
 79
     3
170
     0
171
     0
290
     0
174
     0
 93
       13
 44
0.0
173
     0
291
     0
 45
0.0
1001
ACAD
1000
AcDbSavedByObjectVersion
1070
     0
  0
DICTIONARYVAR
  5
B155
102
{ACAD_REACTORS
330
B150
102
}
330
B150
100
DictionaryVariables
280
     0
  1
1:1
  0
DICTIONARYVAR
  5
B152
102
{ACAD_REACTORS
330
B150
102
}
330
B150
100
DictionaryVariables
280
     0
  1
STANDARD
  0
DICTIONARYVAR
  5
B151
102
{ACAD_REACTORS
330
B150
102
}
330
B150
100
DictionaryVariables
280
     0
  1
STANDARD
  0
DICTIONARYVAR
  5
B153
102
{ACAD_REACTORS
330
B150
102
}
330
B150
100
DictionaryVariables
280
     0
  1
Imperial24
  0
DICTIONARYVAR
  5
B154
102
{ACAD_REACTORS
330
B150
102
}
330
B150
100
DictionaryVariables
280
     0
  1
Imperial24
  0
DICTIONARYVAR
  5
B158
102
{ACAD_REACTORS
330
B150
102
}
330
B150
100
DictionaryVariables
280
     0
  1
1
  0
DICTIONARYVAR
  5
B157
102
{ACAD_REACTORS
330
B150
102
}
330
B150
100
DictionaryVariables
280
     0
  1
0
  0
DICTIONARYVAR
  5
B156
102
{ACAD_REACTORS
330
B150
102
}
330
B150
100
DictionaryVariables
280
     0
  1
127
  0
DICTIONARYVAR
  5
B159
102
{ACAD_REACTORS
330
B150
102
}
330
B150
100
DictionaryVariables
280
     0
  1
2
  0
DICTIONARY
  5
B196
330
B13B
100
AcDbDictionary
280
     1
281
     1
  3
ACAD_XREC_ROUNDTRIP
360
B197
  0
DICTIONARY
  5
B198
330
B13C
100
AcDbDictionary
280
     1
281
     1
  3
ACAD_XREC_ROUNDTRIP
360
B199
  0
DICTIONARY
  5
B19A
330
B13D
100
AcDbDictionary
280
     1
281
     1
  3
ACAD_XREC_ROUNDTRIP
360
B19B
  0
DICTIONARY
  5
B0F9
330
B0F8
100
AcDbDictionary
280
     1
281
     1
  3
ACAD_XREC_ROUNDTRIP
360
B160
  3
BUMPTILE
360
B0FB
  3
DIFFUSETILE
360
B0FA
  3
OPACITYTILE
360
B0FE
  3
REFLECTIONTILE
360
B0FD
  3
REFRACTIONTILE
360
B0FF
  3
SPECULARTILE
360
B0FC
  0
DICTIONARY
  5
B0F1
330
B0F0
100
AcDbDictionary
280
     1
281
     1
  3
ACAD_XREC_ROUNDTRIP
360
B15F
  3
BUMPTILE
360
B0F3
  3
DIFFUSETILE
360
B0F2
  3
OPACITYTILE
360
B0F6
  3
REFLECTIONTILE
360
B0F5
  3
REFRACTIONTILE
360
B0F7
  3
SPECULARTILE
360
B0F4
  0
DICTIONARY
  5
B101
330
B100
100
AcDbDictionary
280
     1
281
     1
  3
ACAD_XREC_ROUNDTRIP
360
B161
  3
BUMPTILE
360
B103
  3
DIFFUSETILE
360
B102
  3
OPACITYTILE
360
B106
  3
REFLECTIONTILE
360
B105
  3
REFRACTIONTILE
360
B107
  3
SPECULARTILE
360
B104
  0
DICTIONARY
  5
B194
330
B139
100
AcDbDictionary
280
     1
281
     1
  3
ACAD_XREC_ROUNDTRIP
360
B195
  0
DICTIONARY
  5
B15B
330
B123
100
AcDbDictionary
280
     1
281
     1
  3
ACAD_ROUNDTRIP_2008_TABLESTYLE_CELLSTYLEMAP
360
B15C
  3
ACAD_XREC_ROUNDTRIP
360
B192
  0
DICTIONARY
  5
B16C
330
B10E
100
AcDbDictionary
280
     1
281
     1
  3
ACAD_XREC_ROUNDTRIP
360
B16D
  0
DICTIONARY
  5
B16A
330
B10D
100
AcDbDictionary
280
     1
281
     1
  3
ACAD_XREC_ROUNDTRIP
360
B16B
  0
DICTIONARY
  5
B178
330
B114
100
AcDbDictionary
280
     1
281
     1
  3
ACAD_XREC_ROUNDTRIP
360
B179
  0
DICTIONARY
  5
B180
330
B118
100
AcDbDictionary
280
     1
281
     1
  3
ACAD_XREC_ROUNDTRIP
360
B181
  0
DICTIONARY
  5
B172
330
B111
100
AcDbDictionary
280
     1
281
     1
  3
ACAD_XREC_ROUNDTRIP
360
B173
  0
DICTIONARY
  5
B176
330
B113
100
AcDbDictionary
280
     1
281
     1
  3
ACAD_XREC_ROUNDTRIP
360
B177
  0
DICTIONARY
  5
B190
330
B120
100
AcDbDictionary
280
     1
281
     1
  3
ACAD_XREC_ROUNDTRIP
360
B191
  0
DICTIONARY
  5
B17E
330
B117
100
AcDbDictionary
280
     1
281
     1
  3
ACAD_XREC_ROUNDTRIP
360
B17F
  0
DICTIONARY
  5
B162
330
B109
100
AcDbDictionary
280
     1
281
     1
  3
ACAD_XREC_ROUNDTRIP
360
B163
  0
DICTIONARY
  5
B164
330
B10A
100
AcDbDictionary
280
     1
281
     1
  3
ACAD_XREC_ROUNDTRIP
360
B165
  0
DICTIONARY
  5
B166
330
B10B
100
AcDbDictionary
280
     1
281
     1
  3
ACAD_XREC_ROUNDTRIP
360
B167
  0
DICTIONARY
  5
B168
330
B10C
100
AcDbDictionary
280
     1
281
     1
  3
ACAD_XREC_ROUNDTRIP
360
B169
  0
DICTIONARY
  5
B170
330
B110
100
AcDbDictionary
280
     1
281
     1
  3
ACAD_XREC_ROUNDTRIP
360
B171
  0
DICTIONARY
  5
B18C
330
B11E
100
AcDbDictionary
280
     1
281
     1
  3
ACAD_XREC_ROUNDTRIP
360
B18D
  0
DICTIONARY
  5
B17C
330
B116
100
AcDbDictionary
280
     1
281
     1
  3
ACAD_XREC_ROUNDTRIP
360
B17D
  0
DICTIONARY
  5
B18E
330
B11F
100
AcDbDictionary
280
     1
281
     1
  3
ACAD_XREC_ROUNDTRIP
360
B18F
  0
DICTIONARY
  5
B174
330
B112
100
AcDbDictionary
280
     1
281
     1
  3
ACAD_XREC_ROUNDTRIP
360
B175
  0
DICTIONARY
  5
B18A
330
B11D
100
AcDbDictionary
280
     1
281
     1
  3
ACAD_XREC_ROUNDTRIP
360
B18B
  0
DICTIONARY
  5
B188
330
B11C
100
AcDbDictionary
280
     1
281
     1
  3
ACAD_XREC_ROUNDTRIP
360
B189
  0
DICTIONARY
  5
B182
330
B119
100
AcDbDictionary
280
     1
281
     1
  3
ACAD_XREC_ROUNDTRIP
360
B183
  0
DICTIONARY
  5
B184
330
B11A
100
AcDbDictionary
280
     1
281
     1
  3
ACAD_XREC_ROUNDTRIP
360
B185
  0
DICTIONARY
  5
B17A
330
B115
100
AcDbDictionary
280
     1
281
     1
  3
ACAD_XREC_ROUNDTRIP
360
B17B
  0
DICTIONARY
  5
B16E
330
B10F
100
AcDbDictionary
280
     1
281
     1
  3
ACAD_XREC_ROUNDTRIP
360
B16F
  0
DICTIONARY
  5
B186
330
B11B
100
AcDbDictionary
280
     1
281
     1
  3
ACAD_XREC_ROUNDTRIP
360
B187
  0
XRECORD
  5
B197
102
{ACAD_REACTORS
330
B196
102
}
330
B196
100
AcDbXrecord
280
     1
102
DISPLAYNAME
  1
Imperial24
102
FLAGS
 90
        0
  0
XRECORD
  5
B199
102
{ACAD_REACTORS
330
B198
102
}
330
B198
100
AcDbXrecord
280
     1
102
SHADEPLOT
 70
     0
102
SHADEPLOTRESLEVEL
 70
     2
102
SHADEPLOTCUSTOMDPI
 70
   300
  0
XRECORD
  5
B19B
102
{ACAD_REACTORS
330
B19A
102
}
330
B19A
100
AcDbXrecord
280
     1
102
SHADEPLOT
 70
     0
102
SHADEPLOTRESLEVEL
 70
     2
102
SHADEPLOTCUSTOMDPI
 70
   300
  0
XRECORD
  5
B160
102
{ACAD_REACTORS
330
B0F9
102
}
330
B0F9
100
AcDbXrecord
280
     1
102
MATERIAL
148
0.0
149
0.0
149
0.0
 93
        0
 94
      127
282
     0
 72
     0
 77
     0
171
     0
175
     0
179
     0
273
     0
  0
XRECORD
  5
B0FB
102
{ACAD_REACTORS
330
B0F9
102
}
330
B0F9
100
AcDbXrecord
280
     1
270
     1
271
     1
  0
XRECORD
  5
B0FA
102
{ACAD_REACTORS
330
B0F9
102
}
330
B0F9
100
AcDbXrecord
280
     1
270
     1
271
     1
  0
XRECORD
  5
B0FE
102
{ACAD_REACTORS
330
B0F9
102
}
330
B0F9
100
AcDbXrecord
280
     1
270
     1
271
     1
  0
XRECORD
  5
B0FD
102
{ACAD_REACTORS
330
B0F9
102
}
330
B0F9
100
AcDbXrecord
280
     1
270
     1
271
     1
  0
XRECORD
  5
B0FF
102
{ACAD_REACTORS
330
B0F9
102
}
330
B0F9
100
AcDbXrecord
280
     1
270
     1
271
     1
  0
XRECORD
  5
B0FC
102
{ACAD_REACTORS
330
B0F9
102
}
330
B0F9
100
AcDbXrecord
280
     1
270
     1
271
     1
  0
XRECORD
  5
B15F
102
{ACAD_REACTORS
330
B0F1
102
}
330
B0F1
100
AcDbXrecord
280
     1
102
MATERIAL
148
0.0
149
0.0
149
0.0
 93
        0
 94
      127
282
     0
 72
     0
 77
     0
171
     0
175
     0
179
     0
273
     0
  0
XRECORD
  5
B0F3
102
{ACAD_REACTORS
330
B0F1
102
}
330
B0F1
100
AcDbXrecord
280
     1
270
     1
271
     1
  0
XRECORD
  5
B0F2
102
{ACAD_REACTORS
330
B0F1
102
}
330
B0F1
100
AcDbXrecord
280
     1
270
     1
271
     1
  0
XRECORD
  5
B0F6
102
{ACAD_REACTORS
330
B0F1
102
}
330
B0F1
100
AcDbXrecord
280
     1
270
     1
271
     1
  0
XRECORD
  5
B0F5
102
{ACAD_REACTORS
330
B0F1
102
}
330
B0F1
100
AcDbXrecord
280
     1
270
     1
271
     1
  0
XRECORD
  5
B0F7
102
{ACAD_REACTORS
330
B0F1
102
}
330
B0F1
100
AcDbXrecord
280
     1
270
     1
271
     1
  0
XRECORD
  5
B0F4
102
{ACAD_REACTORS
330
B0F1
102
}
330
B0F1
100
AcDbXrecord
280
     1
270
     1
271
     1
  0
XRECORD
  5
B161
102
{ACAD_REACTORS
330
B101
102
}
330
B101
100
AcDbXrecord
280
     1
102
MATERIAL
148
0.0
149
0.0
149
0.0
 93
        0
 94
      127
282
     0
 72
     0
 77
     0
171
     0
175
     0
179
     0
273
     0
  0
XRECORD
  5
B103
102
{ACAD_REACTORS
330
B101
102
}
330
B101
100
AcDbXrecord
280
     1
270
     1
271
     1
  0
XRECORD
  5
B102
102
{ACAD_REACTORS
330
B101
102
}
330
B101
100
AcDbXrecord
280
     1
270
     1
271
     1
  0
XRECORD
  5
B106
102
{ACAD_REACTORS
330
B101
102
}
330
B101
100
AcDbXrecord
280
     1
270
     1
271
     1
  0
XRECORD
  5
B105
102
{ACAD_REACTORS
330
B101
102
}
330
B101
100
AcDbXrecord
280
     1
270
     1
271
     1
  0
XRECORD
  5
B107
102
{ACAD_REACTORS
330
B101
102
}
330
B101
100
AcDbXrecord
280
     1
270
     1
271
     1
  0
XRECORD
  5
B104
102
{ACAD_REACTORS
330
B101
102
}
330
B101
100
AcDbXrecord
280
     1
270
     1
271
     1
  0
XRECORD
  5
B195
102
{ACAD_REACTORS
330
B194
102
}
330
B194
100
AcDbXrecord
280
     1
102
DISPLAYNAME
  1
Imperial24
102
FLAGS
 90
        0
  0
CELLSTYLEMAP
  5
B15C
102
{ACAD_REACTORS
330
B15B
102
}
330
B15B
100
AcDbCellStyleMap
 90
        3
300
CELLSTYLE
  1
TABLEFORMAT_BEGIN
 90
        5
170
     1
 91
        0
 92
    32768
 62
   257
 93
        1
300
CONTENTFORMAT
  1
CONTENTFORMAT_BEGIN
 90
        0
 91
        0
 92
      512
 93
        0
300

 40
0.0
140
1.0
 94
        5
 62
     0
340
AE8B
144
0.25
309
CONTENTFORMAT_END
171
     0
 94
        0
309
TABLEFORMAT_END
  1
CELLSTYLE_BEGIN
 90
        1
 91
        1
300
_TITLE
309
CELLSTYLE_END
300
CELLSTYLE
  1
TABLEFORMAT_BEGIN
 90
        5
170
     1
 91
        0
 92
        0
 62
   257
 93
        1
300
CONTENTFORMAT
  1
CONTENTFORMAT_BEGIN
 90
        0
 91
        0
 92
      512
 93
        0
300

 40
0.0
140
1.0
 94
        5
 62
     0
340
AE8B
144
0.18
309
CONTENTFORMAT_END
171
     0
 94
        0
309
TABLEFORMAT_END
  1
CELLSTYLE_BEGIN
 90
        2
 91
        1
300
_HEADER
309
CELLSTYLE_END
300
CELLSTYLE
  1
TABLEFORMAT_BEGIN
 90
        5
170
     1
 91
        0
 92
        0
 62
   257
 93
        1
300
CONTENTFORMAT
  1
CONTENTFORMAT_BEGIN
 90
        0
 91
        0
 92
      512
 93
        0
300

 40
0.0
140
1.0
 94
        2
 62
     0
340
AE8B
144
0.18
309
CONTENTFORMAT_END
171
     0
 94
        0
309
TABLEFORMAT_END
  1
CELLSTYLE_BEGIN
 90
        3
 91
        2
300
_DATA
309
CELLSTYLE_END
  0
XRECORD
  5
B192
102
{ACAD_REACTORS
330
B15B
102
}
330
B15B
100
AcDbXrecord
280
     1
102
ACAD_ROUNDTRIP_PRE2007_TABLESTYLE
 90
      512
 91
        0
  1

 92
      512
 93
        0
  2

 94
      512
 95
        0
  3

  0
XRECORD
  5
B16D
102
{ACAD_REACTORS
330
B16C
102
}
330
B16C
100
AcDbXrecord
280
     1
102
RTVSPost2010Prop28
280
     1
102
RTVSPost2010PropOp28
 70
     1
102
RTVSPost2010Prop29
280
     1
102
RTVSPost2010PropOp29
 70
     1
102
RTVSPost2010Prop30
280
     0
102
RTVSPost2010PropOp30
 70
     1
102
RTVSPost2010Prop31
280
     0
102
RTVSPost2010PropOp31
 70
     1
102
RTVSPost2010Prop32
280
     0
102
RTVSPost2010PropOp32
 70
     1
102
RTVSPost2010Prop33
280
     0
102
RTVSPost2010PropOp33
 70
     1
102
RTVSPost2010Prop34
280
     0
102
RTVSPost2010PropOp34
 70
     1
102
RTVSPost2010Prop35
280
     0
102
RTVSPost2010PropOp35
 70
     1
102
RTVSPost2010Prop36
280
     0
102
RTVSPost2010PropOp36
 70
     1
102
RTVSPost2010Prop37
 90
       50
102
RTVSPost2010PropOp37
 70
     1
102
RTVSPost2010Prop38
140
0.0
102
RTVSPost2010PropOp38
 70
     1
102
RTVSPost2010Prop39
140
1.0
102
RTVSPost2010PropOp39
 70
     1
102
RTVSPost2010Prop40
 90
        0
102
RTVSPost2010PropOp40
 70
     1
102
RTVSPost2010Prop41ColorIndex
 90
       18
102
RTVSPost2010Prop41ColorRGB
 90
        0
102
RTVSPost2010PropOp41
 70
     1
102
RTVSPost2010Prop42
 90
       50
102
RTVSPost2010PropOp42
 70
     1
102
RTVSPost2010Prop43
 90
        3
102
RTVSPost2010PropOp43
 70
     1
102
RTVSPost2010Prop44ColorIndex
 90
        5
102
RTVSPost2010Prop44ColorRGB
 90
      255
102
RTVSPost2010PropOp44
 70
     1
102
RTVSPost2010Prop45
280
     0
102
RTVSPost2010PropOp45
 70
     1
102
RTVSPost2010Prop46
 90
       50
102
RTVSPost2010PropOp46
 70
     1
102
RTVSPost2010Prop47
 90
       50
102
RTVSPost2010PropOp47
 70
     1
102
RTVSPost2010Prop48
 90
       50
102
RTVSPost2010PropOp48
 70
     1
102
RTVSPost2010Prop49
280
     0
102
RTVSPost2010PropOp49
 70
     1
102
RTVSPost2010Prop50
 90
       50
102
RTVSPost2010PropOp50
 70
     1
102
RTVSPost2010Prop51ColorIndex
 90
      256
102
RTVSPost2010Prop51ColorRGB
 90
-16777216
102
RTVSPost2010PropOp51
 70
     0
102
RTVSPost2010Prop52
140
1.0
102
RTVSPost2010PropOp52
 70
     0
102
RTVSPost2010Prop53
 90
        2
102
RTVSPost2010PropOp53
 70
     1
102
RTVSPost2010Prop54
  1
strokes_ogs.tif
102
RTVSPost2010PropOp54
 70
     1
102
RTVSPost2010Prop55
280
     0
102
RTVSPost2010PropOp55
 70
     1
102
RTVSPost2010Prop56
140
1.0
102
RTVSPost2010PropOp56
 70
     1
102
RTVSPost2010Prop57
140
1.0
102
RTVSPost2010PropOp57
 70
     1
102
RTVSPropertyOp0
 70
     1
102
RTVSPropertyOp1
 70
     1
102
RTVSPropertyOp2
 70
     1
102
RTVSPropertyOp3
 70
     1
102
RTVSPropertyOp4
 70
     1
102
RTVSPropertyOp5
 70
     1
102
RTVSPropertyOp6
 70
     1
102
RTVSPropertyOp7
 70
     1
102
RTVSPropertyOp8
 70
     1
102
RTVSPropertyOp9
 70
     1
102
RTVSPropertyOp10
 70
     1
102
RTVSPropertyOp11
 70
     1
102
RTVSPropertyOp12
 70
     1
102
RTVSPropertyOp13
 70
     1
102
RTVSPropertyOp14
 70
     1
102
RTVSPropertyOp15
 70
     1
102
RTVSPropertyOp16
 70
     1
102
RTVSPropertyOp17
 70
     1
102
RTVSPropertyOp18
 70
     1
102
RTVSPropertyOp19
 70
     1
102
RTVSPropertyOp20
 70
     1
102
RTVSPropertyOp21
 70
     1
102
RTVSPropertyOp22
 70
     1
102
RTVSPropertyOp23
 70
     1
102
RTVSPropertyOp24
 70
     1
102
RTVSPropertyOp25
 70
     1
102
RTVSPropertyOp26
 70
     1
102
RTVSPropertyOp27
 70
     1
102
RTVSPropertyOp28
 70
     1
102
RTVSPropertyOp29
 70
     1
102
RTVSPropertyOp30
 70
     1
102
RTVSPropertyOp31
 70
     1
102
RTVSPropertyOp32
 70
     1
102
RTVSPropertyOp33
 70
     1
102
RTVSPropertyOp34
 70
     1
102
RTVSPropertyOp35
 70
     1
102
RTVSPropertyOp36
 70
     1
102
RTVSPropertyOp37
 70
     1
102
RTVSPropertyOp38
 70
     1
102
RTVSPropertyOp39
 70
     1
102
RTVSPropertyOp40
 70
     1
102
RTVSPropertyOp41
 70
     1
102
RTVSPropertyOp42
 70
     1
102
RTVSPropertyOp43
 70
     1
102
RTVSPropertyOp44
 70
     1
102
RTVSPropertyOp45
 70
     1
102
RTVSPropertyOp46
 70
     1
102
RTVSPropertyOp47
 70
     1
102
RTVSPropertyOp48
 70
     1
102
RTVSPropertyOp49
 70
     1
102
RTVSPropertyOp50
 70
     1
102
RTVSPropertyOp51
 70
     0
102
RTVSPropertyOp52
 70
     0
102
RTVSPropertyOp53
 70
     1
102
RTVSPropertyOp54
 70
     1
102
RTVSPropertyOp55
 70
     1
102
RTVSPropertyOp56
 70
     1
102
RTVSPropertyOp57
 70
     1
102
RTVSPropertyOp58
 70
     1
102
RTVSPropertyOp59
 70
     1
102
RTVSPropertyOp60
 70
     1
102
RTVSPropertyOp61
 70
     1
102
RTVSPropertyOp62
 70
     1
  0
XRECORD
  5
B16B
102
{ACAD_REACTORS
330
B16A
102
}
330
B16A
100
AcDbXrecord
280
     1
102
RTVSPost2010Prop28
280
     0
102
RTVSPost2010PropOp28
 70
     1
102
RTVSPost2010Prop29
280
     1
102
RTVSPost2010PropOp29
 70
     1
102
RTVSPost2010Prop30
280
     1
102
RTVSPost2010PropOp30
 70
     1
102
RTVSPost2010Prop31
280
     0
102
RTVSPost2010PropOp31
 70
     1
102
RTVSPost2010Prop32
280
     0
102
RTVSPost2010PropOp32
 70
     1
102
RTVSPost2010Prop33
280
     0
102
RTVSPost2010PropOp33
 70
     1
102
RTVSPost2010Prop34
280
     0
102
RTVSPost2010PropOp34
 70
     1
102
RTVSPost2010Prop35
280
     0
102
RTVSPost2010PropOp35
 70
     1
102
RTVSPost2010Prop36
280
     0
102
RTVSPost2010PropOp36
 70
     1
102
RTVSPost2010Prop37
 90
       50
102
RTVSPost2010PropOp37
 70
     1
102
RTVSPost2010Prop38
140
0.0
102
RTVSPost2010PropOp38
 70
     1
102
RTVSPost2010Prop39
140
1.0
102
RTVSPost2010PropOp39
 70
     1
102
RTVSPost2010Prop40
 90
        0
102
RTVSPost2010PropOp40
 70
     1
102
RTVSPost2010Prop41ColorIndex
 90
       18
102
RTVSPost2010Prop41ColorRGB
 90
        0
102
RTVSPost2010PropOp41
 70
     1
102
RTVSPost2010Prop42
 90
       50
102
RTVSPost2010PropOp42
 70
     1
102
RTVSPost2010Prop43
 90
        3
102
RTVSPost2010PropOp43
 70
     1
102
RTVSPost2010Prop44ColorIndex
 90
        5
102
RTVSPost2010Prop44ColorRGB
 90
      255
102
RTVSPost2010PropOp44
 70
     1
102
RTVSPost2010Prop45
280
     0
102
RTVSPost2010PropOp45
 70
     1
102
RTVSPost2010Prop46
 90
       50
102
RTVSPost2010PropOp46
 70
     1
102
RTVSPost2010Prop47
 90
       50
102
RTVSPost2010PropOp47
 70
     1
102
RTVSPost2010Prop48
 90
       50
102
RTVSPost2010PropOp48
 70
     1
102
RTVSPost2010Prop49
280
     0
102
RTVSPost2010PropOp49
 70
     1
102
RTVSPost2010Prop50
 90
       50
102
RTVSPost2010PropOp50
 70
     1
102
RTVSPost2010Prop51ColorIndex
 90
      256
102
RTVSPost2010Prop51ColorRGB
 90
-16777216
102
RTVSPost2010PropOp51
 70
     0
102
RTVSPost2010Prop52
140
1.0
102
RTVSPost2010PropOp52
 70
     0
102
RTVSPost2010Prop53
 90
        2
102
RTVSPost2010PropOp53
 70
     1
102
RTVSPost2010Prop54
  1
strokes_ogs.tif
102
RTVSPost2010PropOp54
 70
     1
102
RTVSPost2010Prop55
280
     0
102
RTVSPost2010PropOp55
 70
     1
102
RTVSPost2010Prop56
140
1.0
102
RTVSPost2010PropOp56
 70
     1
102
RTVSPost2010Prop57
140
1.0
102
RTVSPost2010PropOp57
 70
     1
102
RTVSPropertyOp0
 70
     1
102
RTVSPropertyOp1
 70
     1
102
RTVSPropertyOp2
 70
     1
102
RTVSPropertyOp3
 70
     1
102
RTVSPropertyOp4
 70
     1
102
RTVSPropertyOp5
 70
     1
102
RTVSPropertyOp6
 70
     1
102
RTVSPropertyOp7
 70
     1
102
RTVSPropertyOp8
 70
     1
102
RTVSPropertyOp9
 70
     1
102
RTVSPropertyOp10
 70
     1
102
RTVSPropertyOp11
 70
     1
102
RTVSPropertyOp12
 70
     1
102
RTVSPropertyOp13
 70
     1
102
RTVSPropertyOp14
 70
     1
102
RTVSPropertyOp15
 70
     1
102
RTVSPropertyOp16
 70
     1
102
RTVSPropertyOp17
 70
     1
102
RTVSPropertyOp18
 70
     1
102
RTVSPropertyOp19
 70
     1
102
RTVSPropertyOp20
 70
     1
102
RTVSPropertyOp21
 70
     1
102
RTVSPropertyOp22
 70
     1
102
RTVSPropertyOp23
 70
     1
102
RTVSPropertyOp24
 70
     1
102
RTVSPropertyOp25
 70
     1
102
RTVSPropertyOp26
 70
     1
102
RTVSPropertyOp27
 70
     1
102
RTVSPropertyOp28
 70
     1
102
RTVSPropertyOp29
 70
     1
102
RTVSPropertyOp30
 70
     1
102
RTVSPropertyOp31
 70
     1
102
RTVSPropertyOp32
 70
     1
102
RTVSPropertyOp33
 70
     1
102
RTVSPropertyOp34
 70
     1
102
RTVSPropertyOp35
 70
     1
102
RTVSPropertyOp36
 70
     1
102
RTVSPropertyOp37
 70
     1
102
RTVSPropertyOp38
 70
     1
102
RTVSPropertyOp39
 70
     1
102
RTVSPropertyOp40
 70
     1
102
RTVSPropertyOp41
 70
     1
102
RTVSPropertyOp42
 70
     1
102
RTVSPropertyOp43
 70
     1
102
RTVSPropertyOp44
 70
     1
102
RTVSPropertyOp45
 70
     1
102
RTVSPropertyOp46
 70
     1
102
RTVSPropertyOp47
 70
     1
102
RTVSPropertyOp48
 70
     1
102
RTVSPropertyOp49
 70
     1
102
RTVSPropertyOp50
 70
     1
102
RTVSPropertyOp51
 70
     0
102
RTVSPropertyOp52
 70
     0
102
RTVSPropertyOp53
 70
     1
102
RTVSPropertyOp54
 70
     1
102
RTVSPropertyOp55
 70
     1
102
RTVSPropertyOp56
 70
     1
102
RTVSPropertyOp57
 70
     1
102
RTVSPropertyOp58
 70
     1
102
RTVSPropertyOp59
 70
     1
102
RTVSPropertyOp60
 70
     1
102
RTVSPropertyOp61
 70
     1
102
RTVSPropertyOp62
 70
     1
  0
XRECORD
  5
B179
102
{ACAD_REACTORS
330
B178
102
}
330
B178
100
AcDbXrecord
280
     1
102
RTVSPost2010Prop28
280
     0
102
RTVSPost2010PropOp28
 70
     1
102
RTVSPost2010Prop29
280
     1
102
RTVSPost2010PropOp29
 70
     1
102
RTVSPost2010Prop30
280
     1
102
RTVSPost2010PropOp30
 70
     1
102
RTVSPost2010Prop31
280
     0
102
RTVSPost2010PropOp31
 70
     1
102
RTVSPost2010Prop32
280
     0
102
RTVSPost2010PropOp32
 70
     1
102
RTVSPost2010Prop33
280
     0
102
RTVSPost2010PropOp33
 70
     1
102
RTVSPost2010Prop34
280
     0
102
RTVSPost2010PropOp34
 70
     1
102
RTVSPost2010Prop35
280
     0
102
RTVSPost2010PropOp35
 70
     1
102
RTVSPost2010Prop36
280
     0
102
RTVSPost2010PropOp36
 70
     1
102
RTVSPost2010Prop37
 90
       50
102
RTVSPost2010PropOp37
 70
     1
102
RTVSPost2010Prop38
140
0.0
102
RTVSPost2010PropOp38
 70
     1
102
RTVSPost2010Prop39
140
1.0
102
RTVSPost2010PropOp39
 70
     1
102
RTVSPost2010Prop40
 90
        0
102
RTVSPost2010PropOp40
 70
     1
102
RTVSPost2010Prop41ColorIndex
 90
       18
102
RTVSPost2010Prop41ColorRGB
 90
        0
102
RTVSPost2010PropOp41
 70
     1
102
RTVSPost2010Prop42
 90
       50
102
RTVSPost2010PropOp42
 70
     1
102
RTVSPost2010Prop43
 90
        3
102
RTVSPost2010PropOp43
 70
     1
102
RTVSPost2010Prop44ColorIndex
 90
        5
102
RTVSPost2010Prop44ColorRGB
 90
      255
102
RTVSPost2010PropOp44
 70
     1
102
RTVSPost2010Prop45
280
     0
102
RTVSPost2010PropOp45
 70
     1
102
RTVSPost2010Prop46
 90
       50
102
RTVSPost2010PropOp46
 70
     1
102
RTVSPost2010Prop47
 90
       50
102
RTVSPost2010PropOp47
 70
     1
102
RTVSPost2010Prop48
 90
       50
102
RTVSPost2010PropOp48
 70
     1
102
RTVSPost2010Prop49
280
     0
102
RTVSPost2010PropOp49
 70
     1
102
RTVSPost2010Prop50
 90
       50
102
RTVSPost2010PropOp50
 70
     1
102
RTVSPost2010Prop51ColorIndex
 90
      256
102
RTVSPost2010Prop51ColorRGB
 90
-16777216
102
RTVSPost2010PropOp51
 70
     0
102
RTVSPost2010Prop52
140
1.0
102
RTVSPost2010PropOp52
 70
     0
102
RTVSPost2010Prop53
 90
        2
102
RTVSPost2010PropOp53
 70
     1
102
RTVSPost2010Prop54
  1
strokes_ogs.tif
102
RTVSPost2010PropOp54
 70
     1
102
RTVSPost2010Prop55
280
     0
102
RTVSPost2010PropOp55
 70
     1
102
RTVSPost2010Prop56
140
1.0
102
RTVSPost2010PropOp56
 70
     1
102
RTVSPost2010Prop57
140
1.0
102
RTVSPost2010PropOp57
 70
     1
102
RTVSPropertyOp0
 70
     1
102
RTVSPropertyOp1
 70
     1
102
RTVSPropertyOp2
 70
     1
102
RTVSPropertyOp3
 70
     1
102
RTVSPropertyOp4
 70
     1
102
RTVSPropertyOp5
 70
     1
102
RTVSPropertyOp6
 70
     1
102
RTVSPropertyOp7
 70
     1
102
RTVSPropertyOp8
 70
     1
102
RTVSPropertyOp9
 70
     1
102
RTVSPropertyOp10
 70
     1
102
RTVSPropertyOp11
 70
     1
102
RTVSPropertyOp12
 70
     1
102
RTVSPropertyOp13
 70
     1
102
RTVSPropertyOp14
 70
     1
102
RTVSPropertyOp15
 70
     1
102
RTVSPropertyOp16
 70
     1
102
RTVSPropertyOp17
 70
     1
102
RTVSPropertyOp18
 70
     1
102
RTVSPropertyOp19
 70
     1
102
RTVSPropertyOp20
 70
     1
102
RTVSPropertyOp21
 70
     1
102
RTVSPropertyOp22
 70
     1
102
RTVSPropertyOp23
 70
     1
102
RTVSPropertyOp24
 70
     1
102
RTVSPropertyOp25
 70
     1
102
RTVSPropertyOp26
 70
     1
102
RTVSPropertyOp27
 70
     1
102
RTVSPropertyOp28
 70
     1
102
RTVSPropertyOp29
 70
     1
102
RTVSPropertyOp30
 70
     1
102
RTVSPropertyOp31
 70
     1
102
RTVSPropertyOp32
 70
     1
102
RTVSPropertyOp33
 70
     1
102
RTVSPropertyOp34
 70
     1
102
RTVSPropertyOp35
 70
     1
102
RTVSPropertyOp36
 70
     1
102
RTVSPropertyOp37
 70
     1
102
RTVSPropertyOp38
 70
     1
102
RTVSPropertyOp39
 70
     1
102
RTVSPropertyOp40
 70
     1
102
RTVSPropertyOp41
 70
     1
102
RTVSPropertyOp42
 70
     1
102
RTVSPropertyOp43
 70
     1
102
RTVSPropertyOp44
 70
     1
102
RTVSPropertyOp45
 70
     1
102
RTVSPropertyOp46
 70
     1
102
RTVSPropertyOp47
 70
     1
102
RTVSPropertyOp48
 70
     1
102
RTVSPropertyOp49
 70
     1
102
RTVSPropertyOp50
 70
     1
102
RTVSPropertyOp51
 70
     0
102
RTVSPropertyOp52
 70
     0
102
RTVSPropertyOp53
 70
     1
102
RTVSPropertyOp54
 70
     1
102
RTVSPropertyOp55
 70
     1
102
RTVSPropertyOp56
 70
     1
102
RTVSPropertyOp57
 70
     1
102
RTVSPropertyOp58
 70
     1
102
RTVSPropertyOp59
 70
     1
102
RTVSPropertyOp60
 70
     1
102
RTVSPropertyOp61
 70
     1
102
RTVSPropertyOp62
 70
     1
  0
XRECORD
  5
B181
102
{ACAD_REACTORS
330
B180
102
}
330
B180
100
AcDbXrecord
280
     1
102
RTVSPost2010Prop28
280
     0
102
RTVSPost2010PropOp28
 70
     1
102
RTVSPost2010Prop29
280
     1
102
RTVSPost2010PropOp29
 70
     1
102
RTVSPost2010Prop30
280
     1
102
RTVSPost2010PropOp30
 70
     1
102
RTVSPost2010Prop31
280
     0
102
RTVSPost2010PropOp31
 70
     1
102
RTVSPost2010Prop32
280
     0
102
RTVSPost2010PropOp32
 70
     1
102
RTVSPost2010Prop33
280
     0
102
RTVSPost2010PropOp33
 70
     1
102
RTVSPost2010Prop34
280
     0
102
RTVSPost2010PropOp34
 70
     1
102
RTVSPost2010Prop35
280
     0
102
RTVSPost2010PropOp35
 70
     1
102
RTVSPost2010Prop36
280
     0
102
RTVSPost2010PropOp36
 70
     1
102
RTVSPost2010Prop37
 90
       50
102
RTVSPost2010PropOp37
 70
     1
102
RTVSPost2010Prop38
140
0.0
102
RTVSPost2010PropOp38
 70
     1
102
RTVSPost2010Prop39
140
1.0
102
RTVSPost2010PropOp39
 70
     1
102
RTVSPost2010Prop40
 90
        0
102
RTVSPost2010PropOp40
 70
     1
102
RTVSPost2010Prop41ColorIndex
 90
       18
102
RTVSPost2010Prop41ColorRGB
 90
        0
102
RTVSPost2010PropOp41
 70
     1
102
RTVSPost2010Prop42
 90
       50
102
RTVSPost2010PropOp42
 70
     1
102
RTVSPost2010Prop43
 90
        3
102
RTVSPost2010PropOp43
 70
     1
102
RTVSPost2010Prop44ColorIndex
 90
        5
102
RTVSPost2010Prop44ColorRGB
 90
      255
102
RTVSPost2010PropOp44
 70
     1
102
RTVSPost2010Prop45
280
     0
102
RTVSPost2010PropOp45
 70
     1
102
RTVSPost2010Prop46
 90
       50
102
RTVSPost2010PropOp46
 70
     1
102
RTVSPost2010Prop47
 90
       50
102
RTVSPost2010PropOp47
 70
     1
102
RTVSPost2010Prop48
 90
       50
102
RTVSPost2010PropOp48
 70
     1
102
RTVSPost2010Prop49
280
     0
102
RTVSPost2010PropOp49
 70
     1
102
RTVSPost2010Prop50
 90
       50
102
RTVSPost2010PropOp50
 70
     1
102
RTVSPost2010Prop51ColorIndex
 90
      256
102
RTVSPost2010Prop51ColorRGB
 90
-16777216
102
RTVSPost2010PropOp51
 70
     0
102
RTVSPost2010Prop52
140
1.0
102
RTVSPost2010PropOp52
 70
     0
102
RTVSPost2010Prop53
 90
        2
102
RTVSPost2010PropOp53
 70
     1
102
RTVSPost2010Prop54
  1
strokes_ogs.tif
102
RTVSPost2010PropOp54
 70
     1
102
RTVSPost2010Prop55
280
     0
102
RTVSPost2010PropOp55
 70
     1
102
RTVSPost2010Prop56
140
1.0
102
RTVSPost2010PropOp56
 70
     1
102
RTVSPost2010Prop57
140
1.0
102
RTVSPost2010PropOp57
 70
     1
102
RTVSPropertyOp0
 70
     1
102
RTVSPropertyOp1
 70
     1
102
RTVSPropertyOp2
 70
     1
102
RTVSPropertyOp3
 70
     1
102
RTVSPropertyOp4
 70
     1
102
RTVSPropertyOp5
 70
     1
102
RTVSPropertyOp6
 70
     1
102
RTVSPropertyOp7
 70
     1
102
RTVSPropertyOp8
 70
     1
102
RTVSPropertyOp9
 70
     1
102
RTVSPropertyOp10
 70
     1
102
RTVSPropertyOp11
 70
     1
102
RTVSPropertyOp12
 70
     1
102
RTVSPropertyOp13
 70
     1
102
RTVSPropertyOp14
 70
     1
102
RTVSPropertyOp15
 70
     1
102
RTVSPropertyOp16
 70
     1
102
RTVSPropertyOp17
 70
     1
102
RTVSPropertyOp18
 70
     1
102
RTVSPropertyOp19
 70
     1
102
RTVSPropertyOp20
 70
     1
102
RTVSPropertyOp21
 70
     1
102
RTVSPropertyOp22
 70
     1
102
RTVSPropertyOp23
 70
     1
102
RTVSPropertyOp24
 70
     1
102
RTVSPropertyOp25
 70
     1
102
RTVSPropertyOp26
 70
     1
102
RTVSPropertyOp27
 70
     1
102
RTVSPropertyOp28
 70
     1
102
RTVSPropertyOp29
 70
     1
102
RTVSPropertyOp30
 70
     1
102
RTVSPropertyOp31
 70
     1
102
RTVSPropertyOp32
 70
     1
102
RTVSPropertyOp33
 70
     1
102
RTVSPropertyOp34
 70
     1
102
RTVSPropertyOp35
 70
     1
102
RTVSPropertyOp36
 70
     1
102
RTVSPropertyOp37
 70
     1
102
RTVSPropertyOp38
 70
     1
102
RTVSPropertyOp39
 70
     1
102
RTVSPropertyOp40
 70
     1
102
RTVSPropertyOp41
 70
     1
102
RTVSPropertyOp42
 70
     1
102
RTVSPropertyOp43
 70
     1
102
RTVSPropertyOp44
 70
     1
102
RTVSPropertyOp45
 70
     1
102
RTVSPropertyOp46
 70
     1
102
RTVSPropertyOp47
 70
     1
102
RTVSPropertyOp48
 70
     1
102
RTVSPropertyOp49
 70
     1
102
RTVSPropertyOp50
 70
     1
102
RTVSPropertyOp51
 70
     0
102
RTVSPropertyOp52
 70
     0
102
RTVSPropertyOp53
 70
     1
102
RTVSPropertyOp54
 70
     1
102
RTVSPropertyOp55
 70
     1
102
RTVSPropertyOp56
 70
     1
102
RTVSPropertyOp57
 70
     1
102
RTVSPropertyOp58
 70
     1
102
RTVSPropertyOp59
 70
     1
102
RTVSPropertyOp60
 70
     1
102
RTVSPropertyOp61
 70
     1
102
RTVSPropertyOp62
 70
     1
  0
XRECORD
  5
B173
102
{ACAD_REACTORS
330
B172
102
}
330
B172
100
AcDbXrecord
280
     1
102
RTVSPost2010Prop28
280
     0
102
RTVSPost2010PropOp28
 70
     1
102
RTVSPost2010Prop29
280
     1
102
RTVSPost2010PropOp29
 70
     1
102
RTVSPost2010Prop30
280
     1
102
RTVSPost2010PropOp30
 70
     1
102
RTVSPost2010Prop31
280
     0
102
RTVSPost2010PropOp31
 70
     1
102
RTVSPost2010Prop32
280
     0
102
RTVSPost2010PropOp32
 70
     1
102
RTVSPost2010Prop33
280
     0
102
RTVSPost2010PropOp33
 70
     1
102
RTVSPost2010Prop34
280
     0
102
RTVSPost2010PropOp34
 70
     1
102
RTVSPost2010Prop35
280
     0
102
RTVSPost2010PropOp35
 70
     1
102
RTVSPost2010Prop36
280
     0
102
RTVSPost2010PropOp36
 70
     1
102
RTVSPost2010Prop37
 90
       50
102
RTVSPost2010PropOp37
 70
     1
102
RTVSPost2010Prop38
140
0.0
102
RTVSPost2010PropOp38
 70
     1
102
RTVSPost2010Prop39
140
1.0
102
RTVSPost2010PropOp39
 70
     1
102
RTVSPost2010Prop40
 90
        0
102
RTVSPost2010PropOp40
 70
     1
102
RTVSPost2010Prop41ColorIndex
 90
       18
102
RTVSPost2010Prop41ColorRGB
 90
        0
102
RTVSPost2010PropOp41
 70
     1
102
RTVSPost2010Prop42
 90
       50
102
RTVSPost2010PropOp42
 70
     1
102
RTVSPost2010Prop43
 90
        3
102
RTVSPost2010PropOp43
 70
     1
102
RTVSPost2010Prop44ColorIndex
 90
        5
102
RTVSPost2010Prop44ColorRGB
 90
      255
102
RTVSPost2010PropOp44
 70
     1
102
RTVSPost2010Prop45
280
     0
102
RTVSPost2010PropOp45
 70
     1
102
RTVSPost2010Prop46
 90
       50
102
RTVSPost2010PropOp46
 70
     1
102
RTVSPost2010Prop47
 90
       50
102
RTVSPost2010PropOp47
 70
     1
102
RTVSPost2010Prop48
 90
       50
102
RTVSPost2010PropOp48
 70
     1
102
RTVSPost2010Prop49
280
     0
102
RTVSPost2010PropOp49
 70
     1
102
RTVSPost2010Prop50
 90
       50
102
RTVSPost2010PropOp50
 70
     1
102
RTVSPost2010Prop51ColorIndex
 90
      256
102
RTVSPost2010Prop51ColorRGB
 90
-16777216
102
RTVSPost2010PropOp51
 70
     0
102
RTVSPost2010Prop52
140
1.0
102
RTVSPost2010PropOp52
 70
     0
102
RTVSPost2010Prop53
 90
        2
102
RTVSPost2010PropOp53
 70
     1
102
RTVSPost2010Prop54
  1
strokes_ogs.tif
102
RTVSPost2010PropOp54
 70
     1
102
RTVSPost2010Prop55
280
     0
102
RTVSPost2010PropOp55
 70
     1
102
RTVSPost2010Prop56
140
1.0
102
RTVSPost2010PropOp56
 70
     1
102
RTVSPost2010Prop57
140
1.0
102
RTVSPost2010PropOp57
 70
     1
102
RTVSPropertyOp0
 70
     1
102
RTVSPropertyOp1
 70
     1
102
RTVSPropertyOp2
 70
     1
102
RTVSPropertyOp3
 70
     1
102
RTVSPropertyOp4
 70
     1
102
RTVSPropertyOp5
 70
     1
102
RTVSPropertyOp6
 70
     1
102
RTVSPropertyOp7
 70
     1
102
RTVSPropertyOp8
 70
     1
102
RTVSPropertyOp9
 70
     1
102
RTVSPropertyOp10
 70
     1
102
RTVSPropertyOp11
 70
     1
102
RTVSPropertyOp12
 70
     1
102
RTVSPropertyOp13
 70
     1
102
RTVSPropertyOp14
 70
     1
102
RTVSPropertyOp15
 70
     1
102
RTVSPropertyOp16
 70
     1
102
RTVSPropertyOp17
 70
     1
102
RTVSPropertyOp18
 70
     1
102
RTVSPropertyOp19
 70
     1
102
RTVSPropertyOp20
 70
     1
102
RTVSPropertyOp21
 70
     1
102
RTVSPropertyOp22
 70
     1
102
RTVSPropertyOp23
 70
     1
102
RTVSPropertyOp24
 70
     1
102
RTVSPropertyOp25
 70
     1
102
RTVSPropertyOp26
 70
     1
102
RTVSPropertyOp27
 70
     1
102
RTVSPropertyOp28
 70
     1
102
RTVSPropertyOp29
 70
     1
102
RTVSPropertyOp30
 70
     1
102
RTVSPropertyOp31
 70
     1
102
RTVSPropertyOp32
 70
     1
102
RTVSPropertyOp33
 70
     1
102
RTVSPropertyOp34
 70
     1
102
RTVSPropertyOp35
 70
     1
102
RTVSPropertyOp36
 70
     1
102
RTVSPropertyOp37
 70
     1
102
RTVSPropertyOp38
 70
     1
102
RTVSPropertyOp39
 70
     1
102
RTVSPropertyOp40
 70
     1
102
RTVSPropertyOp41
 70
     1
102
RTVSPropertyOp42
 70
     1
102
RTVSPropertyOp43
 70
     1
102
RTVSPropertyOp44
 70
     1
102
RTVSPropertyOp45
 70
     1
102
RTVSPropertyOp46
 70
     1
102
RTVSPropertyOp47
 70
     1
102
RTVSPropertyOp48
 70
     1
102
RTVSPropertyOp49
 70
     1
102
RTVSPropertyOp50
 70
     1
102
RTVSPropertyOp51
 70
     0
102
RTVSPropertyOp52
 70
     0
102
RTVSPropertyOp53
 70
     1
102
RTVSPropertyOp54
 70
     1
102
RTVSPropertyOp55
 70
     1
102
RTVSPropertyOp56
 70
     1
102
RTVSPropertyOp57
 70
     1
102
RTVSPropertyOp58
 70
     1
102
RTVSPropertyOp59
 70
     1
102
RTVSPropertyOp60
 70
     1
102
RTVSPropertyOp61
 70
     1
102
RTVSPropertyOp62
 70
     1
  0
XRECORD
  5
B177
102
{ACAD_REACTORS
330
B176
102
}
330
B176
100
AcDbXrecord
280
     1
102
RTVSPost2010Prop28
280
     0
102
RTVSPost2010PropOp28
 70
     1
102
RTVSPost2010Prop29
280
     1
102
RTVSPost2010PropOp29
 70
     1
102
RTVSPost2010Prop30
280
     1
102
RTVSPost2010PropOp30
 70
     1
102
RTVSPost2010Prop31
280
     0
102
RTVSPost2010PropOp31
 70
     1
102
RTVSPost2010Prop32
280
     0
102
RTVSPost2010PropOp32
 70
     1
102
RTVSPost2010Prop33
280
     0
102
RTVSPost2010PropOp33
 70
     1
102
RTVSPost2010Prop34
280
     0
102
RTVSPost2010PropOp34
 70
     1
102
RTVSPost2010Prop35
280
     0
102
RTVSPost2010PropOp35
 70
     1
102
RTVSPost2010Prop36
280
     0
102
RTVSPost2010PropOp36
 70
     1
102
RTVSPost2010Prop37
 90
       50
102
RTVSPost2010PropOp37
 70
     1
102
RTVSPost2010Prop38
140
0.0
102
RTVSPost2010PropOp38
 70
     1
102
RTVSPost2010Prop39
140
1.0
102
RTVSPost2010PropOp39
 70
     1
102
RTVSPost2010Prop40
 90
        0
102
RTVSPost2010PropOp40
 70
     1
102
RTVSPost2010Prop41ColorIndex
 90
       18
102
RTVSPost2010Prop41ColorRGB
 90
        0
102
RTVSPost2010PropOp41
 70
     1
102
RTVSPost2010Prop42
 90
       50
102
RTVSPost2010PropOp42
 70
     1
102
RTVSPost2010Prop43
 90
        3
102
RTVSPost2010PropOp43
 70
     1
102
RTVSPost2010Prop44ColorIndex
 90
        5
102
RTVSPost2010Prop44ColorRGB
 90
      255
102
RTVSPost2010PropOp44
 70
     1
102
RTVSPost2010Prop45
280
     0
102
RTVSPost2010PropOp45
 70
     1
102
RTVSPost2010Prop46
 90
       50
102
RTVSPost2010PropOp46
 70
     1
102
RTVSPost2010Prop47
 90
       50
102
RTVSPost2010PropOp47
 70
     1
102
RTVSPost2010Prop48
 90
       50
102
RTVSPost2010PropOp48
 70
     1
102
RTVSPost2010Prop49
280
     0
102
RTVSPost2010PropOp49
 70
     1
102
RTVSPost2010Prop50
 90
       50
102
RTVSPost2010PropOp50
 70
     1
102
RTVSPost2010Prop51ColorIndex
 90
      256
102
RTVSPost2010Prop51ColorRGB
 90
-16777216
102
RTVSPost2010PropOp51
 70
     0
102
RTVSPost2010Prop52
140
1.0
102
RTVSPost2010PropOp52
 70
     0
102
RTVSPost2010Prop53
 90
        2
102
RTVSPost2010PropOp53
 70
     1
102
RTVSPost2010Prop54
  1
strokes_ogs.tif
102
RTVSPost2010PropOp54
 70
     1
102
RTVSPost2010Prop55
280
     0
102
RTVSPost2010PropOp55
 70
     1
102
RTVSPost2010Prop56
140
1.0
102
RTVSPost2010PropOp56
 70
     1
102
RTVSPost2010Prop57
140
1.0
102
RTVSPost2010PropOp57
 70
     1
102
RTVSPropertyOp0
 70
     1
102
RTVSPropertyOp1
 70
     1
102
RTVSPropertyOp2
 70
     1
102
RTVSPropertyOp3
 70
     1
102
RTVSPropertyOp4
 70
     1
102
RTVSPropertyOp5
 70
     1
102
RTVSPropertyOp6
 70
     1
102
RTVSPropertyOp7
 70
     1
102
RTVSPropertyOp8
 70
     1
102
RTVSPropertyOp9
 70
     1
102
RTVSPropertyOp10
 70
     1
102
RTVSPropertyOp11
 70
     1
102
RTVSPropertyOp12
 70
     1
102
RTVSPropertyOp13
 70
     1
102
RTVSPropertyOp14
 70
     1
102
RTVSPropertyOp15
 70
     1
102
RTVSPropertyOp16
 70
     1
102
RTVSPropertyOp17
 70
     1
102
RTVSPropertyOp18
 70
     1
102
RTVSPropertyOp19
 70
     1
102
RTVSPropertyOp20
 70
     1
102
RTVSPropertyOp21
 70
     1
102
RTVSPropertyOp22
 70
     1
102
RTVSPropertyOp23
 70
     1
102
RTVSPropertyOp24
 70
     1
102
RTVSPropertyOp25
 70
     1
102
RTVSPropertyOp26
 70
     1
102
RTVSPropertyOp27
 70
     1
102
RTVSPropertyOp28
 70
     1
102
RTVSPropertyOp29
 70
     1
102
RTVSPropertyOp30
 70
     1
102
RTVSPropertyOp31
 70
     1
102
RTVSPropertyOp32
 70
     1
102
RTVSPropertyOp33
 70
     1
102
RTVSPropertyOp34
 70
     1
102
RTVSPropertyOp35
 70
     1
102
RTVSPropertyOp36
 70
     1
102
RTVSPropertyOp37
 70
     1
102
RTVSPropertyOp38
 70
     1
102
RTVSPropertyOp39
 70
     1
102
RTVSPropertyOp40
 70
     1
102
RTVSPropertyOp41
 70
     1
102
RTVSPropertyOp42
 70
     1
102
RTVSPropertyOp43
 70
     1
102
RTVSPropertyOp44
 70
     1
102
RTVSPropertyOp45
 70
     1
102
RTVSPropertyOp46
 70
     1
102
RTVSPropertyOp47
 70
     1
102
RTVSPropertyOp48
 70
     1
102
RTVSPropertyOp49
 70
     1
102
RTVSPropertyOp50
 70
     1
102
RTVSPropertyOp51
 70
     0
102
RTVSPropertyOp52
 70
     0
102
RTVSPropertyOp53
 70
     1
102
RTVSPropertyOp54
 70
     1
102
RTVSPropertyOp55
 70
     1
102
RTVSPropertyOp56
 70
     1
102
RTVSPropertyOp57
 70
     1
102
RTVSPropertyOp58
 70
     1
102
RTVSPropertyOp59
 70
     1
102
RTVSPropertyOp60
 70
     1
102
RTVSPropertyOp61
 70
     1
102
RTVSPropertyOp62
 70
     1
  0
XRECORD
  5
B191
102
{ACAD_REACTORS
330
B190
102
}
330
B190
100
AcDbXrecord
280
     1
102
RTVSPost2010Prop28
280
     0
102
RTVSPost2010PropOp28
 70
     1
102
RTVSPost2010Prop29
280
     1
102
RTVSPost2010PropOp29
 70
     1
102
RTVSPost2010Prop30
280
     1
102
RTVSPost2010PropOp30
 70
     1
102
RTVSPost2010Prop31
280
     0
102
RTVSPost2010PropOp31
 70
     1
102
RTVSPost2010Prop32
280
     0
102
RTVSPost2010PropOp32
 70
     1
102
RTVSPost2010Prop33
280
     0
102
RTVSPost2010PropOp33
 70
     1
102
RTVSPost2010Prop34
280
     0
102
RTVSPost2010PropOp34
 70
     1
102
RTVSPost2010Prop35
280
     0
102
RTVSPost2010PropOp35
 70
     1
102
RTVSPost2010Prop36
280
     0
102
RTVSPost2010PropOp36
 70
     1
102
RTVSPost2010Prop37
 90
       50
102
RTVSPost2010PropOp37
 70
     0
102
RTVSPost2010Prop38
140
0.0
102
RTVSPost2010PropOp38
 70
     0
102
RTVSPost2010Prop39
140
1.0
102
RTVSPost2010PropOp39
 70
     0
102
RTVSPost2010Prop40
 90
        0
102
RTVSPost2010PropOp40
 70
     0
102
RTVSPost2010Prop41ColorIndex
 90
       18
102
RTVSPost2010Prop41ColorRGB
 90
        0
102
RTVSPost2010PropOp41
 70
     0
102
RTVSPost2010Prop42
 90
       50
102
RTVSPost2010PropOp42
 70
     0
102
RTVSPost2010Prop43
 90
        3
102
RTVSPost2010PropOp43
 70
     0
102
RTVSPost2010Prop44ColorIndex
 90
        5
102
RTVSPost2010Prop44ColorRGB
 90
      255
102
RTVSPost2010PropOp44
 70
     0
102
RTVSPost2010Prop45
280
     0
102
RTVSPost2010PropOp45
 70
     1
102
RTVSPost2010Prop46
 90
       50
102
RTVSPost2010PropOp46
 70
     0
102
RTVSPost2010Prop47
 90
       50
102
RTVSPost2010PropOp47
 70
     0
102
RTVSPost2010Prop48
 90
       50
102
RTVSPost2010PropOp48
 70
     0
102
RTVSPost2010Prop49
280
     0
102
RTVSPost2010PropOp49
 70
     1
102
RTVSPost2010Prop50
 90
       50
102
RTVSPost2010PropOp50
 70
     0
102
RTVSPost2010Prop51ColorIndex
 90
      256
102
RTVSPost2010Prop51ColorRGB
 90
-16777216
102
RTVSPost2010PropOp51
 70
     0
102
RTVSPost2010Prop52
140
1.0
102
RTVSPost2010PropOp52
 70
     0
102
RTVSPost2010Prop53
 90
        2
102
RTVSPost2010PropOp53
 70
     0
102
RTVSPost2010Prop54
  1
strokes_ogs.tif
102
RTVSPost2010PropOp54
 70
     0
102
RTVSPost2010Prop55
280
     0
102
RTVSPost2010PropOp55
 70
     1
102
RTVSPost2010Prop56
140
1.0
102
RTVSPost2010PropOp56
 70
     0
102
RTVSPost2010Prop57
140
1.0
102
RTVSPost2010PropOp57
 70
     0
102
RTVSPropertyOp0
 70
     0
102
RTVSPropertyOp1
 70
     0
102
RTVSPropertyOp2
 70
     0
102
RTVSPropertyOp3
 70
     0
102
RTVSPropertyOp4
 70
     0
102
RTVSPropertyOp5
 70
     0
102
RTVSPropertyOp6
 70
     0
102
RTVSPropertyOp7
 70
     0
102
RTVSPropertyOp8
 70
     0
102
RTVSPropertyOp9
 70
     0
102
RTVSPropertyOp10
 70
     0
102
RTVSPropertyOp11
 70
     0
102
RTVSPropertyOp12
 70
     0
102
RTVSPropertyOp13
 70
     0
102
RTVSPropertyOp14
 70
     2
102
RTVSPropertyOp15
 70
     0
102
RTVSPropertyOp16
 70
     0
102
RTVSPropertyOp17
 70
     0
102
RTVSPropertyOp18
 70
     0
102
RTVSPropertyOp19
 70
     0
102
RTVSPropertyOp20
 70
     0
102
RTVSPropertyOp21
 70
     0
102
RTVSPropertyOp22
 70
     0
102
RTVSPropertyOp23
 70
     0
102
RTVSPropertyOp24
 70
     0
102
RTVSPropertyOp25
 70
     0
102
RTVSPropertyOp26
 70
     0
102
RTVSPropertyOp27
 70
     0
102
RTVSPropertyOp28
 70
     1
102
RTVSPropertyOp29
 70
     1
102
RTVSPropertyOp30
 70
     1
102
RTVSPropertyOp31
 70
     1
102
RTVSPropertyOp32
 70
     1
102
RTVSPropertyOp33
 70
     1
102
RTVSPropertyOp34
 70
     1
102
RTVSPropertyOp35
 70
     1
102
RTVSPropertyOp36
 70
     1
102
RTVSPropertyOp37
 70
     0
102
RTVSPropertyOp38
 70
     0
102
RTVSPropertyOp39
 70
     0
102
RTVSPropertyOp40
 70
     0
102
RTVSPropertyOp41
 70
     0
102
RTVSPropertyOp42
 70
     0
102
RTVSPropertyOp43
 70
     0
102
RTVSPropertyOp44
 70
     0
102
RTVSPropertyOp45
 70
     1
102
RTVSPropertyOp46
 70
     0
102
RTVSPropertyOp47
 70
     0
102
RTVSPropertyOp48
 70
     0
102
RTVSPropertyOp49
 70
     1
102
RTVSPropertyOp50
 70
     0
102
RTVSPropertyOp51
 70
     0
102
RTVSPropertyOp52
 70
     0
102
RTVSPropertyOp53
 70
     0
102
RTVSPropertyOp54
 70
     0
102
RTVSPropertyOp55
 70
     1
102
RTVSPropertyOp56
 70
     0
102
RTVSPropertyOp57
 70
     0
102
RTVSPropertyOp58
 70
     0
102
RTVSPropertyOp59
 70
     0
102
RTVSPropertyOp60
 70
     0
102
RTVSPropertyOp61
 70
     0
102
RTVSPropertyOp62
 70
     0
  0
XRECORD
  5
B17F
102
{ACAD_REACTORS
330
B17E
102
}
330
B17E
100
AcDbXrecord
280
     1
102
RTVSPost2010Prop28
280
     0
102
RTVSPost2010PropOp28
 70
     1
102
RTVSPost2010Prop29
280
     1
102
RTVSPost2010PropOp29
 70
     1
102
RTVSPost2010Prop30
280
     1
102
RTVSPost2010PropOp30
 70
     1
102
RTVSPost2010Prop31
280
     0
102
RTVSPost2010PropOp31
 70
     1
102
RTVSPost2010Prop32
280
     0
102
RTVSPost2010PropOp32
 70
     1
102
RTVSPost2010Prop33
280
     0
102
RTVSPost2010PropOp33
 70
     1
102
RTVSPost2010Prop34
280
     0
102
RTVSPost2010PropOp34
 70
     1
102
RTVSPost2010Prop35
280
     0
102
RTVSPost2010PropOp35
 70
     1
102
RTVSPost2010Prop36
280
     0
102
RTVSPost2010PropOp36
 70
     1
102
RTVSPost2010Prop37
 90
       50
102
RTVSPost2010PropOp37
 70
     1
102
RTVSPost2010Prop38
140
0.0
102
RTVSPost2010PropOp38
 70
     1
102
RTVSPost2010Prop39
140
1.0
102
RTVSPost2010PropOp39
 70
     1
102
RTVSPost2010Prop40
 90
        0
102
RTVSPost2010PropOp40
 70
     1
102
RTVSPost2010Prop41ColorIndex
 90
       18
102
RTVSPost2010Prop41ColorRGB
 90
        0
102
RTVSPost2010PropOp41
 70
     1
102
RTVSPost2010Prop42
 90
       50
102
RTVSPost2010PropOp42
 70
     1
102
RTVSPost2010Prop43
 90
        3
102
RTVSPost2010PropOp43
 70
     1
102
RTVSPost2010Prop44ColorIndex
 90
        5
102
RTVSPost2010Prop44ColorRGB
 90
      255
102
RTVSPost2010PropOp44
 70
     1
102
RTVSPost2010Prop45
280
     0
102
RTVSPost2010PropOp45
 70
     1
102
RTVSPost2010Prop46
 90
       50
102
RTVSPost2010PropOp46
 70
     1
102
RTVSPost2010Prop47
 90
       50
102
RTVSPost2010PropOp47
 70
     1
102
RTVSPost2010Prop48
 90
       50
102
RTVSPost2010PropOp48
 70
     1
102
RTVSPost2010Prop49
280
     0
102
RTVSPost2010PropOp49
 70
     1
102
RTVSPost2010Prop50
 90
       50
102
RTVSPost2010PropOp50
 70
     1
102
RTVSPost2010Prop51ColorIndex
 90
      256
102
RTVSPost2010Prop51ColorRGB
 90
-16777216
102
RTVSPost2010PropOp51
 70
     0
102
RTVSPost2010Prop52
140
1.0
102
RTVSPost2010PropOp52
 70
     0
102
RTVSPost2010Prop53
 90
        2
102
RTVSPost2010PropOp53
 70
     1
102
RTVSPost2010Prop54
  1
strokes_ogs.tif
102
RTVSPost2010PropOp54
 70
     1
102
RTVSPost2010Prop55
280
     0
102
RTVSPost2010PropOp55
 70
     1
102
RTVSPost2010Prop56
140
1.0
102
RTVSPost2010PropOp56
 70
     1
102
RTVSPost2010Prop57
140
1.0
102
RTVSPost2010PropOp57
 70
     1
102
RTVSPropertyOp0
 70
     1
102
RTVSPropertyOp1
 70
     1
102
RTVSPropertyOp2
 70
     1
102
RTVSPropertyOp3
 70
     1
102
RTVSPropertyOp4
 70
     1
102
RTVSPropertyOp5
 70
     1
102
RTVSPropertyOp6
 70
     1
102
RTVSPropertyOp7
 70
     1
102
RTVSPropertyOp8
 70
     1
102
RTVSPropertyOp9
 70
     1
102
RTVSPropertyOp10
 70
     1
102
RTVSPropertyOp11
 70
     1
102
RTVSPropertyOp12
 70
     1
102
RTVSPropertyOp13
 70
     1
102
RTVSPropertyOp14
 70
     1
102
RTVSPropertyOp15
 70
     1
102
RTVSPropertyOp16
 70
     1
102
RTVSPropertyOp17
 70
     1
102
RTVSPropertyOp18
 70
     1
102
RTVSPropertyOp19
 70
     1
102
RTVSPropertyOp20
 70
     1
102
RTVSPropertyOp21
 70
     1
102
RTVSPropertyOp22
 70
     1
102
RTVSPropertyOp23
 70
     1
102
RTVSPropertyOp24
 70
     1
102
RTVSPropertyOp25
 70
     1
102
RTVSPropertyOp26
 70
     1
102
RTVSPropertyOp27
 70
     1
102
RTVSPropertyOp28
 70
     1
102
RTVSPropertyOp29
 70
     1
102
RTVSPropertyOp30
 70
     1
102
RTVSPropertyOp31
 70
     1
102
RTVSPropertyOp32
 70
     1
102
RTVSPropertyOp33
 70
     1
102
RTVSPropertyOp34
 70
     1
102
RTVSPropertyOp35
 70
     1
102
RTVSPropertyOp36
 70
     1
102
RTVSPropertyOp37
 70
     1
102
RTVSPropertyOp38
 70
     1
102
RTVSPropertyOp39
 70
     1
102
RTVSPropertyOp40
 70
     1
102
RTVSPropertyOp41
 70
     1
102
RTVSPropertyOp42
 70
     1
102
RTVSPropertyOp43
 70
     1
102
RTVSPropertyOp44
 70
     1
102
RTVSPropertyOp45
 70
     1
102
RTVSPropertyOp46
 70
     1
102
RTVSPropertyOp47
 70
     1
102
RTVSPropertyOp48
 70
     1
102
RTVSPropertyOp49
 70
     1
102
RTVSPropertyOp50
 70
     1
102
RTVSPropertyOp51
 70
     0
102
RTVSPropertyOp52
 70
     0
102
RTVSPropertyOp53
 70
     1
102
RTVSPropertyOp54
 70
     1
102
RTVSPropertyOp55
 70
     1
102
RTVSPropertyOp56
 70
     1
102
RTVSPropertyOp57
 70
     1
102
RTVSPropertyOp58
 70
     1
102
RTVSPropertyOp59
 70
     1
102
RTVSPropertyOp60
 70
     1
102
RTVSPropertyOp61
 70
     1
102
RTVSPropertyOp62
 70
     1
  0
XRECORD
  5
B163
102
{ACAD_REACTORS
330
B162
102
}
330
B162
100
AcDbXrecord
280
     1
102
RTVSPost2010Prop28
280
     0
102
RTVSPost2010PropOp28
 70
     1
102
RTVSPost2010Prop29
280
     1
102
RTVSPost2010PropOp29
 70
     1
102
RTVSPost2010Prop30
280
     1
102
RTVSPost2010PropOp30
 70
     1
102
RTVSPost2010Prop31
280
     0
102
RTVSPost2010PropOp31
 70
     1
102
RTVSPost2010Prop32
280
     0
102
RTVSPost2010PropOp32
 70
     1
102
RTVSPost2010Prop33
280
     0
102
RTVSPost2010PropOp33
 70
     1
102
RTVSPost2010Prop34
280
     0
102
RTVSPost2010PropOp34
 70
     1
102
RTVSPost2010Prop35
280
     0
102
RTVSPost2010PropOp35
 70
     1
102
RTVSPost2010Prop36
280
     0
102
RTVSPost2010PropOp36
 70
     1
102
RTVSPost2010Prop37
 90
       50
102
RTVSPost2010PropOp37
 70
     1
102
RTVSPost2010Prop38
140
0.0
102
RTVSPost2010PropOp38
 70
     1
102
RTVSPost2010Prop39
140
1.0
102
RTVSPost2010PropOp39
 70
     1
102
RTVSPost2010Prop40
 90
        0
102
RTVSPost2010PropOp40
 70
     1
102
RTVSPost2010Prop41ColorIndex
 90
       18
102
RTVSPost2010Prop41ColorRGB
 90
        0
102
RTVSPost2010PropOp41
 70
     1
102
RTVSPost2010Prop42
 90
       50
102
RTVSPost2010PropOp42
 70
     1
102
RTVSPost2010Prop43
 90
        3
102
RTVSPost2010PropOp43
 70
     1
102
RTVSPost2010Prop44ColorIndex
 90
        5
102
RTVSPost2010Prop44ColorRGB
 90
      255
102
RTVSPost2010PropOp44
 70
     1
102
RTVSPost2010Prop45
280
     0
102
RTVSPost2010PropOp45
 70
     1
102
RTVSPost2010Prop46
 90
       50
102
RTVSPost2010PropOp46
 70
     1
102
RTVSPost2010Prop47
 90
       50
102
RTVSPost2010PropOp47
 70
     1
102
RTVSPost2010Prop48
 90
       50
102
RTVSPost2010PropOp48
 70
     1
102
RTVSPost2010Prop49
280
     0
102
RTVSPost2010PropOp49
 70
     1
102
RTVSPost2010Prop50
 90
       50
102
RTVSPost2010PropOp50
 70
     1
102
RTVSPost2010Prop51ColorIndex
 90
      256
102
RTVSPost2010Prop51ColorRGB
 90
-16777216
102
RTVSPost2010PropOp51
 70
     0
102
RTVSPost2010Prop52
140
1.0
102
RTVSPost2010PropOp52
 70
     0
102
RTVSPost2010Prop53
 90
        2
102
RTVSPost2010PropOp53
 70
     1
102
RTVSPost2010Prop54
  1
strokes_ogs.tif
102
RTVSPost2010PropOp54
 70
     1
102
RTVSPost2010Prop55
280
     0
102
RTVSPost2010PropOp55
 70
     1
102
RTVSPost2010Prop56
140
1.0
102
RTVSPost2010PropOp56
 70
     1
102
RTVSPost2010Prop57
140
1.0
102
RTVSPost2010PropOp57
 70
     1
102
RTVSPropertyOp0
 70
     1
102
RTVSPropertyOp1
 70
     1
102
RTVSPropertyOp2
 70
     1
102
RTVSPropertyOp3
 70
     1
102
RTVSPropertyOp4
 70
     1
102
RTVSPropertyOp5
 70
     1
102
RTVSPropertyOp6
 70
     1
102
RTVSPropertyOp7
 70
     1
102
RTVSPropertyOp8
 70
     1
102
RTVSPropertyOp9
 70
     1
102
RTVSPropertyOp10
 70
     1
102
RTVSPropertyOp11
 70
     1
102
RTVSPropertyOp12
 70
     1
102
RTVSPropertyOp13
 70
     1
102
RTVSPropertyOp14
 70
     1
102
RTVSPropertyOp15
 70
     1
102
RTVSPropertyOp16
 70
     1
102
RTVSPropertyOp17
 70
     1
102
RTVSPropertyOp18
 70
     1
102
RTVSPropertyOp19
 70
     1
102
RTVSPropertyOp20
 70
     1
102
RTVSPropertyOp21
 70
     1
102
RTVSPropertyOp22
 70
     1
102
RTVSPropertyOp23
 70
     1
102
RTVSPropertyOp24
 70
     1
102
RTVSPropertyOp25
 70
     1
102
RTVSPropertyOp26
 70
     1
102
RTVSPropertyOp27
 70
     1
102
RTVSPropertyOp28
 70
     1
102
RTVSPropertyOp29
 70
     1
102
RTVSPropertyOp30
 70
     1
102
RTVSPropertyOp31
 70
     1
102
RTVSPropertyOp32
 70
     1
102
RTVSPropertyOp33
 70
     1
102
RTVSPropertyOp34
 70
     1
102
RTVSPropertyOp35
 70
     1
102
RTVSPropertyOp36
 70
     1
102
RTVSPropertyOp37
 70
     1
102
RTVSPropertyOp38
 70
     1
102
RTVSPropertyOp39
 70
     1
102
RTVSPropertyOp40
 70
     1
102
RTVSPropertyOp41
 70
     1
102
RTVSPropertyOp42
 70
     1
102
RTVSPropertyOp43
 70
     1
102
RTVSPropertyOp44
 70
     1
102
RTVSPropertyOp45
 70
     1
102
RTVSPropertyOp46
 70
     1
102
RTVSPropertyOp47
 70
     1
102
RTVSPropertyOp48
 70
     1
102
RTVSPropertyOp49
 70
     1
102
RTVSPropertyOp50
 70
     1
102
RTVSPropertyOp51
 70
     0
102
RTVSPropertyOp52
 70
     0
102
RTVSPropertyOp53
 70
     1
102
RTVSPropertyOp54
 70
     1
102
RTVSPropertyOp55
 70
     1
102
RTVSPropertyOp56
 70
     1
102
RTVSPropertyOp57
 70
     1
102
RTVSPropertyOp58
 70
     1
102
RTVSPropertyOp59
 70
     1
102
RTVSPropertyOp60
 70
     1
102
RTVSPropertyOp61
 70
     1
102
RTVSPropertyOp62
 70
     1
  0
XRECORD
  5
B165
102
{ACAD_REACTORS
330
B164
102
}
330
B164
100
AcDbXrecord
280
     1
102
RTVSPost2010Prop28
280
     0
102
RTVSPost2010PropOp28
 70
     1
102
RTVSPost2010Prop29
280
     1
102
RTVSPost2010PropOp29
 70
     1
102
RTVSPost2010Prop30
280
     1
102
RTVSPost2010PropOp30
 70
     1
102
RTVSPost2010Prop31
280
     0
102
RTVSPost2010PropOp31
 70
     1
102
RTVSPost2010Prop32
280
     0
102
RTVSPost2010PropOp32
 70
     1
102
RTVSPost2010Prop33
280
     0
102
RTVSPost2010PropOp33
 70
     1
102
RTVSPost2010Prop34
280
     0
102
RTVSPost2010PropOp34
 70
     1
102
RTVSPost2010Prop35
280
     0
102
RTVSPost2010PropOp35
 70
     1
102
RTVSPost2010Prop36
280
     0
102
RTVSPost2010PropOp36
 70
     1
102
RTVSPost2010Prop37
 90
       50
102
RTVSPost2010PropOp37
 70
     1
102
RTVSPost2010Prop38
140
0.0
102
RTVSPost2010PropOp38
 70
     1
102
RTVSPost2010Prop39
140
1.0
102
RTVSPost2010PropOp39
 70
     1
102
RTVSPost2010Prop40
 90
        0
102
RTVSPost2010PropOp40
 70
     1
102
RTVSPost2010Prop41ColorIndex
 90
       18
102
RTVSPost2010Prop41ColorRGB
 90
        0
102
RTVSPost2010PropOp41
 70
     1
102
RTVSPost2010Prop42
 90
       50
102
RTVSPost2010PropOp42
 70
     1
102
RTVSPost2010Prop43
 90
        3
102
RTVSPost2010PropOp43
 70
     1
102
RTVSPost2010Prop44ColorIndex
 90
        5
102
RTVSPost2010Prop44ColorRGB
 90
      255
102
RTVSPost2010PropOp44
 70
     1
102
RTVSPost2010Prop45
280
     0
102
RTVSPost2010PropOp45
 70
     1
102
RTVSPost2010Prop46
 90
       50
102
RTVSPost2010PropOp46
 70
     1
102
RTVSPost2010Prop47
 90
       50
102
RTVSPost2010PropOp47
 70
     1
102
RTVSPost2010Prop48
 90
       50
102
RTVSPost2010PropOp48
 70
     1
102
RTVSPost2010Prop49
280
     0
102
RTVSPost2010PropOp49
 70
     1
102
RTVSPost2010Prop50
 90
       50
102
RTVSPost2010PropOp50
 70
     1
102
RTVSPost2010Prop51ColorIndex
 90
      256
102
RTVSPost2010Prop51ColorRGB
 90
-16777216
102
RTVSPost2010PropOp51
 70
     0
102
RTVSPost2010Prop52
140
1.0
102
RTVSPost2010PropOp52
 70
     0
102
RTVSPost2010Prop53
 90
        2
102
RTVSPost2010PropOp53
 70
     1
102
RTVSPost2010Prop54
  1
strokes_ogs.tif
102
RTVSPost2010PropOp54
 70
     1
102
RTVSPost2010Prop55
280
     0
102
RTVSPost2010PropOp55
 70
     1
102
RTVSPost2010Prop56
140
1.0
102
RTVSPost2010PropOp56
 70
     1
102
RTVSPost2010Prop57
140
1.0
102
RTVSPost2010PropOp57
 70
     1
102
RTVSPropertyOp0
 70
     1
102
RTVSPropertyOp1
 70
     1
102
RTVSPropertyOp2
 70
     1
102
RTVSPropertyOp3
 70
     1
102
RTVSPropertyOp4
 70
     1
102
RTVSPropertyOp5
 70
     1
102
RTVSPropertyOp6
 70
     1
102
RTVSPropertyOp7
 70
     1
102
RTVSPropertyOp8
 70
     1
102
RTVSPropertyOp9
 70
     1
102
RTVSPropertyOp10
 70
     1
102
RTVSPropertyOp11
 70
     1
102
RTVSPropertyOp12
 70
     1
102
RTVSPropertyOp13
 70
     1
102
RTVSPropertyOp14
 70
     1
102
RTVSPropertyOp15
 70
     1
102
RTVSPropertyOp16
 70
     1
102
RTVSPropertyOp17
 70
     1
102
RTVSPropertyOp18
 70
     1
102
RTVSPropertyOp19
 70
     1
102
RTVSPropertyOp20
 70
     1
102
RTVSPropertyOp21
 70
     1
102
RTVSPropertyOp22
 70
     1
102
RTVSPropertyOp23
 70
     1
102
RTVSPropertyOp24
 70
     1
102
RTVSPropertyOp25
 70
     1
102
RTVSPropertyOp26
 70
     1
102
RTVSPropertyOp27
 70
     1
102
RTVSPropertyOp28
 70
     1
102
RTVSPropertyOp29
 70
     1
102
RTVSPropertyOp30
 70
     1
102
RTVSPropertyOp31
 70
     1
102
RTVSPropertyOp32
 70
     1
102
RTVSPropertyOp33
 70
     1
102
RTVSPropertyOp34
 70
     1
102
RTVSPropertyOp35
 70
     1
102
RTVSPropertyOp36
 70
     1
102
RTVSPropertyOp37
 70
     1
102
RTVSPropertyOp38
 70
     1
102
RTVSPropertyOp39
 70
     1
102
RTVSPropertyOp40
 70
     1
102
RTVSPropertyOp41
 70
     1
102
RTVSPropertyOp42
 70
     1
102
RTVSPropertyOp43
 70
     1
102
RTVSPropertyOp44
 70
     1
102
RTVSPropertyOp45
 70
     1
102
RTVSPropertyOp46
 70
     1
102
RTVSPropertyOp47
 70
     1
102
RTVSPropertyOp48
 70
     1
102
RTVSPropertyOp49
 70
     1
102
RTVSPropertyOp50
 70
     1
102
RTVSPropertyOp51
 70
     0
102
RTVSPropertyOp52
 70
     0
102
RTVSPropertyOp53
 70
     1
102
RTVSPropertyOp54
 70
     1
102
RTVSPropertyOp55
 70
     1
102
RTVSPropertyOp56
 70
     1
102
RTVSPropertyOp57
 70
     1
102
RTVSPropertyOp58
 70
     1
102
RTVSPropertyOp59
 70
     1
102
RTVSPropertyOp60
 70
     1
102
RTVSPropertyOp61
 70
     1
102
RTVSPropertyOp62
 70
     1
  0
XRECORD
  5
B167
102
{ACAD_REACTORS
330
B166
102
}
330
B166
100
AcDbXrecord
280
     1
102
RTVSPost2010Prop28
280
     0
102
RTVSPost2010PropOp28
 70
     1
102
RTVSPost2010Prop29
280
     1
102
RTVSPost2010PropOp29
 70
     1
102
RTVSPost2010Prop30
280
     1
102
RTVSPost2010PropOp30
 70
     1
102
RTVSPost2010Prop31
280
     0
102
RTVSPost2010PropOp31
 70
     1
102
RTVSPost2010Prop32
280
     0
102
RTVSPost2010PropOp32
 70
     1
102
RTVSPost2010Prop33
280
     0
102
RTVSPost2010PropOp33
 70
     1
102
RTVSPost2010Prop34
280
     0
102
RTVSPost2010PropOp34
 70
     1
102
RTVSPost2010Prop35
280
     0
102
RTVSPost2010PropOp35
 70
     1
102
RTVSPost2010Prop36
280
     0
102
RTVSPost2010PropOp36
 70
     1
102
RTVSPost2010Prop37
 90
       50
102
RTVSPost2010PropOp37
 70
     1
102
RTVSPost2010Prop38
140
0.0
102
RTVSPost2010PropOp38
 70
     1
102
RTVSPost2010Prop39
140
1.0
102
RTVSPost2010PropOp39
 70
     1
102
RTVSPost2010Prop40
 90
        0
102
RTVSPost2010PropOp40
 70
     1
102
RTVSPost2010Prop41ColorIndex
 90
       18
102
RTVSPost2010Prop41ColorRGB
 90
        0
102
RTVSPost2010PropOp41
 70
     1
102
RTVSPost2010Prop42
 90
       50
102
RTVSPost2010PropOp42
 70
     1
102
RTVSPost2010Prop43
 90
        3
102
RTVSPost2010PropOp43
 70
     1
102
RTVSPost2010Prop44ColorIndex
 90
        5
102
RTVSPost2010Prop44ColorRGB
 90
      255
102
RTVSPost2010PropOp44
 70
     1
102
RTVSPost2010Prop45
280
     0
102
RTVSPost2010PropOp45
 70
     1
102
RTVSPost2010Prop46
 90
       50
102
RTVSPost2010PropOp46
 70
     1
102
RTVSPost2010Prop47
 90
       50
102
RTVSPost2010PropOp47
 70
     1
102
RTVSPost2010Prop48
 90
       50
102
RTVSPost2010PropOp48
 70
     1
102
RTVSPost2010Prop49
280
     0
102
RTVSPost2010PropOp49
 70
     1
102
RTVSPost2010Prop50
 90
       50
102
RTVSPost2010PropOp50
 70
     1
102
RTVSPost2010Prop51ColorIndex
 90
      256
102
RTVSPost2010Prop51ColorRGB
 90
-16777216
102
RTVSPost2010PropOp51
 70
     0
102
RTVSPost2010Prop52
140
1.0
102
RTVSPost2010PropOp52
 70
     0
102
RTVSPost2010Prop53
 90
        2
102
RTVSPost2010PropOp53
 70
     1
102
RTVSPost2010Prop54
  1
strokes_ogs.tif
102
RTVSPost2010PropOp54
 70
     1
102
RTVSPost2010Prop55
280
     0
102
RTVSPost2010PropOp55
 70
     1
102
RTVSPost2010Prop56
140
1.0
102
RTVSPost2010PropOp56
 70
     1
102
RTVSPost2010Prop57
140
1.0
102
RTVSPost2010PropOp57
 70
     1
102
RTVSPropertyOp0
 70
     1
102
RTVSPropertyOp1
 70
     1
102
RTVSPropertyOp2
 70
     1
102
RTVSPropertyOp3
 70
     1
102
RTVSPropertyOp4
 70
     1
102
RTVSPropertyOp5
 70
     1
102
RTVSPropertyOp6
 70
     1
102
RTVSPropertyOp7
 70
     1
102
RTVSPropertyOp8
 70
     1
102
RTVSPropertyOp9
 70
     1
102
RTVSPropertyOp10
 70
     1
102
RTVSPropertyOp11
 70
     1
102
RTVSPropertyOp12
 70
     1
102
RTVSPropertyOp13
 70
     1
102
RTVSPropertyOp14
 70
     1
102
RTVSPropertyOp15
 70
     1
102
RTVSPropertyOp16
 70
     1
102
RTVSPropertyOp17
 70
     1
102
RTVSPropertyOp18
 70
     1
102
RTVSPropertyOp19
 70
     1
102
RTVSPropertyOp20
 70
     1
102
RTVSPropertyOp21
 70
     1
102
RTVSPropertyOp22
 70
     1
102
RTVSPropertyOp23
 70
     1
102
RTVSPropertyOp24
 70
     1
102
RTVSPropertyOp25
 70
     1
102
RTVSPropertyOp26
 70
     1
102
RTVSPropertyOp27
 70
     1
102
RTVSPropertyOp28
 70
     1
102
RTVSPropertyOp29
 70
     1
102
RTVSPropertyOp30
 70
     1
102
RTVSPropertyOp31
 70
     1
102
RTVSPropertyOp32
 70
     1
102
RTVSPropertyOp33
 70
     1
102
RTVSPropertyOp34
 70
     1
102
RTVSPropertyOp35
 70
     1
102
RTVSPropertyOp36
 70
     1
102
RTVSPropertyOp37
 70
     1
102
RTVSPropertyOp38
 70
     1
102
RTVSPropertyOp39
 70
     1
102
RTVSPropertyOp40
 70
     1
102
RTVSPropertyOp41
 70
     1
102
RTVSPropertyOp42
 70
     1
102
RTVSPropertyOp43
 70
     1
102
RTVSPropertyOp44
 70
     1
102
RTVSPropertyOp45
 70
     1
102
RTVSPropertyOp46
 70
     1
102
RTVSPropertyOp47
 70
     1
102
RTVSPropertyOp48
 70
     1
102
RTVSPropertyOp49
 70
     1
102
RTVSPropertyOp50
 70
     1
102
RTVSPropertyOp51
 70
     0
102
RTVSPropertyOp52
 70
     0
102
RTVSPropertyOp53
 70
     1
102
RTVSPropertyOp54
 70
     1
102
RTVSPropertyOp55
 70
     1
102
RTVSPropertyOp56
 70
     1
102
RTVSPropertyOp57
 70
     1
102
RTVSPropertyOp58
 70
     1
102
RTVSPropertyOp59
 70
     1
102
RTVSPropertyOp60
 70
     1
102
RTVSPropertyOp61
 70
     1
102
RTVSPropertyOp62
 70
     1
  0
XRECORD
  5
B169
102
{ACAD_REACTORS
330
B168
102
}
330
B168
100
AcDbXrecord
280
     1
102
RTVSPost2010Prop28
280
     0
102
RTVSPost2010PropOp28
 70
     1
102
RTVSPost2010Prop29
280
     1
102
RTVSPost2010PropOp29
 70
     1
102
RTVSPost2010Prop30
280
     1
102
RTVSPost2010PropOp30
 70
     1
102
RTVSPost2010Prop31
280
     0
102
RTVSPost2010PropOp31
 70
     1
102
RTVSPost2010Prop32
280
     0
102
RTVSPost2010PropOp32
 70
     1
102
RTVSPost2010Prop33
280
     0
102
RTVSPost2010PropOp33
 70
     1
102
RTVSPost2010Prop34
280
     0
102
RTVSPost2010PropOp34
 70
     1
102
RTVSPost2010Prop35
280
     0
102
RTVSPost2010PropOp35
 70
     1
102
RTVSPost2010Prop36
280
     0
102
RTVSPost2010PropOp36
 70
     1
102
RTVSPost2010Prop37
 90
       50
102
RTVSPost2010PropOp37
 70
     1
102
RTVSPost2010Prop38
140
0.0
102
RTVSPost2010PropOp38
 70
     1
102
RTVSPost2010Prop39
140
1.0
102
RTVSPost2010PropOp39
 70
     1
102
RTVSPost2010Prop40
 90
        0
102
RTVSPost2010PropOp40
 70
     1
102
RTVSPost2010Prop41ColorIndex
 90
       18
102
RTVSPost2010Prop41ColorRGB
 90
        0
102
RTVSPost2010PropOp41
 70
     1
102
RTVSPost2010Prop42
 90
       50
102
RTVSPost2010PropOp42
 70
     1
102
RTVSPost2010Prop43
 90
        3
102
RTVSPost2010PropOp43
 70
     1
102
RTVSPost2010Prop44ColorIndex
 90
        5
102
RTVSPost2010Prop44ColorRGB
 90
      255
102
RTVSPost2010PropOp44
 70
     1
102
RTVSPost2010Prop45
280
     0
102
RTVSPost2010PropOp45
 70
     1
102
RTVSPost2010Prop46
 90
       50
102
RTVSPost2010PropOp46
 70
     1
102
RTVSPost2010Prop47
 90
       50
102
RTVSPost2010PropOp47
 70
     1
102
RTVSPost2010Prop48
 90
       50
102
RTVSPost2010PropOp48
 70
     1
102
RTVSPost2010Prop49
280
     0
102
RTVSPost2010PropOp49
 70
     1
102
RTVSPost2010Prop50
 90
       50
102
RTVSPost2010PropOp50
 70
     1
102
RTVSPost2010Prop51ColorIndex
 90
      256
102
RTVSPost2010Prop51ColorRGB
 90
-16777216
102
RTVSPost2010PropOp51
 70
     0
102
RTVSPost2010Prop52
140
1.0
102
RTVSPost2010PropOp52
 70
     0
102
RTVSPost2010Prop53
 90
        2
102
RTVSPost2010PropOp53
 70
     1
102
RTVSPost2010Prop54
  1
strokes_ogs.tif
102
RTVSPost2010PropOp54
 70
     1
102
RTVSPost2010Prop55
280
     0
102
RTVSPost2010PropOp55
 70
     1
102
RTVSPost2010Prop56
140
1.0
102
RTVSPost2010PropOp56
 70
     1
102
RTVSPost2010Prop57
140
1.0
102
RTVSPost2010PropOp57
 70
     1
102
RTVSPropertyOp0
 70
     1
102
RTVSPropertyOp1
 70
     1
102
RTVSPropertyOp2
 70
     1
102
RTVSPropertyOp3
 70
     1
102
RTVSPropertyOp4
 70
     1
102
RTVSPropertyOp5
 70
     1
102
RTVSPropertyOp6
 70
     1
102
RTVSPropertyOp7
 70
     1
102
RTVSPropertyOp8
 70
     1
102
RTVSPropertyOp9
 70
     1
102
RTVSPropertyOp10
 70
     1
102
RTVSPropertyOp11
 70
     1
102
RTVSPropertyOp12
 70
     1
102
RTVSPropertyOp13
 70
     1
102
RTVSPropertyOp14
 70
     1
102
RTVSPropertyOp15
 70
     1
102
RTVSPropertyOp16
 70
     1
102
RTVSPropertyOp17
 70
     1
102
RTVSPropertyOp18
 70
     1
102
RTVSPropertyOp19
 70
     1
102
RTVSPropertyOp20
 70
     1
102
RTVSPropertyOp21
 70
     1
102
RTVSPropertyOp22
 70
     1
102
RTVSPropertyOp23
 70
     1
102
RTVSPropertyOp24
 70
     1
102
RTVSPropertyOp25
 70
     1
102
RTVSPropertyOp26
 70
     1
102
RTVSPropertyOp27
 70
     1
102
RTVSPropertyOp28
 70
     1
102
RTVSPropertyOp29
 70
     1
102
RTVSPropertyOp30
 70
     1
102
RTVSPropertyOp31
 70
     1
102
RTVSPropertyOp32
 70
     1
102
RTVSPropertyOp33
 70
     1
102
RTVSPropertyOp34
 70
     1
102
RTVSPropertyOp35
 70
     1
102
RTVSPropertyOp36
 70
     1
102
RTVSPropertyOp37
 70
     1
102
RTVSPropertyOp38
 70
     1
102
RTVSPropertyOp39
 70
     1
102
RTVSPropertyOp40
 70
     1
102
RTVSPropertyOp41
 70
     1
102
RTVSPropertyOp42
 70
     1
102
RTVSPropertyOp43
 70
     1
102
RTVSPropertyOp44
 70
     1
102
RTVSPropertyOp45
 70
     1
102
RTVSPropertyOp46
 70
     1
102
RTVSPropertyOp47
 70
     1
102
RTVSPropertyOp48
 70
     1
102
RTVSPropertyOp49
 70
     1
102
RTVSPropertyOp50
 70
     1
102
RTVSPropertyOp51
 70
     0
102
RTVSPropertyOp52
 70
     0
102
RTVSPropertyOp53
 70
     1
102
RTVSPropertyOp54
 70
     1
102
RTVSPropertyOp55
 70
     1
102
RTVSPropertyOp56
 70
     1
102
RTVSPropertyOp57
 70
     1
102
RTVSPropertyOp58
 70
     1
102
RTVSPropertyOp59
 70
     1
102
RTVSPropertyOp60
 70
     1
102
RTVSPropertyOp61
 70
     1
102
RTVSPropertyOp62
 70
     1
  0
XRECORD
  5
B171
102
{ACAD_REACTORS
330
B170
102
}
330
B170
100
AcDbXrecord
280
     1
102
RTVSPost2010Prop28
280
     0
102
RTVSPost2010PropOp28
 70
     1
102
RTVSPost2010Prop29
280
     1
102
RTVSPost2010PropOp29
 70
     1
102
RTVSPost2010Prop30
280
     1
102
RTVSPost2010PropOp30
 70
     1
102
RTVSPost2010Prop31
280
     0
102
RTVSPost2010PropOp31
 70
     1
102
RTVSPost2010Prop32
280
     0
102
RTVSPost2010PropOp32
 70
     1
102
RTVSPost2010Prop33
280
     0
102
RTVSPost2010PropOp33
 70
     1
102
RTVSPost2010Prop34
280
     0
102
RTVSPost2010PropOp34
 70
     1
102
RTVSPost2010Prop35
280
     0
102
RTVSPost2010PropOp35
 70
     1
102
RTVSPost2010Prop36
280
     0
102
RTVSPost2010PropOp36
 70
     1
102
RTVSPost2010Prop37
 90
       50
102
RTVSPost2010PropOp37
 70
     1
102
RTVSPost2010Prop38
140
0.0
102
RTVSPost2010PropOp38
 70
     1
102
RTVSPost2010Prop39
140
1.0
102
RTVSPost2010PropOp39
 70
     1
102
RTVSPost2010Prop40
 90
        0
102
RTVSPost2010PropOp40
 70
     1
102
RTVSPost2010Prop41ColorIndex
 90
       18
102
RTVSPost2010Prop41ColorRGB
 90
        0
102
RTVSPost2010PropOp41
 70
     1
102
RTVSPost2010Prop42
 90
       50
102
RTVSPost2010PropOp42
 70
     1
102
RTVSPost2010Prop43
 90
        3
102
RTVSPost2010PropOp43
 70
     1
102
RTVSPost2010Prop44ColorIndex
 90
        5
102
RTVSPost2010Prop44ColorRGB
 90
      255
102
RTVSPost2010PropOp44
 70
     1
102
RTVSPost2010Prop45
280
     0
102
RTVSPost2010PropOp45
 70
     1
102
RTVSPost2010Prop46
 90
       50
102
RTVSPost2010PropOp46
 70
     1
102
RTVSPost2010Prop47
 90
       50
102
RTVSPost2010PropOp47
 70
     1
102
RTVSPost2010Prop48
 90
       50
102
RTVSPost2010PropOp48
 70
     1
102
RTVSPost2010Prop49
280
     0
102
RTVSPost2010PropOp49
 70
     1
102
RTVSPost2010Prop50
 90
       50
102
RTVSPost2010PropOp50
 70
     1
102
RTVSPost2010Prop51ColorIndex
 90
      256
102
RTVSPost2010Prop51ColorRGB
 90
-16777216
102
RTVSPost2010PropOp51
 70
     0
102
RTVSPost2010Prop52
140
1.0
102
RTVSPost2010PropOp52
 70
     0
102
RTVSPost2010Prop53
 90
        2
102
RTVSPost2010PropOp53
 70
     1
102
RTVSPost2010Prop54
  1
strokes_ogs.tif
102
RTVSPost2010PropOp54
 70
     1
102
RTVSPost2010Prop55
280
     0
102
RTVSPost2010PropOp55
 70
     1
102
RTVSPost2010Prop56
140
1.0
102
RTVSPost2010PropOp56
 70
     1
102
RTVSPost2010Prop57
140
1.0
102
RTVSPost2010PropOp57
 70
     1
102
RTVSPropertyOp0
 70
     1
102
RTVSPropertyOp1
 70
     1
102
RTVSPropertyOp2
 70
     1
102
RTVSPropertyOp3
 70
     1
102
RTVSPropertyOp4
 70
     1
102
RTVSPropertyOp5
 70
     1
102
RTVSPropertyOp6
 70
     1
102
RTVSPropertyOp7
 70
     1
102
RTVSPropertyOp8
 70
     1
102
RTVSPropertyOp9
 70
     1
102
RTVSPropertyOp10
 70
     1
102
RTVSPropertyOp11
 70
     1
102
RTVSPropertyOp12
 70
     1
102
RTVSPropertyOp13
 70
     1
102
RTVSPropertyOp14
 70
     1
102
RTVSPropertyOp15
 70
     1
102
RTVSPropertyOp16
 70
     1
102
RTVSPropertyOp17
 70
     1
102
RTVSPropertyOp18
 70
     1
102
RTVSPropertyOp19
 70
     1
102
RTVSPropertyOp20
 70
     1
102
RTVSPropertyOp21
 70
     1
102
RTVSPropertyOp22
 70
     1
102
RTVSPropertyOp23
 70
     1
102
RTVSPropertyOp24
 70
     1
102
RTVSPropertyOp25
 70
     1
102
RTVSPropertyOp26
 70
     1
102
RTVSPropertyOp27
 70
     1
102
RTVSPropertyOp28
 70
     1
102
RTVSPropertyOp29
 70
     1
102
RTVSPropertyOp30
 70
     1
102
RTVSPropertyOp31
 70
     1
102
RTVSPropertyOp32
 70
     1
102
RTVSPropertyOp33
 70
     1
102
RTVSPropertyOp34
 70
     1
102
RTVSPropertyOp35
 70
     1
102
RTVSPropertyOp36
 70
     1
102
RTVSPropertyOp37
 70
     1
102
RTVSPropertyOp38
 70
     1
102
RTVSPropertyOp39
 70
     1
102
RTVSPropertyOp40
 70
     1
102
RTVSPropertyOp41
 70
     1
102
RTVSPropertyOp42
 70
     1
102
RTVSPropertyOp43
 70
     1
102
RTVSPropertyOp44
 70
     1
102
RTVSPropertyOp45
 70
     1
102
RTVSPropertyOp46
 70
     1
102
RTVSPropertyOp47
 70
     1
102
RTVSPropertyOp48
 70
     1
102
RTVSPropertyOp49
 70
     1
102
RTVSPropertyOp50
 70
     1
102
RTVSPropertyOp51
 70
     0
102
RTVSPropertyOp52
 70
     0
102
RTVSPropertyOp53
 70
     1
102
RTVSPropertyOp54
 70
     1
102
RTVSPropertyOp55
 70
     1
102
RTVSPropertyOp56
 70
     1
102
RTVSPropertyOp57
 70
     1
102
RTVSPropertyOp58
 70
     1
102
RTVSPropertyOp59
 70
     1
102
RTVSPropertyOp60
 70
     1
102
RTVSPropertyOp61
 70
     1
102
RTVSPropertyOp62
 70
     1
  0
XRECORD
  5
B18D
102
{ACAD_REACTORS
330
B18C
102
}
330
B18C
100
AcDbXrecord
280
     1
102
RTVSPost2010Prop28
280
     0
102
RTVSPost2010PropOp28
 70
     1
102
RTVSPost2010Prop29
280
     1
102
RTVSPost2010PropOp29
 70
     1
102
RTVSPost2010Prop30
280
     1
102
RTVSPost2010PropOp30
 70
     1
102
RTVSPost2010Prop31
280
     0
102
RTVSPost2010PropOp31
 70
     1
102
RTVSPost2010Prop32
280
     0
102
RTVSPost2010PropOp32
 70
     1
102
RTVSPost2010Prop33
280
     0
102
RTVSPost2010PropOp33
 70
     1
102
RTVSPost2010Prop34
280
     0
102
RTVSPost2010PropOp34
 70
     1
102
RTVSPost2010Prop35
280
     0
102
RTVSPost2010PropOp35
 70
     1
102
RTVSPost2010Prop36
280
     0
102
RTVSPost2010PropOp36
 70
     1
102
RTVSPost2010Prop37
 90
       50
102
RTVSPost2010PropOp37
 70
     0
102
RTVSPost2010Prop38
140
0.0
102
RTVSPost2010PropOp38
 70
     0
102
RTVSPost2010Prop39
140
1.0
102
RTVSPost2010PropOp39
 70
     0
102
RTVSPost2010Prop40
 90
        0
102
RTVSPost2010PropOp40
 70
     0
102
RTVSPost2010Prop41ColorIndex
 90
       18
102
RTVSPost2010Prop41ColorRGB
 90
        0
102
RTVSPost2010PropOp41
 70
     0
102
RTVSPost2010Prop42
 90
       50
102
RTVSPost2010PropOp42
 70
     0
102
RTVSPost2010Prop43
 90
        3
102
RTVSPost2010PropOp43
 70
     0
102
RTVSPost2010Prop44ColorIndex
 90
        5
102
RTVSPost2010Prop44ColorRGB
 90
      255
102
RTVSPost2010PropOp44
 70
     0
102
RTVSPost2010Prop45
280
     0
102
RTVSPost2010PropOp45
 70
     1
102
RTVSPost2010Prop46
 90
       50
102
RTVSPost2010PropOp46
 70
     0
102
RTVSPost2010Prop47
 90
       50
102
RTVSPost2010PropOp47
 70
     0
102
RTVSPost2010Prop48
 90
       50
102
RTVSPost2010PropOp48
 70
     0
102
RTVSPost2010Prop49
280
     0
102
RTVSPost2010PropOp49
 70
     1
102
RTVSPost2010Prop50
 90
       50
102
RTVSPost2010PropOp50
 70
     0
102
RTVSPost2010Prop51ColorIndex
 90
      256
102
RTVSPost2010Prop51ColorRGB
 90
-16777216
102
RTVSPost2010PropOp51
 70
     0
102
RTVSPost2010Prop52
140
1.0
102
RTVSPost2010PropOp52
 70
     0
102
RTVSPost2010Prop53
 90
        2
102
RTVSPost2010PropOp53
 70
     0
102
RTVSPost2010Prop54
  1
strokes_ogs.tif
102
RTVSPost2010PropOp54
 70
     0
102
RTVSPost2010Prop55
280
     0
102
RTVSPost2010PropOp55
 70
     1
102
RTVSPost2010Prop56
140
1.0
102
RTVSPost2010PropOp56
 70
     0
102
RTVSPost2010Prop57
140
1.0
102
RTVSPost2010PropOp57
 70
     0
102
RTVSPropertyOp0
 70
     0
102
RTVSPropertyOp1
 70
     0
102
RTVSPropertyOp2
 70
     0
102
RTVSPropertyOp3
 70
     0
102
RTVSPropertyOp4
 70
     0
102
RTVSPropertyOp5
 70
     0
102
RTVSPropertyOp6
 70
     0
102
RTVSPropertyOp7
 70
     0
102
RTVSPropertyOp8
 70
     0
102
RTVSPropertyOp9
 70
     0
102
RTVSPropertyOp10
 70
     0
102
RTVSPropertyOp11
 70
     0
102
RTVSPropertyOp12
 70
     0
102
RTVSPropertyOp13
 70
     0
102
RTVSPropertyOp14
 70
     2
102
RTVSPropertyOp15
 70
     0
102
RTVSPropertyOp16
 70
     0
102
RTVSPropertyOp17
 70
     0
102
RTVSPropertyOp18
 70
     0
102
RTVSPropertyOp19
 70
     0
102
RTVSPropertyOp20
 70
     0
102
RTVSPropertyOp21
 70
     0
102
RTVSPropertyOp22
 70
     0
102
RTVSPropertyOp23
 70
     0
102
RTVSPropertyOp24
 70
     0
102
RTVSPropertyOp25
 70
     0
102
RTVSPropertyOp26
 70
     0
102
RTVSPropertyOp27
 70
     0
102
RTVSPropertyOp28
 70
     1
102
RTVSPropertyOp29
 70
     1
102
RTVSPropertyOp30
 70
     1
102
RTVSPropertyOp31
 70
     1
102
RTVSPropertyOp32
 70
     1
102
RTVSPropertyOp33
 70
     1
102
RTVSPropertyOp34
 70
     1
102
RTVSPropertyOp35
 70
     1
102
RTVSPropertyOp36
 70
     1
102
RTVSPropertyOp37
 70
     0
102
RTVSPropertyOp38
 70
     0
102
RTVSPropertyOp39
 70
     0
102
RTVSPropertyOp40
 70
     0
102
RTVSPropertyOp41
 70
     0
102
RTVSPropertyOp42
 70
     0
102
RTVSPropertyOp43
 70
     0
102
RTVSPropertyOp44
 70
     0
102
RTVSPropertyOp45
 70
     1
102
RTVSPropertyOp46
 70
     0
102
RTVSPropertyOp47
 70
     0
102
RTVSPropertyOp48
 70
     0
102
RTVSPropertyOp49
 70
     1
102
RTVSPropertyOp50
 70
     0
102
RTVSPropertyOp51
 70
     0
102
RTVSPropertyOp52
 70
     0
102
RTVSPropertyOp53
 70
     0
102
RTVSPropertyOp54
 70
     0
102
RTVSPropertyOp55
 70
     1
102
RTVSPropertyOp56
 70
     0
102
RTVSPropertyOp57
 70
     0
102
RTVSPropertyOp58
 70
     0
102
RTVSPropertyOp59
 70
     0
102
RTVSPropertyOp60
 70
     0
102
RTVSPropertyOp61
 70
     0
102
RTVSPropertyOp62
 70
     0
  0
XRECORD
  5
B17D
102
{ACAD_REACTORS
330
B17C
102
}
330
B17C
100
AcDbXrecord
280
     1
102
RTVSPost2010Prop28
280
     0
102
RTVSPost2010PropOp28
 70
     1
102
RTVSPost2010Prop29
280
     1
102
RTVSPost2010PropOp29
 70
     1
102
RTVSPost2010Prop30
280
     1
102
RTVSPost2010PropOp30
 70
     1
102
RTVSPost2010Prop31
280
     0
102
RTVSPost2010PropOp31
 70
     1
102
RTVSPost2010Prop32
280
     0
102
RTVSPost2010PropOp32
 70
     1
102
RTVSPost2010Prop33
280
     0
102
RTVSPost2010PropOp33
 70
     1
102
RTVSPost2010Prop34
280
     0
102
RTVSPost2010PropOp34
 70
     1
102
RTVSPost2010Prop35
280
     0
102
RTVSPost2010PropOp35
 70
     1
102
RTVSPost2010Prop36
280
     0
102
RTVSPost2010PropOp36
 70
     1
102
RTVSPost2010Prop37
 90
       50
102
RTVSPost2010PropOp37
 70
     1
102
RTVSPost2010Prop38
140
0.0
102
RTVSPost2010PropOp38
 70
     1
102
RTVSPost2010Prop39
140
1.0
102
RTVSPost2010PropOp39
 70
     1
102
RTVSPost2010Prop40
 90
        0
102
RTVSPost2010PropOp40
 70
     1
102
RTVSPost2010Prop41ColorIndex
 90
       18
102
RTVSPost2010Prop41ColorRGB
 90
        0
102
RTVSPost2010PropOp41
 70
     1
102
RTVSPost2010Prop42
 90
       50
102
RTVSPost2010PropOp42
 70
     1
102
RTVSPost2010Prop43
 90
        3
102
RTVSPost2010PropOp43
 70
     1
102
RTVSPost2010Prop44ColorIndex
 90
        5
102
RTVSPost2010Prop44ColorRGB
 90
      255
102
RTVSPost2010PropOp44
 70
     1
102
RTVSPost2010Prop45
280
     0
102
RTVSPost2010PropOp45
 70
     1
102
RTVSPost2010Prop46
 90
       50
102
RTVSPost2010PropOp46
 70
     1
102
RTVSPost2010Prop47
 90
       50
102
RTVSPost2010PropOp47
 70
     1
102
RTVSPost2010Prop48
 90
       50
102
RTVSPost2010PropOp48
 70
     1
102
RTVSPost2010Prop49
280
     0
102
RTVSPost2010PropOp49
 70
     1
102
RTVSPost2010Prop50
 90
       50
102
RTVSPost2010PropOp50
 70
     1
102
RTVSPost2010Prop51ColorIndex
 90
      256
102
RTVSPost2010Prop51ColorRGB
 90
-16777216
102
RTVSPost2010PropOp51
 70
     0
102
RTVSPost2010Prop52
140
1.0
102
RTVSPost2010PropOp52
 70
     0
102
RTVSPost2010Prop53
 90
        2
102
RTVSPost2010PropOp53
 70
     1
102
RTVSPost2010Prop54
  1
strokes_ogs.tif
102
RTVSPost2010PropOp54
 70
     1
102
RTVSPost2010Prop55
280
     0
102
RTVSPost2010PropOp55
 70
     1
102
RTVSPost2010Prop56
140
1.0
102
RTVSPost2010PropOp56
 70
     1
102
RTVSPost2010Prop57
140
1.0
102
RTVSPost2010PropOp57
 70
     1
102
RTVSPropertyOp0
 70
     1
102
RTVSPropertyOp1
 70
     1
102
RTVSPropertyOp2
 70
     1
102
RTVSPropertyOp3
 70
     1
102
RTVSPropertyOp4
 70
     1
102
RTVSPropertyOp5
 70
     1
102
RTVSPropertyOp6
 70
     1
102
RTVSPropertyOp7
 70
     1
102
RTVSPropertyOp8
 70
     1
102
RTVSPropertyOp9
 70
     1
102
RTVSPropertyOp10
 70
     1
102
RTVSPropertyOp11
 70
     1
102
RTVSPropertyOp12
 70
     1
102
RTVSPropertyOp13
 70
     1
102
RTVSPropertyOp14
 70
     1
102
RTVSPropertyOp15
 70
     1
102
RTVSPropertyOp16
 70
     1
102
RTVSPropertyOp17
 70
     1
102
RTVSPropertyOp18
 70
     1
102
RTVSPropertyOp19
 70
     1
102
RTVSPropertyOp20
 70
     1
102
RTVSPropertyOp21
 70
     1
102
RTVSPropertyOp22
 70
     1
102
RTVSPropertyOp23
 70
     1
102
RTVSPropertyOp24
 70
     1
102
RTVSPropertyOp25
 70
     1
102
RTVSPropertyOp26
 70
     1
102
RTVSPropertyOp27
 70
     1
102
RTVSPropertyOp28
 70
     1
102
RTVSPropertyOp29
 70
     1
102
RTVSPropertyOp30
 70
     1
102
RTVSPropertyOp31
 70
     1
102
RTVSPropertyOp32
 70
     1
102
RTVSPropertyOp33
 70
     1
102
RTVSPropertyOp34
 70
     1
102
RTVSPropertyOp35
 70
     1
102
RTVSPropertyOp36
 70
     1
102
RTVSPropertyOp37
 70
     1
102
RTVSPropertyOp38
 70
     1
102
RTVSPropertyOp39
 70
     1
102
RTVSPropertyOp40
 70
     1
102
RTVSPropertyOp41
 70
     1
102
RTVSPropertyOp42
 70
     1
102
RTVSPropertyOp43
 70
     1
102
RTVSPropertyOp44
 70
     1
102
RTVSPropertyOp45
 70
     1
102
RTVSPropertyOp46
 70
     1
102
RTVSPropertyOp47
 70
     1
102
RTVSPropertyOp48
 70
     1
102
RTVSPropertyOp49
 70
     1
102
RTVSPropertyOp50
 70
     1
102
RTVSPropertyOp51
 70
     0
102
RTVSPropertyOp52
 70
     0
102
RTVSPropertyOp53
 70
     1
102
RTVSPropertyOp54
 70
     1
102
RTVSPropertyOp55
 70
     1
102
RTVSPropertyOp56
 70
     1
102
RTVSPropertyOp57
 70
     1
102
RTVSPropertyOp58
 70
     1
102
RTVSPropertyOp59
 70
     1
102
RTVSPropertyOp60
 70
     1
102
RTVSPropertyOp61
 70
     1
102
RTVSPropertyOp62
 70
     1
  0
XRECORD
  5
B18F
102
{ACAD_REACTORS
330
B18E
102
}
330
B18E
100
AcDbXrecord
280
     1
102
RTVSPost2010Prop28
280
     0
102
RTVSPost2010PropOp28
 70
     1
102
RTVSPost2010Prop29
280
     1
102
RTVSPost2010PropOp29
 70
     1
102
RTVSPost2010Prop30
280
     1
102
RTVSPost2010PropOp30
 70
     1
102
RTVSPost2010Prop31
280
     0
102
RTVSPost2010PropOp31
 70
     1
102
RTVSPost2010Prop32
280
     0
102
RTVSPost2010PropOp32
 70
     1
102
RTVSPost2010Prop33
280
     0
102
RTVSPost2010PropOp33
 70
     1
102
RTVSPost2010Prop34
280
     0
102
RTVSPost2010PropOp34
 70
     1
102
RTVSPost2010Prop35
280
     0
102
RTVSPost2010PropOp35
 70
     1
102
RTVSPost2010Prop36
280
     0
102
RTVSPost2010PropOp36
 70
     1
102
RTVSPost2010Prop37
 90
       50
102
RTVSPost2010PropOp37
 70
     0
102
RTVSPost2010Prop38
140
0.0
102
RTVSPost2010PropOp38
 70
     0
102
RTVSPost2010Prop39
140
1.0
102
RTVSPost2010PropOp39
 70
     0
102
RTVSPost2010Prop40
 90
        0
102
RTVSPost2010PropOp40
 70
     0
102
RTVSPost2010Prop41ColorIndex
 90
       18
102
RTVSPost2010Prop41ColorRGB
 90
        0
102
RTVSPost2010PropOp41
 70
     0
102
RTVSPost2010Prop42
 90
       50
102
RTVSPost2010PropOp42
 70
     0
102
RTVSPost2010Prop43
 90
        3
102
RTVSPost2010PropOp43
 70
     0
102
RTVSPost2010Prop44ColorIndex
 90
        5
102
RTVSPost2010Prop44ColorRGB
 90
      255
102
RTVSPost2010PropOp44
 70
     0
102
RTVSPost2010Prop45
280
     0
102
RTVSPost2010PropOp45
 70
     1
102
RTVSPost2010Prop46
 90
       50
102
RTVSPost2010PropOp46
 70
     0
102
RTVSPost2010Prop47
 90
       50
102
RTVSPost2010PropOp47
 70
     0
102
RTVSPost2010Prop48
 90
       50
102
RTVSPost2010PropOp48
 70
     0
102
RTVSPost2010Prop49
280
     0
102
RTVSPost2010PropOp49
 70
     1
102
RTVSPost2010Prop50
 90
       50
102
RTVSPost2010PropOp50
 70
     0
102
RTVSPost2010Prop51ColorIndex
 90
      256
102
RTVSPost2010Prop51ColorRGB
 90
-16777216
102
RTVSPost2010PropOp51
 70
     0
102
RTVSPost2010Prop52
140
1.0
102
RTVSPost2010PropOp52
 70
     0
102
RTVSPost2010Prop53
 90
        2
102
RTVSPost2010PropOp53
 70
     0
102
RTVSPost2010Prop54
  1
strokes_ogs.tif
102
RTVSPost2010PropOp54
 70
     0
102
RTVSPost2010Prop55
280
     0
102
RTVSPost2010PropOp55
 70
     1
102
RTVSPost2010Prop56
140
1.0
102
RTVSPost2010PropOp56
 70
     0
102
RTVSPost2010Prop57
140
1.0
102
RTVSPost2010PropOp57
 70
     0
102
RTVSPropertyOp0
 70
     0
102
RTVSPropertyOp1
 70
     0
102
RTVSPropertyOp2
 70
     0
102
RTVSPropertyOp3
 70
     0
102
RTVSPropertyOp4
 70
     0
102
RTVSPropertyOp5
 70
     0
102
RTVSPropertyOp6
 70
     0
102
RTVSPropertyOp7
 70
     0
102
RTVSPropertyOp8
 70
     0
102
RTVSPropertyOp9
 70
     0
102
RTVSPropertyOp10
 70
     0
102
RTVSPropertyOp11
 70
     0
102
RTVSPropertyOp12
 70
     0
102
RTVSPropertyOp13
 70
     0
102
RTVSPropertyOp14
 70
     2
102
RTVSPropertyOp15
 70
     0
102
RTVSPropertyOp16
 70
     0
102
RTVSPropertyOp17
 70
     0
102
RTVSPropertyOp18
 70
     0
102
RTVSPropertyOp19
 70
     0
102
RTVSPropertyOp20
 70
     0
102
RTVSPropertyOp21
 70
     0
102
RTVSPropertyOp22
 70
     0
102
RTVSPropertyOp23
 70
     0
102
RTVSPropertyOp24
 70
     0
102
RTVSPropertyOp25
 70
     0
102
RTVSPropertyOp26
 70
     0
102
RTVSPropertyOp27
 70
     0
102
RTVSPropertyOp28
 70
     1
102
RTVSPropertyOp29
 70
     1
102
RTVSPropertyOp30
 70
     1
102
RTVSPropertyOp31
 70
     1
102
RTVSPropertyOp32
 70
     1
102
RTVSPropertyOp33
 70
     1
102
RTVSPropertyOp34
 70
     1
102
RTVSPropertyOp35
 70
     1
102
RTVSPropertyOp36
 70
     1
102
RTVSPropertyOp37
 70
     0
102
RTVSPropertyOp38
 70
     0
102
RTVSPropertyOp39
 70
     0
102
RTVSPropertyOp40
 70
     0
102
RTVSPropertyOp41
 70
     0
102
RTVSPropertyOp42
 70
     0
102
RTVSPropertyOp43
 70
     0
102
RTVSPropertyOp44
 70
     0
102
RTVSPropertyOp45
 70
     1
102
RTVSPropertyOp46
 70
     0
102
RTVSPropertyOp47
 70
     0
102
RTVSPropertyOp48
 70
     0
102
RTVSPropertyOp49
 70
     1
102
RTVSPropertyOp50
 70
     0
102
RTVSPropertyOp51
 70
     0
102
RTVSPropertyOp52
 70
     0
102
RTVSPropertyOp53
 70
     0
102
RTVSPropertyOp54
 70
     0
102
RTVSPropertyOp55
 70
     1
102
RTVSPropertyOp56
 70
     0
102
RTVSPropertyOp57
 70
     0
102
RTVSPropertyOp58
 70
     0
102
RTVSPropertyOp59
 70
     0
102
RTVSPropertyOp60
 70
     0
102
RTVSPropertyOp61
 70
     0
102
RTVSPropertyOp62
 70
     0
  0
XRECORD
  5
B175
102
{ACAD_REACTORS
330
B174
102
}
330
B174
100
AcDbXrecord
280
     1
102
RTVSPost2010Prop28
280
     0
102
RTVSPost2010PropOp28
 70
     1
102
RTVSPost2010Prop29
280
     1
102
RTVSPost2010PropOp29
 70
     1
102
RTVSPost2010Prop30
280
     1
102
RTVSPost2010PropOp30
 70
     1
102
RTVSPost2010Prop31
280
     0
102
RTVSPost2010PropOp31
 70
     1
102
RTVSPost2010Prop32
280
     0
102
RTVSPost2010PropOp32
 70
     1
102
RTVSPost2010Prop33
280
     0
102
RTVSPost2010PropOp33
 70
     1
102
RTVSPost2010Prop34
280
     0
102
RTVSPost2010PropOp34
 70
     1
102
RTVSPost2010Prop35
280
     0
102
RTVSPost2010PropOp35
 70
     1
102
RTVSPost2010Prop36
280
     0
102
RTVSPost2010PropOp36
 70
     1
102
RTVSPost2010Prop37
 90
       50
102
RTVSPost2010PropOp37
 70
     1
102
RTVSPost2010Prop38
140
0.0
102
RTVSPost2010PropOp38
 70
     1
102
RTVSPost2010Prop39
140
1.0
102
RTVSPost2010PropOp39
 70
     1
102
RTVSPost2010Prop40
 90
        0
102
RTVSPost2010PropOp40
 70
     1
102
RTVSPost2010Prop41ColorIndex
 90
       18
102
RTVSPost2010Prop41ColorRGB
 90
        0
102
RTVSPost2010PropOp41
 70
     1
102
RTVSPost2010Prop42
 90
       50
102
RTVSPost2010PropOp42
 70
     1
102
RTVSPost2010Prop43
 90
        3
102
RTVSPost2010PropOp43
 70
     1
102
RTVSPost2010Prop44ColorIndex
 90
        5
102
RTVSPost2010Prop44ColorRGB
 90
      255
102
RTVSPost2010PropOp44
 70
     1
102
RTVSPost2010Prop45
280
     0
102
RTVSPost2010PropOp45
 70
     1
102
RTVSPost2010Prop46
 90
       50
102
RTVSPost2010PropOp46
 70
     1
102
RTVSPost2010Prop47
 90
       50
102
RTVSPost2010PropOp47
 70
     1
102
RTVSPost2010Prop48
 90
       50
102
RTVSPost2010PropOp48
 70
     1
102
RTVSPost2010Prop49
280
     0
102
RTVSPost2010PropOp49
 70
     1
102
RTVSPost2010Prop50
 90
       50
102
RTVSPost2010PropOp50
 70
     1
102
RTVSPost2010Prop51ColorIndex
 90
      256
102
RTVSPost2010Prop51ColorRGB
 90
-16777216
102
RTVSPost2010PropOp51
 70
     0
102
RTVSPost2010Prop52
140
1.0
102
RTVSPost2010PropOp52
 70
     0
102
RTVSPost2010Prop53
 90
        2
102
RTVSPost2010PropOp53
 70
     1
102
RTVSPost2010Prop54
  1
strokes_ogs.tif
102
RTVSPost2010PropOp54
 70
     1
102
RTVSPost2010Prop55
280
     0
102
RTVSPost2010PropOp55
 70
     1
102
RTVSPost2010Prop56
140
1.0
102
RTVSPost2010PropOp56
 70
     1
102
RTVSPost2010Prop57
140
1.0
102
RTVSPost2010PropOp57
 70
     1
102
RTVSPropertyOp0
 70
     1
102
RTVSPropertyOp1
 70
     1
102
RTVSPropertyOp2
 70
     1
102
RTVSPropertyOp3
 70
     1
102
RTVSPropertyOp4
 70
     1
102
RTVSPropertyOp5
 70
     1
102
RTVSPropertyOp6
 70
     1
102
RTVSPropertyOp7
 70
     1
102
RTVSPropertyOp8
 70
     1
102
RTVSPropertyOp9
 70
     1
102
RTVSPropertyOp10
 70
     1
102
RTVSPropertyOp11
 70
     1
102
RTVSPropertyOp12
 70
     1
102
RTVSPropertyOp13
 70
     1
102
RTVSPropertyOp14
 70
     1
102
RTVSPropertyOp15
 70
     1
102
RTVSPropertyOp16
 70
     1
102
RTVSPropertyOp17
 70
     1
102
RTVSPropertyOp18
 70
     1
102
RTVSPropertyOp19
 70
     1
102
RTVSPropertyOp20
 70
     1
102
RTVSPropertyOp21
 70
     1
102
RTVSPropertyOp22
 70
     1
102
RTVSPropertyOp23
 70
     1
102
RTVSPropertyOp24
 70
     1
102
RTVSPropertyOp25
 70
     1
102
RTVSPropertyOp26
 70
     1
102
RTVSPropertyOp27
 70
     1
102
RTVSPropertyOp28
 70
     1
102
RTVSPropertyOp29
 70
     1
102
RTVSPropertyOp30
 70
     1
102
RTVSPropertyOp31
 70
     1
102
RTVSPropertyOp32
 70
     1
102
RTVSPropertyOp33
 70
     1
102
RTVSPropertyOp34
 70
     1
102
RTVSPropertyOp35
 70
     1
102
RTVSPropertyOp36
 70
     1
102
RTVSPropertyOp37
 70
     1
102
RTVSPropertyOp38
 70
     1
102
RTVSPropertyOp39
 70
     1
102
RTVSPropertyOp40
 70
     1
102
RTVSPropertyOp41
 70
     1
102
RTVSPropertyOp42
 70
     1
102
RTVSPropertyOp43
 70
     1
102
RTVSPropertyOp44
 70
     1
102
RTVSPropertyOp45
 70
     1
102
RTVSPropertyOp46
 70
     1
102
RTVSPropertyOp47
 70
     1
102
RTVSPropertyOp48
 70
     1
102
RTVSPropertyOp49
 70
     1
102
RTVSPropertyOp50
 70
     1
102
RTVSPropertyOp51
 70
     0
102
RTVSPropertyOp52
 70
     0
102
RTVSPropertyOp53
 70
     1
102
RTVSPropertyOp54
 70
     1
102
RTVSPropertyOp55
 70
     1
102
RTVSPropertyOp56
 70
     1
102
RTVSPropertyOp57
 70
     1
102
RTVSPropertyOp58
 70
     1
102
RTVSPropertyOp59
 70
     1
102
RTVSPropertyOp60
 70
     1
102
RTVSPropertyOp61
 70
     1
102
RTVSPropertyOp62
 70
     1
  0
XRECORD
  5
B18B
102
{ACAD_REACTORS
330
B18A
102
}
330
B18A
100
AcDbXrecord
280
     1
102
RTVSPost2010Prop28
280
     0
102
RTVSPost2010PropOp28
 70
     1
102
RTVSPost2010Prop29
280
     1
102
RTVSPost2010PropOp29
 70
     1
102
RTVSPost2010Prop30
280
     1
102
RTVSPost2010PropOp30
 70
     1
102
RTVSPost2010Prop31
280
     0
102
RTVSPost2010PropOp31
 70
     1
102
RTVSPost2010Prop32
280
     0
102
RTVSPost2010PropOp32
 70
     1
102
RTVSPost2010Prop33
280
     0
102
RTVSPost2010PropOp33
 70
     1
102
RTVSPost2010Prop34
280
     0
102
RTVSPost2010PropOp34
 70
     1
102
RTVSPost2010Prop35
280
     0
102
RTVSPost2010PropOp35
 70
     1
102
RTVSPost2010Prop36
280
     0
102
RTVSPost2010PropOp36
 70
     1
102
RTVSPost2010Prop37
 90
       50
102
RTVSPost2010PropOp37
 70
     1
102
RTVSPost2010Prop38
140
0.0
102
RTVSPost2010PropOp38
 70
     1
102
RTVSPost2010Prop39
140
1.0
102
RTVSPost2010PropOp39
 70
     1
102
RTVSPost2010Prop40
 90
        0
102
RTVSPost2010PropOp40
 70
     1
102
RTVSPost2010Prop41ColorIndex
 90
       18
102
RTVSPost2010Prop41ColorRGB
 90
        0
102
RTVSPost2010PropOp41
 70
     1
102
RTVSPost2010Prop42
 90
       50
102
RTVSPost2010PropOp42
 70
     1
102
RTVSPost2010Prop43
 90
        3
102
RTVSPost2010PropOp43
 70
     1
102
RTVSPost2010Prop44ColorIndex
 90
        5
102
RTVSPost2010Prop44ColorRGB
 90
      255
102
RTVSPost2010PropOp44
 70
     1
102
RTVSPost2010Prop45
280
     0
102
RTVSPost2010PropOp45
 70
     1
102
RTVSPost2010Prop46
 90
       50
102
RTVSPost2010PropOp46
 70
     1
102
RTVSPost2010Prop47
 90
       50
102
RTVSPost2010PropOp47
 70
     1
102
RTVSPost2010Prop48
 90
       50
102
RTVSPost2010PropOp48
 70
     1
102
RTVSPost2010Prop49
280
     0
102
RTVSPost2010PropOp49
 70
     1
102
RTVSPost2010Prop50
 90
       50
102
RTVSPost2010PropOp50
 70
     1
102
RTVSPost2010Prop51ColorIndex
 90
      256
102
RTVSPost2010Prop51ColorRGB
 90
-16777216
102
RTVSPost2010PropOp51
 70
     0
102
RTVSPost2010Prop52
140
1.0
102
RTVSPost2010PropOp52
 70
     0
102
RTVSPost2010Prop53
 90
        2
102
RTVSPost2010PropOp53
 70
     1
102
RTVSPost2010Prop54
  1
strokes_ogs.tif
102
RTVSPost2010PropOp54
 70
     1
102
RTVSPost2010Prop55
280
     0
102
RTVSPost2010PropOp55
 70
     1
102
RTVSPost2010Prop56
140
1.0
102
RTVSPost2010PropOp56
 70
     1
102
RTVSPost2010Prop57
140
1.0
102
RTVSPost2010PropOp57
 70
     1
102
RTVSPropertyOp0
 70
     1
102
RTVSPropertyOp1
 70
     1
102
RTVSPropertyOp2
 70
     1
102
RTVSPropertyOp3
 70
     1
102
RTVSPropertyOp4
 70
     1
102
RTVSPropertyOp5
 70
     1
102
RTVSPropertyOp6
 70
     1
102
RTVSPropertyOp7
 70
     1
102
RTVSPropertyOp8
 70
     1
102
RTVSPropertyOp9
 70
     1
102
RTVSPropertyOp10
 70
     1
102
RTVSPropertyOp11
 70
     1
102
RTVSPropertyOp12
 70
     1
102
RTVSPropertyOp13
 70
     1
102
RTVSPropertyOp14
 70
     1
102
RTVSPropertyOp15
 70
     1
102
RTVSPropertyOp16
 70
     1
102
RTVSPropertyOp17
 70
     1
102
RTVSPropertyOp18
 70
     1
102
RTVSPropertyOp19
 70
     1
102
RTVSPropertyOp20
 70
     1
102
RTVSPropertyOp21
 70
     1
102
RTVSPropertyOp22
 70
     1
102
RTVSPropertyOp23
 70
     1
102
RTVSPropertyOp24
 70
     1
102
RTVSPropertyOp25
 70
     1
102
RTVSPropertyOp26
 70
     1
102
RTVSPropertyOp27
 70
     1
102
RTVSPropertyOp28
 70
     1
102
RTVSPropertyOp29
 70
     1
102
RTVSPropertyOp30
 70
     1
102
RTVSPropertyOp31
 70
     1
102
RTVSPropertyOp32
 70
     1
102
RTVSPropertyOp33
 70
     1
102
RTVSPropertyOp34
 70
     1
102
RTVSPropertyOp35
 70
     1
102
RTVSPropertyOp36
 70
     1
102
RTVSPropertyOp37
 70
     1
102
RTVSPropertyOp38
 70
     1
102
RTVSPropertyOp39
 70
     1
102
RTVSPropertyOp40
 70
     1
102
RTVSPropertyOp41
 70
     1
102
RTVSPropertyOp42
 70
     1
102
RTVSPropertyOp43
 70
     1
102
RTVSPropertyOp44
 70
     1
102
RTVSPropertyOp45
 70
     1
102
RTVSPropertyOp46
 70
     1
102
RTVSPropertyOp47
 70
     1
102
RTVSPropertyOp48
 70
     1
102
RTVSPropertyOp49
 70
     1
102
RTVSPropertyOp50
 70
     1
102
RTVSPropertyOp51
 70
     0
102
RTVSPropertyOp52
 70
     0
102
RTVSPropertyOp53
 70
     1
102
RTVSPropertyOp54
 70
     1
102
RTVSPropertyOp55
 70
     1
102
RTVSPropertyOp56
 70
     1
102
RTVSPropertyOp57
 70
     1
102
RTVSPropertyOp58
 70
     1
102
RTVSPropertyOp59
 70
     1
102
RTVSPropertyOp60
 70
     1
102
RTVSPropertyOp61
 70
     1
102
RTVSPropertyOp62
 70
     1
  0
XRECORD
  5
B189
102
{ACAD_REACTORS
330
B188
102
}
330
B188
100
AcDbXrecord
280
     1
102
RTVSPost2010Prop28
280
     0
102
RTVSPost2010PropOp28
 70
     1
102
RTVSPost2010Prop29
280
     1
102
RTVSPost2010PropOp29
 70
     1
102
RTVSPost2010Prop30
280
     1
102
RTVSPost2010PropOp30
 70
     1
102
RTVSPost2010Prop31
280
     0
102
RTVSPost2010PropOp31
 70
     1
102
RTVSPost2010Prop32
280
     0
102
RTVSPost2010PropOp32
 70
     1
102
RTVSPost2010Prop33
280
     0
102
RTVSPost2010PropOp33
 70
     1
102
RTVSPost2010Prop34
280
     0
102
RTVSPost2010PropOp34
 70
     1
102
RTVSPost2010Prop35
280
     0
102
RTVSPost2010PropOp35
 70
     1
102
RTVSPost2010Prop36
280
     0
102
RTVSPost2010PropOp36
 70
     1
102
RTVSPost2010Prop37
 90
       50
102
RTVSPost2010PropOp37
 70
     1
102
RTVSPost2010Prop38
140
0.0
102
RTVSPost2010PropOp38
 70
     1
102
RTVSPost2010Prop39
140
1.0
102
RTVSPost2010PropOp39
 70
     1
102
RTVSPost2010Prop40
 90
        0
102
RTVSPost2010PropOp40
 70
     1
102
RTVSPost2010Prop41ColorIndex
 90
       18
102
RTVSPost2010Prop41ColorRGB
 90
        0
102
RTVSPost2010PropOp41
 70
     1
102
RTVSPost2010Prop42
 90
       50
102
RTVSPost2010PropOp42
 70
     1
102
RTVSPost2010Prop43
 90
        3
102
RTVSPost2010PropOp43
 70
     1
102
RTVSPost2010Prop44ColorIndex
 90
        5
102
RTVSPost2010Prop44ColorRGB
 90
      255
102
RTVSPost2010PropOp44
 70
     1
102
RTVSPost2010Prop45
280
     0
102
RTVSPost2010PropOp45
 70
     1
102
RTVSPost2010Prop46
 90
       50
102
RTVSPost2010PropOp46
 70
     1
102
RTVSPost2010Prop47
 90
       50
102
RTVSPost2010PropOp47
 70
     1
102
RTVSPost2010Prop48
 90
       50
102
RTVSPost2010PropOp48
 70
     1
102
RTVSPost2010Prop49
280
     0
102
RTVSPost2010PropOp49
 70
     1
102
RTVSPost2010Prop50
 90
       50
102
RTVSPost2010PropOp50
 70
     1
102
RTVSPost2010Prop51ColorIndex
 90
      256
102
RTVSPost2010Prop51ColorRGB
 90
-16777216
102
RTVSPost2010PropOp51
 70
     0
102
RTVSPost2010Prop52
140
1.0
102
RTVSPost2010PropOp52
 70
     0
102
RTVSPost2010Prop53
 90
        2
102
RTVSPost2010PropOp53
 70
     1
102
RTVSPost2010Prop54
  1
strokes_ogs.tif
102
RTVSPost2010PropOp54
 70
     1
102
RTVSPost2010Prop55
280
     0
102
RTVSPost2010PropOp55
 70
     1
102
RTVSPost2010Prop56
140
1.0
102
RTVSPost2010PropOp56
 70
     1
102
RTVSPost2010Prop57
140
1.0
102
RTVSPost2010PropOp57
 70
     1
102
RTVSPropertyOp0
 70
     1
102
RTVSPropertyOp1
 70
     1
102
RTVSPropertyOp2
 70
     1
102
RTVSPropertyOp3
 70
     1
102
RTVSPropertyOp4
 70
     1
102
RTVSPropertyOp5
 70
     1
102
RTVSPropertyOp6
 70
     1
102
RTVSPropertyOp7
 70
     1
102
RTVSPropertyOp8
 70
     1
102
RTVSPropertyOp9
 70
     1
102
RTVSPropertyOp10
 70
     1
102
RTVSPropertyOp11
 70
     1
102
RTVSPropertyOp12
 70
     1
102
RTVSPropertyOp13
 70
     1
102
RTVSPropertyOp14
 70
     1
102
RTVSPropertyOp15
 70
     1
102
RTVSPropertyOp16
 70
     1
102
RTVSPropertyOp17
 70
     1
102
RTVSPropertyOp18
 70
     1
102
RTVSPropertyOp19
 70
     1
102
RTVSPropertyOp20
 70
     1
102
RTVSPropertyOp21
 70
     1
102
RTVSPropertyOp22
 70
     1
102
RTVSPropertyOp23
 70
     1
102
RTVSPropertyOp24
 70
     1
102
RTVSPropertyOp25
 70
     1
102
RTVSPropertyOp26
 70
     1
102
RTVSPropertyOp27
 70
     1
102
RTVSPropertyOp28
 70
     1
102
RTVSPropertyOp29
 70
     1
102
RTVSPropertyOp30
 70
     1
102
RTVSPropertyOp31
 70
     1
102
RTVSPropertyOp32
 70
     1
102
RTVSPropertyOp33
 70
     1
102
RTVSPropertyOp34
 70
     1
102
RTVSPropertyOp35
 70
     1
102
RTVSPropertyOp36
 70
     1
102
RTVSPropertyOp37
 70
     1
102
RTVSPropertyOp38
 70
     1
102
RTVSPropertyOp39
 70
     1
102
RTVSPropertyOp40
 70
     1
102
RTVSPropertyOp41
 70
     1
102
RTVSPropertyOp42
 70
     1
102
RTVSPropertyOp43
 70
     1
102
RTVSPropertyOp44
 70
     1
102
RTVSPropertyOp45
 70
     1
102
RTVSPropertyOp46
 70
     1
102
RTVSPropertyOp47
 70
     1
102
RTVSPropertyOp48
 70
     1
102
RTVSPropertyOp49
 70
     1
102
RTVSPropertyOp50
 70
     1
102
RTVSPropertyOp51
 70
     0
102
RTVSPropertyOp52
 70
     0
102
RTVSPropertyOp53
 70
     1
102
RTVSPropertyOp54
 70
     1
102
RTVSPropertyOp55
 70
     1
102
RTVSPropertyOp56
 70
     1
102
RTVSPropertyOp57
 70
     1
102
RTVSPropertyOp58
 70
     1
102
RTVSPropertyOp59
 70
     1
102
RTVSPropertyOp60
 70
     1
102
RTVSPropertyOp61
 70
     1
102
RTVSPropertyOp62
 70
     1
  0
XRECORD
  5
B183
102
{ACAD_REACTORS
330
B182
102
}
330
B182
100
AcDbXrecord
280
     1
102
RTVSPost2010Prop28
280
     0
102
RTVSPost2010PropOp28
 70
     1
102
RTVSPost2010Prop29
280
     1
102
RTVSPost2010PropOp29
 70
     1
102
RTVSPost2010Prop30
280
     1
102
RTVSPost2010PropOp30
 70
     1
102
RTVSPost2010Prop31
280
     0
102
RTVSPost2010PropOp31
 70
     1
102
RTVSPost2010Prop32
280
     0
102
RTVSPost2010PropOp32
 70
     1
102
RTVSPost2010Prop33
280
     0
102
RTVSPost2010PropOp33
 70
     1
102
RTVSPost2010Prop34
280
     0
102
RTVSPost2010PropOp34
 70
     1
102
RTVSPost2010Prop35
280
     0
102
RTVSPost2010PropOp35
 70
     1
102
RTVSPost2010Prop36
280
     0
102
RTVSPost2010PropOp36
 70
     1
102
RTVSPost2010Prop37
 90
       50
102
RTVSPost2010PropOp37
 70
     1
102
RTVSPost2010Prop38
140
0.0
102
RTVSPost2010PropOp38
 70
     1
102
RTVSPost2010Prop39
140
1.0
102
RTVSPost2010PropOp39
 70
     1
102
RTVSPost2010Prop40
 90
        0
102
RTVSPost2010PropOp40
 70
     1
102
RTVSPost2010Prop41ColorIndex
 90
       18
102
RTVSPost2010Prop41ColorRGB
 90
        0
102
RTVSPost2010PropOp41
 70
     1
102
RTVSPost2010Prop42
 90
       50
102
RTVSPost2010PropOp42
 70
     1
102
RTVSPost2010Prop43
 90
        3
102
RTVSPost2010PropOp43
 70
     1
102
RTVSPost2010Prop44ColorIndex
 90
        5
102
RTVSPost2010Prop44ColorRGB
 90
      255
102
RTVSPost2010PropOp44
 70
     1
102
RTVSPost2010Prop45
280
     0
102
RTVSPost2010PropOp45
 70
     1
102
RTVSPost2010Prop46
 90
       50
102
RTVSPost2010PropOp46
 70
     1
102
RTVSPost2010Prop47
 90
       50
102
RTVSPost2010PropOp47
 70
     1
102
RTVSPost2010Prop48
 90
       50
102
RTVSPost2010PropOp48
 70
     1
102
RTVSPost2010Prop49
280
     0
102
RTVSPost2010PropOp49
 70
     1
102
RTVSPost2010Prop50
 90
       50
102
RTVSPost2010PropOp50
 70
     1
102
RTVSPost2010Prop51ColorIndex
 90
      256
102
RTVSPost2010Prop51ColorRGB
 90
-16777216
102
RTVSPost2010PropOp51
 70
     0
102
RTVSPost2010Prop52
140
1.0
102
RTVSPost2010PropOp52
 70
     0
102
RTVSPost2010Prop53
 90
        2
102
RTVSPost2010PropOp53
 70
     1
102
RTVSPost2010Prop54
  1
strokes_ogs.tif
102
RTVSPost2010PropOp54
 70
     1
102
RTVSPost2010Prop55
280
     0
102
RTVSPost2010PropOp55
 70
     1
102
RTVSPost2010Prop56
140
1.0
102
RTVSPost2010PropOp56
 70
     1
102
RTVSPost2010Prop57
140
1.0
102
RTVSPost2010PropOp57
 70
     1
102
RTVSPropertyOp0
 70
     1
102
RTVSPropertyOp1
 70
     1
102
RTVSPropertyOp2
 70
     1
102
RTVSPropertyOp3
 70
     1
102
RTVSPropertyOp4
 70
     1
102
RTVSPropertyOp5
 70
     1
102
RTVSPropertyOp6
 70
     1
102
RTVSPropertyOp7
 70
     1
102
RTVSPropertyOp8
 70
     1
102
RTVSPropertyOp9
 70
     1
102
RTVSPropertyOp10
 70
     1
102
RTVSPropertyOp11
 70
     1
102
RTVSPropertyOp12
 70
     1
102
RTVSPropertyOp13
 70
     1
102
RTVSPropertyOp14
 70
     1
102
RTVSPropertyOp15
 70
     1
102
RTVSPropertyOp16
 70
     1
102
RTVSPropertyOp17
 70
     1
102
RTVSPropertyOp18
 70
     1
102
RTVSPropertyOp19
 70
     1
102
RTVSPropertyOp20
 70
     1
102
RTVSPropertyOp21
 70
     1
102
RTVSPropertyOp22
 70
     1
102
RTVSPropertyOp23
 70
     1
102
RTVSPropertyOp24
 70
     1
102
RTVSPropertyOp25
 70
     1
102
RTVSPropertyOp26
 70
     1
102
RTVSPropertyOp27
 70
     1
102
RTVSPropertyOp28
 70
     1
102
RTVSPropertyOp29
 70
     1
102
RTVSPropertyOp30
 70
     1
102
RTVSPropertyOp31
 70
     1
102
RTVSPropertyOp32
 70
     1
102
RTVSPropertyOp33
 70
     1
102
RTVSPropertyOp34
 70
     1
102
RTVSPropertyOp35
 70
     1
102
RTVSPropertyOp36
 70
     1
102
RTVSPropertyOp37
 70
     1
102
RTVSPropertyOp38
 70
     1
102
RTVSPropertyOp39
 70
     1
102
RTVSPropertyOp40
 70
     1
102
RTVSPropertyOp41
 70
     1
102
RTVSPropertyOp42
 70
     1
102
RTVSPropertyOp43
 70
     1
102
RTVSPropertyOp44
 70
     1
102
RTVSPropertyOp45
 70
     1
102
RTVSPropertyOp46
 70
     1
102
RTVSPropertyOp47
 70
     1
102
RTVSPropertyOp48
 70
     1
102
RTVSPropertyOp49
 70
     1
102
RTVSPropertyOp50
 70
     1
102
RTVSPropertyOp51
 70
     0
102
RTVSPropertyOp52
 70
     0
102
RTVSPropertyOp53
 70
     1
102
RTVSPropertyOp54
 70
     1
102
RTVSPropertyOp55
 70
     1
102
RTVSPropertyOp56
 70
     1
102
RTVSPropertyOp57
 70
     1
102
RTVSPropertyOp58
 70
     1
102
RTVSPropertyOp59
 70
     1
102
RTVSPropertyOp60
 70
     1
102
RTVSPropertyOp61
 70
     1
102
RTVSPropertyOp62
 70
     1
  0
XRECORD
  5
B185
102
{ACAD_REACTORS
330
B184
102
}
330
B184
100
AcDbXrecord
280
     1
102
RTVSPost2010Prop28
280
     0
102
RTVSPost2010PropOp28
 70
     1
102
RTVSPost2010Prop29
280
     1
102
RTVSPost2010PropOp29
 70
     1
102
RTVSPost2010Prop30
280
     1
102
RTVSPost2010PropOp30
 70
     1
102
RTVSPost2010Prop31
280
     0
102
RTVSPost2010PropOp31
 70
     1
102
RTVSPost2010Prop32
280
     0
102
RTVSPost2010PropOp32
 70
     1
102
RTVSPost2010Prop33
280
     0
102
RTVSPost2010PropOp33
 70
     1
102
RTVSPost2010Prop34
280
     0
102
RTVSPost2010PropOp34
 70
     1
102
RTVSPost2010Prop35
280
     0
102
RTVSPost2010PropOp35
 70
     1
102
RTVSPost2010Prop36
280
     0
102
RTVSPost2010PropOp36
 70
     1
102
RTVSPost2010Prop37
 90
       50
102
RTVSPost2010PropOp37
 70
     1
102
RTVSPost2010Prop38
140
0.0
102
RTVSPost2010PropOp38
 70
     1
102
RTVSPost2010Prop39
140
1.0
102
RTVSPost2010PropOp39
 70
     1
102
RTVSPost2010Prop40
 90
        0
102
RTVSPost2010PropOp40
 70
     1
102
RTVSPost2010Prop41ColorIndex
 90
       18
102
RTVSPost2010Prop41ColorRGB
 90
        0
102
RTVSPost2010PropOp41
 70
     1
102
RTVSPost2010Prop42
 90
       50
102
RTVSPost2010PropOp42
 70
     1
102
RTVSPost2010Prop43
 90
        3
102
RTVSPost2010PropOp43
 70
     1
102
RTVSPost2010Prop44ColorIndex
 90
        5
102
RTVSPost2010Prop44ColorRGB
 90
      255
102
RTVSPost2010PropOp44
 70
     1
102
RTVSPost2010Prop45
280
     0
102
RTVSPost2010PropOp45
 70
     1
102
RTVSPost2010Prop46
 90
       50
102
RTVSPost2010PropOp46
 70
     1
102
RTVSPost2010Prop47
 90
       50
102
RTVSPost2010PropOp47
 70
     1
102
RTVSPost2010Prop48
 90
       50
102
RTVSPost2010PropOp48
 70
     1
102
RTVSPost2010Prop49
280
     0
102
RTVSPost2010PropOp49
 70
     1
102
RTVSPost2010Prop50
 90
       50
102
RTVSPost2010PropOp50
 70
     1
102
RTVSPost2010Prop51ColorIndex
 90
      256
102
RTVSPost2010Prop51ColorRGB
 90
-16777216
102
RTVSPost2010PropOp51
 70
     0
102
RTVSPost2010Prop52
140
1.0
102
RTVSPost2010PropOp52
 70
     0
102
RTVSPost2010Prop53
 90
        2
102
RTVSPost2010PropOp53
 70
     1
102
RTVSPost2010Prop54
  1
strokes_ogs.tif
102
RTVSPost2010PropOp54
 70
     1
102
RTVSPost2010Prop55
280
     0
102
RTVSPost2010PropOp55
 70
     1
102
RTVSPost2010Prop56
140
1.0
102
RTVSPost2010PropOp56
 70
     1
102
RTVSPost2010Prop57
140
1.0
102
RTVSPost2010PropOp57
 70
     1
102
RTVSPropertyOp0
 70
     1
102
RTVSPropertyOp1
 70
     1
102
RTVSPropertyOp2
 70
     1
102
RTVSPropertyOp3
 70
     1
102
RTVSPropertyOp4
 70
     1
102
RTVSPropertyOp5
 70
     1
102
RTVSPropertyOp6
 70
     1
102
RTVSPropertyOp7
 70
     1
102
RTVSPropertyOp8
 70
     1
102
RTVSPropertyOp9
 70
     1
102
RTVSPropertyOp10
 70
     1
102
RTVSPropertyOp11
 70
     1
102
RTVSPropertyOp12
 70
     1
102
RTVSPropertyOp13
 70
     1
102
RTVSPropertyOp14
 70
     1
102
RTVSPropertyOp15
 70
     1
102
RTVSPropertyOp16
 70
     1
102
RTVSPropertyOp17
 70
     1
102
RTVSPropertyOp18
 70
     1
102
RTVSPropertyOp19
 70
     1
102
RTVSPropertyOp20
 70
     1
102
RTVSPropertyOp21
 70
     1
102
RTVSPropertyOp22
 70
     1
102
RTVSPropertyOp23
 70
     1
102
RTVSPropertyOp24
 70
     1
102
RTVSPropertyOp25
 70
     1
102
RTVSPropertyOp26
 70
     1
102
RTVSPropertyOp27
 70
     1
102
RTVSPropertyOp28
 70
     1
102
RTVSPropertyOp29
 70
     1
102
RTVSPropertyOp30
 70
     1
102
RTVSPropertyOp31
 70
     1
102
RTVSPropertyOp32
 70
     1
102
RTVSPropertyOp33
 70
     1
102
RTVSPropertyOp34
 70
     1
102
RTVSPropertyOp35
 70
     1
102
RTVSPropertyOp36
 70
     1
102
RTVSPropertyOp37
 70
     1
102
RTVSPropertyOp38
 70
     1
102
RTVSPropertyOp39
 70
     1
102
RTVSPropertyOp40
 70
     1
102
RTVSPropertyOp41
 70
     1
102
RTVSPropertyOp42
 70
     1
102
RTVSPropertyOp43
 70
     1
102
RTVSPropertyOp44
 70
     1
102
RTVSPropertyOp45
 70
     1
102
RTVSPropertyOp46
 70
     1
102
RTVSPropertyOp47
 70
     1
102
RTVSPropertyOp48
 70
     1
102
RTVSPropertyOp49
 70
     1
102
RTVSPropertyOp50
 70
     1
102
RTVSPropertyOp51
 70
     0
102
RTVSPropertyOp52
 70
     0
102
RTVSPropertyOp53
 70
     1
102
RTVSPropertyOp54
 70
     1
102
RTVSPropertyOp55
 70
     1
102
RTVSPropertyOp56
 70
     1
102
RTVSPropertyOp57
 70
     1
102
RTVSPropertyOp58
 70
     1
102
RTVSPropertyOp59
 70
     1
102
RTVSPropertyOp60
 70
     1
102
RTVSPropertyOp61
 70
     1
102
RTVSPropertyOp62
 70
     1
  0
XRECORD
  5
B17B
102
{ACAD_REACTORS
330
B17A
102
}
330
B17A
100
AcDbXrecord
280
     1
102
RTVSPost2010Prop28
280
     0
102
RTVSPost2010PropOp28
 70
     1
102
RTVSPost2010Prop29
280
     1
102
RTVSPost2010PropOp29
 70
     1
102
RTVSPost2010Prop30
280
     1
102
RTVSPost2010PropOp30
 70
     1
102
RTVSPost2010Prop31
280
     0
102
RTVSPost2010PropOp31
 70
     1
102
RTVSPost2010Prop32
280
     0
102
RTVSPost2010PropOp32
 70
     1
102
RTVSPost2010Prop33
280
     0
102
RTVSPost2010PropOp33
 70
     1
102
RTVSPost2010Prop34
280
     0
102
RTVSPost2010PropOp34
 70
     1
102
RTVSPost2010Prop35
280
     0
102
RTVSPost2010PropOp35
 70
     1
102
RTVSPost2010Prop36
280
     0
102
RTVSPost2010PropOp36
 70
     1
102
RTVSPost2010Prop37
 90
       50
102
RTVSPost2010PropOp37
 70
     1
102
RTVSPost2010Prop38
140
0.0
102
RTVSPost2010PropOp38
 70
     1
102
RTVSPost2010Prop39
140
1.0
102
RTVSPost2010PropOp39
 70
     1
102
RTVSPost2010Prop40
 90
        0
102
RTVSPost2010PropOp40
 70
     1
102
RTVSPost2010Prop41ColorIndex
 90
       18
102
RTVSPost2010Prop41ColorRGB
 90
        0
102
RTVSPost2010PropOp41
 70
     1
102
RTVSPost2010Prop42
 90
       50
102
RTVSPost2010PropOp42
 70
     1
102
RTVSPost2010Prop43
 90
        3
102
RTVSPost2010PropOp43
 70
     1
102
RTVSPost2010Prop44ColorIndex
 90
        5
102
RTVSPost2010Prop44ColorRGB
 90
      255
102
RTVSPost2010PropOp44
 70
     1
102
RTVSPost2010Prop45
280
     0
102
RTVSPost2010PropOp45
 70
     1
102
RTVSPost2010Prop46
 90
       50
102
RTVSPost2010PropOp46
 70
     1
102
RTVSPost2010Prop47
 90
       50
102
RTVSPost2010PropOp47
 70
     1
102
RTVSPost2010Prop48
 90
       50
102
RTVSPost2010PropOp48
 70
     1
102
RTVSPost2010Prop49
280
     0
102
RTVSPost2010PropOp49
 70
     1
102
RTVSPost2010Prop50
 90
       50
102
RTVSPost2010PropOp50
 70
     1
102
RTVSPost2010Prop51ColorIndex
 90
      256
102
RTVSPost2010Prop51ColorRGB
 90
-16777216
102
RTVSPost2010PropOp51
 70
     0
102
RTVSPost2010Prop52
140
1.0
102
RTVSPost2010PropOp52
 70
     0
102
RTVSPost2010Prop53
 90
        2
102
RTVSPost2010PropOp53
 70
     1
102
RTVSPost2010Prop54
  1
strokes_ogs.tif
102
RTVSPost2010PropOp54
 70
     1
102
RTVSPost2010Prop55
280
     0
102
RTVSPost2010PropOp55
 70
     1
102
RTVSPost2010Prop56
140
1.0
102
RTVSPost2010PropOp56
 70
     1
102
RTVSPost2010Prop57
140
1.0
102
RTVSPost2010PropOp57
 70
     1
102
RTVSPropertyOp0
 70
     1
102
RTVSPropertyOp1
 70
     1
102
RTVSPropertyOp2
 70
     1
102
RTVSPropertyOp3
 70
     1
102
RTVSPropertyOp4
 70
     1
102
RTVSPropertyOp5
 70
     1
102
RTVSPropertyOp6
 70
     1
102
RTVSPropertyOp7
 70
     1
102
RTVSPropertyOp8
 70
     1
102
RTVSPropertyOp9
 70
     1
102
RTVSPropertyOp10
 70
     1
102
RTVSPropertyOp11
 70
     1
102
RTVSPropertyOp12
 70
     1
102
RTVSPropertyOp13
 70
     1
102
RTVSPropertyOp14
 70
     1
102
RTVSPropertyOp15
 70
     1
102
RTVSPropertyOp16
 70
     1
102
RTVSPropertyOp17
 70
     1
102
RTVSPropertyOp18
 70
     1
102
RTVSPropertyOp19
 70
     1
102
RTVSPropertyOp20
 70
     1
102
RTVSPropertyOp21
 70
     1
102
RTVSPropertyOp22
 70
     1
102
RTVSPropertyOp23
 70
     1
102
RTVSPropertyOp24
 70
     1
102
RTVSPropertyOp25
 70
     1
102
RTVSPropertyOp26
 70
     1
102
RTVSPropertyOp27
 70
     1
102
RTVSPropertyOp28
 70
     1
102
RTVSPropertyOp29
 70
     1
102
RTVSPropertyOp30
 70
     1
102
RTVSPropertyOp31
 70
     1
102
RTVSPropertyOp32
 70
     1
102
RTVSPropertyOp33
 70
     1
102
RTVSPropertyOp34
 70
     1
102
RTVSPropertyOp35
 70
     1
102
RTVSPropertyOp36
 70
     1
102
RTVSPropertyOp37
 70
     1
102
RTVSPropertyOp38
 70
     1
102
RTVSPropertyOp39
 70
     1
102
RTVSPropertyOp40
 70
     1
102
RTVSPropertyOp41
 70
     1
102
RTVSPropertyOp42
 70
     1
102
RTVSPropertyOp43
 70
     1
102
RTVSPropertyOp44
 70
     1
102
RTVSPropertyOp45
 70
     1
102
RTVSPropertyOp46
 70
     1
102
RTVSPropertyOp47
 70
     1
102
RTVSPropertyOp48
 70
     1
102
RTVSPropertyOp49
 70
     1
102
RTVSPropertyOp50
 70
     1
102
RTVSPropertyOp51
 70
     0
102
RTVSPropertyOp52
 70
     0
102
RTVSPropertyOp53
 70
     1
102
RTVSPropertyOp54
 70
     1
102
RTVSPropertyOp55
 70
     1
102
RTVSPropertyOp56
 70
     1
102
RTVSPropertyOp57
 70
     1
102
RTVSPropertyOp58
 70
     1
102
RTVSPropertyOp59
 70
     1
102
RTVSPropertyOp60
 70
     1
102
RTVSPropertyOp61
 70
     1
102
RTVSPropertyOp62
 70
     1
  0
XRECORD
  5
B16F
102
{ACAD_REACTORS
330
B16E
102
}
330
B16E
100
AcDbXrecord
280
     1
102
RTVSPost2010Prop28
280
     0
102
RTVSPost2010PropOp28
 70
     1
102
RTVSPost2010Prop29
280
     1
102
RTVSPost2010PropOp29
 70
     1
102
RTVSPost2010Prop30
280
     1
102
RTVSPost2010PropOp30
 70
     1
102
RTVSPost2010Prop31
280
     0
102
RTVSPost2010PropOp31
 70
     1
102
RTVSPost2010Prop32
280
     0
102
RTVSPost2010PropOp32
 70
     1
102
RTVSPost2010Prop33
280
     0
102
RTVSPost2010PropOp33
 70
     1
102
RTVSPost2010Prop34
280
     0
102
RTVSPost2010PropOp34
 70
     1
102
RTVSPost2010Prop35
280
     0
102
RTVSPost2010PropOp35
 70
     1
102
RTVSPost2010Prop36
280
     0
102
RTVSPost2010PropOp36
 70
     1
102
RTVSPost2010Prop37
 90
       50
102
RTVSPost2010PropOp37
 70
     1
102
RTVSPost2010Prop38
140
0.0
102
RTVSPost2010PropOp38
 70
     1
102
RTVSPost2010Prop39
140
1.0
102
RTVSPost2010PropOp39
 70
     1
102
RTVSPost2010Prop40
 90
        0
102
RTVSPost2010PropOp40
 70
     1
102
RTVSPost2010Prop41ColorIndex
 90
       18
102
RTVSPost2010Prop41ColorRGB
 90
        0
102
RTVSPost2010PropOp41
 70
     1
102
RTVSPost2010Prop42
 90
       50
102
RTVSPost2010PropOp42
 70
     1
102
RTVSPost2010Prop43
 90
        3
102
RTVSPost2010PropOp43
 70
     1
102
RTVSPost2010Prop44ColorIndex
 90
        5
102
RTVSPost2010Prop44ColorRGB
 90
      255
102
RTVSPost2010PropOp44
 70
     1
102
RTVSPost2010Prop45
280
     0
102
RTVSPost2010PropOp45
 70
     1
102
RTVSPost2010Prop46
 90
       50
102
RTVSPost2010PropOp46
 70
     1
102
RTVSPost2010Prop47
 90
       50
102
RTVSPost2010PropOp47
 70
     1
102
RTVSPost2010Prop48
 90
       50
102
RTVSPost2010PropOp48
 70
     1
102
RTVSPost2010Prop49
280
     0
102
RTVSPost2010PropOp49
 70
     1
102
RTVSPost2010Prop50
 90
       50
102
RTVSPost2010PropOp50
 70
     1
102
RTVSPost2010Prop51ColorIndex
 90
      256
102
RTVSPost2010Prop51ColorRGB
 90
-16777216
102
RTVSPost2010PropOp51
 70
     0
102
RTVSPost2010Prop52
140
1.0
102
RTVSPost2010PropOp52
 70
     0
102
RTVSPost2010Prop53
 90
        2
102
RTVSPost2010PropOp53
 70
     1
102
RTVSPost2010Prop54
  1
strokes_ogs.tif
102
RTVSPost2010PropOp54
 70
     1
102
RTVSPost2010Prop55
280
     0
102
RTVSPost2010PropOp55
 70
     1
102
RTVSPost2010Prop56
140
1.0
102
RTVSPost2010PropOp56
 70
     1
102
RTVSPost2010Prop57
140
1.0
102
RTVSPost2010PropOp57
 70
     1
102
RTVSPropertyOp0
 70
     1
102
RTVSPropertyOp1
 70
     1
102
RTVSPropertyOp2
 70
     1
102
RTVSPropertyOp3
 70
     1
102
RTVSPropertyOp4
 70
     1
102
RTVSPropertyOp5
 70
     1
102
RTVSPropertyOp6
 70
     1
102
RTVSPropertyOp7
 70
     1
102
RTVSPropertyOp8
 70
     1
102
RTVSPropertyOp9
 70
     1
102
RTVSPropertyOp10
 70
     1
102
RTVSPropertyOp11
 70
     1
102
RTVSPropertyOp12
 70
     1
102
RTVSPropertyOp13
 70
     1
102
RTVSPropertyOp14
 70
     1
102
RTVSPropertyOp15
 70
     1
102
RTVSPropertyOp16
 70
     1
102
RTVSPropertyOp17
 70
     1
102
RTVSPropertyOp18
 70
     1
102
RTVSPropertyOp19
 70
     1
102
RTVSPropertyOp20
 70
     1
102
RTVSPropertyOp21
 70
     1
102
RTVSPropertyOp22
 70
     1
102
RTVSPropertyOp23
 70
     1
102
RTVSPropertyOp24
 70
     1
102
RTVSPropertyOp25
 70
     1
102
RTVSPropertyOp26
 70
     1
102
RTVSPropertyOp27
 70
     1
102
RTVSPropertyOp28
 70
     1
102
RTVSPropertyOp29
 70
     1
102
RTVSPropertyOp30
 70
     1
102
RTVSPropertyOp31
 70
     1
102
RTVSPropertyOp32
 70
     1
102
RTVSPropertyOp33
 70
     1
102
RTVSPropertyOp34
 70
     1
102
RTVSPropertyOp35
 70
     1
102
RTVSPropertyOp36
 70
     1
102
RTVSPropertyOp37
 70
     1
102
RTVSPropertyOp38
 70
     1
102
RTVSPropertyOp39
 70
     1
102
RTVSPropertyOp40
 70
     1
102
RTVSPropertyOp41
 70
     1
102
RTVSPropertyOp42
 70
     1
102
RTVSPropertyOp43
 70
     1
102
RTVSPropertyOp44
 70
     1
102
RTVSPropertyOp45
 70
     1
102
RTVSPropertyOp46
 70
     1
102
RTVSPropertyOp47
 70
     1
102
RTVSPropertyOp48
 70
     1
102
RTVSPropertyOp49
 70
     1
102
RTVSPropertyOp50
 70
     1
102
RTVSPropertyOp51
 70
     0
102
RTVSPropertyOp52
 70
     0
102
RTVSPropertyOp53
 70
     1
102
RTVSPropertyOp54
 70
     1
102
RTVSPropertyOp55
 70
     1
102
RTVSPropertyOp56
 70
     1
102
RTVSPropertyOp57
 70
     1
102
RTVSPropertyOp58
 70
     1
102
RTVSPropertyOp59
 70
     1
102
RTVSPropertyOp60
 70
     1
102
RTVSPropertyOp61
 70
     1
102
RTVSPropertyOp62
 70
     1
  0
XRECORD
  5
B187
102
{ACAD_REACTORS
330
B186
102
}
330
B186
100
AcDbXrecord
280
     1
102
RTVSPost2010Prop28
280
     0
102
RTVSPost2010PropOp28
 70
     1
102
RTVSPost2010Prop29
280
     1
102
RTVSPost2010PropOp29
 70
     1
102
RTVSPost2010Prop30
280
     1
102
RTVSPost2010PropOp30
 70
     1
102
RTVSPost2010Prop31
280
     0
102
RTVSPost2010PropOp31
 70
     1
102
RTVSPost2010Prop32
280
     0
102
RTVSPost2010PropOp32
 70
     1
102
RTVSPost2010Prop33
280
     0
102
RTVSPost2010PropOp33
 70
     1
102
RTVSPost2010Prop34
280
     0
102
RTVSPost2010PropOp34
 70
     1
102
RTVSPost2010Prop35
280
     0
102
RTVSPost2010PropOp35
 70
     1
102
RTVSPost2010Prop36
280
     0
102
RTVSPost2010PropOp36
 70
     1
102
RTVSPost2010Prop37
 90
       50
102
RTVSPost2010PropOp37
 70
     1
102
RTVSPost2010Prop38
140
0.0
102
RTVSPost2010PropOp38
 70
     1
102
RTVSPost2010Prop39
140
1.0
102
RTVSPost2010PropOp39
 70
     1
102
RTVSPost2010Prop40
 90
        0
102
RTVSPost2010PropOp40
 70
     1
102
RTVSPost2010Prop41ColorIndex
 90
       18
102
RTVSPost2010Prop41ColorRGB
 90
        0
102
RTVSPost2010PropOp41
 70
     1
102
RTVSPost2010Prop42
 90
       50
102
RTVSPost2010PropOp42
 70
     1
102
RTVSPost2010Prop43
 90
        3
102
RTVSPost2010PropOp43
 70
     1
102
RTVSPost2010Prop44ColorIndex
 90
        5
102
RTVSPost2010Prop44ColorRGB
 90
      255
102
RTVSPost2010PropOp44
 70
     1
102
RTVSPost2010Prop45
280
     0
102
RTVSPost2010PropOp45
 70
     1
102
RTVSPost2010Prop46
 90
       50
102
RTVSPost2010PropOp46
 70
     1
102
RTVSPost2010Prop47
 90
       50
102
RTVSPost2010PropOp47
 70
     1
102
RTVSPost2010Prop48
 90
       50
102
RTVSPost2010PropOp48
 70
     1
102
RTVSPost2010Prop49
280
     0
102
RTVSPost2010PropOp49
 70
     1
102
RTVSPost2010Prop50
 90
       50
102
RTVSPost2010PropOp50
 70
     1
102
RTVSPost2010Prop51ColorIndex
 90
      256
102
RTVSPost2010Prop51ColorRGB
 90
-16777216
102
RTVSPost2010PropOp51
 70
     0
102
RTVSPost2010Prop52
140
1.0
102
RTVSPost2010PropOp52
 70
     0
102
RTVSPost2010Prop53
 90
        2
102
RTVSPost2010PropOp53
 70
     1
102
RTVSPost2010Prop54
  1
strokes_ogs.tif
102
RTVSPost2010PropOp54
 70
     1
102
RTVSPost2010Prop55
280
     0
102
RTVSPost2010PropOp55
 70
     1
102
RTVSPost2010Prop56
140
1.0
102
RTVSPost2010PropOp56
 70
     1
102
RTVSPost2010Prop57
140
1.0
102
RTVSPost2010PropOp57
 70
     1
102
RTVSPropertyOp0
 70
     1
102
RTVSPropertyOp1
 70
     1
102
RTVSPropertyOp2
 70
     1
102
RTVSPropertyOp3
 70
     1
102
RTVSPropertyOp4
 70
     1
102
RTVSPropertyOp5
 70
     1
102
RTVSPropertyOp6
 70
     1
102
RTVSPropertyOp7
 70
     1
102
RTVSPropertyOp8
 70
     1
102
RTVSPropertyOp9
 70
     1
102
RTVSPropertyOp10
 70
     1
102
RTVSPropertyOp11
 70
     1
102
RTVSPropertyOp12
 70
     1
102
RTVSPropertyOp13
 70
     1
102
RTVSPropertyOp14
 70
     1
102
RTVSPropertyOp15
 70
     1
102
RTVSPropertyOp16
 70
     1
102
RTVSPropertyOp17
 70
     1
102
RTVSPropertyOp18
 70
     1
102
RTVSPropertyOp19
 70
     1
102
RTVSPropertyOp20
 70
     1
102
RTVSPropertyOp21
 70
     1
102
RTVSPropertyOp22
 70
     1
102
RTVSPropertyOp23
 70
     1
102
RTVSPropertyOp24
 70
     1
102
RTVSPropertyOp25
 70
     1
102
RTVSPropertyOp26
 70
     1
102
RTVSPropertyOp27
 70
     1
102
RTVSPropertyOp28
 70
     1
102
RTVSPropertyOp29
 70
     1
102
RTVSPropertyOp30
 70
     1
102
RTVSPropertyOp31
 70
     1
102
RTVSPropertyOp32
 70
     1
102
RTVSPropertyOp33
 70
     1
102
RTVSPropertyOp34
 70
     1
102
RTVSPropertyOp35
 70
     1
102
RTVSPropertyOp36
 70
     1
102
RTVSPropertyOp37
 70
     1
102
RTVSPropertyOp38
 70
     1
102
RTVSPropertyOp39
 70
     1
102
RTVSPropertyOp40
 70
     1
102
RTVSPropertyOp41
 70
     1
102
RTVSPropertyOp42
 70
     1
102
RTVSPropertyOp43
 70
     1
102
RTVSPropertyOp44
 70
     1
102
RTVSPropertyOp45
 70
     1
102
RTVSPropertyOp46
 70
     1
102
RTVSPropertyOp47
 70
     1
102
RTVSPropertyOp48
 70
     1
102
RTVSPropertyOp49
 70
     1
102
RTVSPropertyOp50
 70
     1
102
RTVSPropertyOp51
 70
     0
102
RTVSPropertyOp52
 70
     0
102
RTVSPropertyOp53
 70
     1
102
RTVSPropertyOp54
 70
     1
102
RTVSPropertyOp55
 70
     1
102
RTVSPropertyOp56
 70
     1
102
RTVSPropertyOp57
 70
     1
102
RTVSPropertyOp58
 70
     1
102
RTVSPropertyOp59
 70
     1
102
RTVSPropertyOp60
 70
     1
102
RTVSPropertyOp61
 70
     1
102
RTVSPropertyOp62
 70
     1
  0
ENDSEC
  0
EOF
