  0
SECTION
  2
HEADER
  9
$ACADVER
  1
AC1015
  9
$ACADMAINTVER
 70
    20
  9
$DWGCODEPAGE
  3
ANSI_932
  9
$INSBASE
 10
0.0
 20
0.0
 30
0.0
  9
$EXTMIN
 10
10.00000153760832
 20
9.999999806846743
 30
0.0
  9
$EXTMAX
 10
597.5100525376079
 20
430.6838788068464
 30
0.0
  9
$LIMMIN
 10
0.0000015376083204
 20
-0.0000001931532552
  9
$LIMMAX
 10
635.0000015376081
 20
437.7651513219979
  9
$ORTHOMODE
 70
     1
  9
$REGENMODE
 70
     1
  9
$FILLMODE
 70
     1
  9
$QTEXTMODE
 70
     0
  9
$MIRRTEXT
 70
     1
  9
$LTSCALE
 40
1.0
  9
$ATTMODE
 70
     1
  9
$TEXTSIZE
 40
2.5
  9
$TRACEWID
 40
1.0
  9
$TEXTSTYLE
  7
STANDARD
  9
$CLAYER
  8
0
  9
$CELTYPE
  6
BYLAYER
  9
$CECOLOR
 62
   256
  9
$CELTSCALE
 40
1.0
  9
$DISPSILH
 70
     0
  9
$DIMSCALE
 40
1.0
  9
$DIMASZ
 40
3.0
  9
$DIMEXO
 40
1.0
  9
$DIMDLI
 40
10.0
  9
$DIMRND
 40
0.0
  9
$DIMDLE
 40
0.0
  9
$DIMEXE
 40
1.0
  9
$DIMTP
 40
0.0
  9
$DIMTM
 40
0.0
  9
$DIMTXT
 40
3.2
  9
$DIMCEN
 40
0.0
  9
$DIMTSZ
 40
0.0
  9
$DIMTOL
 70
     0
  9
$DIMLIM
 70
     0
  9
$DIMTIH
 70
     0
  9
$DIMTOH
 70
     0
  9
$DIMSE1
 70
     0
  9
$DIMSE2
 70
     0
  9
$DIMTAD
 70
     3
  9
$DIMZIN
 70
     8
  9
$DIMBLK
  1

  9
$DIMASO
 70
     1
  9
$DIMSHO
 70
     1
  9
$DIMPOST
  1

  9
$DIMAPOST
  1

  9
$DIMALT
 70
     0
  9
$DIMALTD
 70
     2
  9
$DIMALTF
 40
25.4
  9
$DIMLFAC
 40
1.0
  9
$DIMTOFL
 70
     1
  9
$DIMTVP
 40
0.0
  9
$DIMTIX
 70
     0
  9
$DIMSOXD
 70
     0
  9
$DIMSAH
 70
     1
  9
$DIMBLK1
  1
OPEN
  9
$DIMBLK2
  1
OPEN
  9
$DIMSTYLE
  2
STANDARD
  9
$DIMCLRD
 70
     0
  9
$DIMCLRE
 70
     0
  9
$DIMCLRT
 70
     0
  9
$DIMTFAC
 40
1.0
  9
$DIMGAP
 40
1.0
  9
$DIMJUST
 70
     0
  9
$DIMSD1
 70
     0
  9
$DIMSD2
 70
     0
  9
$DIMTOLJ
 70
     1
  9
$DIMTZIN
 70
     0
  9
$DIMALTZ
 70
     0
  9
$DIMALTTZ
 70
     0
  9
$DIMUPT
 70
     0
  9
$DIMDEC
 70
     4
  9
$DIMTDEC
 70
     4
  9
$DIMALTU
 70
     2
  9
$DIMALTTD
 70
     2
  9
$DIMTXSTY
  7
STANDARD
  9
$DIMAUNIT
 70
     0
  9
$DIMADEC
 70
     0
  9
$DIMALTRND
 40
0.0
  9
$DIMAZIN
 70
     0
  9
$DIMDSEP
 70
    46
  9
$DIMATFIT
 70
     3
  9
$DIMFRAC
 70
     0
  9
$DIMLDRBLK
  1
OPEN
  9
$DIMLUNIT
 70
     2
  9
$DIMLWD
 70
    -2
  9
$DIMLWE
 70
    -2
  9
$DIMTMOVE
 70
     0
  9
$LUNITS
 70
     2
  9
$LUPREC
 70
     4
  9
$SKETCHINC
 40
1.0
  9
$FILLETRAD
 40
0.0
  9
$AUNITS
 70
     0
  9
$AUPREC
 70
     0
  9
$MENU
  1
.
  9
$ELEVATION
 40
0.0
  9
$PELEVATION
 40
0.0
  9
$THICKNESS
 40
0.0
  9
$LIMCHECK
 70
     0
  9
$CHAMFERA
 40
10.0
  9
$CHAMFERB
 40
10.0
  9
$CHAMFERC
 40
20.0
  9
$CHAMFERD
 40
0.0
  9
$SKPOLY
 70
     0
  9
$TDCREATE
 40
2454875.719395718
  9
$TDUCREATE
 40
2454875.344395718
  9
$TDUPDATE
 40
2457192.687960174
  9
$TDUUPDATE
 40
2457192.312960174
  9
$TDINDWG
 40
0.0034640625
  9
$TDUSRTIMER
 40
0.0034640394
  9
$USRTIMER
 70
     1
  9
$ANGBASE
 50
0.0
  9
$ANGDIR
 70
     0
  9
$PDMODE
 70
     0
  9
$PDSIZE
 40
0.0
  9
$PLINEWID
 40
0.0
  9
$SPLFRAME
 70
     0
  9
$SPLINETYPE
 70
     6
  9
$SPLINESEGS
 70
     8
  9
$HANDSEED
  5
7EF
  9
$SURFTAB1
 70
     6
  9
$SURFTAB2
 70
     6
  9
$SURFTYPE
 70
     6
  9
$SURFU
 70
     6
  9
$SURFV
 70
     6
  9
$UCSBASE
  2

  9
$UCSNAME
  2

  9
$UCSORG
 10
0.0
 20
0.0
 30
0.0
  9
$UCSXDIR
 10
1.0
 20
0.0
 30
0.0
  9
$UCSYDIR
 10
0.0
 20
1.0
 30
0.0
  9
$UCSORTHOREF
  2

  9
$UCSORTHOVIEW
 70
     0
  9
$UCSORGTOP
 10
0.0
 20
0.0
 30
0.0
  9
$UCSORGBOTTOM
 10
0.0
 20
0.0
 30
0.0
  9
$UCSORGLEFT
 10
0.0
 20
0.0
 30
0.0
  9
$UCSORGRIGHT
 10
0.0
 20
0.0
 30
0.0
  9
$UCSORGFRONT
 10
0.0
 20
0.0
 30
0.0
  9
$UCSORGBACK
 10
0.0
 20
0.0
 30
0.0
  9
$PUCSBASE
  2

  9
$PUCSNAME
  2

  9
$PUCSORG
 10
0.0
 20
0.0
 30
0.0
  9
$PUCSXDIR
 10
1.0
 20
0.0
 30
0.0
  9
$PUCSYDIR
 10
0.0
 20
1.0
 30
0.0
  9
$PUCSORTHOREF
  2

  9
$PUCSORTHOVIEW
 70
     0
  9
$PUCSORGTOP
 10
0.0
 20
0.0
 30
0.0
  9
$PUCSORGBOTTOM
 10
0.0
 20
0.0
 30
0.0
  9
$PUCSORGLEFT
 10
0.0
 20
0.0
 30
0.0
  9
$PUCSORGRIGHT
 10
0.0
 20
0.0
 30
0.0
  9
$PUCSORGFRONT
 10
0.0
 20
0.0
 30
0.0
  9
$PUCSORGBACK
 10
0.0
 20
0.0
 30
0.0
  9
$USERI1
 70
     0
  9
$USERI2
 70
     0
  9
$USERI3
 70
     0
  9
$USERI4
 70
     0
  9
$USERI5
 70
     0
  9
$USERR1
 40
0.0
  9
$USERR2
 40
0.0
  9
$USERR3
 40
0.0
  9
$USERR4
 40
0.0
  9
$USERR5
 40
0.0
  9
$WORLDVIEW
 70
     1
  9
$SHADEDGE
 70
     3
  9
$SHADEDIF
 70
    70
  9
$TILEMODE
 70
     1
  9
$MAXACTVP
 70
    48
  9
$PINSBASE
 10
0.0
 20
0.0
 30
0.0
  9
$PLIMCHECK
 70
     0
  9
$PEXTMIN
 10
1.000000000000000E+20
 20
1.000000000000000E+20
 30
1.000000000000000E+20
  9
$PEXTMAX
 10
-1.000000000000000E+20
 20
-1.000000000000000E+20
 30
-1.000000000000000E+20
  9
$PLIMMIN
 10
0.0
 20
0.0
  9
$PLIMMAX
 10
420.0
 20
297.0
  9
$UNITMODE
 70
     0
  9
$VISRETAIN
 70
     1
  9
$PLINEGEN
 70
     0
  9
$PSLTSCALE
 70
     1
  9
$TREEDEPTH
 70
  3020
  9
$CMLSTYLE
  2
STANDARD
  9
$CMLJUST
 70
     0
  9
$CMLSCALE
 40
20.0
  9
$PROXYGRAPHICS
 70
     1
  9
$MEASUREMENT
 70
     0
  9
$CELWEIGHT
370
    -1
  9
$ENDCAPS
280
     0
  9
$JOINSTYLE
280
     0
  9
$LWDISPLAY
290
     0
  9
$INSUNITS
 70
     0
  9
$HYPERLINKBASE
  1

  9
$STYLESHEET
  1

  9
$XEDIT
290
     1
  9
$CEPSNTYPE
380
     0
  9
$PSTYLEMODE
290
     1
  9
$FINGERPRINTGUID
  2
{C28053D3-8108-4056-BF01-FFC51F70C6F6}
  9
$VERSIONGUID
  2
{41DD414F-3D1B-429E-817F-6596D7CCC511}
  9
$EXTNAMES
290
     1
  9
$PSVPSCALE
 40
0.0
  9
$OLESTARTUP
290
     0
  0
ENDSEC
  0
SECTION
  2
CLASSES
  0
CLASS
  1
ACDBDICTIONARYWDFLT
  2
AcDbDictionaryWithDefault
  3
ObjectDBX Classes
 90
        0
280
     0
281
     0
  0
CLASS
  1
ACDBPLACEHOLDER
  2
AcDbPlaceHolder
  3
ObjectDBX Classes
 90
        0
280
     0
281
     0
  0
CLASS
  1
LAYOUT
  2
AcDbLayout
  3
ObjectDBX Classes
 90
        0
280
     0
281
     0
  0
CLASS
  1
MATERIAL
  2
AcDbMaterial
  3
ObjectDBX Classes
 90
     1153
280
     0
281
     0
  0
CLASS
  1
VISUALSTYLE
  2
AcDbVisualStyle
  3
ObjectDBX Classes
 90
     4095
280
     0
281
     0
  0
CLASS
  1
TABLESTYLE
  2
AcDbTableStyle
  3
ObjectDBX Classes
 90
     4095
280
     0
281
     0
  0
CLASS
  1
SCALE
  2
AcDbScale
  3
ObjectDBX Classes
 90
     1153
280
     0
281
     0
  0
CLASS
  1
MLEADERSTYLE
  2
AcDbMLeaderStyle
  3
ACDB_MLEADERSTYLE_CLASS
 90
     4095
280
     0
281
     0
  0
CLASS
  1
ACDBSECTIONVIEWSTYLE
  2
AcDbSectionViewStyle
  3
ObjectDBX Classes
 90
     1025
280
     0
281
     0
  0
CLASS
  1
ACDBDETAILVIEWSTYLE
  2
AcDbDetailViewStyle
  3
ObjectDBX Classes
 90
     1025
280
     0
281
     0
  0
CLASS
  1
DICTIONARYVAR
  2
AcDbDictionaryVar
  3
ObjectDBX Classes
 90
        0
280
     0
281
     0
  0
CLASS
  1
CELLSTYLEMAP
  2
AcDbCellStyleMap
  3
ObjectDBX Classes
 90
     1152
280
     0
281
     0
  0
ENDSEC
  0
SECTION
  2
TABLES
  0
TABLE
  2
VPORT
  5
8
330
0
100
AcDbSymbolTable
 70
     1
  0
VPORT
  5
739
330
8
100
AcDbSymbolTableRecord
100
AcDbViewportTableRecord
  2
*ACTIVE
 70
     0
 10
0.0
 20
0.0
 11
1.0
 21
1.0
 12
478.0053370748387
 22
220.3354257133947
 13
0.0
 23
0.0
 14
10.0
 24
10.0
 15
10.0
 25
10.0
 16
0.0
 26
0.0
 36
1.0
 17
0.0
 27
0.0
 37
0.0
 40
423.924498335322
 41
2.35006605019815
 42
50.0
 43
0.0
 44
0.0
 50
0.0
 51
0.0
 71
     0
 72
   100
 73
     1
 74
     0
 75
     0
 76
     0
 77
     0
 78
     0
281
     0
 65
     1
110
0.0
120
0.0
130
0.0
111
1.0
121
0.0
131
0.0
112
0.0
122
1.0
132
0.0
 79
     0
146
0.0
1001
ACAD_NAV_VCDISPLAY
1070
     3
  0
ENDTAB
  0
TABLE
  2
LTYPE
  5
5
330
0
100
AcDbSymbolTable
 70
     4
  0
LTYPE
  5
12
330
5
100
AcDbSymbolTableRecord
100
AcDbLinetypeTableRecord
  2
BYBLOCK
 70
     0
  3

 72
    65
 73
     0
 40
0.0
  0
LTYPE
  5
13
330
5
100
AcDbSymbolTableRecord
100
AcDbLinetypeTableRecord
  2
BYLAYER
 70
     0
  3

 72
    65
 73
     0
 40
0.0
  0
LTYPE
  5
14
330
5
100
AcDbSymbolTableRecord
100
AcDbLinetypeTableRecord
  2
CONTINUOUS
 70
     0
  3
Solid line
 72
    65
 73
     0
 40
0.0
  0
LTYPE
  5
4B
330
5
100
AcDbSymbolTableRecord
100
AcDbLinetypeTableRecord
  2
DASHED
 70
     0
  3
Dashed __ __ __ __ __ __ __ __ __ __ __ __ __ _
 72
    65
 73
     2
 40
19.04999999999999
 49
12.7
 74
     0
 49
-6.349999999999998
 74
     0
  0
LTYPE
  5
4C
330
5
100
AcDbSymbolTableRecord
100
AcDbLinetypeTableRecord
  2
CENTER
 70
     0
  3
Center ____ _ ____ _ ____ _ ____ _ ____ _ ____
 72
    65
 73
     4
 40
50.8
 49
31.75
 74
     0
 49
-6.349999999999998
 74
     0
 49
6.349999999999998
 74
     0
 49
-6.349999999999998
 74
     0
  0
LTYPE
  5
4D
330
5
100
AcDbSymbolTableRecord
100
AcDbLinetypeTableRecord
  2
PHANTOM
 70
     0
  3
Phantom ______  __  __  ______  __  __  ______
 72
    65
 73
     6
 40
63.5
 49
31.75
 74
     0
 49
-6.349999999999998
 74
     0
 49
6.349999999999998
 74
     0
 49
-6.349999999999998
 74
     0
 49
6.349999999999998
 74
     0
 49
-6.349999999999998
 74
     0
  0
ENDTAB
  0
TABLE
  2
LAYER
  5
2
330
0
100
AcDbSymbolTable
 70
     8
  0
LAYER
  5
E
102
{ACAD_XDICTIONARY
360
793
102
}
330
2
100
AcDbSymbolTableRecord
100
AcDbLayerTableRecord
  2
0
 70
     0
 62
     7
  6
CONTINUOUS
370
    -3
390
742
  0
LAYER
  5
4E
102
{ACAD_XDICTIONARY
360
795
102
}
330
2
100
AcDbSymbolTableRecord
100
AcDbLayerTableRecord
  2
4
 70
     0
 62
     1
  6
CENTER
370
    -3
390
742
  0
LAYER
  5
4F
102
{ACAD_XDICTIONARY
360
797
102
}
330
2
100
AcDbSymbolTableRecord
100
AcDbLayerTableRecord
  2
5
 70
     0
 62
     6
  6
PHANTOM
370
    -3
390
742
  0
LAYER
  5
50
102
{ACAD_XDICTIONARY
360
799
102
}
330
2
100
AcDbSymbolTableRecord
100
AcDbLayerTableRecord
  2
1
 70
     0
 62
     7
  6
CONTINUOUS
370
    -3
390
742
  0
LAYER
  5
51
102
{ACAD_XDICTIONARY
360
79B
102
}
330
2
100
AcDbSymbolTableRecord
100
AcDbLayerTableRecord
  2
2
 70
     0
 62
     4
  6
CONTINUOUS
370
    -3
390
742
  0
LAYER
  5
52
102
{ACAD_XDICTIONARY
360
79D
102
}
330
2
100
AcDbSymbolTableRecord
100
AcDbLayerTableRecord
  2
3
 70
     0
 62
     2
  6
DASHED
370
    -3
390
742
  0
LAYER
  5
53
102
{ACAD_XDICTIONARY
360
79F
102
}
330
2
100
AcDbSymbolTableRecord
100
AcDbLayerTableRecord
  2
6
 70
     0
 62
     5
  6
CONTINUOUS
370
    -3
390
742
  0
LAYER
  5
54
102
{ACAD_XDICTIONARY
360
7A1
102
}
330
2
100
AcDbSymbolTableRecord
100
AcDbLayerTableRecord
  2
7
 70
     0
 62
     3
  6
CONTINUOUS
370
    -3
390
742
  0
ENDTAB
  0
TABLE
  2
STYLE
  5
3
330
0
100
AcDbSymbolTable
 70
     1
  0
STYLE
  5
F
330
3
100
AcDbSymbolTableRecord
100
AcDbTextStyleTableRecord
  2
STANDARD
 70
     0
 40
0.0
 41
1.0
 50
0.0
 71
     0
 42
2.5
  3
simplex.shx
  4

  0
ENDTAB
  0
TABLE
  2
VIEW
  5
6
330
0
100
AcDbSymbolTable
 70
     0
  0
ENDTAB
  0
TABLE
  2
UCS
  5
7
330
0
100
AcDbSymbolTable
 70
     0
  0
ENDTAB
  0
TABLE
  2
APPID
  5
9
330
0
100
AcDbSymbolTable
 70
     5
  0
APPID
  5
10
330
9
100
AcDbSymbolTableRecord
100
AcDbRegAppTableRecord
  2
ACAD
 70
     0
  0
APPID
  5
3E
330
9
100
AcDbSymbolTableRecord
100
AcDbRegAppTableRecord
  2
CONTENTTABDATA
 70
     0
  0
APPID
  5
3F
330
9
100
AcDbSymbolTableRecord
100
AcDbRegAppTableRecord
  2
CONTENTCURRENTTAB
 70
     0
  0
APPID
  5
7AD
330
9
100
AcDbSymbolTableRecord
100
AcDbRegAppTableRecord
  2
ACAD_NAV_VCDISPLAY
 70
     0
  0
APPID
  5
7E6
330
9
100
AcDbSymbolTableRecord
100
AcDbRegAppTableRecord
  2
ACAD_MLEADERVER
 70
     0
  0
ENDTAB
  0
TABLE
  2
DIMSTYLE
  5
A
330
0
100
AcDbSymbolTable
 70
     1
100
AcDbDimStyleTable
 71
     0
  0
DIMSTYLE
105
1D
330
A
100
AcDbSymbolTableRecord
100
AcDbDimStyleTableRecord
  2
STANDARD
 70
     0
 41
3.0
 42
1.0
 43
10.0
 44
1.0
 73
     0
 74
     0
 77
     3
 78
     8
140
3.2
141
0.0
147
1.0
172
     1
173
     1
340
F
341
2E
343
2E
344
2E
  0
ENDTAB
  0
TABLE
  2
BLOCK_RECORD
  5
1
330
0
100
AcDbSymbolTable
 70
     1
  0
BLOCK_RECORD
  5
18
102
{ACAD_XDICTIONARY
360
73C
102
}
330
1
100
AcDbSymbolTableRecord
100
AcDbBlockTableRecord
  2
*MODEL_SPACE
340
790
  0
BLOCK_RECORD
  5
15
102
{ACAD_XDICTIONARY
360
73A
102
}
330
1
100
AcDbSymbolTableRecord
100
AcDbBlockTableRecord
  2
*PAPER_SPACE
340
791
  0
BLOCK_RECORD
  5
2E
330
1
100
AcDbSymbolTableRecord
100
AcDbBlockTableRecord
  2
_OPEN
340
0
  0
ENDTAB
  0
ENDSEC
  0
SECTION
  2
BLOCKS
  0
BLOCK
  5
19
330
18
100
AcDbEntity
  8
0
100
AcDbBlockBegin
  2
*MODEL_SPACE
 70
     0
 10
0.0
 20
0.0
 30
0.0
  3
*MODEL_SPACE
  1

  0
ENDBLK
  5
1A
330
18
100
AcDbEntity
  8
0
100
AcDbBlockEnd
  0
BLOCK
  5
16
330
15
100
AcDbEntity
 67
     1
  8
0
100
AcDbBlockBegin
  2
*PAPER_SPACE
 70
     0
 10
0.0
 20
0.0
 30
0.0
  3
*PAPER_SPACE
  1

  0
ENDBLK
  5
17
330
15
100
AcDbEntity
 67
     1
  8
0
100
AcDbBlockEnd
  0
BLOCK
  5
2F
330
2E
100
AcDbEntity
  8
0
100
AcDbBlockBegin
  2
_OPEN
 70
     0
 10
0.0
 20
0.0
 30
0.0
  3
_OPEN
  1

  0
LINE
  5
30
330
2E
100
AcDbEntity
  8
0
  6
ByBlock
 62
     0
100
AcDbLine
 10
-1.0
 20
0.1666666666666666
 30
0.0
 11
0.0
 21
0.0
 31
0.0
  0
LINE
  5
31
330
2E
100
AcDbEntity
  8
0
  6
ByBlock
 62
     0
100
AcDbLine
 10
0.0
 20
0.0
 30
0.0
 11
-1.0
 21
-0.1666666666666666
 31
0.0
  0
LINE
  5
32
330
2E
100
AcDbEntity
  8
0
  6
ByBlock
 62
     0
100
AcDbLine
 10
0.0
 20
0.0
 30
0.0
 11
-1.0
 21
0.0
 31
0.0
  0
ENDBLK
  5
33
330
2E
100
AcDbEntity
  8
0
100
AcDbBlockEnd
  0
ENDSEC
  0
SECTION
  2
ENTITIES
  0
ARC
  5
3EC
330
18
100
AcDbEntity
  8
1
  6
Continuous
100
AcDbCircle
 10
383.7600525376082
 20
392.0763888068467
 30
0.0
 40
200.0
100
AcDbArc
 50
265.6108269999999
 51
274.3891729999999
  0
LINE
  5
3ED
330
18
100
AcDbEntity
  8
1
  6
Continuous
100
AcDbLine
 10
357.3679285376081
 20
255.8168028068467
 30
0.0
 11
410.1521775376081
 21
255.8168028068467
 31
0.0
  0
LINE
  5
3EE
330
18
100
AcDbEntity
  8
1
  6
Continuous
100
AcDbLine
 10
397.0737615376084
 20
267.8167888068467
 30
0.0
 11
395.0737615376084
 21
269.8767888068466
 31
0.0
  0
LINE
  5
3EF
330
18
100
AcDbEntity
  8
1
  6
Continuous
100
AcDbLine
 10
395.3365035376084
 20
267.8167888068467
 30
0.0
 11
397.3365035376084
 21
269.8767888068466
 31
0.0
  0
LINE
  5
3F0
330
18
100
AcDbEntity
  8
1
  6
Continuous
100
AcDbLine
 10
413.4600525376082
 20
269.8767888068466
 30
0.0
 11
354.0600525376082
 21
269.8767888068466
 31
0.0
  0
LINE
  5
3F1
330
18
100
AcDbEntity
  8
1
  6
Continuous
100
AcDbLine
 10
403.7600525376082
 20
282.0767888068467
 30
0.0
 11
363.7600525376082
 21
282.0767888068467
 31
0.0
  0
LINE
  5
3F2
330
18
100
AcDbEntity
  8
1
  6
Continuous
100
AcDbLine
 10
406.7600525376083
 20
277.5767888068467
 30
0.0
 11
360.7600525376081
 21
277.5767888068467
 31
0.0
  0
LINE
  5
3F3
330
18
100
AcDbEntity
  8
1
  6
Continuous
100
AcDbLine
 10
354.0600525376082
 20
271.3767888068466
 30
0.0
 11
413.4600525376082
 21
271.3767888068466
 31
0.0
  0
LINE
  5
3F4
330
18
100
AcDbEntity
  8
1
  6
Continuous
100
AcDbLine
 10
354.0600525376082
 20
267.8167888068467
 30
0.0
 11
413.4600525376082
 21
267.8167888068467
 31
0.0
  0
LINE
  5
3F5
330
18
100
AcDbEntity
  8
4
  6
CENTER
100
AcDbLine
 10
343.2580525376082
 20
224.5763888068467
 30
0.0
 11
424.9600525376082
 21
224.5763888068467
 31
0.0
  0
ARC
  5
3F6
330
18
100
AcDbEntity
  8
1
  6
Continuous
100
AcDbCircle
 10
93.7973265376083
 20
271.3767588068465
 30
0.0
 40
6.217608999999997
100
AcDbArc
 50
0.0
 51
85.68687500000001
  0
ARC
  5
3F7
330
18
100
AcDbEntity
  8
1
  6
Continuous
100
AcDbCircle
 10
48.7325435376083
 20
271.3767588068465
 30
0.0
 40
6.217608999999997
100
AcDbArc
 50
85.68687500000001
 51
180.0
  0
LINE
  5
3F8
330
18
100
AcDbEntity
  8
4
  6
CENTER
100
AcDbLine
 10
246.5100525376081
 20
312.0768028068466
 30
0.0
 11
246.5100525376081
 21
242.4641088068465
 31
0.0
  0
ARC
  5
3F9
330
18
100
AcDbEntity
  8
1
  6
Continuous
100
AcDbCircle
 10
269.0424445376081
 20
271.3768028068467
 30
0.0
 40
6.217608999999997
100
AcDbArc
 50
0.0
 51
85.68687500000001
  0
ARC
  5
3FA
330
18
100
AcDbEntity
  8
1
  6
Continuous
100
AcDbCircle
 10
223.9776615376082
 20
271.3768028068467
 30
0.0
 40
6.217608999999997
100
AcDbArc
 50
85.68687500000001
 51
180.0
  0
ARC
  5
3FB
330
18
100
AcDbEntity
  8
1
  6
Continuous
100
AcDbCircle
 10
361.2276615376083
 20
271.3767888068466
 30
0.0
 40
6.217608999999997
100
AcDbArc
 50
85.68687500000001
 51
180.0
  0
LINE
  5
3FC
330
18
100
AcDbEntity
  8
4
  6
CENTER
100
AcDbLine
 10
71.26493453760831
 20
184.0763588068466
 30
0.0
 11
71.26493453760831
 21
312.0767588068466
 31
0.0
  0
LINE
  5
3FD
330
18
100
AcDbEntity
  8
4
  6
CENTER
100
AcDbLine
 10
383.7600525376082
 20
184.0763888068465
 30
0.0
 11
383.7600525376082
 21
312.0767888068467
 31
0.0
  0
TEXT
  5
3FE
330
18
100
AcDbEntity
  8
4
  6
CENTER
100
AcDbText
 10
23.97951253760831
 20
10.04873680684672
 30
0.0
 40
1.399999999999999
  1
4
100
AcDbText
  0
TEXT
  5
3FF
330
18
100
AcDbEntity
  8
7
  6
Continuous
100
AcDbText
 10
10.00000153760832
 20
25.99999980684674
 30
0.0
 40
3.0
  1
CODE No.9343
100
AcDbText
  0
TEXT
  5
400
330
18
100
AcDbEntity
  8
7
  6
Continuous
100
AcDbText
 10
10.00000153760832
 20
17.99999980684674
 30
0.0
 40
3.0
  1
TYPE No.305HB-P
100
AcDbText
  0
TEXT
  5
401
330
18
100
AcDbEntity
  8
1
  6
Continuous
100
AcDbText
 10
10.00000153760832
 20
9.999999806846743
 30
0.0
 40
1.399999999999999
  1
LAYER
100
AcDbText
  0
TEXT
  5
402
330
18
100
AcDbEntity
  8
2
  6
Continuous
100
AcDbText
 10
19.9795125376083
 20
10.04873680684672
 30
0.0
 40
1.399999999999999
  1
2
100
AcDbText
  0
TEXT
  5
403
330
18
100
AcDbEntity
  8
3
  6
DASHED
100
AcDbText
 10
21.97951253760832
 20
10.04873680684672
 30
0.0
 40
1.399999999999999
  1
3
100
AcDbText
  0
TEXT
  5
404
330
18
100
AcDbEntity
  8
1
  6
Continuous
100
AcDbText
 10
17.9795125376083
 20
10.04873680684672
 30
0.0
 40
1.399999999999999
  1
1
100
AcDbText
  0
TEXT
  5
405
330
18
100
AcDbEntity
  8
5
  6
PHANTOM
100
AcDbText
 10
25.97951253760831
 20
10.04873680684672
 30
0.0
 40
1.399999999999999
  1
5
100
AcDbText
  0
TEXT
  5
406
330
18
100
AcDbEntity
  8
6
  6
Continuous
100
AcDbText
 10
27.97951253760832
 20
10.04873680684672
 30
0.0
 40
1.399999999999999
  1
6
100
AcDbText
  0
TEXT
  5
407
330
18
100
AcDbEntity
  8
7
  6
Continuous
100
AcDbText
 10
29.97951253760831
 20
10.04873680684672
 30
0.0
 40
1.399999999999999
  1
7
100
AcDbText
  0
LINE
  5
408
330
18
100
AcDbEntity
  8
1
  6
Continuous
100
AcDbLine
 10
86.22027353760833
 20
263.4618008068467
 30
0.0
 11
88.22027353760828
 21
261.4618008068467
 31
0.0
  0
LINE
  5
409
330
18
100
AcDbEntity
  8
1
  6
Continuous
100
AcDbLine
 10
87.63448653760832
 20
263.4618008068467
 30
0.0
 11
85.63448653760831
 21
261.4618008068467
 31
0.0
  0
ARC
  5
40A
330
18
100
AcDbEntity
  8
1
  6
Continuous
100
AcDbCircle
 10
85.5291975376083
 20
262.5557338068466
 30
0.0
 40
5.517896
100
AcDbArc
 50
270.0
 51
289.1949849999998
  0
LINE
  5
40B
330
18
100
AcDbEntity
  8
1
  6
Continuous
100
AcDbLine
 10
84.8060595376083
 20
263.4618008068467
 30
0.0
 11
86.8060595376083
 21
261.4618008068467
 31
0.0
  0
ARC
  5
40C
330
18
100
AcDbEntity
  8
1
  6
Continuous
100
AcDbCircle
 10
86.26493453760831
 20
252.5015358068466
 30
0.0
 40
4.0
100
AcDbArc
 50
0.0
 51
85.610827
  0
LINE
  5
40D
330
18
100
AcDbEntity
  8
1
  6
Continuous
100
AcDbLine
 10
89.56493453760833
 20
264.9167588068467
 30
0.0
 11
71.26493453760831
 21
264.9167588068467
 31
0.0
  0
LINE
  5
40E
330
18
100
AcDbEntity
  8
1
  6
Continuous
100
AcDbLine
 10
50.69383653760832
 20
263.4618008068467
 30
0.0
 11
91.83603153760833
 21
263.4618008068467
 31
0.0
  0
LINE
  5
40F
330
18
100
AcDbEntity
  8
1
  6
Continuous
100
AcDbLine
 10
91.26493453760831
 20
261.4618008068467
 30
0.0
 11
51.26493453760831
 21
261.4618008068467
 31
0.0
  0
LINE
  5
410
330
18
100
AcDbEntity
  8
1
  6
Continuous
100
AcDbLine
 10
51.13078353760831
 20
260.8993288068467
 30
0.0
 11
91.39903453760831
 21
260.8993288068467
 31
0.0
  0
ARC
  5
411
330
18
100
AcDbEntity
  8
1
  6
Continuous
100
AcDbCircle
 10
86.26493453760831
 20
196.6511808068467
 30
0.0
 40
4.0
100
AcDbArc
 50
274.3891729999999
 51
0.0
  0
LINE
  5
412
330
18
100
AcDbEntity
  8
1
  6
Continuous
100
AcDbLine
 10
85.10412653760829
 20
267.8167588068467
 30
0.0
 11
87.10412653760831
 21
269.8767588068467
 31
0.0
  0
LINE
  5
413
330
18
100
AcDbEntity
  8
1
  6
Continuous
100
AcDbLine
 10
86.84138553760831
 20
267.8167588068467
 30
0.0
 11
84.8413855376083
 21
269.8767588068467
 31
0.0
  0
LINE
  5
414
330
18
100
AcDbEntity
  8
1
  6
Continuous
100
AcDbLine
 10
41.56493453760831
 20
271.3767588068465
 30
0.0
 11
100.9649345376083
 21
271.3767588068465
 31
0.0
  0
LINE
  5
415
330
18
100
AcDbEntity
  8
1
  6
Continuous
100
AcDbLine
 10
100.9649345376083
 20
269.8767588068467
 30
0.0
 11
41.56493453760831
 21
269.8767588068467
 31
0.0
  0
LINE
  5
416
330
18
100
AcDbEntity
  8
1
  6
Continuous
100
AcDbLine
 10
41.56493453760831
 20
267.8167588068467
 30
0.0
 11
100.9649345376083
 21
267.8167588068467
 31
0.0
  0
LINE
  5
417
330
18
100
AcDbEntity
  8
4
  6
CENTER
100
AcDbLine
 10
30.06493453760832
 20
224.5763588068467
 30
0.0
 11
111.7669345376083
 21
224.5763588068467
 31
0.0
  0
LINE
  5
418
330
18
100
AcDbEntity
  8
1
  6
Continuous
100
AcDbLine
 10
52.26493453760832
 20
252.5015358068466
 30
0.0
 11
52.26493453760832
 21
196.6511808068467
 31
0.0
  0
LINE
  5
419
330
18
100
AcDbEntity
  8
1
  6
Continuous
100
AcDbLine
 10
50.91493453760831
 20
237.5763588068467
 30
0.0
 11
50.91493453760831
 21
211.5763588068466
 31
0.0
  0
LINE
  5
41A
330
18
100
AcDbEntity
  8
1
  6
Continuous
100
AcDbLine
 10
51.21493453760832
 20
242.0763588068466
 30
0.0
 11
51.21493453760832
 21
207.0763588068465
 31
0.0
  0
LINE
  5
41B
330
18
100
AcDbEntity
  8
1
  6
Continuous
100
AcDbLine
 10
47.56493453760831
 20
263.8167588068467
 30
0.0
 11
47.56493453760831
 21
211.0483178068467
 31
0.0
  0
LINE
  5
41C
330
18
100
AcDbEntity
  8
1
  6
Continuous
100
AcDbLine
 10
50.46493453760832
 20
262.4167588068467
 30
0.0
 11
50.46493453760832
 21
211.0483178068467
 31
0.0
  0
LINE
  5
41D
330
18
100
AcDbEntity
  8
1
  6
Continuous
100
AcDbLine
 10
41.06493453760831
 20
233.0763588068467
 30
0.0
 11
41.06493453760831
 21
216.0763588068467
 31
0.0
  0
ARC
  5
41E
330
18
100
AcDbEntity
  8
1
  6
Continuous
100
AcDbCircle
 10
45.40983353760831
 20
231.9375748068467
 30
0.0
 40
4.344898999999998
100
AcDbArc
 50
154.3842469999999
 51
214.384247
  0
LINE
  5
41F
330
18
100
AcDbEntity
  8
1
  6
Continuous
100
AcDbLine
 10
39.91493453760832
 20
264.8167588068466
 30
0.0
 11
39.91493453760832
 21
229.9794128068466
 31
0.0
  0
ARC
  5
420
330
18
100
AcDbEntity
  8
1
  6
Continuous
100
AcDbCircle
 10
56.26493453760831
 20
196.6511808068467
 30
0.0
 40
4.0
100
AcDbArc
 50
180.0
 51
265.6108269999999
  0
ARC
  5
421
330
18
100
AcDbEntity
  8
1
  6
Continuous
100
AcDbCircle
 10
52.21493453760832
 20
207.0763588068465
 30
0.0
 40
1.0
100
AcDbArc
 50
180.0
 51
270.0
  0
ARC
  5
424
330
18
100
AcDbEntity
  8
1
  6
Continuous
100
AcDbCircle
 10
54.36929353760832
 20
231.6826068068466
 30
0.0
 40
14.554359
100
AcDbArc
 50
186.720322
 51
203.9196327750235
  0
ARC
  5
42A
330
18
100
AcDbEntity
  8
1
  6
Continuous
100
AcDbCircle
 10
57.30574553760831
 20
224.5763588068467
 30
0.0
 40
16.24081099999999
100
AcDbArc
 50
162.412046
 51
197.5879539999999
  0
ARC
  5
42B
330
18
100
AcDbEntity
  8
1
  6
Continuous
100
AcDbCircle
 10
45.40983353760831
 20
217.2151428068466
 30
0.0
 40
4.344898999999998
100
AcDbArc
 50
145.615753
 51
205.615753
  0
LINE
  5
42C
330
18
100
AcDbEntity
  8
1
  6
Continuous
100
AcDbLine
 10
50.46493453760832
 20
211.0483178068467
 30
0.0
 11
47.56493453760831
 21
211.0483178068467
 31
0.0
  0
LINE
  5
42D
330
18
100
AcDbEntity
  8
1
  6
Continuous
100
AcDbLine
 10
41.82412453760831
 20
219.6688808068466
 30
0.0
 11
47.56493453760831
 21
219.6688808068466
 31
0.0
  0
LINE
  5
42E
330
18
100
AcDbEntity
  8
1
  6
Continuous
100
AcDbLine
 10
41.82412453760831
 20
214.7614038068467
 30
0.0
 11
41.06493453760831
 21
216.0763588068467
 31
0.0
  0
LINE
  5
42F
330
18
100
AcDbEntity
  8
1
  6
Continuous
100
AcDbLine
 10
41.82412453760831
 20
214.7614038068467
 30
0.0
 11
47.56493453760831
 21
214.7614038068467
 31
0.0
  0
LINE
  5
430
330
18
100
AcDbEntity
  8
1
  6
Continuous
100
AcDbLine
 10
50.91493453760831
 20
216.5763588068467
 30
0.0
 11
50.46493453760832
 21
216.5763588068467
 31
0.0
  0
LINE
  5
431
330
18
100
AcDbEntity
  8
1
  6
Continuous
100
AcDbLine
 10
50.91493453760831
 20
211.5763588068466
 30
0.0
 11
51.21493453760832
 21
211.5763588068466
 31
0.0
  0
LINE
  5
432
330
18
100
AcDbEntity
  8
1
  6
Continuous
100
AcDbLine
 10
41.82412453760831
 20
229.4838358068466
 30
0.0
 11
47.56493453760831
 21
229.4838358068466
 31
0.0
  0
ARC
  5
433
330
18
100
AcDbEntity
  8
1
  6
Continuous
100
AcDbCircle
 10
71.26493453760831
 20
392.0763588068465
 30
0.0
 40
200.0
100
AcDbArc
 50
265.6108269999999
 51
274.3891729999999
  0
LINE
  5
434
330
18
100
AcDbEntity
  8
1
  6
Continuous
100
AcDbLine
 10
56.52178853760831
 20
263.4618008068467
 30
0.0
 11
54.52178853760833
 21
261.4618008068467
 31
0.0
  0
LINE
  5
435
330
18
100
AcDbEntity
  8
1
  6
Continuous
100
AcDbLine
 10
53.69336153760832
 20
263.4618008068467
 30
0.0
 11
55.69336153760831
 21
261.4618008068467
 31
0.0
  0
LINE
  5
436
330
18
100
AcDbEntity
  8
1
  6
Continuous
100
AcDbLine
 10
55.1075745376083
 20
263.4618008068467
 30
0.0
 11
57.1075745376083
 21
261.4618008068467
 31
0.0
  0
ARC
  5
437
330
18
100
AcDbEntity
  8
1
  6
Continuous
100
AcDbCircle
 10
57.00062053760831
 20
262.5557338068466
 30
0.0
 40
5.517896
100
AcDbArc
 50
250.8050149999999
 51
270.0
  0
ARC
  5
438
330
18
100
AcDbEntity
  8
1
  6
Continuous
100
AcDbCircle
 10
56.26493453760831
 20
252.5015358068466
 30
0.0
 40
4.0
100
AcDbArc
 50
94.38917299999999
 51
180.0
  0
LINE
  5
439
330
18
100
AcDbEntity
  8
1
  6
Continuous
100
AcDbLine
 10
52.9649345376083
 20
264.9167588068467
 30
0.0
 11
71.26493453760831
 21
264.9167588068467
 31
0.0
  0
LINE
  5
43A
330
18
100
AcDbEntity
  8
1
  6
Continuous
100
AcDbLine
 10
57.42574353760833
 20
267.8167588068467
 30
0.0
 11
55.42574353760833
 21
269.8767588068467
 31
0.0
  0
LINE
  5
43B
330
18
100
AcDbEntity
  8
1
  6
Continuous
100
AcDbLine
 10
41.82412453760831
 20
234.3913128068467
 30
0.0
 11
41.06493453760831
 21
233.0763588068467
 31
0.0
  0
LINE
  5
43C
330
18
100
AcDbEntity
  8
1
  6
Continuous
100
AcDbLine
 10
41.82412453760831
 20
234.3913128068467
 30
0.0
 11
47.56493453760831
 21
234.3913128068467
 31
0.0
  0
LINE
  5
43D
330
18
100
AcDbEntity
  8
1
  6
Continuous
100
AcDbLine
 10
50.91493453760831
 20
232.5763588068467
 30
0.0
 11
50.46493453760832
 21
232.5763588068467
 31
0.0
  0
LINE
  5
43E
330
18
100
AcDbEntity
  8
1
  6
Continuous
100
AcDbLine
 10
50.91493453760831
 20
237.5763588068467
 30
0.0
 11
51.21493453760832
 21
237.5763588068467
 31
0.0
  0
ARC
  5
43F
330
18
100
AcDbEntity
  8
1
  6
Continuous
100
AcDbCircle
 10
52.21493453760832
 20
242.0763588068466
 30
0.0
 40
1.0
100
AcDbArc
 50
90.0
 51
180.0
  0
ARC
  5
440
330
18
100
AcDbEntity
  8
1
  6
Continuous
100
AcDbCircle
 10
42.91493453760831
 20
264.8167588068466
 30
0.0
 40
3.0
100
AcDbArc
 50
90.0
 51
180.0
  0
LINE
  5
441
330
18
100
AcDbEntity
  8
1
  6
Continuous
100
AcDbLine
 10
53.69336153760832
 20
263.4618008068467
 30
0.0
 11
51.69336153760831
 21
261.4618008068467
 31
0.0
  0
LINE
  5
442
330
18
100
AcDbEntity
  8
1
  6
Continuous
100
AcDbLine
 10
55.1075745376083
 20
263.4618008068467
 30
0.0
 11
53.1075745376083
 21
261.4618008068467
 31
0.0
  0
LINE
  5
443
330
18
100
AcDbEntity
  8
1
  6
Continuous
100
AcDbLine
 10
52.27914753760831
 20
263.4618008068467
 30
0.0
 11
54.2791475376083
 21
261.4618008068467
 31
0.0
  0
LINE
  5
444
330
18
100
AcDbEntity
  8
1
  6
Continuous
100
AcDbLine
 10
51.26493453760831
 20
261.4618008068467
 30
0.0
 11
51.26493453760831
 21
263.4618008068467
 31
0.0
  0
LINE
  5
445
330
18
100
AcDbEntity
  8
1
  6
Continuous
100
AcDbLine
 10
52.8649345376083
 20
261.4618008068467
 30
0.0
 11
51.26493453760831
 21
263.0618008068467
 31
0.0
  0
ARC
  5
446
330
18
100
AcDbEntity
  8
1
  6
Continuous
100
AcDbCircle
 10
58.85445453760832
 20
267.8807198068467
 30
0.0
 40
11.15635099999999
100
AcDbArc
 50
241.1011489999999
 51
250.8050149999999
  0
ARC
  5
447
330
18
100
AcDbEntity
  8
1
  6
Continuous
100
AcDbCircle
 10
96.19270153760831
 20
335.5220448068467
 30
0.0
 40
88.41884899999998
100
AcDbArc
 50
240.133565
 51
241.1011489999999
  0
ARC
  5
448
330
18
100
AcDbEntity
  8
1
  6
Continuous
100
AcDbCircle
 10
51.76179553760832
 20
261.2443108068467
 30
0.0
 40
0.174463
100
AcDbArc
 50
92.52295100000001
 51
184.5679539999999
  0
ARC
  5
449
330
18
100
AcDbEntity
  8
1
  6
Continuous
100
AcDbCircle
 10
51.18988953760831
 20
261.1986188068467
 30
0.0
 40
0.399265
100
AcDbArc
 50
311.4441729999998
 51
4.567953999999998
  0
LINE
  5
44A
330
18
100
AcDbEntity
  8
1
  6
Continuous
100
AcDbLine
 10
52.73446753760831
 20
261.4618008068467
 30
0.0
 11
51.75411553760832
 21
261.4186048068465
 31
0.0
  0
ARC
  5
44B
330
18
100
AcDbEntity
  8
1
  6
Continuous
100
AcDbCircle
 10
23.34411853760831
 20
224.1693288068467
 30
0.0
 40
45.685387
100
AcDbArc
 50
52.38540600000001
 51
52.81045500000002
  0
ARC
  5
44C
330
18
100
AcDbEntity
  8
1
  6
Continuous
100
AcDbCircle
 10
51.06929953760831
 20
260.7097498068467
 30
0.0
 40
0.182772
100
AcDbArc
 50
102.6352739999999
 51
232.810455
  0
ARC
  5
44D
330
18
100
AcDbEntity
  8
1
  6
Continuous
100
AcDbCircle
 10
51.13078353760831
 20
260.4354758068467
 30
0.0
 40
0.463853
100
AcDbArc
 50
90.0
 51
102.6352739999999
  0
LINE
  5
44E
330
18
100
AcDbEntity
  8
1
  6
Continuous
100
AcDbLine
 10
51.45072053760832
 20
261.4618008068467
 30
0.0
 11
51.26493453760831
 21
261.6475878068466
 31
0.0
  0
ARC
  5
44F
330
18
100
AcDbEntity
  8
1
  6
Continuous
100
AcDbCircle
 10
57.43337553760832
 20
263.1462778068467
 30
0.0
 40
6.802859999999999
100
AcDbArc
 50
204.1939269999999
 51
219.204853
  0
LINE
  5
450
330
18
100
AcDbEntity
  8
1
  6
Continuous
100
AcDbLine
 10
50.46493453760832
 20
255.8167588068467
 30
0.0
 11
54.02678753760832
 21
255.8167588068467
 31
0.0
  0
ARC
  5
451
330
18
100
AcDbEntity
  8
1
  6
Continuous
100
AcDbCircle
 10
51.56493453760833
 20
263.8167588068467
 30
0.0
 40
4.0
100
AcDbArc
 50
90.0
 51
180.0
  0
LINE
  5
452
330
18
100
AcDbEntity
  8
1
  6
Continuous
100
AcDbLine
 10
46.63751753760831
 20
267.8167588068467
 30
0.0
 11
48.63751753760832
 21
269.8767588068467
 31
0.0
  0
LINE
  5
453
330
18
100
AcDbEntity
  8
1
  6
Continuous
100
AcDbLine
 10
48.37477653760831
 20
267.8167588068467
 30
0.0
 11
46.37477653760831
 21
269.8767588068467
 31
0.0
  0
LINE
  5
454
330
18
100
AcDbEntity
  8
1
  6
Continuous
100
AcDbLine
 10
42.11203453760831
 20
267.8167588068467
 30
0.0
 11
44.11203453760831
 21
269.8767588068467
 31
0.0
  0
LINE
  5
455
330
18
100
AcDbEntity
  8
1
  6
Continuous
100
AcDbLine
 10
43.8492925376083
 20
267.8167588068467
 30
0.0
 11
41.84929253760832
 21
269.8767588068467
 31
0.0
  0
LINE
  5
456
330
18
100
AcDbEntity
  8
1
  6
Continuous
100
AcDbLine
 10
41.56493453760831
 20
271.3767588068465
 30
0.0
 11
41.56493453760831
 21
267.8167588068467
 31
0.0
  0
LINE
  5
457
330
18
100
AcDbEntity
  8
1
  6
Continuous
100
AcDbLine
 10
41.56493453760831
 20
269.5924008068467
 30
0.0
 11
41.84929253760832
 21
269.8767588068467
 31
0.0
  0
LINE
  5
458
330
18
100
AcDbEntity
  8
1
  6
Continuous
100
AcDbLine
 10
41.58655153760832
 20
267.8167588068467
 30
0.0
 11
41.56493453760831
 21
267.8383748068467
 31
0.0
  0
LINE
  5
459
330
18
100
AcDbEntity
  8
1
  6
Continuous
100
AcDbLine
 10
44.37477653760831
 20
267.8167588068467
 30
0.0
 11
46.37477653760831
 21
269.8767588068467
 31
0.0
  0
LINE
  5
45A
330
18
100
AcDbEntity
  8
1
  6
Continuous
100
AcDbLine
 10
46.11203453760831
 20
267.8167588068467
 30
0.0
 11
44.11203453760831
 21
269.8767588068467
 31
0.0
  0
ARC
  5
45B
330
18
100
AcDbEntity
  8
1
  6
Continuous
100
AcDbCircle
 10
52.9649345376083
 20
262.4167588068467
 30
0.0
 40
2.5
100
AcDbArc
 50
90.0
 51
180.0
  0
LINE
  5
45C
330
18
100
AcDbEntity
  8
1
  6
Continuous
100
AcDbLine
 10
52.27914753760831
 20
263.4618008068467
 30
0.0
 11
51.26493453760831
 21
262.4475878068465
 31
0.0
  0
LINE
  5
45D
330
18
100
AcDbEntity
  8
1
  6
Continuous
100
AcDbLine
 10
48.90025953760832
 20
267.8167588068467
 30
0.0
 11
50.90025953760832
 21
269.8767588068467
 31
0.0
  0
LINE
  5
45E
330
18
100
AcDbEntity
  8
1
  6
Continuous
100
AcDbLine
 10
50.63751753760831
 20
267.8167588068467
 30
0.0
 11
48.63751753760832
 21
269.8767588068467
 31
0.0
  0
LINE
  5
45F
330
18
100
AcDbEntity
  8
1
  6
Continuous
100
AcDbLine
 10
53.42574353760833
 20
267.8167588068467
 30
0.0
 11
55.42574353760833
 21
269.8767588068467
 31
0.0
  0
LINE
  5
460
330
18
100
AcDbEntity
  8
1
  6
Continuous
100
AcDbLine
 10
55.16300153760833
 20
267.8167588068467
 30
0.0
 11
53.16300153760831
 21
269.8767588068467
 31
0.0
  0
LINE
  5
461
330
18
100
AcDbEntity
  8
1
  6
Continuous
100
AcDbLine
 10
51.16300153760831
 20
267.8167588068467
 30
0.0
 11
53.16300153760831
 21
269.8767588068467
 31
0.0
  0
LINE
  5
462
330
18
100
AcDbEntity
  8
1
  6
Continuous
100
AcDbLine
 10
52.90025953760832
 20
267.8167588068467
 30
0.0
 11
50.90025953760832
 21
269.8767588068467
 31
0.0
  0
LINE
  5
463
330
18
100
AcDbEntity
  8
1
  6
Continuous
100
AcDbLine
 10
69.24971053760832
 20
263.4618008068467
 30
0.0
 11
71.2497105376083
 21
261.4618008068467
 31
0.0
  0
LINE
  5
464
330
18
100
AcDbEntity
  8
1
  6
Continuous
100
AcDbLine
 10
72.07813753760833
 20
263.4618008068467
 30
0.0
 11
70.07813753760832
 21
261.4618008068467
 31
0.0
  0
LINE
  5
465
330
18
100
AcDbEntity
  8
1
  6
Continuous
100
AcDbLine
 10
70.66392353760831
 20
263.4618008068467
 30
0.0
 11
72.66392353760831
 21
261.4618008068467
 31
0.0
  0
ARC
  5
466
330
18
100
AcDbEntity
  8
1
  6
Continuous
100
AcDbCircle
 10
71.26493453760831
 20
57.07635880684672
 30
0.0
 40
200.0
100
AcDbArc
 50
85.610827
 51
94.38917299999999
  0
LINE
  5
467
330
18
100
AcDbEntity
  8
1
  6
Continuous
100
AcDbLine
 10
69.26493453760833
 20
267.8167588068467
 30
0.0
 11
71.26493453760831
 21
269.8767588068467
 31
0.0
  0
LINE
  5
468
330
18
100
AcDbEntity
  8
1
  6
Continuous
100
AcDbLine
 10
67.83549653760832
 20
263.4618008068467
 30
0.0
 11
65.83549653760832
 21
261.4618008068467
 31
0.0
  0
LINE
  5
469
330
18
100
AcDbEntity
  8
1
  6
Continuous
100
AcDbLine
 10
69.24971053760832
 20
263.4618008068467
 30
0.0
 11
67.24971053760832
 21
261.4618008068467
 31
0.0
  0
LINE
  5
46A
330
18
100
AcDbEntity
  8
1
  6
Continuous
100
AcDbLine
 10
66.4212835376083
 20
263.4618008068467
 30
0.0
 11
68.42128353760831
 21
261.4618008068467
 31
0.0
  0
LINE
  5
46B
330
18
100
AcDbEntity
  8
1
  6
Continuous
100
AcDbLine
 10
65.00706953760833
 20
263.4618008068467
 30
0.0
 11
67.00706953760833
 21
261.4618008068467
 31
0.0
  0
LINE
  5
46C
330
18
100
AcDbEntity
  8
1
  6
Continuous
100
AcDbLine
 10
70.66392353760831
 20
263.4618008068467
 30
0.0
 11
68.66392353760831
 21
261.4618008068467
 31
0.0
  0
LINE
  5
46D
330
18
100
AcDbEntity
  8
1
  6
Continuous
100
AcDbLine
 10
67.83549653760832
 20
263.4618008068467
 30
0.0
 11
69.83549653760832
 21
261.4618008068467
 31
0.0
  0
LINE
  5
46E
330
18
100
AcDbEntity
  8
1
  6
Continuous
100
AcDbLine
 10
63.59285653760831
 20
263.4618008068467
 30
0.0
 11
61.59285653760832
 21
261.4618008068467
 31
0.0
  0
LINE
  5
46F
330
18
100
AcDbEntity
  8
1
  6
Continuous
100
AcDbLine
 10
62.17864253760831
 20
263.4618008068467
 30
0.0
 11
64.17864253760831
 21
261.4618008068467
 31
0.0
  0
LINE
  5
470
330
18
100
AcDbEntity
  8
1
  6
Continuous
100
AcDbLine
 10
66.4212835376083
 20
263.4618008068467
 30
0.0
 11
64.42128353760832
 21
261.4618008068467
 31
0.0
  0
LINE
  5
471
330
18
100
AcDbEntity
  8
1
  6
Continuous
100
AcDbLine
 10
65.00706953760833
 20
263.4618008068467
 30
0.0
 11
63.00706953760832
 21
261.4618008068467
 31
0.0
  0
LINE
  5
472
330
18
100
AcDbEntity
  8
1
  6
Continuous
100
AcDbLine
 10
63.59285653760831
 20
263.4618008068467
 30
0.0
 11
65.59285653760833
 21
261.4618008068467
 31
0.0
  0
LINE
  5
473
330
18
100
AcDbEntity
  8
1
  6
Continuous
100
AcDbLine
 10
57.93600153760833
 20
263.4618008068467
 30
0.0
 11
55.93600153760831
 21
261.4618008068467
 31
0.0
  0
LINE
  5
474
330
18
100
AcDbEntity
  8
1
  6
Continuous
100
AcDbLine
 10
59.35021553760832
 20
263.4618008068467
 30
0.0
 11
57.35021553760832
 21
261.4618008068467
 31
0.0
  0
LINE
  5
475
330
18
100
AcDbEntity
  8
1
  6
Continuous
100
AcDbLine
 10
56.52178853760831
 20
263.4618008068467
 30
0.0
 11
58.52178853760831
 21
261.4618008068467
 31
0.0
  0
LINE
  5
476
330
18
100
AcDbEntity
  8
1
  6
Continuous
100
AcDbLine
 10
60.76442853760832
 20
263.4618008068467
 30
0.0
 11
58.76442853760832
 21
261.4618008068467
 31
0.0
  0
LINE
  5
477
330
18
100
AcDbEntity
  8
1
  6
Continuous
100
AcDbLine
 10
57.93600153760833
 20
263.4618008068467
 30
0.0
 11
59.93600153760833
 21
261.4618008068467
 31
0.0
  0
LINE
  5
478
330
18
100
AcDbEntity
  8
1
  6
Continuous
100
AcDbLine
 10
62.17864253760831
 20
263.4618008068467
 30
0.0
 11
60.17864253760833
 21
261.4618008068467
 31
0.0
  0
LINE
  5
479
330
18
100
AcDbEntity
  8
1
  6
Continuous
100
AcDbLine
 10
60.76442853760832
 20
263.4618008068467
 30
0.0
 11
62.76442853760832
 21
261.4618008068467
 31
0.0
  0
LINE
  5
47A
330
18
100
AcDbEntity
  8
1
  6
Continuous
100
AcDbLine
 10
59.35021553760832
 20
263.4618008068467
 30
0.0
 11
61.35021553760832
 21
261.4618008068467
 31
0.0
  0
LINE
  5
47B
330
18
100
AcDbEntity
  8
1
  6
Continuous
100
AcDbLine
 10
57.00062053760831
 20
257.0378378068466
 30
0.0
 11
67.33977353760832
 21
257.0378378068466
 31
0.0
  0
LINE
  5
47C
330
18
100
AcDbEntity
  8
1
  6
Continuous
100
AcDbLine
 10
61.64520353760832
 20
257.0378378068466
 30
0.0
 11
61.5963745376083
 21
256.8425188068466
 31
0.0
  0
LINE
  5
47D
330
18
100
AcDbEntity
  8
1
  6
Continuous
100
AcDbLine
 10
62.4767095376083
 20
267.8167588068467
 30
0.0
 11
64.47670953760833
 21
269.8767588068467
 31
0.0
  0
LINE
  5
47E
330
18
100
AcDbEntity
  8
1
  6
Continuous
100
AcDbLine
 10
64.21396853760835
 20
267.8167588068467
 30
0.0
 11
62.21396853760831
 21
269.8767588068467
 31
0.0
  0
LINE
  5
47F
330
18
100
AcDbEntity
  8
1
  6
Continuous
100
AcDbLine
 10
57.95122653760832
 20
267.8167588068467
 30
0.0
 11
59.95122653760832
 21
269.8767588068467
 31
0.0
  0
LINE
  5
480
330
18
100
AcDbEntity
  8
1
  6
Continuous
100
AcDbLine
 10
59.68848453760831
 20
267.8167588068467
 30
0.0
 11
57.68848453760831
 21
269.8767588068467
 31
0.0
  0
LINE
  5
481
330
18
100
AcDbEntity
  8
1
  6
Continuous
100
AcDbLine
 10
60.21396853760832
 20
267.8167588068467
 30
0.0
 11
62.21396853760831
 21
269.8767588068467
 31
0.0
  0
LINE
  5
482
330
18
100
AcDbEntity
  8
1
  6
Continuous
100
AcDbLine
 10
61.95122653760832
 20
267.8167588068467
 30
0.0
 11
59.95122653760832
 21
269.8767588068467
 31
0.0
  0
LINE
  5
483
330
18
100
AcDbEntity
  8
1
  6
Continuous
100
AcDbLine
 10
55.68848453760831
 20
267.8167588068467
 30
0.0
 11
57.68848453760831
 21
269.8767588068467
 31
0.0
  0
LINE
  5
484
330
18
100
AcDbEntity
  8
1
  6
Continuous
100
AcDbLine
 10
68.73945153760833
 20
267.8167588068467
 30
0.0
 11
66.73945153760833
 21
269.8767588068467
 31
0.0
  0
LINE
  5
485
330
18
100
AcDbEntity
  8
1
  6
Continuous
100
AcDbLine
 10
71.00219353760834
 20
267.8167588068467
 30
0.0
 11
69.00219353760833
 21
269.8767588068467
 31
0.0
  0
LINE
  5
486
330
18
100
AcDbEntity
  8
1
  6
Continuous
100
AcDbLine
 10
67.00219353760833
 20
267.8167588068467
 30
0.0
 11
69.00219353760833
 21
269.8767588068467
 31
0.0
  0
LINE
  5
487
330
18
100
AcDbEntity
  8
1
  6
Continuous
100
AcDbLine
 10
64.73945153760833
 20
267.8167588068467
 30
0.0
 11
66.73945153760833
 21
269.8767588068467
 31
0.0
  0
LINE
  5
488
330
18
100
AcDbEntity
  8
1
  6
Continuous
100
AcDbLine
 10
66.47670953760833
 20
267.8167588068467
 30
0.0
 11
64.47670953760833
 21
269.8767588068467
 31
0.0
  0
LINE
  5
489
330
18
100
AcDbEntity
  8
1
  6
Continuous
100
AcDbLine
 10
81.97763253760834
 20
263.4618008068467
 30
0.0
 11
83.97763253760833
 21
261.4618008068467
 31
0.0
  0
LINE
  5
48A
330
18
100
AcDbEntity
  8
1
  6
Continuous
100
AcDbLine
 10
84.8060595376083
 20
263.4618008068467
 30
0.0
 11
82.80605953760831
 21
261.4618008068467
 31
0.0
  0
LINE
  5
48B
330
18
100
AcDbEntity
  8
1
  6
Continuous
100
AcDbLine
 10
86.22027353760833
 20
263.4618008068467
 30
0.0
 11
84.2202735376083
 21
261.4618008068467
 31
0.0
  0
LINE
  5
48C
330
18
100
AcDbEntity
  8
1
  6
Continuous
100
AcDbLine
 10
83.3918455376083
 20
263.4618008068467
 30
0.0
 11
85.39184553760831
 21
261.4618008068467
 31
0.0
  0
LINE
  5
48D
330
18
100
AcDbEntity
  8
1
  6
Continuous
100
AcDbLine
 10
79.14920553760831
 20
263.4618008068467
 30
0.0
 11
77.14920553760831
 21
261.4618008068467
 31
0.0
  0
LINE
  5
48E
330
18
100
AcDbEntity
  8
1
  6
Continuous
100
AcDbLine
 10
76.32077853760833
 20
263.4618008068467
 30
0.0
 11
78.32077853760835
 21
261.4618008068467
 31
0.0
  0
LINE
  5
48F
330
18
100
AcDbEntity
  8
1
  6
Continuous
100
AcDbLine
 10
77.7349915376083
 20
263.4618008068467
 30
0.0
 11
79.73499153760831
 21
261.4618008068467
 31
0.0
  0
LINE
  5
490
330
18
100
AcDbEntity
  8
1
  6
Continuous
100
AcDbLine
 10
80.56341853760832
 20
263.4618008068467
 30
0.0
 11
78.56341853760833
 21
261.4618008068467
 31
0.0
  0
LINE
  5
491
330
18
100
AcDbEntity
  8
1
  6
Continuous
100
AcDbLine
 10
79.14920553760831
 20
263.4618008068467
 30
0.0
 11
81.1492055376083
 21
261.4618008068467
 31
0.0
  0
LINE
  5
492
330
18
100
AcDbEntity
  8
1
  6
Continuous
100
AcDbLine
 10
76.32077853760833
 20
263.4618008068467
 30
0.0
 11
74.32077853760834
 21
261.4618008068467
 31
0.0
  0
LINE
  5
493
330
18
100
AcDbEntity
  8
1
  6
Continuous
100
AcDbLine
 10
77.7349915376083
 20
263.4618008068467
 30
0.0
 11
75.73499153760831
 21
261.4618008068467
 31
0.0
  0
LINE
  5
494
330
18
100
AcDbEntity
  8
1
  6
Continuous
100
AcDbLine
 10
74.90656453760834
 20
263.4618008068467
 30
0.0
 11
76.90656453760833
 21
261.4618008068467
 31
0.0
  0
LINE
  5
495
330
18
100
AcDbEntity
  8
1
  6
Continuous
100
AcDbLine
 10
74.90656453760834
 20
263.4618008068467
 30
0.0
 11
72.90656453760835
 21
261.4618008068467
 31
0.0
  0
LINE
  5
496
330
18
100
AcDbEntity
  8
1
  6
Continuous
100
AcDbLine
 10
72.07813753760833
 20
263.4618008068467
 30
0.0
 11
74.07813753760833
 21
261.4618008068467
 31
0.0
  0
LINE
  5
497
330
18
100
AcDbEntity
  8
1
  6
Continuous
100
AcDbLine
 10
73.49235153760833
 20
263.4618008068467
 30
0.0
 11
75.49235153760831
 21
261.4618008068467
 31
0.0
  0
LINE
  5
498
330
18
100
AcDbEntity
  8
1
  6
Continuous
100
AcDbLine
 10
73.49235153760833
 20
263.4618008068467
 30
0.0
 11
71.49235153760833
 21
261.4618008068467
 31
0.0
  0
LINE
  5
499
330
18
100
AcDbEntity
  8
1
  6
Continuous
100
AcDbLine
 10
83.3918455376083
 20
263.4618008068467
 30
0.0
 11
81.39184553760831
 21
261.4618008068467
 31
0.0
  0
LINE
  5
49A
330
18
100
AcDbEntity
  8
1
  6
Continuous
100
AcDbLine
 10
80.56341853760832
 20
263.4618008068467
 30
0.0
 11
82.56341853760833
 21
261.4618008068467
 31
0.0
  0
LINE
  5
49B
330
18
100
AcDbEntity
  8
1
  6
Continuous
100
AcDbLine
 10
81.97763253760834
 20
263.4618008068467
 30
0.0
 11
79.97763253760833
 21
261.4618008068467
 31
0.0
  0
LINE
  5
49C
330
18
100
AcDbEntity
  8
1
  6
Continuous
100
AcDbLine
 10
85.5291975376083
 20
257.0378378068466
 30
0.0
 11
75.19009453760833
 21
257.0378378068466
 31
0.0
  0
LINE
  5
49D
330
18
100
AcDbEntity
  8
1
  6
Continuous
100
AcDbLine
 10
80.88466453760833
 20
257.0378378068466
 30
0.0
 11
80.93349353760833
 21
256.8425188068466
 31
0.0
  0
LINE
  5
49E
330
18
100
AcDbEntity
  8
1
  6
Continuous
100
AcDbLine
 10
78.31590153760831
 20
267.8167588068467
 30
0.0
 11
80.31590153760831
 21
269.8767588068467
 31
0.0
  0
LINE
  5
49F
330
18
100
AcDbEntity
  8
1
  6
Continuous
100
AcDbLine
 10
80.05316053760829
 20
267.8167588068467
 30
0.0
 11
78.05316053760829
 21
269.8767588068467
 31
0.0
  0
LINE
  5
4A0
330
18
100
AcDbEntity
  8
1
  6
Continuous
100
AcDbLine
 10
73.79041853760835
 20
267.8167588068467
 30
0.0
 11
75.79041853760834
 21
269.8767588068467
 31
0.0
  0
LINE
  5
4A1
330
18
100
AcDbEntity
  8
1
  6
Continuous
100
AcDbLine
 10
75.52767653760833
 20
267.8167588068467
 30
0.0
 11
73.52767653760833
 21
269.8767588068467
 31
0.0
  0
LINE
  5
4A2
330
18
100
AcDbEntity
  8
1
  6
Continuous
100
AcDbLine
 10
76.05316053760829
 20
267.8167588068467
 30
0.0
 11
78.05316053760829
 21
269.8767588068467
 31
0.0
  0
LINE
  5
4A3
330
18
100
AcDbEntity
  8
1
  6
Continuous
100
AcDbLine
 10
77.79041853760833
 20
267.8167588068467
 30
0.0
 11
75.79041853760834
 21
269.8767588068467
 31
0.0
  0
LINE
  5
4A4
330
18
100
AcDbEntity
  8
1
  6
Continuous
100
AcDbLine
 10
71.52767653760832
 20
267.8167588068467
 30
0.0
 11
73.52767653760833
 21
269.8767588068467
 31
0.0
  0
LINE
  5
4A5
330
18
100
AcDbEntity
  8
1
  6
Continuous
100
AcDbLine
 10
73.26493453760831
 20
267.8167588068467
 30
0.0
 11
71.26493453760831
 21
269.8767588068467
 31
0.0
  0
LINE
  5
4A6
330
18
100
AcDbEntity
  8
1
  6
Continuous
100
AcDbLine
 10
82.84138553760831
 20
267.8167588068467
 30
0.0
 11
84.8413855376083
 21
269.8767588068467
 31
0.0
  0
LINE
  5
4A7
330
18
100
AcDbEntity
  8
1
  6
Continuous
100
AcDbLine
 10
84.57864353760834
 20
267.8167588068467
 30
0.0
 11
82.57864353760833
 21
269.8767588068467
 31
0.0
  0
LINE
  5
4A8
330
18
100
AcDbEntity
  8
1
  6
Continuous
100
AcDbLine
 10
80.57864353760832
 20
267.8167588068467
 30
0.0
 11
82.57864353760833
 21
269.8767588068467
 31
0.0
  0
LINE
  5
4A9
330
18
100
AcDbEntity
  8
1
  6
Continuous
100
AcDbLine
 10
82.31590153760832
 20
267.8167588068467
 30
0.0
 11
80.31590153760831
 21
269.8767588068467
 31
0.0
  0
LINE
  5
4AA
330
18
100
AcDbEntity
  8
1
  6
Continuous
100
AcDbLine
 10
91.31493453760832
 20
242.0763588068466
 30
0.0
 11
91.31493453760832
 21
207.0763588068465
 31
0.0
  0
LINE
  5
4AB
330
18
100
AcDbEntity
  8
1
  6
Continuous
100
AcDbLine
 10
90.26493453760831
 20
252.5015358068466
 30
0.0
 11
90.26493453760831
 21
196.6511808068467
 31
0.0
  0
LINE
  5
4AC
330
18
100
AcDbEntity
  8
1
  6
Continuous
100
AcDbLine
 10
91.61493453760831
 20
237.5763588068467
 30
0.0
 11
91.61493453760831
 21
211.5763588068466
 31
0.0
  0
LINE
  5
4AD
330
18
100
AcDbEntity
  8
1
  6
Continuous
100
AcDbLine
 10
94.96493453760832
 20
263.8167588068467
 30
0.0
 11
94.96493453760832
 21
211.0483178068467
 31
0.0
  0
LINE
  5
4AE
330
18
100
AcDbEntity
  8
1
  6
Continuous
100
AcDbLine
 10
92.06493453760833
 20
262.4167588068467
 30
0.0
 11
92.06493453760833
 21
211.0483178068467
 31
0.0
  0
ARC
  5
4AF
330
18
100
AcDbEntity
  8
1
  6
Continuous
100
AcDbCircle
 10
100.6200365376083
 20
231.9375748068467
 30
0.0
 40
4.344898999999998
100
AcDbArc
 50
325.6157529999998
 51
25.615753
  0
ARC
  5
4B0
330
18
100
AcDbEntity
  8
1
  6
Continuous
100
AcDbCircle
 10
102.3098335376083
 20
231.9375748068467
 30
0.0
 40
4.344898999999998
100
AcDbArc
 50
154.3842469999999
 51
214.384247
  0
LINE
  5
4B1
330
18
100
AcDbEntity
  8
1
  6
Continuous
100
AcDbLine
 10
104.9649345376083
 20
216.0763588068467
 30
0.0
 11
104.9649345376083
 21
233.0763588068467
 31
0.0
  0
LINE
  5
4B2
330
18
100
AcDbEntity
  8
1
  6
Continuous
100
AcDbLine
 10
97.96493453760831
 20
233.0763588068467
 30
0.0
 11
97.96493453760831
 21
216.0763588068467
 31
0.0
  0
LINE
  5
4B3
330
18
100
AcDbEntity
  8
1
  6
Continuous
100
AcDbLine
 10
105.9669345376083
 20
218.5763588068467
 30
0.0
 11
105.9669345376083
 21
230.5763588068467
 31
0.0
  0
LINE
  5
4B4
330
18
100
AcDbEntity
  8
1
  6
Continuous
100
AcDbLine
 10
105.9669345376083
 20
230.5763588068467
 30
0.0
 11
106.7669345376082
 21
229.7763588068466
 31
0.0
  0
LINE
  5
4B5
330
18
100
AcDbEntity
  8
1
  6
Continuous
100
AcDbLine
 10
97.96493453760831
 20
214.0763588068467
 30
0.0
 11
97.96493453760831
 21
235.0763588068467
 31
0.0
  0
LINE
  5
4B6
330
18
100
AcDbEntity
  8
1
  6
Continuous
100
AcDbLine
 10
87.19118153760829
 20
192.7114798068467
 30
0.0
 11
87.25546653760835
 21
192.7757658068467
 31
0.0
  0
ARC
  5
4B7
330
18
100
AcDbEntity
  8
1
  6
Continuous
100
AcDbCircle
 10
90.31493453760832
 20
207.0763588068465
 30
0.0
 40
1.0
100
AcDbArc
 50
270.0
 51
0.0
  0
LINE
  5
4B8
330
18
100
AcDbEntity
  8
1
  6
Continuous
100
AcDbLine
 10
98.72412453760832
 20
229.4838358068466
 30
0.0
 11
104.2057455376083
 21
229.4838358068466
 31
0.0
  0
LINE
  5
4B9
330
18
100
AcDbEntity
  8
1
  6
Continuous
100
AcDbLine
 10
98.72412453760832
 20
214.7614038068467
 30
0.0
 11
104.2057455376083
 21
214.7614038068467
 31
0.0
  0
LINE
  5
4BA
330
18
100
AcDbEntity
  8
1
  6
Continuous
100
AcDbLine
 10
98.72412453760832
 20
219.6688808068466
 30
0.0
 11
104.2057455376083
 21
219.6688808068466
 31
0.0
  0
ARC
  5
4BB
330
18
100
AcDbEntity
  8
1
  6
Continuous
100
AcDbCircle
 10
102.3098335376083
 20
217.2151428068466
 30
0.0
 40
4.344898999999998
100
AcDbArc
 50
145.615753
 51
205.615753
  0
ARC
  5
4BC
330
18
100
AcDbEntity
  8
1
  6
Continuous
100
AcDbCircle
 10
114.2057455376083
 20
224.5763588068467
 30
0.0
 40
16.24081099999999
100
AcDbArc
 50
162.412046
 51
197.5879539999999
  0
LINE
  5
4BD
330
18
100
AcDbEntity
  8
1
  6
Continuous
100
AcDbLine
 10
94.96493453760832
 20
211.0483178068467
 30
0.0
 11
92.06493453760833
 21
211.0483178068467
 31
0.0
  0
LINE
  5
4BE
330
18
100
AcDbEntity
  8
1
  6
Continuous
100
AcDbLine
 10
91.61493453760831
 20
211.5763588068466
 30
0.0
 11
91.31493453760832
 21
211.5763588068466
 31
0.0
  0
LINE
  5
4BF
330
18
100
AcDbEntity
  8
1
  6
Continuous
100
AcDbLine
 10
91.61493453760831
 20
216.5763588068467
 30
0.0
 11
92.06493453760833
 21
216.5763588068467
 31
0.0
  0
LINE
  5
4C0
330
18
100
AcDbEntity
  8
1
  6
Continuous
100
AcDbLine
 10
98.72412453760832
 20
214.7614038068467
 30
0.0
 11
97.96493453760831
 21
216.0763588068467
 31
0.0
  0
LINE
  5
4C1
330
18
100
AcDbEntity
  8
1
  6
Continuous
100
AcDbLine
 10
94.96493453760832
 20
214.0763588068467
 30
0.0
 11
97.96493453760831
 21
214.0763588068467
 31
0.0
  0
LINE
  5
4C2
330
18
100
AcDbEntity
  8
1
  6
Continuous
100
AcDbLine
 10
97.96493453760831
 20
227.5763588068466
 30
0.0
 11
94.96493453760832
 21
224.5763588068467
 31
0.0
  0
LINE
  5
4C3
330
18
100
AcDbEntity
  8
1
  6
Continuous
100
AcDbLine
 10
97.96493453760831
 20
224.5763588068467
 30
0.0
 11
94.96493453760832
 21
221.5763588068466
 31
0.0
  0
ARC
  5
4C4
330
18
100
AcDbEntity
  8
1
  6
Continuous
100
AcDbCircle
 10
100.6200365376083
 20
217.2151428068466
 30
0.0
 40
4.344898999999998
100
AcDbArc
 50
334.384247
 51
34.38424699999997
  0
ARC
  5
4C5
330
18
100
AcDbEntity
  8
1
  6
Continuous
100
AcDbCircle
 10
88.72412453760828
 20
224.5763588068467
 30
0.0
 40
16.24081099999999
100
AcDbArc
 50
342.4120459999998
 51
17.587954
  0
LINE
  5
4C6
330
18
100
AcDbEntity
  8
1
  6
Continuous
100
AcDbLine
 10
106.7669345376082
 20
219.3763588068466
 30
0.0
 11
106.7669345376082
 21
229.7763588068466
 31
0.0
  0
LINE
  5
4C7
330
18
100
AcDbEntity
  8
1
  6
Continuous
100
AcDbLine
 10
104.2057455376083
 20
214.7614038068467
 30
0.0
 11
104.9649345376083
 21
216.0763588068467
 31
0.0
  0
LINE
  5
4C8
330
18
100
AcDbEntity
  8
2
  6
Continuous
100
AcDbLine
 10
104.9649345376083
 20
219.5233588068466
 30
0.0
 11
106.7669345376082
 21
219.5233588068466
 31
0.0
  0
LINE
  5
4C9
330
18
100
AcDbEntity
  8
1
  6
Continuous
100
AcDbLine
 10
104.9649345376083
 20
218.5763588068467
 30
0.0
 11
105.9669345376083
 21
218.5763588068467
 31
0.0
  0
LINE
  5
4CA
330
18
100
AcDbEntity
  8
1
  6
Continuous
100
AcDbLine
 10
105.9669345376083
 20
218.5763588068467
 30
0.0
 11
106.7669345376082
 21
219.3763588068466
 31
0.0
  0
LINE
  5
4CB
330
18
100
AcDbEntity
  8
2
  6
Continuous
100
AcDbLine
 10
104.9649345376083
 20
229.6293588068466
 30
0.0
 11
106.7669345376082
 21
229.6293588068466
 31
0.0
  0
LINE
  5
4CC
330
18
100
AcDbEntity
  8
1
  6
Continuous
100
AcDbLine
 10
102.6149345376081
 20
264.8167588068466
 30
0.0
 11
102.6149345376081
 21
234.3960138068467
 31
0.0
  0
LINE
  5
4CD
330
18
100
AcDbEntity
  8
1
  6
Continuous
100
AcDbLine
 10
98.72412453760832
 20
234.3913128068467
 30
0.0
 11
104.2057455376083
 21
234.3913128068467
 31
0.0
  0
LINE
  5
4CE
330
18
100
AcDbEntity
  8
1
  6
Continuous
100
AcDbLine
 10
91.61493453760831
 20
237.5763588068467
 30
0.0
 11
91.31493453760832
 21
237.5763588068467
 31
0.0
  0
LINE
  5
4CF
330
18
100
AcDbEntity
  8
1
  6
Continuous
100
AcDbLine
 10
91.61493453760831
 20
232.5763588068467
 30
0.0
 11
92.06493453760833
 21
232.5763588068467
 31
0.0
  0
LINE
  5
4D0
330
18
100
AcDbEntity
  8
1
  6
Continuous
100
AcDbLine
 10
98.72412453760832
 20
234.3913128068467
 30
0.0
 11
97.96493453760831
 21
233.0763588068467
 31
0.0
  0
LINE
  5
4D1
330
18
100
AcDbEntity
  8
1
  6
Continuous
100
AcDbLine
 10
94.96493453760832
 20
235.0763588068467
 30
0.0
 11
97.96493453760831
 21
235.0763588068467
 31
0.0
  0
ARC
  5
4D2
330
18
100
AcDbEntity
  8
1
  6
Continuous
100
AcDbCircle
 10
90.31493453760832
 20
242.0763588068466
 30
0.0
 40
1.0
100
AcDbArc
 50
0.0
 51
90.0
  0
LINE
  5
4D3
330
18
100
AcDbEntity
  8
1
  6
Continuous
100
AcDbLine
 10
104.2057455376083
 20
234.3913128068467
 30
0.0
 11
104.9649345376083
 21
233.0763588068467
 31
0.0
  0
LINE
  5
4D4
330
18
100
AcDbEntity
  8
1
  6
Continuous
100
AcDbLine
 10
104.9649345376083
 20
230.5763588068467
 30
0.0
 11
105.9669345376083
 21
230.5763588068467
 31
0.0
  0
ARC
  5
4D5
330
18
100
AcDbEntity
  8
1
  6
Continuous
100
AcDbCircle
 10
99.61493453760832
 20
264.8167588068466
 30
0.0
 40
3.0
100
AcDbArc
 50
0.0
 51
90.0
  0
LINE
  5
4D6
330
18
100
AcDbEntity
  8
1
  6
Continuous
100
AcDbLine
 10
89.04870053760831
 20
263.4618008068467
 30
0.0
 11
87.04870053760833
 21
261.4618008068467
 31
0.0
  0
LINE
  5
4D7
330
18
100
AcDbEntity
  8
1
  6
Continuous
100
AcDbLine
 10
87.63448653760832
 20
263.4618008068467
 30
0.0
 11
89.63448653760833
 21
261.4618008068467
 31
0.0
  0
LINE
  5
4D8
330
18
100
AcDbEntity
  8
1
  6
Continuous
100
AcDbLine
 10
90.46291353760834
 20
263.4618008068467
 30
0.0
 11
88.46291353760834
 21
261.4618008068467
 31
0.0
  0
LINE
  5
4D9
330
18
100
AcDbEntity
  8
1
  6
Continuous
100
AcDbLine
 10
91.26493453760831
 20
262.8496078068467
 30
0.0
 11
89.87712753760833
 21
261.4618008068467
 31
0.0
  0
LINE
  5
4DA
330
18
100
AcDbEntity
  8
1
  6
Continuous
100
AcDbLine
 10
89.04870053760831
 20
263.4618008068467
 30
0.0
 11
91.04870053760834
 21
261.4618008068467
 31
0.0
  0
LINE
  5
4DB
330
18
100
AcDbEntity
  8
1
  6
Continuous
100
AcDbLine
 10
91.26493453760831
 20
261.4618008068467
 30
0.0
 11
91.26493453760831
 21
263.4618008068467
 31
0.0
  0
ARC
  5
4DC
330
18
100
AcDbEntity
  8
1
  6
Continuous
100
AcDbCircle
 10
83.67536353760831
 20
267.8807198068467
 30
0.0
 40
11.15635099999999
100
AcDbArc
 50
289.1949849999998
 51
298.898851
  0
LINE
  5
4DD
330
18
100
AcDbEntity
  8
1
  6
Continuous
100
AcDbLine
 10
87.19118153760829
 20
256.4412368068465
 30
0.0
 11
87.25546653760835
 21
256.3769518068467
 31
0.0
  0
ARC
  5
4DE
330
18
100
AcDbEntity
  8
1
  6
Continuous
100
AcDbCircle
 10
46.3371155376083
 20
335.5220448068467
 30
0.0
 40
88.41884899999998
100
AcDbArc
 50
298.898851
 51
299.866435
  0
ARC
  5
4DF
330
18
100
AcDbEntity
  8
1
  6
Continuous
100
AcDbCircle
 10
85.0964425376083
 20
263.1462778068467
 30
0.0
 40
6.802859999999999
100
AcDbArc
 50
320.7951470000001
 51
335.806073
  0
ARC
  5
4E0
330
18
100
AcDbEntity
  8
1
  6
Continuous
100
AcDbCircle
 10
119.1856995376083
 20
224.1693288068467
 30
0.0
 40
45.685387
100
AcDbArc
 50
127.189545
 51
127.6145939999999
  0
ARC
  5
4E1
330
18
100
AcDbEntity
  8
1
  6
Continuous
100
AcDbCircle
 10
91.46051853760832
 20
260.7097498068467
 30
0.0
 40
0.182772
100
AcDbArc
 50
307.1895449999999
 51
77.364726
  0
ARC
  5
4E2
330
18
100
AcDbEntity
  8
1
  6
Continuous
100
AcDbCircle
 10
91.39903453760831
 20
260.4354758068467
 30
0.0
 40
0.463853
100
AcDbArc
 50
77.364726
 51
90.0
  0
ARC
  5
4E3
330
18
100
AcDbEntity
  8
1
  6
Continuous
100
AcDbCircle
 10
90.76802253760831
 20
261.2443108068467
 30
0.0
 40
0.174463
100
AcDbArc
 50
355.432046
 51
87.47704899999998
  0
ARC
  5
4E4
330
18
100
AcDbEntity
  8
1
  6
Continuous
100
AcDbCircle
 10
91.33992753760834
 20
261.1986188068467
 30
0.0
 40
0.399265
100
AcDbArc
 50
175.4320459999999
 51
228.555827
  0
LINE
  5
4E5
330
18
100
AcDbEntity
  8
1
  6
Continuous
100
AcDbLine
 10
88.50308053760832
 20
255.8167588068467
 30
0.0
 11
92.06493453760833
 21
255.8167588068467
 31
0.0
  0
LINE
  5
4E6
330
18
100
AcDbEntity
  8
1
  6
Continuous
100
AcDbLine
 10
89.79535053760832
 20
261.4618008068467
 30
0.0
 11
90.77570253760832
 21
261.4186048068465
 31
0.0
  0
ARC
  5
4E7
330
18
100
AcDbEntity
  8
1
  6
Continuous
100
AcDbCircle
 10
90.96493453760832
 20
263.8167588068467
 30
0.0
 40
4.0
100
AcDbArc
 50
0.0
 51
90.0
  0
LINE
  5
4E8
330
18
100
AcDbEntity
  8
1
  6
Continuous
100
AcDbLine
 10
94.15509353760834
 20
267.8167588068467
 30
0.0
 11
96.15509353760833
 21
269.8767588068467
 31
0.0
  0
LINE
  5
4E9
330
18
100
AcDbEntity
  8
1
  6
Continuous
100
AcDbLine
 10
95.89235153760832
 20
267.8167588068467
 30
0.0
 11
93.89235153760832
 21
269.8767588068467
 31
0.0
  0
ARC
  5
4EA
330
18
100
AcDbEntity
  8
1
  6
Continuous
100
AcDbCircle
 10
89.56493453760833
 20
262.4167588068467
 30
0.0
 40
2.5
100
AcDbArc
 50
0.0
 51
90.0
  0
LINE
  5
4EB
330
18
100
AcDbEntity
  8
1
  6
Continuous
100
AcDbLine
 10
90.46291353760834
 20
263.4618008068467
 30
0.0
 11
91.26493453760831
 21
262.6597808068467
 31
0.0
  0
LINE
  5
4EC
330
18
100
AcDbEntity
  8
1
  6
Continuous
100
AcDbLine
 10
89.62961053760833
 20
267.8167588068467
 30
0.0
 11
91.62961053760831
 21
269.8767588068467
 31
0.0
  0
LINE
  5
4ED
330
18
100
AcDbEntity
  8
1
  6
Continuous
100
AcDbLine
 10
91.89235153760831
 20
267.8167588068467
 30
0.0
 11
93.89235153760832
 21
269.8767588068467
 31
0.0
  0
LINE
  5
4EE
330
18
100
AcDbEntity
  8
1
  6
Continuous
100
AcDbLine
 10
93.62961053760832
 20
267.8167588068467
 30
0.0
 11
91.62961053760831
 21
269.8767588068467
 31
0.0
  0
LINE
  5
4EF
330
18
100
AcDbEntity
  8
1
  6
Continuous
100
AcDbLine
 10
89.10412653760829
 20
267.8167588068467
 30
0.0
 11
87.10412653760831
 21
269.8767588068467
 31
0.0
  0
LINE
  5
4F0
330
18
100
AcDbEntity
  8
1
  6
Continuous
100
AcDbLine
 10
87.36686853760831
 20
267.8167588068467
 30
0.0
 11
89.3668685376083
 21
269.8767588068467
 31
0.0
  0
LINE
  5
4F1
330
18
100
AcDbEntity
  8
1
  6
Continuous
100
AcDbLine
 10
91.36686853760831
 20
267.8167588068467
 30
0.0
 11
89.3668685376083
 21
269.8767588068467
 31
0.0
  0
LINE
  5
4F2
330
18
100
AcDbEntity
  8
1
  6
Continuous
100
AcDbLine
 10
98.68057753760831
 20
267.8167588068467
 30
0.0
 11
100.6805775376082
 21
269.8767588068467
 31
0.0
  0
LINE
  5
4F3
330
18
100
AcDbEntity
  8
1
  6
Continuous
100
AcDbLine
 10
100.4178355376082
 20
267.8167588068467
 30
0.0
 11
98.41783553760834
 21
269.8767588068467
 31
0.0
  0
LINE
  5
4F4
330
18
100
AcDbEntity
  8
1
  6
Continuous
100
AcDbLine
 10
100.9649345376083
 20
271.3767588068465
 30
0.0
 11
100.9649345376083
 21
267.8167588068467
 31
0.0
  0
LINE
  5
4F5
330
18
100
AcDbEntity
  8
1
  6
Continuous
100
AcDbLine
 10
100.9649345376083
 20
267.8383748068467
 30
0.0
 11
100.9433185376082
 21
267.8167588068467
 31
0.0
  0
LINE
  5
4F6
330
18
100
AcDbEntity
  8
1
  6
Continuous
100
AcDbLine
 10
100.9649345376083
 20
269.5924008068467
 30
0.0
 11
100.6805775376082
 21
269.8767588068467
 31
0.0
  0
LINE
  5
4F7
330
18
100
AcDbEntity
  8
1
  6
Continuous
100
AcDbLine
 10
96.41783553760831
 20
267.8167588068467
 30
0.0
 11
98.41783553760834
 21
269.8767588068467
 31
0.0
  0
LINE
  5
4F8
330
18
100
AcDbEntity
  8
1
  6
Continuous
100
AcDbLine
 10
98.15509353760832
 20
267.8167588068467
 30
0.0
 11
96.15509353760833
 21
269.8767588068467
 31
0.0
  0
ARC
  5
4F9
330
18
100
AcDbEntity
  8
1
  6
Continuous
100
AcDbCircle
 10
246.5100525376081
 20
85.97089880684675
 30
0.0
 40
31.35
100
AcDbArc
 50
232.672329
 51
127.3276709999999
  0
ARC
  5
4FA
330
18
100
AcDbEntity
  8
1
  6
Continuous
100
AcDbCircle
 10
182.5848755376082
 20
100.9708988068467
 30
0.0
 40
4.0
100
AcDbArc
 50
90.0
 51
175.610827
  0
ARC
  5
4FB
330
18
100
AcDbEntity
  8
1
  6
Continuous
100
AcDbCircle
 10
238.4352305376082
 20
100.9708988068467
 30
0.0
 40
4.0
100
AcDbArc
 50
4.389173000000001
 51
90.0
  0
ARC
  5
4FC
330
18
100
AcDbEntity
  8
1
  6
Continuous
100
AcDbCircle
 10
246.5100525376081
 20
85.97089880684675
 30
0.0
 40
28.45
100
AcDbArc
 50
232.672329
 51
127.3276709999999
  0
ARC
  5
4FD
330
18
100
AcDbEntity
  8
1
  6
Continuous
100
AcDbCircle
 10
246.5100525376081
 20
85.97089880684675
 30
0.0
 40
26.25
100
AcDbArc
 50
227.9062099999999
 51
132.0937899999997
  0
ARC
  5
4FE
330
18
100
AcDbEntity
  8
1
  6
Continuous
100
AcDbCircle
 10
246.5100525376081
 20
85.97089880684675
 30
0.0
 40
22.65
100
AcDbArc
 50
237.019102
 51
122.980898
  0
LINE
  5
4FF
330
18
100
AcDbEntity
  8
4
  6
CENTER
100
AcDbLine
 10
210.5100525376081
 20
126.4728988068467
 30
0.0
 11
210.5100525376081
 21
44.77089880684674
 31
0.0
  0
LINE
  5
500
330
18
100
AcDbEntity
  8
4
  6
CENTER
100
AcDbLine
 10
246.5100525376081
 20
49.62089880684676
 30
0.0
 11
246.5100525376081
 21
122.3208988068467
 31
0.0
  0
LINE
  5
501
330
18
100
AcDbEntity
  8
4
  6
CENTER
100
AcDbLine
 10
282.8600525376083
 20
85.97089880684675
 30
0.0
 11
173.0100525376081
 21
85.97089880684675
 31
0.0
  0
LINE
  5
502
330
18
100
AcDbEntity
  8
1
  6
Continuous
100
AcDbLine
 10
223.8620395376082
 20
62.27089880684674
 30
0.0
 11
197.5384865376083
 21
62.27089880684674
 31
0.0
  0
LINE
  5
503
330
18
100
AcDbEntity
  8
1
  6
Continuous
100
AcDbLine
 10
223.8620395376082
 20
65.17089880684675
 30
0.0
 11
197.5384865376083
 21
65.17089880684675
 31
0.0
  0
LINE
  5
504
330
18
100
AcDbEntity
  8
1
  6
Continuous
100
AcDbLine
 10
182.5848755376082
 20
66.97089880684675
 30
0.0
 11
238.4352305376082
 21
66.97089880684675
 31
0.0
  0
LINE
  5
505
330
18
100
AcDbEntity
  8
1
  6
Continuous
100
AcDbLine
 10
193.0100525376083
 20
65.92089880684675
 30
0.0
 11
228.0100525376083
 21
65.92089880684675
 31
0.0
  0
LINE
  5
506
330
18
100
AcDbEntity
  8
1
  6
Continuous
100
AcDbLine
 10
197.5100525376083
 20
65.62089880684673
 30
0.0
 11
223.5100525376081
 21
65.62089880684673
 31
0.0
  0
LINE
  5
507
330
18
100
AcDbEntity
  8
1
  6
Continuous
100
AcDbLine
 10
202.0100525376083
 20
55.77089880684674
 30
0.0
 11
219.0100525376081
 21
55.77089880684674
 31
0.0
  0
ARC
  5
508
330
18
100
AcDbEntity
  8
1
  6
Continuous
100
AcDbCircle
 10
206.2600525376083
 20
68.04640580684675
 30
0.0
 40
12.275507
100
AcDbArc
 50
249.7438419999999
 51
290.256158
  0
LINE
  5
50A
330
18
100
AcDbEntity
  8
1
  6
Continuous
100
AcDbLine
 10
202.0100525376083
 20
55.77089880684674
 30
0.0
 11
202.0100525376083
 21
62.27089880684674
 31
0.0
  0
ARC
  5
50E
330
18
100
AcDbEntity
  8
1
  6
Continuous
100
AcDbCircle
 10
182.5848755376082
 20
70.97089880684674
 30
0.0
 40
4.0
100
AcDbArc
 50
184.3891729999998
 51
270.0
  0
ARC
  5
50F
330
18
100
AcDbEntity
  8
1
  6
Continuous
100
AcDbCircle
 10
378.0100525376083
 20
85.97089880684675
 30
0.0
 40
200.0
100
AcDbArc
 50
175.610827
 51
184.3891729999998
  0
LINE
  5
510
330
18
100
AcDbEntity
  8
1
  6
Continuous
100
AcDbLine
 10
178.6451745376083
 20
101.8971458068466
 30
0.0
 11
178.7094595376083
 21
101.9614308068467
 31
0.0
  0
ARC
  5
511
330
18
100
AcDbEntity
  8
1
  6
Continuous
100
AcDbCircle
 10
193.0100525376083
 20
66.92089880684675
 30
0.0
 40
1.0
100
AcDbArc
 50
180.0
 51
270.0
  0
LINE
  5
512
330
18
100
AcDbEntity
  8
1
  6
Continuous
100
AcDbLine
 10
197.5384865376083
 20
62.27089880684674
 30
0.0
 11
197.5384865376083
 21
65.17089880684675
 31
0.0
  0
LINE
  5
513
330
18
100
AcDbEntity
  8
1
  6
Continuous
100
AcDbLine
 10
202.5100525376083
 20
65.17089880684675
 30
0.0
 11
202.5100525376083
 21
65.62089880684673
 31
0.0
  0
LINE
  5
514
330
18
100
AcDbEntity
  8
1
  6
Continuous
100
AcDbLine
 10
202.5100525376083
 20
65.62089880684673
 30
0.0
 11
202.5100525376083
 21
65.17089880684675
 31
0.0
  0
LINE
  5
515
330
18
100
AcDbEntity
  8
1
  6
Continuous
100
AcDbLine
 10
197.5100525376083
 20
65.62089880684673
 30
0.0
 11
197.5100525376083
 21
65.92089880684675
 31
0.0
  0
LINE
  5
516
330
18
100
AcDbEntity
  8
1
  6
Continuous
100
AcDbLine
 10
210.5100525376081
 20
62.27089880684674
 30
0.0
 11
210.5100525376081
 21
56.53008780684674
 31
0.0
  0
LINE
  5
517
330
18
100
AcDbEntity
  8
1
  6
Continuous
100
AcDbLine
 10
219.0100525376081
 20
55.77089880684674
 30
0.0
 11
219.0100525376081
 21
62.27089880684674
 31
0.0
  0
ARC
  5
518
330
18
100
AcDbEntity
  8
1
  6
Continuous
100
AcDbCircle
 10
214.7600525376081
 20
68.04640580684675
 30
0.0
 40
12.275507
100
AcDbArc
 50
249.7438419999999
 51
290.256158
  0
ARC
  5
51C
330
18
100
AcDbEntity
  8
1
  6
Continuous
100
AcDbCircle
 10
246.5100525376081
 20
85.97089880684675
 30
0.0
 40
9.0
100
AcDbArc
 50
245.9422229999999
 51
114.0577769999998
  0
ARC
  5
51D
330
18
100
AcDbEntity
  8
1
  6
Continuous
100
AcDbCircle
 10
238.4352305376082
 20
70.97089880684674
 30
0.0
 40
4.0
100
AcDbArc
 50
270.0
 51
355.6108269999999
  0
ARC
  5
51E
330
18
100
AcDbEntity
  8
1
  6
Continuous
100
AcDbCircle
 10
246.5100525376081
 20
85.97089880684675
 30
0.0
 40
14.65
100
AcDbArc
 50
254.1661629999999
 51
105.8338369999999
  0
ARC
  5
51F
330
18
100
AcDbEntity
  8
1
  6
Continuous
100
AcDbCircle
 10
223.8620395376082
 20
56.27089880684675
 30
0.0
 40
8.9
100
AcDbArc
 50
52.67232899999999
 51
90.0
  0
ARC
  5
520
330
18
100
AcDbEntity
  8
1
  6
Continuous
100
AcDbCircle
 10
223.8620395376082
 20
56.27089880684675
 30
0.0
 40
6.0
100
AcDbArc
 50
52.67232899999999
 51
90.0
  0
LINE
  5
521
330
18
100
AcDbEntity
  8
1
  6
Continuous
100
AcDbLine
 10
223.5100525376081
 20
65.62089880684673
 30
0.0
 11
223.5100525376081
 21
65.92089880684675
 31
0.0
  0
LINE
  5
522
330
18
100
AcDbEntity
  8
1
  6
Continuous
100
AcDbLine
 10
218.5100525376081
 20
65.17089880684675
 30
0.0
 11
218.5100525376081
 21
65.62089880684673
 31
0.0
  0
LINE
  5
523
330
18
100
AcDbEntity
  8
1
  6
Continuous
100
AcDbLine
 10
218.5100525376081
 20
65.62089880684673
 30
0.0
 11
218.5100525376081
 21
65.17089880684675
 31
0.0
  0
ARC
  5
524
330
18
100
AcDbEntity
  8
1
  6
Continuous
100
AcDbCircle
 10
228.0100525376083
 20
66.92089880684675
 30
0.0
 40
1.0
100
AcDbArc
 50
270.0
 51
0.0
  0
LINE
  5
525
330
18
100
AcDbEntity
  8
1
  6
Continuous
100
AcDbLine
 10
251.0100525376083
 20
78.17666980684673
 30
0.0
 11
246.5100525376081
 21
85.97089880684675
 31
0.0
  0
LINE
  5
526
330
18
100
AcDbEntity
  8
1
  6
Continuous
100
AcDbLine
 10
242.9129875376082
 20
79.74059880684674
 30
0.0
 11
246.5100525376081
 21
85.97089880684675
 31
0.0
  0
ARC
  5
527
330
18
100
AcDbEntity
  8
1
  6
Continuous
100
AcDbCircle
 10
43.01005253760831
 20
85.97089880684675
 30
0.0
 40
200.0
100
AcDbArc
 50
355.6108269999999
 51
4.389173000000001
  0
LINE
  5
528
330
18
100
AcDbEntity
  8
1
  6
Continuous
100
AcDbLine
 10
242.9129875376082
 20
92.20119880684677
 30
0.0
 11
246.5100525376081
 21
85.97089880684675
 31
0.0
  0
LINE
  5
529
330
18
100
AcDbEntity
  8
1
  6
Continuous
100
AcDbLine
 10
251.0100525376083
 20
93.76512780684677
 30
0.0
 11
246.5100525376081
 21
85.97089880684675
 31
0.0
  0
LINE
  5
52A
330
18
100
AcDbEntity
  8
1
  6
Continuous
100
AcDbLine
 10
255.5100525376082
 20
85.97089880684675
 30
0.0
 11
246.5100525376081
 21
85.97089880684675
 31
0.0
  0
LINE
  5
52B
330
18
100
AcDbEntity
  8
1
  6
Continuous
100
AcDbLine
 10
243.0100525376082
 20
85.97089880684675
 30
0.0
 11
246.5100525376081
 21
85.97089880684675
 31
0.0
  0
LINE
  5
52C
330
18
100
AcDbEntity
  8
1
  6
Continuous
100
AcDbLine
 10
242.3749315376081
 20
101.8971458068466
 30
0.0
 11
242.3106455376083
 21
101.9614308068467
 31
0.0
  0
LINE
  5
52D
330
18
100
AcDbEntity
  8
1
  6
Continuous
100
AcDbLine
 10
271.6629535376083
 20
267.8168028068467
 30
0.0
 11
273.6629535376083
 21
269.8768028068467
 31
0.0
  0
LINE
  5
52E
330
18
100
AcDbEntity
  8
1
  6
Continuous
100
AcDbLine
 10
273.4002115376083
 20
267.8168028068467
 30
0.0
 11
271.4002115376083
 21
269.8768028068467
 31
0.0
  0
LINE
  5
52F
330
18
100
AcDbEntity
  8
1
  6
Continuous
100
AcDbLine
 10
216.8100525376082
 20
271.3768028068467
 30
0.0
 11
276.2100525376082
 21
271.3768028068467
 31
0.0
  0
LINE
  5
530
330
18
100
AcDbEntity
  8
1
  6
Continuous
100
AcDbLine
 10
276.2100525376082
 20
267.8168028068467
 30
0.0
 11
207.8100525376083
 21
267.8168028068467
 31
0.0
  0
LINE
  5
531
330
18
100
AcDbEntity
  8
1
  6
Continuous
100
AcDbLine
 10
276.2100525376082
 20
269.8768028068467
 30
0.0
 11
216.8100525376082
 21
269.8768028068467
 31
0.0
  0
LINE
  5
532
330
18
100
AcDbEntity
  8
1
  6
Continuous
100
AcDbLine
 10
277.8600525376083
 20
255.8168028068467
 30
0.0
 11
269.6916685376081
 21
255.8168028068467
 31
0.0
  0
LINE
  5
533
330
18
100
AcDbEntity
  8
4
  6
CENTER
100
AcDbLine
 10
210.5100525376081
 20
261.4594068068465
 30
0.0
 11
210.5100525376081
 21
184.0763888068465
 31
0.0
  0
LINE
  5
534
330
18
100
AcDbEntity
  8
1
  6
Continuous
100
AcDbLine
 10
223.8620395376082
 20
109.6708988068466
 30
0.0
 11
197.5384865376083
 21
109.6708988068466
 31
0.0
  0
LINE
  5
535
330
18
100
AcDbEntity
  8
1
  6
Continuous
100
AcDbLine
 10
223.8620395376082
 20
106.7708988068467
 30
0.0
 11
197.5384865376083
 21
106.7708988068467
 31
0.0
  0
LINE
  5
536
330
18
100
AcDbEntity
  8
1
  6
Continuous
100
AcDbLine
 10
193.0100525376083
 20
106.0208988068467
 30
0.0
 11
228.0100525376083
 21
106.0208988068467
 31
0.0
  0
LINE
  5
537
330
18
100
AcDbEntity
  8
1
  6
Continuous
100
AcDbLine
 10
182.5848755376082
 20
104.9708988068467
 30
0.0
 11
238.4352305376082
 21
104.9708988068467
 31
0.0
  0
LINE
  5
538
330
18
100
AcDbEntity
  8
1
  6
Continuous
100
AcDbLine
 10
197.5100525376083
 20
106.3208988068466
 30
0.0
 11
223.5100525376081
 21
106.3208988068466
 31
0.0
  0
LINE
  5
539
330
18
100
AcDbEntity
  8
1
  6
Continuous
100
AcDbLine
 10
207.5100525376082
 20
112.6708988068467
 30
0.0
 11
210.5100525376081
 21
109.6708988068466
 31
0.0
  0
ARC
  5
53A
330
18
100
AcDbEntity
  8
1
  6
Continuous
100
AcDbCircle
 10
206.2600525376083
 20
107.3953918068466
 30
0.0
 40
12.275507
100
AcDbArc
 50
69.743842
 51
110.2561579999999
  0
ARC
  5
53B
330
18
100
AcDbEntity
  8
1
  6
Continuous
100
AcDbCircle
 10
206.2600525376083
 20
124.9464058068467
 30
0.0
 40
12.275507
100
AcDbArc
 50
249.7438419999999
 51
290.256158
  0
LINE
  5
53C
330
18
100
AcDbEntity
  8
1
  6
Continuous
100
AcDbLine
 10
219.0100525376081
 20
119.6708988068467
 30
0.0
 11
202.0100525376083
 21
119.6708988068467
 31
0.0
  0
LINE
  5
53D
330
18
100
AcDbEntity
  8
1
  6
Continuous
100
AcDbLine
 10
216.5100525376081
 20
120.6728988068467
 30
0.0
 11
204.5100525376083
 21
120.6728988068467
 31
0.0
  0
LINE
  5
53E
330
18
100
AcDbEntity
  8
1
  6
Continuous
100
AcDbLine
 10
215.7100525376082
 20
121.4728988068467
 30
0.0
 11
205.3100525376082
 21
121.4728988068467
 31
0.0
  0
LINE
  5
53F
330
18
100
AcDbEntity
  8
1
  6
Continuous
100
AcDbLine
 10
200.0100525376083
 20
112.6708988068467
 30
0.0
 11
221.0100525376081
 21
112.6708988068467
 31
0.0
  0
ARC
  5
540
330
18
100
AcDbEntity
  8
1
  6
Continuous
100
AcDbCircle
 10
193.0100525376083
 20
105.0208988068467
 30
0.0
 40
1.0
100
AcDbArc
 50
90.0
 51
180.0
  0
LINE
  5
541
330
18
100
AcDbEntity
  8
1
  6
Continuous
100
AcDbLine
 10
202.0100525376083
 20
119.6708988068467
 30
0.0
 11
202.0100525376083
 21
112.6708988068467
 31
0.0
  0
LINE
  5
542
330
18
100
AcDbEntity
  8
1
  6
Continuous
100
AcDbLine
 10
197.5384865376083
 20
109.6708988068466
 30
0.0
 11
197.5384865376083
 21
106.7708988068467
 31
0.0
  0
LINE
  5
543
330
18
100
AcDbEntity
  8
1
  6
Continuous
100
AcDbLine
 10
202.5100525376083
 20
106.3208988068466
 30
0.0
 11
202.5100525376083
 21
106.7708988068467
 31
0.0
  0
LINE
  5
544
330
18
100
AcDbEntity
  8
1
  6
Continuous
100
AcDbLine
 10
197.5100525376083
 20
106.3208988068466
 30
0.0
 11
197.5100525376083
 21
106.0208988068467
 31
0.0
  0
LINE
  5
545
330
18
100
AcDbEntity
  8
1
  6
Continuous
100
AcDbLine
 10
200.0100525376083
 20
109.6708988068466
 30
0.0
 11
200.0100525376083
 21
112.6708988068467
 31
0.0
  0
LINE
  5
546
330
18
100
AcDbEntity
  8
1
  6
Continuous
100
AcDbLine
 10
204.5100525376083
 20
120.6728988068467
 30
0.0
 11
205.3100525376082
 21
121.4728988068467
 31
0.0
  0
LINE
  5
547
330
18
100
AcDbEntity
  8
2
  6
Continuous
100
AcDbLine
 10
205.4570525376083
 20
119.6708988068467
 30
0.0
 11
205.4570525376083
 21
121.4728988068467
 31
0.0
  0
LINE
  5
548
330
18
100
AcDbEntity
  8
1
  6
Continuous
100
AcDbLine
 10
204.5100525376083
 20
119.6708988068467
 30
0.0
 11
204.5100525376083
 21
120.6728988068467
 31
0.0
  0
ARC
  5
549
330
18
100
AcDbEntity
  8
1
  6
Continuous
100
AcDbCircle
 10
223.8620395376082
 20
115.6708988068467
 30
0.0
 40
8.9
100
AcDbArc
 50
270.0
 51
307.327671
  0
ARC
  5
54A
330
18
100
AcDbEntity
  8
1
  6
Continuous
100
AcDbCircle
 10
223.8620395376082
 20
115.6708988068467
 30
0.0
 40
6.0
100
AcDbArc
 50
270.0
 51
307.327671
  0
LINE
  5
54B
330
18
100
AcDbEntity
  8
1
  6
Continuous
100
AcDbLine
 10
219.0100525376081
 20
119.6708988068467
 30
0.0
 11
219.0100525376081
 21
112.6708988068467
 31
0.0
  0
ARC
  5
54C
330
18
100
AcDbEntity
  8
1
  6
Continuous
100
AcDbCircle
 10
214.7600525376081
 20
124.9464058068467
 30
0.0
 40
12.275507
100
AcDbArc
 50
249.7438419999999
 51
290.256158
  0
LINE
  5
54D
330
18
100
AcDbEntity
  8
1
  6
Continuous
100
AcDbLine
 10
210.5100525376081
 20
112.6708988068467
 30
0.0
 11
213.5100525376083
 21
109.6708988068466
 31
0.0
  0
LINE
  5
54E
330
18
100
AcDbEntity
  8
1
  6
Continuous
100
AcDbLine
 10
223.5100525376081
 20
106.3208988068466
 30
0.0
 11
223.5100525376081
 21
106.0208988068467
 31
0.0
  0
LINE
  5
54F
330
18
100
AcDbEntity
  8
1
  6
Continuous
100
AcDbLine
 10
218.5100525376081
 20
106.3208988068466
 30
0.0
 11
218.5100525376081
 21
106.7708988068467
 31
0.0
  0
LINE
  5
550
330
18
100
AcDbEntity
  8
1
  6
Continuous
100
AcDbLine
 10
221.0100525376081
 20
109.6708988068466
 30
0.0
 11
221.0100525376081
 21
112.6708988068467
 31
0.0
  0
ARC
  5
551
330
18
100
AcDbEntity
  8
1
  6
Continuous
100
AcDbCircle
 10
214.7600525376081
 20
107.3953918068466
 30
0.0
 40
12.275507
100
AcDbArc
 50
69.743842
 51
110.2561579999999
  0
LINE
  5
552
330
18
100
AcDbEntity
  8
1
  6
Continuous
100
AcDbLine
 10
210.5100525376081
 20
113.4300878068465
 30
0.0
 11
210.5100525376081
 21
118.9117098068467
 31
0.0
  0
LINE
  5
553
330
18
100
AcDbEntity
  8
1
  6
Continuous
100
AcDbLine
 10
216.5100525376081
 20
120.6728988068467
 30
0.0
 11
215.7100525376082
 21
121.4728988068467
 31
0.0
  0
LINE
  5
554
330
18
100
AcDbEntity
  8
2
  6
Continuous
100
AcDbLine
 10
215.5630525376082
 20
119.6708988068467
 30
0.0
 11
215.5630525376082
 21
121.4728988068467
 31
0.0
  0
LINE
  5
555
330
18
100
AcDbEntity
  8
1
  6
Continuous
100
AcDbLine
 10
216.5100525376081
 20
119.6708988068467
 30
0.0
 11
216.5100525376081
 21
120.6728988068467
 31
0.0
  0
ARC
  5
556
330
18
100
AcDbEntity
  8
1
  6
Continuous
100
AcDbCircle
 10
228.0100525376083
 20
105.0208988068467
 30
0.0
 40
1.0
100
AcDbArc
 50
0.0
 51
90.0
  0
LINE
  5
557
330
18
100
AcDbEntity
  8
1
  6
Continuous
100
AcDbLine
 10
207.8100525376083
 20
264.9168028068465
 30
0.0
 11
212.0715515376083
 21
264.9168028068465
 31
0.0
  0
ARC
  5
558
330
18
100
AcDbEntity
  8
1
  6
Continuous
100
AcDbCircle
 10
211.6192665376082
 20
225.0853398068467
 30
0.0
 40
14.080779
100
AcDbArc
 50
158.648741
 51
317.083139
  0
ARC
  5
559
330
18
100
AcDbEntity
  8
1
  6
Continuous
100
AcDbCircle
 10
210.5100525376081
 20
224.5763888068467
 30
0.0
 40
13.9
100
AcDbArc
 50
140.8271629999999
 51
288.6091809999998
  0
LINE
  5
55A
330
18
100
AcDbEntity
  8
1
  6
Continuous
100
AcDbLine
 10
213.2052045376082
 20
267.8168028068467
 30
0.0
 11
198.5049085376083
 21
230.2119348068467
 31
0.0
  0
CIRCLE
  5
55B
330
18
100
AcDbEntity
  8
1
  6
Continuous
100
AcDbCircle
 10
210.5100525376081
 20
224.5763888068467
 30
0.0
 40
10.5
  0
CIRCLE
  5
55C
330
18
100
AcDbEntity
  8
2
  6
Continuous
100
AcDbCircle
 10
210.5100525376081
 20
224.5763888068467
 30
0.0
 40
5.052999999999999
  0
CIRCLE
  5
55D
330
18
100
AcDbEntity
  8
1
  6
Continuous
100
AcDbCircle
 10
210.5100525376081
 20
224.5763888068467
 30
0.0
 40
6.0
  0
LINE
  5
55E
330
18
100
AcDbEntity
  8
1
  6
Continuous
100
AcDbLine
 10
202.0100525376083
 20
219.6689118068467
 30
0.0
 11
210.5100525376081
 21
214.7614348068467
 31
0.0
  0
LINE
  5
55F
330
18
100
AcDbEntity
  8
1
  6
Continuous
100
AcDbLine
 10
210.5100525376081
 20
234.3913438068467
 30
0.0
 11
202.0100525376083
 21
229.4838658068466
 31
0.0
  0
CIRCLE
  5
560
330
18
100
AcDbEntity
  8
1
  6
Continuous
100
AcDbCircle
 10
210.5100525376081
 20
224.5763888068467
 30
0.0
 40
8.5
  0
ARC
  5
561
330
18
100
AcDbEntity
  8
1
  6
Continuous
100
AcDbCircle
 10
210.5100525376081
 20
224.5763888068467
 30
0.0
 40
24.0
100
AcDbArc
 50
102.1101269999998
 51
10.17994599999999
  0
ARC
  5
562
330
18
100
AcDbEntity
  8
1
  6
Continuous
100
AcDbCircle
 10
210.5100525376081
 20
224.5763888068467
 30
0.0
 40
32.5
100
AcDbArc
 50
92.67586899999995
 51
21.184772
  0
ARC
  5
563
330
18
100
AcDbEntity
  8
1
  6
Continuous
100
AcDbCircle
 10
210.5100525376081
 20
224.5763888068467
 30
0.0
 40
18.5
100
AcDbArc
 50
114.316297
 51
355.2585619999999
  0
LINE
  5
564
330
18
100
AcDbEntity
  8
4
  6
CENTER
100
AcDbLine
 10
170.0100525376083
 20
224.5763888068467
 30
0.0
 11
251.0100525376083
 21
224.5763888068467
 31
0.0
  0
LINE
  5
565
330
18
100
AcDbEntity
  8
1
  6
Continuous
100
AcDbLine
 10
202.0100525376083
 20
219.6689118068467
 30
0.0
 11
202.0100525376083
 21
229.4838658068466
 31
0.0
  0
LINE
  5
566
330
18
100
AcDbEntity
  8
1
  6
Continuous
100
AcDbLine
 10
207.8100525376083
 20
267.8168028068467
 30
0.0
 11
207.8100525376083
 21
264.9168028068465
 31
0.0
  0
ARC
  5
567
330
18
100
AcDbEntity
  8
1
  6
Continuous
100
AcDbCircle
 10
865.4171305376079
 20
-326.5114361931532
 30
0.0
 40
840.7793699999999
100
AcDbArc
 50
137.688626
 51
138.609994
  0
LINE
  5
568
330
18
100
AcDbEntity
  8
1
  6
Continuous
100
AcDbLine
 10
225.0086575376083
 20
220.6505848068467
 30
0.0
 11
225.0086575376083
 21
266.1051358068466
 31
0.0
  0
LINE
  5
569
330
18
100
AcDbEntity
  8
1
  6
Continuous
100
AcDbLine
 10
210.5100525376081
 20
234.3913438068467
 30
0.0
 11
219.0100525376081
 21
229.4838658068466
 31
0.0
  0
ARC
  5
56A
330
18
100
AcDbEntity
  8
1
  6
Continuous
100
AcDbCircle
 10
-127.9605794623916
 20
548.9609178068467
 30
0.0
 40
483.324522
100
AcDbArc
 50
316.769493
 51
318.6099939999998
  0
LINE
  5
56B
330
18
100
AcDbEntity
  8
1
  6
Continuous
100
AcDbLine
 10
219.0100525376081
 20
219.6689118068467
 30
0.0
 11
219.0100525376081
 21
229.4838658068466
 31
0.0
  0
LINE
  5
56C
330
18
100
AcDbEntity
  8
1
  6
Continuous
100
AcDbLine
 10
219.0100525376081
 20
219.6689118068467
 30
0.0
 11
210.5100525376081
 21
214.7614348068467
 31
0.0
  0
ARC
  5
56D
330
18
100
AcDbEntity
  8
1
  6
Continuous
100
AcDbCircle
 10
664.7245865376081
 20
-196.2146561931531
 30
0.0
 40
604.626032
100
AcDbArc
 50
136.7694929999997
 51
137.0831389999999
  0
LINE
  5
56E
330
18
100
AcDbEntity
  8
1
  6
Continuous
100
AcDbLine
 10
239.9845695376083
 20
267.8168028068467
 30
0.0
 11
241.9845695376083
 21
269.8768028068467
 31
0.0
  0
LINE
  5
56F
330
18
100
AcDbEntity
  8
1
  6
Continuous
100
AcDbLine
 10
241.7218275376082
 20
267.8168028068467
 30
0.0
 11
239.7218275376082
 21
269.8768028068467
 31
0.0
  0
LINE
  5
570
330
18
100
AcDbEntity
  8
1
  6
Continuous
100
AcDbLine
 10
224.1453775376082
 20
267.8168028068467
 30
0.0
 11
226.1453775376082
 21
269.8768028068467
 31
0.0
  0
LINE
  5
571
330
18
100
AcDbEntity
  8
1
  6
Continuous
100
AcDbLine
 10
225.8826355376083
 20
267.8168028068467
 30
0.0
 11
223.8826355376083
 21
269.8768028068467
 31
0.0
  0
LINE
  5
572
330
18
100
AcDbEntity
  8
1
  6
Continuous
100
AcDbLine
 10
217.3571525376082
 20
267.8168028068467
 30
0.0
 11
219.3571525376082
 21
269.8768028068467
 31
0.0
  0
LINE
  5
573
330
18
100
AcDbEntity
  8
1
  6
Continuous
100
AcDbLine
 10
219.0944105376082
 20
267.8168028068467
 30
0.0
 11
217.0944105376082
 21
269.8768028068467
 31
0.0
  0
LINE
  5
574
330
18
100
AcDbEntity
  8
1
  6
Continuous
100
AcDbLine
 10
216.8100525376082
 20
271.3768028068467
 30
0.0
 11
216.8100525376082
 21
267.8168028068467
 31
0.0
  0
LINE
  5
575
330
18
100
AcDbEntity
  8
1
  6
Continuous
100
AcDbLine
 10
216.8100525376082
 20
269.5924448068467
 30
0.0
 11
217.0944105376082
 21
269.8768028068467
 31
0.0
  0
LINE
  5
576
330
18
100
AcDbEntity
  8
1
  6
Continuous
100
AcDbLine
 10
216.8316695376083
 20
267.8168028068467
 30
0.0
 11
216.8100525376082
 21
267.8384188068467
 31
0.0
  0
LINE
  5
577
330
18
100
AcDbEntity
  8
1
  6
Continuous
100
AcDbLine
 10
221.8826355376083
 20
267.8168028068467
 30
0.0
 11
223.8826355376083
 21
269.8768028068467
 31
0.0
  0
LINE
  5
578
330
18
100
AcDbEntity
  8
1
  6
Continuous
100
AcDbLine
 10
223.6198945376083
 20
267.8168028068467
 30
0.0
 11
221.6198945376083
 21
269.8768028068467
 31
0.0
  0
LINE
  5
579
330
18
100
AcDbEntity
  8
1
  6
Continuous
100
AcDbLine
 10
219.6198945376082
 20
267.8168028068467
 30
0.0
 11
221.6198945376083
 21
269.8768028068467
 31
0.0
  0
LINE
  5
57A
330
18
100
AcDbEntity
  8
1
  6
Continuous
100
AcDbLine
 10
221.3571525376082
 20
267.8168028068467
 30
0.0
 11
219.3571525376082
 21
269.8768028068467
 31
0.0
  0
LINE
  5
57B
330
18
100
AcDbEntity
  8
1
  6
Continuous
100
AcDbLine
 10
233.1963445376083
 20
267.8168028068467
 30
0.0
 11
235.1963445376083
 21
269.8768028068467
 31
0.0
  0
LINE
  5
57C
330
18
100
AcDbEntity
  8
1
  6
Continuous
100
AcDbLine
 10
234.9336025376083
 20
267.8168028068467
 30
0.0
 11
232.9336025376083
 21
269.8768028068467
 31
0.0
  0
LINE
  5
57D
330
18
100
AcDbEntity
  8
1
  6
Continuous
100
AcDbLine
 10
228.6708615376083
 20
267.8168028068467
 30
0.0
 11
230.6708615376081
 21
269.8768028068467
 31
0.0
  0
LINE
  5
57E
330
18
100
AcDbEntity
  8
1
  6
Continuous
100
AcDbLine
 10
230.4081195376083
 20
267.8168028068467
 30
0.0
 11
228.4081195376083
 21
269.8768028068467
 31
0.0
  0
LINE
  5
57F
330
18
100
AcDbEntity
  8
1
  6
Continuous
100
AcDbLine
 10
230.9336025376082
 20
267.8168028068467
 30
0.0
 11
232.9336025376083
 21
269.8768028068467
 31
0.0
  0
LINE
  5
580
330
18
100
AcDbEntity
  8
1
  6
Continuous
100
AcDbLine
 10
232.6708615376082
 20
267.8168028068467
 30
0.0
 11
230.6708615376081
 21
269.8768028068467
 31
0.0
  0
LINE
  5
581
330
18
100
AcDbEntity
  8
1
  6
Continuous
100
AcDbLine
 10
226.4081195376083
 20
267.8168028068467
 30
0.0
 11
228.4081195376083
 21
269.8768028068467
 31
0.0
  0
LINE
  5
582
330
18
100
AcDbEntity
  8
1
  6
Continuous
100
AcDbLine
 10
228.1453775376082
 20
267.8168028068467
 30
0.0
 11
226.1453775376082
 21
269.8768028068467
 31
0.0
  0
LINE
  5
583
330
18
100
AcDbEntity
  8
1
  6
Continuous
100
AcDbLine
 10
237.7218275376082
 20
267.8168028068467
 30
0.0
 11
239.7218275376082
 21
269.8768028068467
 31
0.0
  0
LINE
  5
584
330
18
100
AcDbEntity
  8
1
  6
Continuous
100
AcDbLine
 10
239.4590865376082
 20
267.8168028068467
 30
0.0
 11
237.4590865376083
 21
269.8768028068467
 31
0.0
  0
LINE
  5
585
330
18
100
AcDbEntity
  8
1
  6
Continuous
100
AcDbLine
 10
235.4590865376083
 20
267.8168028068467
 30
0.0
 11
237.4590865376083
 21
269.8768028068467
 31
0.0
  0
LINE
  5
586
330
18
100
AcDbEntity
  8
1
  6
Continuous
100
AcDbLine
 10
237.1963445376083
 20
267.8168028068467
 30
0.0
 11
235.1963445376083
 21
269.8768028068467
 31
0.0
  0
ARC
  5
587
330
18
100
AcDbEntity
  8
1
  6
Continuous
100
AcDbCircle
 10
237.3484965376083
 20
273.6204908068467
 30
0.0
 40
29.385717
100
AcDbArc
 50
308.873059
 51
314.352866
  0
ARC
  5
588
330
18
100
AcDbEntity
  8
1
  6
Continuous
100
AcDbCircle
 10
315.5041095376081
 20
174.0705088068466
 30
0.0
 40
97.148672
100
AcDbArc
 50
130.2311639999997
 51
137.688626
  0
ARC
  5
589
330
18
100
AcDbEntity
  8
1
  6
Continuous
100
AcDbCircle
 10
359.9264145376082
 20
121.5617678068466
 30
0.0
 40
165.927369
100
AcDbArc
 50
128.873059
 51
130.2311639999997
  0
LINE
  5
58A
330
18
100
AcDbEntity
  8
1
  6
Continuous
100
AcDbLine
 10
255.8237615376083
 20
267.8168028068467
 30
0.0
 11
257.8237615376083
 21
269.8768028068467
 31
0.0
  0
LINE
  5
58B
330
18
100
AcDbEntity
  8
1
  6
Continuous
100
AcDbLine
 10
257.5610195376081
 20
267.8168028068467
 30
0.0
 11
255.5610195376082
 21
269.8768028068467
 31
0.0
  0
LINE
  5
58C
330
18
100
AcDbEntity
  8
1
  6
Continuous
100
AcDbLine
 10
249.0355365376083
 20
267.8168028068467
 30
0.0
 11
251.0355365376083
 21
269.8768028068467
 31
0.0
  0
LINE
  5
58D
330
18
100
AcDbEntity
  8
1
  6
Continuous
100
AcDbLine
 10
250.7727945376083
 20
267.8168028068467
 30
0.0
 11
248.7727945376083
 21
269.8768028068467
 31
0.0
  0
LINE
  5
58E
330
18
100
AcDbEntity
  8
1
  6
Continuous
100
AcDbLine
 10
243.9845695376083
 20
267.8168028068467
 30
0.0
 11
241.9845695376083
 21
269.8768028068467
 31
0.0
  0
LINE
  5
58F
330
18
100
AcDbEntity
  8
1
  6
Continuous
100
AcDbLine
 10
244.5100525376082
 20
267.8168028068467
 30
0.0
 11
246.5100525376081
 21
269.8768028068467
 31
0.0
  0
LINE
  5
590
330
18
100
AcDbEntity
  8
1
  6
Continuous
100
AcDbLine
 10
246.2473115376082
 20
267.8168028068467
 30
0.0
 11
244.2473115376082
 21
269.8768028068467
 31
0.0
  0
LINE
  5
591
330
18
100
AcDbEntity
  8
1
  6
Continuous
100
AcDbLine
 10
246.7727945376083
 20
267.8168028068467
 30
0.0
 11
248.7727945376083
 21
269.8768028068467
 31
0.0
  0
LINE
  5
592
330
18
100
AcDbEntity
  8
1
  6
Continuous
100
AcDbLine
 10
248.5100525376081
 20
267.8168028068467
 30
0.0
 11
246.5100525376081
 21
269.8768028068467
 31
0.0
  0
LINE
  5
593
330
18
100
AcDbEntity
  8
1
  6
Continuous
100
AcDbLine
 10
242.2473115376082
 20
267.8168028068467
 30
0.0
 11
244.2473115376082
 21
269.8768028068467
 31
0.0
  0
LINE
  5
594
330
18
100
AcDbEntity
  8
1
  6
Continuous
100
AcDbLine
 10
253.5610195376082
 20
267.8168028068467
 30
0.0
 11
255.5610195376082
 21
269.8768028068467
 31
0.0
  0
LINE
  5
595
330
18
100
AcDbEntity
  8
1
  6
Continuous
100
AcDbLine
 10
255.2982785376083
 20
267.8168028068467
 30
0.0
 11
253.2982785376083
 21
269.8768028068467
 31
0.0
  0
LINE
  5
596
330
18
100
AcDbEntity
  8
1
  6
Continuous
100
AcDbLine
 10
251.2982785376083
 20
267.8168028068467
 30
0.0
 11
253.2982785376083
 21
269.8768028068467
 31
0.0
  0
LINE
  5
597
330
18
100
AcDbEntity
  8
1
  6
Continuous
100
AcDbLine
 10
253.0355365376083
 20
267.8168028068467
 30
0.0
 11
251.0355365376083
 21
269.8768028068467
 31
0.0
  0
ARC
  5
598
330
18
100
AcDbEntity
  8
1
  6
Continuous
100
AcDbCircle
 10
269.7446085376082
 20
225.8168828068466
 30
0.0
 40
30.0
100
AcDbArc
 50
90.17333
 51
106.3526429999999
  0
ARC
  5
599
330
18
100
AcDbEntity
  8
1
  6
Continuous
100
AcDbCircle
 10
263.5954615376083
 20
246.7738288068467
 30
0.0
 40
8.159542
100
AcDbArc
 50
103.8505309999999
 51
134.3528659999997
  0
ARC
  5
59A
330
18
100
AcDbEntity
  8
1
  6
Continuous
100
AcDbCircle
 10
269.6916685376081
 20
243.3168028068467
 30
0.0
 40
12.5
100
AcDbArc
 50
90.0
 51
90.17333
  0
LINE
  5
59B
330
18
100
AcDbEntity
  8
1
  6
Continuous
100
AcDbLine
 10
262.6119865376083
 20
267.8168028068467
 30
0.0
 11
264.6119865376083
 21
269.8768028068467
 31
0.0
  0
LINE
  5
59C
330
18
100
AcDbEntity
  8
1
  6
Continuous
100
AcDbLine
 10
264.3492445376083
 20
267.8168028068467
 30
0.0
 11
262.3492445376083
 21
269.8768028068467
 31
0.0
  0
LINE
  5
59D
330
18
100
AcDbEntity
  8
1
  6
Continuous
100
AcDbLine
 10
258.0865035376083
 20
267.8168028068467
 30
0.0
 11
260.0865035376083
 21
269.8768028068467
 31
0.0
  0
LINE
  5
59E
330
18
100
AcDbEntity
  8
1
  6
Continuous
100
AcDbLine
 10
259.8237615376083
 20
267.8168028068467
 30
0.0
 11
257.8237615376083
 21
269.8768028068467
 31
0.0
  0
LINE
  5
59F
330
18
100
AcDbEntity
  8
1
  6
Continuous
100
AcDbLine
 10
260.3492445376083
 20
267.8168028068467
 30
0.0
 11
262.3492445376083
 21
269.8768028068467
 31
0.0
  0
LINE
  5
5A0
330
18
100
AcDbEntity
  8
1
  6
Continuous
100
AcDbLine
 10
262.0865035376083
 20
267.8168028068467
 30
0.0
 11
260.0865035376083
 21
269.8768028068467
 31
0.0
  0
LINE
  5
5A1
330
18
100
AcDbEntity
  8
1
  6
Continuous
100
AcDbLine
 10
264.8747285376083
 20
267.8168028068467
 30
0.0
 11
266.8747285376083
 21
269.8768028068467
 31
0.0
  0
LINE
  5
5A2
330
18
100
AcDbEntity
  8
1
  6
Continuous
100
AcDbLine
 10
269.4002115376083
 20
267.8168028068467
 30
0.0
 11
271.4002115376083
 21
269.8768028068467
 31
0.0
  0
LINE
  5
5A3
330
18
100
AcDbEntity
  8
1
  6
Continuous
100
AcDbLine
 10
271.1374695376083
 20
267.8168028068467
 30
0.0
 11
269.1374695376083
 21
269.8768028068467
 31
0.0
  0
LINE
  5
5A4
330
18
100
AcDbEntity
  8
1
  6
Continuous
100
AcDbLine
 10
267.1374695376083
 20
267.8168028068467
 30
0.0
 11
269.1374695376083
 21
269.8768028068467
 31
0.0
  0
LINE
  5
5A5
330
18
100
AcDbEntity
  8
1
  6
Continuous
100
AcDbLine
 10
268.8747285376082
 20
267.8168028068467
 30
0.0
 11
266.8747285376083
 21
269.8768028068467
 31
0.0
  0
LINE
  5
5A6
330
18
100
AcDbEntity
  8
1
  6
Continuous
100
AcDbLine
 10
266.6119865376083
 20
267.8168028068467
 30
0.0
 11
264.6119865376083
 21
269.8768028068467
 31
0.0
  0
LINE
  5
5A7
330
18
100
AcDbEntity
  8
1
  6
Continuous
100
AcDbLine
 10
277.8600525376083
 20
263.8168028068467
 30
0.0
 11
277.8600525376083
 21
255.8168028068467
 31
0.0
  0
ARC
  5
5A8
330
18
100
AcDbEntity
  8
1
  6
Continuous
100
AcDbCircle
 10
273.8600525376083
 20
263.8168028068467
 30
0.0
 40
4.0
100
AcDbArc
 50
0.0
 51
90.0
  0
LINE
  5
5A9
330
18
100
AcDbEntity
  8
1
  6
Continuous
100
AcDbLine
 10
273.9256955376083
 20
267.8168028068467
 30
0.0
 11
275.9256955376083
 21
269.8768028068467
 31
0.0
  0
LINE
  5
5AA
330
18
100
AcDbEntity
  8
1
  6
Continuous
100
AcDbLine
 10
275.6629535376083
 20
267.8168028068467
 30
0.0
 11
273.6629535376083
 21
269.8768028068467
 31
0.0
  0
LINE
  5
5AB
330
18
100
AcDbEntity
  8
1
  6
Continuous
100
AcDbLine
 10
276.2100525376082
 20
271.3768028068467
 30
0.0
 11
276.2100525376082
 21
267.8168028068467
 31
0.0
  0
LINE
  5
5AC
330
18
100
AcDbEntity
  8
1
  6
Continuous
100
AcDbLine
 10
276.2100525376082
 20
267.8384188068467
 30
0.0
 11
276.1884365376083
 21
267.8168028068467
 31
0.0
  0
LINE
  5
5AD
330
18
100
AcDbEntity
  8
1
  6
Continuous
100
AcDbLine
 10
276.2100525376082
 20
269.5924448068467
 30
0.0
 11
275.9256955376083
 21
269.8768028068467
 31
0.0
  0
LINE
  5
5AE
330
18
100
AcDbEntity
  8
1
  6
Continuous
100
AcDbLine
 10
363.4100525376081
 20
237.5763888068466
 30
0.0
 11
363.4100525376081
 21
211.5763888068467
 31
0.0
  0
LINE
  5
5AF
330
18
100
AcDbEntity
  8
1
  6
Continuous
100
AcDbLine
 10
363.7100525376081
 20
242.0763888068466
 30
0.0
 11
363.7100525376081
 21
207.0763888068465
 31
0.0
  0
LINE
  5
5B0
330
18
100
AcDbEntity
  8
1
  6
Continuous
100
AcDbLine
 10
364.7600525376081
 20
196.6512108068467
 30
0.0
 11
364.7600525376081
 21
252.5015658068467
 31
0.0
  0
LINE
  5
5B1
330
18
100
AcDbEntity
  8
1
  6
Continuous
100
AcDbLine
 10
349.0580525376083
 20
230.5763888068467
 30
0.0
 11
348.2580525376082
 21
229.7763888068467
 31
0.0
  0
LINE
  5
5B2
330
18
100
AcDbEntity
  8
1
  6
Continuous
100
AcDbLine
 10
349.0580525376083
 20
218.5763888068467
 30
0.0
 11
349.0580525376083
 21
230.5763888068467
 31
0.0
  0
LINE
  5
5B3
330
18
100
AcDbEntity
  8
1
  6
Continuous
100
AcDbLine
 10
350.0600525376082
 20
216.0763888068467
 30
0.0
 11
350.0600525376082
 21
233.0763888068467
 31
0.0
  0
ARC
  5
5B4
330
18
100
AcDbEntity
  8
1
  6
Continuous
100
AcDbCircle
 10
354.4049515376082
 20
231.9376048068466
 30
0.0
 40
4.344898999999998
100
AcDbArc
 50
154.3842469999999
 51
214.384247
  0
ARC
  5
5B5
330
18
100
AcDbEntity
  8
1
  6
Continuous
100
AcDbCircle
 10
397.3408275376081
 20
243.9383268068466
 30
0.0
 40
42.05495399999999
100
AcDbArc
 50
181.87925
 51
210.6435219999999
  0
ARC
  5
5B6
330
18
100
AcDbEntity
  8
1
  6
Continuous
100
AcDbCircle
 10
397.3408275376081
 20
243.9383268068466
 30
0.0
 40
44.954954
100
AcDbArc
 50
181.87925
 51
210.6435219999999
  0
LINE
  5
5B7
330
18
100
AcDbEntity
  8
1
  6
Continuous
100
AcDbLine
 10
362.9600525376082
 20
255.8168028068467
 30
0.0
 11
362.9600525376082
 21
211.0483488068467
 31
0.0
  0
ARC
  5
5B8
330
18
100
AcDbEntity
  8
1
  6
Continuous
100
AcDbCircle
 10
368.7600525376081
 20
196.6512108068467
 30
0.0
 40
4.0
100
AcDbArc
 50
180.0
 51
265.6108269999999
  0
ARC
  5
5B9
330
18
100
AcDbEntity
  8
1
  6
Continuous
100
AcDbCircle
 10
364.7100525376082
 20
207.0763888068465
 30
0.0
 40
1.0
100
AcDbArc
 50
180.0
 51
270.0
  0
LINE
  5
5BA
330
18
100
AcDbEntity
  8
1
  6
Continuous
100
AcDbLine
 10
350.0600525376082
 20
218.5763888068467
 30
0.0
 11
349.0580525376083
 21
218.5763888068467
 31
0.0
  0
LINE
  5
5BB
330
18
100
AcDbEntity
  8
2
  6
Continuous
100
AcDbLine
 10
350.0600525376082
 20
229.6293888068467
 30
0.0
 11
348.2580525376082
 21
229.6293888068467
 31
0.0
  0
LINE
  5
5BC
330
18
100
AcDbEntity
  8
2
  6
Continuous
100
AcDbLine
 10
350.0600525376082
 20
219.5233888068467
 30
0.0
 11
348.2580525376082
 21
219.5233888068467
 31
0.0
  0
LINE
  5
5BD
330
18
100
AcDbEntity
  8
1
  6
Continuous
100
AcDbLine
 10
348.2580525376082
 20
219.3763888068467
 30
0.0
 11
348.2580525376082
 21
229.7763888068467
 31
0.0
  0
LINE
  5
5BE
330
18
100
AcDbEntity
  8
1
  6
Continuous
100
AcDbLine
 10
349.0580525376083
 20
218.5763888068467
 30
0.0
 11
348.2580525376082
 21
219.3763888068467
 31
0.0
  0
LINE
  5
5BF
330
18
100
AcDbEntity
  8
1
  6
Continuous
100
AcDbLine
 10
357.0600525376081
 20
223.9781908068467
 30
0.0
 11
357.0600525376081
 21
216.0763888068467
 31
0.0
  0
ARC
  5
5C0
330
18
100
AcDbEntity
  8
1
  6
Continuous
100
AcDbCircle
 10
340.8192425376082
 20
224.5763888068467
 30
0.0
 40
16.24081099999999
100
AcDbArc
 50
342.4120459999998
 51
357.9623549999998
  0
ARC
  5
5C1
330
18
100
AcDbEntity
  8
1
  6
Continuous
100
AcDbCircle
 10
366.3008635376081
 20
224.5763888068467
 30
0.0
 40
16.24081099999999
100
AcDbArc
 50
162.412046
 51
197.5879539999999
  0
ARC
  5
5C2
330
18
100
AcDbEntity
  8
1
  6
Continuous
100
AcDbCircle
 10
352.7151545376081
 20
217.2151728068466
 30
0.0
 40
4.344898999999998
100
AcDbArc
 50
334.384247
 51
34.38424699999997
  0
ARC
  5
5C3
330
18
100
AcDbEntity
  8
1
  6
Continuous
100
AcDbCircle
 10
354.4049515376082
 20
217.2151728068466
 30
0.0
 40
4.344898999999998
100
AcDbArc
 50
145.615753
 51
205.615753
  0
LINE
  5
5C4
330
18
100
AcDbEntity
  8
1
  6
Continuous
100
AcDbLine
 10
357.0600525376081
 20
214.0763888068467
 30
0.0
 11
357.0600525376081
 21
223.9781908068467
 31
0.0
  0
ARC
  5
5C5
330
18
100
AcDbEntity
  8
1
  6
Continuous
100
AcDbCircle
 10
350.0600525376082
 20
215.9280568068466
 30
0.0
 40
12.9
100
AcDbArc
 50
0.0
 51
30.643522
  0
ARC
  5
5C6
330
18
100
AcDbEntity
  8
1
  6
Continuous
100
AcDbCircle
 10
350.0600525376082
 20
215.9280568068466
 30
0.0
 40
10.0
100
AcDbArc
 50
0.0
 51
30.643522
  0
LINE
  5
5C7
330
18
100
AcDbEntity
  8
1
  6
Continuous
100
AcDbLine
 10
360.0600525376083
 20
214.0763888068467
 30
0.0
 11
357.0600525376081
 21
214.0763888068467
 31
0.0
  0
LINE
  5
5C8
330
18
100
AcDbEntity
  8
1
  6
Continuous
100
AcDbLine
 10
356.3008635376083
 20
219.6689118068467
 30
0.0
 11
350.8192425376082
 21
219.6689118068467
 31
0.0
  0
LINE
  5
5C9
330
18
100
AcDbEntity
  8
1
  6
Continuous
100
AcDbLine
 10
350.8192425376082
 20
214.7614348068467
 30
0.0
 11
350.0600525376082
 21
216.0763888068467
 31
0.0
  0
LINE
  5
5CA
330
18
100
AcDbEntity
  8
1
  6
Continuous
100
AcDbLine
 10
356.3008635376083
 20
214.7614348068467
 30
0.0
 11
357.0600525376081
 21
216.0763888068467
 31
0.0
  0
LINE
  5
5CB
330
18
100
AcDbEntity
  8
1
  6
Continuous
100
AcDbLine
 10
356.3008635376083
 20
214.7614348068467
 30
0.0
 11
350.8192425376082
 21
214.7614348068467
 31
0.0
  0
LINE
  5
5CC
330
18
100
AcDbEntity
  8
1
  6
Continuous
100
AcDbLine
 10
363.4100525376081
 20
216.5763888068467
 30
0.0
 11
362.9600525376082
 21
216.5763888068467
 31
0.0
  0
LINE
  5
5CD
330
18
100
AcDbEntity
  8
1
  6
Continuous
100
AcDbLine
 10
363.4100525376081
 20
211.5763888068467
 30
0.0
 11
363.7100525376081
 21
211.5763888068467
 31
0.0
  0
LINE
  5
5CE
330
18
100
AcDbEntity
  8
1
  6
Continuous
100
AcDbLine
 10
362.9600525376082
 20
211.0483178068467
 30
0.0
 11
360.0600525376083
 21
211.0483178068467
 31
0.0
  0
LINE
  5
5CF
330
18
100
AcDbEntity
  8
1
  6
Continuous
100
AcDbLine
 10
360.0600525376083
 20
215.9280568068466
 30
0.0
 11
360.0600525376083
 21
211.0483488068467
 31
0.0
  0
LINE
  5
5D0
330
18
100
AcDbEntity
  8
1
  6
Continuous
100
AcDbLine
 10
354.7730415376082
 20
229.4838658068466
 30
0.0
 11
350.8192425376082
 21
229.4838658068466
 31
0.0
  0
ARC
  5
5D1
330
18
100
AcDbEntity
  8
1
  6
Continuous
100
AcDbCircle
 10
368.7600525376081
 20
252.5015658068467
 30
0.0
 40
4.0
100
AcDbArc
 50
124.0233869999999
 51
180.0
  0
LINE
  5
5D2
330
18
100
AcDbEntity
  8
1
  6
Continuous
100
AcDbLine
 10
365.3953775376083
 20
267.8167888068467
 30
0.0
 11
363.3953775376083
 21
269.8767888068466
 31
0.0
  0
LINE
  5
5D3
330
18
100
AcDbEntity
  8
1
  6
Continuous
100
AcDbLine
 10
363.6581195376083
 20
267.8167888068467
 30
0.0
 11
365.6581195376081
 21
269.8767888068466
 31
0.0
  0
ARC
  5
5D4
330
18
100
AcDbEntity
  8
1
  6
Continuous
100
AcDbCircle
 10
399.0404815376083
 20
242.5648988068467
 30
0.0
 40
43.72887699999998
100
AcDbArc
 50
162.359296
 51
180.13206
  0
ARC
  5
5D5
330
18
100
AcDbEntity
  8
1
  6
Continuous
100
AcDbCircle
 10
383.7600525376082
 20
242.4641088068465
 30
0.0
 40
31.35
100
AcDbArc
 50
158.581685
 51
180.0
  0
LINE
  5
5D6
330
18
100
AcDbEntity
  8
1
  6
Continuous
100
AcDbLine
 10
352.4100525376081
 20
264.8167888068467
 30
0.0
 11
352.4100525376081
 21
242.4641088068465
 31
0.0
  0
LINE
  5
5D7
330
18
100
AcDbEntity
  8
1
  6
Continuous
100
AcDbLine
 10
350.0600525376082
 20
230.5763888068467
 30
0.0
 11
349.0580525376083
 21
230.5763888068467
 31
0.0
  0
LINE
  5
5D8
330
18
100
AcDbEntity
  8
1
  6
Continuous
100
AcDbLine
 10
353.4113055376082
 20
234.3913438068467
 30
0.0
 11
350.8192425376082
 21
234.3913438068467
 31
0.0
  0
LINE
  5
5D9
330
18
100
AcDbEntity
  8
1
  6
Continuous
100
AcDbLine
 10
350.8192425376082
 20
234.3913438068467
 30
0.0
 11
350.0600525376082
 21
233.0763888068467
 31
0.0
  0
LINE
  5
5DA
330
18
100
AcDbEntity
  8
1
  6
Continuous
100
AcDbLine
 10
363.4100525376081
 20
232.5763888068467
 30
0.0
 11
362.9600525376082
 21
232.5763888068467
 31
0.0
  0
LINE
  5
5DB
330
18
100
AcDbEntity
  8
1
  6
Continuous
100
AcDbLine
 10
363.4100525376081
 20
237.5763888068466
 30
0.0
 11
363.7100525376081
 21
237.5763888068466
 31
0.0
  0
ARC
  5
5DC
330
18
100
AcDbEntity
  8
1
  6
Continuous
100
AcDbCircle
 10
364.7100525376082
 20
242.0763888068466
 30
0.0
 40
1.0
100
AcDbArc
 50
90.0
 51
180.0
  0
ARC
  5
5DD
330
18
100
AcDbEntity
  8
1
  6
Continuous
100
AcDbCircle
 10
357.3679285376081
 20
252.8168028068467
 30
0.0
 40
3.0
100
AcDbArc
 50
90.0
 51
158.581685
  0
LINE
  5
5DE
330
18
100
AcDbEntity
  8
1
  6
Continuous
100
AcDbLine
 10
358.6071525376083
 20
267.8167888068467
 30
0.0
 11
356.6071525376082
 21
269.8767888068466
 31
0.0
  0
LINE
  5
5DF
330
18
100
AcDbEntity
  8
1
  6
Continuous
100
AcDbLine
 10
356.8698945376084
 20
267.8167888068467
 30
0.0
 11
358.8698945376084
 21
269.8767888068466
 31
0.0
  0
ARC
  5
5E0
330
18
100
AcDbEntity
  8
1
  6
Continuous
100
AcDbCircle
 10
355.4100525376081
 20
264.8167888068467
 30
0.0
 40
3.0
100
AcDbArc
 50
90.0
 51
180.0
  0
LINE
  5
5E1
330
18
100
AcDbEntity
  8
1
  6
Continuous
100
AcDbLine
 10
354.0816695376082
 20
267.8167888068467
 30
0.0
 11
354.0600525376082
 21
267.8384048068466
 31
0.0
  0
LINE
  5
5E2
330
18
100
AcDbEntity
  8
1
  6
Continuous
100
AcDbLine
 10
354.0600525376082
 20
269.5924308068466
 30
0.0
 11
354.3444105376082
 21
269.8767888068466
 31
0.0
  0
LINE
  5
5E3
330
18
100
AcDbEntity
  8
1
  6
Continuous
100
AcDbLine
 10
354.0600525376082
 20
271.3767888068466
 30
0.0
 11
354.0600525376082
 21
267.8167888068467
 31
0.0
  0
LINE
  5
5E4
330
18
100
AcDbEntity
  8
1
  6
Continuous
100
AcDbLine
 10
356.3444105376082
 20
267.8167888068467
 30
0.0
 11
354.3444105376082
 21
269.8767888068466
 31
0.0
  0
LINE
  5
5E5
330
18
100
AcDbEntity
  8
1
  6
Continuous
100
AcDbLine
 10
354.6071525376082
 20
267.8167888068467
 30
0.0
 11
356.6071525376082
 21
269.8767888068466
 31
0.0
  0
LINE
  5
5E6
330
18
100
AcDbEntity
  8
1
  6
Continuous
100
AcDbLine
 10
360.8698945376084
 20
267.8167888068467
 30
0.0
 11
358.8698945376084
 21
269.8767888068466
 31
0.0
  0
LINE
  5
5E7
330
18
100
AcDbEntity
  8
1
  6
Continuous
100
AcDbLine
 10
359.1326355376083
 20
267.8167888068467
 30
0.0
 11
361.1326355376083
 21
269.8767888068466
 31
0.0
  0
LINE
  5
5E8
330
18
100
AcDbEntity
  8
1
  6
Continuous
100
AcDbLine
 10
363.1326355376083
 20
267.8167888068467
 30
0.0
 11
361.1326355376083
 21
269.8767888068466
 31
0.0
  0
LINE
  5
5E9
330
18
100
AcDbEntity
  8
1
  6
Continuous
100
AcDbLine
 10
361.3953775376083
 20
267.8167888068467
 30
0.0
 11
363.3953775376083
 21
269.8767888068466
 31
0.0
  0
LINE
  5
5EA
330
18
100
AcDbEntity
  8
1
  6
Continuous
100
AcDbLine
 10
379.4973115376083
 20
267.8167888068467
 30
0.0
 11
381.4973115376083
 21
269.8767888068466
 31
0.0
  0
LINE
  5
5EB
330
18
100
AcDbEntity
  8
1
  6
Continuous
100
AcDbLine
 10
381.2345695376084
 20
267.8167888068467
 30
0.0
 11
379.2345695376084
 21
269.8767888068466
 31
0.0
  0
LINE
  5
5EC
330
18
100
AcDbEntity
  8
1
  6
Continuous
100
AcDbLine
 10
374.4463445376084
 20
267.8167888068467
 30
0.0
 11
372.4463445376084
 21
269.8767888068466
 31
0.0
  0
LINE
  5
5ED
330
18
100
AcDbEntity
  8
1
  6
Continuous
100
AcDbLine
 10
372.7090865376084
 20
267.8167888068467
 30
0.0
 11
374.7090865376084
 21
269.8767888068466
 31
0.0
  0
LINE
  5
5EE
330
18
100
AcDbEntity
  8
1
  6
Continuous
100
AcDbLine
 10
369.9208615376081
 20
267.8167888068467
 30
0.0
 11
367.9208615376081
 21
269.8767888068466
 31
0.0
  0
LINE
  5
5EF
330
18
100
AcDbEntity
  8
1
  6
Continuous
100
AcDbLine
 10
368.1836025376081
 20
267.8167888068467
 30
0.0
 11
370.1836025376081
 21
269.8767888068466
 31
0.0
  0
LINE
  5
5F0
330
18
100
AcDbEntity
  8
1
  6
Continuous
100
AcDbLine
 10
367.6581195376081
 20
267.8167888068467
 30
0.0
 11
365.6581195376081
 21
269.8767888068466
 31
0.0
  0
LINE
  5
5F1
330
18
100
AcDbEntity
  8
1
  6
Continuous
100
AcDbLine
 10
365.9208615376081
 20
267.8167888068467
 30
0.0
 11
367.9208615376081
 21
269.8767888068466
 31
0.0
  0
LINE
  5
5F2
330
18
100
AcDbEntity
  8
1
  6
Continuous
100
AcDbLine
 10
372.1836025376081
 20
267.8167888068467
 30
0.0
 11
370.1836025376081
 21
269.8767888068466
 31
0.0
  0
LINE
  5
5F3
330
18
100
AcDbEntity
  8
1
  6
Continuous
100
AcDbLine
 10
370.4463445376084
 20
267.8167888068467
 30
0.0
 11
372.4463445376084
 21
269.8767888068466
 31
0.0
  0
LINE
  5
5F4
330
18
100
AcDbEntity
  8
1
  6
Continuous
100
AcDbLine
 10
378.9718275376082
 20
267.8167888068467
 30
0.0
 11
376.9718275376082
 21
269.8767888068466
 31
0.0
  0
LINE
  5
5F5
330
18
100
AcDbEntity
  8
1
  6
Continuous
100
AcDbLine
 10
377.2345695376084
 20
267.8167888068467
 30
0.0
 11
379.2345695376084
 21
269.8767888068466
 31
0.0
  0
LINE
  5
5F6
330
18
100
AcDbEntity
  8
1
  6
Continuous
100
AcDbLine
 10
376.7090865376084
 20
267.8167888068467
 30
0.0
 11
374.7090865376084
 21
269.8767888068466
 31
0.0
  0
LINE
  5
5F7
330
18
100
AcDbEntity
  8
1
  6
Continuous
100
AcDbLine
 10
374.9718275376082
 20
267.8167888068467
 30
0.0
 11
376.9718275376082
 21
269.8767888068466
 31
0.0
  0
LINE
  5
5F8
330
18
100
AcDbEntity
  8
1
  6
Continuous
100
AcDbLine
 10
386.2855365376081
 20
267.8167888068467
 30
0.0
 11
388.2855365376082
 21
269.8767888068466
 31
0.0
  0
LINE
  5
5F9
330
18
100
AcDbEntity
  8
1
  6
Continuous
100
AcDbLine
 10
385.7600525376082
 20
267.8167888068467
 30
0.0
 11
383.7600525376082
 21
269.8767888068466
 31
0.0
  0
LINE
  5
5FA
330
18
100
AcDbEntity
  8
1
  6
Continuous
100
AcDbLine
 10
384.0227945376082
 20
267.8167888068467
 30
0.0
 11
386.0227945376081
 21
269.8767888068466
 31
0.0
  0
LINE
  5
5FB
330
18
100
AcDbEntity
  8
1
  6
Continuous
100
AcDbLine
 10
383.4973115376083
 20
267.8167888068467
 30
0.0
 11
381.4973115376083
 21
269.8767888068466
 31
0.0
  0
LINE
  5
5FC
330
18
100
AcDbEntity
  8
1
  6
Continuous
100
AcDbLine
 10
381.7600525376082
 20
267.8167888068467
 30
0.0
 11
383.7600525376082
 21
269.8767888068466
 31
0.0
  0
LINE
  5
5FD
330
18
100
AcDbEntity
  8
1
  6
Continuous
100
AcDbLine
 10
388.0227945376081
 20
267.8167888068467
 30
0.0
 11
386.0227945376081
 21
269.8767888068466
 31
0.0
  0
LINE
  5
5FE
330
18
100
AcDbEntity
  8
1
  6
Continuous
100
AcDbLine
 10
390.2855365376082
 20
267.8167888068467
 30
0.0
 11
388.2855365376082
 21
269.8767888068466
 31
0.0
  0
LINE
  5
5FF
330
18
100
AcDbEntity
  8
1
  6
Continuous
100
AcDbLine
 10
388.5482785376082
 20
267.8167888068467
 30
0.0
 11
390.5482785376081
 21
269.8767888068466
 31
0.0
  0
LINE
  5
600
330
18
100
AcDbEntity
  8
1
  6
Continuous
100
AcDbLine
 10
394.8110195376083
 20
267.8167888068467
 30
0.0
 11
392.8110195376083
 21
269.8767888068466
 31
0.0
  0
LINE
  5
601
330
18
100
AcDbEntity
  8
1
  6
Continuous
100
AcDbLine
 10
393.0737615376084
 20
267.8167888068467
 30
0.0
 11
395.0737615376084
 21
269.8767888068466
 31
0.0
  0
LINE
  5
602
330
18
100
AcDbEntity
  8
1
  6
Continuous
100
AcDbLine
 10
392.5482785376082
 20
267.8167888068467
 30
0.0
 11
390.5482785376081
 21
269.8767888068466
 31
0.0
  0
LINE
  5
603
330
18
100
AcDbEntity
  8
1
  6
Continuous
100
AcDbLine
 10
390.8110195376081
 20
267.8167888068467
 30
0.0
 11
392.8110195376083
 21
269.8767888068466
 31
0.0
  0
LINE
  5
604
330
18
100
AcDbEntity
  8
1
  6
Continuous
100
AcDbLine
 10
94.26493453760834
 20
277.5767588068467
 30
0.0
 11
48.26493453760832
 21
277.5767588068467
 31
0.0
  0
LINE
  5
605
330
18
100
AcDbEntity
  8
1
  6
Continuous
100
AcDbLine
 10
91.26493453760831
 20
282.0767588068466
 30
0.0
 11
51.26493453760831
 21
282.0767588068466
 31
0.0
  0
LINE
  5
606
330
18
100
AcDbEntity
  8
1
  6
Continuous
100
AcDbLine
 10
51.26493453760831
 20
282.0767588068466
 30
0.0
 11
51.26493453760831
 21
277.5767588068467
 31
0.0
  0
LINE
  5
607
330
18
100
AcDbEntity
  8
1
  6
Continuous
100
AcDbLine
 10
81.26493453760831
 20
304.5767588068467
 30
0.0
 11
81.26493453760831
 21
282.0767588068466
 31
0.0
  0
LINE
  5
608
330
18
100
AcDbEntity
  8
2
  6
Continuous
100
AcDbLine
 10
79.9119345376083
 20
305.9297588068466
 30
0.0
 11
79.9119345376083
 21
284.4202228068467
 31
0.0
  0
LINE
  5
609
330
18
100
AcDbEntity
  8
1
  6
Continuous
100
AcDbLine
 10
61.26493453760831
 20
304.5767588068467
 30
0.0
 11
61.26493453760831
 21
282.0767588068466
 31
0.0
  0
LINE
  5
60A
330
18
100
AcDbEntity
  8
2
  6
Continuous
100
AcDbLine
 10
62.6179345376083
 20
305.9297588068466
 30
0.0
 11
62.6179345376083
 21
284.4202228068467
 31
0.0
  0
LINE
  5
60B
330
18
100
AcDbEntity
  8
1
  6
Continuous
100
AcDbLine
 10
61.26493453760831
 20
284.4202228068467
 30
0.0
 11
81.26493453760831
 21
284.4202228068467
 31
0.0
  0
LINE
  5
60C
330
18
100
AcDbEntity
  8
2
  6
Continuous
100
AcDbLine
 10
62.6179345376083
 20
284.4202228068467
 30
0.0
 11
61.26493453760831
 21
282.0767588068466
 31
0.0
  0
LINE
  5
60D
330
18
100
AcDbEntity
  8
2
  6
Continuous
100
AcDbLine
 10
79.9119345376083
 20
284.4202228068467
 30
0.0
 11
81.26493453760831
 21
282.0767588068466
 31
0.0
  0
LINE
  5
60E
330
18
100
AcDbEntity
  8
1
  6
Continuous
100
AcDbLine
 10
71.26493453760831
 20
282.0767588068466
 30
0.0
 11
71.26493453760831
 21
277.5767588068467
 31
0.0
  0
LINE
  5
60F
330
18
100
AcDbEntity
  8
1
  6
Continuous
100
AcDbLine
 10
81.26493453760831
 20
304.5767588068467
 30
0.0
 11
61.26493453760831
 21
304.5767588068467
 31
0.0
  0
LINE
  5
610
330
18
100
AcDbEntity
  8
1
  6
Continuous
100
AcDbLine
 10
78.76493453760831
 20
307.0767588068466
 30
0.0
 11
63.76493453760831
 21
307.0767588068466
 31
0.0
  0
LINE
  5
611
330
18
100
AcDbEntity
  8
1
  6
Continuous
100
AcDbLine
 10
63.76493453760831
 20
307.0767588068466
 30
0.0
 11
61.26493453760831
 21
304.5767588068467
 31
0.0
  0
LINE
  5
612
330
18
100
AcDbEntity
  8
1
  6
Continuous
100
AcDbLine
 10
81.26493453760831
 20
304.5767588068467
 30
0.0
 11
78.76493453760831
 21
307.0767588068466
 31
0.0
  0
LINE
  5
613
330
18
100
AcDbEntity
  8
1
  6
Continuous
100
AcDbLine
 10
91.26493453760831
 20
282.0767588068466
 30
0.0
 11
91.26493453760831
 21
277.5767588068467
 31
0.0
  0
ARC
  5
614
330
18
100
AcDbEntity
  8
1
  6
Continuous
100
AcDbCircle
 10
246.5100525376081
 20
390.1818788068467
 30
0.0
 40
31.35
100
AcDbArc
 50
232.672329
 51
127.3276709999999
  0
CIRCLE
  5
615
330
18
100
AcDbEntity
  8
1
  6
Continuous
100
AcDbCircle
 10
246.5100525376081
 20
390.1818788068467
 30
0.0
 40
29.7
  0
CIRCLE
  5
616
330
18
100
AcDbEntity
  8
1
  6
Continuous
100
AcDbCircle
 10
246.5100525376081
 20
390.1818788068467
 30
0.0
 40
29.0
  0
LINE
  5
617
330
18
100
AcDbEntity
  8
4
  6
CENTER
100
AcDbLine
 10
283.5100525376081
 20
390.1818788068467
 30
0.0
 11
173.0100525376081
 21
390.1818788068467
 31
0.0
  0
LINE
  5
618
330
18
100
AcDbEntity
  8
1
  6
Continuous
100
AcDbLine
 10
210.5100525376081
 20
362.7226898068467
 30
0.0
 11
210.5100525376081
 21
357.2410688068466
 31
0.0
  0
LINE
  5
619
330
18
100
AcDbEntity
  8
1
  6
Continuous
100
AcDbLine
 10
219.0100525376081
 20
356.4818788068464
 30
0.0
 11
219.0100525376081
 21
363.4818788068467
 31
0.0
  0
LINE
  5
61A
330
18
100
AcDbEntity
  8
1
  6
Continuous
100
AcDbLine
 10
202.0100525376083
 20
356.4818788068464
 30
0.0
 11
202.0100525376083
 21
363.4818788068467
 31
0.0
  0
LINE
  5
61B
330
18
100
AcDbEntity
  8
4
  6
CENTER
100
AcDbLine
 10
210.5100525376081
 20
430.6838788068464
 30
0.0
 11
210.5100525376081
 21
348.9818788068467
 31
0.0
  0
LINE
  5
61C
330
18
100
AcDbEntity
  8
4
  6
CENTER
100
AcDbLine
 10
246.5100525376081
 20
427.1818788068467
 30
0.0
 11
246.5100525376081
 21
353.1818788068466
 31
0.0
  0
LINE
  5
61D
330
18
100
AcDbEntity
  8
1
  6
Continuous
100
AcDbLine
 10
215.7100525376082
 20
354.6798788068467
 30
0.0
 11
205.3100525376082
 21
354.6798788068467
 31
0.0
  0
LINE
  5
61E
330
18
100
AcDbEntity
  8
1
  6
Continuous
100
AcDbLine
 10
216.5100525376081
 20
355.4798788068466
 30
0.0
 11
204.5100525376083
 21
355.4798788068466
 31
0.0
  0
LINE
  5
61F
330
18
100
AcDbEntity
  8
1
  6
Continuous
100
AcDbLine
 10
219.0100525376081
 20
356.4818788068464
 30
0.0
 11
202.0100525376083
 21
356.4818788068464
 31
0.0
  0
ARC
  5
620
330
18
100
AcDbEntity
  8
1
  6
Continuous
100
AcDbCircle
 10
206.2600525376083
 20
368.7573858068467
 30
0.0
 40
12.275507
100
AcDbArc
 50
249.7438419999999
 51
290.256158
  0
LINE
  5
621
330
18
100
AcDbEntity
  8
1
  6
Continuous
100
AcDbLine
 10
204.5100525376083
 20
356.4818788068464
 30
0.0
 11
204.5100525376083
 21
355.4798788068466
 31
0.0
  0
LINE
  5
622
330
18
100
AcDbEntity
  8
2
  6
Continuous
100
AcDbLine
 10
205.4570525376083
 20
356.4818788068464
 30
0.0
 11
205.4570525376083
 21
354.6798788068467
 31
0.0
  0
LINE
  5
623
330
18
100
AcDbEntity
  8
1
  6
Continuous
100
AcDbLine
 10
204.5100525376083
 20
355.4798788068466
 30
0.0
 11
205.3100525376082
 21
354.6798788068467
 31
0.0
  0
LINE
  5
624
330
18
100
AcDbEntity
  8
1
  6
Continuous
100
AcDbLine
 10
256.5100525376082
 20
304.5768028068467
 30
0.0
 11
236.5100525376082
 21
304.5768028068467
 31
0.0
  0
LINE
  5
625
330
18
100
AcDbEntity
  8
1
  6
Continuous
100
AcDbLine
 10
254.0100525376081
 20
307.0768028068466
 30
0.0
 11
239.0100525376082
 21
307.0768028068466
 31
0.0
  0
LINE
  5
626
330
18
100
AcDbEntity
  8
1
  6
Continuous
100
AcDbLine
 10
269.5100525376082
 20
277.5768028068467
 30
0.0
 11
223.5100525376081
 21
277.5768028068467
 31
0.0
  0
LINE
  5
627
330
18
100
AcDbEntity
  8
1
  6
Continuous
100
AcDbLine
 10
269.5100525376082
 20
282.0768028068466
 30
0.0
 11
223.5100525376081
 21
282.0768028068466
 31
0.0
  0
LINE
  5
628
330
18
100
AcDbEntity
  8
1
  6
Continuous
100
AcDbLine
 10
236.5100525376082
 20
284.4202678068467
 30
0.0
 11
256.5100525376082
 21
284.4202678068467
 31
0.0
  0
LINE
  5
629
330
18
100
AcDbEntity
  8
1
  6
Continuous
100
AcDbLine
 10
236.5100525376082
 20
304.5768028068467
 30
0.0
 11
236.5100525376082
 21
282.0768028068466
 31
0.0
  0
LINE
  5
62A
330
18
100
AcDbEntity
  8
2
  6
Continuous
100
AcDbLine
 10
237.8630525376082
 20
305.9298028068466
 30
0.0
 11
237.8630525376082
 21
284.4202678068467
 31
0.0
  0
LINE
  5
62B
330
18
100
AcDbEntity
  8
1
  6
Continuous
100
AcDbLine
 10
223.5100525376081
 20
282.0768028068466
 30
0.0
 11
223.5100525376081
 21
277.5768028068467
 31
0.0
  0
LINE
  5
62C
330
18
100
AcDbEntity
  8
2
  6
Continuous
100
AcDbLine
 10
237.8630525376082
 20
284.4202678068467
 30
0.0
 11
236.5100525376082
 21
282.0768028068466
 31
0.0
  0
LINE
  5
62D
330
18
100
AcDbEntity
  8
1
  6
Continuous
100
AcDbLine
 10
235.0100525376081
 20
277.5768028068467
 30
0.0
 11
235.0100525376081
 21
282.0768028068466
 31
0.0
  0
LINE
  5
62E
330
18
100
AcDbEntity
  8
1
  6
Continuous
100
AcDbLine
 10
239.0100525376082
 20
307.0768028068466
 30
0.0
 11
236.5100525376082
 21
304.5768028068467
 31
0.0
  0
LINE
  5
62F
330
18
100
AcDbEntity
  8
1
  6
Continuous
100
AcDbLine
 10
256.5100525376082
 20
304.5768028068467
 30
0.0
 11
256.5100525376082
 21
282.0768028068466
 31
0.0
  0
LINE
  5
630
330
18
100
AcDbEntity
  8
2
  6
Continuous
100
AcDbLine
 10
255.1570525376082
 20
305.9298028068466
 30
0.0
 11
255.1570525376082
 21
284.4202678068467
 31
0.0
  0
LINE
  5
631
330
18
100
AcDbEntity
  8
2
  6
Continuous
100
AcDbLine
 10
255.1570525376082
 20
284.4202678068467
 30
0.0
 11
256.5100525376082
 21
282.0768028068466
 31
0.0
  0
LINE
  5
632
330
18
100
AcDbEntity
  8
1
  6
Continuous
100
AcDbLine
 10
258.0100525376082
 20
282.0768028068466
 30
0.0
 11
258.0100525376082
 21
277.5768028068467
 31
0.0
  0
LINE
  5
633
330
18
100
AcDbEntity
  8
1
  6
Continuous
100
AcDbLine
 10
269.5100525376082
 20
282.0768028068466
 30
0.0
 11
269.5100525376082
 21
277.5768028068467
 31
0.0
  0
LINE
  5
634
330
18
100
AcDbEntity
  8
1
  6
Continuous
100
AcDbLine
 10
256.5100525376082
 20
304.5768028068467
 30
0.0
 11
254.0100525376081
 21
307.0768028068466
 31
0.0
  0
ARC
  5
635
330
18
100
AcDbEntity
  8
1
  6
Continuous
100
AcDbCircle
 10
214.7600525376081
 20
368.7573858068467
 30
0.0
 40
12.275507
100
AcDbArc
 50
249.7438419999999
 51
290.256158
  0
LINE
  5
636
330
18
100
AcDbEntity
  8
1
  6
Continuous
100
AcDbLine
 10
216.5100525376081
 20
356.4818788068464
 30
0.0
 11
216.5100525376081
 21
355.4798788068466
 31
0.0
  0
LINE
  5
637
330
18
100
AcDbEntity
  8
2
  6
Continuous
100
AcDbLine
 10
215.5630525376082
 20
356.4818788068464
 30
0.0
 11
215.5630525376082
 21
354.6798788068467
 31
0.0
  0
LINE
  5
638
330
18
100
AcDbEntity
  8
1
  6
Continuous
100
AcDbLine
 10
216.5100525376081
 20
355.4798788068466
 30
0.0
 11
215.7100525376082
 21
354.6798788068467
 31
0.0
  0
LINE
  5
639
330
18
100
AcDbEntity
  8
1
  6
Continuous
100
AcDbLine
 10
210.5100525376081
 20
363.4818788068467
 30
0.0
 11
207.5100525376082
 21
366.4818788068465
 31
0.0
  0
LINE
  5
63A
330
18
100
AcDbEntity
  8
1
  6
Continuous
100
AcDbLine
 10
210.3953475376083
 20
410.2318788068464
 30
0.0
 11
193.0100525376083
 21
410.2318788068464
 31
0.0
  0
LINE
  5
63B
330
18
100
AcDbEntity
  8
1
  6
Continuous
100
AcDbLine
 10
200.0100525376083
 20
363.4818788068467
 30
0.0
 11
221.0100525376081
 21
363.4818788068467
 31
0.0
  0
ARC
  5
63C
330
18
100
AcDbEntity
  8
1
  6
Continuous
100
AcDbCircle
 10
206.2600525376083
 20
351.2063728068466
 30
0.0
 40
12.275507
100
AcDbArc
 50
69.743842
 51
110.2561579999999
  0
LINE
  5
63D
330
18
100
AcDbEntity
  8
1
  6
Continuous
100
AcDbLine
 10
197.5100525376083
 20
410.5318788068466
 30
0.0
 11
210.4746515376083
 21
410.5318788068466
 31
0.0
  0
LINE
  5
63E
330
18
100
AcDbEntity
  8
1
  6
Continuous
100
AcDbLine
 10
210.3953475376083
 20
370.1318788068467
 30
0.0
 11
193.0100525376083
 21
370.1318788068467
 31
0.0
  0
ARC
  5
640
330
18
100
AcDbEntity
  8
1
  6
Continuous
100
AcDbCircle
 10
206.2600525376083
 20
408.1063728068468
 30
0.0
 40
12.275507
100
AcDbArc
 50
69.743842
 51
110.2561579999999
  0
LINE
  5
641
330
18
100
AcDbEntity
  8
1
  6
Continuous
100
AcDbLine
 10
202.0100525376083
 20
420.3818788068467
 30
0.0
 11
219.0100525376081
 21
420.3818788068467
 31
0.0
  0
LINE
  5
642
330
18
100
AcDbEntity
  8
1
  6
Continuous
100
AcDbLine
 10
197.5100525376083
 20
369.8318788068467
 30
0.0
 11
210.4746515376083
 21
369.8318788068467
 31
0.0
  0
ARC
  5
643
330
18
100
AcDbEntity
  8
1
  6
Continuous
100
AcDbCircle
 10
286.8505935376083
 20
390.1818788068467
 30
0.0
 40
79.040541
100
AcDbArc
 50
162.551639
 51
197.448361
  0
LINE
  5
644
330
18
100
AcDbEntity
  8
1
  6
Continuous
100
AcDbLine
 10
210.5959735376082
 20
369.3818788068467
 30
0.0
 11
197.5384865376083
 21
369.3818788068467
 31
0.0
  0
LINE
  5
645
330
18
100
AcDbEntity
  8
1
  6
Continuous
100
AcDbLine
 10
223.8620395376082
 20
366.4818788068465
 30
0.0
 11
197.5384865376083
 21
366.4818788068465
 31
0.0
  0
LINE
  5
646
330
18
100
AcDbEntity
  8
1
  6
Continuous
100
AcDbLine
 10
210.5959735376082
 20
410.9818788068467
 30
0.0
 11
197.5384865376083
 21
410.9818788068467
 31
0.0
  0
LINE
  5
647
330
18
100
AcDbEntity
  8
1
  6
Continuous
100
AcDbLine
 10
223.8620395376082
 20
413.8818788068467
 30
0.0
 11
197.5384865376083
 21
413.8818788068467
 31
0.0
  0
ARC
  5
648
330
18
100
AcDbEntity
  8
1
  6
Continuous
100
AcDbCircle
 10
378.0100525376083
 20
390.1818788068467
 30
0.0
 40
200.0
100
AcDbArc
 50
175.610827
 51
184.3891729999998
  0
ARC
  5
649
330
18
100
AcDbEntity
  8
1
  6
Continuous
100
AcDbCircle
 10
182.5848755376082
 20
375.1818788068466
 30
0.0
 40
4.0
100
AcDbArc
 50
184.3891729999998
 51
270.0
  0
LINE
  5
64A
330
18
100
AcDbEntity
  8
1
  6
Continuous
100
AcDbLine
 10
210.1276695376083
 20
371.1818788068466
 30
0.0
 11
182.5848755376082
 21
371.1818788068466
 31
0.0
  0
ARC
  5
64B
330
18
100
AcDbEntity
  8
1
  6
Continuous
100
AcDbCircle
 10
193.0100525376083
 20
371.1318788068467
 30
0.0
 40
1.0
100
AcDbArc
 50
180.0
 51
270.0
  0
LINE
  5
64C
330
18
100
AcDbEntity
  8
1
  6
Continuous
100
AcDbLine
 10
197.5384865376083
 20
366.4818788068465
 30
0.0
 11
197.5384865376083
 21
369.3818788068467
 31
0.0
  0
LINE
  5
64D
330
18
100
AcDbEntity
  8
1
  6
Continuous
100
AcDbLine
 10
200.0100525376083
 20
366.4818788068465
 30
0.0
 11
200.0100525376083
 21
363.4818788068467
 31
0.0
  0
LINE
  5
64E
330
18
100
AcDbEntity
  8
1
  6
Continuous
100
AcDbLine
 10
197.5100525376083
 20
369.8318788068467
 30
0.0
 11
197.5100525376083
 21
370.1318788068467
 31
0.0
  0
LINE
  5
64F
330
18
100
AcDbEntity
  8
1
  6
Continuous
100
AcDbLine
 10
202.5100525376083
 20
369.8318788068467
 30
0.0
 11
202.5100525376083
 21
369.3818788068467
 31
0.0
  0
LINE
  5
650
330
18
100
AcDbEntity
  8
1
  6
Continuous
100
AcDbLine
 10
202.5100525376083
 20
369.3818788068467
 30
0.0
 11
202.5100525376083
 21
369.8318788068467
 31
0.0
  0
ARC
  5
651
330
18
100
AcDbEntity
  8
1
  6
Continuous
100
AcDbCircle
 10
182.5848755376082
 20
405.1818788068466
 30
0.0
 40
4.0
100
AcDbArc
 50
90.0
 51
175.610827
  0
LINE
  5
652
330
18
100
AcDbEntity
  8
1
  6
Continuous
100
AcDbLine
 10
178.6451745376083
 20
406.1081258068464
 30
0.0
 11
178.7094595376083
 21
406.1724108068466
 31
0.0
  0
LINE
  5
654
330
18
100
AcDbEntity
  8
1
  6
Continuous
100
AcDbLine
 10
210.1276695376083
 20
409.1818788068466
 30
0.0
 11
182.5848755376082
 21
409.1818788068466
 31
0.0
  0
ARC
  5
655
330
18
100
AcDbEntity
  8
1
  6
Continuous
100
AcDbCircle
 10
193.0100525376083
 20
409.2318788068467
 30
0.0
 40
1.0
100
AcDbArc
 50
90.0
 51
180.0
  0
LINE
  5
656
330
18
100
AcDbEntity
  8
1
  6
Continuous
100
AcDbLine
 10
197.5384865376083
 20
413.8818788068467
 30
0.0
 11
197.5384865376083
 21
410.9818788068467
 31
0.0
  0
LINE
  5
657
330
18
100
AcDbEntity
  8
1
  6
Continuous
100
AcDbLine
 10
197.5100525376083
 20
410.5318788068466
 30
0.0
 11
197.5100525376083
 21
410.2318788068464
 31
0.0
  0
LINE
  5
658
330
18
100
AcDbEntity
  8
1
  6
Continuous
100
AcDbLine
 10
202.5100525376083
 20
410.5318788068466
 30
0.0
 11
202.5100525376083
 21
410.9818788068467
 31
0.0
  0
LINE
  5
659
330
18
100
AcDbEntity
  8
1
  6
Continuous
100
AcDbLine
 10
202.0100525376083
 20
420.3818788068467
 30
0.0
 11
202.0100525376083
 21
413.8818788068467
 31
0.0
  0
ARC
  5
65C
330
18
100
AcDbEntity
  8
1
  6
Continuous
100
AcDbCircle
 10
246.5100525376081
 20
390.1818788068467
 30
0.0
 40
31.35
100
AcDbArc
 50
143.380988
 51
216.6190119999999
  0
LINE
  5
65D
330
18
100
AcDbEntity
  8
1
  6
Continuous
100
AcDbLine
 10
235.0100525376081
 20
410.1818788068467
 30
0.0
 11
223.5100525376081
 21
390.1818788068467
 31
0.0
  0
LINE
  5
65E
330
18
100
AcDbEntity
  8
1
  6
Continuous
100
AcDbLine
 10
258.0100525376082
 20
410.1818788068467
 30
0.0
 11
269.5100525376082
 21
390.1818788068467
 31
0.0
  0
CIRCLE
  5
65F
330
18
100
AcDbEntity
  8
2
  6
Continuous
100
AcDbCircle
 10
246.5100525376081
 20
390.1818788068467
 30
0.0
 40
8.647
  0
CIRCLE
  5
660
330
18
100
AcDbEntity
  8
1
  6
Continuous
100
AcDbCircle
 10
246.5100525376081
 20
390.1818788068467
 30
0.0
 40
10.0
  0
LINE
  5
661
330
18
100
AcDbEntity
  8
1
  6
Continuous
100
AcDbLine
 10
258.0100525376082
 20
370.1818788068466
 30
0.0
 11
235.0100525376081
 21
370.1818788068466
 31
0.0
  0
LINE
  5
662
330
18
100
AcDbEntity
  8
1
  6
Continuous
100
AcDbLine
 10
223.5100525376081
 20
390.1818788068467
 30
0.0
 11
235.0100525376081
 21
370.1818788068466
 31
0.0
  0
ARC
  5
663
330
18
100
AcDbEntity
  8
1
  6
Continuous
100
AcDbCircle
 10
223.8620395376082
 20
360.4818788068465
 30
0.0
 40
6.0
100
AcDbArc
 50
52.67232899999999
 51
90.0
  0
ARC
  5
664
330
18
100
AcDbEntity
  8
1
  6
Continuous
100
AcDbCircle
 10
214.7600525376081
 20
351.2063728068466
 30
0.0
 40
12.275507
100
AcDbArc
 50
69.743842
 51
110.2561579999999
  0
LINE
  5
665
330
18
100
AcDbEntity
  8
1
  6
Continuous
100
AcDbLine
 10
213.5100525376083
 20
363.4818788068467
 30
0.0
 11
210.5100525376081
 21
366.4818788068465
 31
0.0
  0
LINE
  5
666
330
18
100
AcDbEntity
  8
1
  6
Continuous
100
AcDbLine
 10
221.0100525376081
 20
366.4818788068465
 30
0.0
 11
221.0100525376081
 21
363.4818788068467
 31
0.0
  0
LINE
  5
667
330
18
100
AcDbEntity
  8
1
  6
Continuous
100
AcDbLine
 10
269.5100525376082
 20
390.1818788068467
 30
0.0
 11
258.0100525376082
 21
370.1818788068466
 31
0.0
  0
LINE
  5
668
330
18
100
AcDbEntity
  8
1
  6
Continuous
100
AcDbLine
 10
258.0100525376082
 20
410.1818788068467
 30
0.0
 11
235.0100525376081
 21
410.1818788068467
 31
0.0
  0
ARC
  5
66A
330
18
100
AcDbEntity
  8
1
  6
Continuous
100
AcDbCircle
 10
223.8620395376082
 20
419.8818788068467
 30
0.0
 40
6.0
100
AcDbArc
 50
270.0
 51
307.327671
  0
ARC
  5
66B
330
18
100
AcDbEntity
  8
1
  6
Continuous
100
AcDbCircle
 10
214.7600525376081
 20
408.1063728068468
 30
0.0
 40
12.275507
100
AcDbArc
 50
69.743842
 51
110.2561579999999
  0
LINE
  5
66D
330
18
100
AcDbEntity
  8
1
  6
Continuous
100
AcDbLine
 10
210.5100525376081
 20
413.8818788068467
 30
0.0
 11
210.5100525376081
 21
419.6226898068466
 31
0.0
  0
LINE
  5
66E
330
18
100
AcDbEntity
  8
1
  6
Continuous
100
AcDbLine
 10
219.0100525376081
 20
420.3818788068467
 30
0.0
 11
219.0100525376081
 21
413.8818788068467
 31
0.0
  0
LINE
  5
670
330
18
100
AcDbEntity
  8
1
  6
Continuous
100
AcDbLine
 10
363.7600525376082
 20
282.0767888068467
 30
0.0
 11
363.7600525376082
 21
277.5767888068467
 31
0.0
  0
LINE
  5
671
330
18
100
AcDbEntity
  8
2
  6
Continuous
100
AcDbLine
 10
392.4070525376082
 20
305.9297888068467
 30
0.0
 11
392.4070525376082
 21
284.4202538068466
 31
0.0
  0
LINE
  5
672
330
18
100
AcDbEntity
  8
2
  6
Continuous
100
AcDbLine
 10
375.1130525376082
 20
305.9297888068467
 30
0.0
 11
375.1130525376082
 21
284.4202538068466
 31
0.0
  0
LINE
  5
673
330
18
100
AcDbEntity
  8
1
  6
Continuous
100
AcDbLine
 10
393.7600525376081
 20
304.5767888068467
 30
0.0
 11
393.7600525376081
 21
282.0767888068467
 31
0.0
  0
LINE
  5
674
330
18
100
AcDbEntity
  8
1
  6
Continuous
100
AcDbLine
 10
373.7600525376083
 20
304.5767888068467
 30
0.0
 11
373.7600525376083
 21
282.0767888068467
 31
0.0
  0
LINE
  5
675
330
18
100
AcDbEntity
  8
1
  6
Continuous
100
AcDbLine
 10
373.7600525376083
 20
284.4202538068466
 30
0.0
 11
393.7600525376081
 21
284.4202538068466
 31
0.0
  0
LINE
  5
676
330
18
100
AcDbEntity
  8
2
  6
Continuous
100
AcDbLine
 10
375.1130525376082
 20
284.4202538068466
 30
0.0
 11
373.7600525376083
 21
282.0767888068467
 31
0.0
  0
LINE
  5
677
330
18
100
AcDbEntity
  8
2
  6
Continuous
100
AcDbLine
 10
392.4070525376082
 20
284.4202538068466
 30
0.0
 11
393.7600525376081
 21
282.0767888068467
 31
0.0
  0
LINE
  5
678
330
18
100
AcDbEntity
  8
1
  6
Continuous
100
AcDbLine
 10
383.7600525376082
 20
282.0767888068467
 30
0.0
 11
383.7600525376082
 21
277.5767888068467
 31
0.0
  0
LINE
  5
679
330
18
100
AcDbEntity
  8
1
  6
Continuous
100
AcDbLine
 10
393.7600525376081
 20
304.5767888068467
 30
0.0
 11
373.7600525376083
 21
304.5767888068467
 31
0.0
  0
LINE
  5
67A
330
18
100
AcDbEntity
  8
1
  6
Continuous
100
AcDbLine
 10
391.2600525376081
 20
307.0767888068467
 30
0.0
 11
376.2600525376082
 21
307.0767888068467
 31
0.0
  0
LINE
  5
67B
330
18
100
AcDbEntity
  8
1
  6
Continuous
100
AcDbLine
 10
376.2600525376082
 20
307.0767888068467
 30
0.0
 11
373.7600525376083
 21
304.5767888068467
 31
0.0
  0
LINE
  5
67C
330
18
100
AcDbEntity
  8
1
  6
Continuous
100
AcDbLine
 10
393.7600525376081
 20
304.5767888068467
 30
0.0
 11
391.2600525376081
 21
307.0767888068467
 31
0.0
  0
ARC
  5
67D
330
18
100
AcDbEntity
  8
1
  6
Continuous
100
AcDbCircle
 10
498.4776605376081
 20
271.3768028068467
 30
0.0
 40
6.217608999999997
100
AcDbArc
 50
94.31312500000002
 51
180.0
  0
LINE
  5
67E
330
18
100
AcDbEntity
  8
4
  6
CENTER
100
AcDbLine
 10
521.0100525376083
 20
312.0768028068466
 30
0.0
 11
521.0100525376083
 21
242.4641088068465
 31
0.0
  0
ARC
  5
67F
330
18
100
AcDbEntity
  8
1
  6
Continuous
100
AcDbCircle
 10
543.5424435376082
 20
271.3768028068467
 30
0.0
 40
6.217608999999997
100
AcDbArc
 50
0.0
 51
94.31312500000002
  0
ARC
  5
680
330
18
100
AcDbEntity
  8
1
  6
Continuous
100
AcDbCircle
 10
406.2924445376081
 20
271.3767888068466
 30
0.0
 40
6.217608999999997
100
AcDbArc
 50
0.0
 51
85.68687500000001
  0
LINE
  5
681
330
18
100
AcDbEntity
  8
1
  6
Continuous
100
AcDbLine
 10
519.0100525376082
 20
267.8168028068467
 30
0.0
 11
521.0100525376083
 21
269.8768028068467
 31
0.0
  0
LINE
  5
682
330
18
100
AcDbEntity
  8
1
  6
Continuous
100
AcDbLine
 10
520.7473105376082
 20
267.8168028068467
 30
0.0
 11
518.7473105376083
 21
269.8768028068467
 31
0.0
  0
LINE
  5
683
330
18
100
AcDbEntity
  8
4
  6
CENTER
100
AcDbLine
 10
597.5100525376079
 20
224.5763888068467
 30
0.0
 11
516.5100525376081
 21
224.5763888068467
 31
0.0
  0
ARC
  5
684
330
18
100
AcDbEntity
  8
1
  6
Continuous
100
AcDbCircle
 10
452.0159955376083
 20
174.0705088068466
 30
0.0
 40
97.148672
100
AcDbArc
 50
42.31137399999999
 51
49.768836
  0
LINE
  5
685
330
18
100
AcDbEntity
  8
1
  6
Continuous
100
AcDbLine
 10
491.3100525376081
 20
269.8768028068467
 30
0.0
 11
550.7100525376081
 21
269.8768028068467
 31
0.0
  0
LINE
  5
686
330
18
100
AcDbEntity
  8
1
  6
Continuous
100
AcDbLine
 10
491.3100525376081
 20
267.8168028068467
 30
0.0
 11
559.7100525376084
 21
267.8168028068467
 31
0.0
  0
LINE
  5
687
330
18
100
AcDbEntity
  8
1
  6
Continuous
100
AcDbLine
 10
550.7100525376081
 20
271.3768028068467
 30
0.0
 11
491.3100525376081
 21
271.3768028068467
 31
0.0
  0
ARC
  5
688
330
18
100
AcDbEntity
  8
1
  6
Continuous
100
AcDbCircle
 10
409.6151545376081
 20
231.9376048068466
 30
0.0
 40
4.344898999999998
100
AcDbArc
 50
325.6157529999998
 51
15.34862799999998
  0
LINE
  5
689
330
18
100
AcDbEntity
  8
1
  6
Continuous
100
AcDbLine
 10
413.9600525376081
 20
233.0763888068467
 30
0.0
 11
413.9600525376081
 21
216.0763888068467
 31
0.0
  0
LINE
  5
68A
330
18
100
AcDbEntity
  8
1
  6
Continuous
100
AcDbLine
 10
402.7600525376083
 20
196.6512108068467
 30
0.0
 11
402.7600525376083
 21
252.5015658068467
 31
0.0
  0
LINE
  5
68B
330
18
100
AcDbEntity
  8
1
  6
Continuous
100
AcDbLine
 10
403.8100525376081
 20
242.0763888068466
 30
0.0
 11
403.8100525376081
 21
207.0763888068465
 31
0.0
  0
LINE
  5
68C
330
18
100
AcDbEntity
  8
1
  6
Continuous
100
AcDbLine
 10
404.1100525376081
 20
237.5763888068466
 30
0.0
 11
404.1100525376081
 21
211.5763888068467
 31
0.0
  0
ARC
  5
68D
330
18
100
AcDbEntity
  8
1
  6
Continuous
100
AcDbCircle
 10
370.1792775376081
 20
243.9383268068466
 30
0.0
 40
42.05495399999999
100
AcDbArc
 50
329.356478
 51
358.12075
  0
ARC
  5
68E
330
18
100
AcDbEntity
  8
1
  6
Continuous
100
AcDbCircle
 10
370.1792775376081
 20
243.9383268068466
 30
0.0
 40
44.954954
100
AcDbArc
 50
329.356478
 51
358.12075
  0
LINE
  5
68F
330
18
100
AcDbEntity
  8
1
  6
Continuous
100
AcDbLine
 10
404.5600525376081
 20
255.8168028068467
 30
0.0
 11
404.5600525376081
 21
211.0483178068467
 31
0.0
  0
LINE
  5
690
330
18
100
AcDbEntity
  8
1
  6
Continuous
100
AcDbLine
 10
399.6862995376084
 20
192.7115098068467
 30
0.0
 11
399.7505845376084
 21
192.7757958068466
 31
0.0
  0
ARC
  5
691
330
18
100
AcDbEntity
  8
1
  6
Continuous
100
AcDbCircle
 10
398.7600525376083
 20
196.6512108068467
 30
0.0
 40
4.0
100
AcDbArc
 50
274.3891729999999
 51
0.0
  0
ARC
  5
692
330
18
100
AcDbEntity
  8
1
  6
Continuous
100
AcDbCircle
 10
402.8100525376081
 20
207.0763888068465
 30
0.0
 40
1.0
100
AcDbArc
 50
270.0
 51
0.0
  0
LINE
  5
693
330
18
100
AcDbEntity
  8
1
  6
Continuous
100
AcDbLine
 10
413.2008635376082
 20
214.7614348068467
 30
0.0
 11
407.4600525376082
 21
214.7614348068467
 31
0.0
  0
LINE
  5
694
330
18
100
AcDbEntity
  8
1
  6
Continuous
100
AcDbLine
 10
413.2008635376082
 20
219.6689118068467
 30
0.0
 11
408.1861105376082
 21
219.6689118068467
 31
0.0
  0
ARC
  5
695
330
18
100
AcDbEntity
  8
1
  6
Continuous
100
AcDbCircle
 10
417.4600525376082
 20
215.9280568068466
 30
0.0
 40
12.9
100
AcDbArc
 50
149.3564779999998
 51
180.0
  0
ARC
  5
696
330
18
100
AcDbEntity
  8
1
  6
Continuous
100
AcDbCircle
 10
417.4600525376082
 20
215.9280568068466
 30
0.0
 40
10.0
100
AcDbArc
 50
149.3564779999998
 51
180.0
  0
LINE
  5
697
330
18
100
AcDbEntity
  8
1
  6
Continuous
100
AcDbLine
 10
404.1100525376081
 20
211.5763888068467
 30
0.0
 11
403.8100525376081
 21
211.5763888068467
 31
0.0
  0
LINE
  5
698
330
18
100
AcDbEntity
  8
1
  6
Continuous
100
AcDbLine
 10
404.1100525376081
 20
216.5763888068467
 30
0.0
 11
404.5600525376081
 21
216.5763888068467
 31
0.0
  0
LINE
  5
699
330
18
100
AcDbEntity
  8
1
  6
Continuous
100
AcDbLine
 10
407.4600525376082
 20
215.9280568068466
 30
0.0
 11
407.4600525376082
 21
211.0483178068467
 31
0.0
  0
LINE
  5
69A
330
18
100
AcDbEntity
  8
1
  6
Continuous
100
AcDbLine
 10
407.4600525376082
 20
211.0483178068467
 30
0.0
 11
404.5600525376081
 21
211.0483178068467
 31
0.0
  0
ARC
  5
69B
330
18
100
AcDbEntity
  8
1
  6
Continuous
100
AcDbCircle
 10
409.6151545376081
 20
217.2151728068466
 30
0.0
 40
4.344898999999998
100
AcDbArc
 50
334.384247
 51
34.38424699999997
  0
ARC
  5
69C
330
18
100
AcDbEntity
  8
1
  6
Continuous
100
AcDbCircle
 10
397.7192425376084
 20
224.5763888068467
 30
0.0
 40
16.24081099999999
100
AcDbArc
 50
342.4120459999998
 51
17.587954
  0
LINE
  5
69D
330
18
100
AcDbEntity
  8
1
  6
Continuous
100
AcDbLine
 10
413.2008635376082
 20
214.7614348068467
 30
0.0
 11
413.9600525376081
 21
216.0763888068467
 31
0.0
  0
ARC
  5
6A5
330
18
100
AcDbEntity
  8
1
  6
Continuous
100
AcDbCircle
 10
368.4796235376081
 20
242.5648988068467
 30
0.0
 40
43.72887699999998
100
AcDbArc
 50
359.8679399999999
 51
17.640704
  0
ARC
  5
6A6
330
18
100
AcDbEntity
  8
1
  6
Continuous
100
AcDbCircle
 10
383.7600525376082
 20
242.4641088068465
 30
0.0
 40
31.35
100
AcDbArc
 50
0.0
 51
21.41831499999999
  0
LINE
  5
6A7
330
18
100
AcDbEntity
  8
1
  6
Continuous
100
AcDbLine
 10
415.1100525376083
 20
264.8167888068467
 30
0.0
 11
415.1100525376083
 21
242.4641088068465
 31
0.0
  0
LINE
  5
6A8
330
18
100
AcDbEntity
  8
1
  6
Continuous
100
AcDbLine
 10
404.1100525376081
 20
237.5763888068466
 30
0.0
 11
403.8100525376081
 21
237.5763888068466
 31
0.0
  0
LINE
  5
6A9
330
18
100
AcDbEntity
  8
1
  6
Continuous
100
AcDbLine
 10
404.1100525376081
 20
232.5763888068467
 30
0.0
 11
404.5600525376081
 21
232.5763888068467
 31
0.0
  0
ARC
  5
6AA
330
18
100
AcDbEntity
  8
1
  6
Continuous
100
AcDbCircle
 10
402.8100525376081
 20
242.0763888068466
 30
0.0
 40
1.0
100
AcDbArc
 50
0.0
 51
90.0
  0
LINE
  5
6AB
330
18
100
AcDbEntity
  8
1
  6
Continuous
100
AcDbLine
 10
413.8495075376083
 20
233.2678588068466
 30
0.0
 11
413.9600525376081
 21
233.0763888068467
 31
0.0
  0
ARC
  5
6AC
330
18
100
AcDbEntity
  8
1
  6
Continuous
100
AcDbCircle
 10
410.1521775376081
 20
252.8168028068467
 30
0.0
 40
3.0
100
AcDbArc
 50
21.41831499999999
 51
90.0
  0
LINE
  5
6AD
330
18
100
AcDbEntity
  8
1
  6
Continuous
100
AcDbLine
 10
412.9129535376083
 20
267.8167888068467
 30
0.0
 11
410.9129535376083
 21
269.8767888068466
 31
0.0
  0
LINE
  5
6AE
330
18
100
AcDbEntity
  8
1
  6
Continuous
100
AcDbLine
 10
411.1756955376083
 20
267.8167888068467
 30
0.0
 11
413.1756955376083
 21
269.8767888068466
 31
0.0
  0
ARC
  5
6AF
330
18
100
AcDbEntity
  8
1
  6
Continuous
100
AcDbCircle
 10
398.7600525376083
 20
252.5015658068467
 30
0.0
 40
4.0
100
AcDbArc
 50
0.0
 51
55.97661299999999
  0
LINE
  5
6B0
330
18
100
AcDbEntity
  8
1
  6
Continuous
100
AcDbLine
 10
403.8619865376081
 20
267.8167888068467
 30
0.0
 11
401.8619865376083
 21
269.8767888068466
 31
0.0
  0
LINE
  5
6B1
330
18
100
AcDbEntity
  8
1
  6
Continuous
100
AcDbLine
 10
402.1247285376081
 20
267.8167888068467
 30
0.0
 11
404.1247285376083
 21
269.8767888068466
 31
0.0
  0
LINE
  5
6B2
330
18
100
AcDbEntity
  8
1
  6
Continuous
100
AcDbLine
 10
399.3365035376084
 20
267.8167888068467
 30
0.0
 11
397.3365035376084
 21
269.8767888068466
 31
0.0
  0
LINE
  5
6B3
330
18
100
AcDbEntity
  8
1
  6
Continuous
100
AcDbLine
 10
397.5992445376083
 20
267.8167888068467
 30
0.0
 11
399.5992445376083
 21
269.8767888068466
 31
0.0
  0
LINE
  5
6B4
330
18
100
AcDbEntity
  8
1
  6
Continuous
100
AcDbLine
 10
399.8619865376083
 20
267.8167888068467
 30
0.0
 11
401.8619865376083
 21
269.8767888068466
 31
0.0
  0
LINE
  5
6B5
330
18
100
AcDbEntity
  8
1
  6
Continuous
100
AcDbLine
 10
401.5992445376081
 20
267.8167888068467
 30
0.0
 11
399.5992445376083
 21
269.8767888068466
 31
0.0
  0
LINE
  5
6B6
330
18
100
AcDbEntity
  8
1
  6
Continuous
100
AcDbLine
 10
406.1247285376081
 20
267.8167888068467
 30
0.0
 11
404.1247285376083
 21
269.8767888068466
 31
0.0
  0
LINE
  5
6B7
330
18
100
AcDbEntity
  8
1
  6
Continuous
100
AcDbLine
 10
404.3874695376083
 20
267.8167888068467
 30
0.0
 11
406.3874695376084
 21
269.8767888068466
 31
0.0
  0
LINE
  5
6B8
330
18
100
AcDbEntity
  8
1
  6
Continuous
100
AcDbLine
 10
410.6502115376083
 20
267.8167888068467
 30
0.0
 11
408.6502115376083
 21
269.8767888068466
 31
0.0
  0
LINE
  5
6B9
330
18
100
AcDbEntity
  8
1
  6
Continuous
100
AcDbLine
 10
408.9129535376083
 20
267.8167888068467
 30
0.0
 11
410.9129535376083
 21
269.8767888068466
 31
0.0
  0
LINE
  5
6BA
330
18
100
AcDbEntity
  8
1
  6
Continuous
100
AcDbLine
 10
408.3874695376083
 20
267.8167888068467
 30
0.0
 11
406.3874695376084
 21
269.8767888068466
 31
0.0
  0
LINE
  5
6BB
330
18
100
AcDbEntity
  8
1
  6
Continuous
100
AcDbLine
 10
406.6502115376083
 20
267.8167888068467
 30
0.0
 11
408.6502115376083
 21
269.8767888068466
 31
0.0
  0
LINE
  5
6BC
330
18
100
AcDbEntity
  8
1
  6
Continuous
100
AcDbLine
 10
413.4600525376082
 20
269.5924308068466
 30
0.0
 11
413.1756955376083
 21
269.8767888068466
 31
0.0
  0
LINE
  5
6BD
330
18
100
AcDbEntity
  8
1
  6
Continuous
100
AcDbLine
 10
413.4600525376082
 20
267.8384048068466
 30
0.0
 11
413.4384365376083
 21
267.8167888068467
 31
0.0
  0
LINE
  5
6BE
330
18
100
AcDbEntity
  8
1
  6
Continuous
100
AcDbLine
 10
413.4600525376082
 20
271.3767888068466
 30
0.0
 11
413.4600525376082
 21
267.8167888068467
 31
0.0
  0
ARC
  5
6BF
330
18
100
AcDbEntity
  8
1
  6
Continuous
100
AcDbCircle
 10
411.9385465376082
 20
264.6405158068467
 30
0.0
 40
3.176400999999998
100
AcDbArc
 50
3.181242999999998
 51
90.51397799999998
  0
ARC
  5
6C0
330
18
100
AcDbEntity
  8
1
  6
Continuous
100
AcDbCircle
 10
530.1716085376083
 20
273.6204908068467
 30
0.0
 40
29.385717
100
AcDbArc
 50
225.647134
 51
231.126941
  0
ARC
  5
6C1
330
18
100
AcDbEntity
  8
1
  6
Continuous
100
AcDbCircle
 10
407.5936905376082
 20
121.5617678068466
 30
0.0
 40
165.927369
100
AcDbArc
 50
49.768836
 51
51.12694099999998
  0
LINE
  5
6C2
330
18
100
AcDbEntity
  8
1
  6
Continuous
100
AcDbLine
 10
504.9081185376083
 20
267.8168028068467
 30
0.0
 11
502.9081185376083
 21
269.8768028068467
 31
0.0
  0
LINE
  5
6C3
330
18
100
AcDbEntity
  8
1
  6
Continuous
100
AcDbLine
 10
503.1708605376083
 20
267.8168028068467
 30
0.0
 11
505.1708605376084
 21
269.8768028068467
 31
0.0
  0
ARC
  5
6C4
330
18
100
AcDbEntity
  8
1
  6
Continuous
100
AcDbCircle
 10
497.7754965376082
 20
225.8168828068466
 30
0.0
 40
30.0
100
AcDbArc
 50
73.647357
 51
89.82666999999997
  0
LINE
  5
6C5
330
18
100
AcDbEntity
  8
1
  6
Continuous
100
AcDbLine
 10
489.6600525376081
 20
263.8168028068467
 30
0.0
 11
489.6600525376081
 21
255.8168028068467
 31
0.0
  0
LINE
  5
6C6
330
18
100
AcDbEntity
  8
1
  6
Continuous
100
AcDbLine
 10
489.6600525376081
 20
255.8168028068467
 30
0.0
 11
497.8284365376081
 21
255.8168028068467
 31
0.0
  0
ARC
  5
6C7
330
18
100
AcDbEntity
  8
1
  6
Continuous
100
AcDbCircle
 10
497.8284365376081
 20
243.3168028068467
 30
0.0
 40
12.5
100
AcDbArc
 50
89.82666999999997
 51
90.0
  0
LINE
  5
6C8
330
18
100
AcDbEntity
  8
1
  6
Continuous
100
AcDbLine
 10
496.3826355376081
 20
267.8168028068467
 30
0.0
 11
498.3826355376083
 21
269.8768028068467
 31
0.0
  0
LINE
  5
6C9
330
18
100
AcDbEntity
  8
1
  6
Continuous
100
AcDbLine
 10
498.1198935376081
 20
267.8168028068467
 30
0.0
 11
496.1198935376083
 21
269.8768028068467
 31
0.0
  0
LINE
  5
6CA
330
18
100
AcDbEntity
  8
1
  6
Continuous
100
AcDbLine
 10
494.1198935376081
 20
267.8168028068467
 30
0.0
 11
496.1198935376083
 21
269.8768028068467
 31
0.0
  0
LINE
  5
6CB
330
18
100
AcDbEntity
  8
1
  6
Continuous
100
AcDbLine
 10
495.8571515376081
 20
267.8168028068467
 30
0.0
 11
493.8571515376083
 21
269.8768028068467
 31
0.0
  0
LINE
  5
6CC
330
18
100
AcDbEntity
  8
1
  6
Continuous
100
AcDbLine
 10
491.3100525376081
 20
269.5924448068467
 30
0.0
 11
491.5944095376083
 21
269.8768028068467
 31
0.0
  0
LINE
  5
6CD
330
18
100
AcDbEntity
  8
1
  6
Continuous
100
AcDbLine
 10
491.3100525376081
 20
267.8384188068467
 30
0.0
 11
491.3316685376082
 21
267.8168028068467
 31
0.0
  0
LINE
  5
6CE
330
18
100
AcDbEntity
  8
1
  6
Continuous
100
AcDbLine
 10
491.3100525376081
 20
271.3768028068467
 30
0.0
 11
491.3100525376081
 21
267.8168028068467
 31
0.0
  0
LINE
  5
6CF
330
18
100
AcDbEntity
  8
1
  6
Continuous
100
AcDbLine
 10
491.8571515376081
 20
267.8168028068467
 30
0.0
 11
493.8571515376083
 21
269.8768028068467
 31
0.0
  0
LINE
  5
6D0
330
18
100
AcDbEntity
  8
1
  6
Continuous
100
AcDbLine
 10
493.5944095376081
 20
267.8168028068467
 30
0.0
 11
491.5944095376083
 21
269.8768028068467
 31
0.0
  0
ARC
  5
6D1
330
18
100
AcDbEntity
  8
1
  6
Continuous
100
AcDbCircle
 10
493.6600525376081
 20
263.8168028068467
 30
0.0
 40
4.0
100
AcDbArc
 50
90.0
 51
180.0
  0
LINE
  5
6D2
330
18
100
AcDbEntity
  8
1
  6
Continuous
100
AcDbLine
 10
500.9081185376081
 20
267.8168028068467
 30
0.0
 11
502.9081185376083
 21
269.8768028068467
 31
0.0
  0
LINE
  5
6D3
330
18
100
AcDbEntity
  8
1
  6
Continuous
100
AcDbLine
 10
498.6453765376081
 20
267.8168028068467
 30
0.0
 11
500.6453765376083
 21
269.8768028068467
 31
0.0
  0
LINE
  5
6D4
330
18
100
AcDbEntity
  8
1
  6
Continuous
100
AcDbLine
 10
500.3826355376081
 20
267.8168028068467
 30
0.0
 11
498.3826355376083
 21
269.8768028068467
 31
0.0
  0
LINE
  5
6D5
330
18
100
AcDbEntity
  8
1
  6
Continuous
100
AcDbLine
 10
502.6453765376081
 20
267.8168028068467
 30
0.0
 11
500.6453765376083
 21
269.8768028068467
 31
0.0
  0
ARC
  5
6D6
330
18
100
AcDbEntity
  8
1
  6
Continuous
100
AcDbCircle
 10
503.9246435376083
 20
246.7738288068467
 30
0.0
 40
8.159542
100
AcDbArc
 50
45.647134
 51
76.14946899999998
  0
LINE
  5
6D7
330
18
100
AcDbEntity
  8
1
  6
Continuous
100
AcDbLine
 10
513.9590855376082
 20
267.8168028068467
 30
0.0
 11
511.9590855376081
 21
269.8768028068467
 31
0.0
  0
LINE
  5
6D8
330
18
100
AcDbEntity
  8
1
  6
Continuous
100
AcDbLine
 10
505.4336015376083
 20
267.8168028068467
 30
0.0
 11
507.4336015376083
 21
269.8768028068467
 31
0.0
  0
LINE
  5
6D9
330
18
100
AcDbEntity
  8
1
  6
Continuous
100
AcDbLine
 10
507.1708605376083
 20
267.8168028068467
 30
0.0
 11
505.1708605376084
 21
269.8768028068467
 31
0.0
  0
LINE
  5
6DA
330
18
100
AcDbEntity
  8
1
  6
Continuous
100
AcDbLine
 10
509.9590855376082
 20
267.8168028068467
 30
0.0
 11
511.9590855376081
 21
269.8768028068467
 31
0.0
  0
LINE
  5
6DB
330
18
100
AcDbEntity
  8
1
  6
Continuous
100
AcDbLine
 10
511.6963435376083
 20
267.8168028068467
 30
0.0
 11
509.6963435376083
 21
269.8768028068467
 31
0.0
  0
LINE
  5
6DC
330
18
100
AcDbEntity
  8
1
  6
Continuous
100
AcDbLine
 10
507.6963435376083
 20
267.8168028068467
 30
0.0
 11
509.6963435376083
 21
269.8768028068467
 31
0.0
  0
LINE
  5
6DD
330
18
100
AcDbEntity
  8
1
  6
Continuous
100
AcDbLine
 10
509.4336015376083
 20
267.8168028068467
 30
0.0
 11
507.4336015376083
 21
269.8768028068467
 31
0.0
  0
LINE
  5
6DE
330
18
100
AcDbEntity
  8
1
  6
Continuous
100
AcDbLine
 10
514.4845685376082
 20
267.8168028068467
 30
0.0
 11
516.4845685376083
 21
269.8768028068467
 31
0.0
  0
LINE
  5
6DF
330
18
100
AcDbEntity
  8
1
  6
Continuous
100
AcDbLine
 10
516.2218265376082
 20
267.8168028068467
 30
0.0
 11
514.221826537608
 21
269.8768028068467
 31
0.0
  0
LINE
  5
6E0
330
18
100
AcDbEntity
  8
1
  6
Continuous
100
AcDbLine
 10
512.2218265376082
 20
267.8168028068467
 30
0.0
 11
514.221826537608
 21
269.8768028068467
 31
0.0
  0
LINE
  5
6E1
330
18
100
AcDbEntity
  8
1
  6
Continuous
100
AcDbLine
 10
516.7473105376082
 20
267.8168028068467
 30
0.0
 11
518.7473105376083
 21
269.8768028068467
 31
0.0
  0
LINE
  5
6E2
330
18
100
AcDbEntity
  8
1
  6
Continuous
100
AcDbLine
 10
518.4845685376082
 20
267.8168028068467
 30
0.0
 11
516.4845685376083
 21
269.8768028068467
 31
0.0
  0
LINE
  5
6E3
330
18
100
AcDbEntity
  8
4
  6
CENTER
100
AcDbLine
 10
557.0100525376082
 20
261.4594068068465
 30
0.0
 11
557.0100525376082
 21
184.0763888068465
 31
0.0
  0
ARC
  5
6E4
330
18
100
AcDbEntity
  8
1
  6
Continuous
100
AcDbCircle
 10
557.0100525376082
 20
224.5763888068467
 30
0.0
 40
32.5
100
AcDbArc
 50
158.815228
 51
87.32413099999998
  0
ARC
  5
6E5
330
18
100
AcDbEntity
  8
1
  6
Continuous
100
AcDbCircle
 10
-97.89702546239169
 20
-326.5114361931532
 30
0.0
 40
840.7793699999999
100
AcDbArc
 50
41.390006
 51
42.31137399999999
  0
ARC
  5
6E6
330
18
100
AcDbEntity
  8
1
  6
Continuous
100
AcDbCircle
 10
557.0100525376082
 20
224.5763888068467
 30
0.0
 40
18.5
100
AcDbArc
 50
184.741438
 51
65.68370300000001
  0
ARC
  5
6E7
330
18
100
AcDbEntity
  8
1
  6
Continuous
100
AcDbCircle
 10
557.0100525376082
 20
224.5763888068467
 30
0.0
 40
24.0
100
AcDbArc
 50
169.820054
 51
77.88987299999998
  0
ARC
  5
6E8
330
18
100
AcDbEntity
  8
1
  6
Continuous
100
AcDbCircle
 10
557.0100525376082
 20
224.5763888068467
 30
0.0
 40
13.9
100
AcDbArc
 50
251.3908189999999
 51
39.172837
  0
LINE
  5
6E9
330
18
100
AcDbEntity
  8
1
  6
Continuous
100
AcDbLine
 10
554.3149005376082
 20
267.8168028068467
 30
0.0
 11
569.015196537608
 21
230.2119348068467
 31
0.0
  0
LINE
  5
6EA
330
18
100
AcDbEntity
  8
1
  6
Continuous
100
AcDbLine
 10
542.5114475376082
 20
220.6505848068467
 30
0.0
 11
542.5114475376082
 21
266.1051358068466
 31
0.0
  0
LINE
  5
6EB
330
18
100
AcDbEntity
  8
1
  6
Continuous
100
AcDbLine
 10
557.0100525376082
 20
234.3913438068467
 30
0.0
 11
548.5100525376082
 21
229.4838658068466
 31
0.0
  0
CIRCLE
  5
6EC
330
18
100
AcDbEntity
  8
1
  6
Continuous
100
AcDbCircle
 10
557.0100525376082
 20
224.5763888068467
 30
0.0
 40
8.5
  0
LINE
  5
6ED
330
18
100
AcDbEntity
  8
1
  6
Continuous
100
AcDbLine
 10
557.0100525376082
 20
234.3913438068467
 30
0.0
 11
565.5100525376081
 21
229.4838658068466
 31
0.0
  0
ARC
  5
6EE
330
18
100
AcDbEntity
  8
1
  6
Continuous
100
AcDbCircle
 10
555.9008385376081
 20
225.0853398068467
 30
0.0
 40
14.080779
100
AcDbArc
 50
222.9168609999998
 51
21.35125899999998
  0
LINE
  5
6EF
330
18
100
AcDbEntity
  8
1
  6
Continuous
100
AcDbLine
 10
548.5100525376082
 20
219.6689118068467
 30
0.0
 11
557.0100525376082
 21
214.7614348068467
 31
0.0
  0
ARC
  5
6F0
330
18
100
AcDbEntity
  8
1
  6
Continuous
100
AcDbCircle
 10
895.4806845376081
 20
548.9609178068467
 30
0.0
 40
483.324522
100
AcDbArc
 50
221.3900059999999
 51
223.2305069999999
  0
LINE
  5
6F1
330
18
100
AcDbEntity
  8
1
  6
Continuous
100
AcDbLine
 10
548.5100525376082
 20
219.6689118068467
 30
0.0
 11
548.5100525376082
 21
229.4838658068466
 31
0.0
  0
ARC
  5
6F2
330
18
100
AcDbEntity
  8
1
  6
Continuous
100
AcDbCircle
 10
102.7955185376083
 20
-196.2146561931531
 30
0.0
 40
604.626032
100
AcDbArc
 50
42.91686099999999
 51
43.230507
  0
LINE
  5
6F3
330
18
100
AcDbEntity
  8
1
  6
Continuous
100
AcDbLine
 10
565.5100525376081
 20
219.6689118068467
 30
0.0
 11
565.5100525376081
 21
229.4838658068466
 31
0.0
  0
LINE
  5
6F4
330
18
100
AcDbEntity
  8
1
  6
Continuous
100
AcDbLine
 10
565.5100525376081
 20
219.6689118068467
 30
0.0
 11
557.0100525376082
 21
214.7614348068467
 31
0.0
  0
LINE
  5
6F8
330
18
100
AcDbEntity
  8
1
  6
Continuous
100
AcDbLine
 10
550.7100525376081
 20
269.5924448068467
 30
0.0
 11
550.4256945376083
 21
269.8768028068467
 31
0.0
  0
LINE
  5
6F9
330
18
100
AcDbEntity
  8
1
  6
Continuous
100
AcDbLine
 10
534.8492435376083
 20
267.8168028068467
 30
0.0
 11
536.8492435376082
 21
269.8768028068467
 31
0.0
  0
LINE
  5
6FA
330
18
100
AcDbEntity
  8
1
  6
Continuous
100
AcDbLine
 10
536.5865025376083
 20
267.8168028068467
 30
0.0
 11
534.5865025376082
 21
269.8768028068467
 31
0.0
  0
LINE
  5
6FB
330
18
100
AcDbEntity
  8
1
  6
Continuous
100
AcDbLine
 10
525.7982775376082
 20
267.8168028068467
 30
0.0
 11
527.7982775376082
 21
269.8768028068467
 31
0.0
  0
LINE
  5
6FC
330
18
100
AcDbEntity
  8
1
  6
Continuous
100
AcDbLine
 10
527.5355355376082
 20
267.8168028068467
 30
0.0
 11
525.5355355376083
 21
269.8768028068467
 31
0.0
  0
LINE
  5
6FD
330
18
100
AcDbEntity
  8
1
  6
Continuous
100
AcDbLine
 10
525.2727935376082
 20
267.8168028068467
 30
0.0
 11
523.2727935376082
 21
269.8768028068467
 31
0.0
  0
LINE
  5
6FE
330
18
100
AcDbEntity
  8
1
  6
Continuous
100
AcDbLine
 10
523.5355355376082
 20
267.8168028068467
 30
0.0
 11
525.5355355376083
 21
269.8768028068467
 31
0.0
  0
LINE
  5
6FF
330
18
100
AcDbEntity
  8
1
  6
Continuous
100
AcDbLine
 10
521.2727935376082
 20
267.8168028068467
 30
0.0
 11
523.2727935376082
 21
269.8768028068467
 31
0.0
  0
LINE
  5
700
330
18
100
AcDbEntity
  8
1
  6
Continuous
100
AcDbLine
 10
523.0100525376082
 20
267.8168028068467
 30
0.0
 11
521.0100525376083
 21
269.8768028068467
 31
0.0
  0
LINE
  5
701
330
18
100
AcDbEntity
  8
1
  6
Continuous
100
AcDbLine
 10
530.3237605376083
 20
267.8168028068467
 30
0.0
 11
532.3237605376082
 21
269.8768028068467
 31
0.0
  0
LINE
  5
702
330
18
100
AcDbEntity
  8
1
  6
Continuous
100
AcDbLine
 10
532.0610185376083
 20
267.8168028068467
 30
0.0
 11
530.0610185376082
 21
269.8768028068467
 31
0.0
  0
LINE
  5
703
330
18
100
AcDbEntity
  8
1
  6
Continuous
100
AcDbLine
 10
528.0610185376083
 20
267.8168028068467
 30
0.0
 11
530.0610185376082
 21
269.8768028068467
 31
0.0
  0
LINE
  5
704
330
18
100
AcDbEntity
  8
1
  6
Continuous
100
AcDbLine
 10
529.7982775376083
 20
267.8168028068467
 30
0.0
 11
527.7982775376082
 21
269.8768028068467
 31
0.0
  0
LINE
  5
705
330
18
100
AcDbEntity
  8
1
  6
Continuous
100
AcDbLine
 10
532.5865025376083
 20
267.8168028068467
 30
0.0
 11
534.5865025376082
 21
269.8768028068467
 31
0.0
  0
LINE
  5
706
330
18
100
AcDbEntity
  8
1
  6
Continuous
100
AcDbLine
 10
534.3237605376083
 20
267.8168028068467
 30
0.0
 11
532.3237605376082
 21
269.8768028068467
 31
0.0
  0
LINE
  5
707
330
18
100
AcDbEntity
  8
1
  6
Continuous
100
AcDbLine
 10
541.6374695376084
 20
267.8168028068467
 30
0.0
 11
543.6374695376083
 21
269.8768028068467
 31
0.0
  0
LINE
  5
708
330
18
100
AcDbEntity
  8
1
  6
Continuous
100
AcDbLine
 10
543.3747275376084
 20
267.8168028068467
 30
0.0
 11
541.3747275376083
 21
269.8768028068467
 31
0.0
  0
LINE
  5
709
330
18
100
AcDbEntity
  8
1
  6
Continuous
100
AcDbLine
 10
537.1119855376083
 20
267.8168028068467
 30
0.0
 11
539.1119855376082
 21
269.8768028068467
 31
0.0
  0
LINE
  5
70A
330
18
100
AcDbEntity
  8
1
  6
Continuous
100
AcDbLine
 10
538.8492435376083
 20
267.8168028068467
 30
0.0
 11
536.8492435376082
 21
269.8768028068467
 31
0.0
  0
LINE
  5
70B
330
18
100
AcDbEntity
  8
1
  6
Continuous
100
AcDbLine
 10
539.3747275376084
 20
267.8168028068467
 30
0.0
 11
541.3747275376083
 21
269.8768028068467
 31
0.0
  0
LINE
  5
70C
330
18
100
AcDbEntity
  8
1
  6
Continuous
100
AcDbLine
 10
541.1119855376083
 20
267.8168028068467
 30
0.0
 11
539.1119855376082
 21
269.8768028068467
 31
0.0
  0
LINE
  5
70D
330
18
100
AcDbEntity
  8
1
  6
Continuous
100
AcDbLine
 10
546.1629525376083
 20
267.8168028068467
 30
0.0
 11
548.1629525376083
 21
269.8768028068467
 31
0.0
  0
LINE
  5
70E
330
18
100
AcDbEntity
  8
1
  6
Continuous
100
AcDbLine
 10
547.9002105376083
 20
267.8168028068467
 30
0.0
 11
545.9002105376083
 21
269.8768028068467
 31
0.0
  0
LINE
  5
70F
330
18
100
AcDbEntity
  8
1
  6
Continuous
100
AcDbLine
 10
548.4256945376081
 20
267.8168028068467
 30
0.0
 11
550.4256945376083
 21
269.8768028068467
 31
0.0
  0
LINE
  5
710
330
18
100
AcDbEntity
  8
1
  6
Continuous
100
AcDbLine
 10
550.1629525376081
 20
267.8168028068467
 30
0.0
 11
548.1629525376083
 21
269.8768028068467
 31
0.0
  0
LINE
  5
711
330
18
100
AcDbEntity
  8
1
  6
Continuous
100
AcDbLine
 10
543.9002105376083
 20
267.8168028068467
 30
0.0
 11
545.9002105376083
 21
269.8768028068467
 31
0.0
  0
LINE
  5
712
330
18
100
AcDbEntity
  8
1
  6
Continuous
100
AcDbLine
 10
545.6374695376083
 20
267.8168028068467
 30
0.0
 11
543.6374695376083
 21
269.8768028068467
 31
0.0
  0
LINE
  5
713
330
18
100
AcDbEntity
  8
1
  6
Continuous
100
AcDbLine
 10
559.7100525376084
 20
264.9168028068465
 30
0.0
 11
555.448553537608
 21
264.9168028068465
 31
0.0
  0
LINE
  5
714
330
18
100
AcDbEntity
  8
1
  6
Continuous
100
AcDbLine
 10
550.6884355376083
 20
267.8168028068467
 30
0.0
 11
550.7100525376081
 21
267.8384188068467
 31
0.0
  0
LINE
  5
715
330
18
100
AcDbEntity
  8
1
  6
Continuous
100
AcDbLine
 10
550.7100525376081
 20
271.3768028068467
 30
0.0
 11
550.7100525376081
 21
267.8168028068467
 31
0.0
  0
LINE
  5
716
330
18
100
AcDbEntity
  8
1
  6
Continuous
100
AcDbLine
 10
559.7100525376084
 20
267.8168028068467
 30
0.0
 11
559.7100525376084
 21
264.9168028068465
 31
0.0
  0
LINE
  5
717
330
18
100
AcDbEntity
  8
1
  6
Continuous
100
AcDbLine
 10
528.5100525376082
 20
307.0768028068466
 30
0.0
 11
513.5100525376083
 21
307.0768028068466
 31
0.0
  0
LINE
  5
718
330
18
100
AcDbEntity
  8
1
  6
Continuous
100
AcDbLine
 10
531.0100525376082
 20
304.5768028068467
 30
0.0
 11
511.0100525376082
 21
304.5768028068467
 31
0.0
  0
LINE
  5
719
330
18
100
AcDbEntity
  8
1
  6
Continuous
100
AcDbLine
 10
531.0100525376082
 20
284.4202678068467
 30
0.0
 11
511.0100525376082
 21
284.4202678068467
 31
0.0
  0
LINE
  5
71A
330
18
100
AcDbEntity
  8
1
  6
Continuous
100
AcDbLine
 10
498.0100525376082
 20
282.0768028068466
 30
0.0
 11
544.0100525376082
 21
282.0768028068466
 31
0.0
  0
LINE
  5
71B
330
18
100
AcDbEntity
  8
1
  6
Continuous
100
AcDbLine
 10
498.0100525376082
 20
277.5768028068467
 30
0.0
 11
544.0100525376082
 21
277.5768028068467
 31
0.0
  0
LINE
  5
71C
330
18
100
AcDbEntity
  8
1
  6
Continuous
100
AcDbLine
 10
403.7600525376082
 20
282.0767888068467
 30
0.0
 11
403.7600525376082
 21
277.5767888068467
 31
0.0
  0
LINE
  5
71D
330
18
100
AcDbEntity
  8
2
  6
Continuous
100
AcDbLine
 10
512.3630525376081
 20
305.9298028068466
 30
0.0
 11
512.3630525376081
 21
284.4202678068467
 31
0.0
  0
LINE
  5
71E
330
18
100
AcDbEntity
  8
1
  6
Continuous
100
AcDbLine
 10
511.0100525376082
 20
304.5768028068467
 30
0.0
 11
511.0100525376082
 21
282.0768028068466
 31
0.0
  0
LINE
  5
71F
330
18
100
AcDbEntity
  8
1
  6
Continuous
100
AcDbLine
 10
498.0100525376082
 20
282.0768028068466
 30
0.0
 11
498.0100525376082
 21
277.5768028068467
 31
0.0
  0
LINE
  5
720
330
18
100
AcDbEntity
  8
2
  6
Continuous
100
AcDbLine
 10
512.3630525376081
 20
284.4202678068467
 30
0.0
 11
511.0100525376082
 21
282.0768028068466
 31
0.0
  0
LINE
  5
721
330
18
100
AcDbEntity
  8
1
  6
Continuous
100
AcDbLine
 10
509.510052537608
 20
282.0768028068466
 30
0.0
 11
509.510052537608
 21
277.5768028068467
 31
0.0
  0
LINE
  5
722
330
18
100
AcDbEntity
  8
1
  6
Continuous
100
AcDbLine
 10
513.5100525376083
 20
307.0768028068466
 30
0.0
 11
511.0100525376082
 21
304.5768028068467
 31
0.0
  0
LINE
  5
723
330
18
100
AcDbEntity
  8
2
  6
Continuous
100
AcDbLine
 10
529.6570525376083
 20
305.9298028068466
 30
0.0
 11
529.6570525376083
 21
284.4202678068467
 31
0.0
  0
LINE
  5
724
330
18
100
AcDbEntity
  8
1
  6
Continuous
100
AcDbLine
 10
531.0100525376082
 20
304.5768028068467
 30
0.0
 11
531.0100525376082
 21
282.0768028068466
 31
0.0
  0
LINE
  5
725
330
18
100
AcDbEntity
  8
2
  6
Continuous
100
AcDbLine
 10
529.6570525376083
 20
284.4202678068467
 30
0.0
 11
531.0100525376082
 21
282.0768028068466
 31
0.0
  0
LINE
  5
726
330
18
100
AcDbEntity
  8
1
  6
Continuous
100
AcDbLine
 10
532.5100525376082
 20
277.5768028068467
 30
0.0
 11
532.5100525376082
 21
282.0768028068466
 31
0.0
  0
LINE
  5
727
330
18
100
AcDbEntity
  8
1
  6
Continuous
100
AcDbLine
 10
544.0100525376082
 20
282.0768028068466
 30
0.0
 11
544.0100525376082
 21
277.5768028068467
 31
0.0
  0
LINE
  5
728
330
18
100
AcDbEntity
  8
1
  6
Continuous
100
AcDbLine
 10
531.0100525376082
 20
304.5768028068467
 30
0.0
 11
528.5100525376082
 21
307.0768028068466
 31
0.0
  0
ENDSEC
  0
SECTION
  2
OBJECTS
  0
DICTIONARY
  5
C
330
0
100
AcDbDictionary
281
     1
  3
ACAD_CIP_PREVIOUS_PRODUCT_INFO
350
792
  3
ACAD_COLOR
350
775
  3
ACAD_DETAILVIEWSTYLE
350
78E
  3
ACAD_GROUP
350
D
  3
ACAD_LAYOUT
350
94
  3
ACAD_MATERIAL
350
743
  3
ACAD_MLEADERSTYLE
350
78A
  3
ACAD_MLINESTYLE
350
1B
  3
ACAD_PLOTSETTINGS
350
95
  3
ACAD_PLOTSTYLENAME
350
741
  3
ACAD_SCALELIST
350
778
  3
ACAD_SECTIONVIEWSTYLE
350
78C
  3
ACAD_TABLESTYLE
350
776
  3
ACAD_VISUALSTYLE
350
75C
  3
ACDB_RECOMPOSE_DATA
350
7B0
  3
AcDbVariableDictionary
350
7A3
  3
CONTENTDICTIONARY
350
3D
  3
DWGPROPS
350
7B1
  0
DICTIONARY
  5
793
330
E
100
AcDbDictionary
280
     1
281
     1
  3
ADSK_XREC_LAYER_RECONCILED
360
794
  0
DICTIONARY
  5
795
330
4E
100
AcDbDictionary
280
     1
281
     1
  3
ADSK_XREC_LAYER_RECONCILED
360
796
  0
DICTIONARY
  5
797
330
4F
100
AcDbDictionary
280
     1
281
     1
  3
ADSK_XREC_LAYER_RECONCILED
360
798
  0
DICTIONARY
  5
799
330
50
100
AcDbDictionary
280
     1
281
     1
  3
ADSK_XREC_LAYER_RECONCILED
360
79A
  0
DICTIONARY
  5
79B
330
51
100
AcDbDictionary
280
     1
281
     1
  3
ADSK_XREC_LAYER_RECONCILED
360
79C
  0
DICTIONARY
  5
79D
330
52
100
AcDbDictionary
280
     1
281
     1
  3
ADSK_XREC_LAYER_RECONCILED
360
79E
  0
DICTIONARY
  5
79F
330
53
100
AcDbDictionary
280
     1
281
     1
  3
ADSK_XREC_LAYER_RECONCILED
360
7A0
  0
DICTIONARY
  5
7A1
330
54
100
AcDbDictionary
280
     1
281
     1
  3
ADSK_XREC_LAYER_RECONCILED
360
7A2
  0
DICTIONARY
  5
73C
330
18
100
AcDbDictionary
281
     1
  3
ACAD_LAYOUTSELFREF
350
73D
  0
DICTIONARY
  5
73A
330
15
100
AcDbDictionary
281
     1
  3
ACAD_LAYOUTSELFREF
350
73B
  0
XRECORD
  5
792
102
{ACAD_REACTORS
330
C
102
}
330
C
100
AcDbXrecord
280
     1
300
ACDLT
300
2014
300
ACDLT_F_S
  0
DICTIONARY
  5
775
102
{ACAD_REACTORS
330
C
102
}
330
C
100
AcDbDictionary
281
     1
  0
DICTIONARY
  5
78E
102
{ACAD_REACTORS
330
C
102
}
330
C
100
AcDbDictionary
281
     1
  3
Imperial24
350
78F
  0
DICTIONARY
  5
D
102
{ACAD_REACTORS
330
C
102
}
330
C
100
AcDbDictionary
281
     1
  0
DICTIONARY
  5
94
102
{ACAD_REACTORS
330
C
102
}
330
C
100
AcDbDictionary
281
     1
  3
Model
350
790
  3
レイアウト1
350
791
  0
DICTIONARY
  5
743
102
{ACAD_REACTORS
330
C
102
}
330
C
100
AcDbDictionary
281
     1
  3
ByBlock
350
74C
  3
ByLayer
350
744
  3
Global
350
754
  0
DICTIONARY
  5
78A
102
{ACAD_REACTORS
330
C
102
}
330
C
100
AcDbDictionary
281
     1
  3
Standard
350
78B
  0
DICTIONARY
  5
1B
102
{ACAD_REACTORS
330
C
102
}
330
C
100
AcDbDictionary
281
     1
  3
STANDARD
350
1C
  0
DICTIONARY
  5
95
102
{ACAD_REACTORS
330
C
102
}
330
C
100
AcDbDictionary
281
     1
  0
ACDBDICTIONARYWDFLT
  5
741
102
{ACAD_REACTORS
330
C
102
}
330
C
100
AcDbDictionary
281
     1
  3
Normal
350
742
100
AcDbDictionaryWithDefault
340
742
  0
DICTIONARY
  5
778
102
{ACAD_REACTORS
330
C
102
}
330
C
100
AcDbDictionary
281
     1
  3
A0
350
779
  3
A1
350
77A
  3
A2
350
77B
  3
A3
350
77C
  3
A4
350
77D
  3
A5
350
77E
  3
A6
350
77F
  3
A7
350
780
  3
A8
350
781
  3
A9
350
782
  3
B0
350
783
  3
B1
350
784
  3
B2
350
785
  3
B3
350
786
  3
B4
350
787
  3
B5
350
788
  3
B6
350
789
  0
DICTIONARY
  5
78C
102
{ACAD_REACTORS
330
C
102
}
330
C
100
AcDbDictionary
281
     1
  3
Imperial24
350
78D
  0
DICTIONARY
  5
776
102
{ACAD_REACTORS
330
C
102
}
330
C
100
AcDbDictionary
281
     1
  3
Standard
350
777
  0
DICTIONARY
  5
75C
102
{ACAD_REACTORS
330
C
102
}
330
C
100
AcDbDictionary
281
     1
  3
2dWireframe
350
762
  3
Basic
350
761
  3
Brighten
350
768
  3
ColorChange
350
76C
  3
Conceptual
350
765
  3
Dim
350
767
  3
EdgeColorOff
350
774
  3
Facepattern
350
76B
  3
Flat
350
75D
  3
FlatWithEdges
350
75E
  3
Gouraud
350
75F
  3
GouraudWithEdges
350
760
  3
Hidden
350
764
  3
JitterOff
350
772
  3
Linepattern
350
76A
  3
OverhangOff
350
773
  3
Realistic
350
766
  3
Shaded
350
771
  3
Shaded with edges
350
770
  3
Shades of Gray
350
76D
  3
Sketchy
350
76E
  3
Thicken
350
769
  3
Wireframe
350
763
  3
X-Ray
350
76F
  0
XRECORD
  5
7B0
102
{ACAD_REACTORS
330
C
102
}
330
C
100
AcDbXrecord
280
     1
 90
        1
330
777
  0
DICTIONARY
  5
7A3
102
{ACAD_REACTORS
330
C
102
}
330
C
100
AcDbDictionary
281
     1
  3
CANNOSCALE
350
7A8
  3
CMLEADERSTYLE
350
7A5
  3
CTABLESTYLE
350
7A4
  3
CVIEWDETAILSTYLE
350
7A6
  3
CVIEWSECTIONSTYLE
350
7A7
  3
DIMASSOC
350
7AB
  3
INDEXCTL
350
7AA
  3
SORTENTS
350
7A9
  3
XCLIPFRAME
350
7AC
  0
DICTIONARY
  5
3D
102
{ACAD_REACTORS
330
C
102
}
330
C
100
AcDbDictionary
281
     1
  0
XRECORD
  5
7B1
102
{ACAD_REACTORS
330
C
102
}
330
C
100
AcDbXrecord
280
     1
  1
DWGPROPS COOKIE
  2

  3

  4

  6

  7

  8
Yoshitsune
  9

300
=
301
=
302
=
303
=
304
=
305
=
306
=
307
=
308
=
309
=
 40
0.0034633796296296
 41
2454875.719395718
 42
2457192.687960174
  1

 90
        0
  0
XRECORD
  5
794
102
{ACAD_REACTORS
330
793
102
}
330
793
100
AcDbXrecord
280
     1
290
     1
  0
XRECORD
  5
796
102
{ACAD_REACTORS
330
795
102
}
330
795
100
AcDbXrecord
280
     1
290
     1
  0
XRECORD
  5
798
102
{ACAD_REACTORS
330
797
102
}
330
797
100
AcDbXrecord
280
     1
290
     1
  0
XRECORD
  5
79A
102
{ACAD_REACTORS
330
799
102
}
330
799
100
AcDbXrecord
280
     1
290
     1
  0
XRECORD
  5
79C
102
{ACAD_REACTORS
330
79B
102
}
330
79B
100
AcDbXrecord
280
     1
290
     1
  0
XRECORD
  5
79E
102
{ACAD_REACTORS
330
79D
102
}
330
79D
100
AcDbXrecord
280
     1
290
     1
  0
XRECORD
  5
7A0
102
{ACAD_REACTORS
330
79F
102
}
330
79F
100
AcDbXrecord
280
     1
290
     1
  0
XRECORD
  5
7A2
102
{ACAD_REACTORS
330
7A1
102
}
330
7A1
100
AcDbXrecord
280
     1
290
     1
  0
XRECORD
  5
73D
102
{ACAD_REACTORS
330
73C
102
}
330
73C
100
AcDbXrecord
280
     1
340
18
  0
XRECORD
  5
73B
102
{ACAD_REACTORS
330
73A
102
}
330
73A
100
AcDbXrecord
280
     1
340
15
  0
ACDBDETAILVIEWSTYLE
  5
78F
102
{ACAD_XDICTIONARY
360
7E9
102
}
102
{ACAD_REACTORS
330
78E
102
}
330
78E
100
AcDbModelDocViewStyle
 70
     0
  3
Imperial24
290
     0
100
AcDbDetailViewStyle
 70
     0
 71
     0
 90
        3
 71
     1
340
F
 40
0.24
340
0
 40
0.24
300

 40
0.36
280
     3
 71
     2
340
14
 90
       25
 71
     3
340
F
 40
0.24
 90
        1
 40
0.75
 90
        1
300
%<\AcVar ViewType \f "%tc1">% %<\AcVar ViewDetailId>%\PSCALE %<\AcVar ViewScale \f "%sn">%
 71
     4
340
14
 90
       25
340
14
 90
       25
280
     0
  0
LAYOUT
  5
790
102
{ACAD_XDICTIONARY
360
7EB
102
}
102
{ACAD_REACTORS
330
94
102
}
330
94
100
AcDbPlotSettings
  1

  2
Canon LBP9100C
  4

  6

 40
0.0
 41
0.0
 42
0.0
 43
0.0
 44
0.0
 45
0.0
 46
0.0
 47
0.0
 48
0.0
 49
0.0
140
0.0
141
0.0
142
1.0
143
1.0
 70
  1712
 72
     0
 73
     0
 74
     0
  7

 75
     0
147
1.0
148
0.0
149
0.0
100
AcDbLayout
  1
Model
 70
     1
 71
     0
 10
0.0
 20
0.0
 11
12.0
 21
9.0
 12
0.0
 22
0.0
 32
0.0
 14
0.0
 24
0.0
 34
0.0
 15
0.0
 25
0.0
 35
0.0
146
0.0
 13
0.0
 23
0.0
 33
0.0
 16
1.0
 26
0.0
 36
0.0
 17
0.0
 27
1.0
 37
0.0
 76
     0
330
18
331
739
  0
LAYOUT
  5
791
102
{ACAD_XDICTIONARY
360
7ED
102
}
102
{ACAD_REACTORS
330
94
102
}
330
94
100
AcDbPlotSettings
  1

  2
Canon LBP9100C
  4

  6

 40
0.0
 41
0.0
 42
0.0
 43
0.0
 44
0.0
 45
0.0
 46
0.0
 47
0.0
 48
0.0
 49
0.0
140
0.0
141
0.0
142
1.0
143
1.0
 70
   688
 72
     0
 73
     0
 74
     5
  7

 75
    16
147
1.0
148
0.0
149
0.0
100
AcDbLayout
  1
レイアウト1
 70
     1
 71
     1
 10
0.0
 20
0.0
 11
420.0
 21
297.0
 12
0.0
 22
0.0
 32
0.0
 14
1.000000000000000E+20
 24
1.000000000000000E+20
 34
1.000000000000000E+20
 15
-1.000000000000000E+20
 25
-1.000000000000000E+20
 35
-1.000000000000000E+20
146
0.0
 13
0.0
 23
0.0
 33
0.0
 16
1.0
 26
0.0
 36
0.0
 17
0.0
 27
1.0
 37
0.0
 76
     0
330
15
  0
MATERIAL
  5
74C
102
{ACAD_XDICTIONARY
360
74D
102
}
102
{ACAD_REACTORS
330
743
102
}
330
743
100
AcDbMaterial
  1
ByBlock
 72
     0
 43
0.0208333333333333
 43
0.0
 43
0.0
 43
0.0
 43
0.0
 43
0.0208333333333333
 43
0.0
 43
0.0
 43
0.0
 43
0.0
 43
1.0
 43
0.0
 43
0.0
 43
0.0
 43
0.0
 43
1.0
 77
     0
 47
0.0208333333333333
 47
0.0
 47
0.0
 47
0.0
 47
0.0
 47
0.0208333333333333
 47
0.0
 47
0.0
 47
0.0
 47
0.0
 47
1.0
 47
0.0
 47
0.0
 47
0.0
 47
0.0
 47
1.0
171
     0
 49
0.0208333333333333
 49
0.0
 49
0.0
 49
0.0
 49
0.0
 49
0.0208333333333333
 49
0.0
 49
0.0
 49
0.0
 49
0.0
 49
1.0
 49
0.0
 49
0.0
 49
0.0
 49
0.0
 49
1.0
175
     0
142
0.0208333333333333
142
0.0
142
0.0
142
0.0
142
0.0
142
0.0208333333333333
142
0.0
142
0.0
142
0.0
142
0.0
142
1.0
142
0.0
142
0.0
142
0.0
142
0.0
142
1.0
179
     0
144
0.0208333333333333
144
0.0
144
0.0
144
0.0
144
0.0
144
0.0208333333333333
144
0.0
144
0.0
144
0.0
144
0.0
144
1.0
144
0.0
144
0.0
144
0.0
144
0.0
144
1.0
147
0.0208333333333333
147
0.0
147
0.0
147
0.0
147
0.0
147
0.0208333333333333
147
0.0
147
0.0
147
0.0
147
0.0
147
1.0
147
0.0
147
0.0
147
0.0
147
0.0
147
1.0
  0
MATERIAL
  5
744
102
{ACAD_XDICTIONARY
360
745
102
}
102
{ACAD_REACTORS
330
743
102
}
330
743
100
AcDbMaterial
  1
ByLayer
 72
     0
 43
0.0208333333333333
 43
0.0
 43
0.0
 43
0.0
 43
0.0
 43
0.0208333333333333
 43
0.0
 43
0.0
 43
0.0
 43
0.0
 43
1.0
 43
0.0
 43
0.0
 43
0.0
 43
0.0
 43
1.0
 77
     0
 47
0.0208333333333333
 47
0.0
 47
0.0
 47
0.0
 47
0.0
 47
0.0208333333333333
 47
0.0
 47
0.0
 47
0.0
 47
0.0
 47
1.0
 47
0.0
 47
0.0
 47
0.0
 47
0.0
 47
1.0
171
     0
 49
0.0208333333333333
 49
0.0
 49
0.0
 49
0.0
 49
0.0
 49
0.0208333333333333
 49
0.0
 49
0.0
 49
0.0
 49
0.0
 49
1.0
 49
0.0
 49
0.0
 49
0.0
 49
0.0
 49
1.0
175
     0
142
0.0208333333333333
142
0.0
142
0.0
142
0.0
142
0.0
142
0.0208333333333333
142
0.0
142
0.0
142
0.0
142
0.0
142
1.0
142
0.0
142
0.0
142
0.0
142
0.0
142
1.0
179
     0
144
0.0208333333333333
144
0.0
144
0.0
144
0.0
144
0.0
144
0.0208333333333333
144
0.0
144
0.0
144
0.0
144
0.0
144
1.0
144
0.0
144
0.0
144
0.0
144
0.0
144
1.0
147
0.0208333333333333
147
0.0
147
0.0
147
0.0
147
0.0
147
0.0208333333333333
147
0.0
147
0.0
147
0.0
147
0.0
147
1.0
147
0.0
147
0.0
147
0.0
147
0.0
147
1.0
  0
MATERIAL
  5
754
102
{ACAD_XDICTIONARY
360
755
102
}
102
{ACAD_REACTORS
330
743
102
}
330
743
100
AcDbMaterial
  1
Global
 72
     0
 43
0.0208333333333333
 43
0.0
 43
0.0
 43
0.0
 43
0.0
 43
0.0208333333333333
 43
0.0
 43
0.0
 43
0.0
 43
0.0
 43
1.0
 43
0.0
 43
0.0
 43
0.0
 43
0.0
 43
1.0
 77
     0
 47
0.0208333333333333
 47
0.0
 47
0.0
 47
0.0
 47
0.0
 47
0.0208333333333333
 47
0.0
 47
0.0
 47
0.0
 47
0.0
 47
1.0
 47
0.0
 47
0.0
 47
0.0
 47
0.0
 47
1.0
171
     0
 49
0.0208333333333333
 49
0.0
 49
0.0
 49
0.0
 49
0.0
 49
0.0208333333333333
 49
0.0
 49
0.0
 49
0.0
 49
0.0
 49
1.0
 49
0.0
 49
0.0
 49
0.0
 49
0.0
 49
1.0
175
     0
142
0.0208333333333333
142
0.0
142
0.0
142
0.0
142
0.0
142
0.0208333333333333
142
0.0
142
0.0
142
0.0
142
0.0
142
1.0
142
0.0
142
0.0
142
0.0
142
0.0
142
1.0
179
     0
144
0.0208333333333333
144
0.0
144
0.0
144
0.0
144
0.0
144
0.0208333333333333
144
0.0
144
0.0
144
0.0
144
0.0
144
1.0
144
0.0
144
0.0
144
0.0
144
0.0
144
1.0
147
0.0208333333333333
147
0.0
147
0.0
147
0.0
147
0.0
147
0.0208333333333333
147
0.0
147
0.0
147
0.0
147
0.0
147
1.0
147
0.0
147
0.0
147
0.0
147
0.0
147
1.0
  0
MLEADERSTYLE
  5
78B
102
{ACAD_REACTORS
330
78A
102
}
330
78A
100
AcDbMLeaderStyle
170
     2
171
     1
172
     0
 90
        2
 40
0.0
 41
0.0
173
     1
 91
-1056964608
340
12
 92
       -2
290
     1
 42
0.09
291
     1
 43
0.36
  3
Standard
 44
0.18
300

342
F
174
     1
178
     6
175
     1
176
     0
 93
-1056964608
 45
0.18
292
     0
297
     0
 46
0.18
 94
-1056964608
 47
1.0
 49
1.0
140
1.0
293
     1
141
0.0
294
     1
177
     0
142
1.0
295
     0
296
     0
143
0.125
1001
ACAD_MLEADERVER
1070
     2
  0
MLINESTYLE
  5
1C
102
{ACAD_REACTORS
330
1B
102
}
330
1B
100
AcDbMlineStyle
  2
STANDARD
 70
     0
  3

 62
   256
 51
90.0
 52
90.0
 71
     2
 49
0.5
 62
   256
  6
BYLAYER
 49
-0.5
 62
   256
  6
BYLAYER
  0
ACDBPLACEHOLDER
  5
742
102
{ACAD_REACTORS
330
741
102
}
330
741
  0
SCALE
  5
779
102
{ACAD_REACTORS
330
778
102
}
330
778
100
AcDbScale
 70
     0
300
1:1
140
1.0
141
1.0
290
     1
  0
SCALE
  5
77A
102
{ACAD_REACTORS
330
778
102
}
330
778
100
AcDbScale
 70
     0
300
1/128" = 1'-0"
140
0.0078125
141
12.0
290
     0
  0
SCALE
  5
77B
102
{ACAD_REACTORS
330
778
102
}
330
778
100
AcDbScale
 70
     0
300
1/64" = 1'-0"
140
0.015625
141
12.0
290
     0
  0
SCALE
  5
77C
102
{ACAD_REACTORS
330
778
102
}
330
778
100
AcDbScale
 70
     0
300
1/32" = 1'-0"
140
0.03125
141
12.0
290
     0
  0
SCALE
  5
77D
102
{ACAD_REACTORS
330
778
102
}
330
778
100
AcDbScale
 70
     0
300
1/16" = 1'-0"
140
0.0625
141
12.0
290
     0
  0
SCALE
  5
77E
102
{ACAD_REACTORS
330
778
102
}
330
778
100
AcDbScale
 70
     0
300
3/32" = 1'-0"
140
0.09375
141
12.0
290
     0
  0
SCALE
  5
77F
102
{ACAD_REACTORS
330
778
102
}
330
778
100
AcDbScale
 70
     0
300
1/8" = 1'-0"
140
0.125
141
12.0
290
     0
  0
SCALE
  5
780
102
{ACAD_REACTORS
330
778
102
}
330
778
100
AcDbScale
 70
     0
300
3/16" = 1'-0"
140
0.1875
141
12.0
290
     0
  0
SCALE
  5
781
102
{ACAD_REACTORS
330
778
102
}
330
778
100
AcDbScale
 70
     0
300
1/4" = 1'-0"
140
0.25
141
12.0
290
     0
  0
SCALE
  5
782
102
{ACAD_REACTORS
330
778
102
}
330
778
100
AcDbScale
 70
     0
300
3/8" = 1'-0"
140
0.375
141
12.0
290
     0
  0
SCALE
  5
783
102
{ACAD_REACTORS
330
778
102
}
330
778
100
AcDbScale
 70
     0
300
1/2" = 1'-0"
140
0.5
141
12.0
290
     0
  0
SCALE
  5
784
102
{ACAD_REACTORS
330
778
102
}
330
778
100
AcDbScale
 70
     0
300
3/4" = 1'-0"
140
0.75
141
12.0
290
     0
  0
SCALE
  5
785
102
{ACAD_REACTORS
330
778
102
}
330
778
100
AcDbScale
 70
     0
300
1" = 1'-0"
140
1.0
141
12.0
290
     0
  0
SCALE
  5
786
102
{ACAD_REACTORS
330
778
102
}
330
778
100
AcDbScale
 70
     0
300
1-1/2" = 1'-0"
140
1.5
141
12.0
290
     0
  0
SCALE
  5
787
102
{ACAD_REACTORS
330
778
102
}
330
778
100
AcDbScale
 70
     0
300
3" = 1'-0"
140
3.0
141
12.0
290
     0
  0
SCALE
  5
788
102
{ACAD_REACTORS
330
778
102
}
330
778
100
AcDbScale
 70
     0
300
6" = 1'-0"
140
6.0
141
12.0
290
     0
  0
SCALE
  5
789
102
{ACAD_REACTORS
330
778
102
}
330
778
100
AcDbScale
 70
     0
300
1'-0" = 1'-0"
140
12.0
141
12.0
290
     0
  0
ACDBSECTIONVIEWSTYLE
  5
78D
102
{ACAD_XDICTIONARY
360
7E7
102
}
102
{ACAD_REACTORS
330
78C
102
}
330
78C
100
AcDbModelDocViewStyle
 70
     0
  3
Imperial24
290
     0
100
AcDbSectionViewStyle
 70
     0
 71
     0
 90
       78
 71
     1
340
F
 40
0.24
340
0
340
0
 40
0.24
300
I, O, Q, S, X, Z
 40
0.48
 90
        3
 40
0.18
 90
        1
 71
     2
340
14
 90
       25
340
14
 90
       50
 40
0.24
 40
0.0
 40
0.24
 71
     3
340
F
 40
0.24
 90
        1
 40
0.75
 90
        1
300
%<\AcVar ViewType \f "%tc1">% %<\AcVar ViewSectionStartId>%-%<\AcVar ViewSectionEndId>%\PSCALE %<\AcVar ViewScale \f "%sn">%
 71
     4
300
ANSI31
 40
1.0
 90
        0
290
     0
290
     0
 90
        6
 40
0.0
 40
1.570796326794896
 40
0.2617993877991494
 40
1.308996938995747
 40
-0.2617993877991494
 40
1.832595714594046
  0
TABLESTYLE
  5
777
102
{ACAD_XDICTIONARY
360
7AE
102
}
102
{ACAD_REACTORS
330
776
102
}
330
776
100
AcDbTableStyle
  3
Standard
 70
     0
 71
     0
 40
0.06
 41
0.06
280
     0
281
     0
  7
STANDARD
140
0.18
170
     2
 62
     0
 63
     7
283
     0
274
    -2
284
     1
 64
     0
275
    -2
285
     1
 65
     0
276
    -2
286
     1
 66
     0
277
    -2
287
     1
 67
     0
278
    -2
288
     1
 68
     0
279
    -2
289
     1
 69
     0
  7
STANDARD
140
0.25
170
     5
 62
     0
 63
     7
283
     0
274
    -2
284
     1
 64
     0
275
    -2
285
     1
 65
     0
276
    -2
286
     1
 66
     0
277
    -2
287
     1
 67
     0
278
    -2
288
     1
 68
     0
279
    -2
289
     1
 69
     0
  7
STANDARD
140
0.18
170
     5
 62
     0
 63
     7
283
     0
274
    -2
284
     1
 64
     0
275
    -2
285
     1
 65
     0
276
    -2
286
     1
 66
     0
277
    -2
287
     1
 67
     0
278
    -2
288
     1
 68
     0
279
    -2
289
     1
 69
     0
  0
VISUALSTYLE
  5
762
102
{ACAD_XDICTIONARY
360
7BF
102
}
102
{ACAD_REACTORS
330
75C
102
}
330
75C
100
AcDbVisualStyle
  2
2dWireframe
 70
     4
 71
     0
 72
     2
 73
     0
 90
        0
 40
-0.6
 41
-30.0
 62
     5
 63
     7
 74
     1
 91
        4
 64
     7
 65
   257
 75
     1
175
     1
 42
1.0
 92
        0
 66
   257
 43
1.0
 76
     1
 77
     6
 78
     2
 67
     7
 79
     5
170
     0
171
     0
290
     0
174
     0
 93
        1
 44
0.0
173
     0
291
     0
 45
0.0
1001
ACAD
1000
AcDbSavedByObjectVersion
1070
     0
  0
VISUALSTYLE
  5
761
102
{ACAD_XDICTIONARY
360
7BD
102
}
102
{ACAD_REACTORS
330
75C
102
}
330
75C
100
AcDbVisualStyle
  2
Basic
 70
     7
 71
     1
 72
     0
 73
     1
 90
        0
 40
-0.6
 41
-30.0
 62
     5
 63
     7
 74
     0
 91
        4
 64
     7
 65
   257
 75
     1
175
     1
 42
1.0
 92
        8
 66
     7
 43
1.0
 76
     1
 77
     6
 78
     2
 67
     7
 79
     5
170
     0
171
     0
290
     0
174
     0
 93
        1
 44
0.0
173
     0
291
     1
 45
0.0
1001
ACAD
1000
AcDbSavedByObjectVersion
1070
     0
  0
VISUALSTYLE
  5
768
102
{ACAD_XDICTIONARY
360
7CB
102
}
102
{ACAD_REACTORS
330
75C
102
}
330
75C
100
AcDbVisualStyle
  2
Brighten
 70
    12
 71
     2
 72
     2
 73
     0
 90
        0
 40
-0.6
 41
-30.0
 62
     5
 63
     7
 74
     1
 91
        4
 64
     7
 65
   257
 75
     1
175
     1
 42
1.0
 92
        8
 66
     7
 43
1.0
 76
     1
 77
     6
 78
     2
 67
     7
 79
     5
170
     0
171
     0
290
     0
174
     0
 93
        1
 44
50.0
173
     0
291
     1
 45
0.0
1001
ACAD
1000
AcDbSavedByObjectVersion
1070
     0
  0
VISUALSTYLE
  5
76C
102
{ACAD_XDICTIONARY
360
7D3
102
}
102
{ACAD_REACTORS
330
75C
102
}
330
75C
100
AcDbVisualStyle
  2
ColorChange
 70
    16
 71
     2
 72
     2
 73
     3
 90
        0
 40
-0.6
 41
-30.0
 62
     5
 63
     8
 74
     1
 91
        4
 64
     7
 65
   257
 75
     1
175
     1
 42
1.0
 92
        8
 66
     8
 43
1.0
 76
     1
 77
     6
 78
     2
 67
     7
 79
     5
170
     0
171
     0
290
     0
174
     0
 93
        1
 44
0.0
173
     0
291
     1
 45
0.0
1001
ACAD
1000
AcDbSavedByObjectVersion
1070
     0
  0
VISUALSTYLE
  5
765
102
{ACAD_XDICTIONARY
360
7C5
102
}
102
{ACAD_REACTORS
330
75C
102
}
330
75C
100
AcDbVisualStyle
  2
Conceptual
 70
     9
 71
     3
 72
     2
 73
     0
 90
        0
 40
-0.6
 41
-30.0
 62
     5
 63
     7
 74
     2
 91
        2
 64
     7
 65
   257
 75
     1
175
     1
 42
179.0
 92
        8
 66
     7
 43
1.0
 76
     1
 77
     6
 78
     2
 67
     7
 79
     3
170
     0
171
     0
290
     0
174
     0
 93
        1
 44
0.0
173
     0
291
     0
 45
0.0
1001
ACAD
1000
AcDbSavedByObjectVersion
1070
     0
  0
VISUALSTYLE
  5
767
102
{ACAD_XDICTIONARY
360
7C9
102
}
102
{ACAD_REACTORS
330
75C
102
}
330
75C
100
AcDbVisualStyle
  2
Dim
 70
    11
 71
     2
 72
     2
 73
     0
 90
        0
 40
-0.6
 41
-30.0
 62
     5
 63
     7
 74
     1
 91
        4
 64
     7
 65
   257
 75
     1
175
     1
 42
1.0
 92
        8
 66
     7
 43
1.0
 76
     1
 77
     6
 78
     2
 67
     7
 79
     5
170
     0
171
     0
290
     0
174
     0
 93
        1
 44
-50.0
173
     0
291
     1
 45
0.0
1001
ACAD
1000
AcDbSavedByObjectVersion
1070
     0
  0
VISUALSTYLE
  5
774
102
{ACAD_XDICTIONARY
360
7E3
102
}
102
{ACAD_REACTORS
330
75C
102
}
330
75C
100
AcDbVisualStyle
  2
EdgeColorOff
 70
    22
 71
     2
 72
     2
 73
     0
 90
        0
 40
-0.6
 41
-30.0
 62
     5
 63
     7
 74
     1
 91
        4
 64
     7
 65
   257
 75
     1
175
     1
 42
1.0
 92
        8
 66
     7
 43
1.0
 76
     1
 77
     6
 78
     2
 67
     7
 79
     5
170
     0
171
     0
290
     0
174
     0
 93
        1
 44
0.0
173
     0
291
     1
 45
0.0
1001
ACAD
1000
AcDbSavedByObjectVersion
1070
     0
  0
VISUALSTYLE
  5
76B
102
{ACAD_XDICTIONARY
360
7D1
102
}
102
{ACAD_REACTORS
330
75C
102
}
330
75C
100
AcDbVisualStyle
  2
Facepattern
 70
    15
 71
     2
 72
     2
 73
     0
 90
        0
 40
-0.6
 41
-30.0
 62
     5
 63
     7
 74
     1
 91
        4
 64
     7
 65
   257
 75
     1
175
     1
 42
1.0
 92
        8
 66
     7
 43
1.0
 76
     1
 77
     6
 78
     2
 67
     7
 79
     5
170
     0
171
     0
290
     0
174
     0
 93
        1
 44
0.0
173
     0
291
     1
 45
0.0
1001
ACAD
1000
AcDbSavedByObjectVersion
1070
     0
  0
VISUALSTYLE
  5
75D
102
{ACAD_XDICTIONARY
360
7B5
102
}
102
{ACAD_REACTORS
330
75C
102
}
330
75C
100
AcDbVisualStyle
  2
Flat
 70
     0
 71
     2
 72
     1
 73
     1
 90
        2
 40
-0.6
 41
30.0
 62
     5
 63
     7
 74
     0
 91
        0
 64
     7
 65
   257
 75
     1
175
     1
 42
1.0
 92
        8
 66
     7
 43
1.0
 76
     1
 77
     6
 78
     2
 67
     7
 79
     5
170
     0
171
     0
290
     0
174
     0
 93
       13
 44
0.0
173
     0
291
     1
 45
0.0
1001
ACAD
1000
AcDbSavedByObjectVersion
1070
     0
  0
VISUALSTYLE
  5
75E
102
{ACAD_XDICTIONARY
360
7B7
102
}
102
{ACAD_REACTORS
330
75C
102
}
330
75C
100
AcDbVisualStyle
  2
FlatWithEdges
 70
     1
 71
     2
 72
     1
 73
     1
 90
        2
 40
-0.6
 41
30.0
 62
     5
 63
     7
 74
     1
 91
        0
 64
     7
 65
   257
 75
     1
175
     1
 42
1.0
 92
        0
 66
   257
 43
1.0
 76
     1
 77
     6
 78
     2
 67
     7
 79
     5
170
     0
171
     0
290
     0
174
     0
 93
       13
 44
0.0
173
     0
291
     1
 45
0.0
1001
ACAD
1000
AcDbSavedByObjectVersion
1070
     0
  0
VISUALSTYLE
  5
75F
102
{ACAD_XDICTIONARY
360
7B9
102
}
102
{ACAD_REACTORS
330
75C
102
}
330
75C
100
AcDbVisualStyle
  2
Gouraud
 70
     2
 71
     2
 72
     2
 73
     1
 90
        2
 40
-0.6
 41
30.0
 62
     5
 63
     7
 74
     0
 91
        0
 64
     7
 65
   257
 75
     1
175
     1
 42
1.0
 92
        0
 66
     7
 43
1.0
 76
     1
 77
     6
 78
     2
 67
     7
 79
     5
170
     0
171
     0
290
     0
174
     0
 93
       13
 44
0.0
173
     0
291
     1
 45
0.0
1001
ACAD
1000
AcDbSavedByObjectVersion
1070
     0
  0
VISUALSTYLE
  5
760
102
{ACAD_XDICTIONARY
360
7BB
102
}
102
{ACAD_REACTORS
330
75C
102
}
330
75C
100
AcDbVisualStyle
  2
GouraudWithEdges
 70
     3
 71
     2
 72
     2
 73
     1
 90
        2
 40
-0.6
 41
30.0
 62
     5
 63
     7
 74
     1
 91
        0
 64
     7
 65
   257
 75
     1
175
     1
 42
1.0
 92
        0
 66
   257
 43
1.0
 76
     1
 77
     6
 78
     2
 67
     7
 79
     5
170
     0
171
     0
290
     0
174
     0
 93
       13
 44
0.0
173
     0
291
     1
 45
0.0
1001
ACAD
1000
AcDbSavedByObjectVersion
1070
     0
  0
VISUALSTYLE
  5
764
102
{ACAD_XDICTIONARY
360
7C3
102
}
102
{ACAD_REACTORS
330
75C
102
}
330
75C
100
AcDbVisualStyle
  2
Hidden
 70
     6
 71
     1
 72
     2
 73
     2
 90
        0
 40
-0.6
 41
-30.0
 62
     5
 63
     7
 74
     2
 91
        2
 64
     7
 65
   257
 75
     2
175
     1
 42
40.0
 92
        0
 66
   257
 43
1.0
 76
     1
 77
     6
 78
     2
 67
     7
 79
     3
170
     0
171
     0
290
     0
174
     0
 93
        1
 44
0.0
173
     0
291
     0
 45
0.0
1001
ACAD
1000
AcDbSavedByObjectVersion
1070
     0
  0
VISUALSTYLE
  5
772
102
{ACAD_XDICTIONARY
360
7DF
102
}
102
{ACAD_REACTORS
330
75C
102
}
330
75C
100
AcDbVisualStyle
  2
JitterOff
 70
    20
 71
     2
 72
     2
 73
     0
 90
        0
 40
-0.6
 41
-30.0
 62
     5
 63
     7
 74
     1
 91
        4
 64
     7
 65
   257
 75
     1
175
     1
 42
1.0
 92
       10
 66
     7
 43
1.0
 76
     1
 77
     6
 78
     2
 67
     7
 79
     5
170
     0
171
     0
290
     0
174
     0
 93
        1
 44
0.0
173
     0
291
     1
 45
0.0
1001
ACAD
1000
AcDbSavedByObjectVersion
1070
     0
  0
VISUALSTYLE
  5
76A
102
{ACAD_XDICTIONARY
360
7CF
102
}
102
{ACAD_REACTORS
330
75C
102
}
330
75C
100
AcDbVisualStyle
  2
Linepattern
 70
    14
 71
     2
 72
     2
 73
     0
 90
        0
 40
-0.6
 41
-30.0
 62
     5
 63
     7
 74
     1
 91
        4
 64
     7
 65
   257
 75
     7
175
     7
 42
1.0
 92
        8
 66
     7
 43
1.0
 76
     1
 77
     6
 78
     2
 67
     7
 79
     5
170
     0
171
     0
290
     0
174
     0
 93
        1
 44
0.0
173
     0
291
     1
 45
0.0
1001
ACAD
1000
AcDbSavedByObjectVersion
1070
     0
  0
VISUALSTYLE
  5
773
102
{ACAD_XDICTIONARY
360
7E1
102
}
102
{ACAD_REACTORS
330
75C
102
}
330
75C
100
AcDbVisualStyle
  2
OverhangOff
 70
    21
 71
     2
 72
     2
 73
     0
 90
        0
 40
-0.6
 41
-30.0
 62
     5
 63
     7
 74
     1
 91
        4
 64
     7
 65
   257
 75
     1
175
     1
 42
1.0
 92
        9
 66
     7
 43
1.0
 76
     1
 77
     6
 78
     2
 67
     7
 79
     5
170
     0
171
     0
290
     0
174
     0
 93
        1
 44
0.0
173
     0
291
     1
 45
0.0
1001
ACAD
1000
AcDbSavedByObjectVersion
1070
     0
  0
VISUALSTYLE
  5
766
102
{ACAD_XDICTIONARY
360
7C7
102
}
102
{ACAD_REACTORS
330
75C
102
}
330
75C
100
AcDbVisualStyle
  2
Realistic
 70
     8
 71
     2
 72
     3
 73
     0
 90
        2
 40
-0.6
 41
30.0
 62
     5
 63
     7
 74
     0
 91
        0
 64
     7
 65
   257
 75
     1
175
     1
 42
1.0
 92
        8
 66
   257
 43
1.0
 76
     1
 77
     6
 78
     2
 67
     7
 79
     3
170
     0
171
     0
290
     0
174
     0
 93
       13
 44
0.0
173
     0
291
     0
 45
0.0
1001
ACAD
1000
AcDbSavedByObjectVersion
1070
     0
  0
VISUALSTYLE
  5
771
102
{ACAD_XDICTIONARY
360
7DD
102
}
102
{ACAD_REACTORS
330
75C
102
}
330
75C
100
AcDbVisualStyle
  2
Shaded
 70
    27
 71
     2
 72
     2
 73
     1
 90
        2
 40
-0.6
 41
30.0
 62
     5
 63
     7
 74
     0
 91
        4
 64
     7
 65
   257
 75
     1
175
     1
 42
1.0
 92
        8
 66
   257
 43
1.0
 76
     1
 77
     6
 78
     2
 67
     8
 79
     3
170
     0
171
     0
290
     0
174
     0
 93
        5
 44
0.0
173
     0
291
     0
 45
0.0
1001
ACAD
1000
AcDbSavedByObjectVersion
1070
     0
  0
VISUALSTYLE
  5
770
102
{ACAD_XDICTIONARY
360
7DB
102
}
102
{ACAD_REACTORS
330
75C
102
}
330
75C
100
AcDbVisualStyle
  2
Shaded with edges
 70
    26
 71
     2
 72
     2
 73
     1
 90
        2
 40
-0.6
 41
30.0
 62
     5
 63
     7
 74
     1
 91
       10
 64
     7
 65
   257
 75
     2
175
     1
 42
1.0
 92
        8
 66
   257
 43
1.0
 76
     1
 77
     6
 78
     2
 67
     7
 79
     3
170
     0
171
     0
290
     0
174
     0
 93
        5
 44
0.0
173
     0
291
     0
 45
0.0
1001
ACAD
1000
AcDbSavedByObjectVersion
1070
     0
  0
VISUALSTYLE
  5
76D
102
{ACAD_XDICTIONARY
360
7D5
102
}
102
{ACAD_REACTORS
330
75C
102
}
330
75C
100
AcDbVisualStyle
  2
Shades of Gray
 70
    23
 71
     2
 72
     2
 73
     3
 90
        0
 40
-0.6
 41
-30.0
 62
     5
 63
     7
 74
     2
 91
        2
 64
     7
 65
     7
 75
     1
175
     1
 42
40.0
 92
        8
 66
     7
 43
1.0
 76
     1
 77
     6
 78
     2
 67
     7
 79
     3
170
     0
171
     0
290
     0
174
     0
 93
        1
 44
0.0
173
     0
291
     0
 45
0.0
1001
ACAD
1000
AcDbSavedByObjectVersion
1070
     0
  0
VISUALSTYLE
  5
76E
102
{ACAD_XDICTIONARY
360
7D7
102
}
102
{ACAD_REACTORS
330
75C
102
}
330
75C
100
AcDbVisualStyle
  2
Sketchy
 70
    24
 71
     1
 72
     2
 73
     2
 90
        0
 40
-0.6
 41
-30.0
 62
     5
 63
     7
 74
     2
 91
        2
 64
     7
 65
     7
 75
     1
175
     1
 42
40.0
 92
       11
 66
     7
 43
1.0
 76
     1
 77
     6
 78
     2
 67
     7
 79
     6
170
     0
171
     0
290
     0
174
     0
 93
        1
 44
0.0
173
     0
291
     0
 45
0.0
1001
ACAD
1000
AcDbSavedByObjectVersion
1070
     0
  0
VISUALSTYLE
  5
769
102
{ACAD_XDICTIONARY
360
7CD
102
}
102
{ACAD_REACTORS
330
75C
102
}
330
75C
100
AcDbVisualStyle
  2
Thicken
 70
    13
 71
     2
 72
     2
 73
     0
 90
        0
 40
-0.6
 41
-30.0
 62
     5
 63
     7
 74
     1
 91
        4
 64
     7
 65
   257
 75
     1
175
     1
 42
1.0
 92
       12
 66
     7
 43
1.0
 76
     1
 77
     6
 78
     2
 67
     7
 79
     5
170
     0
171
     0
290
     0
174
     0
 93
        1
 44
0.0
173
     0
291
     1
 45
0.0
1001
ACAD
1000
AcDbSavedByObjectVersion
1070
     0
  0
VISUALSTYLE
  5
763
102
{ACAD_XDICTIONARY
360
7C1
102
}
102
{ACAD_REACTORS
330
75C
102
}
330
75C
100
AcDbVisualStyle
  2
Wireframe
 70
     5
 71
     0
 72
     2
 73
     0
 90
        0
 40
-0.6
 41
-30.0
 62
     5
 63
     7
 74
     1
 91
        4
 64
     7
 65
   257
 75
     1
175
     1
 42
1.0
 92
        0
 66
   257
 43
1.0
 76
     1
 77
     6
 78
     2
 67
     7
 79
     3
170
     0
171
     0
290
     0
174
     0
 93
        1
 44
0.0
173
     0
291
     0
 45
0.0
1001
ACAD
1000
AcDbSavedByObjectVersion
1070
     0
  0
VISUALSTYLE
  5
76F
102
{ACAD_XDICTIONARY
360
7D9
102
}
102
{ACAD_REACTORS
330
75C
102
}
330
75C
100
AcDbVisualStyle
  2
X-Ray
 70
    25
 71
     2
 72
     2
 73
     1
 90
        1
 40
0.5
 41
-30.0
 62
     5
 63
     7
 74
     1
 91
        0
 64
     7
 65
   257
 75
     1
175
     1
 42
1.0
 92
        8
 66
     7
 43
1.0
 76
     1
 77
     6
 78
     2
 67
     7
 79
     3
170
     0
171
     0
290
     0
174
     0
 93
       13
 44
0.0
173
     0
291
     0
 45
0.0
1001
ACAD
1000
AcDbSavedByObjectVersion
1070
     0
  0
DICTIONARYVAR
  5
7A8
102
{ACAD_REACTORS
330
7A3
102
}
330
7A3
100
DictionaryVariables
280
     0
  1
1:1
  0
DICTIONARYVAR
  5
7A5
102
{ACAD_REACTORS
330
7A3
102
}
330
7A3
100
DictionaryVariables
280
     0
  1
STANDARD
  0
DICTIONARYVAR
  5
7A4
102
{ACAD_REACTORS
330
7A3
102
}
330
7A3
100
DictionaryVariables
280
     0
  1
STANDARD
  0
DICTIONARYVAR
  5
7A6
102
{ACAD_REACTORS
330
7A3
102
}
330
7A3
100
DictionaryVariables
280
     0
  1
Imperial24
  0
DICTIONARYVAR
  5
7A7
102
{ACAD_REACTORS
330
7A3
102
}
330
7A3
100
DictionaryVariables
280
     0
  1
Imperial24
  0
DICTIONARYVAR
  5
7AB
102
{ACAD_REACTORS
330
7A3
102
}
330
7A3
100
DictionaryVariables
280
     0
  1
1
  0
DICTIONARYVAR
  5
7AA
102
{ACAD_REACTORS
330
7A3
102
}
330
7A3
100
DictionaryVariables
280
     0
  1
0
  0
DICTIONARYVAR
  5
7A9
102
{ACAD_REACTORS
330
7A3
102
}
330
7A3
100
DictionaryVariables
280
     0
  1
127
  0
DICTIONARYVAR
  5
7AC
102
{ACAD_REACTORS
330
7A3
102
}
330
7A3
100
DictionaryVariables
280
     0
  1
2
  0
DICTIONARY
  5
7E9
330
78F
100
AcDbDictionary
280
     1
281
     1
  3
ACAD_XREC_ROUNDTRIP
360
7EA
  0
DICTIONARY
  5
7EB
330
790
100
AcDbDictionary
280
     1
281
     1
  3
ACAD_XREC_ROUNDTRIP
360
7EC
  0
DICTIONARY
  5
7ED
330
791
100
AcDbDictionary
280
     1
281
     1
  3
ACAD_XREC_ROUNDTRIP
360
7EE
  0
DICTIONARY
  5
74D
330
74C
100
AcDbDictionary
280
     1
281
     1
  3
ACAD_XREC_ROUNDTRIP
360
7B3
  3
BUMPTILE
360
74F
  3
DIFFUSETILE
360
74E
  3
OPACITYTILE
360
752
  3
REFLECTIONTILE
360
751
  3
REFRACTIONTILE
360
753
  3
SPECULARTILE
360
750
  0
DICTIONARY
  5
745
330
744
100
AcDbDictionary
280
     1
281
     1
  3
ACAD_XREC_ROUNDTRIP
360
7B2
  3
BUMPTILE
360
747
  3
DIFFUSETILE
360
746
  3
OPACITYTILE
360
74A
  3
REFLECTIONTILE
360
749
  3
REFRACTIONTILE
360
74B
  3
SPECULARTILE
360
748
  0
DICTIONARY
  5
755
330
754
100
AcDbDictionary
280
     1
281
     1
  3
ACAD_XREC_ROUNDTRIP
360
7B4
  3
BUMPTILE
360
757
  3
DIFFUSETILE
360
756
  3
OPACITYTILE
360
75A
  3
REFLECTIONTILE
360
759
  3
REFRACTIONTILE
360
75B
  3
SPECULARTILE
360
758
  0
DICTIONARY
  5
7E7
330
78D
100
AcDbDictionary
280
     1
281
     1
  3
ACAD_XREC_ROUNDTRIP
360
7E8
  0
DICTIONARY
  5
7AE
330
777
100
AcDbDictionary
280
     1
281
     1
  3
ACAD_ROUNDTRIP_2008_TABLESTYLE_CELLSTYLEMAP
360
7AF
  3
ACAD_XREC_ROUNDTRIP
360
7E5
  0
DICTIONARY
  5
7BF
330
762
100
AcDbDictionary
280
     1
281
     1
  3
ACAD_XREC_ROUNDTRIP
360
7C0
  0
DICTIONARY
  5
7BD
330
761
100
AcDbDictionary
280
     1
281
     1
  3
ACAD_XREC_ROUNDTRIP
360
7BE
  0
DICTIONARY
  5
7CB
330
768
100
AcDbDictionary
280
     1
281
     1
  3
ACAD_XREC_ROUNDTRIP
360
7CC
  0
DICTIONARY
  5
7D3
330
76C
100
AcDbDictionary
280
     1
281
     1
  3
ACAD_XREC_ROUNDTRIP
360
7D4
  0
DICTIONARY
  5
7C5
330
765
100
AcDbDictionary
280
     1
281
     1
  3
ACAD_XREC_ROUNDTRIP
360
7C6
  0
DICTIONARY
  5
7C9
330
767
100
AcDbDictionary
280
     1
281
     1
  3
ACAD_XREC_ROUNDTRIP
360
7CA
  0
DICTIONARY
  5
7E3
330
774
100
AcDbDictionary
280
     1
281
     1
  3
ACAD_XREC_ROUNDTRIP
360
7E4
  0
DICTIONARY
  5
7D1
330
76B
100
AcDbDictionary
280
     1
281
     1
  3
ACAD_XREC_ROUNDTRIP
360
7D2
  0
DICTIONARY
  5
7B5
330
75D
100
AcDbDictionary
280
     1
281
     1
  3
ACAD_XREC_ROUNDTRIP
360
7B6
  0
DICTIONARY
  5
7B7
330
75E
100
AcDbDictionary
280
     1
281
     1
  3
ACAD_XREC_ROUNDTRIP
360
7B8
  0
DICTIONARY
  5
7B9
330
75F
100
AcDbDictionary
280
     1
281
     1
  3
ACAD_XREC_ROUNDTRIP
360
7BA
  0
DICTIONARY
  5
7BB
330
760
100
AcDbDictionary
280
     1
281
     1
  3
ACAD_XREC_ROUNDTRIP
360
7BC
  0
DICTIONARY
  5
7C3
330
764
100
AcDbDictionary
280
     1
281
     1
  3
ACAD_XREC_ROUNDTRIP
360
7C4
  0
DICTIONARY
  5
7DF
330
772
100
AcDbDictionary
280
     1
281
     1
  3
ACAD_XREC_ROUNDTRIP
360
7E0
  0
DICTIONARY
  5
7CF
330
76A
100
AcDbDictionary
280
     1
281
     1
  3
ACAD_XREC_ROUNDTRIP
360
7D0
  0
DICTIONARY
  5
7E1
330
773
100
AcDbDictionary
280
     1
281
     1
  3
ACAD_XREC_ROUNDTRIP
360
7E2
  0
DICTIONARY
  5
7C7
330
766
100
AcDbDictionary
280
     1
281
     1
  3
ACAD_XREC_ROUNDTRIP
360
7C8
  0
DICTIONARY
  5
7DD
330
771
100
AcDbDictionary
280
     1
281
     1
  3
ACAD_XREC_ROUNDTRIP
360
7DE
  0
DICTIONARY
  5
7DB
330
770
100
AcDbDictionary
280
     1
281
     1
  3
ACAD_XREC_ROUNDTRIP
360
7DC
  0
DICTIONARY
  5
7D5
330
76D
100
AcDbDictionary
280
     1
281
     1
  3
ACAD_XREC_ROUNDTRIP
360
7D6
  0
DICTIONARY
  5
7D7
330
76E
100
AcDbDictionary
280
     1
281
     1
  3
ACAD_XREC_ROUNDTRIP
360
7D8
  0
DICTIONARY
  5
7CD
330
769
100
AcDbDictionary
280
     1
281
     1
  3
ACAD_XREC_ROUNDTRIP
360
7CE
  0
DICTIONARY
  5
7C1
330
763
100
AcDbDictionary
280
     1
281
     1
  3
ACAD_XREC_ROUNDTRIP
360
7C2
  0
DICTIONARY
  5
7D9
330
76F
100
AcDbDictionary
280
     1
281
     1
  3
ACAD_XREC_ROUNDTRIP
360
7DA
  0
XRECORD
  5
7EA
102
{ACAD_REACTORS
330
7E9
102
}
330
7E9
100
AcDbXrecord
280
     1
102
DISPLAYNAME
  1
Imperial24
102
FLAGS
 90
        0
  0
XRECORD
  5
7EC
102
{ACAD_REACTORS
330
7EB
102
}
330
7EB
100
AcDbXrecord
280
     1
102
SHADEPLOT
 70
     0
102
SHADEPLOTRESLEVEL
 70
     2
102
SHADEPLOTCUSTOMDPI
 70
   300
  0
XRECORD
  5
7EE
102
{ACAD_REACTORS
330
7ED
102
}
330
7ED
100
AcDbXrecord
280
     1
102
SHADEPLOT
 70
     0
102
SHADEPLOTRESLEVEL
 70
     2
102
SHADEPLOTCUSTOMDPI
 70
   300
  0
XRECORD
  5
7B3
102
{ACAD_REACTORS
330
74D
102
}
330
74D
100
AcDbXrecord
280
     1
102
MATERIAL
148
0.0
149
0.0
149
0.0
 93
        0
 94
      127
282
     0
 72
     0
 77
     0
171
     0
175
     0
179
     0
273
     0
  0
XRECORD
  5
74F
102
{ACAD_REACTORS
330
74D
102
}
330
74D
100
AcDbXrecord
280
     1
270
     1
271
     1
  0
XRECORD
  5
74E
102
{ACAD_REACTORS
330
74D
102
}
330
74D
100
AcDbXrecord
280
     1
270
     1
271
     1
  0
XRECORD
  5
752
102
{ACAD_REACTORS
330
74D
102
}
330
74D
100
AcDbXrecord
280
     1
270
     1
271
     1
  0
XRECORD
  5
751
102
{ACAD_REACTORS
330
74D
102
}
330
74D
100
AcDbXrecord
280
     1
270
     1
271
     1
  0
XRECORD
  5
753
102
{ACAD_REACTORS
330
74D
102
}
330
74D
100
AcDbXrecord
280
     1
270
     1
271
     1
  0
XRECORD
  5
750
102
{ACAD_REACTORS
330
74D
102
}
330
74D
100
AcDbXrecord
280
     1
270
     1
271
     1
  0
XRECORD
  5
7B2
102
{ACAD_REACTORS
330
745
102
}
330
745
100
AcDbXrecord
280
     1
102
MATERIAL
148
0.0
149
0.0
149
0.0
 93
        0
 94
      127
282
     0
 72
     0
 77
     0
171
     0
175
     0
179
     0
273
     0
  0
XRECORD
  5
747
102
{ACAD_REACTORS
330
745
102
}
330
745
100
AcDbXrecord
280
     1
270
     1
271
     1
  0
XRECORD
  5
746
102
{ACAD_REACTORS
330
745
102
}
330
745
100
AcDbXrecord
280
     1
270
     1
271
     1
  0
XRECORD
  5
74A
102
{ACAD_REACTORS
330
745
102
}
330
745
100
AcDbXrecord
280
     1
270
     1
271
     1
  0
XRECORD
  5
749
102
{ACAD_REACTORS
330
745
102
}
330
745
100
AcDbXrecord
280
     1
270
     1
271
     1
  0
XRECORD
  5
74B
102
{ACAD_REACTORS
330
745
102
}
330
745
100
AcDbXrecord
280
     1
270
     1
271
     1
  0
XRECORD
  5
748
102
{ACAD_REACTORS
330
745
102
}
330
745
100
AcDbXrecord
280
     1
270
     1
271
     1
  0
XRECORD
  5
7B4
102
{ACAD_REACTORS
330
755
102
}
330
755
100
AcDbXrecord
280
     1
102
MATERIAL
148
0.0
149
0.0
149
0.0
 93
        0
 94
      127
282
     0
 72
     0
 77
     0
171
     0
175
     0
179
     0
273
     0
  0
XRECORD
  5
757
102
{ACAD_REACTORS
330
755
102
}
330
755
100
AcDbXrecord
280
     1
270
     1
271
     1
  0
XRECORD
  5
756
102
{ACAD_REACTORS
330
755
102
}
330
755
100
AcDbXrecord
280
     1
270
     1
271
     1
  0
XRECORD
  5
75A
102
{ACAD_REACTORS
330
755
102
}
330
755
100
AcDbXrecord
280
     1
270
     1
271
     1
  0
XRECORD
  5
759
102
{ACAD_REACTORS
330
755
102
}
330
755
100
AcDbXrecord
280
     1
270
     1
271
     1
  0
XRECORD
  5
75B
102
{ACAD_REACTORS
330
755
102
}
330
755
100
AcDbXrecord
280
     1
270
     1
271
     1
  0
XRECORD
  5
758
102
{ACAD_REACTORS
330
755
102
}
330
755
100
AcDbXrecord
280
     1
270
     1
271
     1
  0
XRECORD
  5
7E8
102
{ACAD_REACTORS
330
7E7
102
}
330
7E7
100
AcDbXrecord
280
     1
102
DISPLAYNAME
  1
Imperial24
102
FLAGS
 90
        0
  0
CELLSTYLEMAP
  5
7AF
102
{ACAD_REACTORS
330
7AE
102
}
330
7AE
100
AcDbCellStyleMap
 90
        3
300
CELLSTYLE
  1
TABLEFORMAT_BEGIN
 90
        5
170
     1
 91
        0
 92
    32768
 62
   257
 93
        1
300
CONTENTFORMAT
  1
CONTENTFORMAT_BEGIN
 90
        0
 91
        0
 92
      512
 93
        0
300

 40
0.0
140
1.0
 94
        5
 62
     0
340
F
144
0.25
309
CONTENTFORMAT_END
171
     0
 94
        0
309
TABLEFORMAT_END
  1
CELLSTYLE_BEGIN
 90
        1
 91
        1
300
_TITLE
309
CELLSTYLE_END
300
CELLSTYLE
  1
TABLEFORMAT_BEGIN
 90
        5
170
     1
 91
        0
 92
        0
 62
   257
 93
        1
300
CONTENTFORMAT
  1
CONTENTFORMAT_BEGIN
 90
        0
 91
        0
 92
      512
 93
        0
300

 40
0.0
140
1.0
 94
        5
 62
     0
340
F
144
0.18
309
CONTENTFORMAT_END
171
     0
 94
        0
309
TABLEFORMAT_END
  1
CELLSTYLE_BEGIN
 90
        2
 91
        1
300
_HEADER
309
CELLSTYLE_END
300
CELLSTYLE
  1
TABLEFORMAT_BEGIN
 90
        5
170
     1
 91
        0
 92
        0
 62
   257
 93
        1
300
CONTENTFORMAT
  1
CONTENTFORMAT_BEGIN
 90
        0
 91
        0
 92
      512
 93
        0
300

 40
0.0
140
1.0
 94
        2
 62
     0
340
F
144
0.18
309
CONTENTFORMAT_END
171
     0
 94
        0
309
TABLEFORMAT_END
  1
CELLSTYLE_BEGIN
 90
        3
 91
        2
300
_DATA
309
CELLSTYLE_END
  0
XRECORD
  5
7E5
102
{ACAD_REACTORS
330
7AE
102
}
330
7AE
100
AcDbXrecord
280
     1
102
ACAD_ROUNDTRIP_PRE2007_TABLESTYLE
 90
      512
 91
        0
  1

 92
      512
 93
        0
  2

 94
      512
 95
        0
  3

  0
XRECORD
  5
7C0
102
{ACAD_REACTORS
330
7BF
102
}
330
7BF
100
AcDbXrecord
280
     1
102
RTVSPost2010Prop28
280
     1
102
RTVSPost2010PropOp28
 70
     1
102
RTVSPost2010Prop29
280
     1
102
RTVSPost2010PropOp29
 70
     1
102
RTVSPost2010Prop30
280
     0
102
RTVSPost2010PropOp30
 70
     1
102
RTVSPost2010Prop31
280
     0
102
RTVSPost2010PropOp31
 70
     1
102
RTVSPost2010Prop32
280
     0
102
RTVSPost2010PropOp32
 70
     1
102
RTVSPost2010Prop33
280
     0
102
RTVSPost2010PropOp33
 70
     1
102
RTVSPost2010Prop34
280
     0
102
RTVSPost2010PropOp34
 70
     1
102
RTVSPost2010Prop35
280
     0
102
RTVSPost2010PropOp35
 70
     1
102
RTVSPost2010Prop36
280
     0
102
RTVSPost2010PropOp36
 70
     1
102
RTVSPost2010Prop37
 90
       50
102
RTVSPost2010PropOp37
 70
     1
102
RTVSPost2010Prop38
140
0.0
102
RTVSPost2010PropOp38
 70
     1
102
RTVSPost2010Prop39
140
1.0
102
RTVSPost2010PropOp39
 70
     1
102
RTVSPost2010Prop40
 90
        0
102
RTVSPost2010PropOp40
 70
     1
102
RTVSPost2010Prop41ColorIndex
 90
       18
102
RTVSPost2010Prop41ColorRGB
 90
        0
102
RTVSPost2010PropOp41
 70
     1
102
RTVSPost2010Prop42
 90
       50
102
RTVSPost2010PropOp42
 70
     1
102
RTVSPost2010Prop43
 90
        3
102
RTVSPost2010PropOp43
 70
     1
102
RTVSPost2010Prop44ColorIndex
 90
        5
102
RTVSPost2010Prop44ColorRGB
 90
      255
102
RTVSPost2010PropOp44
 70
     1
102
RTVSPost2010Prop45
280
     0
102
RTVSPost2010PropOp45
 70
     1
102
RTVSPost2010Prop46
 90
       50
102
RTVSPost2010PropOp46
 70
     1
102
RTVSPost2010Prop47
 90
       50
102
RTVSPost2010PropOp47
 70
     1
102
RTVSPost2010Prop48
 90
       50
102
RTVSPost2010PropOp48
 70
     1
102
RTVSPost2010Prop49
280
     0
102
RTVSPost2010PropOp49
 70
     1
102
RTVSPost2010Prop50
 90
       50
102
RTVSPost2010PropOp50
 70
     1
102
RTVSPost2010Prop51ColorIndex
 90
      256
102
RTVSPost2010Prop51ColorRGB
 90
-16777216
102
RTVSPost2010PropOp51
 70
     0
102
RTVSPost2010Prop52
140
1.0
102
RTVSPost2010PropOp52
 70
     0
102
RTVSPost2010Prop53
 90
        2
102
RTVSPost2010PropOp53
 70
     1
102
RTVSPost2010Prop54
  1
strokes_ogs.tif
102
RTVSPost2010PropOp54
 70
     1
102
RTVSPost2010Prop55
280
     0
102
RTVSPost2010PropOp55
 70
     1
102
RTVSPost2010Prop56
140
1.0
102
RTVSPost2010PropOp56
 70
     1
102
RTVSPost2010Prop57
140
1.0
102
RTVSPost2010PropOp57
 70
     1
102
RTVSPropertyOp0
 70
     1
102
RTVSPropertyOp1
 70
     1
102
RTVSPropertyOp2
 70
     1
102
RTVSPropertyOp3
 70
     1
102
RTVSPropertyOp4
 70
     1
102
RTVSPropertyOp5
 70
     1
102
RTVSPropertyOp6
 70
     1
102
RTVSPropertyOp7
 70
     1
102
RTVSPropertyOp8
 70
     1
102
RTVSPropertyOp9
 70
     1
102
RTVSPropertyOp10
 70
     1
102
RTVSPropertyOp11
 70
     1
102
RTVSPropertyOp12
 70
     1
102
RTVSPropertyOp13
 70
     1
102
RTVSPropertyOp14
 70
     1
102
RTVSPropertyOp15
 70
     1
102
RTVSPropertyOp16
 70
     1
102
RTVSPropertyOp17
 70
     1
102
RTVSPropertyOp18
 70
     1
102
RTVSPropertyOp19
 70
     1
102
RTVSPropertyOp20
 70
     1
102
RTVSPropertyOp21
 70
     1
102
RTVSPropertyOp22
 70
     1
102
RTVSPropertyOp23
 70
     1
102
RTVSPropertyOp24
 70
     1
102
RTVSPropertyOp25
 70
     1
102
RTVSPropertyOp26
 70
     1
102
RTVSPropertyOp27
 70
     1
102
RTVSPropertyOp28
 70
     1
102
RTVSPropertyOp29
 70
     1
102
RTVSPropertyOp30
 70
     1
102
RTVSPropertyOp31
 70
     1
102
RTVSPropertyOp32
 70
     1
102
RTVSPropertyOp33
 70
     1
102
RTVSPropertyOp34
 70
     1
102
RTVSPropertyOp35
 70
     1
102
RTVSPropertyOp36
 70
     1
102
RTVSPropertyOp37
 70
     1
102
RTVSPropertyOp38
 70
     1
102
RTVSPropertyOp39
 70
     1
102
RTVSPropertyOp40
 70
     1
102
RTVSPropertyOp41
 70
     1
102
RTVSPropertyOp42
 70
     1
102
RTVSPropertyOp43
 70
     1
102
RTVSPropertyOp44
 70
     1
102
RTVSPropertyOp45
 70
     1
102
RTVSPropertyOp46
 70
     1
102
RTVSPropertyOp47
 70
     1
102
RTVSPropertyOp48
 70
     1
102
RTVSPropertyOp49
 70
     1
102
RTVSPropertyOp50
 70
     1
102
RTVSPropertyOp51
 70
     0
102
RTVSPropertyOp52
 70
     0
102
RTVSPropertyOp53
 70
     1
102
RTVSPropertyOp54
 70
     1
102
RTVSPropertyOp55
 70
     1
102
RTVSPropertyOp56
 70
     1
102
RTVSPropertyOp57
 70
     1
102
RTVSPropertyOp58
 70
     1
102
RTVSPropertyOp59
 70
     1
102
RTVSPropertyOp60
 70
     1
102
RTVSPropertyOp61
 70
     1
102
RTVSPropertyOp62
 70
     1
  0
XRECORD
  5
7BE
102
{ACAD_REACTORS
330
7BD
102
}
330
7BD
100
AcDbXrecord
280
     1
102
RTVSPost2010Prop28
280
     0
102
RTVSPost2010PropOp28
 70
     1
102
RTVSPost2010Prop29
280
     1
102
RTVSPost2010PropOp29
 70
     1
102
RTVSPost2010Prop30
280
     1
102
RTVSPost2010PropOp30
 70
     1
102
RTVSPost2010Prop31
280
     0
102
RTVSPost2010PropOp31
 70
     1
102
RTVSPost2010Prop32
280
     0
102
RTVSPost2010PropOp32
 70
     1
102
RTVSPost2010Prop33
280
     0
102
RTVSPost2010PropOp33
 70
     1
102
RTVSPost2010Prop34
280
     0
102
RTVSPost2010PropOp34
 70
     1
102
RTVSPost2010Prop35
280
     0
102
RTVSPost2010PropOp35
 70
     1
102
RTVSPost2010Prop36
280
     0
102
RTVSPost2010PropOp36
 70
     1
102
RTVSPost2010Prop37
 90
       50
102
RTVSPost2010PropOp37
 70
     1
102
RTVSPost2010Prop38
140
0.0
102
RTVSPost2010PropOp38
 70
     1
102
RTVSPost2010Prop39
140
1.0
102
RTVSPost2010PropOp39
 70
     1
102
RTVSPost2010Prop40
 90
        0
102
RTVSPost2010PropOp40
 70
     1
102
RTVSPost2010Prop41ColorIndex
 90
       18
102
RTVSPost2010Prop41ColorRGB
 90
        0
102
RTVSPost2010PropOp41
 70
     1
102
RTVSPost2010Prop42
 90
       50
102
RTVSPost2010PropOp42
 70
     1
102
RTVSPost2010Prop43
 90
        3
102
RTVSPost2010PropOp43
 70
     1
102
RTVSPost2010Prop44ColorIndex
 90
        5
102
RTVSPost2010Prop44ColorRGB
 90
      255
102
RTVSPost2010PropOp44
 70
     1
102
RTVSPost2010Prop45
280
     0
102
RTVSPost2010PropOp45
 70
     1
102
RTVSPost2010Prop46
 90
       50
102
RTVSPost2010PropOp46
 70
     1
102
RTVSPost2010Prop47
 90
       50
102
RTVSPost2010PropOp47
 70
     1
102
RTVSPost2010Prop48
 90
       50
102
RTVSPost2010PropOp48
 70
     1
102
RTVSPost2010Prop49
280
     0
102
RTVSPost2010PropOp49
 70
     1
102
RTVSPost2010Prop50
 90
       50
102
RTVSPost2010PropOp50
 70
     1
102
RTVSPost2010Prop51ColorIndex
 90
      256
102
RTVSPost2010Prop51ColorRGB
 90
-16777216
102
RTVSPost2010PropOp51
 70
     0
102
RTVSPost2010Prop52
140
1.0
102
RTVSPost2010PropOp52
 70
     0
102
RTVSPost2010Prop53
 90
        2
102
RTVSPost2010PropOp53
 70
     1
102
RTVSPost2010Prop54
  1
strokes_ogs.tif
102
RTVSPost2010PropOp54
 70
     1
102
RTVSPost2010Prop55
280
     0
102
RTVSPost2010PropOp55
 70
     1
102
RTVSPost2010Prop56
140
1.0
102
RTVSPost2010PropOp56
 70
     1
102
RTVSPost2010Prop57
140
1.0
102
RTVSPost2010PropOp57
 70
     1
102
RTVSPropertyOp0
 70
     1
102
RTVSPropertyOp1
 70
     1
102
RTVSPropertyOp2
 70
     1
102
RTVSPropertyOp3
 70
     1
102
RTVSPropertyOp4
 70
     1
102
RTVSPropertyOp5
 70
     1
102
RTVSPropertyOp6
 70
     1
102
RTVSPropertyOp7
 70
     1
102
RTVSPropertyOp8
 70
     1
102
RTVSPropertyOp9
 70
     1
102
RTVSPropertyOp10
 70
     1
102
RTVSPropertyOp11
 70
     1
102
RTVSPropertyOp12
 70
     1
102
RTVSPropertyOp13
 70
     1
102
RTVSPropertyOp14
 70
     1
102
RTVSPropertyOp15
 70
     1
102
RTVSPropertyOp16
 70
     1
102
RTVSPropertyOp17
 70
     1
102
RTVSPropertyOp18
 70
     1
102
RTVSPropertyOp19
 70
     1
102
RTVSPropertyOp20
 70
     1
102
RTVSPropertyOp21
 70
     1
102
RTVSPropertyOp22
 70
     1
102
RTVSPropertyOp23
 70
     1
102
RTVSPropertyOp24
 70
     1
102
RTVSPropertyOp25
 70
     1
102
RTVSPropertyOp26
 70
     1
102
RTVSPropertyOp27
 70
     1
102
RTVSPropertyOp28
 70
     1
102
RTVSPropertyOp29
 70
     1
102
RTVSPropertyOp30
 70
     1
102
RTVSPropertyOp31
 70
     1
102
RTVSPropertyOp32
 70
     1
102
RTVSPropertyOp33
 70
     1
102
RTVSPropertyOp34
 70
     1
102
RTVSPropertyOp35
 70
     1
102
RTVSPropertyOp36
 70
     1
102
RTVSPropertyOp37
 70
     1
102
RTVSPropertyOp38
 70
     1
102
RTVSPropertyOp39
 70
     1
102
RTVSPropertyOp40
 70
     1
102
RTVSPropertyOp41
 70
     1
102
RTVSPropertyOp42
 70
     1
102
RTVSPropertyOp43
 70
     1
102
RTVSPropertyOp44
 70
     1
102
RTVSPropertyOp45
 70
     1
102
RTVSPropertyOp46
 70
     1
102
RTVSPropertyOp47
 70
     1
102
RTVSPropertyOp48
 70
     1
102
RTVSPropertyOp49
 70
     1
102
RTVSPropertyOp50
 70
     1
102
RTVSPropertyOp51
 70
     0
102
RTVSPropertyOp52
 70
     0
102
RTVSPropertyOp53
 70
     1
102
RTVSPropertyOp54
 70
     1
102
RTVSPropertyOp55
 70
     1
102
RTVSPropertyOp56
 70
     1
102
RTVSPropertyOp57
 70
     1
102
RTVSPropertyOp58
 70
     1
102
RTVSPropertyOp59
 70
     1
102
RTVSPropertyOp60
 70
     1
102
RTVSPropertyOp61
 70
     1
102
RTVSPropertyOp62
 70
     1
  0
XRECORD
  5
7CC
102
{ACAD_REACTORS
330
7CB
102
}
330
7CB
100
AcDbXrecord
280
     1
102
RTVSPost2010Prop28
280
     0
102
RTVSPost2010PropOp28
 70
     1
102
RTVSPost2010Prop29
280
     1
102
RTVSPost2010PropOp29
 70
     1
102
RTVSPost2010Prop30
280
     1
102
RTVSPost2010PropOp30
 70
     1
102
RTVSPost2010Prop31
280
     0
102
RTVSPost2010PropOp31
 70
     1
102
RTVSPost2010Prop32
280
     0
102
RTVSPost2010PropOp32
 70
     1
102
RTVSPost2010Prop33
280
     0
102
RTVSPost2010PropOp33
 70
     1
102
RTVSPost2010Prop34
280
     0
102
RTVSPost2010PropOp34
 70
     1
102
RTVSPost2010Prop35
280
     0
102
RTVSPost2010PropOp35
 70
     1
102
RTVSPost2010Prop36
280
     0
102
RTVSPost2010PropOp36
 70
     1
102
RTVSPost2010Prop37
 90
       50
102
RTVSPost2010PropOp37
 70
     1
102
RTVSPost2010Prop38
140
0.0
102
RTVSPost2010PropOp38
 70
     1
102
RTVSPost2010Prop39
140
1.0
102
RTVSPost2010PropOp39
 70
     1
102
RTVSPost2010Prop40
 90
        0
102
RTVSPost2010PropOp40
 70
     1
102
RTVSPost2010Prop41ColorIndex
 90
       18
102
RTVSPost2010Prop41ColorRGB
 90
        0
102
RTVSPost2010PropOp41
 70
     1
102
RTVSPost2010Prop42
 90
       50
102
RTVSPost2010PropOp42
 70
     1
102
RTVSPost2010Prop43
 90
        3
102
RTVSPost2010PropOp43
 70
     1
102
RTVSPost2010Prop44ColorIndex
 90
        5
102
RTVSPost2010Prop44ColorRGB
 90
      255
102
RTVSPost2010PropOp44
 70
     1
102
RTVSPost2010Prop45
280
     0
102
RTVSPost2010PropOp45
 70
     1
102
RTVSPost2010Prop46
 90
       50
102
RTVSPost2010PropOp46
 70
     1
102
RTVSPost2010Prop47
 90
       50
102
RTVSPost2010PropOp47
 70
     1
102
RTVSPost2010Prop48
 90
       50
102
RTVSPost2010PropOp48
 70
     1
102
RTVSPost2010Prop49
280
     0
102
RTVSPost2010PropOp49
 70
     1
102
RTVSPost2010Prop50
 90
       50
102
RTVSPost2010PropOp50
 70
     1
102
RTVSPost2010Prop51ColorIndex
 90
      256
102
RTVSPost2010Prop51ColorRGB
 90
-16777216
102
RTVSPost2010PropOp51
 70
     0
102
RTVSPost2010Prop52
140
1.0
102
RTVSPost2010PropOp52
 70
     0
102
RTVSPost2010Prop53
 90
        2
102
RTVSPost2010PropOp53
 70
     1
102
RTVSPost2010Prop54
  1
strokes_ogs.tif
102
RTVSPost2010PropOp54
 70
     1
102
RTVSPost2010Prop55
280
     0
102
RTVSPost2010PropOp55
 70
     1
102
RTVSPost2010Prop56
140
1.0
102
RTVSPost2010PropOp56
 70
     1
102
RTVSPost2010Prop57
140
1.0
102
RTVSPost2010PropOp57
 70
     1
102
RTVSPropertyOp0
 70
     1
102
RTVSPropertyOp1
 70
     1
102
RTVSPropertyOp2
 70
     1
102
RTVSPropertyOp3
 70
     1
102
RTVSPropertyOp4
 70
     1
102
RTVSPropertyOp5
 70
     1
102
RTVSPropertyOp6
 70
     1
102
RTVSPropertyOp7
 70
     1
102
RTVSPropertyOp8
 70
     1
102
RTVSPropertyOp9
 70
     1
102
RTVSPropertyOp10
 70
     1
102
RTVSPropertyOp11
 70
     1
102
RTVSPropertyOp12
 70
     1
102
RTVSPropertyOp13
 70
     1
102
RTVSPropertyOp14
 70
     1
102
RTVSPropertyOp15
 70
     1
102
RTVSPropertyOp16
 70
     1
102
RTVSPropertyOp17
 70
     1
102
RTVSPropertyOp18
 70
     1
102
RTVSPropertyOp19
 70
     1
102
RTVSPropertyOp20
 70
     1
102
RTVSPropertyOp21
 70
     1
102
RTVSPropertyOp22
 70
     1
102
RTVSPropertyOp23
 70
     1
102
RTVSPropertyOp24
 70
     1
102
RTVSPropertyOp25
 70
     1
102
RTVSPropertyOp26
 70
     1
102
RTVSPropertyOp27
 70
     1
102
RTVSPropertyOp28
 70
     1
102
RTVSPropertyOp29
 70
     1
102
RTVSPropertyOp30
 70
     1
102
RTVSPropertyOp31
 70
     1
102
RTVSPropertyOp32
 70
     1
102
RTVSPropertyOp33
 70
     1
102
RTVSPropertyOp34
 70
     1
102
RTVSPropertyOp35
 70
     1
102
RTVSPropertyOp36
 70
     1
102
RTVSPropertyOp37
 70
     1
102
RTVSPropertyOp38
 70
     1
102
RTVSPropertyOp39
 70
     1
102
RTVSPropertyOp40
 70
     1
102
RTVSPropertyOp41
 70
     1
102
RTVSPropertyOp42
 70
     1
102
RTVSPropertyOp43
 70
     1
102
RTVSPropertyOp44
 70
     1
102
RTVSPropertyOp45
 70
     1
102
RTVSPropertyOp46
 70
     1
102
RTVSPropertyOp47
 70
     1
102
RTVSPropertyOp48
 70
     1
102
RTVSPropertyOp49
 70
     1
102
RTVSPropertyOp50
 70
     1
102
RTVSPropertyOp51
 70
     0
102
RTVSPropertyOp52
 70
     0
102
RTVSPropertyOp53
 70
     1
102
RTVSPropertyOp54
 70
     1
102
RTVSPropertyOp55
 70
     1
102
RTVSPropertyOp56
 70
     1
102
RTVSPropertyOp57
 70
     1
102
RTVSPropertyOp58
 70
     1
102
RTVSPropertyOp59
 70
     1
102
RTVSPropertyOp60
 70
     1
102
RTVSPropertyOp61
 70
     1
102
RTVSPropertyOp62
 70
     1
  0
XRECORD
  5
7D4
102
{ACAD_REACTORS
330
7D3
102
}
330
7D3
100
AcDbXrecord
280
     1
102
RTVSPost2010Prop28
280
     0
102
RTVSPost2010PropOp28
 70
     1
102
RTVSPost2010Prop29
280
     1
102
RTVSPost2010PropOp29
 70
     1
102
RTVSPost2010Prop30
280
     1
102
RTVSPost2010PropOp30
 70
     1
102
RTVSPost2010Prop31
280
     0
102
RTVSPost2010PropOp31
 70
     1
102
RTVSPost2010Prop32
280
     0
102
RTVSPost2010PropOp32
 70
     1
102
RTVSPost2010Prop33
280
     0
102
RTVSPost2010PropOp33
 70
     1
102
RTVSPost2010Prop34
280
     0
102
RTVSPost2010PropOp34
 70
     1
102
RTVSPost2010Prop35
280
     0
102
RTVSPost2010PropOp35
 70
     1
102
RTVSPost2010Prop36
280
     0
102
RTVSPost2010PropOp36
 70
     1
102
RTVSPost2010Prop37
 90
       50
102
RTVSPost2010PropOp37
 70
     1
102
RTVSPost2010Prop38
140
0.0
102
RTVSPost2010PropOp38
 70
     1
102
RTVSPost2010Prop39
140
1.0
102
RTVSPost2010PropOp39
 70
     1
102
RTVSPost2010Prop40
 90
        0
102
RTVSPost2010PropOp40
 70
     1
102
RTVSPost2010Prop41ColorIndex
 90
       18
102
RTVSPost2010Prop41ColorRGB
 90
        0
102
RTVSPost2010PropOp41
 70
     1
102
RTVSPost2010Prop42
 90
       50
102
RTVSPost2010PropOp42
 70
     1
102
RTVSPost2010Prop43
 90
        3
102
RTVSPost2010PropOp43
 70
     1
102
RTVSPost2010Prop44ColorIndex
 90
        5
102
RTVSPost2010Prop44ColorRGB
 90
      255
102
RTVSPost2010PropOp44
 70
     1
102
RTVSPost2010Prop45
280
     0
102
RTVSPost2010PropOp45
 70
     1
102
RTVSPost2010Prop46
 90
       50
102
RTVSPost2010PropOp46
 70
     1
102
RTVSPost2010Prop47
 90
       50
102
RTVSPost2010PropOp47
 70
     1
102
RTVSPost2010Prop48
 90
       50
102
RTVSPost2010PropOp48
 70
     1
102
RTVSPost2010Prop49
280
     0
102
RTVSPost2010PropOp49
 70
     1
102
RTVSPost2010Prop50
 90
       50
102
RTVSPost2010PropOp50
 70
     1
102
RTVSPost2010Prop51ColorIndex
 90
      256
102
RTVSPost2010Prop51ColorRGB
 90
-16777216
102
RTVSPost2010PropOp51
 70
     0
102
RTVSPost2010Prop52
140
1.0
102
RTVSPost2010PropOp52
 70
     0
102
RTVSPost2010Prop53
 90
        2
102
RTVSPost2010PropOp53
 70
     1
102
RTVSPost2010Prop54
  1
strokes_ogs.tif
102
RTVSPost2010PropOp54
 70
     1
102
RTVSPost2010Prop55
280
     0
102
RTVSPost2010PropOp55
 70
     1
102
RTVSPost2010Prop56
140
1.0
102
RTVSPost2010PropOp56
 70
     1
102
RTVSPost2010Prop57
140
1.0
102
RTVSPost2010PropOp57
 70
     1
102
RTVSPropertyOp0
 70
     1
102
RTVSPropertyOp1
 70
     1
102
RTVSPropertyOp2
 70
     1
102
RTVSPropertyOp3
 70
     1
102
RTVSPropertyOp4
 70
     1
102
RTVSPropertyOp5
 70
     1
102
RTVSPropertyOp6
 70
     1
102
RTVSPropertyOp7
 70
     1
102
RTVSPropertyOp8
 70
     1
102
RTVSPropertyOp9
 70
     1
102
RTVSPropertyOp10
 70
     1
102
RTVSPropertyOp11
 70
     1
102
RTVSPropertyOp12
 70
     1
102
RTVSPropertyOp13
 70
     1
102
RTVSPropertyOp14
 70
     1
102
RTVSPropertyOp15
 70
     1
102
RTVSPropertyOp16
 70
     1
102
RTVSPropertyOp17
 70
     1
102
RTVSPropertyOp18
 70
     1
102
RTVSPropertyOp19
 70
     1
102
RTVSPropertyOp20
 70
     1
102
RTVSPropertyOp21
 70
     1
102
RTVSPropertyOp22
 70
     1
102
RTVSPropertyOp23
 70
     1
102
RTVSPropertyOp24
 70
     1
102
RTVSPropertyOp25
 70
     1
102
RTVSPropertyOp26
 70
     1
102
RTVSPropertyOp27
 70
     1
102
RTVSPropertyOp28
 70
     1
102
RTVSPropertyOp29
 70
     1
102
RTVSPropertyOp30
 70
     1
102
RTVSPropertyOp31
 70
     1
102
RTVSPropertyOp32
 70
     1
102
RTVSPropertyOp33
 70
     1
102
RTVSPropertyOp34
 70
     1
102
RTVSPropertyOp35
 70
     1
102
RTVSPropertyOp36
 70
     1
102
RTVSPropertyOp37
 70
     1
102
RTVSPropertyOp38
 70
     1
102
RTVSPropertyOp39
 70
     1
102
RTVSPropertyOp40
 70
     1
102
RTVSPropertyOp41
 70
     1
102
RTVSPropertyOp42
 70
     1
102
RTVSPropertyOp43
 70
     1
102
RTVSPropertyOp44
 70
     1
102
RTVSPropertyOp45
 70
     1
102
RTVSPropertyOp46
 70
     1
102
RTVSPropertyOp47
 70
     1
102
RTVSPropertyOp48
 70
     1
102
RTVSPropertyOp49
 70
     1
102
RTVSPropertyOp50
 70
     1
102
RTVSPropertyOp51
 70
     0
102
RTVSPropertyOp52
 70
     0
102
RTVSPropertyOp53
 70
     1
102
RTVSPropertyOp54
 70
     1
102
RTVSPropertyOp55
 70
     1
102
RTVSPropertyOp56
 70
     1
102
RTVSPropertyOp57
 70
     1
102
RTVSPropertyOp58
 70
     1
102
RTVSPropertyOp59
 70
     1
102
RTVSPropertyOp60
 70
     1
102
RTVSPropertyOp61
 70
     1
102
RTVSPropertyOp62
 70
     1
  0
XRECORD
  5
7C6
102
{ACAD_REACTORS
330
7C5
102
}
330
7C5
100
AcDbXrecord
280
     1
102
RTVSPost2010Prop28
280
     0
102
RTVSPost2010PropOp28
 70
     1
102
RTVSPost2010Prop29
280
     1
102
RTVSPost2010PropOp29
 70
     1
102
RTVSPost2010Prop30
280
     1
102
RTVSPost2010PropOp30
 70
     1
102
RTVSPost2010Prop31
280
     0
102
RTVSPost2010PropOp31
 70
     1
102
RTVSPost2010Prop32
280
     0
102
RTVSPost2010PropOp32
 70
     1
102
RTVSPost2010Prop33
280
     0
102
RTVSPost2010PropOp33
 70
     1
102
RTVSPost2010Prop34
280
     0
102
RTVSPost2010PropOp34
 70
     1
102
RTVSPost2010Prop35
280
     0
102
RTVSPost2010PropOp35
 70
     1
102
RTVSPost2010Prop36
280
     0
102
RTVSPost2010PropOp36
 70
     1
102
RTVSPost2010Prop37
 90
       50
102
RTVSPost2010PropOp37
 70
     1
102
RTVSPost2010Prop38
140
0.0
102
RTVSPost2010PropOp38
 70
     1
102
RTVSPost2010Prop39
140
1.0
102
RTVSPost2010PropOp39
 70
     1
102
RTVSPost2010Prop40
 90
        0
102
RTVSPost2010PropOp40
 70
     1
102
RTVSPost2010Prop41ColorIndex
 90
       18
102
RTVSPost2010Prop41ColorRGB
 90
        0
102
RTVSPost2010PropOp41
 70
     1
102
RTVSPost2010Prop42
 90
       50
102
RTVSPost2010PropOp42
 70
     1
102
RTVSPost2010Prop43
 90
        3
102
RTVSPost2010PropOp43
 70
     1
102
RTVSPost2010Prop44ColorIndex
 90
        5
102
RTVSPost2010Prop44ColorRGB
 90
      255
102
RTVSPost2010PropOp44
 70
     1
102
RTVSPost2010Prop45
280
     0
102
RTVSPost2010PropOp45
 70
     1
102
RTVSPost2010Prop46
 90
       50
102
RTVSPost2010PropOp46
 70
     1
102
RTVSPost2010Prop47
 90
       50
102
RTVSPost2010PropOp47
 70
     1
102
RTVSPost2010Prop48
 90
       50
102
RTVSPost2010PropOp48
 70
     1
102
RTVSPost2010Prop49
280
     0
102
RTVSPost2010PropOp49
 70
     1
102
RTVSPost2010Prop50
 90
       50
102
RTVSPost2010PropOp50
 70
     1
102
RTVSPost2010Prop51ColorIndex
 90
      256
102
RTVSPost2010Prop51ColorRGB
 90
-16777216
102
RTVSPost2010PropOp51
 70
     0
102
RTVSPost2010Prop52
140
1.0
102
RTVSPost2010PropOp52
 70
     0
102
RTVSPost2010Prop53
 90
        2
102
RTVSPost2010PropOp53
 70
     1
102
RTVSPost2010Prop54
  1
strokes_ogs.tif
102
RTVSPost2010PropOp54
 70
     1
102
RTVSPost2010Prop55
280
     0
102
RTVSPost2010PropOp55
 70
     1
102
RTVSPost2010Prop56
140
1.0
102
RTVSPost2010PropOp56
 70
     1
102
RTVSPost2010Prop57
140
1.0
102
RTVSPost2010PropOp57
 70
     1
102
RTVSPropertyOp0
 70
     1
102
RTVSPropertyOp1
 70
     1
102
RTVSPropertyOp2
 70
     1
102
RTVSPropertyOp3
 70
     1
102
RTVSPropertyOp4
 70
     1
102
RTVSPropertyOp5
 70
     1
102
RTVSPropertyOp6
 70
     1
102
RTVSPropertyOp7
 70
     1
102
RTVSPropertyOp8
 70
     1
102
RTVSPropertyOp9
 70
     1
102
RTVSPropertyOp10
 70
     1
102
RTVSPropertyOp11
 70
     1
102
RTVSPropertyOp12
 70
     1
102
RTVSPropertyOp13
 70
     1
102
RTVSPropertyOp14
 70
     1
102
RTVSPropertyOp15
 70
     1
102
RTVSPropertyOp16
 70
     1
102
RTVSPropertyOp17
 70
     1
102
RTVSPropertyOp18
 70
     1
102
RTVSPropertyOp19
 70
     1
102
RTVSPropertyOp20
 70
     1
102
RTVSPropertyOp21
 70
     1
102
RTVSPropertyOp22
 70
     1
102
RTVSPropertyOp23
 70
     1
102
RTVSPropertyOp24
 70
     1
102
RTVSPropertyOp25
 70
     1
102
RTVSPropertyOp26
 70
     1
102
RTVSPropertyOp27
 70
     1
102
RTVSPropertyOp28
 70
     1
102
RTVSPropertyOp29
 70
     1
102
RTVSPropertyOp30
 70
     1
102
RTVSPropertyOp31
 70
     1
102
RTVSPropertyOp32
 70
     1
102
RTVSPropertyOp33
 70
     1
102
RTVSPropertyOp34
 70
     1
102
RTVSPropertyOp35
 70
     1
102
RTVSPropertyOp36
 70
     1
102
RTVSPropertyOp37
 70
     1
102
RTVSPropertyOp38
 70
     1
102
RTVSPropertyOp39
 70
     1
102
RTVSPropertyOp40
 70
     1
102
RTVSPropertyOp41
 70
     1
102
RTVSPropertyOp42
 70
     1
102
RTVSPropertyOp43
 70
     1
102
RTVSPropertyOp44
 70
     1
102
RTVSPropertyOp45
 70
     1
102
RTVSPropertyOp46
 70
     1
102
RTVSPropertyOp47
 70
     1
102
RTVSPropertyOp48
 70
     1
102
RTVSPropertyOp49
 70
     1
102
RTVSPropertyOp50
 70
     1
102
RTVSPropertyOp51
 70
     0
102
RTVSPropertyOp52
 70
     0
102
RTVSPropertyOp53
 70
     1
102
RTVSPropertyOp54
 70
     1
102
RTVSPropertyOp55
 70
     1
102
RTVSPropertyOp56
 70
     1
102
RTVSPropertyOp57
 70
     1
102
RTVSPropertyOp58
 70
     1
102
RTVSPropertyOp59
 70
     1
102
RTVSPropertyOp60
 70
     1
102
RTVSPropertyOp61
 70
     1
102
RTVSPropertyOp62
 70
     1
  0
XRECORD
  5
7CA
102
{ACAD_REACTORS
330
7C9
102
}
330
7C9
100
AcDbXrecord
280
     1
102
RTVSPost2010Prop28
280
     0
102
RTVSPost2010PropOp28
 70
     1
102
RTVSPost2010Prop29
280
     1
102
RTVSPost2010PropOp29
 70
     1
102
RTVSPost2010Prop30
280
     1
102
RTVSPost2010PropOp30
 70
     1
102
RTVSPost2010Prop31
280
     0
102
RTVSPost2010PropOp31
 70
     1
102
RTVSPost2010Prop32
280
     0
102
RTVSPost2010PropOp32
 70
     1
102
RTVSPost2010Prop33
280
     0
102
RTVSPost2010PropOp33
 70
     1
102
RTVSPost2010Prop34
280
     0
102
RTVSPost2010PropOp34
 70
     1
102
RTVSPost2010Prop35
280
     0
102
RTVSPost2010PropOp35
 70
     1
102
RTVSPost2010Prop36
280
     0
102
RTVSPost2010PropOp36
 70
     1
102
RTVSPost2010Prop37
 90
       50
102
RTVSPost2010PropOp37
 70
     1
102
RTVSPost2010Prop38
140
0.0
102
RTVSPost2010PropOp38
 70
     1
102
RTVSPost2010Prop39
140
1.0
102
RTVSPost2010PropOp39
 70
     1
102
RTVSPost2010Prop40
 90
        0
102
RTVSPost2010PropOp40
 70
     1
102
RTVSPost2010Prop41ColorIndex
 90
       18
102
RTVSPost2010Prop41ColorRGB
 90
        0
102
RTVSPost2010PropOp41
 70
     1
102
RTVSPost2010Prop42
 90
       50
102
RTVSPost2010PropOp42
 70
     1
102
RTVSPost2010Prop43
 90
        3
102
RTVSPost2010PropOp43
 70
     1
102
RTVSPost2010Prop44ColorIndex
 90
        5
102
RTVSPost2010Prop44ColorRGB
 90
      255
102
RTVSPost2010PropOp44
 70
     1
102
RTVSPost2010Prop45
280
     0
102
RTVSPost2010PropOp45
 70
     1
102
RTVSPost2010Prop46
 90
       50
102
RTVSPost2010PropOp46
 70
     1
102
RTVSPost2010Prop47
 90
       50
102
RTVSPost2010PropOp47
 70
     1
102
RTVSPost2010Prop48
 90
       50
102
RTVSPost2010PropOp48
 70
     1
102
RTVSPost2010Prop49
280
     0
102
RTVSPost2010PropOp49
 70
     1
102
RTVSPost2010Prop50
 90
       50
102
RTVSPost2010PropOp50
 70
     1
102
RTVSPost2010Prop51ColorIndex
 90
      256
102
RTVSPost2010Prop51ColorRGB
 90
-16777216
102
RTVSPost2010PropOp51
 70
     0
102
RTVSPost2010Prop52
140
1.0
102
RTVSPost2010PropOp52
 70
     0
102
RTVSPost2010Prop53
 90
        2
102
RTVSPost2010PropOp53
 70
     1
102
RTVSPost2010Prop54
  1
strokes_ogs.tif
102
RTVSPost2010PropOp54
 70
     1
102
RTVSPost2010Prop55
280
     0
102
RTVSPost2010PropOp55
 70
     1
102
RTVSPost2010Prop56
140
1.0
102
RTVSPost2010PropOp56
 70
     1
102
RTVSPost2010Prop57
140
1.0
102
RTVSPost2010PropOp57
 70
     1
102
RTVSPropertyOp0
 70
     1
102
RTVSPropertyOp1
 70
     1
102
RTVSPropertyOp2
 70
     1
102
RTVSPropertyOp3
 70
     1
102
RTVSPropertyOp4
 70
     1
102
RTVSPropertyOp5
 70
     1
102
RTVSPropertyOp6
 70
     1
102
RTVSPropertyOp7
 70
     1
102
RTVSPropertyOp8
 70
     1
102
RTVSPropertyOp9
 70
     1
102
RTVSPropertyOp10
 70
     1
102
RTVSPropertyOp11
 70
     1
102
RTVSPropertyOp12
 70
     1
102
RTVSPropertyOp13
 70
     1
102
RTVSPropertyOp14
 70
     1
102
RTVSPropertyOp15
 70
     1
102
RTVSPropertyOp16
 70
     1
102
RTVSPropertyOp17
 70
     1
102
RTVSPropertyOp18
 70
     1
102
RTVSPropertyOp19
 70
     1
102
RTVSPropertyOp20
 70
     1
102
RTVSPropertyOp21
 70
     1
102
RTVSPropertyOp22
 70
     1
102
RTVSPropertyOp23
 70
     1
102
RTVSPropertyOp24
 70
     1
102
RTVSPropertyOp25
 70
     1
102
RTVSPropertyOp26
 70
     1
102
RTVSPropertyOp27
 70
     1
102
RTVSPropertyOp28
 70
     1
102
RTVSPropertyOp29
 70
     1
102
RTVSPropertyOp30
 70
     1
102
RTVSPropertyOp31
 70
     1
102
RTVSPropertyOp32
 70
     1
102
RTVSPropertyOp33
 70
     1
102
RTVSPropertyOp34
 70
     1
102
RTVSPropertyOp35
 70
     1
102
RTVSPropertyOp36
 70
     1
102
RTVSPropertyOp37
 70
     1
102
RTVSPropertyOp38
 70
     1
102
RTVSPropertyOp39
 70
     1
102
RTVSPropertyOp40
 70
     1
102
RTVSPropertyOp41
 70
     1
102
RTVSPropertyOp42
 70
     1
102
RTVSPropertyOp43
 70
     1
102
RTVSPropertyOp44
 70
     1
102
RTVSPropertyOp45
 70
     1
102
RTVSPropertyOp46
 70
     1
102
RTVSPropertyOp47
 70
     1
102
RTVSPropertyOp48
 70
     1
102
RTVSPropertyOp49
 70
     1
102
RTVSPropertyOp50
 70
     1
102
RTVSPropertyOp51
 70
     0
102
RTVSPropertyOp52
 70
     0
102
RTVSPropertyOp53
 70
     1
102
RTVSPropertyOp54
 70
     1
102
RTVSPropertyOp55
 70
     1
102
RTVSPropertyOp56
 70
     1
102
RTVSPropertyOp57
 70
     1
102
RTVSPropertyOp58
 70
     1
102
RTVSPropertyOp59
 70
     1
102
RTVSPropertyOp60
 70
     1
102
RTVSPropertyOp61
 70
     1
102
RTVSPropertyOp62
 70
     1
  0
XRECORD
  5
7E4
102
{ACAD_REACTORS
330
7E3
102
}
330
7E3
100
AcDbXrecord
280
     1
102
RTVSPost2010Prop28
280
     0
102
RTVSPost2010PropOp28
 70
     1
102
RTVSPost2010Prop29
280
     1
102
RTVSPost2010PropOp29
 70
     1
102
RTVSPost2010Prop30
280
     1
102
RTVSPost2010PropOp30
 70
     1
102
RTVSPost2010Prop31
280
     0
102
RTVSPost2010PropOp31
 70
     1
102
RTVSPost2010Prop32
280
     0
102
RTVSPost2010PropOp32
 70
     1
102
RTVSPost2010Prop33
280
     0
102
RTVSPost2010PropOp33
 70
     1
102
RTVSPost2010Prop34
280
     0
102
RTVSPost2010PropOp34
 70
     1
102
RTVSPost2010Prop35
280
     0
102
RTVSPost2010PropOp35
 70
     1
102
RTVSPost2010Prop36
280
     0
102
RTVSPost2010PropOp36
 70
     1
102
RTVSPost2010Prop37
 90
       50
102
RTVSPost2010PropOp37
 70
     0
102
RTVSPost2010Prop38
140
0.0
102
RTVSPost2010PropOp38
 70
     0
102
RTVSPost2010Prop39
140
1.0
102
RTVSPost2010PropOp39
 70
     0
102
RTVSPost2010Prop40
 90
        0
102
RTVSPost2010PropOp40
 70
     0
102
RTVSPost2010Prop41ColorIndex
 90
       18
102
RTVSPost2010Prop41ColorRGB
 90
        0
102
RTVSPost2010PropOp41
 70
     0
102
RTVSPost2010Prop42
 90
       50
102
RTVSPost2010PropOp42
 70
     0
102
RTVSPost2010Prop43
 90
        3
102
RTVSPost2010PropOp43
 70
     0
102
RTVSPost2010Prop44ColorIndex
 90
        5
102
RTVSPost2010Prop44ColorRGB
 90
      255
102
RTVSPost2010PropOp44
 70
     0
102
RTVSPost2010Prop45
280
     0
102
RTVSPost2010PropOp45
 70
     1
102
RTVSPost2010Prop46
 90
       50
102
RTVSPost2010PropOp46
 70
     0
102
RTVSPost2010Prop47
 90
       50
102
RTVSPost2010PropOp47
 70
     0
102
RTVSPost2010Prop48
 90
       50
102
RTVSPost2010PropOp48
 70
     0
102
RTVSPost2010Prop49
280
     0
102
RTVSPost2010PropOp49
 70
     1
102
RTVSPost2010Prop50
 90
       50
102
RTVSPost2010PropOp50
 70
     0
102
RTVSPost2010Prop51ColorIndex
 90
      256
102
RTVSPost2010Prop51ColorRGB
 90
-16777216
102
RTVSPost2010PropOp51
 70
     0
102
RTVSPost2010Prop52
140
1.0
102
RTVSPost2010PropOp52
 70
     0
102
RTVSPost2010Prop53
 90
        2
102
RTVSPost2010PropOp53
 70
     0
102
RTVSPost2010Prop54
  1
strokes_ogs.tif
102
RTVSPost2010PropOp54
 70
     0
102
RTVSPost2010Prop55
280
     0
102
RTVSPost2010PropOp55
 70
     1
102
RTVSPost2010Prop56
140
1.0
102
RTVSPost2010PropOp56
 70
     0
102
RTVSPost2010Prop57
140
1.0
102
RTVSPost2010PropOp57
 70
     0
102
RTVSPropertyOp0
 70
     0
102
RTVSPropertyOp1
 70
     0
102
RTVSPropertyOp2
 70
     0
102
RTVSPropertyOp3
 70
     0
102
RTVSPropertyOp4
 70
     0
102
RTVSPropertyOp5
 70
     0
102
RTVSPropertyOp6
 70
     0
102
RTVSPropertyOp7
 70
     0
102
RTVSPropertyOp8
 70
     0
102
RTVSPropertyOp9
 70
     0
102
RTVSPropertyOp10
 70
     0
102
RTVSPropertyOp11
 70
     0
102
RTVSPropertyOp12
 70
     0
102
RTVSPropertyOp13
 70
     0
102
RTVSPropertyOp14
 70
     2
102
RTVSPropertyOp15
 70
     0
102
RTVSPropertyOp16
 70
     0
102
RTVSPropertyOp17
 70
     0
102
RTVSPropertyOp18
 70
     0
102
RTVSPropertyOp19
 70
     0
102
RTVSPropertyOp20
 70
     0
102
RTVSPropertyOp21
 70
     0
102
RTVSPropertyOp22
 70
     0
102
RTVSPropertyOp23
 70
     0
102
RTVSPropertyOp24
 70
     0
102
RTVSPropertyOp25
 70
     0
102
RTVSPropertyOp26
 70
     0
102
RTVSPropertyOp27
 70
     0
102
RTVSPropertyOp28
 70
     1
102
RTVSPropertyOp29
 70
     1
102
RTVSPropertyOp30
 70
     1
102
RTVSPropertyOp31
 70
     1
102
RTVSPropertyOp32
 70
     1
102
RTVSPropertyOp33
 70
     1
102
RTVSPropertyOp34
 70
     1
102
RTVSPropertyOp35
 70
     1
102
RTVSPropertyOp36
 70
     1
102
RTVSPropertyOp37
 70
     0
102
RTVSPropertyOp38
 70
     0
102
RTVSPropertyOp39
 70
     0
102
RTVSPropertyOp40
 70
     0
102
RTVSPropertyOp41
 70
     0
102
RTVSPropertyOp42
 70
     0
102
RTVSPropertyOp43
 70
     0
102
RTVSPropertyOp44
 70
     0
102
RTVSPropertyOp45
 70
     1
102
RTVSPropertyOp46
 70
     0
102
RTVSPropertyOp47
 70
     0
102
RTVSPropertyOp48
 70
     0
102
RTVSPropertyOp49
 70
     1
102
RTVSPropertyOp50
 70
     0
102
RTVSPropertyOp51
 70
     0
102
RTVSPropertyOp52
 70
     0
102
RTVSPropertyOp53
 70
     0
102
RTVSPropertyOp54
 70
     0
102
RTVSPropertyOp55
 70
     1
102
RTVSPropertyOp56
 70
     0
102
RTVSPropertyOp57
 70
     0
102
RTVSPropertyOp58
 70
     0
102
RTVSPropertyOp59
 70
     0
102
RTVSPropertyOp60
 70
     0
102
RTVSPropertyOp61
 70
     0
102
RTVSPropertyOp62
 70
     0
  0
XRECORD
  5
7D2
102
{ACAD_REACTORS
330
7D1
102
}
330
7D1
100
AcDbXrecord
280
     1
102
RTVSPost2010Prop28
280
     0
102
RTVSPost2010PropOp28
 70
     1
102
RTVSPost2010Prop29
280
     1
102
RTVSPost2010PropOp29
 70
     1
102
RTVSPost2010Prop30
280
     1
102
RTVSPost2010PropOp30
 70
     1
102
RTVSPost2010Prop31
280
     0
102
RTVSPost2010PropOp31
 70
     1
102
RTVSPost2010Prop32
280
     0
102
RTVSPost2010PropOp32
 70
     1
102
RTVSPost2010Prop33
280
     0
102
RTVSPost2010PropOp33
 70
     1
102
RTVSPost2010Prop34
280
     0
102
RTVSPost2010PropOp34
 70
     1
102
RTVSPost2010Prop35
280
     0
102
RTVSPost2010PropOp35
 70
     1
102
RTVSPost2010Prop36
280
     0
102
RTVSPost2010PropOp36
 70
     1
102
RTVSPost2010Prop37
 90
       50
102
RTVSPost2010PropOp37
 70
     1
102
RTVSPost2010Prop38
140
0.0
102
RTVSPost2010PropOp38
 70
     1
102
RTVSPost2010Prop39
140
1.0
102
RTVSPost2010PropOp39
 70
     1
102
RTVSPost2010Prop40
 90
        0
102
RTVSPost2010PropOp40
 70
     1
102
RTVSPost2010Prop41ColorIndex
 90
       18
102
RTVSPost2010Prop41ColorRGB
 90
        0
102
RTVSPost2010PropOp41
 70
     1
102
RTVSPost2010Prop42
 90
       50
102
RTVSPost2010PropOp42
 70
     1
102
RTVSPost2010Prop43
 90
        3
102
RTVSPost2010PropOp43
 70
     1
102
RTVSPost2010Prop44ColorIndex
 90
        5
102
RTVSPost2010Prop44ColorRGB
 90
      255
102
RTVSPost2010PropOp44
 70
     1
102
RTVSPost2010Prop45
280
     0
102
RTVSPost2010PropOp45
 70
     1
102
RTVSPost2010Prop46
 90
       50
102
RTVSPost2010PropOp46
 70
     1
102
RTVSPost2010Prop47
 90
       50
102
RTVSPost2010PropOp47
 70
     1
102
RTVSPost2010Prop48
 90
       50
102
RTVSPost2010PropOp48
 70
     1
102
RTVSPost2010Prop49
280
     0
102
RTVSPost2010PropOp49
 70
     1
102
RTVSPost2010Prop50
 90
       50
102
RTVSPost2010PropOp50
 70
     1
102
RTVSPost2010Prop51ColorIndex
 90
      256
102
RTVSPost2010Prop51ColorRGB
 90
-16777216
102
RTVSPost2010PropOp51
 70
     0
102
RTVSPost2010Prop52
140
1.0
102
RTVSPost2010PropOp52
 70
     0
102
RTVSPost2010Prop53
 90
        2
102
RTVSPost2010PropOp53
 70
     1
102
RTVSPost2010Prop54
  1
strokes_ogs.tif
102
RTVSPost2010PropOp54
 70
     1
102
RTVSPost2010Prop55
280
     0
102
RTVSPost2010PropOp55
 70
     1
102
RTVSPost2010Prop56
140
1.0
102
RTVSPost2010PropOp56
 70
     1
102
RTVSPost2010Prop57
140
1.0
102
RTVSPost2010PropOp57
 70
     1
102
RTVSPropertyOp0
 70
     1
102
RTVSPropertyOp1
 70
     1
102
RTVSPropertyOp2
 70
     1
102
RTVSPropertyOp3
 70
     1
102
RTVSPropertyOp4
 70
     1
102
RTVSPropertyOp5
 70
     1
102
RTVSPropertyOp6
 70
     1
102
RTVSPropertyOp7
 70
     1
102
RTVSPropertyOp8
 70
     1
102
RTVSPropertyOp9
 70
     1
102
RTVSPropertyOp10
 70
     1
102
RTVSPropertyOp11
 70
     1
102
RTVSPropertyOp12
 70
     1
102
RTVSPropertyOp13
 70
     1
102
RTVSPropertyOp14
 70
     1
102
RTVSPropertyOp15
 70
     1
102
RTVSPropertyOp16
 70
     1
102
RTVSPropertyOp17
 70
     1
102
RTVSPropertyOp18
 70
     1
102
RTVSPropertyOp19
 70
     1
102
RTVSPropertyOp20
 70
     1
102
RTVSPropertyOp21
 70
     1
102
RTVSPropertyOp22
 70
     1
102
RTVSPropertyOp23
 70
     1
102
RTVSPropertyOp24
 70
     1
102
RTVSPropertyOp25
 70
     1
102
RTVSPropertyOp26
 70
     1
102
RTVSPropertyOp27
 70
     1
102
RTVSPropertyOp28
 70
     1
102
RTVSPropertyOp29
 70
     1
102
RTVSPropertyOp30
 70
     1
102
RTVSPropertyOp31
 70
     1
102
RTVSPropertyOp32
 70
     1
102
RTVSPropertyOp33
 70
     1
102
RTVSPropertyOp34
 70
     1
102
RTVSPropertyOp35
 70
     1
102
RTVSPropertyOp36
 70
     1
102
RTVSPropertyOp37
 70
     1
102
RTVSPropertyOp38
 70
     1
102
RTVSPropertyOp39
 70
     1
102
RTVSPropertyOp40
 70
     1
102
RTVSPropertyOp41
 70
     1
102
RTVSPropertyOp42
 70
     1
102
RTVSPropertyOp43
 70
     1
102
RTVSPropertyOp44
 70
     1
102
RTVSPropertyOp45
 70
     1
102
RTVSPropertyOp46
 70
     1
102
RTVSPropertyOp47
 70
     1
102
RTVSPropertyOp48
 70
     1
102
RTVSPropertyOp49
 70
     1
102
RTVSPropertyOp50
 70
     1
102
RTVSPropertyOp51
 70
     0
102
RTVSPropertyOp52
 70
     0
102
RTVSPropertyOp53
 70
     1
102
RTVSPropertyOp54
 70
     1
102
RTVSPropertyOp55
 70
     1
102
RTVSPropertyOp56
 70
     1
102
RTVSPropertyOp57
 70
     1
102
RTVSPropertyOp58
 70
     1
102
RTVSPropertyOp59
 70
     1
102
RTVSPropertyOp60
 70
     1
102
RTVSPropertyOp61
 70
     1
102
RTVSPropertyOp62
 70
     1
  0
XRECORD
  5
7B6
102
{ACAD_REACTORS
330
7B5
102
}
330
7B5
100
AcDbXrecord
280
     1
102
RTVSPost2010Prop28
280
     0
102
RTVSPost2010PropOp28
 70
     1
102
RTVSPost2010Prop29
280
     1
102
RTVSPost2010PropOp29
 70
     1
102
RTVSPost2010Prop30
280
     1
102
RTVSPost2010PropOp30
 70
     1
102
RTVSPost2010Prop31
280
     0
102
RTVSPost2010PropOp31
 70
     1
102
RTVSPost2010Prop32
280
     0
102
RTVSPost2010PropOp32
 70
     1
102
RTVSPost2010Prop33
280
     0
102
RTVSPost2010PropOp33
 70
     1
102
RTVSPost2010Prop34
280
     0
102
RTVSPost2010PropOp34
 70
     1
102
RTVSPost2010Prop35
280
     0
102
RTVSPost2010PropOp35
 70
     1
102
RTVSPost2010Prop36
280
     0
102
RTVSPost2010PropOp36
 70
     1
102
RTVSPost2010Prop37
 90
       50
102
RTVSPost2010PropOp37
 70
     1
102
RTVSPost2010Prop38
140
0.0
102
RTVSPost2010PropOp38
 70
     1
102
RTVSPost2010Prop39
140
1.0
102
RTVSPost2010PropOp39
 70
     1
102
RTVSPost2010Prop40
 90
        0
102
RTVSPost2010PropOp40
 70
     1
102
RTVSPost2010Prop41ColorIndex
 90
       18
102
RTVSPost2010Prop41ColorRGB
 90
        0
102
RTVSPost2010PropOp41
 70
     1
102
RTVSPost2010Prop42
 90
       50
102
RTVSPost2010PropOp42
 70
     1
102
RTVSPost2010Prop43
 90
        3
102
RTVSPost2010PropOp43
 70
     1
102
RTVSPost2010Prop44ColorIndex
 90
        5
102
RTVSPost2010Prop44ColorRGB
 90
      255
102
RTVSPost2010PropOp44
 70
     1
102
RTVSPost2010Prop45
280
     0
102
RTVSPost2010PropOp45
 70
     1
102
RTVSPost2010Prop46
 90
       50
102
RTVSPost2010PropOp46
 70
     1
102
RTVSPost2010Prop47
 90
       50
102
RTVSPost2010PropOp47
 70
     1
102
RTVSPost2010Prop48
 90
       50
102
RTVSPost2010PropOp48
 70
     1
102
RTVSPost2010Prop49
280
     0
102
RTVSPost2010PropOp49
 70
     1
102
RTVSPost2010Prop50
 90
       50
102
RTVSPost2010PropOp50
 70
     1
102
RTVSPost2010Prop51ColorIndex
 90
      256
102
RTVSPost2010Prop51ColorRGB
 90
-16777216
102
RTVSPost2010PropOp51
 70
     0
102
RTVSPost2010Prop52
140
1.0
102
RTVSPost2010PropOp52
 70
     0
102
RTVSPost2010Prop53
 90
        2
102
RTVSPost2010PropOp53
 70
     1
102
RTVSPost2010Prop54
  1
strokes_ogs.tif
102
RTVSPost2010PropOp54
 70
     1
102
RTVSPost2010Prop55
280
     0
102
RTVSPost2010PropOp55
 70
     1
102
RTVSPost2010Prop56
140
1.0
102
RTVSPost2010PropOp56
 70
     1
102
RTVSPost2010Prop57
140
1.0
102
RTVSPost2010PropOp57
 70
     1
102
RTVSPropertyOp0
 70
     1
102
RTVSPropertyOp1
 70
     1
102
RTVSPropertyOp2
 70
     1
102
RTVSPropertyOp3
 70
     1
102
RTVSPropertyOp4
 70
     1
102
RTVSPropertyOp5
 70
     1
102
RTVSPropertyOp6
 70
     1
102
RTVSPropertyOp7
 70
     1
102
RTVSPropertyOp8
 70
     1
102
RTVSPropertyOp9
 70
     1
102
RTVSPropertyOp10
 70
     1
102
RTVSPropertyOp11
 70
     1
102
RTVSPropertyOp12
 70
     1
102
RTVSPropertyOp13
 70
     1
102
RTVSPropertyOp14
 70
     1
102
RTVSPropertyOp15
 70
     1
102
RTVSPropertyOp16
 70
     1
102
RTVSPropertyOp17
 70
     1
102
RTVSPropertyOp18
 70
     1
102
RTVSPropertyOp19
 70
     1
102
RTVSPropertyOp20
 70
     1
102
RTVSPropertyOp21
 70
     1
102
RTVSPropertyOp22
 70
     1
102
RTVSPropertyOp23
 70
     1
102
RTVSPropertyOp24
 70
     1
102
RTVSPropertyOp25
 70
     1
102
RTVSPropertyOp26
 70
     1
102
RTVSPropertyOp27
 70
     1
102
RTVSPropertyOp28
 70
     1
102
RTVSPropertyOp29
 70
     1
102
RTVSPropertyOp30
 70
     1
102
RTVSPropertyOp31
 70
     1
102
RTVSPropertyOp32
 70
     1
102
RTVSPropertyOp33
 70
     1
102
RTVSPropertyOp34
 70
     1
102
RTVSPropertyOp35
 70
     1
102
RTVSPropertyOp36
 70
     1
102
RTVSPropertyOp37
 70
     1
102
RTVSPropertyOp38
 70
     1
102
RTVSPropertyOp39
 70
     1
102
RTVSPropertyOp40
 70
     1
102
RTVSPropertyOp41
 70
     1
102
RTVSPropertyOp42
 70
     1
102
RTVSPropertyOp43
 70
     1
102
RTVSPropertyOp44
 70
     1
102
RTVSPropertyOp45
 70
     1
102
RTVSPropertyOp46
 70
     1
102
RTVSPropertyOp47
 70
     1
102
RTVSPropertyOp48
 70
     1
102
RTVSPropertyOp49
 70
     1
102
RTVSPropertyOp50
 70
     1
102
RTVSPropertyOp51
 70
     0
102
RTVSPropertyOp52
 70
     0
102
RTVSPropertyOp53
 70
     1
102
RTVSPropertyOp54
 70
     1
102
RTVSPropertyOp55
 70
     1
102
RTVSPropertyOp56
 70
     1
102
RTVSPropertyOp57
 70
     1
102
RTVSPropertyOp58
 70
     1
102
RTVSPropertyOp59
 70
     1
102
RTVSPropertyOp60
 70
     1
102
RTVSPropertyOp61
 70
     1
102
RTVSPropertyOp62
 70
     1
  0
XRECORD
  5
7B8
102
{ACAD_REACTORS
330
7B7
102
}
330
7B7
100
AcDbXrecord
280
     1
102
RTVSPost2010Prop28
280
     0
102
RTVSPost2010PropOp28
 70
     1
102
RTVSPost2010Prop29
280
     1
102
RTVSPost2010PropOp29
 70
     1
102
RTVSPost2010Prop30
280
     1
102
RTVSPost2010PropOp30
 70
     1
102
RTVSPost2010Prop31
280
     0
102
RTVSPost2010PropOp31
 70
     1
102
RTVSPost2010Prop32
280
     0
102
RTVSPost2010PropOp32
 70
     1
102
RTVSPost2010Prop33
280
     0
102
RTVSPost2010PropOp33
 70
     1
102
RTVSPost2010Prop34
280
     0
102
RTVSPost2010PropOp34
 70
     1
102
RTVSPost2010Prop35
280
     0
102
RTVSPost2010PropOp35
 70
     1
102
RTVSPost2010Prop36
280
     0
102
RTVSPost2010PropOp36
 70
     1
102
RTVSPost2010Prop37
 90
       50
102
RTVSPost2010PropOp37
 70
     1
102
RTVSPost2010Prop38
140
0.0
102
RTVSPost2010PropOp38
 70
     1
102
RTVSPost2010Prop39
140
1.0
102
RTVSPost2010PropOp39
 70
     1
102
RTVSPost2010Prop40
 90
        0
102
RTVSPost2010PropOp40
 70
     1
102
RTVSPost2010Prop41ColorIndex
 90
       18
102
RTVSPost2010Prop41ColorRGB
 90
        0
102
RTVSPost2010PropOp41
 70
     1
102
RTVSPost2010Prop42
 90
       50
102
RTVSPost2010PropOp42
 70
     1
102
RTVSPost2010Prop43
 90
        3
102
RTVSPost2010PropOp43
 70
     1
102
RTVSPost2010Prop44ColorIndex
 90
        5
102
RTVSPost2010Prop44ColorRGB
 90
      255
102
RTVSPost2010PropOp44
 70
     1
102
RTVSPost2010Prop45
280
     0
102
RTVSPost2010PropOp45
 70
     1
102
RTVSPost2010Prop46
 90
       50
102
RTVSPost2010PropOp46
 70
     1
102
RTVSPost2010Prop47
 90
       50
102
RTVSPost2010PropOp47
 70
     1
102
RTVSPost2010Prop48
 90
       50
102
RTVSPost2010PropOp48
 70
     1
102
RTVSPost2010Prop49
280
     0
102
RTVSPost2010PropOp49
 70
     1
102
RTVSPost2010Prop50
 90
       50
102
RTVSPost2010PropOp50
 70
     1
102
RTVSPost2010Prop51ColorIndex
 90
      256
102
RTVSPost2010Prop51ColorRGB
 90
-16777216
102
RTVSPost2010PropOp51
 70
     0
102
RTVSPost2010Prop52
140
1.0
102
RTVSPost2010PropOp52
 70
     0
102
RTVSPost2010Prop53
 90
        2
102
RTVSPost2010PropOp53
 70
     1
102
RTVSPost2010Prop54
  1
strokes_ogs.tif
102
RTVSPost2010PropOp54
 70
     1
102
RTVSPost2010Prop55
280
     0
102
RTVSPost2010PropOp55
 70
     1
102
RTVSPost2010Prop56
140
1.0
102
RTVSPost2010PropOp56
 70
     1
102
RTVSPost2010Prop57
140
1.0
102
RTVSPost2010PropOp57
 70
     1
102
RTVSPropertyOp0
 70
     1
102
RTVSPropertyOp1
 70
     1
102
RTVSPropertyOp2
 70
     1
102
RTVSPropertyOp3
 70
     1
102
RTVSPropertyOp4
 70
     1
102
RTVSPropertyOp5
 70
     1
102
RTVSPropertyOp6
 70
     1
102
RTVSPropertyOp7
 70
     1
102
RTVSPropertyOp8
 70
     1
102
RTVSPropertyOp9
 70
     1
102
RTVSPropertyOp10
 70
     1
102
RTVSPropertyOp11
 70
     1
102
RTVSPropertyOp12
 70
     1
102
RTVSPropertyOp13
 70
     1
102
RTVSPropertyOp14
 70
     1
102
RTVSPropertyOp15
 70
     1
102
RTVSPropertyOp16
 70
     1
102
RTVSPropertyOp17
 70
     1
102
RTVSPropertyOp18
 70
     1
102
RTVSPropertyOp19
 70
     1
102
RTVSPropertyOp20
 70
     1
102
RTVSPropertyOp21
 70
     1
102
RTVSPropertyOp22
 70
     1
102
RTVSPropertyOp23
 70
     1
102
RTVSPropertyOp24
 70
     1
102
RTVSPropertyOp25
 70
     1
102
RTVSPropertyOp26
 70
     1
102
RTVSPropertyOp27
 70
     1
102
RTVSPropertyOp28
 70
     1
102
RTVSPropertyOp29
 70
     1
102
RTVSPropertyOp30
 70
     1
102
RTVSPropertyOp31
 70
     1
102
RTVSPropertyOp32
 70
     1
102
RTVSPropertyOp33
 70
     1
102
RTVSPropertyOp34
 70
     1
102
RTVSPropertyOp35
 70
     1
102
RTVSPropertyOp36
 70
     1
102
RTVSPropertyOp37
 70
     1
102
RTVSPropertyOp38
 70
     1
102
RTVSPropertyOp39
 70
     1
102
RTVSPropertyOp40
 70
     1
102
RTVSPropertyOp41
 70
     1
102
RTVSPropertyOp42
 70
     1
102
RTVSPropertyOp43
 70
     1
102
RTVSPropertyOp44
 70
     1
102
RTVSPropertyOp45
 70
     1
102
RTVSPropertyOp46
 70
     1
102
RTVSPropertyOp47
 70
     1
102
RTVSPropertyOp48
 70
     1
102
RTVSPropertyOp49
 70
     1
102
RTVSPropertyOp50
 70
     1
102
RTVSPropertyOp51
 70
     0
102
RTVSPropertyOp52
 70
     0
102
RTVSPropertyOp53
 70
     1
102
RTVSPropertyOp54
 70
     1
102
RTVSPropertyOp55
 70
     1
102
RTVSPropertyOp56
 70
     1
102
RTVSPropertyOp57
 70
     1
102
RTVSPropertyOp58
 70
     1
102
RTVSPropertyOp59
 70
     1
102
RTVSPropertyOp60
 70
     1
102
RTVSPropertyOp61
 70
     1
102
RTVSPropertyOp62
 70
     1
  0
XRECORD
  5
7BA
102
{ACAD_REACTORS
330
7B9
102
}
330
7B9
100
AcDbXrecord
280
     1
102
RTVSPost2010Prop28
280
     0
102
RTVSPost2010PropOp28
 70
     1
102
RTVSPost2010Prop29
280
     1
102
RTVSPost2010PropOp29
 70
     1
102
RTVSPost2010Prop30
280
     1
102
RTVSPost2010PropOp30
 70
     1
102
RTVSPost2010Prop31
280
     0
102
RTVSPost2010PropOp31
 70
     1
102
RTVSPost2010Prop32
280
     0
102
RTVSPost2010PropOp32
 70
     1
102
RTVSPost2010Prop33
280
     0
102
RTVSPost2010PropOp33
 70
     1
102
RTVSPost2010Prop34
280
     0
102
RTVSPost2010PropOp34
 70
     1
102
RTVSPost2010Prop35
280
     0
102
RTVSPost2010PropOp35
 70
     1
102
RTVSPost2010Prop36
280
     0
102
RTVSPost2010PropOp36
 70
     1
102
RTVSPost2010Prop37
 90
       50
102
RTVSPost2010PropOp37
 70
     1
102
RTVSPost2010Prop38
140
0.0
102
RTVSPost2010PropOp38
 70
     1
102
RTVSPost2010Prop39
140
1.0
102
RTVSPost2010PropOp39
 70
     1
102
RTVSPost2010Prop40
 90
        0
102
RTVSPost2010PropOp40
 70
     1
102
RTVSPost2010Prop41ColorIndex
 90
       18
102
RTVSPost2010Prop41ColorRGB
 90
        0
102
RTVSPost2010PropOp41
 70
     1
102
RTVSPost2010Prop42
 90
       50
102
RTVSPost2010PropOp42
 70
     1
102
RTVSPost2010Prop43
 90
        3
102
RTVSPost2010PropOp43
 70
     1
102
RTVSPost2010Prop44ColorIndex
 90
        5
102
RTVSPost2010Prop44ColorRGB
 90
      255
102
RTVSPost2010PropOp44
 70
     1
102
RTVSPost2010Prop45
280
     0
102
RTVSPost2010PropOp45
 70
     1
102
RTVSPost2010Prop46
 90
       50
102
RTVSPost2010PropOp46
 70
     1
102
RTVSPost2010Prop47
 90
       50
102
RTVSPost2010PropOp47
 70
     1
102
RTVSPost2010Prop48
 90
       50
102
RTVSPost2010PropOp48
 70
     1
102
RTVSPost2010Prop49
280
     0
102
RTVSPost2010PropOp49
 70
     1
102
RTVSPost2010Prop50
 90
       50
102
RTVSPost2010PropOp50
 70
     1
102
RTVSPost2010Prop51ColorIndex
 90
      256
102
RTVSPost2010Prop51ColorRGB
 90
-16777216
102
RTVSPost2010PropOp51
 70
     0
102
RTVSPost2010Prop52
140
1.0
102
RTVSPost2010PropOp52
 70
     0
102
RTVSPost2010Prop53
 90
        2
102
RTVSPost2010PropOp53
 70
     1
102
RTVSPost2010Prop54
  1
strokes_ogs.tif
102
RTVSPost2010PropOp54
 70
     1
102
RTVSPost2010Prop55
280
     0
102
RTVSPost2010PropOp55
 70
     1
102
RTVSPost2010Prop56
140
1.0
102
RTVSPost2010PropOp56
 70
     1
102
RTVSPost2010Prop57
140
1.0
102
RTVSPost2010PropOp57
 70
     1
102
RTVSPropertyOp0
 70
     1
102
RTVSPropertyOp1
 70
     1
102
RTVSPropertyOp2
 70
     1
102
RTVSPropertyOp3
 70
     1
102
RTVSPropertyOp4
 70
     1
102
RTVSPropertyOp5
 70
     1
102
RTVSPropertyOp6
 70
     1
102
RTVSPropertyOp7
 70
     1
102
RTVSPropertyOp8
 70
     1
102
RTVSPropertyOp9
 70
     1
102
RTVSPropertyOp10
 70
     1
102
RTVSPropertyOp11
 70
     1
102
RTVSPropertyOp12
 70
     1
102
RTVSPropertyOp13
 70
     1
102
RTVSPropertyOp14
 70
     1
102
RTVSPropertyOp15
 70
     1
102
RTVSPropertyOp16
 70
     1
102
RTVSPropertyOp17
 70
     1
102
RTVSPropertyOp18
 70
     1
102
RTVSPropertyOp19
 70
     1
102
RTVSPropertyOp20
 70
     1
102
RTVSPropertyOp21
 70
     1
102
RTVSPropertyOp22
 70
     1
102
RTVSPropertyOp23
 70
     1
102
RTVSPropertyOp24
 70
     1
102
RTVSPropertyOp25
 70
     1
102
RTVSPropertyOp26
 70
     1
102
RTVSPropertyOp27
 70
     1
102
RTVSPropertyOp28
 70
     1
102
RTVSPropertyOp29
 70
     1
102
RTVSPropertyOp30
 70
     1
102
RTVSPropertyOp31
 70
     1
102
RTVSPropertyOp32
 70
     1
102
RTVSPropertyOp33
 70
     1
102
RTVSPropertyOp34
 70
     1
102
RTVSPropertyOp35
 70
     1
102
RTVSPropertyOp36
 70
     1
102
RTVSPropertyOp37
 70
     1
102
RTVSPropertyOp38
 70
     1
102
RTVSPropertyOp39
 70
     1
102
RTVSPropertyOp40
 70
     1
102
RTVSPropertyOp41
 70
     1
102
RTVSPropertyOp42
 70
     1
102
RTVSPropertyOp43
 70
     1
102
RTVSPropertyOp44
 70
     1
102
RTVSPropertyOp45
 70
     1
102
RTVSPropertyOp46
 70
     1
102
RTVSPropertyOp47
 70
     1
102
RTVSPropertyOp48
 70
     1
102
RTVSPropertyOp49
 70
     1
102
RTVSPropertyOp50
 70
     1
102
RTVSPropertyOp51
 70
     0
102
RTVSPropertyOp52
 70
     0
102
RTVSPropertyOp53
 70
     1
102
RTVSPropertyOp54
 70
     1
102
RTVSPropertyOp55
 70
     1
102
RTVSPropertyOp56
 70
     1
102
RTVSPropertyOp57
 70
     1
102
RTVSPropertyOp58
 70
     1
102
RTVSPropertyOp59
 70
     1
102
RTVSPropertyOp60
 70
     1
102
RTVSPropertyOp61
 70
     1
102
RTVSPropertyOp62
 70
     1
  0
XRECORD
  5
7BC
102
{ACAD_REACTORS
330
7BB
102
}
330
7BB
100
AcDbXrecord
280
     1
102
RTVSPost2010Prop28
280
     0
102
RTVSPost2010PropOp28
 70
     1
102
RTVSPost2010Prop29
280
     1
102
RTVSPost2010PropOp29
 70
     1
102
RTVSPost2010Prop30
280
     1
102
RTVSPost2010PropOp30
 70
     1
102
RTVSPost2010Prop31
280
     0
102
RTVSPost2010PropOp31
 70
     1
102
RTVSPost2010Prop32
280
     0
102
RTVSPost2010PropOp32
 70
     1
102
RTVSPost2010Prop33
280
     0
102
RTVSPost2010PropOp33
 70
     1
102
RTVSPost2010Prop34
280
     0
102
RTVSPost2010PropOp34
 70
     1
102
RTVSPost2010Prop35
280
     0
102
RTVSPost2010PropOp35
 70
     1
102
RTVSPost2010Prop36
280
     0
102
RTVSPost2010PropOp36
 70
     1
102
RTVSPost2010Prop37
 90
       50
102
RTVSPost2010PropOp37
 70
     1
102
RTVSPost2010Prop38
140
0.0
102
RTVSPost2010PropOp38
 70
     1
102
RTVSPost2010Prop39
140
1.0
102
RTVSPost2010PropOp39
 70
     1
102
RTVSPost2010Prop40
 90
        0
102
RTVSPost2010PropOp40
 70
     1
102
RTVSPost2010Prop41ColorIndex
 90
       18
102
RTVSPost2010Prop41ColorRGB
 90
        0
102
RTVSPost2010PropOp41
 70
     1
102
RTVSPost2010Prop42
 90
       50
102
RTVSPost2010PropOp42
 70
     1
102
RTVSPost2010Prop43
 90
        3
102
RTVSPost2010PropOp43
 70
     1
102
RTVSPost2010Prop44ColorIndex
 90
        5
102
RTVSPost2010Prop44ColorRGB
 90
      255
102
RTVSPost2010PropOp44
 70
     1
102
RTVSPost2010Prop45
280
     0
102
RTVSPost2010PropOp45
 70
     1
102
RTVSPost2010Prop46
 90
       50
102
RTVSPost2010PropOp46
 70
     1
102
RTVSPost2010Prop47
 90
       50
102
RTVSPost2010PropOp47
 70
     1
102
RTVSPost2010Prop48
 90
       50
102
RTVSPost2010PropOp48
 70
     1
102
RTVSPost2010Prop49
280
     0
102
RTVSPost2010PropOp49
 70
     1
102
RTVSPost2010Prop50
 90
       50
102
RTVSPost2010PropOp50
 70
     1
102
RTVSPost2010Prop51ColorIndex
 90
      256
102
RTVSPost2010Prop51ColorRGB
 90
-16777216
102
RTVSPost2010PropOp51
 70
     0
102
RTVSPost2010Prop52
140
1.0
102
RTVSPost2010PropOp52
 70
     0
102
RTVSPost2010Prop53
 90
        2
102
RTVSPost2010PropOp53
 70
     1
102
RTVSPost2010Prop54
  1
strokes_ogs.tif
102
RTVSPost2010PropOp54
 70
     1
102
RTVSPost2010Prop55
280
     0
102
RTVSPost2010PropOp55
 70
     1
102
RTVSPost2010Prop56
140
1.0
102
RTVSPost2010PropOp56
 70
     1
102
RTVSPost2010Prop57
140
1.0
102
RTVSPost2010PropOp57
 70
     1
102
RTVSPropertyOp0
 70
     1
102
RTVSPropertyOp1
 70
     1
102
RTVSPropertyOp2
 70
     1
102
RTVSPropertyOp3
 70
     1
102
RTVSPropertyOp4
 70
     1
102
RTVSPropertyOp5
 70
     1
102
RTVSPropertyOp6
 70
     1
102
RTVSPropertyOp7
 70
     1
102
RTVSPropertyOp8
 70
     1
102
RTVSPropertyOp9
 70
     1
102
RTVSPropertyOp10
 70
     1
102
RTVSPropertyOp11
 70
     1
102
RTVSPropertyOp12
 70
     1
102
RTVSPropertyOp13
 70
     1
102
RTVSPropertyOp14
 70
     1
102
RTVSPropertyOp15
 70
     1
102
RTVSPropertyOp16
 70
     1
102
RTVSPropertyOp17
 70
     1
102
RTVSPropertyOp18
 70
     1
102
RTVSPropertyOp19
 70
     1
102
RTVSPropertyOp20
 70
     1
102
RTVSPropertyOp21
 70
     1
102
RTVSPropertyOp22
 70
     1
102
RTVSPropertyOp23
 70
     1
102
RTVSPropertyOp24
 70
     1
102
RTVSPropertyOp25
 70
     1
102
RTVSPropertyOp26
 70
     1
102
RTVSPropertyOp27
 70
     1
102
RTVSPropertyOp28
 70
     1
102
RTVSPropertyOp29
 70
     1
102
RTVSPropertyOp30
 70
     1
102
RTVSPropertyOp31
 70
     1
102
RTVSPropertyOp32
 70
     1
102
RTVSPropertyOp33
 70
     1
102
RTVSPropertyOp34
 70
     1
102
RTVSPropertyOp35
 70
     1
102
RTVSPropertyOp36
 70
     1
102
RTVSPropertyOp37
 70
     1
102
RTVSPropertyOp38
 70
     1
102
RTVSPropertyOp39
 70
     1
102
RTVSPropertyOp40
 70
     1
102
RTVSPropertyOp41
 70
     1
102
RTVSPropertyOp42
 70
     1
102
RTVSPropertyOp43
 70
     1
102
RTVSPropertyOp44
 70
     1
102
RTVSPropertyOp45
 70
     1
102
RTVSPropertyOp46
 70
     1
102
RTVSPropertyOp47
 70
     1
102
RTVSPropertyOp48
 70
     1
102
RTVSPropertyOp49
 70
     1
102
RTVSPropertyOp50
 70
     1
102
RTVSPropertyOp51
 70
     0
102
RTVSPropertyOp52
 70
     0
102
RTVSPropertyOp53
 70
     1
102
RTVSPropertyOp54
 70
     1
102
RTVSPropertyOp55
 70
     1
102
RTVSPropertyOp56
 70
     1
102
RTVSPropertyOp57
 70
     1
102
RTVSPropertyOp58
 70
     1
102
RTVSPropertyOp59
 70
     1
102
RTVSPropertyOp60
 70
     1
102
RTVSPropertyOp61
 70
     1
102
RTVSPropertyOp62
 70
     1
  0
XRECORD
  5
7C4
102
{ACAD_REACTORS
330
7C3
102
}
330
7C3
100
AcDbXrecord
280
     1
102
RTVSPost2010Prop28
280
     0
102
RTVSPost2010PropOp28
 70
     1
102
RTVSPost2010Prop29
280
     1
102
RTVSPost2010PropOp29
 70
     1
102
RTVSPost2010Prop30
280
     1
102
RTVSPost2010PropOp30
 70
     1
102
RTVSPost2010Prop31
280
     0
102
RTVSPost2010PropOp31
 70
     1
102
RTVSPost2010Prop32
280
     0
102
RTVSPost2010PropOp32
 70
     1
102
RTVSPost2010Prop33
280
     0
102
RTVSPost2010PropOp33
 70
     1
102
RTVSPost2010Prop34
280
     0
102
RTVSPost2010PropOp34
 70
     1
102
RTVSPost2010Prop35
280
     0
102
RTVSPost2010PropOp35
 70
     1
102
RTVSPost2010Prop36
280
     0
102
RTVSPost2010PropOp36
 70
     1
102
RTVSPost2010Prop37
 90
       50
102
RTVSPost2010PropOp37
 70
     1
102
RTVSPost2010Prop38
140
0.0
102
RTVSPost2010PropOp38
 70
     1
102
RTVSPost2010Prop39
140
1.0
102
RTVSPost2010PropOp39
 70
     1
102
RTVSPost2010Prop40
 90
        0
102
RTVSPost2010PropOp40
 70
     1
102
RTVSPost2010Prop41ColorIndex
 90
       18
102
RTVSPost2010Prop41ColorRGB
 90
        0
102
RTVSPost2010PropOp41
 70
     1
102
RTVSPost2010Prop42
 90
       50
102
RTVSPost2010PropOp42
 70
     1
102
RTVSPost2010Prop43
 90
        3
102
RTVSPost2010PropOp43
 70
     1
102
RTVSPost2010Prop44ColorIndex
 90
        5
102
RTVSPost2010Prop44ColorRGB
 90
      255
102
RTVSPost2010PropOp44
 70
     1
102
RTVSPost2010Prop45
280
     0
102
RTVSPost2010PropOp45
 70
     1
102
RTVSPost2010Prop46
 90
       50
102
RTVSPost2010PropOp46
 70
     1
102
RTVSPost2010Prop47
 90
       50
102
RTVSPost2010PropOp47
 70
     1
102
RTVSPost2010Prop48
 90
       50
102
RTVSPost2010PropOp48
 70
     1
102
RTVSPost2010Prop49
280
     0
102
RTVSPost2010PropOp49
 70
     1
102
RTVSPost2010Prop50
 90
       50
102
RTVSPost2010PropOp50
 70
     1
102
RTVSPost2010Prop51ColorIndex
 90
      256
102
RTVSPost2010Prop51ColorRGB
 90
-16777216
102
RTVSPost2010PropOp51
 70
     0
102
RTVSPost2010Prop52
140
1.0
102
RTVSPost2010PropOp52
 70
     0
102
RTVSPost2010Prop53
 90
        2
102
RTVSPost2010PropOp53
 70
     1
102
RTVSPost2010Prop54
  1
strokes_ogs.tif
102
RTVSPost2010PropOp54
 70
     1
102
RTVSPost2010Prop55
280
     0
102
RTVSPost2010PropOp55
 70
     1
102
RTVSPost2010Prop56
140
1.0
102
RTVSPost2010PropOp56
 70
     1
102
RTVSPost2010Prop57
140
1.0
102
RTVSPost2010PropOp57
 70
     1
102
RTVSPropertyOp0
 70
     1
102
RTVSPropertyOp1
 70
     1
102
RTVSPropertyOp2
 70
     1
102
RTVSPropertyOp3
 70
     1
102
RTVSPropertyOp4
 70
     1
102
RTVSPropertyOp5
 70
     1
102
RTVSPropertyOp6
 70
     1
102
RTVSPropertyOp7
 70
     1
102
RTVSPropertyOp8
 70
     1
102
RTVSPropertyOp9
 70
     1
102
RTVSPropertyOp10
 70
     1
102
RTVSPropertyOp11
 70
     1
102
RTVSPropertyOp12
 70
     1
102
RTVSPropertyOp13
 70
     1
102
RTVSPropertyOp14
 70
     1
102
RTVSPropertyOp15
 70
     1
102
RTVSPropertyOp16
 70
     1
102
RTVSPropertyOp17
 70
     1
102
RTVSPropertyOp18
 70
     1
102
RTVSPropertyOp19
 70
     1
102
RTVSPropertyOp20
 70
     1
102
RTVSPropertyOp21
 70
     1
102
RTVSPropertyOp22
 70
     1
102
RTVSPropertyOp23
 70
     1
102
RTVSPropertyOp24
 70
     1
102
RTVSPropertyOp25
 70
     1
102
RTVSPropertyOp26
 70
     1
102
RTVSPropertyOp27
 70
     1
102
RTVSPropertyOp28
 70
     1
102
RTVSPropertyOp29
 70
     1
102
RTVSPropertyOp30
 70
     1
102
RTVSPropertyOp31
 70
     1
102
RTVSPropertyOp32
 70
     1
102
RTVSPropertyOp33
 70
     1
102
RTVSPropertyOp34
 70
     1
102
RTVSPropertyOp35
 70
     1
102
RTVSPropertyOp36
 70
     1
102
RTVSPropertyOp37
 70
     1
102
RTVSPropertyOp38
 70
     1
102
RTVSPropertyOp39
 70
     1
102
RTVSPropertyOp40
 70
     1
102
RTVSPropertyOp41
 70
     1
102
RTVSPropertyOp42
 70
     1
102
RTVSPropertyOp43
 70
     1
102
RTVSPropertyOp44
 70
     1
102
RTVSPropertyOp45
 70
     1
102
RTVSPropertyOp46
 70
     1
102
RTVSPropertyOp47
 70
     1
102
RTVSPropertyOp48
 70
     1
102
RTVSPropertyOp49
 70
     1
102
RTVSPropertyOp50
 70
     1
102
RTVSPropertyOp51
 70
     0
102
RTVSPropertyOp52
 70
     0
102
RTVSPropertyOp53
 70
     1
102
RTVSPropertyOp54
 70
     1
102
RTVSPropertyOp55
 70
     1
102
RTVSPropertyOp56
 70
     1
102
RTVSPropertyOp57
 70
     1
102
RTVSPropertyOp58
 70
     1
102
RTVSPropertyOp59
 70
     1
102
RTVSPropertyOp60
 70
     1
102
RTVSPropertyOp61
 70
     1
102
RTVSPropertyOp62
 70
     1
  0
XRECORD
  5
7E0
102
{ACAD_REACTORS
330
7DF
102
}
330
7DF
100
AcDbXrecord
280
     1
102
RTVSPost2010Prop28
280
     0
102
RTVSPost2010PropOp28
 70
     1
102
RTVSPost2010Prop29
280
     1
102
RTVSPost2010PropOp29
 70
     1
102
RTVSPost2010Prop30
280
     1
102
RTVSPost2010PropOp30
 70
     1
102
RTVSPost2010Prop31
280
     0
102
RTVSPost2010PropOp31
 70
     1
102
RTVSPost2010Prop32
280
     0
102
RTVSPost2010PropOp32
 70
     1
102
RTVSPost2010Prop33
280
     0
102
RTVSPost2010PropOp33
 70
     1
102
RTVSPost2010Prop34
280
     0
102
RTVSPost2010PropOp34
 70
     1
102
RTVSPost2010Prop35
280
     0
102
RTVSPost2010PropOp35
 70
     1
102
RTVSPost2010Prop36
280
     0
102
RTVSPost2010PropOp36
 70
     1
102
RTVSPost2010Prop37
 90
       50
102
RTVSPost2010PropOp37
 70
     0
102
RTVSPost2010Prop38
140
0.0
102
RTVSPost2010PropOp38
 70
     0
102
RTVSPost2010Prop39
140
1.0
102
RTVSPost2010PropOp39
 70
     0
102
RTVSPost2010Prop40
 90
        0
102
RTVSPost2010PropOp40
 70
     0
102
RTVSPost2010Prop41ColorIndex
 90
       18
102
RTVSPost2010Prop41ColorRGB
 90
        0
102
RTVSPost2010PropOp41
 70
     0
102
RTVSPost2010Prop42
 90
       50
102
RTVSPost2010PropOp42
 70
     0
102
RTVSPost2010Prop43
 90
        3
102
RTVSPost2010PropOp43
 70
     0
102
RTVSPost2010Prop44ColorIndex
 90
        5
102
RTVSPost2010Prop44ColorRGB
 90
      255
102
RTVSPost2010PropOp44
 70
     0
102
RTVSPost2010Prop45
280
     0
102
RTVSPost2010PropOp45
 70
     1
102
RTVSPost2010Prop46
 90
       50
102
RTVSPost2010PropOp46
 70
     0
102
RTVSPost2010Prop47
 90
       50
102
RTVSPost2010PropOp47
 70
     0
102
RTVSPost2010Prop48
 90
       50
102
RTVSPost2010PropOp48
 70
     0
102
RTVSPost2010Prop49
280
     0
102
RTVSPost2010PropOp49
 70
     1
102
RTVSPost2010Prop50
 90
       50
102
RTVSPost2010PropOp50
 70
     0
102
RTVSPost2010Prop51ColorIndex
 90
      256
102
RTVSPost2010Prop51ColorRGB
 90
-16777216
102
RTVSPost2010PropOp51
 70
     0
102
RTVSPost2010Prop52
140
1.0
102
RTVSPost2010PropOp52
 70
     0
102
RTVSPost2010Prop53
 90
        2
102
RTVSPost2010PropOp53
 70
     0
102
RTVSPost2010Prop54
  1
strokes_ogs.tif
102
RTVSPost2010PropOp54
 70
     0
102
RTVSPost2010Prop55
280
     0
102
RTVSPost2010PropOp55
 70
     1
102
RTVSPost2010Prop56
140
1.0
102
RTVSPost2010PropOp56
 70
     0
102
RTVSPost2010Prop57
140
1.0
102
RTVSPost2010PropOp57
 70
     0
102
RTVSPropertyOp0
 70
     0
102
RTVSPropertyOp1
 70
     0
102
RTVSPropertyOp2
 70
     0
102
RTVSPropertyOp3
 70
     0
102
RTVSPropertyOp4
 70
     0
102
RTVSPropertyOp5
 70
     0
102
RTVSPropertyOp6
 70
     0
102
RTVSPropertyOp7
 70
     0
102
RTVSPropertyOp8
 70
     0
102
RTVSPropertyOp9
 70
     0
102
RTVSPropertyOp10
 70
     0
102
RTVSPropertyOp11
 70
     0
102
RTVSPropertyOp12
 70
     0
102
RTVSPropertyOp13
 70
     0
102
RTVSPropertyOp14
 70
     2
102
RTVSPropertyOp15
 70
     0
102
RTVSPropertyOp16
 70
     0
102
RTVSPropertyOp17
 70
     0
102
RTVSPropertyOp18
 70
     0
102
RTVSPropertyOp19
 70
     0
102
RTVSPropertyOp20
 70
     0
102
RTVSPropertyOp21
 70
     0
102
RTVSPropertyOp22
 70
     0
102
RTVSPropertyOp23
 70
     0
102
RTVSPropertyOp24
 70
     0
102
RTVSPropertyOp25
 70
     0
102
RTVSPropertyOp26
 70
     0
102
RTVSPropertyOp27
 70
     0
102
RTVSPropertyOp28
 70
     1
102
RTVSPropertyOp29
 70
     1
102
RTVSPropertyOp30
 70
     1
102
RTVSPropertyOp31
 70
     1
102
RTVSPropertyOp32
 70
     1
102
RTVSPropertyOp33
 70
     1
102
RTVSPropertyOp34
 70
     1
102
RTVSPropertyOp35
 70
     1
102
RTVSPropertyOp36
 70
     1
102
RTVSPropertyOp37
 70
     0
102
RTVSPropertyOp38
 70
     0
102
RTVSPropertyOp39
 70
     0
102
RTVSPropertyOp40
 70
     0
102
RTVSPropertyOp41
 70
     0
102
RTVSPropertyOp42
 70
     0
102
RTVSPropertyOp43
 70
     0
102
RTVSPropertyOp44
 70
     0
102
RTVSPropertyOp45
 70
     1
102
RTVSPropertyOp46
 70
     0
102
RTVSPropertyOp47
 70
     0
102
RTVSPropertyOp48
 70
     0
102
RTVSPropertyOp49
 70
     1
102
RTVSPropertyOp50
 70
     0
102
RTVSPropertyOp51
 70
     0
102
RTVSPropertyOp52
 70
     0
102
RTVSPropertyOp53
 70
     0
102
RTVSPropertyOp54
 70
     0
102
RTVSPropertyOp55
 70
     1
102
RTVSPropertyOp56
 70
     0
102
RTVSPropertyOp57
 70
     0
102
RTVSPropertyOp58
 70
     0
102
RTVSPropertyOp59
 70
     0
102
RTVSPropertyOp60
 70
     0
102
RTVSPropertyOp61
 70
     0
102
RTVSPropertyOp62
 70
     0
  0
XRECORD
  5
7D0
102
{ACAD_REACTORS
330
7CF
102
}
330
7CF
100
AcDbXrecord
280
     1
102
RTVSPost2010Prop28
280
     0
102
RTVSPost2010PropOp28
 70
     1
102
RTVSPost2010Prop29
280
     1
102
RTVSPost2010PropOp29
 70
     1
102
RTVSPost2010Prop30
280
     1
102
RTVSPost2010PropOp30
 70
     1
102
RTVSPost2010Prop31
280
     0
102
RTVSPost2010PropOp31
 70
     1
102
RTVSPost2010Prop32
280
     0
102
RTVSPost2010PropOp32
 70
     1
102
RTVSPost2010Prop33
280
     0
102
RTVSPost2010PropOp33
 70
     1
102
RTVSPost2010Prop34
280
     0
102
RTVSPost2010PropOp34
 70
     1
102
RTVSPost2010Prop35
280
     0
102
RTVSPost2010PropOp35
 70
     1
102
RTVSPost2010Prop36
280
     0
102
RTVSPost2010PropOp36
 70
     1
102
RTVSPost2010Prop37
 90
       50
102
RTVSPost2010PropOp37
 70
     1
102
RTVSPost2010Prop38
140
0.0
102
RTVSPost2010PropOp38
 70
     1
102
RTVSPost2010Prop39
140
1.0
102
RTVSPost2010PropOp39
 70
     1
102
RTVSPost2010Prop40
 90
        0
102
RTVSPost2010PropOp40
 70
     1
102
RTVSPost2010Prop41ColorIndex
 90
       18
102
RTVSPost2010Prop41ColorRGB
 90
        0
102
RTVSPost2010PropOp41
 70
     1
102
RTVSPost2010Prop42
 90
       50
102
RTVSPost2010PropOp42
 70
     1
102
RTVSPost2010Prop43
 90
        3
102
RTVSPost2010PropOp43
 70
     1
102
RTVSPost2010Prop44ColorIndex
 90
        5
102
RTVSPost2010Prop44ColorRGB
 90
      255
102
RTVSPost2010PropOp44
 70
     1
102
RTVSPost2010Prop45
280
     0
102
RTVSPost2010PropOp45
 70
     1
102
RTVSPost2010Prop46
 90
       50
102
RTVSPost2010PropOp46
 70
     1
102
RTVSPost2010Prop47
 90
       50
102
RTVSPost2010PropOp47
 70
     1
102
RTVSPost2010Prop48
 90
       50
102
RTVSPost2010PropOp48
 70
     1
102
RTVSPost2010Prop49
280
     0
102
RTVSPost2010PropOp49
 70
     1
102
RTVSPost2010Prop50
 90
       50
102
RTVSPost2010PropOp50
 70
     1
102
RTVSPost2010Prop51ColorIndex
 90
      256
102
RTVSPost2010Prop51ColorRGB
 90
-16777216
102
RTVSPost2010PropOp51
 70
     0
102
RTVSPost2010Prop52
140
1.0
102
RTVSPost2010PropOp52
 70
     0
102
RTVSPost2010Prop53
 90
        2
102
RTVSPost2010PropOp53
 70
     1
102
RTVSPost2010Prop54
  1
strokes_ogs.tif
102
RTVSPost2010PropOp54
 70
     1
102
RTVSPost2010Prop55
280
     0
102
RTVSPost2010PropOp55
 70
     1
102
RTVSPost2010Prop56
140
1.0
102
RTVSPost2010PropOp56
 70
     1
102
RTVSPost2010Prop57
140
1.0
102
RTVSPost2010PropOp57
 70
     1
102
RTVSPropertyOp0
 70
     1
102
RTVSPropertyOp1
 70
     1
102
RTVSPropertyOp2
 70
     1
102
RTVSPropertyOp3
 70
     1
102
RTVSPropertyOp4
 70
     1
102
RTVSPropertyOp5
 70
     1
102
RTVSPropertyOp6
 70
     1
102
RTVSPropertyOp7
 70
     1
102
RTVSPropertyOp8
 70
     1
102
RTVSPropertyOp9
 70
     1
102
RTVSPropertyOp10
 70
     1
102
RTVSPropertyOp11
 70
     1
102
RTVSPropertyOp12
 70
     1
102
RTVSPropertyOp13
 70
     1
102
RTVSPropertyOp14
 70
     1
102
RTVSPropertyOp15
 70
     1
102
RTVSPropertyOp16
 70
     1
102
RTVSPropertyOp17
 70
     1
102
RTVSPropertyOp18
 70
     1
102
RTVSPropertyOp19
 70
     1
102
RTVSPropertyOp20
 70
     1
102
RTVSPropertyOp21
 70
     1
102
RTVSPropertyOp22
 70
     1
102
RTVSPropertyOp23
 70
     1
102
RTVSPropertyOp24
 70
     1
102
RTVSPropertyOp25
 70
     1
102
RTVSPropertyOp26
 70
     1
102
RTVSPropertyOp27
 70
     1
102
RTVSPropertyOp28
 70
     1
102
RTVSPropertyOp29
 70
     1
102
RTVSPropertyOp30
 70
     1
102
RTVSPropertyOp31
 70
     1
102
RTVSPropertyOp32
 70
     1
102
RTVSPropertyOp33
 70
     1
102
RTVSPropertyOp34
 70
     1
102
RTVSPropertyOp35
 70
     1
102
RTVSPropertyOp36
 70
     1
102
RTVSPropertyOp37
 70
     1
102
RTVSPropertyOp38
 70
     1
102
RTVSPropertyOp39
 70
     1
102
RTVSPropertyOp40
 70
     1
102
RTVSPropertyOp41
 70
     1
102
RTVSPropertyOp42
 70
     1
102
RTVSPropertyOp43
 70
     1
102
RTVSPropertyOp44
 70
     1
102
RTVSPropertyOp45
 70
     1
102
RTVSPropertyOp46
 70
     1
102
RTVSPropertyOp47
 70
     1
102
RTVSPropertyOp48
 70
     1
102
RTVSPropertyOp49
 70
     1
102
RTVSPropertyOp50
 70
     1
102
RTVSPropertyOp51
 70
     0
102
RTVSPropertyOp52
 70
     0
102
RTVSPropertyOp53
 70
     1
102
RTVSPropertyOp54
 70
     1
102
RTVSPropertyOp55
 70
     1
102
RTVSPropertyOp56
 70
     1
102
RTVSPropertyOp57
 70
     1
102
RTVSPropertyOp58
 70
     1
102
RTVSPropertyOp59
 70
     1
102
RTVSPropertyOp60
 70
     1
102
RTVSPropertyOp61
 70
     1
102
RTVSPropertyOp62
 70
     1
  0
XRECORD
  5
7E2
102
{ACAD_REACTORS
330
7E1
102
}
330
7E1
100
AcDbXrecord
280
     1
102
RTVSPost2010Prop28
280
     0
102
RTVSPost2010PropOp28
 70
     1
102
RTVSPost2010Prop29
280
     1
102
RTVSPost2010PropOp29
 70
     1
102
RTVSPost2010Prop30
280
     1
102
RTVSPost2010PropOp30
 70
     1
102
RTVSPost2010Prop31
280
     0
102
RTVSPost2010PropOp31
 70
     1
102
RTVSPost2010Prop32
280
     0
102
RTVSPost2010PropOp32
 70
     1
102
RTVSPost2010Prop33
280
     0
102
RTVSPost2010PropOp33
 70
     1
102
RTVSPost2010Prop34
280
     0
102
RTVSPost2010PropOp34
 70
     1
102
RTVSPost2010Prop35
280
     0
102
RTVSPost2010PropOp35
 70
     1
102
RTVSPost2010Prop36
280
     0
102
RTVSPost2010PropOp36
 70
     1
102
RTVSPost2010Prop37
 90
       50
102
RTVSPost2010PropOp37
 70
     0
102
RTVSPost2010Prop38
140
0.0
102
RTVSPost2010PropOp38
 70
     0
102
RTVSPost2010Prop39
140
1.0
102
RTVSPost2010PropOp39
 70
     0
102
RTVSPost2010Prop40
 90
        0
102
RTVSPost2010PropOp40
 70
     0
102
RTVSPost2010Prop41ColorIndex
 90
       18
102
RTVSPost2010Prop41ColorRGB
 90
        0
102
RTVSPost2010PropOp41
 70
     0
102
RTVSPost2010Prop42
 90
       50
102
RTVSPost2010PropOp42
 70
     0
102
RTVSPost2010Prop43
 90
        3
102
RTVSPost2010PropOp43
 70
     0
102
RTVSPost2010Prop44ColorIndex
 90
        5
102
RTVSPost2010Prop44ColorRGB
 90
      255
102
RTVSPost2010PropOp44
 70
     0
102
RTVSPost2010Prop45
280
     0
102
RTVSPost2010PropOp45
 70
     1
102
RTVSPost2010Prop46
 90
       50
102
RTVSPost2010PropOp46
 70
     0
102
RTVSPost2010Prop47
 90
       50
102
RTVSPost2010PropOp47
 70
     0
102
RTVSPost2010Prop48
 90
       50
102
RTVSPost2010PropOp48
 70
     0
102
RTVSPost2010Prop49
280
     0
102
RTVSPost2010PropOp49
 70
     1
102
RTVSPost2010Prop50
 90
       50
102
RTVSPost2010PropOp50
 70
     0
102
RTVSPost2010Prop51ColorIndex
 90
      256
102
RTVSPost2010Prop51ColorRGB
 90
-16777216
102
RTVSPost2010PropOp51
 70
     0
102
RTVSPost2010Prop52
140
1.0
102
RTVSPost2010PropOp52
 70
     0
102
RTVSPost2010Prop53
 90
        2
102
RTVSPost2010PropOp53
 70
     0
102
RTVSPost2010Prop54
  1
strokes_ogs.tif
102
RTVSPost2010PropOp54
 70
     0
102
RTVSPost2010Prop55
280
     0
102
RTVSPost2010PropOp55
 70
     1
102
RTVSPost2010Prop56
140
1.0
102
RTVSPost2010PropOp56
 70
     0
102
RTVSPost2010Prop57
140
1.0
102
RTVSPost2010PropOp57
 70
     0
102
RTVSPropertyOp0
 70
     0
102
RTVSPropertyOp1
 70
     0
102
RTVSPropertyOp2
 70
     0
102
RTVSPropertyOp3
 70
     0
102
RTVSPropertyOp4
 70
     0
102
RTVSPropertyOp5
 70
     0
102
RTVSPropertyOp6
 70
     0
102
RTVSPropertyOp7
 70
     0
102
RTVSPropertyOp8
 70
     0
102
RTVSPropertyOp9
 70
     0
102
RTVSPropertyOp10
 70
     0
102
RTVSPropertyOp11
 70
     0
102
RTVSPropertyOp12
 70
     0
102
RTVSPropertyOp13
 70
     0
102
RTVSPropertyOp14
 70
     2
102
RTVSPropertyOp15
 70
     0
102
RTVSPropertyOp16
 70
     0
102
RTVSPropertyOp17
 70
     0
102
RTVSPropertyOp18
 70
     0
102
RTVSPropertyOp19
 70
     0
102
RTVSPropertyOp20
 70
     0
102
RTVSPropertyOp21
 70
     0
102
RTVSPropertyOp22
 70
     0
102
RTVSPropertyOp23
 70
     0
102
RTVSPropertyOp24
 70
     0
102
RTVSPropertyOp25
 70
     0
102
RTVSPropertyOp26
 70
     0
102
RTVSPropertyOp27
 70
     0
102
RTVSPropertyOp28
 70
     1
102
RTVSPropertyOp29
 70
     1
102
RTVSPropertyOp30
 70
     1
102
RTVSPropertyOp31
 70
     1
102
RTVSPropertyOp32
 70
     1
102
RTVSPropertyOp33
 70
     1
102
RTVSPropertyOp34
 70
     1
102
RTVSPropertyOp35
 70
     1
102
RTVSPropertyOp36
 70
     1
102
RTVSPropertyOp37
 70
     0
102
RTVSPropertyOp38
 70
     0
102
RTVSPropertyOp39
 70
     0
102
RTVSPropertyOp40
 70
     0
102
RTVSPropertyOp41
 70
     0
102
RTVSPropertyOp42
 70
     0
102
RTVSPropertyOp43
 70
     0
102
RTVSPropertyOp44
 70
     0
102
RTVSPropertyOp45
 70
     1
102
RTVSPropertyOp46
 70
     0
102
RTVSPropertyOp47
 70
     0
102
RTVSPropertyOp48
 70
     0
102
RTVSPropertyOp49
 70
     1
102
RTVSPropertyOp50
 70
     0
102
RTVSPropertyOp51
 70
     0
102
RTVSPropertyOp52
 70
     0
102
RTVSPropertyOp53
 70
     0
102
RTVSPropertyOp54
 70
     0
102
RTVSPropertyOp55
 70
     1
102
RTVSPropertyOp56
 70
     0
102
RTVSPropertyOp57
 70
     0
102
RTVSPropertyOp58
 70
     0
102
RTVSPropertyOp59
 70
     0
102
RTVSPropertyOp60
 70
     0
102
RTVSPropertyOp61
 70
     0
102
RTVSPropertyOp62
 70
     0
  0
XRECORD
  5
7C8
102
{ACAD_REACTORS
330
7C7
102
}
330
7C7
100
AcDbXrecord
280
     1
102
RTVSPost2010Prop28
280
     0
102
RTVSPost2010PropOp28
 70
     1
102
RTVSPost2010Prop29
280
     1
102
RTVSPost2010PropOp29
 70
     1
102
RTVSPost2010Prop30
280
     1
102
RTVSPost2010PropOp30
 70
     1
102
RTVSPost2010Prop31
280
     0
102
RTVSPost2010PropOp31
 70
     1
102
RTVSPost2010Prop32
280
     0
102
RTVSPost2010PropOp32
 70
     1
102
RTVSPost2010Prop33
280
     0
102
RTVSPost2010PropOp33
 70
     1
102
RTVSPost2010Prop34
280
     0
102
RTVSPost2010PropOp34
 70
     1
102
RTVSPost2010Prop35
280
     0
102
RTVSPost2010PropOp35
 70
     1
102
RTVSPost2010Prop36
280
     0
102
RTVSPost2010PropOp36
 70
     1
102
RTVSPost2010Prop37
 90
       50
102
RTVSPost2010PropOp37
 70
     1
102
RTVSPost2010Prop38
140
0.0
102
RTVSPost2010PropOp38
 70
     1
102
RTVSPost2010Prop39
140
1.0
102
RTVSPost2010PropOp39
 70
     1
102
RTVSPost2010Prop40
 90
        0
102
RTVSPost2010PropOp40
 70
     1
102
RTVSPost2010Prop41ColorIndex
 90
       18
102
RTVSPost2010Prop41ColorRGB
 90
        0
102
RTVSPost2010PropOp41
 70
     1
102
RTVSPost2010Prop42
 90
       50
102
RTVSPost2010PropOp42
 70
     1
102
RTVSPost2010Prop43
 90
        3
102
RTVSPost2010PropOp43
 70
     1
102
RTVSPost2010Prop44ColorIndex
 90
        5
102
RTVSPost2010Prop44ColorRGB
 90
      255
102
RTVSPost2010PropOp44
 70
     1
102
RTVSPost2010Prop45
280
     0
102
RTVSPost2010PropOp45
 70
     1
102
RTVSPost2010Prop46
 90
       50
102
RTVSPost2010PropOp46
 70
     1
102
RTVSPost2010Prop47
 90
       50
102
RTVSPost2010PropOp47
 70
     1
102
RTVSPost2010Prop48
 90
       50
102
RTVSPost2010PropOp48
 70
     1
102
RTVSPost2010Prop49
280
     0
102
RTVSPost2010PropOp49
 70
     1
102
RTVSPost2010Prop50
 90
       50
102
RTVSPost2010PropOp50
 70
     1
102
RTVSPost2010Prop51ColorIndex
 90
      256
102
RTVSPost2010Prop51ColorRGB
 90
-16777216
102
RTVSPost2010PropOp51
 70
     0
102
RTVSPost2010Prop52
140
1.0
102
RTVSPost2010PropOp52
 70
     0
102
RTVSPost2010Prop53
 90
        2
102
RTVSPost2010PropOp53
 70
     1
102
RTVSPost2010Prop54
  1
strokes_ogs.tif
102
RTVSPost2010PropOp54
 70
     1
102
RTVSPost2010Prop55
280
     0
102
RTVSPost2010PropOp55
 70
     1
102
RTVSPost2010Prop56
140
1.0
102
RTVSPost2010PropOp56
 70
     1
102
RTVSPost2010Prop57
140
1.0
102
RTVSPost2010PropOp57
 70
     1
102
RTVSPropertyOp0
 70
     1
102
RTVSPropertyOp1
 70
     1
102
RTVSPropertyOp2
 70
     1
102
RTVSPropertyOp3
 70
     1
102
RTVSPropertyOp4
 70
     1
102
RTVSPropertyOp5
 70
     1
102
RTVSPropertyOp6
 70
     1
102
RTVSPropertyOp7
 70
     1
102
RTVSPropertyOp8
 70
     1
102
RTVSPropertyOp9
 70
     1
102
RTVSPropertyOp10
 70
     1
102
RTVSPropertyOp11
 70
     1
102
RTVSPropertyOp12
 70
     1
102
RTVSPropertyOp13
 70
     1
102
RTVSPropertyOp14
 70
     1
102
RTVSPropertyOp15
 70
     1
102
RTVSPropertyOp16
 70
     1
102
RTVSPropertyOp17
 70
     1
102
RTVSPropertyOp18
 70
     1
102
RTVSPropertyOp19
 70
     1
102
RTVSPropertyOp20
 70
     1
102
RTVSPropertyOp21
 70
     1
102
RTVSPropertyOp22
 70
     1
102
RTVSPropertyOp23
 70
     1
102
RTVSPropertyOp24
 70
     1
102
RTVSPropertyOp25
 70
     1
102
RTVSPropertyOp26
 70
     1
102
RTVSPropertyOp27
 70
     1
102
RTVSPropertyOp28
 70
     1
102
RTVSPropertyOp29
 70
     1
102
RTVSPropertyOp30
 70
     1
102
RTVSPropertyOp31
 70
     1
102
RTVSPropertyOp32
 70
     1
102
RTVSPropertyOp33
 70
     1
102
RTVSPropertyOp34
 70
     1
102
RTVSPropertyOp35
 70
     1
102
RTVSPropertyOp36
 70
     1
102
RTVSPropertyOp37
 70
     1
102
RTVSPropertyOp38
 70
     1
102
RTVSPropertyOp39
 70
     1
102
RTVSPropertyOp40
 70
     1
102
RTVSPropertyOp41
 70
     1
102
RTVSPropertyOp42
 70
     1
102
RTVSPropertyOp43
 70
     1
102
RTVSPropertyOp44
 70
     1
102
RTVSPropertyOp45
 70
     1
102
RTVSPropertyOp46
 70
     1
102
RTVSPropertyOp47
 70
     1
102
RTVSPropertyOp48
 70
     1
102
RTVSPropertyOp49
 70
     1
102
RTVSPropertyOp50
 70
     1
102
RTVSPropertyOp51
 70
     0
102
RTVSPropertyOp52
 70
     0
102
RTVSPropertyOp53
 70
     1
102
RTVSPropertyOp54
 70
     1
102
RTVSPropertyOp55
 70
     1
102
RTVSPropertyOp56
 70
     1
102
RTVSPropertyOp57
 70
     1
102
RTVSPropertyOp58
 70
     1
102
RTVSPropertyOp59
 70
     1
102
RTVSPropertyOp60
 70
     1
102
RTVSPropertyOp61
 70
     1
102
RTVSPropertyOp62
 70
     1
  0
XRECORD
  5
7DE
102
{ACAD_REACTORS
330
7DD
102
}
330
7DD
100
AcDbXrecord
280
     1
102
RTVSPost2010Prop28
280
     0
102
RTVSPost2010PropOp28
 70
     1
102
RTVSPost2010Prop29
280
     1
102
RTVSPost2010PropOp29
 70
     1
102
RTVSPost2010Prop30
280
     1
102
RTVSPost2010PropOp30
 70
     1
102
RTVSPost2010Prop31
280
     0
102
RTVSPost2010PropOp31
 70
     1
102
RTVSPost2010Prop32
280
     0
102
RTVSPost2010PropOp32
 70
     1
102
RTVSPost2010Prop33
280
     0
102
RTVSPost2010PropOp33
 70
     1
102
RTVSPost2010Prop34
280
     0
102
RTVSPost2010PropOp34
 70
     1
102
RTVSPost2010Prop35
280
     0
102
RTVSPost2010PropOp35
 70
     1
102
RTVSPost2010Prop36
280
     0
102
RTVSPost2010PropOp36
 70
     1
102
RTVSPost2010Prop37
 90
       50
102
RTVSPost2010PropOp37
 70
     1
102
RTVSPost2010Prop38
140
0.0
102
RTVSPost2010PropOp38
 70
     1
102
RTVSPost2010Prop39
140
1.0
102
RTVSPost2010PropOp39
 70
     1
102
RTVSPost2010Prop40
 90
        0
102
RTVSPost2010PropOp40
 70
     1
102
RTVSPost2010Prop41ColorIndex
 90
       18
102
RTVSPost2010Prop41ColorRGB
 90
        0
102
RTVSPost2010PropOp41
 70
     1
102
RTVSPost2010Prop42
 90
       50
102
RTVSPost2010PropOp42
 70
     1
102
RTVSPost2010Prop43
 90
        3
102
RTVSPost2010PropOp43
 70
     1
102
RTVSPost2010Prop44ColorIndex
 90
        5
102
RTVSPost2010Prop44ColorRGB
 90
      255
102
RTVSPost2010PropOp44
 70
     1
102
RTVSPost2010Prop45
280
     0
102
RTVSPost2010PropOp45
 70
     1
102
RTVSPost2010Prop46
 90
       50
102
RTVSPost2010PropOp46
 70
     1
102
RTVSPost2010Prop47
 90
       50
102
RTVSPost2010PropOp47
 70
     1
102
RTVSPost2010Prop48
 90
       50
102
RTVSPost2010PropOp48
 70
     1
102
RTVSPost2010Prop49
280
     0
102
RTVSPost2010PropOp49
 70
     1
102
RTVSPost2010Prop50
 90
       50
102
RTVSPost2010PropOp50
 70
     1
102
RTVSPost2010Prop51ColorIndex
 90
      256
102
RTVSPost2010Prop51ColorRGB
 90
-16777216
102
RTVSPost2010PropOp51
 70
     0
102
RTVSPost2010Prop52
140
1.0
102
RTVSPost2010PropOp52
 70
     0
102
RTVSPost2010Prop53
 90
        2
102
RTVSPost2010PropOp53
 70
     1
102
RTVSPost2010Prop54
  1
strokes_ogs.tif
102
RTVSPost2010PropOp54
 70
     1
102
RTVSPost2010Prop55
280
     0
102
RTVSPost2010PropOp55
 70
     1
102
RTVSPost2010Prop56
140
1.0
102
RTVSPost2010PropOp56
 70
     1
102
RTVSPost2010Prop57
140
1.0
102
RTVSPost2010PropOp57
 70
     1
102
RTVSPropertyOp0
 70
     1
102
RTVSPropertyOp1
 70
     1
102
RTVSPropertyOp2
 70
     1
102
RTVSPropertyOp3
 70
     1
102
RTVSPropertyOp4
 70
     1
102
RTVSPropertyOp5
 70
     1
102
RTVSPropertyOp6
 70
     1
102
RTVSPropertyOp7
 70
     1
102
RTVSPropertyOp8
 70
     1
102
RTVSPropertyOp9
 70
     1
102
RTVSPropertyOp10
 70
     1
102
RTVSPropertyOp11
 70
     1
102
RTVSPropertyOp12
 70
     1
102
RTVSPropertyOp13
 70
     1
102
RTVSPropertyOp14
 70
     1
102
RTVSPropertyOp15
 70
     1
102
RTVSPropertyOp16
 70
     1
102
RTVSPropertyOp17
 70
     1
102
RTVSPropertyOp18
 70
     1
102
RTVSPropertyOp19
 70
     1
102
RTVSPropertyOp20
 70
     1
102
RTVSPropertyOp21
 70
     1
102
RTVSPropertyOp22
 70
     1
102
RTVSPropertyOp23
 70
     1
102
RTVSPropertyOp24
 70
     1
102
RTVSPropertyOp25
 70
     1
102
RTVSPropertyOp26
 70
     1
102
RTVSPropertyOp27
 70
     1
102
RTVSPropertyOp28
 70
     1
102
RTVSPropertyOp29
 70
     1
102
RTVSPropertyOp30
 70
     1
102
RTVSPropertyOp31
 70
     1
102
RTVSPropertyOp32
 70
     1
102
RTVSPropertyOp33
 70
     1
102
RTVSPropertyOp34
 70
     1
102
RTVSPropertyOp35
 70
     1
102
RTVSPropertyOp36
 70
     1
102
RTVSPropertyOp37
 70
     1
102
RTVSPropertyOp38
 70
     1
102
RTVSPropertyOp39
 70
     1
102
RTVSPropertyOp40
 70
     1
102
RTVSPropertyOp41
 70
     1
102
RTVSPropertyOp42
 70
     1
102
RTVSPropertyOp43
 70
     1
102
RTVSPropertyOp44
 70
     1
102
RTVSPropertyOp45
 70
     1
102
RTVSPropertyOp46
 70
     1
102
RTVSPropertyOp47
 70
     1
102
RTVSPropertyOp48
 70
     1
102
RTVSPropertyOp49
 70
     1
102
RTVSPropertyOp50
 70
     1
102
RTVSPropertyOp51
 70
     0
102
RTVSPropertyOp52
 70
     0
102
RTVSPropertyOp53
 70
     1
102
RTVSPropertyOp54
 70
     1
102
RTVSPropertyOp55
 70
     1
102
RTVSPropertyOp56
 70
     1
102
RTVSPropertyOp57
 70
     1
102
RTVSPropertyOp58
 70
     1
102
RTVSPropertyOp59
 70
     1
102
RTVSPropertyOp60
 70
     1
102
RTVSPropertyOp61
 70
     1
102
RTVSPropertyOp62
 70
     1
  0
XRECORD
  5
7DC
102
{ACAD_REACTORS
330
7DB
102
}
330
7DB
100
AcDbXrecord
280
     1
102
RTVSPost2010Prop28
280
     0
102
RTVSPost2010PropOp28
 70
     1
102
RTVSPost2010Prop29
280
     1
102
RTVSPost2010PropOp29
 70
     1
102
RTVSPost2010Prop30
280
     1
102
RTVSPost2010PropOp30
 70
     1
102
RTVSPost2010Prop31
280
     0
102
RTVSPost2010PropOp31
 70
     1
102
RTVSPost2010Prop32
280
     0
102
RTVSPost2010PropOp32
 70
     1
102
RTVSPost2010Prop33
280
     0
102
RTVSPost2010PropOp33
 70
     1
102
RTVSPost2010Prop34
280
     0
102
RTVSPost2010PropOp34
 70
     1
102
RTVSPost2010Prop35
280
     0
102
RTVSPost2010PropOp35
 70
     1
102
RTVSPost2010Prop36
280
     0
102
RTVSPost2010PropOp36
 70
     1
102
RTVSPost2010Prop37
 90
       50
102
RTVSPost2010PropOp37
 70
     1
102
RTVSPost2010Prop38
140
0.0
102
RTVSPost2010PropOp38
 70
     1
102
RTVSPost2010Prop39
140
1.0
102
RTVSPost2010PropOp39
 70
     1
102
RTVSPost2010Prop40
 90
        0
102
RTVSPost2010PropOp40
 70
     1
102
RTVSPost2010Prop41ColorIndex
 90
       18
102
RTVSPost2010Prop41ColorRGB
 90
        0
102
RTVSPost2010PropOp41
 70
     1
102
RTVSPost2010Prop42
 90
       50
102
RTVSPost2010PropOp42
 70
     1
102
RTVSPost2010Prop43
 90
        3
102
RTVSPost2010PropOp43
 70
     1
102
RTVSPost2010Prop44ColorIndex
 90
        5
102
RTVSPost2010Prop44ColorRGB
 90
      255
102
RTVSPost2010PropOp44
 70
     1
102
RTVSPost2010Prop45
280
     0
102
RTVSPost2010PropOp45
 70
     1
102
RTVSPost2010Prop46
 90
       50
102
RTVSPost2010PropOp46
 70
     1
102
RTVSPost2010Prop47
 90
       50
102
RTVSPost2010PropOp47
 70
     1
102
RTVSPost2010Prop48
 90
       50
102
RTVSPost2010PropOp48
 70
     1
102
RTVSPost2010Prop49
280
     0
102
RTVSPost2010PropOp49
 70
     1
102
RTVSPost2010Prop50
 90
       50
102
RTVSPost2010PropOp50
 70
     1
102
RTVSPost2010Prop51ColorIndex
 90
      256
102
RTVSPost2010Prop51ColorRGB
 90
-16777216
102
RTVSPost2010PropOp51
 70
     0
102
RTVSPost2010Prop52
140
1.0
102
RTVSPost2010PropOp52
 70
     0
102
RTVSPost2010Prop53
 90
        2
102
RTVSPost2010PropOp53
 70
     1
102
RTVSPost2010Prop54
  1
strokes_ogs.tif
102
RTVSPost2010PropOp54
 70
     1
102
RTVSPost2010Prop55
280
     0
102
RTVSPost2010PropOp55
 70
     1
102
RTVSPost2010Prop56
140
1.0
102
RTVSPost2010PropOp56
 70
     1
102
RTVSPost2010Prop57
140
1.0
102
RTVSPost2010PropOp57
 70
     1
102
RTVSPropertyOp0
 70
     1
102
RTVSPropertyOp1
 70
     1
102
RTVSPropertyOp2
 70
     1
102
RTVSPropertyOp3
 70
     1
102
RTVSPropertyOp4
 70
     1
102
RTVSPropertyOp5
 70
     1
102
RTVSPropertyOp6
 70
     1
102
RTVSPropertyOp7
 70
     1
102
RTVSPropertyOp8
 70
     1
102
RTVSPropertyOp9
 70
     1
102
RTVSPropertyOp10
 70
     1
102
RTVSPropertyOp11
 70
     1
102
RTVSPropertyOp12
 70
     1
102
RTVSPropertyOp13
 70
     1
102
RTVSPropertyOp14
 70
     1
102
RTVSPropertyOp15
 70
     1
102
RTVSPropertyOp16
 70
     1
102
RTVSPropertyOp17
 70
     1
102
RTVSPropertyOp18
 70
     1
102
RTVSPropertyOp19
 70
     1
102
RTVSPropertyOp20
 70
     1
102
RTVSPropertyOp21
 70
     1
102
RTVSPropertyOp22
 70
     1
102
RTVSPropertyOp23
 70
     1
102
RTVSPropertyOp24
 70
     1
102
RTVSPropertyOp25
 70
     1
102
RTVSPropertyOp26
 70
     1
102
RTVSPropertyOp27
 70
     1
102
RTVSPropertyOp28
 70
     1
102
RTVSPropertyOp29
 70
     1
102
RTVSPropertyOp30
 70
     1
102
RTVSPropertyOp31
 70
     1
102
RTVSPropertyOp32
 70
     1
102
RTVSPropertyOp33
 70
     1
102
RTVSPropertyOp34
 70
     1
102
RTVSPropertyOp35
 70
     1
102
RTVSPropertyOp36
 70
     1
102
RTVSPropertyOp37
 70
     1
102
RTVSPropertyOp38
 70
     1
102
RTVSPropertyOp39
 70
     1
102
RTVSPropertyOp40
 70
     1
102
RTVSPropertyOp41
 70
     1
102
RTVSPropertyOp42
 70
     1
102
RTVSPropertyOp43
 70
     1
102
RTVSPropertyOp44
 70
     1
102
RTVSPropertyOp45
 70
     1
102
RTVSPropertyOp46
 70
     1
102
RTVSPropertyOp47
 70
     1
102
RTVSPropertyOp48
 70
     1
102
RTVSPropertyOp49
 70
     1
102
RTVSPropertyOp50
 70
     1
102
RTVSPropertyOp51
 70
     0
102
RTVSPropertyOp52
 70
     0
102
RTVSPropertyOp53
 70
     1
102
RTVSPropertyOp54
 70
     1
102
RTVSPropertyOp55
 70
     1
102
RTVSPropertyOp56
 70
     1
102
RTVSPropertyOp57
 70
     1
102
RTVSPropertyOp58
 70
     1
102
RTVSPropertyOp59
 70
     1
102
RTVSPropertyOp60
 70
     1
102
RTVSPropertyOp61
 70
     1
102
RTVSPropertyOp62
 70
     1
  0
XRECORD
  5
7D6
102
{ACAD_REACTORS
330
7D5
102
}
330
7D5
100
AcDbXrecord
280
     1
102
RTVSPost2010Prop28
280
     0
102
RTVSPost2010PropOp28
 70
     1
102
RTVSPost2010Prop29
280
     1
102
RTVSPost2010PropOp29
 70
     1
102
RTVSPost2010Prop30
280
     1
102
RTVSPost2010PropOp30
 70
     1
102
RTVSPost2010Prop31
280
     0
102
RTVSPost2010PropOp31
 70
     1
102
RTVSPost2010Prop32
280
     0
102
RTVSPost2010PropOp32
 70
     1
102
RTVSPost2010Prop33
280
     0
102
RTVSPost2010PropOp33
 70
     1
102
RTVSPost2010Prop34
280
     0
102
RTVSPost2010PropOp34
 70
     1
102
RTVSPost2010Prop35
280
     0
102
RTVSPost2010PropOp35
 70
     1
102
RTVSPost2010Prop36
280
     0
102
RTVSPost2010PropOp36
 70
     1
102
RTVSPost2010Prop37
 90
       50
102
RTVSPost2010PropOp37
 70
     1
102
RTVSPost2010Prop38
140
0.0
102
RTVSPost2010PropOp38
 70
     1
102
RTVSPost2010Prop39
140
1.0
102
RTVSPost2010PropOp39
 70
     1
102
RTVSPost2010Prop40
 90
        0
102
RTVSPost2010PropOp40
 70
     1
102
RTVSPost2010Prop41ColorIndex
 90
       18
102
RTVSPost2010Prop41ColorRGB
 90
        0
102
RTVSPost2010PropOp41
 70
     1
102
RTVSPost2010Prop42
 90
       50
102
RTVSPost2010PropOp42
 70
     1
102
RTVSPost2010Prop43
 90
        3
102
RTVSPost2010PropOp43
 70
     1
102
RTVSPost2010Prop44ColorIndex
 90
        5
102
RTVSPost2010Prop44ColorRGB
 90
      255
102
RTVSPost2010PropOp44
 70
     1
102
RTVSPost2010Prop45
280
     0
102
RTVSPost2010PropOp45
 70
     1
102
RTVSPost2010Prop46
 90
       50
102
RTVSPost2010PropOp46
 70
     1
102
RTVSPost2010Prop47
 90
       50
102
RTVSPost2010PropOp47
 70
     1
102
RTVSPost2010Prop48
 90
       50
102
RTVSPost2010PropOp48
 70
     1
102
RTVSPost2010Prop49
280
     0
102
RTVSPost2010PropOp49
 70
     1
102
RTVSPost2010Prop50
 90
       50
102
RTVSPost2010PropOp50
 70
     1
102
RTVSPost2010Prop51ColorIndex
 90
      256
102
RTVSPost2010Prop51ColorRGB
 90
-16777216
102
RTVSPost2010PropOp51
 70
     0
102
RTVSPost2010Prop52
140
1.0
102
RTVSPost2010PropOp52
 70
     0
102
RTVSPost2010Prop53
 90
        2
102
RTVSPost2010PropOp53
 70
     1
102
RTVSPost2010Prop54
  1
strokes_ogs.tif
102
RTVSPost2010PropOp54
 70
     1
102
RTVSPost2010Prop55
280
     0
102
RTVSPost2010PropOp55
 70
     1
102
RTVSPost2010Prop56
140
1.0
102
RTVSPost2010PropOp56
 70
     1
102
RTVSPost2010Prop57
140
1.0
102
RTVSPost2010PropOp57
 70
     1
102
RTVSPropertyOp0
 70
     1
102
RTVSPropertyOp1
 70
     1
102
RTVSPropertyOp2
 70
     1
102
RTVSPropertyOp3
 70
     1
102
RTVSPropertyOp4
 70
     1
102
RTVSPropertyOp5
 70
     1
102
RTVSPropertyOp6
 70
     1
102
RTVSPropertyOp7
 70
     1
102
RTVSPropertyOp8
 70
     1
102
RTVSPropertyOp9
 70
     1
102
RTVSPropertyOp10
 70
     1
102
RTVSPropertyOp11
 70
     1
102
RTVSPropertyOp12
 70
     1
102
RTVSPropertyOp13
 70
     1
102
RTVSPropertyOp14
 70
     1
102
RTVSPropertyOp15
 70
     1
102
RTVSPropertyOp16
 70
     1
102
RTVSPropertyOp17
 70
     1
102
RTVSPropertyOp18
 70
     1
102
RTVSPropertyOp19
 70
     1
102
RTVSPropertyOp20
 70
     1
102
RTVSPropertyOp21
 70
     1
102
RTVSPropertyOp22
 70
     1
102
RTVSPropertyOp23
 70
     1
102
RTVSPropertyOp24
 70
     1
102
RTVSPropertyOp25
 70
     1
102
RTVSPropertyOp26
 70
     1
102
RTVSPropertyOp27
 70
     1
102
RTVSPropertyOp28
 70
     1
102
RTVSPropertyOp29
 70
     1
102
RTVSPropertyOp30
 70
     1
102
RTVSPropertyOp31
 70
     1
102
RTVSPropertyOp32
 70
     1
102
RTVSPropertyOp33
 70
     1
102
RTVSPropertyOp34
 70
     1
102
RTVSPropertyOp35
 70
     1
102
RTVSPropertyOp36
 70
     1
102
RTVSPropertyOp37
 70
     1
102
RTVSPropertyOp38
 70
     1
102
RTVSPropertyOp39
 70
     1
102
RTVSPropertyOp40
 70
     1
102
RTVSPropertyOp41
 70
     1
102
RTVSPropertyOp42
 70
     1
102
RTVSPropertyOp43
 70
     1
102
RTVSPropertyOp44
 70
     1
102
RTVSPropertyOp45
 70
     1
102
RTVSPropertyOp46
 70
     1
102
RTVSPropertyOp47
 70
     1
102
RTVSPropertyOp48
 70
     1
102
RTVSPropertyOp49
 70
     1
102
RTVSPropertyOp50
 70
     1
102
RTVSPropertyOp51
 70
     0
102
RTVSPropertyOp52
 70
     0
102
RTVSPropertyOp53
 70
     1
102
RTVSPropertyOp54
 70
     1
102
RTVSPropertyOp55
 70
     1
102
RTVSPropertyOp56
 70
     1
102
RTVSPropertyOp57
 70
     1
102
RTVSPropertyOp58
 70
     1
102
RTVSPropertyOp59
 70
     1
102
RTVSPropertyOp60
 70
     1
102
RTVSPropertyOp61
 70
     1
102
RTVSPropertyOp62
 70
     1
  0
XRECORD
  5
7D8
102
{ACAD_REACTORS
330
7D7
102
}
330
7D7
100
AcDbXrecord
280
     1
102
RTVSPost2010Prop28
280
     0
102
RTVSPost2010PropOp28
 70
     1
102
RTVSPost2010Prop29
280
     1
102
RTVSPost2010PropOp29
 70
     1
102
RTVSPost2010Prop30
280
     1
102
RTVSPost2010PropOp30
 70
     1
102
RTVSPost2010Prop31
280
     0
102
RTVSPost2010PropOp31
 70
     1
102
RTVSPost2010Prop32
280
     0
102
RTVSPost2010PropOp32
 70
     1
102
RTVSPost2010Prop33
280
     0
102
RTVSPost2010PropOp33
 70
     1
102
RTVSPost2010Prop34
280
     0
102
RTVSPost2010PropOp34
 70
     1
102
RTVSPost2010Prop35
280
     0
102
RTVSPost2010PropOp35
 70
     1
102
RTVSPost2010Prop36
280
     0
102
RTVSPost2010PropOp36
 70
     1
102
RTVSPost2010Prop37
 90
       50
102
RTVSPost2010PropOp37
 70
     1
102
RTVSPost2010Prop38
140
0.0
102
RTVSPost2010PropOp38
 70
     1
102
RTVSPost2010Prop39
140
1.0
102
RTVSPost2010PropOp39
 70
     1
102
RTVSPost2010Prop40
 90
        0
102
RTVSPost2010PropOp40
 70
     1
102
RTVSPost2010Prop41ColorIndex
 90
       18
102
RTVSPost2010Prop41ColorRGB
 90
        0
102
RTVSPost2010PropOp41
 70
     1
102
RTVSPost2010Prop42
 90
       50
102
RTVSPost2010PropOp42
 70
     1
102
RTVSPost2010Prop43
 90
        3
102
RTVSPost2010PropOp43
 70
     1
102
RTVSPost2010Prop44ColorIndex
 90
        5
102
RTVSPost2010Prop44ColorRGB
 90
      255
102
RTVSPost2010PropOp44
 70
     1
102
RTVSPost2010Prop45
280
     0
102
RTVSPost2010PropOp45
 70
     1
102
RTVSPost2010Prop46
 90
       50
102
RTVSPost2010PropOp46
 70
     1
102
RTVSPost2010Prop47
 90
       50
102
RTVSPost2010PropOp47
 70
     1
102
RTVSPost2010Prop48
 90
       50
102
RTVSPost2010PropOp48
 70
     1
102
RTVSPost2010Prop49
280
     0
102
RTVSPost2010PropOp49
 70
     1
102
RTVSPost2010Prop50
 90
       50
102
RTVSPost2010PropOp50
 70
     1
102
RTVSPost2010Prop51ColorIndex
 90
      256
102
RTVSPost2010Prop51ColorRGB
 90
-16777216
102
RTVSPost2010PropOp51
 70
     0
102
RTVSPost2010Prop52
140
1.0
102
RTVSPost2010PropOp52
 70
     0
102
RTVSPost2010Prop53
 90
        2
102
RTVSPost2010PropOp53
 70
     1
102
RTVSPost2010Prop54
  1
strokes_ogs.tif
102
RTVSPost2010PropOp54
 70
     1
102
RTVSPost2010Prop55
280
     0
102
RTVSPost2010PropOp55
 70
     1
102
RTVSPost2010Prop56
140
1.0
102
RTVSPost2010PropOp56
 70
     1
102
RTVSPost2010Prop57
140
1.0
102
RTVSPost2010PropOp57
 70
     1
102
RTVSPropertyOp0
 70
     1
102
RTVSPropertyOp1
 70
     1
102
RTVSPropertyOp2
 70
     1
102
RTVSPropertyOp3
 70
     1
102
RTVSPropertyOp4
 70
     1
102
RTVSPropertyOp5
 70
     1
102
RTVSPropertyOp6
 70
     1
102
RTVSPropertyOp7
 70
     1
102
RTVSPropertyOp8
 70
     1
102
RTVSPropertyOp9
 70
     1
102
RTVSPropertyOp10
 70
     1
102
RTVSPropertyOp11
 70
     1
102
RTVSPropertyOp12
 70
     1
102
RTVSPropertyOp13
 70
     1
102
RTVSPropertyOp14
 70
     1
102
RTVSPropertyOp15
 70
     1
102
RTVSPropertyOp16
 70
     1
102
RTVSPropertyOp17
 70
     1
102
RTVSPropertyOp18
 70
     1
102
RTVSPropertyOp19
 70
     1
102
RTVSPropertyOp20
 70
     1
102
RTVSPropertyOp21
 70
     1
102
RTVSPropertyOp22
 70
     1
102
RTVSPropertyOp23
 70
     1
102
RTVSPropertyOp24
 70
     1
102
RTVSPropertyOp25
 70
     1
102
RTVSPropertyOp26
 70
     1
102
RTVSPropertyOp27
 70
     1
102
RTVSPropertyOp28
 70
     1
102
RTVSPropertyOp29
 70
     1
102
RTVSPropertyOp30
 70
     1
102
RTVSPropertyOp31
 70
     1
102
RTVSPropertyOp32
 70
     1
102
RTVSPropertyOp33
 70
     1
102
RTVSPropertyOp34
 70
     1
102
RTVSPropertyOp35
 70
     1
102
RTVSPropertyOp36
 70
     1
102
RTVSPropertyOp37
 70
     1
102
RTVSPropertyOp38
 70
     1
102
RTVSPropertyOp39
 70
     1
102
RTVSPropertyOp40
 70
     1
102
RTVSPropertyOp41
 70
     1
102
RTVSPropertyOp42
 70
     1
102
RTVSPropertyOp43
 70
     1
102
RTVSPropertyOp44
 70
     1
102
RTVSPropertyOp45
 70
     1
102
RTVSPropertyOp46
 70
     1
102
RTVSPropertyOp47
 70
     1
102
RTVSPropertyOp48
 70
     1
102
RTVSPropertyOp49
 70
     1
102
RTVSPropertyOp50
 70
     1
102
RTVSPropertyOp51
 70
     0
102
RTVSPropertyOp52
 70
     0
102
RTVSPropertyOp53
 70
     1
102
RTVSPropertyOp54
 70
     1
102
RTVSPropertyOp55
 70
     1
102
RTVSPropertyOp56
 70
     1
102
RTVSPropertyOp57
 70
     1
102
RTVSPropertyOp58
 70
     1
102
RTVSPropertyOp59
 70
     1
102
RTVSPropertyOp60
 70
     1
102
RTVSPropertyOp61
 70
     1
102
RTVSPropertyOp62
 70
     1
  0
XRECORD
  5
7CE
102
{ACAD_REACTORS
330
7CD
102
}
330
7CD
100
AcDbXrecord
280
     1
102
RTVSPost2010Prop28
280
     0
102
RTVSPost2010PropOp28
 70
     1
102
RTVSPost2010Prop29
280
     1
102
RTVSPost2010PropOp29
 70
     1
102
RTVSPost2010Prop30
280
     1
102
RTVSPost2010PropOp30
 70
     1
102
RTVSPost2010Prop31
280
     0
102
RTVSPost2010PropOp31
 70
     1
102
RTVSPost2010Prop32
280
     0
102
RTVSPost2010PropOp32
 70
     1
102
RTVSPost2010Prop33
280
     0
102
RTVSPost2010PropOp33
 70
     1
102
RTVSPost2010Prop34
280
     0
102
RTVSPost2010PropOp34
 70
     1
102
RTVSPost2010Prop35
280
     0
102
RTVSPost2010PropOp35
 70
     1
102
RTVSPost2010Prop36
280
     0
102
RTVSPost2010PropOp36
 70
     1
102
RTVSPost2010Prop37
 90
       50
102
RTVSPost2010PropOp37
 70
     1
102
RTVSPost2010Prop38
140
0.0
102
RTVSPost2010PropOp38
 70
     1
102
RTVSPost2010Prop39
140
1.0
102
RTVSPost2010PropOp39
 70
     1
102
RTVSPost2010Prop40
 90
        0
102
RTVSPost2010PropOp40
 70
     1
102
RTVSPost2010Prop41ColorIndex
 90
       18
102
RTVSPost2010Prop41ColorRGB
 90
        0
102
RTVSPost2010PropOp41
 70
     1
102
RTVSPost2010Prop42
 90
       50
102
RTVSPost2010PropOp42
 70
     1
102
RTVSPost2010Prop43
 90
        3
102
RTVSPost2010PropOp43
 70
     1
102
RTVSPost2010Prop44ColorIndex
 90
        5
102
RTVSPost2010Prop44ColorRGB
 90
      255
102
RTVSPost2010PropOp44
 70
     1
102
RTVSPost2010Prop45
280
     0
102
RTVSPost2010PropOp45
 70
     1
102
RTVSPost2010Prop46
 90
       50
102
RTVSPost2010PropOp46
 70
     1
102
RTVSPost2010Prop47
 90
       50
102
RTVSPost2010PropOp47
 70
     1
102
RTVSPost2010Prop48
 90
       50
102
RTVSPost2010PropOp48
 70
     1
102
RTVSPost2010Prop49
280
     0
102
RTVSPost2010PropOp49
 70
     1
102
RTVSPost2010Prop50
 90
       50
102
RTVSPost2010PropOp50
 70
     1
102
RTVSPost2010Prop51ColorIndex
 90
      256
102
RTVSPost2010Prop51ColorRGB
 90
-16777216
102
RTVSPost2010PropOp51
 70
     0
102
RTVSPost2010Prop52
140
1.0
102
RTVSPost2010PropOp52
 70
     0
102
RTVSPost2010Prop53
 90
        2
102
RTVSPost2010PropOp53
 70
     1
102
RTVSPost2010Prop54
  1
strokes_ogs.tif
102
RTVSPost2010PropOp54
 70
     1
102
RTVSPost2010Prop55
280
     0
102
RTVSPost2010PropOp55
 70
     1
102
RTVSPost2010Prop56
140
1.0
102
RTVSPost2010PropOp56
 70
     1
102
RTVSPost2010Prop57
140
1.0
102
RTVSPost2010PropOp57
 70
     1
102
RTVSPropertyOp0
 70
     1
102
RTVSPropertyOp1
 70
     1
102
RTVSPropertyOp2
 70
     1
102
RTVSPropertyOp3
 70
     1
102
RTVSPropertyOp4
 70
     1
102
RTVSPropertyOp5
 70
     1
102
RTVSPropertyOp6
 70
     1
102
RTVSPropertyOp7
 70
     1
102
RTVSPropertyOp8
 70
     1
102
RTVSPropertyOp9
 70
     1
102
RTVSPropertyOp10
 70
     1
102
RTVSPropertyOp11
 70
     1
102
RTVSPropertyOp12
 70
     1
102
RTVSPropertyOp13
 70
     1
102
RTVSPropertyOp14
 70
     1
102
RTVSPropertyOp15
 70
     1
102
RTVSPropertyOp16
 70
     1
102
RTVSPropertyOp17
 70
     1
102
RTVSPropertyOp18
 70
     1
102
RTVSPropertyOp19
 70
     1
102
RTVSPropertyOp20
 70
     1
102
RTVSPropertyOp21
 70
     1
102
RTVSPropertyOp22
 70
     1
102
RTVSPropertyOp23
 70
     1
102
RTVSPropertyOp24
 70
     1
102
RTVSPropertyOp25
 70
     1
102
RTVSPropertyOp26
 70
     1
102
RTVSPropertyOp27
 70
     1
102
RTVSPropertyOp28
 70
     1
102
RTVSPropertyOp29
 70
     1
102
RTVSPropertyOp30
 70
     1
102
RTVSPropertyOp31
 70
     1
102
RTVSPropertyOp32
 70
     1
102
RTVSPropertyOp33
 70
     1
102
RTVSPropertyOp34
 70
     1
102
RTVSPropertyOp35
 70
     1
102
RTVSPropertyOp36
 70
     1
102
RTVSPropertyOp37
 70
     1
102
RTVSPropertyOp38
 70
     1
102
RTVSPropertyOp39
 70
     1
102
RTVSPropertyOp40
 70
     1
102
RTVSPropertyOp41
 70
     1
102
RTVSPropertyOp42
 70
     1
102
RTVSPropertyOp43
 70
     1
102
RTVSPropertyOp44
 70
     1
102
RTVSPropertyOp45
 70
     1
102
RTVSPropertyOp46
 70
     1
102
RTVSPropertyOp47
 70
     1
102
RTVSPropertyOp48
 70
     1
102
RTVSPropertyOp49
 70
     1
102
RTVSPropertyOp50
 70
     1
102
RTVSPropertyOp51
 70
     0
102
RTVSPropertyOp52
 70
     0
102
RTVSPropertyOp53
 70
     1
102
RTVSPropertyOp54
 70
     1
102
RTVSPropertyOp55
 70
     1
102
RTVSPropertyOp56
 70
     1
102
RTVSPropertyOp57
 70
     1
102
RTVSPropertyOp58
 70
     1
102
RTVSPropertyOp59
 70
     1
102
RTVSPropertyOp60
 70
     1
102
RTVSPropertyOp61
 70
     1
102
RTVSPropertyOp62
 70
     1
  0
XRECORD
  5
7C2
102
{ACAD_REACTORS
330
7C1
102
}
330
7C1
100
AcDbXrecord
280
     1
102
RTVSPost2010Prop28
280
     0
102
RTVSPost2010PropOp28
 70
     1
102
RTVSPost2010Prop29
280
     1
102
RTVSPost2010PropOp29
 70
     1
102
RTVSPost2010Prop30
280
     1
102
RTVSPost2010PropOp30
 70
     1
102
RTVSPost2010Prop31
280
     0
102
RTVSPost2010PropOp31
 70
     1
102
RTVSPost2010Prop32
280
     0
102
RTVSPost2010PropOp32
 70
     1
102
RTVSPost2010Prop33
280
     0
102
RTVSPost2010PropOp33
 70
     1
102
RTVSPost2010Prop34
280
     0
102
RTVSPost2010PropOp34
 70
     1
102
RTVSPost2010Prop35
280
     0
102
RTVSPost2010PropOp35
 70
     1
102
RTVSPost2010Prop36
280
     0
102
RTVSPost2010PropOp36
 70
     1
102
RTVSPost2010Prop37
 90
       50
102
RTVSPost2010PropOp37
 70
     1
102
RTVSPost2010Prop38
140
0.0
102
RTVSPost2010PropOp38
 70
     1
102
RTVSPost2010Prop39
140
1.0
102
RTVSPost2010PropOp39
 70
     1
102
RTVSPost2010Prop40
 90
        0
102
RTVSPost2010PropOp40
 70
     1
102
RTVSPost2010Prop41ColorIndex
 90
       18
102
RTVSPost2010Prop41ColorRGB
 90
        0
102
RTVSPost2010PropOp41
 70
     1
102
RTVSPost2010Prop42
 90
       50
102
RTVSPost2010PropOp42
 70
     1
102
RTVSPost2010Prop43
 90
        3
102
RTVSPost2010PropOp43
 70
     1
102
RTVSPost2010Prop44ColorIndex
 90
        5
102
RTVSPost2010Prop44ColorRGB
 90
      255
102
RTVSPost2010PropOp44
 70
     1
102
RTVSPost2010Prop45
280
     0
102
RTVSPost2010PropOp45
 70
     1
102
RTVSPost2010Prop46
 90
       50
102
RTVSPost2010PropOp46
 70
     1
102
RTVSPost2010Prop47
 90
       50
102
RTVSPost2010PropOp47
 70
     1
102
RTVSPost2010Prop48
 90
       50
102
RTVSPost2010PropOp48
 70
     1
102
RTVSPost2010Prop49
280
     0
102
RTVSPost2010PropOp49
 70
     1
102
RTVSPost2010Prop50
 90
       50
102
RTVSPost2010PropOp50
 70
     1
102
RTVSPost2010Prop51ColorIndex
 90
      256
102
RTVSPost2010Prop51ColorRGB
 90
-16777216
102
RTVSPost2010PropOp51
 70
     0
102
RTVSPost2010Prop52
140
1.0
102
RTVSPost2010PropOp52
 70
     0
102
RTVSPost2010Prop53
 90
        2
102
RTVSPost2010PropOp53
 70
     1
102
RTVSPost2010Prop54
  1
strokes_ogs.tif
102
RTVSPost2010PropOp54
 70
     1
102
RTVSPost2010Prop55
280
     0
102
RTVSPost2010PropOp55
 70
     1
102
RTVSPost2010Prop56
140
1.0
102
RTVSPost2010PropOp56
 70
     1
102
RTVSPost2010Prop57
140
1.0
102
RTVSPost2010PropOp57
 70
     1
102
RTVSPropertyOp0
 70
     1
102
RTVSPropertyOp1
 70
     1
102
RTVSPropertyOp2
 70
     1
102
RTVSPropertyOp3
 70
     1
102
RTVSPropertyOp4
 70
     1
102
RTVSPropertyOp5
 70
     1
102
RTVSPropertyOp6
 70
     1
102
RTVSPropertyOp7
 70
     1
102
RTVSPropertyOp8
 70
     1
102
RTVSPropertyOp9
 70
     1
102
RTVSPropertyOp10
 70
     1
102
RTVSPropertyOp11
 70
     1
102
RTVSPropertyOp12
 70
     1
102
RTVSPropertyOp13
 70
     1
102
RTVSPropertyOp14
 70
     1
102
RTVSPropertyOp15
 70
     1
102
RTVSPropertyOp16
 70
     1
102
RTVSPropertyOp17
 70
     1
102
RTVSPropertyOp18
 70
     1
102
RTVSPropertyOp19
 70
     1
102
RTVSPropertyOp20
 70
     1
102
RTVSPropertyOp21
 70
     1
102
RTVSPropertyOp22
 70
     1
102
RTVSPropertyOp23
 70
     1
102
RTVSPropertyOp24
 70
     1
102
RTVSPropertyOp25
 70
     1
102
RTVSPropertyOp26
 70
     1
102
RTVSPropertyOp27
 70
     1
102
RTVSPropertyOp28
 70
     1
102
RTVSPropertyOp29
 70
     1
102
RTVSPropertyOp30
 70
     1
102
RTVSPropertyOp31
 70
     1
102
RTVSPropertyOp32
 70
     1
102
RTVSPropertyOp33
 70
     1
102
RTVSPropertyOp34
 70
     1
102
RTVSPropertyOp35
 70
     1
102
RTVSPropertyOp36
 70
     1
102
RTVSPropertyOp37
 70
     1
102
RTVSPropertyOp38
 70
     1
102
RTVSPropertyOp39
 70
     1
102
RTVSPropertyOp40
 70
     1
102
RTVSPropertyOp41
 70
     1
102
RTVSPropertyOp42
 70
     1
102
RTVSPropertyOp43
 70
     1
102
RTVSPropertyOp44
 70
     1
102
RTVSPropertyOp45
 70
     1
102
RTVSPropertyOp46
 70
     1
102
RTVSPropertyOp47
 70
     1
102
RTVSPropertyOp48
 70
     1
102
RTVSPropertyOp49
 70
     1
102
RTVSPropertyOp50
 70
     1
102
RTVSPropertyOp51
 70
     0
102
RTVSPropertyOp52
 70
     0
102
RTVSPropertyOp53
 70
     1
102
RTVSPropertyOp54
 70
     1
102
RTVSPropertyOp55
 70
     1
102
RTVSPropertyOp56
 70
     1
102
RTVSPropertyOp57
 70
     1
102
RTVSPropertyOp58
 70
     1
102
RTVSPropertyOp59
 70
     1
102
RTVSPropertyOp60
 70
     1
102
RTVSPropertyOp61
 70
     1
102
RTVSPropertyOp62
 70
     1
  0
XRECORD
  5
7DA
102
{ACAD_REACTORS
330
7D9
102
}
330
7D9
100
AcDbXrecord
280
     1
102
RTVSPost2010Prop28
280
     0
102
RTVSPost2010PropOp28
 70
     1
102
RTVSPost2010Prop29
280
     1
102
RTVSPost2010PropOp29
 70
     1
102
RTVSPost2010Prop30
280
     1
102
RTVSPost2010PropOp30
 70
     1
102
RTVSPost2010Prop31
280
     0
102
RTVSPost2010PropOp31
 70
     1
102
RTVSPost2010Prop32
280
     0
102
RTVSPost2010PropOp32
 70
     1
102
RTVSPost2010Prop33
280
     0
102
RTVSPost2010PropOp33
 70
     1
102
RTVSPost2010Prop34
280
     0
102
RTVSPost2010PropOp34
 70
     1
102
RTVSPost2010Prop35
280
     0
102
RTVSPost2010PropOp35
 70
     1
102
RTVSPost2010Prop36
280
     0
102
RTVSPost2010PropOp36
 70
     1
102
RTVSPost2010Prop37
 90
       50
102
RTVSPost2010PropOp37
 70
     1
102
RTVSPost2010Prop38
140
0.0
102
RTVSPost2010PropOp38
 70
     1
102
RTVSPost2010Prop39
140
1.0
102
RTVSPost2010PropOp39
 70
     1
102
RTVSPost2010Prop40
 90
        0
102
RTVSPost2010PropOp40
 70
     1
102
RTVSPost2010Prop41ColorIndex
 90
       18
102
RTVSPost2010Prop41ColorRGB
 90
        0
102
RTVSPost2010PropOp41
 70
     1
102
RTVSPost2010Prop42
 90
       50
102
RTVSPost2010PropOp42
 70
     1
102
RTVSPost2010Prop43
 90
        3
102
RTVSPost2010PropOp43
 70
     1
102
RTVSPost2010Prop44ColorIndex
 90
        5
102
RTVSPost2010Prop44ColorRGB
 90
      255
102
RTVSPost2010PropOp44
 70
     1
102
RTVSPost2010Prop45
280
     0
102
RTVSPost2010PropOp45
 70
     1
102
RTVSPost2010Prop46
 90
       50
102
RTVSPost2010PropOp46
 70
     1
102
RTVSPost2010Prop47
 90
       50
102
RTVSPost2010PropOp47
 70
     1
102
RTVSPost2010Prop48
 90
       50
102
RTVSPost2010PropOp48
 70
     1
102
RTVSPost2010Prop49
280
     0
102
RTVSPost2010PropOp49
 70
     1
102
RTVSPost2010Prop50
 90
       50
102
RTVSPost2010PropOp50
 70
     1
102
RTVSPost2010Prop51ColorIndex
 90
      256
102
RTVSPost2010Prop51ColorRGB
 90
-16777216
102
RTVSPost2010PropOp51
 70
     0
102
RTVSPost2010Prop52
140
1.0
102
RTVSPost2010PropOp52
 70
     0
102
RTVSPost2010Prop53
 90
        2
102
RTVSPost2010PropOp53
 70
     1
102
RTVSPost2010Prop54
  1
strokes_ogs.tif
102
RTVSPost2010PropOp54
 70
     1
102
RTVSPost2010Prop55
280
     0
102
RTVSPost2010PropOp55
 70
     1
102
RTVSPost2010Prop56
140
1.0
102
RTVSPost2010PropOp56
 70
     1
102
RTVSPost2010Prop57
140
1.0
102
RTVSPost2010PropOp57
 70
     1
102
RTVSPropertyOp0
 70
     1
102
RTVSPropertyOp1
 70
     1
102
RTVSPropertyOp2
 70
     1
102
RTVSPropertyOp3
 70
     1
102
RTVSPropertyOp4
 70
     1
102
RTVSPropertyOp5
 70
     1
102
RTVSPropertyOp6
 70
     1
102
RTVSPropertyOp7
 70
     1
102
RTVSPropertyOp8
 70
     1
102
RTVSPropertyOp9
 70
     1
102
RTVSPropertyOp10
 70
     1
102
RTVSPropertyOp11
 70
     1
102
RTVSPropertyOp12
 70
     1
102
RTVSPropertyOp13
 70
     1
102
RTVSPropertyOp14
 70
     1
102
RTVSPropertyOp15
 70
     1
102
RTVSPropertyOp16
 70
     1
102
RTVSPropertyOp17
 70
     1
102
RTVSPropertyOp18
 70
     1
102
RTVSPropertyOp19
 70
     1
102
RTVSPropertyOp20
 70
     1
102
RTVSPropertyOp21
 70
     1
102
RTVSPropertyOp22
 70
     1
102
RTVSPropertyOp23
 70
     1
102
RTVSPropertyOp24
 70
     1
102
RTVSPropertyOp25
 70
     1
102
RTVSPropertyOp26
 70
     1
102
RTVSPropertyOp27
 70
     1
102
RTVSPropertyOp28
 70
     1
102
RTVSPropertyOp29
 70
     1
102
RTVSPropertyOp30
 70
     1
102
RTVSPropertyOp31
 70
     1
102
RTVSPropertyOp32
 70
     1
102
RTVSPropertyOp33
 70
     1
102
RTVSPropertyOp34
 70
     1
102
RTVSPropertyOp35
 70
     1
102
RTVSPropertyOp36
 70
     1
102
RTVSPropertyOp37
 70
     1
102
RTVSPropertyOp38
 70
     1
102
RTVSPropertyOp39
 70
     1
102
RTVSPropertyOp40
 70
     1
102
RTVSPropertyOp41
 70
     1
102
RTVSPropertyOp42
 70
     1
102
RTVSPropertyOp43
 70
     1
102
RTVSPropertyOp44
 70
     1
102
RTVSPropertyOp45
 70
     1
102
RTVSPropertyOp46
 70
     1
102
RTVSPropertyOp47
 70
     1
102
RTVSPropertyOp48
 70
     1
102
RTVSPropertyOp49
 70
     1
102
RTVSPropertyOp50
 70
     1
102
RTVSPropertyOp51
 70
     0
102
RTVSPropertyOp52
 70
     0
102
RTVSPropertyOp53
 70
     1
102
RTVSPropertyOp54
 70
     1
102
RTVSPropertyOp55
 70
     1
102
RTVSPropertyOp56
 70
     1
102
RTVSPropertyOp57
 70
     1
102
RTVSPropertyOp58
 70
     1
102
RTVSPropertyOp59
 70
     1
102
RTVSPropertyOp60
 70
     1
102
RTVSPropertyOp61
 70
     1
102
RTVSPropertyOp62
 70
     1
  0
ENDSEC
  0
EOF
