  0
SECTION
  2
HEADER
  9
$ACADVER
  1
AC1015
  9
$ACADMAINTVER
 70
    20
  9
$DWGCODEPAGE
  3
ANSI_932
  9
$INSBASE
 10
0.0
 20
0.0
 30
0.0
  9
$EXTMIN
 10
10.0
 20
9.999999999999998
 30
0.0
  9
$EXTMAX
 10
439.6375039999998
 20
373.2554979999999
 30
0.0
  9
$LIMMIN
 10
0.0
 20
0.0
  9
$LIMMAX
 10
565.3084730000001
 20
389.720235
  9
$ORTHOMODE
 70
     1
  9
$REGENMODE
 70
     1
  9
$FILLMODE
 70
     1
  9
$QTEXTMODE
 70
     0
  9
$MIRRTEXT
 70
     1
  9
$LTSCALE
 40
20.0
  9
$ATTMODE
 70
     1
  9
$TEXTSIZE
 40
5.0
  9
$TRACEWID
 40
1.0
  9
$TEXTSTYLE
  7
STANDARD
  9
$CLAYER
  8
0
  9
$CELTYPE
  6
BYLAYER
  9
$CECOLOR
 62
   256
  9
$CELTSCALE
 40
1.0
  9
$DISPSILH
 70
     0
  9
$DIMSCALE
 40
1.0
  9
$DIMASZ
 40
3.0
  9
$DIMEXO
 40
1.0
  9
$DIMDLI
 40
10.0
  9
$DIMRND
 40
0.0
  9
$DIMDLE
 40
0.0
  9
$DIMEXE
 40
1.0
  9
$DIMTP
 40
0.0
  9
$DIMTM
 40
0.0
  9
$DIMTXT
 40
3.2
  9
$DIMCEN
 40
0.0
  9
$DIMTSZ
 40
0.0
  9
$DIMTOL
 70
     0
  9
$DIMLIM
 70
     0
  9
$DIMTIH
 70
     0
  9
$DIMTOH
 70
     0
  9
$DIMSE1
 70
     0
  9
$DIMSE2
 70
     0
  9
$DIMTAD
 70
     3
  9
$DIMZIN
 70
     8
  9
$DIMBLK
  1

  9
$DIMASO
 70
     1
  9
$DIMSHO
 70
     1
  9
$DIMPOST
  1

  9
$DIMAPOST
  1

  9
$DIMALT
 70
     0
  9
$DIMALTD
 70
     2
  9
$DIMALTF
 40
25.4
  9
$DIMLFAC
 40
1.0
  9
$DIMTOFL
 70
     1
  9
$DIMTVP
 40
0.0
  9
$DIMTIX
 70
     0
  9
$DIMSOXD
 70
     0
  9
$DIMSAH
 70
     1
  9
$DIMBLK1
  1
OPEN
  9
$DIMBLK2
  1
OPEN
  9
$DIMSTYLE
  2
STANDARD
  9
$DIMCLRD
 70
     0
  9
$DIMCLRE
 70
     0
  9
$DIMCLRT
 70
     0
  9
$DIMTFAC
 40
1.0
  9
$DIMGAP
 40
1.0
  9
$DIMJUST
 70
     0
  9
$DIMSD1
 70
     0
  9
$DIMSD2
 70
     0
  9
$DIMTOLJ
 70
     1
  9
$DIMTZIN
 70
     0
  9
$DIMALTZ
 70
     0
  9
$DIMALTTZ
 70
     0
  9
$DIMUPT
 70
     0
  9
$DIMDEC
 70
     4
  9
$DIMTDEC
 70
     4
  9
$DIMALTU
 70
     2
  9
$DIMALTTD
 70
     2
  9
$DIMTXSTY
  7
STANDARD
  9
$DIMAUNIT
 70
     0
  9
$DIMADEC
 70
     0
  9
$DIMALTRND
 40
0.0
  9
$DIMAZIN
 70
     0
  9
$DIMDSEP
 70
    46
  9
$DIMATFIT
 70
     3
  9
$DIMFRAC
 70
     0
  9
$DIMLDRBLK
  1
OPEN
  9
$DIMLUNIT
 70
     2
  9
$DIMLWD
 70
    -2
  9
$DIMLWE
 70
    -2
  9
$DIMTMOVE
 70
     0
  9
$LUNITS
 70
     2
  9
$LUPREC
 70
     4
  9
$SKETCHINC
 40
1.0
  9
$FILLETRAD
 40
10.0
  9
$AUNITS
 70
     0
  9
$AUPREC
 70
     2
  9
$MENU
  1
.
  9
$ELEVATION
 40
0.0
  9
$PELEVATION
 40
0.0
  9
$THICKNESS
 40
0.0
  9
$LIMCHECK
 70
     0
  9
$CHAMFERA
 40
10.0
  9
$CHAMFERB
 40
10.0
  9
$CHAMFERC
 40
0.0
  9
$CHAMFERD
 40
0.0
  9
$SKPOLY
 70
     0
  9
$TDCREATE
 40
2451302.672639583
  9
$TDUCREATE
 40
2451302.297639583
  9
$TDUPDATE
 40
2457192.688050220
  9
$TDUUPDATE
 40
2457192.313050220
  9
$TDINDWG
 40
0.0000132639
  9
$TDUSRTIMER
 40
0.0000127662
  9
$USRTIMER
 70
     1
  9
$ANGBASE
 50
0.0
  9
$ANGDIR
 70
     0
  9
$PDMODE
 70
     0
  9
$PDSIZE
 40
0.0
  9
$PLINEWID
 40
0.0
  9
$SPLFRAME
 70
     0
  9
$SPLINETYPE
 70
     6
  9
$SPLINESEGS
 70
     8
  9
$HANDSEED
  5
B73C
  9
$SURFTAB1
 70
     6
  9
$SURFTAB2
 70
     6
  9
$SURFTYPE
 70
     6
  9
$SURFU
 70
     6
  9
$SURFV
 70
     6
  9
$UCSBASE
  2

  9
$UCSNAME
  2

  9
$UCSORG
 10
0.0
 20
0.0
 30
0.0
  9
$UCSXDIR
 10
1.0
 20
0.0
 30
0.0
  9
$UCSYDIR
 10
0.0
 20
1.0
 30
0.0
  9
$UCSORTHOREF
  2

  9
$UCSORTHOVIEW
 70
     0
  9
$UCSORGTOP
 10
0.0
 20
0.0
 30
0.0
  9
$UCSORGBOTTOM
 10
0.0
 20
0.0
 30
0.0
  9
$UCSORGLEFT
 10
0.0
 20
0.0
 30
0.0
  9
$UCSORGRIGHT
 10
0.0
 20
0.0
 30
0.0
  9
$UCSORGFRONT
 10
0.0
 20
0.0
 30
0.0
  9
$UCSORGBACK
 10
0.0
 20
0.0
 30
0.0
  9
$PUCSBASE
  2

  9
$PUCSNAME
  2

  9
$PUCSORG
 10
0.0
 20
0.0
 30
0.0
  9
$PUCSXDIR
 10
1.0
 20
0.0
 30
0.0
  9
$PUCSYDIR
 10
0.0
 20
1.0
 30
0.0
  9
$PUCSORTHOREF
  2

  9
$PUCSORTHOVIEW
 70
     0
  9
$PUCSORGTOP
 10
0.0
 20
0.0
 30
0.0
  9
$PUCSORGBOTTOM
 10
0.0
 20
0.0
 30
0.0
  9
$PUCSORGLEFT
 10
0.0
 20
0.0
 30
0.0
  9
$PUCSORGRIGHT
 10
0.0
 20
0.0
 30
0.0
  9
$PUCSORGFRONT
 10
0.0
 20
0.0
 30
0.0
  9
$PUCSORGBACK
 10
0.0
 20
0.0
 30
0.0
  9
$USERI1
 70
     0
  9
$USERI2
 70
     0
  9
$USERI3
 70
     0
  9
$USERI4
 70
     0
  9
$USERI5
 70
     0
  9
$USERR1
 40
0.0
  9
$USERR2
 40
0.0
  9
$USERR3
 40
0.0
  9
$USERR4
 40
0.0
  9
$USERR5
 40
0.0
  9
$WORLDVIEW
 70
     1
  9
$SHADEDGE
 70
     3
  9
$SHADEDIF
 70
    70
  9
$TILEMODE
 70
     1
  9
$MAXACTVP
 70
    16
  9
$PINSBASE
 10
0.0
 20
0.0
 30
0.0
  9
$PLIMCHECK
 70
     0
  9
$PEXTMIN
 10
1.000000000000000E+20
 20
1.000000000000000E+20
 30
1.000000000000000E+20
  9
$PEXTMAX
 10
-1.000000000000000E+20
 20
-1.000000000000000E+20
 30
-1.000000000000000E+20
  9
$PLIMMIN
 10
0.0
 20
0.0
  9
$PLIMMAX
 10
420.0
 20
297.0
  9
$UNITMODE
 70
     0
  9
$VISRETAIN
 70
     0
  9
$PLINEGEN
 70
     0
  9
$PSLTSCALE
 70
     0
  9
$TREEDEPTH
 70
  3020
  9
$CMLSTYLE
  2
STANDARD
  9
$CMLJUST
 70
     0
  9
$CMLSCALE
 40
1.0
  9
$PROXYGRAPHICS
 70
     1
  9
$MEASUREMENT
 70
     0
  9
$CELWEIGHT
370
    -1
  9
$ENDCAPS
280
     0
  9
$JOINSTYLE
280
     0
  9
$LWDISPLAY
290
     0
  9
$INSUNITS
 70
     0
  9
$HYPERLINKBASE
  1

  9
$STYLESHEET
  1

  9
$XEDIT
290
     1
  9
$CEPSNTYPE
380
     0
  9
$PSTYLEMODE
290
     1
  9
$FINGERPRINTGUID
  2
{07FA9484-D6A2-4C9F-A6E1-CCE1E90BC7D1}
  9
$VERSIONGUID
  2
{F4B20C69-8371-4142-B02E-8B1E2F1A4956}
  9
$EXTNAMES
290
     1
  9
$PSVPSCALE
 40
0.0
  9
$OLESTARTUP
290
     0
  0
ENDSEC
  0
SECTION
  2
CLASSES
  0
CLASS
  1
ACDBDICTIONARYWDFLT
  2
AcDbDictionaryWithDefault
  3
ObjectDBX Classes
 90
        0
280
     0
281
     0
  0
CLASS
  1
ACDBPLACEHOLDER
  2
AcDbPlaceHolder
  3
ObjectDBX Classes
 90
        0
280
     0
281
     0
  0
CLASS
  1
LAYOUT
  2
AcDbLayout
  3
ObjectDBX Classes
 90
        0
280
     0
281
     0
  0
CLASS
  1
DICTIONARYVAR
  2
AcDbDictionaryVar
  3
ObjectDBX Classes
 90
        0
280
     0
281
     0
  0
CLASS
  1
MATERIAL
  2
AcDbMaterial
  3
ObjectDBX Classes
 90
     1153
280
     0
281
     0
  0
CLASS
  1
VISUALSTYLE
  2
AcDbVisualStyle
  3
ObjectDBX Classes
 90
     4095
280
     0
281
     0
  0
CLASS
  1
TABLESTYLE
  2
AcDbTableStyle
  3
ObjectDBX Classes
 90
     4095
280
     0
281
     0
  0
CLASS
  1
SCALE
  2
AcDbScale
  3
ObjectDBX Classes
 90
     1153
280
     0
281
     0
  0
CLASS
  1
MLEADERSTYLE
  2
AcDbMLeaderStyle
  3
ACDB_MLEADERSTYLE_CLASS
 90
     4095
280
     0
281
     0
  0
CLASS
  1
ACDBSECTIONVIEWSTYLE
  2
AcDbSectionViewStyle
  3
ObjectDBX Classes
 90
     1025
280
     0
281
     0
  0
CLASS
  1
ACDBDETAILVIEWSTYLE
  2
AcDbDetailViewStyle
  3
ObjectDBX Classes
 90
     1025
280
     0
281
     0
  0
CLASS
  1
CELLSTYLEMAP
  2
AcDbCellStyleMap
  3
ObjectDBX Classes
 90
     1152
280
     0
281
     0
  0
ENDSEC
  0
SECTION
  2
TABLES
  0
TABLE
  2
VPORT
  5
B1B6
330
0
100
AcDbSymbolTable
 70
     1
  0
VPORT
  5
B685
330
B1B6
100
AcDbSymbolTableRecord
100
AcDbViewportTableRecord
  2
*ACTIVE
 70
     0
 10
0.0
 20
0.0
 11
1.0
 21
1.0
 12
334.8488035561075
 22
191.6191893253222
 13
0.0
 23
0.0
 14
10.0
 24
10.0
 15
10.0
 25
10.0
 16
0.0
 26
0.0
 36
1.0
 17
0.0
 27
0.0
 37
0.0
 40
367.2955486829822
 41
2.35006605019815
 42
50.0
 43
0.0
 44
0.0
 50
0.0
 51
0.0
 71
     0
 72
   100
 73
     1
 74
     0
 75
     0
 76
     0
 77
     0
 78
     0
281
     0
 65
     1
110
0.0
120
0.0
130
0.0
111
1.0
121
0.0
131
0.0
112
0.0
122
1.0
132
0.0
 79
     0
146
0.0
1001
ACAD_NAV_VCDISPLAY
1070
     3
  0
ENDTAB
  0
TABLE
  2
LTYPE
  5
B1B3
330
0
100
AcDbSymbolTable
 70
     4
  0
LTYPE
  5
B1C1
330
B1B3
100
AcDbSymbolTableRecord
100
AcDbLinetypeTableRecord
  2
BYBLOCK
 70
     0
  3

 72
    65
 73
     0
 40
0.0
  0
LTYPE
  5
B1C2
330
B1B3
100
AcDbSymbolTableRecord
100
AcDbLinetypeTableRecord
  2
BYLAYER
 70
     0
  3

 72
    65
 73
     0
 40
0.0
  0
LTYPE
  5
B1C3
330
B1B3
100
AcDbSymbolTableRecord
100
AcDbLinetypeTableRecord
  2
CONTINUOUS
 70
     0
  3
Solid line
 72
    65
 73
     0
 40
0.0
  0
LTYPE
  5
B1D1
330
B1B3
100
AcDbSymbolTableRecord
100
AcDbLinetypeTableRecord
  2
DASHED
 70
     0
  3
__ __ __ __ __ __ __ __ __ __ __ __ __ __ __ __
 72
    65
 73
     2
 40
0.75
 49
0.5
 74
     0
 49
-0.25
 74
     0
  0
LTYPE
  5
B1D2
330
B1B3
100
AcDbSymbolTableRecord
100
AcDbLinetypeTableRecord
  2
CENTER
 70
     0
  3
____ _ ____ _ ____ _ ____ _ ____ _ ____ _ ____ 
 72
    65
 73
     4
 40
2.0
 49
1.25
 74
     0
 49
-0.25
 74
     0
 49
0.25
 74
     0
 49
-0.25
 74
     0
  0
LTYPE
  5
B1D3
330
B1B3
100
AcDbSymbolTableRecord
100
AcDbLinetypeTableRecord
  2
PHANTOM
 70
     0
  3
______  __  __  ______  __  __  ______  __  __ 
 72
    65
 73
     6
 40
2.5
 49
1.25
 74
     0
 49
-0.25
 74
     0
 49
0.25
 74
     0
 49
-0.25
 74
     0
 49
0.25
 74
     0
 49
-0.25
 74
     0
  0
ENDTAB
  0
TABLE
  2
LAYER
  5
B1B0
330
0
100
AcDbSymbolTable
 70
     8
  0
LAYER
  5
B1BE
102
{ACAD_XDICTIONARY
360
B6E0
102
}
330
B1B0
100
AcDbSymbolTableRecord
100
AcDbLayerTableRecord
  2
0
 70
     0
 62
     7
  6
CONTINUOUS
370
    -3
390
B68E
  0
LAYER
  5
B1D4
102
{ACAD_XDICTIONARY
360
B6E2
102
}
330
B1B0
100
AcDbSymbolTableRecord
100
AcDbLayerTableRecord
  2
4
 70
     0
 62
     1
  6
CENTER
370
    -3
390
B68E
  0
LAYER
  5
B1D5
102
{ACAD_XDICTIONARY
360
B6E4
102
}
330
B1B0
100
AcDbSymbolTableRecord
100
AcDbLayerTableRecord
  2
5
 70
     0
 62
     6
  6
PHANTOM
370
    -3
390
B68E
  0
LAYER
  5
B1D6
102
{ACAD_XDICTIONARY
360
B6E6
102
}
330
B1B0
100
AcDbSymbolTableRecord
100
AcDbLayerTableRecord
  2
1
 70
     0
 62
     7
  6
CONTINUOUS
370
    -3
390
B68E
  0
LAYER
  5
B1D7
102
{ACAD_XDICTIONARY
360
B6E8
102
}
330
B1B0
100
AcDbSymbolTableRecord
100
AcDbLayerTableRecord
  2
2
 70
     0
 62
     4
  6
CONTINUOUS
370
    -3
390
B68E
  0
LAYER
  5
B1D8
102
{ACAD_XDICTIONARY
360
B6EA
102
}
330
B1B0
100
AcDbSymbolTableRecord
100
AcDbLayerTableRecord
  2
3
 70
     0
 62
     2
  6
DASHED
370
    -3
390
B68E
  0
LAYER
  5
B1D9
102
{ACAD_XDICTIONARY
360
B6EC
102
}
330
B1B0
100
AcDbSymbolTableRecord
100
AcDbLayerTableRecord
  2
6
 70
     0
 62
     5
  6
CONTINUOUS
370
    -3
390
B68E
  0
LAYER
  5
B1DA
102
{ACAD_XDICTIONARY
360
B6EE
102
}
330
B1B0
100
AcDbSymbolTableRecord
100
AcDbLayerTableRecord
  2
7
 70
     0
 62
     3
  6
CONTINUOUS
370
    -3
390
B68E
  0
ENDTAB
  0
TABLE
  2
STYLE
  5
B1B1
330
0
100
AcDbSymbolTable
 70
     1
  0
STYLE
  5
B1BF
330
B1B1
100
AcDbSymbolTableRecord
100
AcDbTextStyleTableRecord
  2
STANDARD
 70
     0
 40
0.0
 41
1.0
 50
0.0
 71
     0
 42
5.0
  3
txt
  4

  0
ENDTAB
  0
TABLE
  2
VIEW
  5
B1B4
330
0
100
AcDbSymbolTable
 70
     0
  0
ENDTAB
  0
TABLE
  2
UCS
  5
B1B5
330
0
100
AcDbSymbolTable
 70
     0
  0
ENDTAB
  0
TABLE
  2
APPID
  5
B1B7
330
0
100
AcDbSymbolTable
 70
     3
  0
APPID
  5
B1C0
330
B1B7
100
AcDbSymbolTableRecord
100
AcDbRegAppTableRecord
  2
ACAD
 70
     0
  0
APPID
  5
B6FA
330
B1B7
100
AcDbSymbolTableRecord
100
AcDbRegAppTableRecord
  2
ACAD_NAV_VCDISPLAY
 70
     0
  0
APPID
  5
B733
330
B1B7
100
AcDbSymbolTableRecord
100
AcDbRegAppTableRecord
  2
ACAD_MLEADERVER
 70
     0
  0
ENDTAB
  0
TABLE
  2
DIMSTYLE
  5
B1B8
330
0
100
AcDbSymbolTable
 70
     1
100
AcDbDimStyleTable
 71
     0
  0
DIMSTYLE
105
B1DC
330
B1B8
100
AcDbSymbolTableRecord
100
AcDbDimStyleTableRecord
  2
STANDARD
 70
     0
 41
3.0
 42
1.0
 43
10.0
 44
1.0
 73
     0
 74
     0
 77
     3
 78
     8
140
3.2
141
0.0
147
1.0
172
     1
173
     1
284
     8
285
     8
286
     8
340
B1BF
  0
ENDTAB
  0
TABLE
  2
BLOCK_RECORD
  5
B1AF
330
0
100
AcDbSymbolTable
 70
     1
  0
BLOCK_RECORD
  5
B1CC
102
{ACAD_XDICTIONARY
360
B688
102
}
330
B1AF
100
AcDbSymbolTableRecord
100
AcDbBlockTableRecord
  2
*MODEL_SPACE
340
B6DC
  0
BLOCK_RECORD
  5
B1C8
102
{ACAD_XDICTIONARY
360
B686
102
}
330
B1AF
100
AcDbSymbolTableRecord
100
AcDbBlockTableRecord
  2
*PAPER_SPACE
340
B6DD
  0
BLOCK_RECORD
  5
B1E4
330
B1AF
100
AcDbSymbolTableRecord
100
AcDbBlockTableRecord
  2
_OPEN
340
0
  0
ENDTAB
  0
ENDSEC
  0
SECTION
  2
BLOCKS
  0
BLOCK
  5
B1CD
330
B1CC
100
AcDbEntity
  8
0
100
AcDbBlockBegin
  2
*MODEL_SPACE
 70
     0
 10
0.0
 20
0.0
 30
0.0
  3
*MODEL_SPACE
  1

  0
ENDBLK
  5
B1CE
330
B1CC
100
AcDbEntity
  8
0
100
AcDbBlockEnd
  0
BLOCK
  5
B1C9
330
B1C8
100
AcDbEntity
 67
     1
  8
0
100
AcDbBlockBegin
  2
*PAPER_SPACE
 70
     0
 10
0.0
 20
0.0
 30
0.0
  3
*PAPER_SPACE
  1

  0
ENDBLK
  5
B1CA
330
B1C8
100
AcDbEntity
 67
     1
  8
0
100
AcDbBlockEnd
  0
BLOCK
  5
B1E5
330
B1E4
100
AcDbEntity
  8
0
100
AcDbBlockBegin
  2
_OPEN
 70
     0
 10
0.0
 20
0.0
 30
0.0
  3
_OPEN
  1

  0
LINE
  5
B1E6
330
B1E4
100
AcDbEntity
  8
0
  6
ByBlock
 62
     0
100
AcDbLine
 10
-1.0
 20
0.166667
 30
0.0
 11
0.0
 21
0.0
 31
0.0
  0
LINE
  5
B1E7
330
B1E4
100
AcDbEntity
  8
0
  6
ByBlock
 62
     0
100
AcDbLine
 10
0.0
 20
0.0
 30
0.0
 11
-1.0
 21
-0.166667
 31
0.0
  0
LINE
  5
B1E8
330
B1E4
100
AcDbEntity
  8
0
  6
ByBlock
 62
     0
100
AcDbLine
 10
0.0
 20
0.0
 30
0.0
 11
-1.0
 21
0.0
 31
0.0
  0
ENDBLK
  5
B1E9
330
B1E4
100
AcDbEntity
  8
0
100
AcDbBlockEnd
  0
ENDSEC
  0
SECTION
  2
ENTITIES
  0
TEXT
  5
B1EA
330
B1CC
100
AcDbEntity
  8
7
  6
Continuous
100
AcDbText
 10
10.0
 20
18.0
 30
0.0
 40
3.0
  1
TYPE No.306S
100
AcDbText
  0
TEXT
  5
B1EB
330
B1CC
100
AcDbEntity
  8
7
  6
Continuous
100
AcDbText
 10
10.0
 20
26.0
 30
0.0
 40
3.0
  1
CODE No.9320
100
AcDbText
  0
TEXT
  5
B1EC
330
B1CC
100
AcDbEntity
  8
1
  6
Continuous
100
AcDbText
 10
10.0
 20
10.0
 30
0.0
 40
1.399999999999999
  1
LAYER
100
AcDbText
  0
TEXT
  5
B1ED
330
B1CC
100
AcDbEntity
  8
1
  6
Continuous
100
AcDbText
 10
17.97951099999998
 20
10.04873699999998
 30
0.0
 40
1.399999999999999
  1
1
100
AcDbText
  0
TEXT
  5
B1EE
330
B1CC
100
AcDbEntity
  8
7
  6
Continuous
100
AcDbText
 10
29.97951099999999
 20
10.04873699999998
 30
0.0
 40
1.399999999999999
  1
7
100
AcDbText
  0
TEXT
  5
B1EF
330
B1CC
100
AcDbEntity
  8
4
  6
CENTER
100
AcDbText
 10
23.97951099999999
 20
10.04873699999998
 30
0.0
 40
1.399999999999999
  1
4
100
AcDbText
  0
TEXT
  5
B1F0
330
B1CC
100
AcDbEntity
  8
3
  6
DASHED
100
AcDbText
 10
21.979511
 20
10.04873699999998
 30
0.0
 40
1.399999999999999
  1
3
100
AcDbText
  0
TEXT
  5
B1F1
330
B1CC
100
AcDbEntity
  8
2
  6
Continuous
100
AcDbText
 10
19.97951099999999
 20
10.04873699999998
 30
0.0
 40
1.399999999999999
  1
2
100
AcDbText
  0
TEXT
  5
B1F2
330
B1CC
100
AcDbEntity
  8
6
  6
Continuous
100
AcDbText
 10
27.979511
 20
10.04873699999998
 30
0.0
 40
1.399999999999999
  1
6
100
AcDbText
  0
TEXT
  5
B1F3
330
B1CC
100
AcDbEntity
  8
5
  6
PHANTOM
100
AcDbText
 10
25.97951099999999
 20
10.04873699999998
 30
0.0
 40
1.399999999999999
  1
5
100
AcDbText
  0
LINE
  5
B1F4
330
B1CC
100
AcDbEntity
  8
4
  6
CENTER
100
AcDbLine
 10
206.1692469999999
 20
179.2064899999998
 30
0.0
 11
121.169247
 21
179.2064899999998
 31
0.0
  0
LINE
  5
B1F5
330
B1CC
100
AcDbEntity
  8
4
  6
CENTER
100
AcDbLine
 10
163.6692469999998
 20
136.70649
 30
0.0
 11
163.6692469999998
 21
219.7064899999999
 31
0.0
  0
LINE
  5
B1F6
330
B1CC
100
AcDbEntity
  8
1
  6
Continuous
100
AcDbLine
 10
211.669247
 20
226.0064899999999
 30
0.0
 11
165.6692469999998
 21
226.0064899999999
 31
0.0
  0
LINE
  5
B1F7
330
B1CC
100
AcDbEntity
  8
1
  6
Continuous
100
AcDbLine
 10
159.8047719999998
 20
221.4064899999999
 30
0.0
 11
156.6692469999999
 21
221.4064899999999
 31
0.0
  0
LINE
  5
B1F8
330
B1CC
100
AcDbEntity
  8
1
  6
Continuous
100
AcDbLine
 10
170.6692469999999
 20
223.70649
 30
0.0
 11
156.6692469999999
 21
223.70649
 31
0.0
  0
LINE
  5
B1F9
330
B1CC
100
AcDbEntity
  8
1
  6
Continuous
100
AcDbLine
 10
156.6692469999999
 20
223.70649
 30
0.0
 11
156.6692469999999
 21
221.4064899999999
 31
0.0
  0
LINE
  5
B1FA
330
B1CC
100
AcDbEntity
  8
4
  6
CENTER
100
AcDbLine
 10
188.6692469999999
 20
281.706635
 30
0.0
 11
188.6692469999999
 21
206.898602
 31
0.0
  0
ARC
  5
B1FB
330
B1CC
100
AcDbEntity
  8
1
  6
Continuous
100
AcDbCircle
 10
167.3364369999999
 20
223.0064899999999
 30
0.0
 40
3.0
100
AcDbArc
 50
90.0
 51
166.5066009999998
  0
ARC
  5
B1FC
330
B1CC
100
AcDbEntity
  8
1
  6
Continuous
100
AcDbCircle
 10
209.9878229999999
 20
222.544827
 30
0.0
 40
3.462340999999999
100
AcDbArc
 50
7.662535
 51
91.134876
  0
LINE
  5
B1FD
330
B1CC
100
AcDbEntity
  8
1
  6
Continuous
100
AcDbLine
 10
213.419247
 20
218.40649
 30
0.0
 11
205.563346
 21
218.40649
 31
0.0
  0
LINE
  5
B1FE
330
B1CC
100
AcDbEntity
  8
1
  6
Continuous
100
AcDbLine
 10
203.613618
 20
218.214984
 30
0.0
 11
203.5692469999999
 21
218.1439899999999
 31
0.0
  0
LINE
  5
B1FF
330
B1CC
100
AcDbEntity
  8
1
  6
Continuous
100
AcDbLine
 10
213.419247
 20
223.0064899999999
 30
0.0
 11
213.419247
 21
218.40649
 31
0.0
  0
LINE
  5
B200
330
B1CC
100
AcDbEntity
  8
1
  6
Continuous
100
AcDbLine
 10
211.669247
 20
225.879073
 30
0.0
 11
211.2966639999999
 21
226.0064899999999
 31
0.0
  0
LINE
  5
B201
330
B1CC
100
AcDbEntity
  8
4
  6
CENTER
100
AcDbLine
 10
218.419172
 20
343.5054979999998
 30
0.0
 11
121.1692379999998
 21
343.5054979999998
 31
0.0
  0
LINE
  5
B202
330
B1CC
100
AcDbEntity
  8
4
  6
CENTER
100
AcDbLine
 10
188.6691719999998
 20
313.7554979999998
 30
0.0
 11
188.6691719999998
 21
373.2554979999999
 31
0.0
  0
LINE
  5
B203
330
B1CC
100
AcDbEntity
  8
4
  6
CENTER
100
AcDbLine
 10
280.4033759999999
 20
281.706635
 30
0.0
 11
280.4033759999999
 21
136.70649
 31
0.0
  0
LINE
  5
B204
330
B1CC
100
AcDbEntity
  8
4
  6
CENTER
100
AcDbLine
 10
246.936887
 20
179.2064899999998
 30
0.0
 11
309.2118759999999
 21
179.2064899999998
 31
0.0
  0
ARC
  5
B205
330
B1CC
100
AcDbEntity
  8
1
  6
Continuous
100
AcDbCircle
 10
209.2048479999998
 20
171.25231
 30
0.0
 40
99.466508
100
AcDbArc
 50
17.154698
 51
25.73159999999998
  0
LINE
  5
B206
330
B1CC
100
AcDbEntity
  8
1
  6
Continuous
100
AcDbLine
 10
303.4033759999999
 20
226.0064899999999
 30
0.0
 11
257.4033759999999
 21
226.0064899999999
 31
0.0
  0
LINE
  5
B207
330
B1CC
100
AcDbEntity
  8
1
  6
Continuous
100
AcDbLine
 10
263.8948759999999
 20
213.302883
 30
0.0
 11
263.8948759999999
 21
167.7064899999998
 31
0.0
  0
LINE
  5
B208
330
B1CC
100
AcDbEntity
  8
1
  6
Continuous
100
AcDbLine
 10
296.9118759999998
 20
167.7064899999998
 30
0.0
 11
299.2118759999998
 21
167.7064899999998
 31
0.0
  0
LINE
  5
B209
330
B1CC
100
AcDbEntity
  8
1
  6
Continuous
100
AcDbLine
 10
299.2118759999998
 20
167.7064899999998
 30
0.0
 11
299.2118759999998
 21
168.0979589999998
 31
0.0
  0
LINE
  5
B20A
330
B1CC
100
AcDbEntity
  8
1
  6
Continuous
100
AcDbLine
 10
292.0968209999998
 20
218.40649
 30
0.0
 11
268.7778819999999
 21
218.40649
 31
0.0
  0
ARC
  5
B20B
330
B1CC
100
AcDbEntity
  8
1
  6
Continuous
100
AcDbCircle
 10
268.743905
 20
210.691662
 30
0.0
 40
7.714902
100
AcDbArc
 50
89.74766999999998
 51
150.9629099999999
  0
ARC
  5
B20C
330
B1CC
100
AcDbEntity
  8
1
  6
Continuous
100
AcDbCircle
 10
209.2048479999998
 20
171.25231
 30
0.0
 40
97.26650800000001
100
AcDbArc
 50
18.221623
 51
28.73472400000001
  0
ARC
  5
B20D
330
B1CC
100
AcDbEntity
  8
1
  6
Continuous
100
AcDbCircle
 10
292.0628449999999
 20
210.691662
 30
0.0
 40
7.714902
100
AcDbArc
 50
29.03709
 51
90.25233
  0
LINE
  5
B20E
330
B1CC
100
AcDbEntity
  8
1
  6
Continuous
100
AcDbLine
 10
263.8948759999999
 20
167.7064899999998
 30
0.0
 11
261.594876
 21
167.7064899999998
 31
0.0
  0
LINE
  5
B20F
330
B1CC
100
AcDbEntity
  8
1
  6
Continuous
100
AcDbLine
 10
261.594876
 20
167.7064899999998
 30
0.0
 11
261.594876
 21
168.0979589999998
 31
0.0
  0
LINE
  5
B210
330
B1CC
100
AcDbEntity
  8
4
  6
CENTER
100
AcDbLine
 10
59.204661
 20
281.706635
 30
0.0
 11
59.204661
 21
136.706535
 31
0.0
  0
LINE
  5
B211
330
B1CC
100
AcDbEntity
  8
1
  6
Continuous
100
AcDbLine
 10
78.01316099999998
 20
219.4065349999999
 30
0.0
 11
78.01316099999998
 21
194.3038249999999
 31
0.0
  0
LINE
  5
B212
330
B1CC
100
AcDbEntity
  8
1
  6
Continuous
100
AcDbLine
 10
40.39616099999999
 20
219.4065349999999
 30
0.0
 11
40.39616099999999
 21
167.706535
 31
0.0
  0
LINE
  5
B213
330
B1CC
100
AcDbEntity
  8
1
  6
Continuous
100
AcDbLine
 10
75.713161
 20
219.4065349999999
 30
0.0
 11
75.713161
 21
194.3038249999999
 31
0.0
  0
LINE
  5
B214
330
B1CC
100
AcDbEntity
  8
1
  6
Continuous
100
AcDbLine
 10
42.69616099999999
 20
219.4065349999999
 30
0.0
 11
42.69616099999999
 21
167.706535
 31
0.0
  0
LINE
  5
B215
330
B1CC
100
AcDbEntity
  8
4
  6
CENTER
100
AcDbLine
 10
30.39616099999999
 20
179.206535
 30
0.0
 11
92.67115
 21
179.206535
 31
0.0
  0
LINE
  5
B216
330
B1CC
100
AcDbEntity
  8
1
  6
Continuous
100
AcDbLine
 10
40.39616099999999
 20
167.706535
 30
0.0
 11
42.69616099999999
 21
167.706535
 31
0.0
  0
LINE
  5
B217
330
B1CC
100
AcDbEntity
  8
1
  6
Continuous
100
AcDbLine
 10
42.69616099999999
 20
175.206535
 30
0.0
 11
44.704661
 21
175.206535
 31
0.0
  0
ARC
  5
B218
330
B1CC
100
AcDbEntity
  8
1
  6
Continuous
100
AcDbCircle
 10
79.454661
 20
192.971086
 30
0.0
 40
45.0
100
AcDbArc
 50
180.0
 51
194.017084
  0
LINE
  5
B219
330
B1CC
100
AcDbEntity
  8
1
  6
Continuous
100
AcDbLine
 10
42.69616099999999
 20
183.206535
 30
0.0
 11
44.704661
 21
183.206535
 31
0.0
  0
LINE
  5
B21A
330
B1CC
100
AcDbEntity
  8
1
  6
Continuous
100
AcDbLine
 10
75.713161
 20
167.706535
 30
0.0
 11
78.01316099999998
 21
167.706535
 31
0.0
  0
LINE
  5
B21B
330
B1CC
100
AcDbEntity
  8
1
  6
Continuous
100
AcDbLine
 10
73.704661
 20
175.206535
 30
0.0
 11
75.713161
 21
175.206535
 31
0.0
  0
LINE
  5
B21C
330
B1CC
100
AcDbEntity
  8
1
  6
Continuous
100
AcDbLine
 10
61.070588
 20
219.944035
 30
0.0
 11
62.243874
 21
221.4064899999999
 31
0.0
  0
LINE
  5
B21D
330
B1CC
100
AcDbEntity
  8
1
  6
Continuous
100
AcDbLine
 10
42.69616099999999
 20
218.444035
 30
0.0
 11
75.713161
 21
218.444035
 31
0.0
  0
LINE
  5
B21E
330
B1CC
100
AcDbEntity
  8
1
  6
Continuous
100
AcDbLine
 10
36.204661
 20
226.0064899999999
 30
0.0
 11
82.20466100000001
 21
226.0064899999999
 31
0.0
  0
LINE
  5
B21F
330
B1CC
100
AcDbEntity
  8
1
  6
Continuous
100
AcDbLine
 10
42.924457
 20
219.944035
 30
0.0
 11
75.570701
 21
219.944035
 31
0.0
  0
LINE
  5
B220
330
B1CC
100
AcDbEntity
  8
1
  6
Continuous
100
AcDbLine
 10
45.01544699999999
 20
221.4064899999999
 30
0.0
 11
73.81544699999998
 21
221.4064899999999
 31
0.0
  0
LINE
  5
B221
330
B1CC
100
AcDbEntity
  8
1
  6
Continuous
100
AcDbLine
 10
45.01544699999999
 20
223.70649
 30
0.0
 11
73.81544699999998
 21
223.70649
 31
0.0
  0
ARC
  5
B222
330
B1CC
100
AcDbEntity
  8
1
  6
Continuous
100
AcDbCircle
 10
45.374331
 20
218.68981
 30
0.0
 40
5.029499999999998
100
AcDbArc
 50
94.09185900000002
 51
171.807218
  0
LINE
  5
B223
330
B1CC
100
AcDbEntity
  8
1
  6
Continuous
100
AcDbLine
 10
44.790304
 20
221.389498
 30
0.0
 11
45.52502599999999
 21
219.944035
 31
0.0
  0
ARC
  5
B224
330
B1CC
100
AcDbEntity
  8
1
  6
Continuous
100
AcDbCircle
 10
48.298161
 20
223.6331569999999
 30
0.0
 40
7.487396
100
AcDbArc
 50
233.119947
 51
265.563802
  0
LINE
  5
B225
330
B1CC
100
AcDbEntity
  8
1
  6
Continuous
100
AcDbLine
 10
43.668711
 20
220.3861359999999
 30
0.0
 11
44.110812
 21
219.944035
 31
0.0
  0
LINE
  5
B226
330
B1CC
100
AcDbEntity
  8
1
  6
Continuous
100
AcDbLine
 10
44.749558
 20
221.382737
 30
0.0
 11
42.991526
 21
219.944035
 31
0.0
  0
LINE
  5
B227
330
B1CC
100
AcDbEntity
  8
1
  6
Continuous
100
AcDbLine
 10
42.69616099999999
 20
218.444035
 30
0.0
 11
43.80466099999998
 21
217.644035
 31
0.0
  0
LINE
  5
B228
330
B1CC
100
AcDbEntity
  8
1
  6
Continuous
100
AcDbLine
 10
43.904661
 20
219.944035
 30
0.0
 11
42.69616099999999
 21
218.444035
 31
0.0
  0
ARC
  5
B229
330
B1CC
100
AcDbEntity
  8
1
  6
Continuous
100
AcDbCircle
 10
45.45498099999998
 20
218.551996
 30
0.0
 40
2.888134999999998
100
AcDbArc
 50
98.75362899999997
 51
162.789725
  0
LINE
  5
B22A
330
B1CC
100
AcDbEntity
  8
1
  6
Continuous
100
AcDbLine
 10
54.510307
 20
219.944035
 30
0.0
 11
53.75859300000001
 21
221.4064899999999
 31
0.0
  0
LINE
  5
B22B
330
B1CC
100
AcDbEntity
  8
1
  6
Continuous
100
AcDbLine
 10
50.267666
 20
219.944035
 30
0.0
 11
49.51595199999999
 21
221.4064899999999
 31
0.0
  0
LINE
  5
B22C
330
B1CC
100
AcDbEntity
  8
1
  6
Continuous
100
AcDbLine
 10
47.439239
 20
219.944035
 30
0.0
 11
46.687525
 21
221.4064899999999
 31
0.0
  0
LINE
  5
B22D
330
B1CC
100
AcDbEntity
  8
1
  6
Continuous
100
AcDbLine
 10
48.853453
 20
219.944035
 30
0.0
 11
48.101739
 21
221.4064899999999
 31
0.0
  0
LINE
  5
B22E
330
B1CC
100
AcDbEntity
  8
1
  6
Continuous
100
AcDbLine
 10
45.014239
 20
219.944035
 30
0.0
 11
46.687525
 21
221.4064899999999
 31
0.0
  0
LINE
  5
B22F
330
B1CC
100
AcDbEntity
  8
1
  6
Continuous
100
AcDbLine
 10
46.928453
 20
219.944035
 30
0.0
 11
48.101739
 21
221.4064899999999
 31
0.0
  0
LINE
  5
B230
330
B1CC
100
AcDbEntity
  8
1
  6
Continuous
100
AcDbLine
 10
48.34266599999999
 20
219.944035
 30
0.0
 11
49.51595199999999
 21
221.4064899999999
 31
0.0
  0
LINE
  5
B231
330
B1CC
100
AcDbEntity
  8
1
  6
Continuous
100
AcDbLine
 10
51.68188
 20
219.944035
 30
0.0
 11
50.930166
 21
221.4064899999999
 31
0.0
  0
LINE
  5
B232
330
B1CC
100
AcDbEntity
  8
1
  6
Continuous
100
AcDbLine
 10
53.09609399999999
 20
219.944035
 30
0.0
 11
52.34438
 21
221.4064899999999
 31
0.0
  0
LINE
  5
B233
330
B1CC
100
AcDbEntity
  8
1
  6
Continuous
100
AcDbLine
 10
49.75687999999999
 20
219.944035
 30
0.0
 11
50.930166
 21
221.4064899999999
 31
0.0
  0
LINE
  5
B234
330
B1CC
100
AcDbEntity
  8
1
  6
Continuous
100
AcDbLine
 10
51.171094
 20
219.944035
 30
0.0
 11
52.34438
 21
221.4064899999999
 31
0.0
  0
LINE
  5
B235
330
B1CC
100
AcDbEntity
  8
1
  6
Continuous
100
AcDbLine
 10
52.58530699999999
 20
219.944035
 30
0.0
 11
53.75859300000001
 21
221.4064899999999
 31
0.0
  0
LINE
  5
B236
330
B1CC
100
AcDbEntity
  8
1
  6
Continuous
100
AcDbLine
 10
56.82794799999999
 20
219.944035
 30
0.0
 11
58.001234
 21
221.4064899999999
 31
0.0
  0
LINE
  5
B237
330
B1CC
100
AcDbEntity
  8
1
  6
Continuous
100
AcDbLine
 10
55.924521
 20
219.944035
 30
0.0
 11
55.17280699999999
 21
221.4064899999999
 31
0.0
  0
LINE
  5
B238
330
B1CC
100
AcDbEntity
  8
1
  6
Continuous
100
AcDbLine
 10
57.338734
 20
219.944035
 30
0.0
 11
56.58701999999999
 21
221.4064899999999
 31
0.0
  0
LINE
  5
B239
330
B1CC
100
AcDbEntity
  8
1
  6
Continuous
100
AcDbLine
 10
53.999521
 20
219.944035
 30
0.0
 11
55.17280699999999
 21
221.4064899999999
 31
0.0
  0
LINE
  5
B23A
330
B1CC
100
AcDbEntity
  8
1
  6
Continuous
100
AcDbLine
 10
55.413734
 20
219.944035
 30
0.0
 11
56.58701999999999
 21
221.4064899999999
 31
0.0
  0
LINE
  5
B23B
330
B1CC
100
AcDbEntity
  8
1
  6
Continuous
100
AcDbLine
 10
61.581375
 20
219.944035
 30
0.0
 11
60.829661
 21
221.4064899999999
 31
0.0
  0
LINE
  5
B23C
330
B1CC
100
AcDbEntity
  8
1
  6
Continuous
100
AcDbLine
 10
58.75294799999998
 20
219.944035
 30
0.0
 11
58.001234
 21
221.4064899999999
 31
0.0
  0
LINE
  5
B23D
330
B1CC
100
AcDbEntity
  8
1
  6
Continuous
100
AcDbLine
 10
60.167161
 20
219.944035
 30
0.0
 11
59.415447
 21
221.4064899999999
 31
0.0
  0
LINE
  5
B23E
330
B1CC
100
AcDbEntity
  8
1
  6
Continuous
100
AcDbLine
 10
59.65637499999999
 20
219.944035
 30
0.0
 11
60.829661
 21
221.4064899999999
 31
0.0
  0
LINE
  5
B23F
330
B1CC
100
AcDbEntity
  8
1
  6
Continuous
100
AcDbLine
 10
58.24216100000001
 20
219.944035
 30
0.0
 11
59.415447
 21
221.4064899999999
 31
0.0
  0
ARC
  5
B240
330
B1CC
100
AcDbEntity
  8
1
  6
Continuous
100
AcDbCircle
 10
73.410515
 20
219.112256
 30
0.0
 40
4.612044999999998
100
AcDbArc
 50
3.658345999999998
 51
84.96300599999997
  0
LINE
  5
B241
330
B1CC
100
AcDbEntity
  8
1
  6
Continuous
100
AcDbLine
 10
69.55587
 20
219.944035
 30
0.0
 11
71.229156
 21
221.4064899999999
 31
0.0
  0
LINE
  5
B242
330
B1CC
100
AcDbEntity
  8
1
  6
Continuous
100
AcDbLine
 10
65.31322900000001
 20
219.944035
 30
0.0
 11
66.48651499999998
 21
221.4064899999999
 31
0.0
  0
LINE
  5
B243
330
B1CC
100
AcDbEntity
  8
1
  6
Continuous
100
AcDbLine
 10
65.824016
 20
219.944035
 30
0.0
 11
65.07230200000001
 21
221.4064899999999
 31
0.0
  0
LINE
  5
B244
330
B1CC
100
AcDbEntity
  8
1
  6
Continuous
100
AcDbLine
 10
64.409802
 20
219.944035
 30
0.0
 11
63.65808799999999
 21
221.4064899999999
 31
0.0
  0
LINE
  5
B245
330
B1CC
100
AcDbEntity
  8
1
  6
Continuous
100
AcDbLine
 10
62.99558799999999
 20
219.944035
 30
0.0
 11
62.243874
 21
221.4064899999999
 31
0.0
  0
LINE
  5
B246
330
B1CC
100
AcDbEntity
  8
1
  6
Continuous
100
AcDbLine
 10
63.899016
 20
219.944035
 30
0.0
 11
65.07230200000001
 21
221.4064899999999
 31
0.0
  0
LINE
  5
B247
330
B1CC
100
AcDbEntity
  8
1
  6
Continuous
100
AcDbLine
 10
62.484802
 20
219.944035
 30
0.0
 11
63.65808799999999
 21
221.4064899999999
 31
0.0
  0
LINE
  5
B248
330
B1CC
100
AcDbEntity
  8
1
  6
Continuous
100
AcDbLine
 10
70.56665600000002
 20
219.944035
 30
0.0
 11
69.314942
 21
221.4064899999999
 31
0.0
  0
LINE
  5
B249
330
B1CC
100
AcDbEntity
  8
1
  6
Continuous
100
AcDbLine
 10
68.652443
 20
219.944035
 30
0.0
 11
67.900729
 21
221.4064899999999
 31
0.0
  0
LINE
  5
B24A
330
B1CC
100
AcDbEntity
  8
1
  6
Continuous
100
AcDbLine
 10
67.238229
 20
219.944035
 30
0.0
 11
66.48651499999998
 21
221.4064899999999
 31
0.0
  0
LINE
  5
B24B
330
B1CC
100
AcDbEntity
  8
1
  6
Continuous
100
AcDbLine
 10
68.14165600000001
 20
219.944035
 30
0.0
 11
69.314942
 21
221.4064899999999
 31
0.0
  0
LINE
  5
B24C
330
B1CC
100
AcDbEntity
  8
1
  6
Continuous
100
AcDbLine
 10
66.72744300000001
 20
219.944035
 30
0.0
 11
67.900729
 21
221.4064899999999
 31
0.0
  0
ARC
  5
B24D
330
B1CC
100
AcDbEntity
  8
1
  6
Continuous
100
AcDbCircle
 10
70.601229
 20
223.99457
 30
0.0
 40
7.848514999999999
100
AcDbArc
 50
270.9161379999998
 51
305.988185
  0
LINE
  5
B24E
330
B1CC
100
AcDbEntity
  8
1
  6
Continuous
100
AcDbLine
 10
75.41779699999998
 20
219.944035
 30
0.0
 11
74.14171500000001
 21
221.3177399999999
 31
0.0
  0
LINE
  5
B24F
330
B1CC
100
AcDbEntity
  8
1
  6
Continuous
100
AcDbLine
 10
74.298511
 20
219.944035
 30
0.0
 11
75.34200799999998
 21
220.383147
 31
0.0
  0
LINE
  5
B250
330
B1CC
100
AcDbEntity
  8
1
  6
Continuous
100
AcDbLine
 10
75.713161
 20
218.444035
 30
0.0
 11
75.21316099999999
 21
217.644035
 31
0.0
  0
LINE
  5
B251
330
B1CC
100
AcDbEntity
  8
1
  6
Continuous
100
AcDbLine
 10
74.50466099999998
 20
219.944035
 30
0.0
 11
75.713161
 21
218.444035
 31
0.0
  0
ARC
  5
B252
330
B1CC
100
AcDbEntity
  8
1
  6
Continuous
100
AcDbCircle
 10
73.35485
 20
219.0691109999999
 30
0.0
 40
2.382327999999998
100
AcDbArc
 50
8.142542999999998
 51
78.852283
  0
LINE
  5
B253
330
B1CC
100
AcDbEntity
  8
1
  6
Continuous
100
AcDbLine
 10
73.395083
 20
219.944035
 30
0.0
 11
72.64336899999998
 21
221.4064899999999
 31
0.0
  0
LINE
  5
B254
330
B1CC
100
AcDbEntity
  8
1
  6
Continuous
100
AcDbLine
 10
71.98087
 20
219.944035
 30
0.0
 11
71.229156
 21
221.4064899999999
 31
0.0
  0
LINE
  5
B255
330
B1CC
100
AcDbEntity
  8
1
  6
Continuous
100
AcDbLine
 10
72.884297
 20
219.944035
 30
0.0
 11
74.015416
 21
221.3580279999999
 31
0.0
  0
LINE
  5
B256
330
B1CC
100
AcDbEntity
  8
1
  6
Continuous
100
AcDbLine
 10
71.470083
 20
219.944035
 30
0.0
 11
72.64336899999998
 21
221.4064899999999
 31
0.0
  0
LINE
  5
B257
330
B1CC
100
AcDbEntity
  8
1
  6
Continuous
100
AcDbLine
 10
255.6533759999998
 20
222.5854899999999
 30
0.0
 11
255.6533759999998
 21
191.3543439999999
 31
0.0
  0
LINE
  5
B258
330
B1CC
100
AcDbEntity
  8
1
  6
Continuous
100
AcDbLine
 10
305.1533759999998
 20
222.5854899999999
 30
0.0
 11
305.1533759999998
 21
194.8727019999998
 31
0.0
  0
ARC
  5
B259
330
B1CC
100
AcDbEntity
  8
1
  6
Continuous
100
AcDbCircle
 10
301.732376
 20
222.5854899999999
 30
0.0
 40
3.420999999999998
100
AcDbArc
 50
0.0
 51
90.0
  0
ARC
  5
B25A
330
B1CC
100
AcDbEntity
  8
1
  6
Continuous
100
AcDbCircle
 10
259.0743759999999
 20
222.5854899999999
 30
0.0
 40
3.420999999999998
100
AcDbArc
 50
90.0
 51
180.0
  0
ARC
  5
B25B
330
B1CC
100
AcDbEntity
  8
1
  6
Continuous
100
AcDbCircle
 10
163.6692469999998
 20
178.2064899999998
 30
0.0
 40
10.5
100
AcDbArc
 50
199.475619
 51
311.162895
  0
ARC
  5
B25C
330
B1CC
100
AcDbEntity
  8
1
  6
Continuous
100
AcDbCircle
 10
205.563346
 20
208.4064899999999
 30
0.0
 40
10.0
100
AcDbArc
 50
90.0
 51
148.863801
  0
LINE
  5
B25D
330
B1CC
100
AcDbEntity
  8
1
  6
Continuous
100
AcDbLine
 10
197.003941
 20
213.577232
 30
0.0
 11
183.424779
 21
190.821949
 31
0.0
  0
LINE
  5
B25E
330
B1CC
100
AcDbEntity
  8
1
  6
Continuous
100
AcDbLine
 10
159.9484809999999
 20
223.70649
 30
0.0
 11
154.626125
 21
188.5219619999998
 31
0.0
  0
LINE
  5
B25F
330
B1CC
100
AcDbEntity
  8
1
  6
Continuous
100
AcDbLine
 10
83.954661
 20
222.5444899999998
 30
0.0
 11
83.954661
 21
194.3038249999999
 31
0.0
  0
LINE
  5
B260
330
B1CC
100
AcDbEntity
  8
1
  6
Continuous
100
AcDbLine
 10
34.454661
 20
222.5444899999998
 30
0.0
 11
34.454661
 21
192.971086
 31
0.0
  0
ARC
  5
B261
330
B1CC
100
AcDbEntity
  8
1
  6
Continuous
100
AcDbCircle
 10
37.916661
 20
222.5444899999998
 30
0.0
 40
3.461999999999998
100
AcDbArc
 50
90.0
 51
180.0
  0
ARC
  5
B262
330
B1CC
100
AcDbEntity
  8
1
  6
Continuous
100
AcDbCircle
 10
80.492661
 20
222.5444899999998
 30
0.0
 40
3.461999999999998
100
AcDbArc
 50
0.0
 51
90.0
  0
ARC
  5
B263
330
B1CC
100
AcDbEntity
  8
1
  6
Continuous
100
AcDbCircle
 10
79.454661
 20
192.971086
 30
0.0
 40
45.0
100
AcDbArc
 50
207.47971
 51
209.776794
  0
LINE
  5
B264
330
B1CC
100
AcDbEntity
  8
4
  6
CENTER
100
AcDbLine
 10
188.6691719999998
 20
104.3512089999999
 30
0.0
 11
188.6691719999998
 21
44.851209
 31
0.0
  0
LINE
  5
B265
330
B1CC
100
AcDbEntity
  8
4
  6
CENTER
100
AcDbLine
 10
218.419172
 20
74.60120899999998
 30
0.0
 11
121.1692379999998
 21
74.60120899999998
 31
0.0
  0
LINE
  5
B266
330
B1CC
100
AcDbEntity
  8
1
  6
Continuous
100
AcDbLine
 10
153.4691719999998
 20
93.409709
 30
0.0
 11
153.4691719999998
 21
91.10970899999999
 31
0.0
  0
LINE
  5
B267
330
B1CC
100
AcDbEntity
  8
1
  6
Continuous
100
AcDbLine
 10
153.4691719999998
 20
58.092709
 30
0.0
 11
153.4691719999998
 21
55.792709
 31
0.0
  0
LINE
  5
B268
330
B1CC
100
AcDbEntity
  8
4
  6
CENTER
100
AcDbLine
 10
163.6692469999998
 20
108.092526
 30
0.0
 11
163.6692469999998
 21
47.082408
 31
0.0
  0
LINE
  5
B269
330
B1CC
100
AcDbEntity
  8
1
  6
Continuous
100
AcDbLine
 10
153.4691719999998
 20
91.10970899999999
 30
0.0
 11
169.2363949999998
 21
91.10970899999999
 31
0.0
  0
LINE
  5
B26A
330
B1CC
100
AcDbEntity
  8
1
  6
Continuous
100
AcDbLine
 10
153.4691719999998
 20
55.792709
 30
0.0
 11
169.2363949999998
 21
55.792709
 31
0.0
  0
LINE
  5
B26B
330
B1CC
100
AcDbEntity
  8
1
  6
Continuous
100
AcDbLine
 10
153.4691719999998
 20
58.092709
 30
0.0
 11
169.2363949999998
 21
58.092709
 31
0.0
  0
ARC
  5
B26C
330
B1CC
100
AcDbEntity
  8
1
  6
Continuous
100
AcDbCircle
 10
188.6691719999998
 20
74.60120899999998
 30
0.0
 40
24.75
100
AcDbArc
 50
235.998362
 51
73.70093799999998
  0
ARC
  5
B26D
330
B1CC
100
AcDbEntity
  8
1
  6
Continuous
100
AcDbCircle
 10
188.6691719999998
 20
74.60120899999998
 30
0.0
 40
22.45
100
AcDbArc
 50
235.998362
 51
72.71909499999998
  0
ARC
  5
B26E
330
B1CC
100
AcDbEntity
  8
1
  6
Continuous
100
AcDbCircle
 10
188.6691719999998
 20
74.60120899999998
 30
0.0
 40
18.44999999999998
100
AcDbArc
 50
225.64192
 51
134.35808
  0
ARC
  5
B26F
330
B1CC
100
AcDbEntity
  8
1
  6
Continuous
100
AcDbCircle
 10
188.6691719999998
 20
74.60120899999998
 30
0.0
 40
20.44999999999999
100
AcDbArc
 50
225.1573849999998
 51
75.27459499999998
  0
ARC
  5
B270
330
B1CC
100
AcDbEntity
  8
1
  6
Continuous
100
AcDbCircle
 10
212.2482479999999
 20
74.60120899999998
 30
0.0
 40
55.579
100
AcDbArc
 50
162.720836
 51
164.877128
  0
ARC
  5
B271
330
B1CC
100
AcDbEntity
  8
1
  6
Continuous
100
AcDbCircle
 10
212.2482479999999
 20
74.60120899999998
 30
0.0
 40
55.579
100
AcDbArc
 50
195.1228719999998
 51
197.279164
  0
ARC
  5
B272
330
B1CC
100
AcDbEntity
  8
1
  6
Continuous
100
AcDbCircle
 10
257.8533489999999
 20
192.971041
 30
0.0
 40
45.0
100
AcDbArc
 50
333.6771109999999
 51
6.077233000000001
  0
ARC
  5
B273
330
B1CC
100
AcDbEntity
  8
1
  6
Continuous
100
AcDbCircle
 10
260.190847
 20
193.036659
 30
0.0
 40
45.0
100
AcDbArc
 50
333.035978
 51
3.794623999999998
  0
ARC
  5
B274
330
B1CC
100
AcDbEntity
  8
1
  6
Continuous
100
AcDbCircle
 10
272.969605
 20
192.243764
 30
0.0
 40
30.135401
100
AcDbArc
 50
10.499302
 51
18.221623
  0
ARC
  5
B275
330
B1CC
100
AcDbEntity
  8
1
  6
Continuous
100
AcDbCircle
 10
351.6019039999998
 20
171.25231
 30
0.0
 40
97.26650800000001
100
AcDbArc
 50
151.2652759999998
 51
161.778377
  0
ARC
  5
B276
330
B1CC
100
AcDbEntity
  8
1
  6
Continuous
100
AcDbCircle
 10
287.837146
 20
192.243764
 30
0.0
 40
30.135401
100
AcDbArc
 50
161.778377
 51
169.500698
  0
ARC
  5
B277
330
B1CC
100
AcDbEntity
  8
1
  6
Continuous
100
AcDbCircle
 10
302.9534019999999
 20
192.971041
 30
0.0
 40
45.0
100
AcDbArc
 50
173.922767
 51
194.2381949999999
  0
ARC
  5
B278
330
B1CC
100
AcDbEntity
  8
1
  6
Continuous
100
AcDbCircle
 10
269.496875
 20
223.633111
 30
0.0
 40
7.487396
100
AcDbArc
 50
240.6184049999999
 51
265.563802
  0
ARC
  5
B279
330
B1CC
100
AcDbEntity
  8
1
  6
Continuous
100
AcDbCircle
 10
291.799943
 20
223.994524
 30
0.0
 40
7.848514999999999
100
AcDbArc
 50
270.9161379999998
 51
294.920656
  0
ARC
  5
B27A
330
B1CC
100
AcDbEntity
  8
1
  6
Continuous
100
AcDbCircle
 10
163.6692469999998
 20
179.2064899999998
 30
0.0
 40
12.5
100
AcDbArc
 50
197.5517639999999
 51
315.013568
  0
ARC
  5
B27B
330
B1CC
100
AcDbEntity
  8
1
  6
Continuous
100
AcDbCircle
 10
163.6692469999998
 20
179.2064899999998
 30
0.0
 40
28.0
100
AcDbArc
 50
103.0579949999999
 51
152.626986
  0
ARC
  5
B27C
330
B1CC
100
AcDbEntity
  8
1
  6
Continuous
100
AcDbCircle
 10
163.6692469999998
 20
179.2064899999998
 30
0.0
 40
19.5
100
AcDbArc
 50
113.402507
 51
145.315396
  0
ARC
  5
B27D
330
B1CC
100
AcDbEntity
  8
1
  6
Continuous
100
AcDbCircle
 10
163.6692469999998
 20
179.2064899999998
 30
0.0
 40
37.5
100
AcDbArc
 50
97.39539
 51
157.203565
  0
ARC
  5
B27E
330
B1CC
100
AcDbEntity
  8
1
  6
Continuous
100
AcDbCircle
 10
141.169247
 20
74.60120899999998
 30
0.0
 40
60.0
100
AcDbArc
 50
351.1501169999998
 51
8.849883
  0
LINE
  5
B27F
330
B1CC
100
AcDbEntity
  8
1
  6
Continuous
100
AcDbLine
 10
176.1692469999999
 20
62.10120899999999
 30
0.0
 11
182.1787469999999
 21
63.57077
 31
0.0
  0
LINE
  5
B280
330
B1CC
100
AcDbEntity
  8
1
  6
Continuous
100
AcDbLine
 10
198.972794
 20
64.10120899999999
 30
0.0
 11
128.3657009999998
 21
64.10120899999999
 31
0.0
  0
LINE
  5
B281
330
B1CC
100
AcDbEntity
  8
1
  6
Continuous
100
AcDbLine
 10
182.591897
 20
64.10120899999999
 30
0.0
 11
182.3672929999999
 21
63.71218299999998
 31
0.0
  0
ARC
  5
B282
330
B1CC
100
AcDbEntity
  8
1
  6
Continuous
100
AcDbCircle
 10
182.107485
 20
63.86218299999999
 30
0.0
 40
0.3
100
AcDbArc
 50
283.741415
 51
330.0
  0
ARC
  5
B283
330
B1CC
100
AcDbEntity
  8
1
  6
Continuous
100
AcDbCircle
 10
198.972794
 20
65.601209
 30
0.0
 40
1.5
100
AcDbArc
 50
270.0
 51
351.1501169999998
  0
LINE
  5
B284
330
B1CC
100
AcDbEntity
  8
1
  6
Continuous
100
AcDbLine
 10
176.1692469999999
 20
62.10120899999999
 30
0.0
 11
175.0145469999999
 21
60.101209
 31
0.0
  0
LINE
  5
B285
330
B1CC
100
AcDbEntity
  8
1
  6
Continuous
100
AcDbLine
 10
152.3239479999998
 20
60.101209
 30
0.0
 11
175.0145469999999
 21
60.101209
 31
0.0
  0
LINE
  5
B286
330
B1CC
100
AcDbEntity
  8
1
  6
Continuous
100
AcDbLine
 10
151.1692469999998
 20
62.10120899999999
 30
0.0
 11
176.1692469999999
 21
62.10120899999999
 31
0.0
  0
LINE
  5
B287
330
B1CC
100
AcDbEntity
  8
1
  6
Continuous
100
AcDbLine
 10
159.6692469999998
 20
58.092709
 30
0.0
 11
159.6692469999998
 21
60.101209
 31
0.0
  0
LINE
  5
B288
330
B1CC
100
AcDbEntity
  8
1
  6
Continuous
100
AcDbLine
 10
167.6692469999998
 20
58.092709
 30
0.0
 11
167.6692469999998
 21
60.101209
 31
0.0
  0
LINE
  5
B289
330
B1CC
100
AcDbEntity
  8
1
  6
Continuous
100
AcDbLine
 10
176.1692469999999
 20
87.10120899999997
 30
0.0
 11
182.1787469999999
 21
85.631648
 31
0.0
  0
LINE
  5
B28A
330
B1CC
100
AcDbEntity
  8
1
  6
Continuous
100
AcDbLine
 10
198.972794
 20
85.10120899999998
 30
0.0
 11
128.3657009999998
 21
85.10120899999998
 31
0.0
  0
LINE
  5
B28B
330
B1CC
100
AcDbEntity
  8
1
  6
Continuous
100
AcDbLine
 10
182.591897
 20
85.10120899999998
 30
0.0
 11
182.3672929999999
 21
85.490235
 31
0.0
  0
ARC
  5
B28C
330
B1CC
100
AcDbEntity
  8
1
  6
Continuous
100
AcDbCircle
 10
182.107485
 20
85.34023499999998
 30
0.0
 40
0.3
100
AcDbArc
 50
30.0
 51
76.25858499999998
  0
ARC
  5
B28D
330
B1CC
100
AcDbEntity
  8
1
  6
Continuous
100
AcDbCircle
 10
198.972794
 20
83.60120899999998
 30
0.0
 40
1.5
100
AcDbArc
 50
8.849883
 51
90.0
  0
LINE
  5
B28E
330
B1CC
100
AcDbEntity
  8
1
  6
Continuous
100
AcDbLine
 10
159.6692469999998
 20
89.10120899999999
 30
0.0
 11
159.6692469999998
 21
91.10970899999999
 31
0.0
  0
LINE
  5
B28F
330
B1CC
100
AcDbEntity
  8
1
  6
Continuous
100
AcDbLine
 10
167.6692469999998
 20
89.10120899999999
 30
0.0
 11
167.6692469999998
 21
91.10970899999999
 31
0.0
  0
LINE
  5
B290
330
B1CC
100
AcDbEntity
  8
1
  6
Continuous
100
AcDbLine
 10
176.1692469999999
 20
87.10120899999997
 30
0.0
 11
175.0145469999999
 21
89.10120899999999
 31
0.0
  0
LINE
  5
B291
330
B1CC
100
AcDbEntity
  8
1
  6
Continuous
100
AcDbLine
 10
152.3239479999998
 20
89.10120899999999
 30
0.0
 11
175.0145469999999
 21
89.10120899999999
 31
0.0
  0
LINE
  5
B292
330
B1CC
100
AcDbEntity
  8
1
  6
Continuous
100
AcDbLine
 10
151.1692469999998
 20
87.10120899999997
 30
0.0
 11
176.1692469999999
 21
87.10120899999997
 31
0.0
  0
ARC
  5
B293
330
B1CC
100
AcDbEntity
  8
1
  6
Continuous
100
AcDbCircle
 10
186.1692469999999
 20
74.60120899999998
 30
0.0
 40
60.0
100
AcDbArc
 50
171.150117
 51
188.8498829999998
  0
LINE
  5
B294
330
B1CC
100
AcDbEntity
  8
1
  6
Continuous
100
AcDbLine
 10
144.746598
 20
64.10120899999999
 30
0.0
 11
144.9712019999998
 21
63.71218299999998
 31
0.0
  0
ARC
  5
B295
330
B1CC
100
AcDbEntity
  8
1
  6
Continuous
100
AcDbCircle
 10
145.231009
 20
63.86218299999999
 30
0.0
 40
0.3
100
AcDbArc
 50
210.0
 51
256.258585
  0
LINE
  5
B296
330
B1CC
100
AcDbEntity
  8
1
  6
Continuous
100
AcDbLine
 10
151.1692469999998
 20
62.10120899999999
 30
0.0
 11
152.3239479999998
 21
60.101209
 31
0.0
  0
LINE
  5
B297
330
B1CC
100
AcDbEntity
  8
1
  6
Continuous
100
AcDbLine
 10
151.1692469999998
 20
62.10120899999999
 30
0.0
 11
145.159747
 21
63.57077
 31
0.0
  0
ARC
  5
B298
330
B1CC
100
AcDbEntity
  8
1
  6
Continuous
100
AcDbCircle
 10
128.3657009999998
 20
65.601209
 30
0.0
 40
1.5
100
AcDbArc
 50
188.8498829999998
 51
270.0
  0
LINE
  5
B299
330
B1CC
100
AcDbEntity
  8
1
  6
Continuous
100
AcDbLine
 10
144.746598
 20
85.10120899999998
 30
0.0
 11
144.9712019999998
 21
85.490235
 31
0.0
  0
ARC
  5
B29A
330
B1CC
100
AcDbEntity
  8
1
  6
Continuous
100
AcDbCircle
 10
145.231009
 20
85.34023499999998
 30
0.0
 40
0.3
100
AcDbArc
 50
103.741415
 51
150.0
  0
LINE
  5
B29B
330
B1CC
100
AcDbEntity
  8
1
  6
Continuous
100
AcDbLine
 10
151.1692469999998
 20
87.10120899999997
 30
0.0
 11
152.3239479999998
 21
89.10120899999999
 31
0.0
  0
LINE
  5
B29C
330
B1CC
100
AcDbEntity
  8
1
  6
Continuous
100
AcDbLine
 10
151.1692469999998
 20
87.10120899999997
 30
0.0
 11
145.159747
 21
85.631648
 31
0.0
  0
ARC
  5
B29D
330
B1CC
100
AcDbEntity
  8
1
  6
Continuous
100
AcDbCircle
 10
128.3657009999998
 20
83.60120899999998
 30
0.0
 40
1.5
100
AcDbArc
 50
90.0
 51
171.150117
  0
LINE
  5
B29E
330
B1CC
100
AcDbEntity
  8
1
  6
Continuous
100
AcDbLine
 10
46.704661
 20
191.706535
 30
0.0
 11
46.704661
 21
166.706535
 31
0.0
  0
LINE
  5
B29F
330
B1CC
100
AcDbEntity
  8
1
  6
Continuous
100
AcDbLine
 10
44.704661
 20
190.551834
 30
0.0
 11
44.704661
 21
167.8612349999999
 31
0.0
  0
LINE
  5
B2A0
330
B1CC
100
AcDbEntity
  8
1
  6
Continuous
100
AcDbLine
 10
73.704661
 20
177.417706
 30
0.0
 11
73.704661
 21
167.8612349999999
 31
0.0
  0
LINE
  5
B2A1
330
B1CC
100
AcDbEntity
  8
1
  6
Continuous
100
AcDbLine
 10
71.704661
 20
177.636725
 30
0.0
 11
71.704661
 21
166.706535
 31
0.0
  0
LINE
  5
B2A2
330
B1CC
100
AcDbEntity
  8
1
  6
Continuous
100
AcDbLine
 10
69.704661
 20
143.9029879999999
 30
0.0
 11
69.704661
 21
214.510081
 31
0.0
  0
LINE
  5
B2A3
330
B1CC
100
AcDbEntity
  8
1
  6
Continuous
100
AcDbLine
 10
48.704661
 20
143.9029879999999
 30
0.0
 11
48.704661
 21
214.510081
 31
0.0
  0
ARC
  5
B2A4
330
B1CC
100
AcDbEntity
  8
1
  6
Continuous
100
AcDbCircle
 10
59.204661
 20
201.706535
 30
0.0
 40
60.0
100
AcDbArc
 50
261.1501169999999
 51
278.8498829999999
  0
ARC
  5
B2A5
330
B1CC
100
AcDbEntity
  8
1
  6
Continuous
100
AcDbCircle
 10
50.204661
 20
143.9029879999999
 30
0.0
 40
1.5
100
AcDbArc
 50
180.0
 51
261.1501169999999
  0
LINE
  5
B2A6
330
B1CC
100
AcDbEntity
  8
1
  6
Continuous
100
AcDbLine
 10
46.704661
 20
166.706535
 30
0.0
 11
44.704661
 21
167.8612349999999
 31
0.0
  0
ARC
  5
B2A7
330
B1CC
100
AcDbEntity
  8
1
  6
Continuous
100
AcDbCircle
 10
48.465635
 20
160.7682969999999
 30
0.0
 40
0.3
100
AcDbArc
 50
193.741415
 51
239.9999999999999
  0
LINE
  5
B2A8
330
B1CC
100
AcDbEntity
  8
1
  6
Continuous
100
AcDbLine
 10
48.704661
 20
160.2838849999999
 30
0.0
 11
48.315635
 21
160.508489
 31
0.0
  0
LINE
  5
B2A9
330
B1CC
100
AcDbEntity
  8
1
  6
Continuous
100
AcDbLine
 10
46.704661
 20
166.706535
 30
0.0
 11
48.174222
 21
160.697035
 31
0.0
  0
ARC
  5
B2AA
330
B1CC
100
AcDbEntity
  8
1
  6
Continuous
100
AcDbCircle
 10
68.204661
 20
143.9029879999999
 30
0.0
 40
1.5
100
AcDbArc
 50
278.8498829999999
 51
0.0
  0
LINE
  5
B2AB
330
B1CC
100
AcDbEntity
  8
1
  6
Continuous
100
AcDbLine
 10
71.704661
 20
166.706535
 30
0.0
 11
73.704661
 21
167.8612349999999
 31
0.0
  0
ARC
  5
B2AC
330
B1CC
100
AcDbEntity
  8
1
  6
Continuous
100
AcDbCircle
 10
69.94368699999999
 20
160.7682969999999
 30
0.0
 40
0.3
100
AcDbArc
 50
300.0
 51
346.2585849999999
  0
LINE
  5
B2AD
330
B1CC
100
AcDbEntity
  8
1
  6
Continuous
100
AcDbLine
 10
69.704661
 20
160.2838849999999
 30
0.0
 11
70.093687
 21
160.508489
 31
0.0
  0
LINE
  5
B2AE
330
B1CC
100
AcDbEntity
  8
1
  6
Continuous
100
AcDbLine
 10
71.704661
 20
166.706535
 30
0.0
 11
70.2351
 21
160.697035
 31
0.0
  0
ARC
  5
B2AF
330
B1CC
100
AcDbEntity
  8
1
  6
Continuous
100
AcDbCircle
 10
59.204661
 20
156.706535
 30
0.0
 40
60.0
100
AcDbArc
 50
81.15011700000001
 51
98.84988300000001
  0
LINE
  5
B2B0
330
B1CC
100
AcDbEntity
  8
1
  6
Continuous
100
AcDbLine
 10
46.704661
 20
191.706535
 30
0.0
 11
48.174222
 21
197.716035
 31
0.0
  0
LINE
  5
B2B1
330
B1CC
100
AcDbEntity
  8
1
  6
Continuous
100
AcDbLine
 10
46.704661
 20
191.706535
 30
0.0
 11
44.704661
 21
190.551834
 31
0.0
  0
ARC
  5
B2B2
330
B1CC
100
AcDbEntity
  8
1
  6
Continuous
100
AcDbCircle
 10
48.465635
 20
197.6447729999999
 30
0.0
 40
0.3
100
AcDbArc
 50
119.9999999999999
 51
166.258585
  0
LINE
  5
B2B3
330
B1CC
100
AcDbEntity
  8
1
  6
Continuous
100
AcDbLine
 10
48.704661
 20
198.129184
 30
0.0
 11
48.315635
 21
197.90458
 31
0.0
  0
ARC
  5
B2B4
330
B1CC
100
AcDbEntity
  8
1
  6
Continuous
100
AcDbCircle
 10
50.204661
 20
214.510081
 30
0.0
 40
1.5
100
AcDbArc
 50
98.84988300000001
 51
180.0
  0
LINE
  5
B2B5
330
B1CC
100
AcDbEntity
  8
1
  6
Continuous
100
AcDbLine
 10
71.09045400000002
 20
194.2182239999999
 30
0.0
 11
70.2351
 21
197.716035
 31
0.0
  0
ARC
  5
B2B6
330
B1CC
100
AcDbEntity
  8
1
  6
Continuous
100
AcDbCircle
 10
69.94368699999999
 20
197.6447729999999
 30
0.0
 40
0.3
100
AcDbArc
 50
13.741415
 51
60.0
  0
LINE
  5
B2B7
330
B1CC
100
AcDbEntity
  8
1
  6
Continuous
100
AcDbLine
 10
69.704661
 20
198.129184
 30
0.0
 11
70.093687
 21
197.90458
 31
0.0
  0
ARC
  5
B2B8
330
B1CC
100
AcDbEntity
  8
1
  6
Continuous
100
AcDbCircle
 10
68.204661
 20
214.510081
 30
0.0
 40
1.5
100
AcDbArc
 50
0.0
 51
81.15011700000001
  0
LINE
  5
B2B9
330
B1CC
100
AcDbEntity
  8
1
  6
Continuous
100
AcDbLine
 10
47.719019
 20
216.1681919999999
 30
0.0
 11
51.16181199999999
 21
216.1650299999998
 31
0.0
  0
LINE
  5
B2BA
330
B1CC
100
AcDbEntity
  8
1
  6
Continuous
100
AcDbLine
 10
67.35673299999999
 20
216.1501529999999
 30
0.0
 11
70.72671899999997
 21
216.147058
 31
0.0
  0
LINE
  5
B2BB
330
B1CC
100
AcDbEntity
  8
1
  6
Continuous
100
AcDbLine
 10
269.9033759999999
 20
143.9029429999999
 30
0.0
 11
269.9033759999999
 21
214.5100359999999
 31
0.0
  0
LINE
  5
B2BC
330
B1CC
100
AcDbEntity
  8
1
  6
Continuous
100
AcDbLine
 10
290.9033759999999
 20
143.9029429999999
 30
0.0
 11
290.9033759999999
 21
214.5100359999999
 31
0.0
  0
ARC
  5
B2BD
330
B1CC
100
AcDbEntity
  8
1
  6
Continuous
100
AcDbCircle
 10
280.4033759999999
 20
201.70649
 30
0.0
 40
60.0
100
AcDbArc
 50
261.1501169999999
 51
278.8498829999999
  0
ARC
  5
B2BE
330
B1CC
100
AcDbEntity
  8
1
  6
Continuous
100
AcDbCircle
 10
271.4033759999999
 20
143.9029429999999
 30
0.0
 40
1.5
100
AcDbArc
 50
180.0
 51
261.1501169999999
  0
ARC
  5
B2BF
330
B1CC
100
AcDbEntity
  8
1
  6
Continuous
100
AcDbCircle
 10
289.4033759999999
 20
143.9029429999999
 30
0.0
 40
1.5
100
AcDbArc
 50
278.8498829999999
 51
0.0
  0
LINE
  5
B2C0
330
B1CC
100
AcDbEntity
  8
1
  6
Continuous
100
AcDbLine
 10
265.9033759999999
 20
190.5517889999999
 30
0.0
 11
265.9033759999999
 21
167.8611899999999
 31
0.0
  0
LINE
  5
B2C1
330
B1CC
100
AcDbEntity
  8
1
  6
Continuous
100
AcDbLine
 10
267.9033759999999
 20
191.7064899999998
 30
0.0
 11
267.9033759999999
 21
166.7064899999998
 31
0.0
  0
LINE
  5
B2C2
330
B1CC
100
AcDbEntity
  8
1
  6
Continuous
100
AcDbLine
 10
265.9033759999999
 20
175.20649
 30
0.0
 11
263.8948759999999
 21
175.20649
 31
0.0
  0
LINE
  5
B2C3
330
B1CC
100
AcDbEntity
  8
1
  6
Continuous
100
AcDbLine
 10
267.9033759999999
 20
166.7064899999998
 30
0.0
 11
265.9033759999999
 21
167.8611899999999
 31
0.0
  0
ARC
  5
B2C4
330
B1CC
100
AcDbEntity
  8
1
  6
Continuous
100
AcDbCircle
 10
269.6643499999999
 20
160.768252
 30
0.0
 40
0.3
100
AcDbArc
 50
193.741415
 51
239.9999999999999
  0
LINE
  5
B2C5
330
B1CC
100
AcDbEntity
  8
1
  6
Continuous
100
AcDbLine
 10
269.9033759999999
 20
160.2838399999999
 30
0.0
 11
269.5143499999999
 21
160.5084439999999
 31
0.0
  0
LINE
  5
B2C6
330
B1CC
100
AcDbEntity
  8
1
  6
Continuous
100
AcDbLine
 10
267.9033759999999
 20
166.7064899999998
 30
0.0
 11
269.3729369999999
 21
160.6969899999998
 31
0.0
  0
LINE
  5
B2C7
330
B1CC
100
AcDbEntity
  8
1
  6
Continuous
100
AcDbLine
 10
265.9033759999999
 20
183.2064899999998
 30
0.0
 11
263.8948759999999
 21
183.2064899999998
 31
0.0
  0
LINE
  5
B2C8
330
B1CC
100
AcDbEntity
  8
1
  6
Continuous
100
AcDbLine
 10
267.9033759999999
 20
191.7064899999998
 30
0.0
 11
269.3729369999999
 21
197.7159899999998
 31
0.0
  0
LINE
  5
B2C9
330
B1CC
100
AcDbEntity
  8
1
  6
Continuous
100
AcDbLine
 10
267.9033759999999
 20
191.7064899999998
 30
0.0
 11
265.9033759999999
 21
190.5517889999999
 31
0.0
  0
ARC
  5
B2CA
330
B1CC
100
AcDbEntity
  8
1
  6
Continuous
100
AcDbCircle
 10
269.6643499999999
 20
197.644728
 30
0.0
 40
0.3
100
AcDbArc
 50
119.9999999999999
 51
166.258585
  0
LINE
  5
B2CB
330
B1CC
100
AcDbEntity
  8
1
  6
Continuous
100
AcDbLine
 10
269.9033759999999
 20
198.1291389999999
 30
0.0
 11
269.5143499999999
 21
197.9045349999999
 31
0.0
  0
LINE
  5
B2CC
330
B1CC
100
AcDbEntity
  8
1
  6
Continuous
100
AcDbLine
 10
292.9033759999999
 20
191.7064899999998
 30
0.0
 11
292.9033759999999
 21
166.7064899999998
 31
0.0
  0
LINE
  5
B2CD
330
B1CC
100
AcDbEntity
  8
1
  6
Continuous
100
AcDbLine
 10
294.9033759999998
 20
190.5517889999999
 30
0.0
 11
294.9033759999998
 21
167.8611899999999
 31
0.0
  0
LINE
  5
B2CE
330
B1CC
100
AcDbEntity
  8
1
  6
Continuous
100
AcDbLine
 10
296.9118759999998
 20
175.20649
 30
0.0
 11
294.9033759999998
 21
175.20649
 31
0.0
  0
LINE
  5
B2CF
330
B1CC
100
AcDbEntity
  8
1
  6
Continuous
100
AcDbLine
 10
292.9033759999999
 20
166.7064899999998
 30
0.0
 11
294.9033759999998
 21
167.8611899999999
 31
0.0
  0
ARC
  5
B2D0
330
B1CC
100
AcDbEntity
  8
1
  6
Continuous
100
AcDbCircle
 10
291.142402
 20
160.768252
 30
0.0
 40
0.3
100
AcDbArc
 50
300.0
 51
346.2585849999999
  0
LINE
  5
B2D1
330
B1CC
100
AcDbEntity
  8
1
  6
Continuous
100
AcDbLine
 10
290.9033759999999
 20
160.2838399999999
 30
0.0
 11
291.2924019999999
 21
160.5084439999999
 31
0.0
  0
LINE
  5
B2D2
330
B1CC
100
AcDbEntity
  8
1
  6
Continuous
100
AcDbLine
 10
292.9033759999999
 20
166.7064899999998
 30
0.0
 11
291.4338149999998
 21
160.6969899999998
 31
0.0
  0
LINE
  5
B2D3
330
B1CC
100
AcDbEntity
  8
1
  6
Continuous
100
AcDbLine
 10
292.9033759999999
 20
191.7064899999998
 30
0.0
 11
291.4338149999998
 21
197.7159899999998
 31
0.0
  0
LINE
  5
B2D4
330
B1CC
100
AcDbEntity
  8
1
  6
Continuous
100
AcDbLine
 10
292.9033759999999
 20
191.7064899999998
 30
0.0
 11
294.9033759999998
 21
190.5517889999999
 31
0.0
  0
ARC
  5
B2D5
330
B1CC
100
AcDbEntity
  8
1
  6
Continuous
100
AcDbCircle
 10
291.142402
 20
197.644728
 30
0.0
 40
0.3
100
AcDbArc
 50
13.741415
 51
60.0
  0
LINE
  5
B2D6
330
B1CC
100
AcDbEntity
  8
1
  6
Continuous
100
AcDbLine
 10
296.9118759999998
 20
183.2064899999998
 30
0.0
 11
294.9033759999998
 21
183.2064899999998
 31
0.0
  0
LINE
  5
B2D7
330
B1CC
100
AcDbEntity
  8
1
  6
Continuous
100
AcDbLine
 10
290.9033759999999
 20
198.1291389999999
 30
0.0
 11
291.2924019999999
 21
197.9045349999999
 31
0.0
  0
ARC
  5
B2D8
330
B1CC
100
AcDbEntity
  8
1
  6
Continuous
100
AcDbCircle
 10
280.4033759999999
 20
156.70649
 30
0.0
 40
60.0
100
AcDbArc
 50
81.15011700000001
 51
82.16004899999999
  0
ARC
  5
B2D9
330
B1CC
100
AcDbEntity
  8
1
  6
Continuous
100
AcDbCircle
 10
271.4033759999999
 20
214.5100359999999
 30
0.0
 40
1.5
100
AcDbArc
 50
98.84988300000001
 51
180.0
  0
ARC
  5
B2DA
330
B1CC
100
AcDbEntity
  8
1
  6
Continuous
100
AcDbCircle
 10
289.4033759999999
 20
214.5100359999999
 30
0.0
 40
1.5
100
AcDbArc
 50
0.0
 51
81.15011700000001
  0
ARC
  5
B2DB
330
B1CC
100
AcDbEntity
  8
1
  6
Continuous
100
AcDbCircle
 10
285.1360389999999
 20
194.6911659999999
 30
0.0
 40
20.0
100
AcDbArc
 50
3.794623999999998
 51
17.154698
  0
ARC
  5
B2DC
330
B1CC
100
AcDbEntity
  8
1
  6
Continuous
100
AcDbCircle
 10
351.6019039999998
 20
171.25231
 30
0.0
 40
99.466508
100
AcDbArc
 50
154.2684
 51
162.845302
  0
ARC
  5
B2DD
330
B1CC
100
AcDbEntity
  8
1
  6
Continuous
100
AcDbCircle
 10
275.6707119999999
 20
194.6911659999999
 30
0.0
 40
20.0
100
AcDbArc
 50
162.845302
 51
176.205376
  0
ARC
  5
B2DE
330
B1CC
100
AcDbEntity
  8
1
  6
Continuous
100
AcDbCircle
 10
300.615904
 20
193.036659
 30
0.0
 40
45.0
100
AcDbArc
 50
176.205376
 51
184.233448
  0
ARC
  5
B2DF
330
B1CC
100
AcDbEntity
  8
1
  6
Continuous
100
AcDbCircle
 10
309.2118759999999
 20
168.0979589999998
 30
0.0
 40
10.0
100
AcDbArc
 50
153.0359779999998
 51
180.0
  0
ARC
  5
B2E0
330
B1CC
100
AcDbEntity
  8
1
  6
Continuous
100
AcDbCircle
 10
309.2118759999999
 20
167.5625419999998
 30
0.0
 40
12.3
100
AcDbArc
 50
153.677111
 51
179.329451
  0
LINE
  5
B2E1
330
B1CC
100
AcDbEntity
  8
1
  6
Continuous
100
AcDbLine
 10
296.9118759999998
 20
213.302883
 30
0.0
 11
296.9118759999998
 21
167.7064899999998
 31
0.0
  0
ARC
  5
B2E2
330
B1CC
100
AcDbEntity
  8
1
  6
Continuous
100
AcDbCircle
 10
251.5948759999999
 20
167.5625419999998
 30
0.0
 40
12.3
100
AcDbArc
 50
0.670549
 51
26.322889
  0
ARC
  5
B2E3
330
B1CC
100
AcDbEntity
  8
1
  6
Continuous
100
AcDbCircle
 10
251.5948759999999
 20
168.0979589999998
 30
0.0
 40
10.0
100
AcDbArc
 50
0.0
 51
26.96402199999999
  0
LINE
  5
B2E4
330
B1CC
100
AcDbEntity
  8
1
  6
Continuous
100
AcDbLine
 10
269.1554759999998
 20
216.137841
 30
0.0
 11
291.925433
 21
216.147012
 31
0.0
  0
ARC
  5
B2E5
330
B1CC
100
AcDbEntity
  8
1
  6
Continuous
100
AcDbCircle
 10
280.4033759999999
 20
156.70649
 30
0.0
 40
60.0
100
AcDbArc
 50
97.88610400000003
 51
98.84988300000001
  0
LINE
  5
B2E6
330
B1CC
100
AcDbEntity
  8
1
  6
Continuous
100
AcDbLine
 10
268.917733
 20
216.168147
 30
0.0
 11
269.1554759999998
 21
216.137841
 31
0.0
  0
ARC
  5
B2E7
330
B1CC
100
AcDbEntity
  8
1
  6
Continuous
100
AcDbCircle
 10
200.065815
 20
223.994524
 30
0.0
 40
7.848514999999999
100
AcDbArc
 50
270.9161379999998
 51
314.603254
  0
LINE
  5
B2E8
330
B1CC
100
AcDbEntity
  8
1
  6
Continuous
100
AcDbLine
 10
199.233205
 20
216.1478919999999
 30
0.0
 11
200.191305
 21
216.147012
 31
0.0
  0
LINE
  5
B2E9
330
B1CC
100
AcDbEntity
  8
1
  6
Continuous
100
AcDbLine
 10
286.4033759999998
 20
236.7066349999999
 30
0.0
 11
286.4033759999998
 21
275.706635
 31
0.0
  0
LINE
  5
B2EA
330
B1CC
100
AcDbEntity
  8
1
  6
Continuous
100
AcDbLine
 10
274.4033759999999
 20
236.7066349999999
 30
0.0
 11
274.4033759999999
 21
275.706635
 31
0.0
  0
LINE
  5
B2EB
330
B1CC
100
AcDbEntity
  8
1
  6
Continuous
100
AcDbLine
 10
299.561757
 20
226.0064899999999
 30
0.0
 11
297.373939
 21
227.721309
 31
0.0
  0
LINE
  5
B2EC
330
B1CC
100
AcDbEntity
  8
1
  6
Continuous
100
AcDbLine
 10
298.014547
 20
226.0064899999999
 30
0.0
 11
300.2023659999999
 21
227.721309
 31
0.0
  0
LINE
  5
B2ED
330
B1CC
100
AcDbEntity
  8
1
  6
Continuous
100
AcDbLine
 10
296.6003339999998
 20
226.0064899999999
 30
0.0
 11
298.7881520000001
 21
227.721309
 31
0.0
  0
ARC
  5
B2EE
330
B1CC
100
AcDbEntity
  8
1
  6
Continuous
100
AcDbCircle
 10
297.050229
 20
226.593017
 30
0.0
 40
6.113617999999997
100
AcDbArc
 50
25.277722
 51
90.0
  0
LINE
  5
B2EF
330
B1CC
100
AcDbEntity
  8
1
  6
Continuous
100
AcDbLine
 10
257.4033759999999
 20
227.721309
 30
0.0
 11
303.4033759999999
 21
227.721309
 31
0.0
  0
LINE
  5
B2F0
330
B1CC
100
AcDbEntity
  8
1
  6
Continuous
100
AcDbLine
 10
258.228292
 20
229.20357
 30
0.0
 11
302.57846
 21
229.20357
 31
0.0
  0
LINE
  5
B2F1
330
B1CC
100
AcDbEntity
  8
1
  6
Continuous
100
AcDbLine
 10
267.034845
 20
226.0064899999999
 30
0.0
 11
264.847027
 21
227.721309
 31
0.0
  0
LINE
  5
B2F2
330
B1CC
100
AcDbEntity
  8
1
  6
Continuous
100
AcDbLine
 10
264.073422
 20
226.0064899999999
 30
0.0
 11
266.2612399999998
 21
227.721309
 31
0.0
  0
LINE
  5
B2F3
330
B1CC
100
AcDbEntity
  8
1
  6
Continuous
100
AcDbLine
 10
265.487635
 20
226.0064899999999
 30
0.0
 11
267.675454
 21
227.721309
 31
0.0
  0
LINE
  5
B2F4
330
B1CC
100
AcDbEntity
  8
1
  6
Continuous
100
AcDbLine
 10
293.4033759999999
 20
236.7066349999999
 30
0.0
 11
267.4033759999999
 21
236.7066349999999
 31
0.0
  0
LINE
  5
B2F5
330
B1CC
100
AcDbEntity
  8
1
  6
Continuous
100
AcDbLine
 10
297.050229
 20
232.7066349999999
 30
0.0
 11
263.756523
 21
232.7066349999999
 31
0.0
  0
ARC
  5
B2F6
330
B1CC
100
AcDbEntity
  8
1
  6
Continuous
100
AcDbCircle
 10
263.756523
 20
226.593017
 30
0.0
 40
6.113617999999997
100
AcDbArc
 50
90.0
 51
154.722278
  0
LINE
  5
B2F7
330
B1CC
100
AcDbEntity
  8
1
  6
Continuous
100
AcDbLine
 10
257.4033759999999
 20
227.1526779999999
 30
0.0
 11
258.5495639999999
 21
226.0064899999999
 31
0.0
  0
LINE
  5
B2F8
330
B1CC
100
AcDbEntity
  8
1
  6
Continuous
100
AcDbLine
 10
257.4033759999999
 20
227.8217259999999
 30
0.0
 11
257.7759589999998
 21
227.721309
 31
0.0
  0
LINE
  5
B2F9
330
B1CC
100
AcDbEntity
  8
1
  6
Continuous
100
AcDbLine
 10
257.4033759999999
 20
226.407512
 30
0.0
 11
259.190173
 21
227.721309
 31
0.0
  0
LINE
  5
B2FA
330
B1CC
100
AcDbEntity
  8
1
  6
Continuous
100
AcDbLine
 10
257.413292
 20
229.20357
 30
0.0
 11
258.228292
 21
229.20357
 31
0.0
  0
LINE
  5
B2FB
330
B1CC
100
AcDbEntity
  8
1
  6
Continuous
100
AcDbLine
 10
257.4033759999999
 20
227.721309
 30
0.0
 11
257.4033759999999
 21
226.0064899999999
 31
0.0
  0
ARC
  5
B2FC
330
B1CC
100
AcDbEntity
  8
1
  6
Continuous
100
AcDbCircle
 10
261.0147739999999
 20
230.7537979999999
 30
0.0
 40
4.697225
100
AcDbArc
 50
206.286695
 51
220.210037
  0
ARC
  5
B2FD
330
B1CC
100
AcDbEntity
  8
1
  6
Continuous
100
AcDbCircle
 10
257.6772619999999
 20
228.283717
 30
0.0
 40
0.9569799999999998
100
AcDbArc
 50
106.011913
 51
155.9597349999999
  0
LINE
  5
B2FE
330
B1CC
100
AcDbEntity
  8
1
  6
Continuous
100
AcDbLine
 10
259.963778
 20
226.0064899999999
 30
0.0
 11
257.7759589999998
 21
227.721309
 31
0.0
  0
LINE
  5
B2FF
330
B1CC
100
AcDbEntity
  8
1
  6
Continuous
100
AcDbLine
 10
261.377991
 20
226.0064899999999
 30
0.0
 11
259.190173
 21
227.721309
 31
0.0
  0
LINE
  5
B300
330
B1CC
100
AcDbEntity
  8
1
  6
Continuous
100
AcDbLine
 10
262.7922049999999
 20
226.0064899999999
 30
0.0
 11
260.6043859999999
 21
227.721309
 31
0.0
  0
LINE
  5
B301
330
B1CC
100
AcDbEntity
  8
1
  6
Continuous
100
AcDbLine
 10
264.2064179999999
 20
226.0064899999999
 30
0.0
 11
262.0185999999999
 21
227.721309
 31
0.0
  0
LINE
  5
B302
330
B1CC
100
AcDbEntity
  8
1
  6
Continuous
100
AcDbLine
 10
265.6206319999999
 20
226.0064899999999
 30
0.0
 11
263.432813
 21
227.721309
 31
0.0
  0
LINE
  5
B303
330
B1CC
100
AcDbEntity
  8
1
  6
Continuous
100
AcDbLine
 10
258.4165679999999
 20
226.0064899999999
 30
0.0
 11
260.6043859999999
 21
227.721309
 31
0.0
  0
LINE
  5
B304
330
B1CC
100
AcDbEntity
  8
1
  6
Continuous
100
AcDbLine
 10
259.830781
 20
226.0064899999999
 30
0.0
 11
262.0185999999999
 21
227.721309
 31
0.0
  0
LINE
  5
B305
330
B1CC
100
AcDbEntity
  8
1
  6
Continuous
100
AcDbLine
 10
261.244995
 20
226.0064899999999
 30
0.0
 11
263.432813
 21
227.721309
 31
0.0
  0
LINE
  5
B306
330
B1CC
100
AcDbEntity
  8
1
  6
Continuous
100
AcDbLine
 10
262.6592079999999
 20
226.0064899999999
 30
0.0
 11
264.847027
 21
227.721309
 31
0.0
  0
LINE
  5
B307
330
B1CC
100
AcDbEntity
  8
1
  6
Continuous
100
AcDbLine
 10
284.0054079999998
 20
226.0064899999999
 30
0.0
 11
281.8175899999999
 21
227.721309
 31
0.0
  0
LINE
  5
B308
330
B1CC
100
AcDbEntity
  8
1
  6
Continuous
100
AcDbLine
 10
282.591195
 20
226.0064899999999
 30
0.0
 11
280.4033759999999
 21
227.721309
 31
0.0
  0
LINE
  5
B309
330
B1CC
100
AcDbEntity
  8
1
  6
Continuous
100
AcDbLine
 10
281.043985
 20
226.0064899999999
 30
0.0
 11
283.2318029999999
 21
227.721309
 31
0.0
  0
LINE
  5
B30A
330
B1CC
100
AcDbEntity
  8
1
  6
Continuous
100
AcDbLine
 10
275.520127
 20
226.0064899999999
 30
0.0
 11
273.332308
 21
227.721309
 31
0.0
  0
LINE
  5
B30B
330
B1CC
100
AcDbEntity
  8
1
  6
Continuous
100
AcDbLine
 10
272.5587029999999
 20
226.0064899999999
 30
0.0
 11
274.746522
 21
227.721309
 31
0.0
  0
LINE
  5
B30C
330
B1CC
100
AcDbEntity
  8
1
  6
Continuous
100
AcDbLine
 10
273.9729169999999
 20
226.0064899999999
 30
0.0
 11
276.1607349999998
 21
227.721309
 31
0.0
  0
LINE
  5
B30D
330
B1CC
100
AcDbEntity
  8
1
  6
Continuous
100
AcDbLine
 10
268.4490589999999
 20
226.0064899999999
 30
0.0
 11
266.2612399999998
 21
227.721309
 31
0.0
  0
LINE
  5
B30E
330
B1CC
100
AcDbEntity
  8
1
  6
Continuous
100
AcDbLine
 10
269.8632719999998
 20
226.0064899999999
 30
0.0
 11
267.675454
 21
227.721309
 31
0.0
  0
LINE
  5
B30F
330
B1CC
100
AcDbEntity
  8
1
  6
Continuous
100
AcDbLine
 10
271.277486
 20
226.0064899999999
 30
0.0
 11
269.089667
 21
227.721309
 31
0.0
  0
LINE
  5
B310
330
B1CC
100
AcDbEntity
  8
1
  6
Continuous
100
AcDbLine
 10
272.6917
 20
226.0064899999999
 30
0.0
 11
270.503881
 21
227.721309
 31
0.0
  0
LINE
  5
B311
330
B1CC
100
AcDbEntity
  8
1
  6
Continuous
100
AcDbLine
 10
274.105913
 20
226.0064899999999
 30
0.0
 11
271.918095
 21
227.721309
 31
0.0
  0
LINE
  5
B312
330
B1CC
100
AcDbEntity
  8
1
  6
Continuous
100
AcDbLine
 10
266.901849
 20
226.0064899999999
 30
0.0
 11
269.089667
 21
227.721309
 31
0.0
  0
LINE
  5
B313
330
B1CC
100
AcDbEntity
  8
1
  6
Continuous
100
AcDbLine
 10
268.3160629999998
 20
226.0064899999999
 30
0.0
 11
270.503881
 21
227.721309
 31
0.0
  0
LINE
  5
B314
330
B1CC
100
AcDbEntity
  8
1
  6
Continuous
100
AcDbLine
 10
269.7302759999999
 20
226.0064899999999
 30
0.0
 11
271.918095
 21
227.721309
 31
0.0
  0
LINE
  5
B315
330
B1CC
100
AcDbEntity
  8
1
  6
Continuous
100
AcDbLine
 10
271.14449
 20
226.0064899999999
 30
0.0
 11
273.332308
 21
227.721309
 31
0.0
  0
LINE
  5
B316
330
B1CC
100
AcDbEntity
  8
1
  6
Continuous
100
AcDbLine
 10
276.9343399999999
 20
226.0064899999999
 30
0.0
 11
274.746522
 21
227.721309
 31
0.0
  0
LINE
  5
B317
330
B1CC
100
AcDbEntity
  8
1
  6
Continuous
100
AcDbLine
 10
278.348554
 20
226.0064899999999
 30
0.0
 11
276.1607349999998
 21
227.721309
 31
0.0
  0
LINE
  5
B318
330
B1CC
100
AcDbEntity
  8
1
  6
Continuous
100
AcDbLine
 10
279.762767
 20
226.0064899999999
 30
0.0
 11
277.5749489999999
 21
227.721309
 31
0.0
  0
LINE
  5
B319
330
B1CC
100
AcDbEntity
  8
1
  6
Continuous
100
AcDbLine
 10
281.176981
 20
226.0064899999999
 30
0.0
 11
278.989162
 21
227.721309
 31
0.0
  0
LINE
  5
B31A
330
B1CC
100
AcDbEntity
  8
1
  6
Continuous
100
AcDbLine
 10
275.3871299999999
 20
226.0064899999999
 30
0.0
 11
277.5749489999999
 21
227.721309
 31
0.0
  0
LINE
  5
B31B
330
B1CC
100
AcDbEntity
  8
1
  6
Continuous
100
AcDbLine
 10
276.8013439999999
 20
226.0064899999999
 30
0.0
 11
278.989162
 21
227.721309
 31
0.0
  0
LINE
  5
B31C
330
B1CC
100
AcDbEntity
  8
1
  6
Continuous
100
AcDbLine
 10
279.629771
 20
226.0064899999999
 30
0.0
 11
281.8175899999999
 21
227.721309
 31
0.0
  0
LINE
  5
B31D
330
B1CC
100
AcDbEntity
  8
1
  6
Continuous
100
AcDbLine
 10
278.215557
 20
226.0064899999999
 30
0.0
 11
280.4033759999999
 21
227.721309
 31
0.0
  0
LINE
  5
B31E
330
B1CC
100
AcDbEntity
  8
1
  6
Continuous
100
AcDbLine
 10
292.4906889999999
 20
226.0064899999999
 30
0.0
 11
290.302871
 21
227.721309
 31
0.0
  0
LINE
  5
B31F
330
B1CC
100
AcDbEntity
  8
1
  6
Continuous
100
AcDbLine
 10
291.0764759999998
 20
226.0064899999999
 30
0.0
 11
288.888657
 21
227.721309
 31
0.0
  0
LINE
  5
B320
330
B1CC
100
AcDbEntity
  8
1
  6
Continuous
100
AcDbLine
 10
289.5292659999999
 20
226.0064899999999
 30
0.0
 11
291.717084
 21
227.721309
 31
0.0
  0
LINE
  5
B321
330
B1CC
100
AcDbEntity
  8
1
  6
Continuous
100
AcDbLine
 10
289.662262
 20
226.0064899999999
 30
0.0
 11
287.474444
 21
227.721309
 31
0.0
  0
LINE
  5
B322
330
B1CC
100
AcDbEntity
  8
1
  6
Continuous
100
AcDbLine
 10
288.2480489999998
 20
226.0064899999999
 30
0.0
 11
286.06023
 21
227.721309
 31
0.0
  0
LINE
  5
B323
330
B1CC
100
AcDbEntity
  8
1
  6
Continuous
100
AcDbLine
 10
286.833835
 20
226.0064899999999
 30
0.0
 11
284.6460169999998
 21
227.721309
 31
0.0
  0
LINE
  5
B324
330
B1CC
100
AcDbEntity
  8
1
  6
Continuous
100
AcDbLine
 10
285.419622
 20
226.0064899999999
 30
0.0
 11
283.2318029999999
 21
227.721309
 31
0.0
  0
LINE
  5
B325
330
B1CC
100
AcDbEntity
  8
1
  6
Continuous
100
AcDbLine
 10
288.1150519999998
 20
226.0064899999999
 30
0.0
 11
290.302871
 21
227.721309
 31
0.0
  0
LINE
  5
B326
330
B1CC
100
AcDbEntity
  8
1
  6
Continuous
100
AcDbLine
 10
286.7008389999999
 20
226.0064899999999
 30
0.0
 11
288.888657
 21
227.721309
 31
0.0
  0
LINE
  5
B327
330
B1CC
100
AcDbEntity
  8
1
  6
Continuous
100
AcDbLine
 10
285.286625
 20
226.0064899999999
 30
0.0
 11
287.474444
 21
227.721309
 31
0.0
  0
LINE
  5
B328
330
B1CC
100
AcDbEntity
  8
1
  6
Continuous
100
AcDbLine
 10
283.872412
 20
226.0064899999999
 30
0.0
 11
286.06023
 21
227.721309
 31
0.0
  0
LINE
  5
B329
330
B1CC
100
AcDbEntity
  8
1
  6
Continuous
100
AcDbLine
 10
282.4581979999999
 20
226.0064899999999
 30
0.0
 11
284.6460169999998
 21
227.721309
 31
0.0
  0
LINE
  5
B32A
330
B1CC
100
AcDbEntity
  8
1
  6
Continuous
100
AcDbLine
 10
298.147544
 20
226.0064899999999
 30
0.0
 11
295.9597249999998
 21
227.721309
 31
0.0
  0
LINE
  5
B32B
330
B1CC
100
AcDbEntity
  8
1
  6
Continuous
100
AcDbLine
 10
296.7333299999999
 20
226.0064899999999
 30
0.0
 11
294.5455119999999
 21
227.721309
 31
0.0
  0
LINE
  5
B32C
330
B1CC
100
AcDbEntity
  8
1
  6
Continuous
100
AcDbLine
 10
295.319117
 20
226.0064899999999
 30
0.0
 11
293.131298
 21
227.721309
 31
0.0
  0
LINE
  5
B32D
330
B1CC
100
AcDbEntity
  8
1
  6
Continuous
100
AcDbLine
 10
293.9049029999998
 20
226.0064899999999
 30
0.0
 11
291.717084
 21
227.721309
 31
0.0
  0
LINE
  5
B32E
330
B1CC
100
AcDbEntity
  8
1
  6
Continuous
100
AcDbLine
 10
295.18612
 20
226.0064899999999
 30
0.0
 11
297.373939
 21
227.721309
 31
0.0
  0
LINE
  5
B32F
330
B1CC
100
AcDbEntity
  8
1
  6
Continuous
100
AcDbLine
 10
293.7719069999999
 20
226.0064899999999
 30
0.0
 11
295.9597249999998
 21
227.721309
 31
0.0
  0
LINE
  5
B330
330
B1CC
100
AcDbEntity
  8
1
  6
Continuous
100
AcDbLine
 10
292.3576929999999
 20
226.0064899999999
 30
0.0
 11
294.5455119999999
 21
227.721309
 31
0.0
  0
LINE
  5
B331
330
B1CC
100
AcDbEntity
  8
1
  6
Continuous
100
AcDbLine
 10
290.9434799999999
 20
226.0064899999999
 30
0.0
 11
293.131298
 21
227.721309
 31
0.0
  0
LINE
  5
B332
330
B1CC
100
AcDbEntity
  8
1
  6
Continuous
100
AcDbLine
 10
303.4033759999999
 20
226.407512
 30
0.0
 11
301.616579
 21
227.721309
 31
0.0
  0
LINE
  5
B333
330
B1CC
100
AcDbEntity
  8
1
  6
Continuous
100
AcDbLine
 10
302.3901839999999
 20
226.0064899999999
 30
0.0
 11
300.2023659999999
 21
227.721309
 31
0.0
  0
LINE
  5
B334
330
B1CC
100
AcDbEntity
  8
1
  6
Continuous
100
AcDbLine
 10
300.975971
 20
226.0064899999999
 30
0.0
 11
298.7881520000001
 21
227.721309
 31
0.0
  0
LINE
  5
B335
330
B1CC
100
AcDbEntity
  8
1
  6
Continuous
100
AcDbLine
 10
302.257188
 20
226.0064899999999
 30
0.0
 11
303.4033759999999
 21
227.1526779999999
 31
0.0
  0
LINE
  5
B336
330
B1CC
100
AcDbEntity
  8
1
  6
Continuous
100
AcDbLine
 10
300.842974
 20
226.0064899999999
 30
0.0
 11
303.030793
 21
227.721309
 31
0.0
  0
LINE
  5
B337
330
B1CC
100
AcDbEntity
  8
1
  6
Continuous
100
AcDbLine
 10
299.428761
 20
226.0064899999999
 30
0.0
 11
301.616579
 21
227.721309
 31
0.0
  0
LINE
  5
B338
330
B1CC
100
AcDbEntity
  8
1
  6
Continuous
100
AcDbLine
 10
303.4033759999999
 20
227.721309
 30
0.0
 11
303.4033759999999
 21
226.0064899999999
 31
0.0
  0
LINE
  5
B339
330
B1CC
100
AcDbEntity
  8
1
  6
Continuous
100
AcDbLine
 10
303.39346
 20
229.20357
 30
0.0
 11
302.57846
 21
229.20357
 31
0.0
  0
LINE
  5
B33A
330
B1CC
100
AcDbEntity
  8
1
  6
Continuous
100
AcDbLine
 10
303.4033759999999
 20
227.8217259999999
 30
0.0
 11
303.030793
 21
227.721309
 31
0.0
  0
ARC
  5
B33B
330
B1CC
100
AcDbEntity
  8
1
  6
Continuous
100
AcDbCircle
 10
299.7919779999999
 20
230.7537979999999
 30
0.0
 40
4.697225
100
AcDbArc
 50
319.789963
 51
333.713305
  0
ARC
  5
B33C
330
B1CC
100
AcDbEntity
  8
1
  6
Continuous
100
AcDbCircle
 10
303.1294889999998
 20
228.283717
 30
0.0
 40
0.9569799999999998
100
AcDbArc
 50
24.04026499999999
 51
73.98808699999998
  0
CIRCLE
  5
B33D
330
B1CC
100
AcDbEntity
  8
1
  6
Continuous
100
AcDbCircle
 10
188.169172
 20
343.5054979999998
 30
0.0
 40
22.99008399999999
  0
CIRCLE
  5
B33E
330
B1CC
100
AcDbEntity
  8
1
  6
Continuous
100
AcDbCircle
 10
188.169172
 20
343.5054979999998
 30
0.0
 40
23.60008399999999
  0
CIRCLE
  5
B33F
330
B1CC
100
AcDbEntity
  8
1
  6
Continuous
100
AcDbCircle
 10
188.169172
 20
343.5054979999998
 30
0.0
 40
22.17508399999999
  0
LINE
  5
B340
330
B1CC
100
AcDbEntity
  8
1
  6
Continuous
100
AcDbLine
 10
274.4033759999999
 20
275.706635
 30
0.0
 11
275.4033759999999
 21
276.7066349999999
 31
0.0
  0
LINE
  5
B341
330
B1CC
100
AcDbEntity
  8
1
  6
Continuous
100
AcDbLine
 10
274.4033759999999
 20
275.706635
 30
0.0
 11
286.4033759999998
 21
275.706635
 31
0.0
  0
LINE
  5
B342
330
B1CC
100
AcDbEntity
  8
1
  6
Continuous
100
AcDbLine
 10
285.4033759999999
 20
276.7066349999999
 30
0.0
 11
275.4033759999999
 21
276.7066349999999
 31
0.0
  0
LINE
  5
B343
330
B1CC
100
AcDbEntity
  8
1
  6
Continuous
100
AcDbLine
 10
286.4033759999998
 20
275.706635
 30
0.0
 11
285.4033759999999
 21
276.7066349999999
 31
0.0
  0
LINE
  5
B344
330
B1CC
100
AcDbEntity
  8
1
  6
Continuous
100
AcDbLine
 10
196.1747259999999
 20
330.5054979999998
 30
0.0
 11
203.680279
 21
343.5054979999998
 31
0.0
  0
LINE
  5
B345
330
B1CC
100
AcDbEntity
  8
1
  6
Continuous
100
AcDbLine
 10
196.1747259999999
 20
356.5054979999999
 30
0.0
 11
203.680279
 21
343.5054979999998
 31
0.0
  0
CIRCLE
  5
B346
330
B1CC
100
AcDbEntity
  8
1
  6
Continuous
100
AcDbCircle
 10
188.6691719999998
 20
343.5054979999998
 30
0.0
 40
6.0
  0
LINE
  5
B347
330
B1CC
100
AcDbEntity
  8
1
  6
Continuous
100
AcDbLine
 10
173.658065
 20
343.5054979999998
 30
0.0
 11
181.1636189999999
 21
356.5054979999999
 31
0.0
  0
LINE
  5
B348
330
B1CC
100
AcDbEntity
  8
1
  6
Continuous
100
AcDbLine
 10
181.1636189999999
 20
330.5054979999998
 30
0.0
 11
196.1747259999999
 21
330.5054979999998
 31
0.0
  0
LINE
  5
B349
330
B1CC
100
AcDbEntity
  8
1
  6
Continuous
100
AcDbLine
 10
173.658065
 20
343.5054979999998
 30
0.0
 11
181.1636189999999
 21
330.5054979999998
 31
0.0
  0
LINE
  5
B34A
330
B1CC
100
AcDbEntity
  8
1
  6
Continuous
100
AcDbLine
 10
181.1636189999999
 20
356.5054979999999
 30
0.0
 11
196.1747259999999
 21
356.5054979999999
 31
0.0
  0
ARC
  5
B34B
330
B1CC
100
AcDbEntity
  8
1
  6
Continuous
100
AcDbCircle
 10
180.8446439999999
 20
343.5054979999998
 30
0.0
 40
24.350289
100
AcDbArc
 50
141.9747179999999
 51
218.0252819999998
  0
LINE
  5
B34C
330
B1CC
100
AcDbEntity
  8
1
  6
Continuous
100
AcDbLine
 10
160.69432
 20
324.696998
 30
0.0
 11
161.6629709999999
 21
328.5054979999998
 31
0.0
  0
LINE
  5
B34D
330
B1CC
100
AcDbEntity
  8
1
  6
Continuous
100
AcDbLine
 10
160.694321
 20
362.313998
 30
0.0
 11
161.6629709999999
 21
358.5054979999999
 31
0.0
  0
LINE
  5
B34E
330
B1CC
100
AcDbEntity
  8
1
  6
Continuous
100
AcDbLine
 10
267.4033759999999
 20
236.7066349999999
 30
0.0
 11
267.4033759999999
 21
232.7066349999999
 31
0.0
  0
LINE
  5
B34F
330
B1CC
100
AcDbEntity
  8
1
  6
Continuous
100
AcDbLine
 10
280.4033759999999
 20
236.7066349999999
 30
0.0
 11
280.4033759999999
 21
232.7066349999999
 31
0.0
  0
LINE
  5
B350
330
B1CC
100
AcDbEntity
  8
1
  6
Continuous
100
AcDbLine
 10
293.4033759999999
 20
236.7066349999999
 30
0.0
 11
293.4033759999999
 21
232.7066349999999
 31
0.0
  0
CIRCLE
  5
B351
330
B1CC
100
AcDbEntity
  8
2
  6
Continuous
100
AcDbCircle
 10
188.6691719999998
 20
343.5054979999998
 30
0.0
 40
5.3235
  0
ARC
  5
B352
330
B1CC
100
AcDbEntity
  8
1
  6
Continuous
100
AcDbCircle
 10
188.6691719999998
 20
343.5054979999998
 30
0.0
 40
24.75
100
AcDbArc
 50
235.998362
 51
124.0016379999999
  0
LINE
  5
B353
330
B1CC
100
AcDbEntity
  8
2
  6
Continuous
100
AcDbLine
 10
275.0798759999999
 20
237.878433
 30
0.0
 11
275.0798759999999
 21
276.3831349999999
 31
0.0
  0
LINE
  5
B354
330
B1CC
100
AcDbEntity
  8
2
  6
Continuous
100
AcDbLine
 10
285.726876
 20
237.878433
 30
0.0
 11
285.726876
 21
276.3831349999999
 31
0.0
  0
LINE
  5
B355
330
B1CC
100
AcDbEntity
  8
1
  6
Continuous
100
AcDbLine
 10
37.02957700000001
 20
229.20357
 30
0.0
 11
81.379745
 21
229.20357
 31
0.0
  0
LINE
  5
B356
330
B1CC
100
AcDbEntity
  8
1
  6
Continuous
100
AcDbLine
 10
36.204661
 20
227.721309
 30
0.0
 11
82.20466100000001
 21
227.721309
 31
0.0
  0
LINE
  5
B357
330
B1CC
100
AcDbEntity
  8
1
  6
Continuous
100
AcDbLine
 10
75.85151399999998
 20
232.7066349999999
 30
0.0
 11
42.557808
 21
232.7066349999999
 31
0.0
  0
LINE
  5
B358
330
B1CC
100
AcDbEntity
  8
1
  6
Continuous
100
AcDbLine
 10
49.945775
 20
226.0064899999999
 30
0.0
 11
52.133593
 21
227.721309
 31
0.0
  0
LINE
  5
B359
330
B1CC
100
AcDbEntity
  8
1
  6
Continuous
100
AcDbLine
 10
52.907198
 20
226.0064899999999
 30
0.0
 11
50.71938
 21
227.721309
 31
0.0
  0
LINE
  5
B35A
330
B1CC
100
AcDbEntity
  8
1
  6
Continuous
100
AcDbLine
 10
51.359988
 20
226.0064899999999
 30
0.0
 11
53.54780699999999
 21
227.721309
 31
0.0
  0
LINE
  5
B35B
330
B1CC
100
AcDbEntity
  8
1
  6
Continuous
100
AcDbLine
 10
72.204661
 20
236.7066349999999
 30
0.0
 11
46.204661
 21
236.7066349999999
 31
0.0
  0
LINE
  5
B35C
330
B1CC
100
AcDbEntity
  8
1
  6
Continuous
100
AcDbLine
 10
47.250344
 20
226.0064899999999
 30
0.0
 11
45.062525
 21
227.721309
 31
0.0
  0
LINE
  5
B35D
330
B1CC
100
AcDbEntity
  8
1
  6
Continuous
100
AcDbLine
 10
44.28892
 20
226.0064899999999
 30
0.0
 11
46.476739
 21
227.721309
 31
0.0
  0
LINE
  5
B35E
330
B1CC
100
AcDbEntity
  8
1
  6
Continuous
100
AcDbLine
 10
45.83612999999998
 20
226.0064899999999
 30
0.0
 11
43.648312
 21
227.721309
 31
0.0
  0
LINE
  5
B35F
330
B1CC
100
AcDbEntity
  8
1
  6
Continuous
100
AcDbLine
 10
41.460493
 20
226.0064899999999
 30
0.0
 11
43.648312
 21
227.721309
 31
0.0
  0
LINE
  5
B360
330
B1CC
100
AcDbEntity
  8
1
  6
Continuous
100
AcDbLine
 10
40.04627999999999
 20
226.0064899999999
 30
0.0
 11
42.23409799999997
 21
227.721309
 31
0.0
  0
LINE
  5
B361
330
B1CC
100
AcDbEntity
  8
1
  6
Continuous
100
AcDbLine
 10
38.63206599999998
 20
226.0064899999999
 30
0.0
 11
40.819885
 21
227.721309
 31
0.0
  0
LINE
  5
B362
330
B1CC
100
AcDbEntity
  8
1
  6
Continuous
100
AcDbLine
 10
37.217853
 20
226.0064899999999
 30
0.0
 11
39.40567099999999
 21
227.721309
 31
0.0
  0
LINE
  5
B363
330
B1CC
100
AcDbEntity
  8
1
  6
Continuous
100
AcDbLine
 10
44.421917
 20
226.0064899999999
 30
0.0
 11
42.23409799999997
 21
227.721309
 31
0.0
  0
LINE
  5
B364
330
B1CC
100
AcDbEntity
  8
1
  6
Continuous
100
AcDbLine
 10
43.00770299999999
 20
226.0064899999999
 30
0.0
 11
40.819885
 21
227.721309
 31
0.0
  0
LINE
  5
B365
330
B1CC
100
AcDbEntity
  8
1
  6
Continuous
100
AcDbLine
 10
41.59349
 20
226.0064899999999
 30
0.0
 11
39.40567099999999
 21
227.721309
 31
0.0
  0
LINE
  5
B366
330
B1CC
100
AcDbEntity
  8
1
  6
Continuous
100
AcDbLine
 10
40.179276
 20
226.0064899999999
 30
0.0
 11
37.991458
 21
227.721309
 31
0.0
  0
LINE
  5
B367
330
B1CC
100
AcDbEntity
  8
1
  6
Continuous
100
AcDbLine
 10
38.76506299999999
 20
226.0064899999999
 30
0.0
 11
36.577244
 21
227.721309
 31
0.0
  0
LINE
  5
B368
330
B1CC
100
AcDbEntity
  8
1
  6
Continuous
100
AcDbLine
 10
36.204661
 20
226.407512
 30
0.0
 11
37.991458
 21
227.721309
 31
0.0
  0
LINE
  5
B369
330
B1CC
100
AcDbEntity
  8
1
  6
Continuous
100
AcDbLine
 10
36.204661
 20
227.1526779999999
 30
0.0
 11
37.35084899999999
 21
226.0064899999999
 31
0.0
  0
LINE
  5
B36A
330
B1CC
100
AcDbEntity
  8
1
  6
Continuous
100
AcDbLine
 10
42.874707
 20
226.0064899999999
 30
0.0
 11
45.062525
 21
227.721309
 31
0.0
  0
LINE
  5
B36B
330
B1CC
100
AcDbEntity
  8
1
  6
Continuous
100
AcDbLine
 10
51.492985
 20
226.0064899999999
 30
0.0
 11
49.305166
 21
227.721309
 31
0.0
  0
LINE
  5
B36C
330
B1CC
100
AcDbEntity
  8
1
  6
Continuous
100
AcDbLine
 10
48.53156099999999
 20
226.0064899999999
 30
0.0
 11
50.71938
 21
227.721309
 31
0.0
  0
LINE
  5
B36D
330
B1CC
100
AcDbEntity
  8
1
  6
Continuous
100
AcDbLine
 10
47.117348
 20
226.0064899999999
 30
0.0
 11
49.305166
 21
227.721309
 31
0.0
  0
LINE
  5
B36E
330
B1CC
100
AcDbEntity
  8
1
  6
Continuous
100
AcDbLine
 10
45.70313399999998
 20
226.0064899999999
 30
0.0
 11
47.890952
 21
227.721309
 31
0.0
  0
LINE
  5
B36F
330
B1CC
100
AcDbEntity
  8
1
  6
Continuous
100
AcDbLine
 10
50.078771
 20
226.0064899999999
 30
0.0
 11
47.890952
 21
227.721309
 31
0.0
  0
LINE
  5
B370
330
B1CC
100
AcDbEntity
  8
1
  6
Continuous
100
AcDbLine
 10
48.664557
 20
226.0064899999999
 30
0.0
 11
46.476739
 21
227.721309
 31
0.0
  0
LINE
  5
B371
330
B1CC
100
AcDbEntity
  8
1
  6
Continuous
100
AcDbLine
 10
36.204661
 20
227.721309
 30
0.0
 11
36.204661
 21
226.0064899999999
 31
0.0
  0
ARC
  5
B372
330
B1CC
100
AcDbEntity
  8
1
  6
Continuous
100
AcDbCircle
 10
36.47854699999999
 20
228.283717
 30
0.0
 40
0.9569799999999998
100
AcDbArc
 50
106.011913
 51
155.9597349999999
  0
ARC
  5
B373
330
B1CC
100
AcDbEntity
  8
1
  6
Continuous
100
AcDbCircle
 10
39.816059
 20
230.7537979999999
 30
0.0
 40
4.697225
100
AcDbArc
 50
206.286695
 51
220.210037
  0
LINE
  5
B374
330
B1CC
100
AcDbEntity
  8
1
  6
Continuous
100
AcDbLine
 10
36.214577
 20
229.20357
 30
0.0
 11
37.02957700000001
 21
229.20357
 31
0.0
  0
LINE
  5
B375
330
B1CC
100
AcDbEntity
  8
1
  6
Continuous
100
AcDbLine
 10
36.204661
 20
227.3487259999999
 30
0.0
 11
36.577244
 21
227.721309
 31
0.0
  0
ARC
  5
B376
330
B1CC
100
AcDbEntity
  8
1
  6
Continuous
100
AcDbCircle
 10
42.557808
 20
226.593017
 30
0.0
 40
6.113617999999997
100
AcDbArc
 50
90.0
 51
154.722278
  0
LINE
  5
B377
330
B1CC
100
AcDbEntity
  8
1
  6
Continuous
100
AcDbLine
 10
65.204661
 20
236.7066349999999
 30
0.0
 11
65.204661
 21
275.706635
 31
0.0
  0
LINE
  5
B378
330
B1CC
100
AcDbEntity
  8
1
  6
Continuous
100
AcDbLine
 10
53.204661
 20
236.7066349999999
 30
0.0
 11
53.204661
 21
275.706635
 31
0.0
  0
LINE
  5
B379
330
B1CC
100
AcDbEntity
  8
2
  6
Continuous
100
AcDbLine
 10
53.881161
 20
237.878433
 30
0.0
 11
53.881161
 21
276.3831349999999
 31
0.0
  0
LINE
  5
B37A
330
B1CC
100
AcDbEntity
  8
2
  6
Continuous
100
AcDbLine
 10
64.52816099999998
 20
237.878433
 30
0.0
 11
64.52816099999998
 21
276.3831349999999
 31
0.0
  0
LINE
  5
B37B
330
B1CC
100
AcDbEntity
  8
1
  6
Continuous
100
AcDbLine
 10
75.40161899999998
 20
226.0064899999999
 30
0.0
 11
77.589437
 21
227.721309
 31
0.0
  0
LINE
  5
B37C
330
B1CC
100
AcDbEntity
  8
1
  6
Continuous
100
AcDbLine
 10
76.815832
 20
226.0064899999999
 30
0.0
 11
79.00365100000001
 21
227.721309
 31
0.0
  0
LINE
  5
B37D
330
B1CC
100
AcDbEntity
  8
1
  6
Continuous
100
AcDbLine
 10
78.36304199999998
 20
226.0064899999999
 30
0.0
 11
76.175224
 21
227.721309
 31
0.0
  0
LINE
  5
B37E
330
B1CC
100
AcDbEntity
  8
1
  6
Continuous
100
AcDbLine
 10
61.25948300000001
 20
226.0064899999999
 30
0.0
 11
63.447302
 21
227.721309
 31
0.0
  0
LINE
  5
B37F
330
B1CC
100
AcDbEntity
  8
1
  6
Continuous
100
AcDbLine
 10
59.84526999999999
 20
226.0064899999999
 30
0.0
 11
62.033088
 21
227.721309
 31
0.0
  0
LINE
  5
B380
330
B1CC
100
AcDbEntity
  8
1
  6
Continuous
100
AcDbLine
 10
61.39248000000001
 20
226.0064899999999
 30
0.0
 11
59.204661
 21
227.721309
 31
0.0
  0
LINE
  5
B381
330
B1CC
100
AcDbEntity
  8
1
  6
Continuous
100
AcDbLine
 10
62.806693
 20
226.0064899999999
 30
0.0
 11
60.618875
 21
227.721309
 31
0.0
  0
LINE
  5
B382
330
B1CC
100
AcDbEntity
  8
1
  6
Continuous
100
AcDbLine
 10
57.01684199999998
 20
226.0064899999999
 30
0.0
 11
59.204661
 21
227.721309
 31
0.0
  0
LINE
  5
B383
330
B1CC
100
AcDbEntity
  8
1
  6
Continuous
100
AcDbLine
 10
58.43105600000001
 20
226.0064899999999
 30
0.0
 11
60.618875
 21
227.721309
 31
0.0
  0
LINE
  5
B384
330
B1CC
100
AcDbEntity
  8
1
  6
Continuous
100
AcDbLine
 10
55.602629
 20
226.0064899999999
 30
0.0
 11
57.790447
 21
227.721309
 31
0.0
  0
LINE
  5
B385
330
B1CC
100
AcDbEntity
  8
1
  6
Continuous
100
AcDbLine
 10
54.188415
 20
226.0064899999999
 30
0.0
 11
56.37623399999998
 21
227.721309
 31
0.0
  0
LINE
  5
B386
330
B1CC
100
AcDbEntity
  8
1
  6
Continuous
100
AcDbLine
 10
59.97826599999999
 20
226.0064899999999
 30
0.0
 11
57.790447
 21
227.721309
 31
0.0
  0
LINE
  5
B387
330
B1CC
100
AcDbEntity
  8
1
  6
Continuous
100
AcDbLine
 10
58.56405200000001
 20
226.0064899999999
 30
0.0
 11
56.37623399999998
 21
227.721309
 31
0.0
  0
LINE
  5
B388
330
B1CC
100
AcDbEntity
  8
1
  6
Continuous
100
AcDbLine
 10
57.149839
 20
226.0064899999999
 30
0.0
 11
54.96202
 21
227.721309
 31
0.0
  0
LINE
  5
B389
330
B1CC
100
AcDbEntity
  8
1
  6
Continuous
100
AcDbLine
 10
55.735625
 20
226.0064899999999
 30
0.0
 11
53.54780699999999
 21
227.721309
 31
0.0
  0
LINE
  5
B38A
330
B1CC
100
AcDbEntity
  8
1
  6
Continuous
100
AcDbLine
 10
52.774202
 20
226.0064899999999
 30
0.0
 11
54.96202
 21
227.721309
 31
0.0
  0
LINE
  5
B38B
330
B1CC
100
AcDbEntity
  8
1
  6
Continuous
100
AcDbLine
 10
54.321412
 20
226.0064899999999
 30
0.0
 11
52.133593
 21
227.721309
 31
0.0
  0
LINE
  5
B38C
330
B1CC
100
AcDbEntity
  8
1
  6
Continuous
100
AcDbLine
 10
65.50212399999999
 20
226.0064899999999
 30
0.0
 11
67.689942
 21
227.721309
 31
0.0
  0
LINE
  5
B38D
330
B1CC
100
AcDbEntity
  8
1
  6
Continuous
100
AcDbLine
 10
66.916337
 20
226.0064899999999
 30
0.0
 11
69.104156
 21
227.721309
 31
0.0
  0
LINE
  5
B38E
330
B1CC
100
AcDbEntity
  8
1
  6
Continuous
100
AcDbLine
 10
68.46354699999999
 20
226.0064899999999
 30
0.0
 11
66.275729
 21
227.721309
 31
0.0
  0
LINE
  5
B38F
330
B1CC
100
AcDbEntity
  8
1
  6
Continuous
100
AcDbLine
 10
62.67369699999999
 20
226.0064899999999
 30
0.0
 11
64.861515
 21
227.721309
 31
0.0
  0
LINE
  5
B390
330
B1CC
100
AcDbEntity
  8
1
  6
Continuous
100
AcDbLine
 10
64.08790999999999
 20
226.0064899999999
 30
0.0
 11
66.275729
 21
227.721309
 31
0.0
  0
LINE
  5
B391
330
B1CC
100
AcDbEntity
  8
1
  6
Continuous
100
AcDbLine
 10
64.220907
 20
226.0064899999999
 30
0.0
 11
62.033088
 21
227.721309
 31
0.0
  0
LINE
  5
B392
330
B1CC
100
AcDbEntity
  8
1
  6
Continuous
100
AcDbLine
 10
65.63512
 20
226.0064899999999
 30
0.0
 11
63.447302
 21
227.721309
 31
0.0
  0
LINE
  5
B393
330
B1CC
100
AcDbEntity
  8
1
  6
Continuous
100
AcDbLine
 10
67.049334
 20
226.0064899999999
 30
0.0
 11
64.861515
 21
227.721309
 31
0.0
  0
LINE
  5
B394
330
B1CC
100
AcDbEntity
  8
1
  6
Continuous
100
AcDbLine
 10
69.744765
 20
226.0064899999999
 30
0.0
 11
71.932583
 21
227.721309
 31
0.0
  0
LINE
  5
B395
330
B1CC
100
AcDbEntity
  8
1
  6
Continuous
100
AcDbLine
 10
71.15897800000002
 20
226.0064899999999
 30
0.0
 11
73.34679699999998
 21
227.721309
 31
0.0
  0
LINE
  5
B396
330
B1CC
100
AcDbEntity
  8
1
  6
Continuous
100
AcDbLine
 10
72.57319200000002
 20
226.0064899999999
 30
0.0
 11
74.76100999999998
 21
227.721309
 31
0.0
  0
LINE
  5
B397
330
B1CC
100
AcDbEntity
  8
1
  6
Continuous
100
AcDbLine
 10
73.98740500000002
 20
226.0064899999999
 30
0.0
 11
76.175224
 21
227.721309
 31
0.0
  0
LINE
  5
B398
330
B1CC
100
AcDbEntity
  8
1
  6
Continuous
100
AcDbLine
 10
72.70618799999998
 20
226.0064899999999
 30
0.0
 11
70.51836899999996
 21
227.721309
 31
0.0
  0
LINE
  5
B399
330
B1CC
100
AcDbEntity
  8
1
  6
Continuous
100
AcDbLine
 10
74.12040199999998
 20
226.0064899999999
 30
0.0
 11
71.932583
 21
227.721309
 31
0.0
  0
LINE
  5
B39A
330
B1CC
100
AcDbEntity
  8
1
  6
Continuous
100
AcDbLine
 10
75.534615
 20
226.0064899999999
 30
0.0
 11
73.34679699999998
 21
227.721309
 31
0.0
  0
LINE
  5
B39B
330
B1CC
100
AcDbEntity
  8
1
  6
Continuous
100
AcDbLine
 10
76.948829
 20
226.0064899999999
 30
0.0
 11
74.76100999999998
 21
227.721309
 31
0.0
  0
LINE
  5
B39C
330
B1CC
100
AcDbEntity
  8
1
  6
Continuous
100
AcDbLine
 10
68.330551
 20
226.0064899999999
 30
0.0
 11
70.51836899999996
 21
227.721309
 31
0.0
  0
LINE
  5
B39D
330
B1CC
100
AcDbEntity
  8
1
  6
Continuous
100
AcDbLine
 10
69.87776099999999
 20
226.0064899999999
 30
0.0
 11
67.689942
 21
227.721309
 31
0.0
  0
LINE
  5
B39E
330
B1CC
100
AcDbEntity
  8
1
  6
Continuous
100
AcDbLine
 10
71.29197399999998
 20
226.0064899999999
 30
0.0
 11
69.104156
 21
227.721309
 31
0.0
  0
LINE
  5
B39F
330
B1CC
100
AcDbEntity
  8
1
  6
Continuous
100
AcDbLine
 10
78.230046
 20
226.0064899999999
 30
0.0
 11
80.41786399999997
 21
227.721309
 31
0.0
  0
LINE
  5
B3A0
330
B1CC
100
AcDbEntity
  8
1
  6
Continuous
100
AcDbLine
 10
79.64425899999998
 20
226.0064899999999
 30
0.0
 11
81.83207800000003
 21
227.721309
 31
0.0
  0
LINE
  5
B3A1
330
B1CC
100
AcDbEntity
  8
1
  6
Continuous
100
AcDbLine
 10
81.05847299999998
 20
226.0064899999999
 30
0.0
 11
82.20466100000001
 21
227.1526779999999
 31
0.0
  0
LINE
  5
B3A2
330
B1CC
100
AcDbEntity
  8
1
  6
Continuous
100
AcDbLine
 10
79.77725599999998
 20
226.0064899999999
 30
0.0
 11
77.589437
 21
227.721309
 31
0.0
  0
LINE
  5
B3A3
330
B1CC
100
AcDbEntity
  8
1
  6
Continuous
100
AcDbLine
 10
81.191469
 20
226.0064899999999
 30
0.0
 11
79.00365100000001
 21
227.721309
 31
0.0
  0
LINE
  5
B3A4
330
B1CC
100
AcDbEntity
  8
1
  6
Continuous
100
AcDbLine
 10
82.20466100000001
 20
226.407512
 30
0.0
 11
80.41786399999997
 21
227.721309
 31
0.0
  0
LINE
  5
B3A5
330
B1CC
100
AcDbEntity
  8
1
  6
Continuous
100
AcDbLine
 10
82.20466100000001
 20
227.721309
 30
0.0
 11
82.20466100000001
 21
226.0064899999999
 31
0.0
  0
ARC
  5
B3A6
330
B1CC
100
AcDbEntity
  8
1
  6
Continuous
100
AcDbCircle
 10
75.85151399999998
 20
226.593017
 30
0.0
 40
6.113617999999997
100
AcDbArc
 50
25.277722
 51
90.0
  0
ARC
  5
B3A7
330
B1CC
100
AcDbEntity
  8
1
  6
Continuous
100
AcDbCircle
 10
81.93077399999998
 20
228.283717
 30
0.0
 40
0.9569799999999998
100
AcDbArc
 50
24.04026499999999
 51
73.98808699999998
  0
ARC
  5
B3A8
330
B1CC
100
AcDbEntity
  8
1
  6
Continuous
100
AcDbCircle
 10
78.59326299999998
 20
230.7537979999999
 30
0.0
 40
4.697225
100
AcDbArc
 50
319.789963
 51
333.713305
  0
LINE
  5
B3A9
330
B1CC
100
AcDbEntity
  8
1
  6
Continuous
100
AcDbLine
 10
82.20466100000001
 20
227.3487259999999
 30
0.0
 11
81.83207800000003
 21
227.721309
 31
0.0
  0
LINE
  5
B3AA
330
B1CC
100
AcDbEntity
  8
1
  6
Continuous
100
AcDbLine
 10
82.194745
 20
229.20357
 30
0.0
 11
81.379745
 21
229.20357
 31
0.0
  0
LINE
  5
B3AB
330
B1CC
100
AcDbEntity
  8
1
  6
Continuous
100
AcDbLine
 10
65.204661
 20
275.706635
 30
0.0
 11
64.204661
 21
276.7066349999999
 31
0.0
  0
LINE
  5
B3AC
330
B1CC
100
AcDbEntity
  8
1
  6
Continuous
100
AcDbLine
 10
53.204661
 20
275.706635
 30
0.0
 11
54.204661
 21
276.7066349999999
 31
0.0
  0
LINE
  5
B3AD
330
B1CC
100
AcDbEntity
  8
1
  6
Continuous
100
AcDbLine
 10
53.204661
 20
275.706635
 30
0.0
 11
65.204661
 21
275.706635
 31
0.0
  0
LINE
  5
B3AE
330
B1CC
100
AcDbEntity
  8
1
  6
Continuous
100
AcDbLine
 10
64.204661
 20
276.7066349999999
 30
0.0
 11
54.204661
 21
276.7066349999999
 31
0.0
  0
LINE
  5
B3AF
330
B1CC
100
AcDbEntity
  8
1
  6
Continuous
100
AcDbLine
 10
46.204661
 20
236.7066349999999
 30
0.0
 11
46.204661
 21
232.7066349999999
 31
0.0
  0
LINE
  5
B3B0
330
B1CC
100
AcDbEntity
  8
1
  6
Continuous
100
AcDbLine
 10
59.204661
 20
236.7066349999999
 30
0.0
 11
59.204661
 21
232.7066349999999
 31
0.0
  0
LINE
  5
B3B1
330
B1CC
100
AcDbEntity
  8
1
  6
Continuous
100
AcDbLine
 10
72.204661
 20
236.7066349999999
 30
0.0
 11
72.204661
 21
232.7066349999999
 31
0.0
  0
LINE
  5
B3B2
330
B1CC
100
AcDbEntity
  8
1
  6
Continuous
100
AcDbLine
 10
166.4941629999999
 20
229.20357
 30
0.0
 11
210.844331
 21
229.20357
 31
0.0
  0
LINE
  5
B3B3
330
B1CC
100
AcDbEntity
  8
1
  6
Continuous
100
AcDbLine
 10
165.6692469999998
 20
227.721309
 30
0.0
 11
211.669247
 21
227.721309
 31
0.0
  0
LINE
  5
B3B4
330
B1CC
100
AcDbEntity
  8
1
  6
Continuous
100
AcDbLine
 10
205.3161
 20
232.7066349999999
 30
0.0
 11
172.0223939999999
 21
232.7066349999999
 31
0.0
  0
LINE
  5
B3B5
330
B1CC
100
AcDbEntity
  8
1
  6
Continuous
100
AcDbLine
 10
179.410361
 20
226.0064899999999
 30
0.0
 11
181.598179
 21
227.721309
 31
0.0
  0
LINE
  5
B3B6
330
B1CC
100
AcDbEntity
  8
1
  6
Continuous
100
AcDbLine
 10
182.371784
 20
226.0064899999999
 30
0.0
 11
180.1839659999999
 21
227.721309
 31
0.0
  0
LINE
  5
B3B7
330
B1CC
100
AcDbEntity
  8
1
  6
Continuous
100
AcDbLine
 10
180.824574
 20
226.0064899999999
 30
0.0
 11
183.012393
 21
227.721309
 31
0.0
  0
LINE
  5
B3B8
330
B1CC
100
AcDbEntity
  8
1
  6
Continuous
100
AcDbLine
 10
203.680354
 20
236.7066349999999
 30
0.0
 11
173.65814
 21
236.7066349999999
 31
0.0
  0
LINE
  5
B3B9
330
B1CC
100
AcDbEntity
  8
1
  6
Continuous
100
AcDbLine
 10
176.7149299999999
 20
226.0064899999999
 30
0.0
 11
174.527111
 21
227.721309
 31
0.0
  0
LINE
  5
B3BA
330
B1CC
100
AcDbEntity
  8
1
  6
Continuous
100
AcDbLine
 10
173.7535059999999
 20
226.0064899999999
 30
0.0
 11
175.941325
 21
227.721309
 31
0.0
  0
LINE
  5
B3BB
330
B1CC
100
AcDbEntity
  8
1
  6
Continuous
100
AcDbLine
 10
175.3007159999999
 20
226.0064899999999
 30
0.0
 11
173.112898
 21
227.721309
 31
0.0
  0
LINE
  5
B3BC
330
B1CC
100
AcDbEntity
  8
1
  6
Continuous
100
AcDbLine
 10
170.925079
 20
226.0064899999999
 30
0.0
 11
173.112898
 21
227.721309
 31
0.0
  0
LINE
  5
B3BD
330
B1CC
100
AcDbEntity
  8
1
  6
Continuous
100
AcDbLine
 10
169.510866
 20
226.0064899999999
 30
0.0
 11
171.6986839999999
 21
227.721309
 31
0.0
  0
LINE
  5
B3BE
330
B1CC
100
AcDbEntity
  8
1
  6
Continuous
100
AcDbLine
 10
168.096652
 20
226.0064899999999
 30
0.0
 11
170.2844709999999
 21
227.721309
 31
0.0
  0
LINE
  5
B3BF
330
B1CC
100
AcDbEntity
  8
1
  6
Continuous
100
AcDbLine
 10
166.6824389999999
 20
226.0064899999999
 30
0.0
 11
168.870257
 21
227.721309
 31
0.0
  0
LINE
  5
B3C0
330
B1CC
100
AcDbEntity
  8
1
  6
Continuous
100
AcDbLine
 10
173.886503
 20
226.0064899999999
 30
0.0
 11
171.6986839999999
 21
227.721309
 31
0.0
  0
LINE
  5
B3C1
330
B1CC
100
AcDbEntity
  8
1
  6
Continuous
100
AcDbLine
 10
172.4722889999999
 20
226.0064899999999
 30
0.0
 11
170.2844709999999
 21
227.721309
 31
0.0
  0
LINE
  5
B3C2
330
B1CC
100
AcDbEntity
  8
1
  6
Continuous
100
AcDbLine
 10
171.058076
 20
226.0064899999999
 30
0.0
 11
168.870257
 21
227.721309
 31
0.0
  0
LINE
  5
B3C3
330
B1CC
100
AcDbEntity
  8
1
  6
Continuous
100
AcDbLine
 10
169.643862
 20
226.0064899999999
 30
0.0
 11
167.456044
 21
227.721309
 31
0.0
  0
LINE
  5
B3C4
330
B1CC
100
AcDbEntity
  8
1
  6
Continuous
100
AcDbLine
 10
168.2296489999998
 20
226.0064899999999
 30
0.0
 11
166.04183
 21
227.721309
 31
0.0
  0
LINE
  5
B3C5
330
B1CC
100
AcDbEntity
  8
1
  6
Continuous
100
AcDbLine
 10
165.6692469999998
 20
226.407512
 30
0.0
 11
167.456044
 21
227.721309
 31
0.0
  0
LINE
  5
B3C6
330
B1CC
100
AcDbEntity
  8
1
  6
Continuous
100
AcDbLine
 10
165.6692469999998
 20
227.1526779999999
 30
0.0
 11
166.815435
 21
226.0064899999999
 31
0.0
  0
LINE
  5
B3C7
330
B1CC
100
AcDbEntity
  8
1
  6
Continuous
100
AcDbLine
 10
172.3392929999999
 20
226.0064899999999
 30
0.0
 11
174.527111
 21
227.721309
 31
0.0
  0
LINE
  5
B3C8
330
B1CC
100
AcDbEntity
  8
1
  6
Continuous
100
AcDbLine
 10
180.957571
 20
226.0064899999999
 30
0.0
 11
178.769752
 21
227.721309
 31
0.0
  0
LINE
  5
B3C9
330
B1CC
100
AcDbEntity
  8
1
  6
Continuous
100
AcDbLine
 10
177.996147
 20
226.0064899999999
 30
0.0
 11
180.1839659999999
 21
227.721309
 31
0.0
  0
LINE
  5
B3CA
330
B1CC
100
AcDbEntity
  8
1
  6
Continuous
100
AcDbLine
 10
176.581934
 20
226.0064899999999
 30
0.0
 11
178.769752
 21
227.721309
 31
0.0
  0
LINE
  5
B3CB
330
B1CC
100
AcDbEntity
  8
1
  6
Continuous
100
AcDbLine
 10
175.16772
 20
226.0064899999999
 30
0.0
 11
177.3555379999999
 21
227.721309
 31
0.0
  0
LINE
  5
B3CC
330
B1CC
100
AcDbEntity
  8
1
  6
Continuous
100
AcDbLine
 10
179.5433569999999
 20
226.0064899999999
 30
0.0
 11
177.3555379999999
 21
227.721309
 31
0.0
  0
LINE
  5
B3CD
330
B1CC
100
AcDbEntity
  8
1
  6
Continuous
100
AcDbLine
 10
178.129143
 20
226.0064899999999
 30
0.0
 11
175.941325
 21
227.721309
 31
0.0
  0
LINE
  5
B3CE
330
B1CC
100
AcDbEntity
  8
1
  6
Continuous
100
AcDbLine
 10
165.6692469999998
 20
227.721309
 30
0.0
 11
165.6692469999998
 21
226.0064899999999
 31
0.0
  0
ARC
  5
B3CF
330
B1CC
100
AcDbEntity
  8
1
  6
Continuous
100
AcDbCircle
 10
165.9431329999999
 20
228.283717
 30
0.0
 40
0.9569799999999998
100
AcDbArc
 50
106.011913
 51
155.9597349999999
  0
ARC
  5
B3D0
330
B1CC
100
AcDbEntity
  8
1
  6
Continuous
100
AcDbCircle
 10
169.2806449999999
 20
230.7537979999999
 30
0.0
 40
4.697225
100
AcDbArc
 50
206.286695
 51
220.210037
  0
LINE
  5
B3D1
330
B1CC
100
AcDbEntity
  8
1
  6
Continuous
100
AcDbLine
 10
165.6791629999998
 20
229.20357
 30
0.0
 11
166.4941629999999
 21
229.20357
 31
0.0
  0
LINE
  5
B3D2
330
B1CC
100
AcDbEntity
  8
1
  6
Continuous
100
AcDbLine
 10
165.6692469999998
 20
227.3487259999999
 30
0.0
 11
166.04183
 21
227.721309
 31
0.0
  0
ARC
  5
B3D3
330
B1CC
100
AcDbEntity
  8
1
  6
Continuous
100
AcDbCircle
 10
172.0223939999999
 20
226.593017
 30
0.0
 40
6.113617999999997
100
AcDbArc
 50
90.0
 51
154.722278
  0
LINE
  5
B3D4
330
B1CC
100
AcDbEntity
  8
1
  6
Continuous
100
AcDbLine
 10
181.1636929999998
 20
236.7066349999999
 30
0.0
 11
181.1636929999998
 21
232.7066349999999
 31
0.0
  0
LINE
  5
B3D5
330
B1CC
100
AcDbEntity
  8
1
  6
Continuous
100
AcDbLine
 10
173.65814
 20
236.7066349999999
 30
0.0
 11
173.65814
 21
232.7066349999999
 31
0.0
  0
LINE
  5
B3D6
330
B1CC
100
AcDbEntity
  8
1
  6
Continuous
100
AcDbLine
 10
194.6692469999999
 20
236.7066349999999
 30
0.0
 11
194.6692469999999
 21
275.706635
 31
0.0
  0
LINE
  5
B3D7
330
B1CC
100
AcDbEntity
  8
1
  6
Continuous
100
AcDbLine
 10
182.6692469999999
 20
236.7066349999999
 30
0.0
 11
182.6692469999999
 21
275.706635
 31
0.0
  0
LINE
  5
B3D8
330
B1CC
100
AcDbEntity
  8
2
  6
Continuous
100
AcDbLine
 10
183.3457469999999
 20
237.878433
 30
0.0
 11
183.3457469999999
 21
276.3831349999999
 31
0.0
  0
LINE
  5
B3D9
330
B1CC
100
AcDbEntity
  8
2
  6
Continuous
100
AcDbLine
 10
193.992747
 20
237.878433
 30
0.0
 11
193.992747
 21
276.3831349999999
 31
0.0
  0
LINE
  5
B3DA
330
B1CC
100
AcDbEntity
  8
1
  6
Continuous
100
AcDbLine
 10
204.8662049999999
 20
226.0064899999999
 30
0.0
 11
207.054023
 21
227.721309
 31
0.0
  0
LINE
  5
B3DB
330
B1CC
100
AcDbEntity
  8
1
  6
Continuous
100
AcDbLine
 10
206.280418
 20
226.0064899999999
 30
0.0
 11
208.4682369999999
 21
227.721309
 31
0.0
  0
LINE
  5
B3DC
330
B1CC
100
AcDbEntity
  8
1
  6
Continuous
100
AcDbLine
 10
207.8276279999998
 20
226.0064899999999
 30
0.0
 11
205.63981
 21
227.721309
 31
0.0
  0
LINE
  5
B3DD
330
B1CC
100
AcDbEntity
  8
1
  6
Continuous
100
AcDbLine
 10
190.7240689999999
 20
226.0064899999999
 30
0.0
 11
192.9118879999998
 21
227.721309
 31
0.0
  0
LINE
  5
B3DE
330
B1CC
100
AcDbEntity
  8
1
  6
Continuous
100
AcDbLine
 10
189.309856
 20
226.0064899999999
 30
0.0
 11
191.4976739999999
 21
227.721309
 31
0.0
  0
LINE
  5
B3DF
330
B1CC
100
AcDbEntity
  8
1
  6
Continuous
100
AcDbLine
 10
190.857066
 20
226.0064899999999
 30
0.0
 11
188.6692469999999
 21
227.721309
 31
0.0
  0
LINE
  5
B3E0
330
B1CC
100
AcDbEntity
  8
1
  6
Continuous
100
AcDbLine
 10
192.271279
 20
226.0064899999999
 30
0.0
 11
190.083461
 21
227.721309
 31
0.0
  0
LINE
  5
B3E1
330
B1CC
100
AcDbEntity
  8
1
  6
Continuous
100
AcDbLine
 10
186.481428
 20
226.0064899999999
 30
0.0
 11
188.6692469999999
 21
227.721309
 31
0.0
  0
LINE
  5
B3E2
330
B1CC
100
AcDbEntity
  8
1
  6
Continuous
100
AcDbLine
 10
187.8956419999999
 20
226.0064899999999
 30
0.0
 11
190.083461
 21
227.721309
 31
0.0
  0
LINE
  5
B3E3
330
B1CC
100
AcDbEntity
  8
1
  6
Continuous
100
AcDbLine
 10
185.067215
 20
226.0064899999999
 30
0.0
 11
187.2550329999999
 21
227.721309
 31
0.0
  0
LINE
  5
B3E4
330
B1CC
100
AcDbEntity
  8
1
  6
Continuous
100
AcDbLine
 10
183.6530009999999
 20
226.0064899999999
 30
0.0
 11
185.84082
 21
227.721309
 31
0.0
  0
LINE
  5
B3E5
330
B1CC
100
AcDbEntity
  8
1
  6
Continuous
100
AcDbLine
 10
189.4428519999999
 20
226.0064899999999
 30
0.0
 11
187.2550329999999
 21
227.721309
 31
0.0
  0
LINE
  5
B3E6
330
B1CC
100
AcDbEntity
  8
1
  6
Continuous
100
AcDbLine
 10
188.028638
 20
226.0064899999999
 30
0.0
 11
185.84082
 21
227.721309
 31
0.0
  0
LINE
  5
B3E7
330
B1CC
100
AcDbEntity
  8
1
  6
Continuous
100
AcDbLine
 10
186.6144249999999
 20
226.0064899999999
 30
0.0
 11
184.4266059999999
 21
227.721309
 31
0.0
  0
LINE
  5
B3E8
330
B1CC
100
AcDbEntity
  8
1
  6
Continuous
100
AcDbLine
 10
185.200211
 20
226.0064899999999
 30
0.0
 11
183.012393
 21
227.721309
 31
0.0
  0
LINE
  5
B3E9
330
B1CC
100
AcDbEntity
  8
1
  6
Continuous
100
AcDbLine
 10
182.2387879999998
 20
226.0064899999999
 30
0.0
 11
184.4266059999999
 21
227.721309
 31
0.0
  0
LINE
  5
B3EA
330
B1CC
100
AcDbEntity
  8
1
  6
Continuous
100
AcDbLine
 10
183.785998
 20
226.0064899999999
 30
0.0
 11
181.598179
 21
227.721309
 31
0.0
  0
LINE
  5
B3EB
330
B1CC
100
AcDbEntity
  8
1
  6
Continuous
100
AcDbLine
 10
194.96671
 20
226.0064899999999
 30
0.0
 11
197.1545279999999
 21
227.721309
 31
0.0
  0
LINE
  5
B3EC
330
B1CC
100
AcDbEntity
  8
1
  6
Continuous
100
AcDbLine
 10
196.380923
 20
226.0064899999999
 30
0.0
 11
198.5687419999999
 21
227.721309
 31
0.0
  0
LINE
  5
B3ED
330
B1CC
100
AcDbEntity
  8
1
  6
Continuous
100
AcDbLine
 10
197.928133
 20
226.0064899999999
 30
0.0
 11
195.7403149999999
 21
227.721309
 31
0.0
  0
LINE
  5
B3EE
330
B1CC
100
AcDbEntity
  8
1
  6
Continuous
100
AcDbLine
 10
192.1382829999998
 20
226.0064899999999
 30
0.0
 11
194.326101
 21
227.721309
 31
0.0
  0
LINE
  5
B3EF
330
B1CC
100
AcDbEntity
  8
1
  6
Continuous
100
AcDbLine
 10
193.552496
 20
226.0064899999999
 30
0.0
 11
195.7403149999999
 21
227.721309
 31
0.0
  0
LINE
  5
B3F0
330
B1CC
100
AcDbEntity
  8
1
  6
Continuous
100
AcDbLine
 10
193.6854929999999
 20
226.0064899999999
 30
0.0
 11
191.4976739999999
 21
227.721309
 31
0.0
  0
LINE
  5
B3F1
330
B1CC
100
AcDbEntity
  8
1
  6
Continuous
100
AcDbLine
 10
195.0997059999999
 20
226.0064899999999
 30
0.0
 11
192.9118879999998
 21
227.721309
 31
0.0
  0
LINE
  5
B3F2
330
B1CC
100
AcDbEntity
  8
1
  6
Continuous
100
AcDbLine
 10
196.5139199999999
 20
226.0064899999999
 30
0.0
 11
194.326101
 21
227.721309
 31
0.0
  0
LINE
  5
B3F3
330
B1CC
100
AcDbEntity
  8
1
  6
Continuous
100
AcDbLine
 10
199.209351
 20
226.0064899999999
 30
0.0
 11
201.3971689999999
 21
227.721309
 31
0.0
  0
LINE
  5
B3F4
330
B1CC
100
AcDbEntity
  8
1
  6
Continuous
100
AcDbLine
 10
200.6235639999999
 20
226.0064899999999
 30
0.0
 11
202.811383
 21
227.721309
 31
0.0
  0
LINE
  5
B3F5
330
B1CC
100
AcDbEntity
  8
1
  6
Continuous
100
AcDbLine
 10
202.037778
 20
226.0064899999999
 30
0.0
 11
204.2255959999998
 21
227.721309
 31
0.0
  0
LINE
  5
B3F6
330
B1CC
100
AcDbEntity
  8
1
  6
Continuous
100
AcDbLine
 10
203.4519909999999
 20
226.0064899999999
 30
0.0
 11
205.63981
 21
227.721309
 31
0.0
  0
LINE
  5
B3F7
330
B1CC
100
AcDbEntity
  8
1
  6
Continuous
100
AcDbLine
 10
202.170774
 20
226.0064899999999
 30
0.0
 11
199.982955
 21
227.721309
 31
0.0
  0
LINE
  5
B3F8
330
B1CC
100
AcDbEntity
  8
1
  6
Continuous
100
AcDbLine
 10
203.5849879999999
 20
226.0064899999999
 30
0.0
 11
201.3971689999999
 21
227.721309
 31
0.0
  0
LINE
  5
B3F9
330
B1CC
100
AcDbEntity
  8
1
  6
Continuous
100
AcDbLine
 10
204.9992009999999
 20
226.0064899999999
 30
0.0
 11
202.811383
 21
227.721309
 31
0.0
  0
LINE
  5
B3FA
330
B1CC
100
AcDbEntity
  8
1
  6
Continuous
100
AcDbLine
 10
206.413415
 20
226.0064899999999
 30
0.0
 11
204.2255959999998
 21
227.721309
 31
0.0
  0
LINE
  5
B3FB
330
B1CC
100
AcDbEntity
  8
1
  6
Continuous
100
AcDbLine
 10
197.795137
 20
226.0064899999999
 30
0.0
 11
199.982955
 21
227.721309
 31
0.0
  0
LINE
  5
B3FC
330
B1CC
100
AcDbEntity
  8
1
  6
Continuous
100
AcDbLine
 10
199.3423469999999
 20
226.0064899999999
 30
0.0
 11
197.1545279999999
 21
227.721309
 31
0.0
  0
LINE
  5
B3FD
330
B1CC
100
AcDbEntity
  8
1
  6
Continuous
100
AcDbLine
 10
200.7565599999999
 20
226.0064899999999
 30
0.0
 11
198.5687419999999
 21
227.721309
 31
0.0
  0
LINE
  5
B3FE
330
B1CC
100
AcDbEntity
  8
1
  6
Continuous
100
AcDbLine
 10
207.694632
 20
226.0064899999999
 30
0.0
 11
209.88245
 21
227.721309
 31
0.0
  0
LINE
  5
B3FF
330
B1CC
100
AcDbEntity
  8
1
  6
Continuous
100
AcDbLine
 10
209.1088449999999
 20
226.0064899999999
 30
0.0
 11
211.2966639999999
 21
227.721309
 31
0.0
  0
LINE
  5
B400
330
B1CC
100
AcDbEntity
  8
1
  6
Continuous
100
AcDbLine
 10
210.523059
 20
226.0064899999999
 30
0.0
 11
211.669247
 21
227.1526779999999
 31
0.0
  0
LINE
  5
B401
330
B1CC
100
AcDbEntity
  8
1
  6
Continuous
100
AcDbLine
 10
209.241842
 20
226.0064899999999
 30
0.0
 11
207.054023
 21
227.721309
 31
0.0
  0
LINE
  5
B402
330
B1CC
100
AcDbEntity
  8
1
  6
Continuous
100
AcDbLine
 10
210.6560549999999
 20
226.0064899999999
 30
0.0
 11
208.4682369999999
 21
227.721309
 31
0.0
  0
LINE
  5
B403
330
B1CC
100
AcDbEntity
  8
1
  6
Continuous
100
AcDbLine
 10
211.669247
 20
226.407512
 30
0.0
 11
209.88245
 21
227.721309
 31
0.0
  0
LINE
  5
B404
330
B1CC
100
AcDbEntity
  8
1
  6
Continuous
100
AcDbLine
 10
211.669247
 20
227.721309
 30
0.0
 11
211.669247
 21
226.0064899999999
 31
0.0
  0
LINE
  5
B405
330
B1CC
100
AcDbEntity
  8
1
  6
Continuous
100
AcDbLine
 10
196.1748
 20
236.7066349999999
 30
0.0
 11
196.1748
 21
232.7066349999999
 31
0.0
  0
ARC
  5
B406
330
B1CC
100
AcDbEntity
  8
1
  6
Continuous
100
AcDbCircle
 10
205.3161
 20
226.593017
 30
0.0
 40
6.113617999999997
100
AcDbArc
 50
25.277722
 51
90.0
  0
ARC
  5
B407
330
B1CC
100
AcDbEntity
  8
1
  6
Continuous
100
AcDbCircle
 10
211.39536
 20
228.283717
 30
0.0
 40
0.9569799999999998
100
AcDbArc
 50
24.04026499999999
 51
73.98808699999998
  0
ARC
  5
B408
330
B1CC
100
AcDbEntity
  8
1
  6
Continuous
100
AcDbCircle
 10
208.057849
 20
230.7537979999999
 30
0.0
 40
4.697225
100
AcDbArc
 50
319.789963
 51
333.713305
  0
LINE
  5
B409
330
B1CC
100
AcDbEntity
  8
1
  6
Continuous
100
AcDbLine
 10
211.669247
 20
227.3487259999999
 30
0.0
 11
211.2966639999999
 21
227.721309
 31
0.0
  0
LINE
  5
B40A
330
B1CC
100
AcDbEntity
  8
1
  6
Continuous
100
AcDbLine
 10
211.659331
 20
229.20357
 30
0.0
 11
210.844331
 21
229.20357
 31
0.0
  0
LINE
  5
B40B
330
B1CC
100
AcDbEntity
  8
1
  6
Continuous
100
AcDbLine
 10
203.680354
 20
236.7066349999999
 30
0.0
 11
203.680354
 21
232.7066349999999
 31
0.0
  0
LINE
  5
B40C
330
B1CC
100
AcDbEntity
  8
1
  6
Continuous
100
AcDbLine
 10
194.6692469999999
 20
275.706635
 30
0.0
 11
193.6692469999999
 21
276.7066349999999
 31
0.0
  0
LINE
  5
B40D
330
B1CC
100
AcDbEntity
  8
1
  6
Continuous
100
AcDbLine
 10
182.6692469999999
 20
275.706635
 30
0.0
 11
183.6692469999999
 21
276.7066349999999
 31
0.0
  0
LINE
  5
B40E
330
B1CC
100
AcDbEntity
  8
1
  6
Continuous
100
AcDbLine
 10
182.6692469999999
 20
275.706635
 30
0.0
 11
194.6692469999999
 21
275.706635
 31
0.0
  0
LINE
  5
B40F
330
B1CC
100
AcDbEntity
  8
1
  6
Continuous
100
AcDbLine
 10
193.6692469999999
 20
276.7066349999999
 30
0.0
 11
183.6692469999999
 21
276.7066349999999
 31
0.0
  0
ARC
  5
B410
330
B1CC
100
AcDbEntity
  8
1
  6
Continuous
100
AcDbCircle
 10
169.2363949999998
 20
103.4097089999999
 30
0.0
 40
10.0
100
AcDbArc
 50
301.231603
 51
304.001638
  0
ARC
  5
B411
330
B1CC
100
AcDbEntity
  8
1
  6
Continuous
100
AcDbCircle
 10
169.2363949999998
 20
103.4097089999999
 30
0.0
 40
12.3
100
AcDbArc
 50
270.0
 51
304.001638
  0
ARC
  5
B412
330
B1CC
100
AcDbEntity
  8
1
  6
Continuous
100
AcDbCircle
 10
169.2363949999998
 20
45.792709
 30
0.0
 40
12.3
100
AcDbArc
 50
55.998362
 51
90.0
  0
ARC
  5
B413
330
B1CC
100
AcDbEntity
  8
1
  6
Continuous
100
AcDbCircle
 10
169.2363949999998
 20
45.792709
 30
0.0
 40
10.0
100
AcDbArc
 50
55.998362
 51
90.0
  0
LINE
  5
B414
330
B1CC
100
AcDbEntity
  8
1
  6
Continuous
100
AcDbLine
 10
158.874515
 20
354.0054979999999
 30
0.0
 11
128.3657009999998
 21
354.0054979999999
 31
0.0
  0
LINE
  5
B415
330
B1CC
100
AcDbEntity
  8
1
  6
Continuous
100
AcDbLine
 10
158.874515
 20
333.0054979999998
 30
0.0
 11
128.3657009999998
 21
333.0054979999998
 31
0.0
  0
LINE
  5
B416
330
B1CC
100
AcDbEntity
  8
1
  6
Continuous
100
AcDbLine
 10
159.6692469999998
 20
326.996998
 30
0.0
 11
159.6692469999998
 21
329.0054979999998
 31
0.0
  0
LINE
  5
B417
330
B1CC
100
AcDbEntity
  8
1
  6
Continuous
100
AcDbLine
 10
154.1529659999999
 20
326.996998
 30
0.0
 11
161.279301
 21
326.996998
 31
0.0
  0
LINE
  5
B418
330
B1CC
100
AcDbEntity
  8
1
  6
Continuous
100
AcDbLine
 10
153.4691719999998
 20
360.013998
 30
0.0
 11
161.279301
 21
360.013998
 31
0.0
  0
LINE
  5
B419
330
B1CC
100
AcDbEntity
  8
1
  6
Continuous
100
AcDbLine
 10
153.4691719999998
 20
362.313998
 30
0.0
 11
169.2363949999998
 21
362.313998
 31
0.0
  0
LINE
  5
B41A
330
B1CC
100
AcDbEntity
  8
1
  6
Continuous
100
AcDbLine
 10
152.3239479999998
 20
358.0054979999999
 30
0.0
 11
161.2822679999998
 21
358.0054979999999
 31
0.0
  0
LINE
  5
B41B
330
B1CC
100
AcDbEntity
  8
1
  6
Continuous
100
AcDbLine
 10
151.1692469999998
 20
356.0054979999999
 30
0.0
 11
159.947597
 21
356.0054979999999
 31
0.0
  0
LINE
  5
B41C
330
B1CC
100
AcDbEntity
  8
1
  6
Continuous
100
AcDbLine
 10
151.1692469999998
 20
331.0054979999998
 30
0.0
 11
159.947597
 21
331.0054979999998
 31
0.0
  0
LINE
  5
B41D
330
B1CC
100
AcDbEntity
  8
1
  6
Continuous
100
AcDbLine
 10
152.3239479999998
 20
329.0054979999998
 30
0.0
 11
161.2822679999998
 21
329.0054979999998
 31
0.0
  0
ARC
  5
B41E
330
B1CC
100
AcDbEntity
  8
1
  6
Continuous
100
AcDbCircle
 10
186.1692469999999
 20
343.5054979999998
 30
0.0
 40
60.0
100
AcDbArc
 50
171.150117
 51
188.8498829999998
  0
ARC
  5
B41F
330
B1CC
100
AcDbEntity
  8
1
  6
Continuous
100
AcDbCircle
 10
128.3657009999998
 20
334.505498
 30
0.0
 40
1.5
100
AcDbArc
 50
188.8498829999998
 51
270.0
  0
LINE
  5
B420
330
B1CC
100
AcDbEntity
  8
1
  6
Continuous
100
AcDbLine
 10
151.1692469999998
 20
331.0054979999998
 30
0.0
 11
145.159747
 21
332.4750589999998
 31
0.0
  0
LINE
  5
B421
330
B1CC
100
AcDbEntity
  8
1
  6
Continuous
100
AcDbLine
 10
151.1692469999998
 20
331.0054979999998
 30
0.0
 11
152.3239479999998
 21
329.0054979999998
 31
0.0
  0
ARC
  5
B422
330
B1CC
100
AcDbEntity
  8
1
  6
Continuous
100
AcDbCircle
 10
145.231009
 20
332.766472
 30
0.0
 40
0.3
100
AcDbArc
 50
210.0
 51
256.258585
  0
LINE
  5
B423
330
B1CC
100
AcDbEntity
  8
1
  6
Continuous
100
AcDbLine
 10
144.746598
 20
333.0054979999998
 30
0.0
 11
144.9712019999998
 21
332.6164719999999
 31
0.0
  0
ARC
  5
B424
330
B1CC
100
AcDbEntity
  8
1
  6
Continuous
100
AcDbCircle
 10
128.3657009999998
 20
352.505498
 30
0.0
 40
1.5
100
AcDbArc
 50
90.0
 51
171.150117
  0
LINE
  5
B425
330
B1CC
100
AcDbEntity
  8
1
  6
Continuous
100
AcDbLine
 10
153.4691719999998
 20
362.313998
 30
0.0
 11
153.4691719999998
 21
360.013998
 31
0.0
  0
LINE
  5
B426
330
B1CC
100
AcDbEntity
  8
1
  6
Continuous
100
AcDbLine
 10
151.1692469999998
 20
356.0054979999999
 30
0.0
 11
145.159747
 21
354.5359369999998
 31
0.0
  0
ARC
  5
B427
330
B1CC
100
AcDbEntity
  8
1
  6
Continuous
100
AcDbCircle
 10
145.231009
 20
354.244524
 30
0.0
 40
0.3
100
AcDbArc
 50
103.741415
 51
150.0
  0
LINE
  5
B428
330
B1CC
100
AcDbEntity
  8
1
  6
Continuous
100
AcDbLine
 10
144.746598
 20
354.0054979999999
 30
0.0
 11
144.9712019999998
 21
354.3945239999998
 31
0.0
  0
LINE
  5
B429
330
B1CC
100
AcDbEntity
  8
1
  6
Continuous
100
AcDbLine
 10
151.1692469999998
 20
356.0054979999999
 30
0.0
 11
152.3239479999998
 21
358.0054979999999
 31
0.0
  0
LINE
  5
B42A
330
B1CC
100
AcDbEntity
  8
1
  6
Continuous
100
AcDbLine
 10
159.6692469999998
 20
358.0054979999999
 30
0.0
 11
159.6692469999998
 21
360.013998
 31
0.0
  0
LINE
  5
B42B
330
B1CC
100
AcDbEntity
  8
4
  6
CENTER
100
AcDbLine
 10
163.6691719999998
 20
310.014181
 30
0.0
 11
163.6691719999998
 21
371.0242989999999
 31
0.0
  0
ARC
  5
B42C
330
B1CC
100
AcDbEntity
  8
1
  6
Continuous
100
AcDbCircle
 10
169.2363949999998
 20
314.696998
 30
0.0
 40
10.0
100
AcDbArc
 50
55.998362
 51
90.0
  0
ARC
  5
B42D
330
B1CC
100
AcDbEntity
  8
1
  6
Continuous
100
AcDbCircle
 10
169.2363949999998
 20
372.313998
 30
0.0
 40
10.0
100
AcDbArc
 50
270.0
 51
304.001638
  0
LINE
  5
B42E
330
B1CC
100
AcDbEntity
  8
1
  6
Continuous
100
AcDbLine
 10
53.20462299999999
 20
237.878433
 30
0.0
 11
65.204623
 21
237.878433
 31
0.0
  0
LINE
  5
B42F
330
B1CC
100
AcDbEntity
  8
2
  6
Continuous
100
AcDbLine
 10
53.20462299999999
 20
236.7066349999999
 30
0.0
 11
53.881161
 21
237.878433
 31
0.0
  0
LINE
  5
B430
330
B1CC
100
AcDbEntity
  8
2
  6
Continuous
100
AcDbLine
 10
65.204623
 20
236.7066349999999
 30
0.0
 11
64.528085
 21
237.878433
 31
0.0
  0
LINE
  5
B431
330
B1CC
100
AcDbEntity
  8
1
  6
Continuous
100
AcDbLine
 10
182.6692089999999
 20
237.878433
 30
0.0
 11
194.6692089999999
 21
237.878433
 31
0.0
  0
LINE
  5
B432
330
B1CC
100
AcDbEntity
  8
2
  6
Continuous
100
AcDbLine
 10
182.6692089999999
 20
236.7066349999999
 30
0.0
 11
183.3457469999999
 21
237.878433
 31
0.0
  0
LINE
  5
B433
330
B1CC
100
AcDbEntity
  8
2
  6
Continuous
100
AcDbLine
 10
194.6692089999999
 20
236.7066349999999
 30
0.0
 11
193.992671
 21
237.878433
 31
0.0
  0
LINE
  5
B434
330
B1CC
100
AcDbEntity
  8
1
  6
Continuous
100
AcDbLine
 10
274.4033379999998
 20
237.878433
 30
0.0
 11
286.4033379999998
 21
237.878433
 31
0.0
  0
LINE
  5
B435
330
B1CC
100
AcDbEntity
  8
2
  6
Continuous
100
AcDbLine
 10
274.4033379999998
 20
236.7066349999999
 30
0.0
 11
275.0798759999999
 21
237.878433
 31
0.0
  0
LINE
  5
B436
330
B1CC
100
AcDbEntity
  8
2
  6
Continuous
100
AcDbLine
 10
286.4033379999998
 20
236.7066349999999
 30
0.0
 11
285.7268
 21
237.878433
 31
0.0
  0
ARC
  5
B437
330
B1CC
100
AcDbEntity
  8
1
  6
Continuous
100
AcDbCircle
 10
254.541998
 20
173.5036199999999
 30
0.0
 40
2.0
100
AcDbArc
 50
0.0
 51
90.00000300000001
  0
LINE
  5
B438
330
B1CC
100
AcDbEntity
  8
1
  6
Continuous
100
AcDbLine
 10
256.5419989999999
 20
167.369854
 30
0.0
 11
256.5419989999999
 21
176.01639
 31
0.0
  0
ARC
  5
B439
330
B1CC
100
AcDbEntity
  8
1
  6
Continuous
100
AcDbCircle
 10
244.316164
 20
173.50338
 30
0.0
 40
2.0
100
AcDbArc
 50
90.00000300000001
 51
153.984946
  0
LINE
  5
B43A
330
B1CC
100
AcDbEntity
  8
1
  6
Continuous
100
AcDbLine
 10
176.6529339999999
 20
187.8960559999999
 30
0.0
 11
191.1388609999999
 21
185.2838399999999
 31
0.0
  0
LINE
  5
B43B
330
B1CC
100
AcDbEntity
  8
1
  6
Continuous
100
AcDbLine
 10
175.5805709999999
 20
186.4994899999999
 30
0.0
 11
190.895767
 21
183.825277
 31
0.0
  0
LINE
  5
B43C
330
B1CC
100
AcDbEntity
  8
1
  6
Continuous
100
AcDbLine
 10
148.246847
 20
190.246165
 30
0.0
 11
146.2009159999998
 21
176.9476139999999
 31
0.0
  0
LINE
  5
B43D
330
B1CC
100
AcDbEntity
  8
1
  6
Continuous
100
AcDbLine
 10
144.2568889999998
 20
190.61733
 30
0.0
 11
142.276979
 21
177.747927
 31
0.0
  0
LINE
  5
B43E
330
B1CC
100
AcDbEntity
  8
1
  6
Continuous
100
AcDbLine
 10
175.5805699999999
 20
186.4994899999999
 30
0.0
 11
173.3807969999998
 21
170.365607
 31
0.0
  0
LINE
  5
B43F
330
B1CC
100
AcDbEntity
  8
1
  6
Continuous
100
AcDbLine
 10
172.177532
 20
188.2009659999999
 30
0.0
 11
169.716697
 21
170.236558
 31
0.0
  0
LINE
  5
B440
330
B1CC
100
AcDbEntity
  8
1
  6
Continuous
100
AcDbLine
 10
190.6526709999999
 20
181.3943379999998
 30
0.0
 11
191.3888809999999
 21
188.265633
 31
0.0
  0
LINE
  5
B441
330
B1CC
100
AcDbEntity
  8
5
  6
PHANTOM
100
AcDbLine
 10
169.4071549999999
 20
191.940062
 30
0.0
 11
176.6728889999999
 21
177.367819
 31
0.0
  0
LINE
  5
B442
330
B1CC
100
AcDbEntity
  8
5
  6
PHANTOM
100
AcDbLine
 10
165.636772
 20
191.4302519999999
 30
0.0
 11
173.7173789999999
 21
175.198201
 31
0.0
  0
ARC
  5
B443
330
B1CC
100
AcDbEntity
  8
5
  6
PHANTOM
100
AcDbCircle
 10
170.07937
 20
168.8323889999998
 30
0.0
 40
23.117449
100
AcDbArc
 50
91.666292
 51
146.35693
  0
ARC
  5
B444
330
B1CC
100
AcDbEntity
  8
1
  6
Continuous
100
AcDbCircle
 10
118.906812
 20
182.5065379999998
 30
0.0
 40
10.0
100
AcDbArc
 50
0.0
 51
54.06608699999999
  0
LINE
  5
B445
330
B1CC
100
AcDbEntity
  8
1
  6
Continuous
100
AcDbLine
 10
85.34970300000003
 20
165.131805
 30
0.0
 11
85.34970300000003
 21
172.278332
 31
0.0
  0
LINE
  5
B446
330
B1CC
100
AcDbEntity
  8
1
  6
Continuous
100
AcDbLine
 10
73.23433199999998
 20
190.3593449999999
 30
0.0
 11
73.23433199999998
 21
177.721075
 31
0.0
  0
LINE
  5
B447
330
B1CC
100
AcDbEntity
  8
1
  6
Continuous
100
AcDbLine
 10
80.28833199999999
 20
190.529845
 30
0.0
 11
80.28833199999999
 21
169.8573749999999
 31
0.0
  0
ARC
  5
B448
330
B1CC
100
AcDbEntity
  8
5
  6
PHANTOM
100
AcDbCircle
 10
180.767948
 20
218.009464
 30
0.0
 40
36.516224
100
AcDbArc
 50
282.19776
 51
318.0241899999999
  0
LINE
  5
B449
330
B1CC
100
AcDbEntity
  8
1
  6
Continuous
100
AcDbLine
 10
71.969318
 20
178.9048949999999
 30
0.0
 11
71.969318
 21
192.013855
 31
0.0
  0
ARC
  5
B44A
330
B1CC
100
AcDbEntity
  8
1
  6
Continuous
100
AcDbCircle
 10
172.778996
 20
135.3707809999999
 30
0.0
 40
35.0
100
AcDbArc
 50
67.93276099999999
 51
98.30711100000002
  0
ARC
  5
B44B
330
B1CC
100
AcDbEntity
  8
5
  6
PHANTOM
100
AcDbCircle
 10
195.8783679999999
 20
148.107785
 30
0.0
 40
35.0
100
AcDbArc
 50
102.1977609999999
 51
132.572111
  0
ARC
  5
B44C
330
B1CC
100
AcDbEntity
  8
1
  6
Continuous
100
AcDbCircle
 10
174.8861439999998
 20
97.50035799999999
 30
0.0
 40
3.0
100
AcDbArc
 50
90.43150699999999
 51
142.65931
  0
ARC
  5
B44D
330
B1CC
100
AcDbEntity
  8
1
  6
Continuous
100
AcDbCircle
 10
171.83112
 20
96.40970500000001
 30
0.0
 40
3.0
100
AcDbArc
 50
270.0
 51
322.65931
  0
LINE
  5
B44E
330
B1CC
100
AcDbEntity
  8
1
  6
Continuous
100
AcDbLine
 10
171.7853499999999
 20
94.59004499999997
 30
0.0
 11
174.537746
 21
98.197761
 31
0.0
  0
LINE
  5
B44F
330
B1CC
100
AcDbEntity
  8
1
  6
Continuous
100
AcDbLine
 10
122.829476
 20
87.28557099999996
 30
0.0
 11
142.276978
 21
88.31182400000001
 31
0.0
  0
LINE
  5
B450
330
B1CC
100
AcDbEntity
  8
1
  6
Continuous
100
AcDbLine
 10
122.950676
 20
84.98876499999999
 30
0.0
 11
144.265427
 21
86.113551
 31
0.0
  0
ARC
  5
B451
330
B1CC
100
AcDbEntity
  8
1
  6
Continuous
100
AcDbCircle
 10
131.631604
 20
81.267787
 30
0.0
 40
20.17326399999999
100
AcDbArc
 50
75.699
 51
109.7464399999998
  0
LINE
  5
B452
330
B1CC
100
AcDbEntity
  8
1
  6
Continuous
100
AcDbLine
 10
122.8294639999998
 20
97.43121999999999
 30
0.0
 11
122.8294639999998
 21
87.285579
 31
0.0
  0
LINE
  5
B453
330
B1CC
100
AcDbEntity
  8
1
  6
Continuous
100
AcDbLine
 10
122.829476
 20
87.28557099999996
 30
0.0
 11
122.950676
 21
84.98876499999999
 31
0.0
  0
ARC
  5
B454
330
B1CC
100
AcDbEntity
  8
1
  6
Continuous
100
AcDbCircle
 10
125.8294639999999
 20
97.43121999999999
 30
0.0
 40
3.0
100
AcDbArc
 50
109.7464399999998
 51
180.00001
  0
LINE
  5
B455
330
B1CC
100
AcDbEntity
  8
1
  6
Continuous
100
AcDbLine
 10
138.8736689999998
 20
97.90888100000001
 30
0.0
 11
138.8736689999998
 21
88.132228
 31
0.0
  0
ARC
  5
B456
330
B1CC
100
AcDbEntity
  8
1
  6
Continuous
100
AcDbCircle
 10
135.873669
 20
97.90888100000001
 30
0.0
 40
3.0
100
AcDbArc
 50
0.0
 51
75.699
  0
LINE
  5
B457
330
B1CC
100
AcDbEntity
  8
1
  6
Continuous
100
AcDbLine
 10
147.7290459999998
 20
95.70970800000001
 30
0.0
 11
169.7466399999998
 21
95.70970800000001
 31
0.0
  0
LINE
  5
B458
330
B1CC
100
AcDbEntity
  8
1
  6
Continuous
100
AcDbLine
 10
147.609158
 20
93.409709
 30
0.0
 11
171.83112
 21
93.409709
 31
0.0
  0
LINE
  5
B459
330
B1CC
100
AcDbEntity
  8
1
  6
Continuous
100
AcDbLine
 10
147.6091669999999
 20
93.409717
 30
0.0
 11
144.35867
 21
87.327281
 31
0.0
  0
LINE
  5
B45A
330
B1CC
100
AcDbEntity
  8
1
  6
Continuous
100
AcDbLine
 10
149.5332379999998
 20
93.409709
 30
0.0
 11
146.338578
 21
87.43176600000003
 31
0.0
  0
LINE
  5
B45B
330
B1CC
100
AcDbEntity
  8
1
  6
Continuous
100
AcDbLine
 10
152.9126629999999
 20
89.233188
 30
0.0
 11
154.15304
 21
91.10970899999999
 31
0.0
  0
LINE
  5
B45C
330
B1CC
100
AcDbEntity
  8
1
  6
Continuous
100
AcDbLine
 10
149.790556
 20
93.409709
 30
0.0
 11
150.307825
 21
89.278361
 31
0.0
  0
ARC
  5
B45D
330
B1CC
100
AcDbEntity
  8
1
  6
Continuous
100
AcDbCircle
 10
144.133679
 20
88.61007200000001
 30
0.0
 40
2.5
100
AcDbArc
 50
273.02071
 51
331.8796199999999
  0
LINE
  5
B45E
330
B1CC
100
AcDbEntity
  8
1
  6
Continuous
100
AcDbLine
 10
150.307831
 20
89.278369
 30
0.0
 11
152.912657
 21
89.23319499999998
 31
0.0
  0
ARC
  5
B45F
330
B1CC
100
AcDbEntity
  8
1
  6
Continuous
100
AcDbCircle
 10
147.7290459999998
 20
93.209712
 30
0.0
 40
2.5
100
AcDbArc
 50
90.00000300000001
 51
151.87961
  0
LINE
  5
B460
330
B1CC
100
AcDbEntity
  8
1
  6
Continuous
100
AcDbLine
 10
145.524153
 20
94.388026
 30
0.0
 11
142.2769849999999
 21
88.31182400000001
 31
0.0
  0
ARC
  5
B461
330
B1CC
100
AcDbEntity
  8
1
  6
Continuous
100
AcDbCircle
 10
142.153767
 20
88.50559500000001
 30
0.0
 40
2.5
100
AcDbArc
 50
273.02071
 51
331.8796199999999
  0
ARC
  5
B462
330
B1CC
100
AcDbEntity
  8
1
  6
Continuous
100
AcDbCircle
 10
169.400227
 20
96.40970500000001
 30
0.0
 40
3.0
100
AcDbArc
 50
270.0
 51
322.65931
  0
LINE
  5
B463
330
B1CC
100
AcDbEntity
  8
1
  6
Continuous
100
AcDbLine
 10
169.7466389999999
 20
95.70970800000001
 30
0.0
 11
172.501016
 21
99.32002199999999
 31
0.0
  0
LINE
  5
B464
330
B1CC
100
AcDbEntity
  8
1
  6
Continuous
100
AcDbLine
 10
86.78833199999997
 20
173.5786449999999
 30
0.0
 11
95.27554700000001
 21
173.5786449999999
 31
0.0
  0
LINE
  5
B465
330
B1CC
100
AcDbEntity
  8
1
  6
Continuous
100
AcDbLine
 10
87.16829
 20
175.5036749999999
 30
0.0
 11
95.27554700000001
 21
175.5036749999999
 31
0.0
  0
LINE
  5
B466
330
B1CC
100
AcDbEntity
  8
1
  6
Continuous
100
AcDbLine
 10
85.34970300000003
 20
165.3699049999999
 30
0.0
 11
97.01344699999999
 21
165.3699049999999
 31
0.0
  0
ARC
  5
B467
330
B1CC
100
AcDbEntity
  8
1
  6
Continuous
100
AcDbCircle
 10
71.18280300000002
 20
178.6998449999999
 30
0.0
 40
1.0
100
AcDbArc
 50
221.38382
 51
263.7504599999999
  0
LINE
  5
B468
330
B1CC
100
AcDbEntity
  8
1
  6
Continuous
100
AcDbLine
 10
69.66931399999999
 20
178.9048949999999
 30
0.0
 11
71.969318
 21
178.9048949999999
 31
0.0
  0
LINE
  5
B469
330
B1CC
100
AcDbEntity
  8
1
  6
Continuous
100
AcDbLine
 10
69.669321
 20
178.904885
 30
0.0
 11
70.432502
 21
178.0387349999998
 31
0.0
  0
LINE
  5
B46A
330
B1CC
100
AcDbEntity
  8
1
  6
Continuous
100
AcDbLine
 10
83.0497
 20
165.131805
 30
0.0
 11
83.0497
 21
169.3573749999998
 31
0.0
  0
LINE
  5
B46B
330
B1CC
100
AcDbEntity
  8
1
  6
Continuous
100
AcDbLine
 10
77.98833000000001
 20
169.8573749999999
 30
0.0
 11
84.34970300000001
 21
169.8573749999999
 31
0.0
  0
ARC
  5
B46C
330
B1CC
100
AcDbEntity
  8
1
  6
Continuous
100
AcDbCircle
 10
77.48833000000002
 20
176.5003649999999
 30
0.0
 40
0.5
100
AcDbArc
 50
0.000003
 51
83.75046000000002
  0
ARC
  5
B46D
330
B1CC
100
AcDbEntity
  8
1
  6
Continuous
100
AcDbCircle
 10
78.28833299999998
 20
175.155655
 30
0.0
 40
2.0
100
AcDbArc
 50
0.000003
 51
83.75046000000002
  0
LINE
  5
B46E
330
B1CC
100
AcDbEntity
  8
1
  6
Continuous
100
AcDbLine
 10
78.50604099999998
 20
177.143775
 30
0.0
 11
73.23433399999998
 21
177.721075
 31
0.0
  0
LINE
  5
B46F
330
B1CC
100
AcDbEntity
  8
1
  6
Continuous
100
AcDbLine
 10
77.98833000000001
 20
169.8573749999999
 30
0.0
 11
77.98833000000001
 21
176.5003649999999
 31
0.0
  0
ARC
  5
B470
330
B1CC
100
AcDbEntity
  8
1
  6
Continuous
100
AcDbCircle
 10
82.5497
 20
169.3573749999998
 30
0.0
 40
0.5
100
AcDbArc
 50
0.000003
 51
90.00001000000002
  0
ARC
  5
B471
330
B1CC
100
AcDbEntity
  8
1
  6
Continuous
100
AcDbCircle
 10
84.34970300000001
 20
168.8573749999999
 30
0.0
 40
1.0
100
AcDbArc
 50
0.000003
 51
90.00001000000002
  0
LINE
  5
B472
330
B1CC
100
AcDbEntity
  8
1
  6
Continuous
100
AcDbLine
 10
83.0497
 20
165.131805
 30
0.0
 11
85.34970300000003
 21
165.131805
 31
0.0
  0
LINE
  5
B473
330
B1CC
100
AcDbEntity
  8
1
  6
Continuous
100
AcDbLine
 10
71.969326
 20
178.9048949999999
 30
0.0
 11
73.23433799999998
 21
177.721075
 31
0.0
  0
LINE
  5
B474
330
B1CC
100
AcDbEntity
  8
1
  6
Continuous
100
AcDbLine
 10
77.54276199999998
 20
176.9973949999999
 30
0.0
 11
71.073942
 21
177.7057949999999
 31
0.0
  0
ARC
  5
B475
330
B1CC
100
AcDbEntity
  8
1
  6
Continuous
100
AcDbCircle
 10
97.01344699999999
 20
166.3699049999999
 30
0.0
 40
1.0
100
AcDbArc
 50
270.0000039999998
 51
0.000003
  0
LWPOLYLINE
  5
B476
330
B1CC
100
AcDbEntity
  8
1
  6
Continuous
100
AcDbPolyline
 90
       17
 70
     0
 43
0.0
 10
97.99770700000001
 20
169.913625
 42
0.008513
 10
98.01039900000001
 20
170.2030949999999
 42
0.008476
 10
98.01323199999997
 20
170.491125
 42
0.008462
 10
98.00631500000001
 20
170.778735
 42
0.008423
 10
97.989729
 20
171.065275
 42
0.008368
 10
97.963588
 20
171.3504849999999
 42
0.00832
 10
97.92792900000002
 20
171.6347649999999
 42
0.008256
 10
97.882849
 20
171.9178249999999
 42
0.008179
 10
97.82846800000001
 20
172.199355
 42
0.008088
 10
97.764932
 20
172.4790849999999
 42
0.007986
 10
97.692408
 20
172.7567249999999
 42
0.007873
 10
97.611085
 20
173.0320449999999
 42
0.00775
 10
97.521166
 20
173.304785
 42
0.007619
 10
97.422871
 20
173.574725
 42
0.007481
 10
97.316432
 20
173.841675
 42
0.007337
 10
97.20209199999999
 20
174.105445
 42
0.007189
 10
97.080099
 20
174.365855
  0
LWPOLYLINE
  5
B489
330
B1CC
100
AcDbEntity
  8
1
  6
Continuous
100
AcDbPolyline
 90
       17
 70
     0
 43
0.0
 10
97.99770700000001
 20
167.988595
 42
0.008513
 10
98.01039900000001
 20
168.2780649999999
 42
0.008476
 10
98.01323199999997
 20
168.5660949999999
 42
0.008462
 10
98.00631500000001
 20
168.8537149999999
 42
0.008423
 10
97.989729
 20
169.140255
 42
0.008368
 10
97.963588
 20
169.425455
 42
0.00832
 10
97.92792900000002
 20
169.709745
 42
0.008256
 10
97.882849
 20
169.992795
 42
0.008179
 10
97.82846800000001
 20
170.274335
 42
0.008088
 10
97.764932
 20
170.554055
 42
0.007986
 10
97.692408
 20
170.8317049999999
 42
0.007873
 10
97.611085
 20
171.1070149999999
 42
0.00775
 10
97.521166
 20
171.3797549999999
 42
0.007619
 10
97.422871
 20
171.649705
 42
0.007481
 10
97.316432
 20
171.9166549999999
 42
0.007337
 10
97.20209199999999
 20
172.1804149999999
 42
0.007189
 10
97.080099
 20
172.4408249999999
  0
ARC
  5
B49C
330
B1CC
100
AcDbEntity
  8
1
  6
Continuous
100
AcDbCircle
 10
95.27554700000001
 20
173.503425
 30
0.0
 40
2.0
100
AcDbArc
 50
26.01504999999999
 51
89.99998999999998
  0
ARC
  5
B49D
330
B1CC
100
AcDbEntity
  8
1
  6
Continuous
100
AcDbCircle
 10
95.27554700000001
 20
171.578405
 30
0.0
 40
2.0
100
AcDbArc
 50
26.01504999999999
 51
89.99998999999998
  0
LINE
  5
B49E
330
B1CC
100
AcDbEntity
  8
1
  6
Continuous
100
AcDbLine
 10
98.01344700000001
 20
166.3699049999999
 30
0.0
 11
98.01344700000001
 21
170.430665
 31
0.0
  0
LINE
  5
B49F
330
B1CC
100
AcDbEntity
  8
5
  6
PHANTOM
100
AcDbLine
 10
145.049074
 20
183.516041
 30
0.0
 11
149.260178
 21
184.710049
 31
0.0
  0
LINE
  5
B4A0
330
B1CC
100
AcDbEntity
  8
5
  6
PHANTOM
100
AcDbLine
 10
146.810971
 20
165.95677
 30
0.0
 11
136.5983549999999
 21
160.399209
 31
0.0
  0
LINE
  5
B4A1
330
B1CC
100
AcDbEntity
  8
5
  6
PHANTOM
100
AcDbLine
 10
141.2015059999999
 20
177.707321
 30
0.0
 11
146.8109719999999
 21
165.956769
 31
0.0
  0
LINE
  5
B4A2
330
B1CC
100
AcDbEntity
  8
5
  6
PHANTOM
100
AcDbLine
 10
136.4706399999998
 20
175.090298
 30
0.0
 11
145.6569429999998
 21
180.1719689999999
 31
0.0
  0
ARC
  5
B4A3
330
B1CC
100
AcDbEntity
  8
1
  6
Continuous
100
AcDbCircle
 10
136.3005879999998
 20
129.623444
 30
0.0
 40
48.348667
100
AcDbArc
 50
68.021608
 51
82.925914
  0
LINE
  5
B4A4
330
B1CC
100
AcDbEntity
  8
5
  6
PHANTOM
100
AcDbLine
 10
144.70795
 20
179.647006
 30
0.0
 11
150.5044739999999
 21
167.5046159999999
 31
0.0
  0
LINE
  5
B4A5
330
B1CC
100
AcDbEntity
  8
5
  6
PHANTOM
100
AcDbLine
 10
145.0490719999999
 20
183.516042
 30
0.0
 11
145.6569429999998
 21
180.1719689999999
 31
0.0
  0
ARC
  5
B4A6
330
B1CC
100
AcDbEntity
  8
5
  6
PHANTOM
100
AcDbCircle
 10
124.8176759999999
 20
156.7315849999999
 30
0.0
 40
10.0
100
AcDbArc
 50
34.265
 51
88.33108699999998
  0
LINE
  5
B4A7
330
B1CC
100
AcDbEntity
  8
5
  6
PHANTOM
100
AcDbLine
 10
133.0821
 20
162.3617979999998
 30
0.0
 11
133.989475
 21
161.0298889999999
 31
0.0
  0
ARC
  5
B4A8
330
B1CC
100
AcDbEntity
  8
5
  6
PHANTOM
100
AcDbCircle
 10
135.64236
 20
162.155931
 30
0.0
 40
2.0
100
AcDbArc
 50
214.2649899999999
 51
298.55442
  0
ARC
  5
B4A9
330
B1CC
100
AcDbEntity
  8
1
  6
Continuous
100
AcDbCircle
 10
130.906812
 20
180.8949199999999
 30
0.0
 40
2.0
100
AcDbArc
 50
179.9999899999999
 51
264.28942
  0
LINE
  5
B4AA
330
B1CC
100
AcDbEntity
  8
5
  6
PHANTOM
100
AcDbLine
 10
122.7067399999999
 20
166.797335
 30
0.0
 11
136.6244479999998
 21
174.4832309999999
 31
0.0
  0
LINE
  5
B4AB
330
B1CC
100
AcDbEntity
  8
5
  6
PHANTOM
100
AcDbLine
 10
121.594866
 20
168.810729
 30
0.0
 11
135.512573
 21
176.4966239999999
 31
0.0
  0
LINE
  5
B4AC
330
B1CC
100
AcDbEntity
  8
5
  6
PHANTOM
100
AcDbLine
 10
122.706729
 20
166.797338
 30
0.0
 11
125.1089209999999
 21
166.7273459999998
 31
0.0
  0
LINE
  5
B4AD
330
B1CC
100
AcDbEntity
  8
5
  6
PHANTOM
100
AcDbLine
 10
121.594866
 20
168.810729
 30
0.0
 11
122.7067399999999
 21
166.797335
 31
0.0
  0
LINE
  5
B4AE
330
B1CC
100
AcDbEntity
  8
1
  6
Continuous
100
AcDbLine
 10
128.906812
 20
182.5065379999998
 30
0.0
 11
128.906812
 21
180.8949199999999
 31
0.0
  0
LINE
  5
B4AF
330
B1CC
100
AcDbEntity
  8
5
  6
PHANTOM
100
AcDbLine
 10
135.512573
 20
176.4966239999999
 30
0.0
 11
136.6244479999998
 21
174.4832309999999
 31
0.0
  0
LINE
  5
B4B0
330
B1CC
100
AcDbEntity
  8
1
  6
Continuous
100
AcDbLine
 10
142.276979
 20
177.747929
 30
0.0
 11
130.7078149999999
 21
178.9048449999999
 31
0.0
  0
ARC
  5
B4B1
330
B1CC
100
AcDbEntity
  8
5
  6
PHANTOM
100
AcDbCircle
 10
160.806263
 20
160.290118
 30
0.0
 40
10.0
100
AcDbArc
 50
85.29030400000001
 51
102.286608
  0
ARC
  5
B4B2
330
B1CC
100
AcDbEntity
  8
1
  6
Continuous
100
AcDbCircle
 10
165.70863
 20
183.7942729999998
 30
0.0
 40
13.93694899999998
100
AcDbArc
 50
231.02531
 51
278.30711
  0
ARC
  5
B4B3
330
B1CC
100
AcDbEntity
  8
1
  6
Continuous
100
AcDbCircle
 10
150.652835
 20
165.1851199999998
 30
0.0
 40
10.0
100
AcDbArc
 50
51.02530399999999
 51
68.021608
  0
ARC
  5
B4B4
330
B1CC
100
AcDbEntity
  8
5
  6
PHANTOM
100
AcDbCircle
 10
168.9669389999999
 20
122.8198209999999
 30
0.0
 40
48.348667
100
AcDbArc
 50
102.286608
 51
117.1909139999999
  0
LINE
  5
B4B5
330
B1CC
100
AcDbEntity
  8
5
  6
PHANTOM
100
AcDbLine
 10
149.260176
 20
184.7100519999999
 30
0.0
 11
150.8339789999999
 21
181.6398579999998
 31
0.0
  0
ARC
  5
B4B6
330
B1CC
100
AcDbEntity
  8
5
  6
PHANTOM
100
AcDbCircle
 10
162.77166
 20
184.1462449999999
 30
0.0
 40
13.93694899999998
100
AcDbArc
 50
265.2903099999999
 51
312.57211
  0
ARC
  5
B4B7
330
B1CC
100
AcDbEntity
  8
1
  6
Continuous
100
AcDbCircle
 10
206.03365
 20
93.56341099999999
 30
0.0
 40
19.871416
100
AcDbArc
 50
87.72556999999997
 51
102.7433999999998
  0
ARC
  5
B4B8
330
B1CC
100
AcDbEntity
  8
1
  6
Continuous
100
AcDbCircle
 10
205.484219
 20
111.1784729999999
 30
0.0
 40
2.0
100
AcDbArc
 50
10.895189
 51
87.72556999999997
  0
LINE
  5
B4B9
330
B1CC
100
AcDbEntity
  8
1
  6
Continuous
100
AcDbLine
 10
209.177838
 20
102.570388
 30
0.0
 11
197.677311
 21
100.672084
 31
0.0
  0
LINE
  5
B4BA
330
B1CC
100
AcDbEntity
  8
1
  6
Continuous
100
AcDbLine
 10
174.863552
 20
100.500281
 30
0.0
 11
209.526051
 21
100.761336
 31
0.0
  0
LINE
  5
B4BB
330
B1CC
100
AcDbEntity
  8
1
  6
Continuous
100
AcDbLine
 10
174.537744
 20
98.197761
 30
0.0
 11
208.844529
 21
98.456138
 31
0.0
  0
LINE
  5
B4BC
330
B1CC
100
AcDbEntity
  8
1
  6
Continuous
100
AcDbLine
 10
197.677311
 20
100.672088
 30
0.0
 11
196.705904
 21
109.49705
 31
0.0
  0
LINE
  5
B4BD
330
B1CC
100
AcDbEntity
  8
1
  6
Continuous
100
AcDbLine
 10
174.216249
 20
94.59004499999997
 30
0.0
 11
176.968636
 21
98.19775300000001
 31
0.0
  0
ARC
  5
B4BE
330
B1CC
100
AcDbEntity
  8
1
  6
Continuous
100
AcDbCircle
 10
194.22395
 20
95.373496
 30
0.0
 40
1.0
100
AcDbArc
 50
269.00653
 51
351.24136
  0
ARC
  5
B4BF
330
B1CC
100
AcDbEntity
  8
1
  6
Continuous
100
AcDbCircle
 10
193.2463419999999
 20
95.390449
 30
0.0
 40
1.0
100
AcDbArc
 50
206.71825
 51
351.24136
  0
LINE
  5
B4C0
330
B1CC
100
AcDbEntity
  8
1
  6
Continuous
100
AcDbLine
 10
194.2066059999999
 20
94.37364499999999
 30
0.0
 11
193.229002
 21
94.39060500000001
 31
0.0
  0
LINE
  5
B4C1
330
B1CC
100
AcDbEntity
  8
1
  6
Continuous
100
AcDbLine
 10
194.71407
 20
98.34971500000001
 30
0.0
 11
194.234681
 21
95.238185
 31
0.0
  0
LINE
  5
B4C2
330
B1CC
100
AcDbEntity
  8
1
  6
Continuous
100
AcDbLine
 10
195.695425
 20
98.35710400000001
 30
0.0
 11
195.212283
 21
95.221225
 31
0.0
  0
LINE
  5
B4C3
330
B1CC
100
AcDbEntity
  8
1
  6
Continuous
100
AcDbLine
 10
192.353117
 20
94.940852
 30
0.0
 11
190.652676
 21
98.319121
 31
0.0
  0
ARC
  5
B4C4
330
B1CC
100
AcDbEntity
  8
1
  6
Continuous
100
AcDbCircle
 10
204.774975
 20
93.321132
 30
0.0
 40
19.871416
100
AcDbArc
 50
87.72556999999997
 51
108.7507699999999
  0
ARC
  5
B4C5
330
B1CC
100
AcDbEntity
  8
1
  6
Continuous
100
AcDbCircle
 10
199.1908989999998
 20
109.770575
 30
0.0
 40
2.5
100
AcDbArc
 50
108.7507699999999
 51
186.2815399999998
  0
LINE
  5
B4C6
330
B1CC
100
AcDbEntity
  8
1
  6
Continuous
100
AcDbLine
 10
210.817314
 20
100.8342889999999
 30
0.0
 11
208.7068449999999
 21
111.7987659999998
 31
0.0
  0
LINE
  5
B4C7
330
B1CC
100
AcDbEntity
  8
1
  6
Continuous
100
AcDbLine
 10
209.5586359999999
 20
100.592013
 30
0.0
 11
207.448166
 21
111.556491
 31
0.0
  0
ARC
  5
B4C8
330
B1CC
100
AcDbEntity
  8
1
  6
Continuous
100
AcDbCircle
 10
208.8294679999999
 20
100.4560769999999
 30
0.0
 40
2.0
100
AcDbArc
 50
270.43151
 51
0.0
  0
LINE
  5
B4C9
330
B1CC
100
AcDbEntity
  8
1
  6
Continuous
100
AcDbLine
 10
210.8294679999999
 20
100.77114
 30
0.0
 11
210.8294679999999
 21
100.4560769999999
 31
0.0
  0
ARC
  5
B4CA
330
B1CC
100
AcDbEntity
  8
1
  6
Continuous
100
AcDbCircle
 10
206.742894
 20
111.420737
 30
0.0
 40
2.0
100
AcDbArc
 50
10.895189
 51
87.72556999999997
  0
LINE
  5
B4CB
330
B1CC
100
AcDbEntity
  8
1
  6
Continuous
100
AcDbLine
 10
197.0162479999999
 20
173.578595
 30
0.0
 11
209.5707909999999
 21
165.369854
 31
0.0
  0
LINE
  5
B4CC
330
B1CC
100
AcDbEntity
  8
1
  6
Continuous
100
AcDbLine
 10
198.2749229999998
 20
175.5036269999999
 30
0.0
 11
210.829469
 21
167.2948859999999
 31
0.0
  0
LINE
  5
B4CD
330
B1CC
100
AcDbEntity
  8
1
  6
Continuous
100
AcDbLine
 10
190.6526709999999
 20
181.3943339999999
 30
0.0
 11
193.2664289999999
 21
181.917086
 31
0.0
  0
ARC
  5
B4CE
330
B1CC
100
AcDbEntity
  8
1
  6
Continuous
100
AcDbCircle
 10
199.6472389999999
 20
201.6479799999999
 30
0.0
 40
36.516224
100
AcDbArc
 50
247.93276
 51
283.7591899999998
  0
LINE
  5
B4CF
330
B1CC
100
AcDbEntity
  8
1
  6
Continuous
100
AcDbLine
 10
198.2749229999998
 20
175.5036269999999
 30
0.0
 11
197.0162479999999
 21
173.578595
 31
0.0
  0
LINE
  5
B4D0
330
B1CC
100
AcDbEntity
  8
1
  6
Continuous
100
AcDbLine
 10
194.9229689999999
 20
179.2252039999999
 30
0.0
 11
194.0559879999999
 21
176.0462719999999
 31
0.0
  0
LINE
  5
B4D1
330
B1CC
100
AcDbEntity
  8
1
  6
Continuous
100
AcDbLine
 10
194.542177
 20
175.0738959999999
 30
0.0
 11
195.025045
 21
174.660009
 31
0.0
  0
LINE
  5
B4D2
330
B1CC
100
AcDbEntity
  8
1
  6
Continuous
100
AcDbLine
 10
194.5421749999999
 20
175.0738939999999
 30
0.0
 11
194.021533
 21
175.919936
 31
0.0
  0
LINE
  5
B4D3
330
B1CC
100
AcDbEntity
  8
1
  6
Continuous
100
AcDbLine
 10
194.922971
 20
179.225207
 30
0.0
 11
193.2664289999999
 21
181.917087
 31
0.0
  0
ARC
  5
B4D4
330
B1CC
100
AcDbEntity
  8
1
  6
Continuous
100
AcDbCircle
 10
196.326625
 20
176.17852
 30
0.0
 40
2.0
100
AcDbArc
 50
229.39871
 51
326.8214899999999
  0
LINE
  5
B4D5
330
B1CC
100
AcDbEntity
  8
1
  6
Continuous
100
AcDbLine
 10
210.829469
 20
167.2948859999999
 30
0.0
 11
209.5707909999999
 21
165.369854
 31
0.0
  0
LINE
  5
B4D6
330
B1CC
100
AcDbEntity
  8
1
  6
Continuous
100
AcDbLine
 10
254.541998
 20
167.29488
 30
0.0
 11
242.5782569999999
 21
167.29488
 31
0.0
  0
LINE
  5
B4D7
330
B1CC
100
AcDbEntity
  8
1
  6
Continuous
100
AcDbLine
 10
254.541998
 20
165.369854
 30
0.0
 11
242.5782569999999
 21
165.369854
 31
0.0
  0
LWPOLYLINE
  5
B4D8
330
B1CC
100
AcDbEntity
  8
1
  6
Continuous
100
AcDbPolyline
 90
       17
 70
     0
 43
0.0
 10
242.5184129999999
 20
174.37978
 42
0.007202
 10
242.3956779999998
 20
174.11881
 42
0.007353
 10
242.2805929999999
 20
173.8543899999999
 42
0.0075
 10
242.173416
 20
173.58667
 42
0.007642
 10
242.074397
 20
173.31583
 42
0.007777
 10
241.9837779999999
 20
173.0420699999999
 42
0.007904
 10
241.9017899999999
 20
172.76562
 42
0.008021
 10
241.828649
 20
172.4867
 42
0.008128
 10
241.7645549999999
 20
172.20557
 42
0.008223
 10
241.70969
 20
171.9225
 42
0.008305
 10
241.664211
 20
171.63778
 42
0.008372
 10
241.628254
 20
171.3516999999999
 42
0.008424
 10
241.601927
 20
171.0645799999998
 42
0.008485
 10
241.5852759999999
 20
170.7759199999999
 42
0.008499
 10
241.5784449999999
 20
170.4870799999999
 42
0.008455
 10
241.581394
 20
170.19975
 42
0.008453
 10
241.5940729999999
 20
169.91232
  0
LINE
  5
B4EB
330
B1CC
100
AcDbEntity
  8
1
  6
Continuous
100
AcDbLine
 10
241.5782569999998
 20
166.369854
 30
0.0
 11
241.5782569999998
 21
170.43061
 31
0.0
  0
ARC
  5
B4EC
330
B1CC
100
AcDbEntity
  8
1
  6
Continuous
100
AcDbCircle
 10
242.5782569999999
 20
168.29488
 30
0.0
 40
1.0
100
AcDbArc
 50
180.0000029999999
 51
269.9999899999999
  0
ARC
  5
B4ED
330
B1CC
100
AcDbEntity
  8
1
  6
Continuous
100
AcDbCircle
 10
242.5782569999999
 20
166.369854
 30
0.0
 40
1.0
100
AcDbArc
 50
180.0000029999999
 51
269.9999899999999
  0
LINE
  5
B4EE
330
B1CC
100
AcDbEntity
  8
1
  6
Continuous
100
AcDbLine
 10
261.594875
 20
169.85732
 30
0.0
 11
256.5419989999999
 21
169.85732
 31
0.0
  0
ARC
  5
B4EF
330
B1CC
100
AcDbEntity
  8
1
  6
Continuous
100
AcDbCircle
 10
254.541998
 20
167.369854
 30
0.0
 40
2.0
100
AcDbArc
 50
269.9999899999999
 51
0.0
  0
ARC
  5
B4F0
330
B1CC
100
AcDbEntity
  8
1
  6
Continuous
100
AcDbCircle
 10
254.541998
 20
165.29488
 30
0.0
 40
2.0
100
AcDbArc
 50
53.52021999999998
 51
90.00000300000001
  0
LINE
  5
B4F1
330
B1CC
100
AcDbEntity
  8
1
  6
Continuous
100
AcDbLine
 10
174.8634779999999
 20
317.6064289999998
 30
0.0
 11
176.965293
 21
317.590598
 31
0.0
  0
LINE
  5
B4F2
330
B1CC
100
AcDbEntity
  8
1
  6
Continuous
100
AcDbLine
 10
174.421238
 20
323.2478699999999
 30
0.0
 11
176.9826099999999
 21
319.8905369999998
 31
0.0
  0
LINE
  5
B4F3
330
B1CC
100
AcDbEntity
  8
1
  6
Continuous
100
AcDbLine
 10
172.1774579999998
 20
322.396999
 30
0.0
 11
175.094547
 21
318.5734089999999
 31
0.0
  0
LINE
  5
B4F4
330
B1CC
100
AcDbEntity
  8
1
  6
Continuous
100
AcDbLine
 10
175.5805709999999
 20
186.4994819999998
 30
0.0
 11
177.9448399999999
 21
189.5785309999999
 31
0.0
  0
ARC
  5
B4F5
330
B1CC
100
AcDbEntity
  8
1
  6
Continuous
100
AcDbCircle
 10
179.433415
 20
188.8430859999998
 30
0.0
 40
2.5
100
AcDbArc
 50
82.23483599999999
 51
154.97845
  0
LINE
  5
B4F6
330
B1CC
100
AcDbEntity
  8
5
  6
PHANTOM
100
AcDbLine
 10
169.5071049999999
 20
193.6980079999999
 30
0.0
 11
182.949623
 21
199.6950469999999
 31
0.0
  0
LINE
  5
B4F7
330
B1CC
100
AcDbEntity
  8
5
  6
PHANTOM
100
AcDbLine
 10
169.4071549999999
 20
191.9400639999999
 30
0.0
 11
183.5699209999999
 21
198.352762
 31
0.0
  0
LINE
  5
B4F8
330
B1CC
100
AcDbEntity
  8
5
  6
PHANTOM
100
AcDbLine
 10
180.069476
 20
201.843546
 30
0.0
 11
170.4366139999999
 21
197.0408129999999
 31
0.0
  0
LINE
  5
B4F9
330
B1CC
100
AcDbEntity
  8
5
  6
PHANTOM
100
AcDbLine
 10
179.4855619999999
 20
202.934837
 30
0.0
 11
170.156326
 21
198.283486
 31
0.0
  0
LINE
  5
B4FA
330
B1CC
100
AcDbEntity
  8
1
  6
Continuous
100
AcDbLine
 10
150.5357419999999
 20
327.634841
 30
0.0
 11
149.6862449999999
 21
323.9479479999999
 31
0.0
  0
LINE
  5
B4FB
330
B1CC
100
AcDbEntity
  8
1
  6
Continuous
100
AcDbLine
 10
153.3903249999999
 20
328.150768
 30
0.0
 11
156.304031
 21
323.742732
 31
0.0
  0
LINE
  5
B4FC
330
B1CC
100
AcDbEntity
  8
1
  6
Continuous
100
AcDbLine
 10
147.448147
 20
323.718685
 30
0.0
 11
144.2568129999999
 21
329.690406
 31
0.0
  0
LINE
  5
B4FD
330
B1CC
100
AcDbEntity
  8
1
  6
Continuous
100
AcDbLine
 10
145.524074
 20
323.7186879999998
 30
0.0
 11
142.276907
 21
329.794887
 31
0.0
  0
LINE
  5
B4FE
330
B1CC
100
AcDbEntity
  8
1
  6
Continuous
100
AcDbLine
 10
138.8735939999999
 20
320.1978259999999
 30
0.0
 11
138.8735939999999
 21
332.2776789999999
 31
0.0
  0
LINE
  5
B4FF
330
B1CC
100
AcDbEntity
  8
1
  6
Continuous
100
AcDbLine
 10
122.8293889999999
 20
320.675491
 30
0.0
 11
122.8293889999999
 21
330.8211319999998
 31
0.0
  0
ARC
  5
B500
330
B1CC
100
AcDbEntity
  8
1
  6
Continuous
100
AcDbCircle
 10
71.669315
 20
192.3038249999999
 30
0.0
 40
2.0
100
AcDbArc
 50
90.00001000000002
 51
169.212025
  0
LINE
  5
B501
330
B1CC
100
AcDbEntity
  8
1
  6
Continuous
100
AcDbLine
 10
80.28832599999999
 20
188.201025
 30
0.0
 11
85.34971099999998
 21
186.4995449999999
 31
0.0
  0
LINE
  5
B502
330
B1CC
100
AcDbEntity
  8
1
  6
Continuous
100
AcDbLine
 10
75.920856
 20
190.529845
 30
0.0
 11
85.35508900000001
 21
190.529845
 31
0.0
  0
LINE
  5
B503
330
B1CC
100
AcDbEntity
  8
1
  6
Continuous
100
AcDbLine
 10
77.98833000000001
 20
190.529845
 30
0.0
 11
77.98833000000001
 21
190.395585
 31
0.0
  0
LINE
  5
B504
330
B1CC
100
AcDbEntity
  8
1
  6
Continuous
100
AcDbLine
 10
75.920855
 20
190.529845
 30
0.0
 11
80.28833399999998
 21
190.2462149999998
 31
0.0
  0
ARC
  5
B505
330
B1CC
100
AcDbEntity
  8
1
  6
Continuous
100
AcDbCircle
 10
85.35508900000001
 20
191.0298449999999
 30
0.0
 40
0.5
100
AcDbArc
 50
270.0
 51
0.000003
  0
ARC
  5
B506
330
B1CC
100
AcDbEntity
  8
1
  6
Continuous
100
AcDbCircle
 10
85.026842
 20
193.8038249999999
 30
0.0
 40
0.5
100
AcDbArc
 50
24.29733999999999
 51
90.00001000000002
  0
ARC
  5
B507
330
B1CC
100
AcDbEntity
  8
1
  6
Continuous
100
AcDbCircle
 10
85.55508600000001
 20
193.119805
 30
0.0
 40
0.3
100
AcDbArc
 50
0.000003
 51
24.29733999999999
  0
ARC
  5
B508
330
B1CC
100
AcDbEntity
  8
1
  6
Continuous
100
AcDbCircle
 10
85.026842
 20
191.5138549999998
 30
0.0
 40
0.5
100
AcDbArc
 50
24.29733999999999
 51
90.00001000000002
  0
LINE
  5
B509
330
B1CC
100
AcDbEntity
  8
1
  6
Continuous
100
AcDbLine
 10
86.16165200000002
 20
190.978105
 30
0.0
 11
85.96739599999997
 21
188.484165
 31
0.0
  0
LINE
  5
B50A
330
B1CC
100
AcDbEntity
  8
1
  6
Continuous
100
AcDbLine
 10
83.74288599999998
 20
190.529845
 30
0.0
 11
83.14648100000002
 21
187.240195
 31
0.0
  0
LINE
  5
B50B
330
B1CC
100
AcDbEntity
  8
1
  6
Continuous
100
AcDbLine
 10
86.16165200000002
 20
190.978105
 30
0.0
 11
85.349699
 21
186.4995449999999
 31
0.0
  0
LINE
  5
B50C
330
B1CC
100
AcDbEntity
  8
1
  6
Continuous
100
AcDbLine
 10
85.026842
 20
193.826255
 30
0.0
 11
85.026842
 21
192.3461649999999
 31
0.0
  0
LINE
  5
B50D
330
B1CC
100
AcDbEntity
  8
1
  6
Continuous
100
AcDbLine
 10
85.48254799999998
 20
194.009555
 30
0.0
 11
85.82850999999998
 21
193.243245
 31
0.0
  0
LINE
  5
B50E
330
B1CC
100
AcDbEntity
  8
1
  6
Continuous
100
AcDbLine
 10
85.855089
 20
193.119805
 30
0.0
 11
85.855089
 21
191.0298449999999
 31
0.0
  0
LINE
  5
B50F
330
B1CC
100
AcDbEntity
  8
1
  6
Continuous
100
AcDbLine
 10
85.50081500000002
 20
191.679155
 30
0.0
 11
85.786612
 21
191.046105
 31
0.0
  0
LINE
  5
B510
330
B1CC
100
AcDbEntity
  8
1
  6
Continuous
100
AcDbLine
 10
85.85508199999997
 20
191.0336949999999
 30
0.0
 11
86.16165200000002
 21
190.978105
 31
0.0
  0
LINE
  5
B511
330
B1CC
100
AcDbEntity
  8
1
  6
Continuous
100
AcDbLine
 10
85.96739799999998
 20
188.4841849999999
 30
0.0
 11
85.541449
 21
186.1347389999999
 31
0.0
  0
LINE
  5
B512
330
B1CC
100
AcDbEntity
  8
1
  6
Continuous
100
AcDbLine
 10
71.969318
 20
192.013855
 30
0.0
 11
85.026842
 21
192.013855
 31
0.0
  0
LINE
  5
B513
330
B1CC
100
AcDbEntity
  8
1
  6
Continuous
100
AcDbLine
 10
71.669315
 20
194.3038249999999
 30
0.0
 11
85.026842
 21
194.3038249999999
 31
0.0
  0
LINE
  5
B514
330
B1CC
100
AcDbEntity
  8
1
  6
Continuous
100
AcDbLine
 10
71.969318
 20
190.529845
 30
0.0
 11
75.920856
 21
190.529845
 31
0.0
  0
LINE
  5
B515
330
B1CC
100
AcDbEntity
  8
1
  6
Continuous
100
AcDbLine
 10
138.873662
 20
191.1180899999999
 30
0.0
 11
149.326701
 21
190.1457139999999
 31
0.0
  0
LINE
  5
B516
330
B1CC
100
AcDbEntity
  8
1
  6
Continuous
100
AcDbLine
 10
122.8294769999999
 20
192.013803
 30
0.0
 11
138.658983
 21
190.529787
 31
0.0
  0
LINE
  5
B517
330
B1CC
100
AcDbEntity
  8
1
  6
Continuous
100
AcDbLine
 10
123.04416
 20
194.303766
 30
0.0
 11
138.8736659999999
 21
192.819749
 31
0.0
  0
LINE
  5
B518
330
B1CC
100
AcDbEntity
  8
1
  6
Continuous
100
AcDbLine
 10
122.829469
 20
192.013812
 30
0.0
 11
124.775335
 21
190.603482
 31
0.0
  0
LINE
  5
B519
330
B1CC
100
AcDbEntity
  8
1
  6
Continuous
100
AcDbLine
 10
123.04416
 20
194.303766
 30
0.0
 11
122.8294769999999
 21
192.013803
 31
0.0
  0
LINE
  5
B51A
330
B1CC
100
AcDbEntity
  8
1
  6
Continuous
100
AcDbLine
 10
138.8736659999999
 20
192.819749
 30
0.0
 11
138.658983
 21
190.529787
 31
0.0
  0
ARC
  5
B51B
330
B1CC
100
AcDbEntity
  8
1
  6
Continuous
100
AcDbCircle
 10
163.1260039999999
 20
167.0238579999999
 30
0.0
 40
23.117449
100
AcDbArc
 50
57.40129200000001
 51
112.09193
  0
LINE
  5
B51C
330
B1CC
100
AcDbEntity
  8
1
  6
Continuous
100
AcDbLine
 10
150.7071149999999
 20
193.2516419999998
 30
0.0
 11
149.326701
 21
190.145713
 31
0.0
  0
LINE
  5
B51D
330
B1CC
100
AcDbEntity
  8
1
  6
Continuous
100
AcDbLine
 10
150.7071159999999
 20
193.2516389999999
 30
0.0
 11
154.8596029999998
 21
191.867477
 31
0.0
  0
LINE
  5
B51E
330
B1CC
100
AcDbEntity
  8
1
  6
Continuous
100
AcDbLine
 10
154.8596029999998
 20
191.8674809999999
 30
0.0
 11
154.431676
 21
188.444058
 31
0.0
  0
LINE
  5
B51F
330
B1CC
100
AcDbEntity
  8
1
  6
Continuous
100
AcDbLine
 10
177.1680419999999
 20
189.900485
 30
0.0
 11
175.5805729999999
 21
186.499489
 31
0.0
  0
ARC
  5
B520
330
B1CC
100
AcDbEntity
  8
5
  6
PHANTOM
100
AcDbCircle
 10
171.2718139999998
 20
196.0461439999999
 30
0.0
 40
2.5
100
AcDbArc
 50
116.499836
 51
189.24345
  0
ARC
  5
B521
330
B1CC
100
AcDbEntity
  8
5
  6
PHANTOM
100
AcDbCircle
 10
171.088778
 20
195.7327689999999
 30
0.0
 40
1.463619999999998
100
AcDbArc
 50
117.476027
 51
172.6321699999999
  0
LINE
  5
B522
330
B1CC
100
AcDbEntity
  8
5
  6
PHANTOM
100
AcDbLine
 10
169.40716
 20
191.940057
 30
0.0
 11
169.6275219999999
 21
195.8158469999999
 31
0.0
  0
LINE
  5
B523
330
B1CC
100
AcDbEntity
  8
5
  6
PHANTOM
100
AcDbLine
 10
168.8042759999999
 20
195.6445689999999
 30
0.0
 11
169.407158
 21
191.9400629999999
 31
0.0
  0
ARC
  5
B524
330
B1CC
100
AcDbEntity
  8
1
  6
Continuous
100
AcDbCircle
 10
131.631529
 20
336.8389119999998
 30
0.0
 40
20.17326399999999
100
AcDbArc
 50
250.2535599999999
 51
284.3009999999998
  0
ARC
  5
B525
330
B1CC
100
AcDbEntity
  8
1
  6
Continuous
100
AcDbCircle
 10
125.829389
 20
320.675491
 30
0.0
 40
3.0
100
AcDbArc
 50
179.9999899999999
 51
250.25357
  0
ARC
  5
B526
330
B1CC
100
AcDbEntity
  8
1
  6
Continuous
100
AcDbCircle
 10
135.873594
 20
320.1978259999999
 30
0.0
 40
3.0
100
AcDbArc
 50
284.3009999999998
 51
0.0
  0
LINE
  5
B527
330
B1CC
100
AcDbEntity
  8
1
  6
Continuous
100
AcDbLine
 10
147.7289709999998
 20
322.396999
 30
0.0
 11
172.1774579999998
 21
322.396999
 31
0.0
  0
ARC
  5
B528
330
B1CC
100
AcDbEntity
  8
1
  6
Continuous
100
AcDbCircle
 10
147.73731
 20
324.396999
 30
0.0
 40
2.0
100
AcDbArc
 50
296.80124
 51
347.0249299999999
  0
ARC
  5
B529
330
B1CC
100
AcDbEntity
  8
1
  6
Continuous
100
AcDbCircle
 10
158.8067069999999
 20
325.3969989999999
 30
0.0
 40
3.0
100
AcDbArc
 50
213.4646599999999
 51
270.0
  0
ARC
  5
B52A
330
B1CC
100
AcDbEntity
  8
1
  6
Continuous
100
AcDbCircle
 10
149.6530429999999
 20
324.8969989999999
 30
0.0
 40
2.5
100
AcDbArc
 50
208.1203899999999
 51
270.0
  0
ARC
  5
B52B
330
B1CC
100
AcDbEntity
  8
1
  6
Continuous
100
AcDbCircle
 10
147.7289709999998
 20
324.8969989999999
 30
0.0
 40
2.5
100
AcDbArc
 50
208.1203899999999
 51
270.0
  0
ARC
  5
B52C
330
B1CC
100
AcDbEntity
  8
1
  6
Continuous
100
AcDbCircle
 10
174.8860689999999
 20
320.6063459999999
 30
0.0
 40
3.0
100
AcDbArc
 50
217.3406899999999
 51
269.5684899999998
  0
LINE
  5
B52D
330
B1CC
100
AcDbEntity
  8
1
  6
Continuous
100
AcDbLine
 10
169.7465639999998
 20
322.396999
 30
0.0
 11
172.500941
 21
318.7866819999999
 31
0.0
  0
LINE
  5
B52E
330
B1CC
100
AcDbEntity
  8
1
  6
Continuous
100
AcDbLine
 10
138.8735939999999
 20
329.9744789999999
 30
0.0
 11
144.2568179999998
 21
329.690406
 31
0.0
  0
LINE
  5
B52F
330
B1CC
100
AcDbEntity
  8
1
  6
Continuous
100
AcDbLine
 10
124.934793
 20
333.013236
 30
0.0
 11
144.2653479999998
 21
331.9931599999998
 31
0.0
  0
ARC
  5
B530
330
B1CC
100
AcDbEntity
  8
1
  6
Continuous
100
AcDbCircle
 10
124.829389
 20
331.01601
 30
0.0
 40
2.0
100
AcDbArc
 50
86.97929000000002
 51
180.00001
  0
LINE
  5
B531
330
B1CC
100
AcDbEntity
  8
1
  6
Continuous
100
AcDbLine
 10
155.673261
 20
324.696998
 30
0.0
 11
169.2363949999998
 21
324.696998
 31
0.0
  0
LINE
  5
B532
330
B1CC
100
AcDbEntity
  8
1
  6
Continuous
100
AcDbLine
 10
150.0343169999998
 20
327.6855199999999
 30
0.0
 11
149.402197
 21
324.9420579999999
 31
0.0
  0
LINE
  5
B533
330
B1CC
100
AcDbEntity
  8
1
  6
Continuous
100
AcDbLine
 10
149.402199
 20
324.942062
 30
0.0
 11
146.3385029999998
 21
330.6749449999998
 31
0.0
  0
ARC
  5
B534
330
B1CC
100
AcDbEntity
  8
1
  6
Continuous
100
AcDbCircle
 10
151.4960229999998
 20
327.3487279999999
 30
0.0
 40
1.5
100
AcDbArc
 50
90.99346699999999
 51
167.02493
  0
ARC
  5
B535
330
B1CC
100
AcDbEntity
  8
1
  6
Continuous
100
AcDbCircle
 10
152.0737049999999
 20
327.280479
 30
0.0
 40
1.578255999999999
100
AcDbArc
 50
33.464662
 51
167.02493
  0
LINE
  5
B536
330
B1CC
100
AcDbEntity
  8
1
  6
Continuous
100
AcDbLine
 10
151.470009
 20
328.8485059999998
 30
0.0
 11
152.0463389999999
 21
328.8585009999998
 31
0.0
  0
ARC
  5
B537
330
B1CC
100
AcDbEntity
  8
1
  6
Continuous
100
AcDbCircle
 10
144.1336039999999
 20
329.4966269999998
 30
0.0
 40
2.5
100
AcDbArc
 50
28.120384
 51
86.97929000000002
  0
LINE
  5
B538
330
B1CC
100
AcDbEntity
  8
5
  6
PHANTOM
100
AcDbLine
 10
194.397247
 20
193.330431
 30
0.0
 11
209.39455
 21
193.614855
 31
0.0
  0
LINE
  5
B539
330
B1CC
100
AcDbEntity
  8
5
  6
PHANTOM
100
AcDbLine
 10
194.353635
 20
195.63002
 30
0.0
 11
209.3509399999998
 21
195.914445
 31
0.0
  0
ARC
  5
B53A
330
B1CC
100
AcDbEntity
  8
5
  6
PHANTOM
100
AcDbCircle
 10
192.3634999999999
 20
195.090847
 30
0.0
 40
2.0
100
AcDbArc
 50
263.6637099999999
 51
1.086489999999999
  0
LINE
  5
B53B
330
B1CC
100
AcDbEntity
  8
1
  6
Continuous
100
AcDbLine
 10
189.9682359999999
 20
188.681035
 30
0.0
 11
179.30319
 21
190.135359
 31
0.0
  0
LINE
  5
B53C
330
B1CC
100
AcDbEntity
  8
1
  6
Continuous
100
AcDbLine
 10
190.100085
 20
189.9116799999999
 30
0.0
 11
179.7711989999999
 21
191.3201639999998
 31
0.0
  0
ARC
  5
B53D
330
B1CC
100
AcDbEntity
  8
1
  6
Continuous
100
AcDbCircle
 10
189.7655679999998
 20
187.194794
 30
0.0
 40
1.5
100
AcDbArc
 50
353.8845
 51
82.23483599999999
  0
ARC
  5
B53E
330
B1CC
100
AcDbEntity
  8
1
  6
Continuous
100
AcDbCircle
 10
189.8974189999999
 20
188.42543
 30
0.0
 40
1.5
100
AcDbArc
 50
353.8845
 51
82.23483599999999
  0
LINE
  5
B53F
330
B1CC
100
AcDbEntity
  8
5
  6
PHANTOM
100
AcDbLine
 10
184.7376869999999
 20
196.206863
 30
0.0
 11
181.477437
 21
202.300094
 31
0.0
  0
LINE
  5
B540
330
B1CC
100
AcDbEntity
  8
5
  6
PHANTOM
100
AcDbLine
 10
189.488111
 20
196.818467
 30
0.0
 11
190.561408
 21
193.7031349999998
 31
0.0
  0
LINE
  5
B541
330
B1CC
100
AcDbEntity
  8
5
  6
PHANTOM
100
AcDbLine
 10
191.510683
 20
193.173257
 30
0.0
 11
192.1427729999998
 21
193.103068
 31
0.0
  0
LINE
  5
B542
330
B1CC
100
AcDbEntity
  8
5
  6
PHANTOM
100
AcDbLine
 10
191.510683
 20
193.1732529999999
 30
0.0
 11
190.6040619999999
 21
193.579326
 31
0.0
  0
LINE
  5
B543
330
B1CC
100
AcDbEntity
  8
5
  6
PHANTOM
100
AcDbLine
 10
184.7376889999999
 20
196.20686
 30
0.0
 11
186.60349
 21
198.110485
 31
0.0
  0
LINE
  5
B544
330
B1CC
100
AcDbEntity
  8
5
  6
PHANTOM
100
AcDbLine
 10
189.488111
 20
196.8184709999999
 30
0.0
 11
186.6034889999999
 21
198.110486
 31
0.0
  0
ARC
  5
B545
330
B1CC
100
AcDbEntity
  8
5
  6
PHANTOM
100
AcDbCircle
 10
180.7387679999999
 20
200.5011469999999
 30
0.0
 40
1.5
100
AcDbArc
 50
28.14949999999999
 51
116.499836
  0
ARC
  5
B546
330
B1CC
100
AcDbEntity
  8
5
  6
PHANTOM
100
AcDbCircle
 10
180.15486
 20
201.5924329999998
 30
0.0
 40
1.5
100
AcDbArc
 50
28.14949999999999
 51
116.499836
  0
ARC
  5
B547
330
B1CC
100
AcDbEntity
  8
1
  6
Continuous
100
AcDbCircle
 10
179.1057099999999
 20
188.687153
 30
0.0
 40
1.463619999999998
100
AcDbArc
 50
83.211027
 51
138.3671699999998
  0
LINE
  5
B548
330
B1CC
100
AcDbEntity
  8
5
  6
PHANTOM
100
AcDbLine
 10
194.353635
 20
195.63002
 30
0.0
 11
194.397247
 21
193.330431
 31
0.0
  0
LINE
  5
B549
330
B1CC
100
AcDbEntity
  8
5
  6
PHANTOM
100
AcDbLine
 10
209.3509399999998
 20
195.914445
 30
0.0
 11
209.39455
 21
193.614855
 31
0.0
  0
LINE
  5
B54A
330
B1CC
100
AcDbEntity
  8
1
  6
Continuous
100
AcDbLine
 10
195.6953479999999
 20
319.7496029999999
 30
0.0
 11
208.844454
 21
319.650573
 31
0.0
  0
ARC
  5
B54B
330
B1CC
100
AcDbEntity
  8
1
  6
Continuous
100
AcDbCircle
 10
206.742819
 20
306.685962
 30
0.0
 40
2.0
100
AcDbArc
 50
272.27443
 51
349.1048099999999
  0
ARC
  5
B54C
330
B1CC
100
AcDbEntity
  8
1
  6
Continuous
100
AcDbCircle
 10
190.138426
 20
317.279807
 30
0.0
 40
0.7
100
AcDbArc
 50
269.5684899999998
 51
359.56849
  0
ARC
  5
B54D
330
B1CC
100
AcDbEntity
  8
1
  6
Continuous
100
AcDbCircle
 10
189.2528969999999
 20
319.4981149999999
 30
0.0
 40
2.0
100
AcDbArc
 50
322.8040899999998
 51
333.2817499999998
  0
LINE
  5
B54E
330
B1CC
100
AcDbEntity
  8
1
  6
Continuous
100
AcDbLine
 10
190.839998
 20
317.486106
 30
0.0
 11
197.677236
 21
317.434612
 31
0.0
  0
ARC
  5
B54F
330
B1CC
100
AcDbEntity
  8
1
  6
Continuous
100
AcDbCircle
 10
178.7361429999999
 20
318.6657169999999
 30
0.0
 40
2.0
100
AcDbArc
 50
226.3771699999999
 51
269.5684899999998
  0
ARC
  5
B550
330
B1CC
100
AcDbEntity
  8
1
  6
Continuous
100
AcDbCircle
 10
178.753462
 20
320.9656519999999
 30
0.0
 40
2.0
100
AcDbArc
 50
226.3771699999999
 51
269.5684899999998
  0
LINE
  5
B551
330
B1CC
100
AcDbEntity
  8
1
  6
Continuous
100
AcDbLine
 10
176.982607
 20
319.890533
 30
0.0
 11
176.9652859999999
 21
317.5906019999998
 31
0.0
  0
LINE
  5
B552
330
B1CC
100
AcDbEntity
  8
1
  6
Continuous
100
AcDbLine
 10
176.9652869999999
 20
317.5906019999998
 30
0.0
 11
177.356325
 21
317.2179249999999
 31
0.0
  0
LINE
  5
B553
330
B1CC
100
AcDbEntity
  8
1
  6
Continuous
100
AcDbLine
 10
176.982608
 20
319.8905369999998
 30
0.0
 11
177.373646
 21
319.5178599999999
 31
0.0
  0
LINE
  5
B554
330
B1CC
100
AcDbEntity
  8
1
  6
Continuous
100
AcDbLine
 10
190.8502829999999
 20
318.8517909999998
 30
0.0
 11
190.838405
 21
317.2745319999999
 31
0.0
  0
LINE
  5
B555
330
B1CC
100
AcDbEntity
  8
1
  6
Continuous
100
AcDbLine
 10
178.738403
 20
318.965709
 30
0.0
 11
185.891707
 21
318.911836
 31
0.0
  0
LINE
  5
B556
330
B1CC
100
AcDbEntity
  8
1
  6
Continuous
100
AcDbLine
 10
178.7210809999999
 20
316.6657709999999
 30
0.0
 11
190.1331479999998
 21
316.5798259999998
 31
0.0
  0
LINE
  5
B557
330
B1CC
100
AcDbEntity
  8
1
  6
Continuous
100
AcDbLine
 10
176.9826149999999
 20
319.890533
 30
0.0
 11
181.366045
 21
319.85752
 31
0.0
  0
ARC
  5
B558
330
B1CC
100
AcDbEntity
  8
1
  6
Continuous
100
AcDbCircle
 10
177.0821589999999
 20
320.08979
 30
0.0
 40
2.5
100
AcDbArc
 50
217.3406899999999
 51
269.5684899999998
  0
ARC
  5
B559
330
B1CC
100
AcDbEntity
  8
1
  6
Continuous
100
AcDbCircle
 10
197.0032399999998
 20
317.7396959999999
 30
0.0
 40
2.0
100
AcDbArc
 50
353.7184599999998
 51
89.568492
  0
ARC
  5
B55A
330
B1CC
100
AcDbEntity
  8
1
  6
Continuous
100
AcDbCircle
 10
196.908857
 20
318.4404289999998
 30
0.0
 40
1.0
100
AcDbArc
 50
188.75863
 51
269.5684899999998
  0
LINE
  5
B55B
330
B1CC
100
AcDbEntity
  8
1
  6
Continuous
100
AcDbLine
 10
197.677232
 20
317.434612
 30
0.0
 11
196.705827
 21
308.609664
 31
0.0
  0
LINE
  5
B55C
330
B1CC
100
AcDbEntity
  8
1
  6
Continuous
100
AcDbLine
 10
198.935909
 20
317.192344
 30
0.0
 11
197.964502
 21
308.3673909999999
 31
0.0
  0
ARC
  5
B55D
330
B1CC
100
AcDbEntity
  8
1
  6
Continuous
100
AcDbCircle
 10
206.033575
 20
324.543296
 30
0.0
 40
19.871416
100
AcDbArc
 50
257.2566
 51
272.27443
  0
ARC
  5
B55E
330
B1CC
100
AcDbEntity
  8
1
  6
Continuous
100
AcDbCircle
 10
199.1908239999999
 20
308.3361299999999
 30
0.0
 40
2.5
100
AcDbArc
 50
173.7184599999999
 51
251.24922
  0
ARC
  5
B55F
330
B1CC
100
AcDbEntity
  8
1
  6
Continuous
100
AcDbCircle
 10
200.4494949999999
 20
308.093858
 30
0.0
 40
2.5
100
AcDbArc
 50
173.7184599999999
 51
251.24922
  0
ARC
  5
B560
330
B1CC
100
AcDbEntity
  8
1
  6
Continuous
100
AcDbCircle
 10
204.7749
 20
324.785571
 30
0.0
 40
19.871416
100
AcDbArc
 50
251.24923
 51
260.95302
  0
LINE
  5
B561
330
B1CC
100
AcDbEntity
  8
1
  6
Continuous
100
AcDbLine
 10
195.920515
 20
318.288158
 30
0.0
 11
195.691792
 21
319.772708
 31
0.0
  0
LINE
  5
B562
330
B1CC
100
AcDbEntity
  8
1
  6
Continuous
100
AcDbLine
 10
191.1825819999999
 20
318.883449
 30
0.0
 11
191.0393599999999
 21
318.5989109999998
 31
0.0
  0
ARC
  5
B563
330
B1CC
100
AcDbEntity
  8
1
  6
Continuous
100
AcDbCircle
 10
208.8293929999999
 20
317.6506299999999
 30
0.0
 40
2.0
100
AcDbArc
 50
0.0
 51
89.568492
  0
LINE
  5
B564
330
B1CC
100
AcDbEntity
  8
1
  6
Continuous
100
AcDbLine
 10
210.817239
 20
317.272422
 30
0.0
 11
208.7067699999999
 21
306.3079329999998
 31
0.0
  0
LINE
  5
B565
330
B1CC
100
AcDbEntity
  8
1
  6
Continuous
100
AcDbLine
 10
210.829393
 20
317.3355589999999
 30
0.0
 11
210.829393
 21
317.6506299999999
 31
0.0
  0
LINE
  5
B566
330
B1CC
100
AcDbEntity
  8
1
  6
Continuous
100
AcDbLine
 10
254.999131
 20
177.5551499999999
 30
0.0
 11
259.209704
 21
178.60932
 31
0.0
  0
LINE
  5
B567
330
B1CC
100
AcDbEntity
  8
1
  6
Continuous
100
AcDbLine
 10
255.6533759999998
 20
192.8197399999999
 30
0.0
 11
254.03662
 21
192.8197399999999
 31
0.0
  0
LINE
  5
B568
330
B1CC
100
AcDbEntity
  8
1
  6
Continuous
100
AcDbLine
 10
255.685785
 20
190.5297899999999
 30
0.0
 11
255.5909189999999
 21
190.5297899999999
 31
0.0
  0
LINE
  5
B569
330
B1CC
100
AcDbEntity
  8
1
  6
Continuous
100
AcDbLine
 10
259.946723
 20
181.903129
 30
0.0
 11
255.241999
 21
181.903129
 31
0.0
  0
LINE
  5
B56A
330
B1CC
100
AcDbEntity
  8
1
  6
Continuous
100
AcDbLine
 10
255.6533759999998
 20
194.30376
 30
0.0
 11
254.564864
 21
194.30376
 31
0.0
  0
LINE
  5
B56B
330
B1CC
100
AcDbEntity
  8
1
  6
Continuous
100
AcDbLine
 10
256.421192
 20
175.98615
 30
0.0
 11
259.2097069999999
 21
176.68428
 31
0.0
  0
LINE
  5
B56C
330
B1CC
100
AcDbEntity
  8
1
  6
Continuous
100
AcDbLine
 10
255.4434699999999
 20
191.34308
 30
0.0
 11
256.5419989999999
 21
185.2838299999999
 31
0.0
  0
LINE
  5
B56D
330
B1CC
100
AcDbEntity
  8
1
  6
Continuous
100
AcDbLine
 10
254.1091479999999
 20
194.00949
 30
0.0
 11
253.7631879999999
 21
193.2431799999999
 31
0.0
  0
LINE
  5
B56E
330
B1CC
100
AcDbEntity
  8
1
  6
Continuous
100
AcDbLine
 10
253.180363
 20
190.9327799999998
 30
0.0
 11
254.2045059999999
 21
185.2838299999999
 31
0.0
  0
ARC
  5
B56F
330
B1CC
100
AcDbEntity
  8
1
  6
Continuous
100
AcDbCircle
 10
255.241999
 20
176.5850899999998
 30
0.0
 40
1.0
100
AcDbArc
 50
104.055767
 51
180.0000029999999
  0
LINE
  5
B570
330
B1CC
100
AcDbEntity
  8
1
  6
Continuous
100
AcDbLine
 10
255.326741
 20
189.64007
 30
0.0
 11
253.825589
 21
189.36792
 31
0.0
  0
LINE
  5
B571
330
B1CC
100
AcDbEntity
  8
1
  6
Continuous
100
AcDbLine
 10
253.7366169999998
 20
193.1197399999998
 30
0.0
 11
253.7366169999998
 21
191.0336299999999
 31
0.0
  0
ARC
  5
B572
330
B1CC
100
AcDbEntity
  8
1
  6
Continuous
100
AcDbCircle
 10
254.03662
 20
193.1197399999998
 30
0.0
 40
0.3
100
AcDbArc
 50
155.7026559999999
 51
270.00001
  0
LINE
  5
B573
330
B1CC
100
AcDbEntity
  8
1
  6
Continuous
100
AcDbLine
 10
255.4434699999999
 20
191.34308
 30
0.0
 11
253.180363
 21
190.9327799999998
 31
0.0
  0
ARC
  5
B574
330
B1CC
100
AcDbEntity
  8
1
  6
Continuous
100
AcDbCircle
 10
254.564864
 20
193.80376
 30
0.0
 40
0.5
100
AcDbArc
 50
90.00000300000001
 51
155.7026559999999
  0
LINE
  5
B575
330
B1CC
100
AcDbEntity
  8
1
  6
Continuous
100
AcDbLine
 10
256.5419989999999
 20
181.903129
 30
0.0
 11
256.5419989999999
 21
185.2838299999999
 31
0.0
  0
ARC
  5
B576
330
B1CC
100
AcDbEntity
  8
1
  6
Continuous
100
AcDbCircle
 10
255.241999
 20
182.9031289999998
 30
0.0
 40
1.0
100
AcDbArc
 50
180.0
 51
270.0
  0
LINE
  5
B577
330
B1CC
100
AcDbEntity
  8
1
  6
Continuous
100
AcDbLine
 10
254.2419989999999
 20
175.5036199999999
 30
0.0
 11
254.2419989999999
 21
185.2838299999999
 31
0.0
  0
LINE
  5
B578
330
B1CC
100
AcDbEntity
  8
1
  6
Continuous
100
AcDbLine
 10
254.541998
 20
175.5036199999999
 30
0.0
 11
244.316164
 21
175.5036199999999
 31
0.0
  0
LINE
  5
B579
330
B1CC
100
AcDbEntity
  8
1
  6
Continuous
100
AcDbLine
 10
254.541998
 20
175.5036199999999
 30
0.0
 11
244.316164
 21
175.5036199999999
 31
0.0
  0
LINE
  5
B57A
330
B1CC
100
AcDbEntity
  8
1
  6
Continuous
100
AcDbLine
 10
260.639579
 20
180.4413099999999
 30
0.0
 11
260.639579
 21
178.5162799999999
 31
0.0
  0
ARC
  5
B57B
330
B1CC
100
AcDbEntity
  8
1
  6
Continuous
100
AcDbCircle
 10
258.7510449999999
 20
180.4413099999999
 30
0.0
 40
1.888533999999999
100
AcDbArc
 50
284.05577
 51
50.71895000000001
  0
ARC
  5
B57C
330
B1CC
100
AcDbEntity
  8
1
  6
Continuous
100
AcDbCircle
 10
258.7510449999999
 20
178.5162799999999
 30
0.0
 40
1.888533999999999
100
AcDbArc
 50
284.05577
 51
0.0
  0
LINE
  5
B57D
330
B1CC
100
AcDbEntity
  8
1
  6
Continuous
100
AcDbLine
 10
38.06992299999999
 20
172.206535
 30
0.0
 11
40.39616099999999
 21
172.206535
 31
0.0
  0
LINE
  5
B57E
330
B1CC
100
AcDbEntity
  8
1
  6
Continuous
100
AcDbLine
 10
38.06992299999999
 20
186.2065349999998
 30
0.0
 11
40.39616099999999
 21
186.2065349999998
 31
0.0
  0
LINE
  5
B57F
330
B1CC
100
AcDbEntity
  8
1
  6
Continuous
100
AcDbLine
 10
38.06992299999999
 20
186.2065349999998
 30
0.0
 11
38.06992299999999
 21
172.206535
 31
0.0
  0
ARC
  5
B580
330
B1CC
100
AcDbEntity
  8
1
  6
Continuous
100
AcDbCircle
 10
45.89616099999999
 20
179.206535
 30
0.0
 40
10.5
100
AcDbArc
 50
138.1896849999999
 51
221.810315
  0
LINE
  5
B581
330
B1CC
100
AcDbEntity
  8
1
  6
Continuous
100
AcDbLine
 10
170.6692469999999
 20
53.466471
 30
0.0
 11
170.6692469999999
 21
55.792709
 31
0.0
  0
LINE
  5
B582
330
B1CC
100
AcDbEntity
  8
1
  6
Continuous
100
AcDbLine
 10
156.6692469999999
 20
53.466471
 30
0.0
 11
156.6692469999999
 21
55.792709
 31
0.0
  0
LINE
  5
B583
330
B1CC
100
AcDbEntity
  8
1
  6
Continuous
100
AcDbLine
 10
156.6692469999999
 20
53.466471
 30
0.0
 11
170.6692469999999
 21
53.466471
 31
0.0
  0
ARC
  5
B584
330
B1CC
100
AcDbEntity
  8
1
  6
Continuous
100
AcDbCircle
 10
163.6692469999998
 20
61.29270899999998
 30
0.0
 40
10.5
100
AcDbArc
 50
228.1896849999998
 51
311.810315
  0
LINE
  5
B585
330
B1CC
100
AcDbEntity
  8
1
  6
Continuous
100
AcDbLine
 10
156.669172
 20
364.6402359999998
 30
0.0
 11
170.669172
 21
364.6402359999998
 31
0.0
  0
ARC
  5
B586
330
B1CC
100
AcDbEntity
  8
1
  6
Continuous
100
AcDbCircle
 10
163.6691719999998
 20
356.8139980000001
 30
0.0
 40
10.5
100
AcDbArc
 50
48.189685
 51
131.810315
  0
LINE
  5
B587
330
B1CC
100
AcDbEntity
  8
1
  6
Continuous
100
AcDbLine
 10
156.669172
 20
364.6402359999998
 30
0.0
 11
156.669172
 21
362.313998
 31
0.0
  0
LINE
  5
B588
330
B1CC
100
AcDbEntity
  8
1
  6
Continuous
100
AcDbLine
 10
170.669172
 20
364.6402359999998
 30
0.0
 11
170.669172
 21
362.313998
 31
0.0
  0
LINE
  5
B589
330
B1CC
100
AcDbEntity
  8
5
  6
PHANTOM
100
AcDbLine
 10
439.2118849999998
 20
168.810729
 30
0.0
 11
433.8887759999998
 21
171.750355
 31
0.0
  0
ARC
  5
B58A
330
B1CC
100
AcDbEntity
  8
1
  6
Continuous
100
AcDbCircle
 10
397.1375039999998
 20
179.2064899999998
 30
0.0
 40
37.5
100
AcDbArc
 50
137.903804
 51
82.60460999999997
  0
ARC
  5
B58B
330
B1CC
100
AcDbEntity
  8
1
  6
Continuous
100
AcDbCircle
 10
397.1375039999998
 20
179.2064899999998
 30
0.0
 40
19.5
100
AcDbArc
 50
155.210272
 51
66.597493
  0
ARC
  5
B58C
330
B1CC
100
AcDbEntity
  8
1
  6
Continuous
100
AcDbCircle
 10
397.1375039999998
 20
179.2064899999998
 30
0.0
 40
28.0
100
AcDbArc
 50
143.9862819999999
 51
76.94200499999998
  0
ARC
  5
B58D
330
B1CC
100
AcDbEntity
  8
1
  6
Continuous
100
AcDbCircle
 10
397.1375039999998
 20
179.2064899999998
 30
0.0
 40
12.5
100
AcDbArc
 50
182.5877099999999
 51
42.83294699999999
  0
LINE
  5
B58E
330
B1CC
100
AcDbEntity
  8
1
  6
Continuous
100
AcDbLine
 10
363.80281
 20
213.577232
 30
0.0
 11
388.150128
 21
172.7772099999999
 31
0.0
  0
ARC
  5
B58F
330
B1CC
100
AcDbEntity
  8
1
  6
Continuous
100
AcDbCircle
 10
397.1375039999998
 20
178.2064899999998
 30
0.0
 40
10.5
100
AcDbArc
 50
211.136199
 51
9.004619999999997
  0
LINE
  5
B590
330
B1CC
100
AcDbEntity
  8
4
  6
CENTER
100
AcDbLine
 10
397.1375039999998
 20
136.70649
 30
0.0
 11
397.1375039999998
 21
219.7064899999999
 31
0.0
  0
ARC
  5
B591
330
B1CC
100
AcDbEntity
  8
5
  6
PHANTOM
100
AcDbCircle
 10
435.9890749999998
 20
156.7315849999999
 30
0.0
 40
10.0
100
AcDbArc
 50
91.66891300000001
 51
112.0485399999999
  0
LINE
  5
B592
330
B1CC
100
AcDbEntity
  8
5
  6
PHANTOM
100
AcDbLine
 10
438.1000219999998
 20
166.797338
 30
0.0
 11
435.6978299999998
 21
166.7273459999998
 31
0.0
  0
LINE
  5
B593
330
B1CC
100
AcDbEntity
  8
5
  6
PHANTOM
100
AcDbLine
 10
439.2118849999998
 20
168.810729
 30
0.0
 11
438.100011
 21
166.797335
 31
0.0
  0
ARC
  5
B594
330
B1CC
100
AcDbEntity
  8
1
  6
Continuous
100
AcDbCircle
 10
361.159512
 20
201.6479799999999
 30
0.0
 40
36.516224
100
AcDbArc
 50
256.24081
 51
271.901066
  0
LINE
  5
B595
330
B1CC
100
AcDbEntity
  8
1
  6
Continuous
100
AcDbLine
 10
352.4744359999999
 20
166.179626
 30
0.0
 11
351.2359599999999
 21
165.369854
 31
0.0
  0
LINE
  5
B596
330
B1CC
100
AcDbEntity
  8
1
  6
Continuous
100
AcDbLine
 10
360.0203739999998
 20
173.861523
 30
0.0
 11
349.977282
 21
167.2948859999999
 31
0.0
  0
LINE
  5
B597
330
B1CC
100
AcDbEntity
  8
1
  6
Continuous
100
AcDbLine
 10
349.977282
 20
167.2948859999999
 30
0.0
 11
351.2359599999999
 21
165.369854
 31
0.0
  0
LINE
  5
B598
330
B1CC
100
AcDbEntity
  8
1
  6
Continuous
100
AcDbLine
 10
437.7625909999999
 20
194.303766
 30
0.0
 11
431.7082759999998
 21
193.736173
 31
0.0
  0
ARC
  5
B599
330
B1CC
100
AcDbEntity
  8
1
  6
Continuous
100
AcDbCircle
 10
441.8999389999998
 20
182.5065379999998
 30
0.0
 40
10.0
100
AcDbArc
 50
125.9339129999998
 51
146.3135399999998
  0
LINE
  5
B59A
330
B1CC
100
AcDbEntity
  8
4
  6
CENTER
100
AcDbLine
 10
354.637504
 20
179.2064899999998
 30
0.0
 11
439.6375039999998
 21
179.2064899999998
 31
0.0
  0
LINE
  5
B59B
330
B1CC
100
AcDbEntity
  8
1
  6
Continuous
100
AcDbLine
 10
437.977282
 20
192.013812
 30
0.0
 11
436.0314159999998
 21
190.603482
 31
0.0
  0
LINE
  5
B59C
330
B1CC
100
AcDbEntity
  8
1
  6
Continuous
100
AcDbLine
 10
437.7625909999999
 20
194.303766
 30
0.0
 11
437.9772739999999
 21
192.013803
 31
0.0
  0
LINE
  5
B59D
330
B1CC
100
AcDbEntity
  8
2
  6
Continuous
100
AcDbLine
 10
366.814004
 20
237.878433
 30
0.0
 11
366.814004
 21
276.3831349999999
 31
0.0
  0
LINE
  5
B59E
330
B1CC
100
AcDbEntity
  8
2
  6
Continuous
100
AcDbLine
 10
377.461004
 20
237.878433
 30
0.0
 11
377.461004
 21
276.3831349999999
 31
0.0
  0
LINE
  5
B59F
330
B1CC
100
AcDbEntity
  8
1
  6
Continuous
100
AcDbLine
 10
378.1375039999999
 20
236.7066349999999
 30
0.0
 11
378.1375039999999
 21
275.706635
 31
0.0
  0
LINE
  5
B5A0
330
B1CC
100
AcDbEntity
  8
1
  6
Continuous
100
AcDbLine
 10
366.1375039999999
 20
236.7066349999999
 30
0.0
 11
366.1375039999999
 21
275.706635
 31
0.0
  0
LINE
  5
B5A1
330
B1CC
100
AcDbEntity
  8
4
  6
CENTER
100
AcDbLine
 10
372.1375039999998
 20
281.706635
 30
0.0
 11
372.1375039999998
 21
206.898602
 31
0.0
  0
ARC
  5
B5A2
330
B1CC
100
AcDbEntity
  8
5
  6
PHANTOM
100
AcDbCircle
 10
380.0388029999999
 20
218.009464
 30
0.0
 40
36.516224
100
AcDbArc
 50
221.9758099999999
 51
237.636066
  0
LINE
  5
B5A3
330
B1CC
100
AcDbEntity
  8
1
  6
Continuous
100
AcDbLine
 10
378.1375419999998
 20
237.878433
 30
0.0
 11
366.137542
 21
237.878433
 31
0.0
  0
LINE
  5
B5A4
330
B1CC
100
AcDbEntity
  8
1
  6
Continuous
100
AcDbLine
 10
368.535472
 20
226.0064899999999
 30
0.0
 11
370.7232899999998
 21
227.721309
 31
0.0
  0
LINE
  5
B5A5
330
B1CC
100
AcDbEntity
  8
1
  6
Continuous
100
AcDbLine
 10
371.4968949999998
 20
226.0064899999999
 30
0.0
 11
369.3090769999998
 21
227.721309
 31
0.0
  0
LINE
  5
B5A6
330
B1CC
100
AcDbEntity
  8
1
  6
Continuous
100
AcDbLine
 10
370.0826819999999
 20
226.0064899999999
 30
0.0
 11
367.8948629999999
 21
227.721309
 31
0.0
  0
LINE
  5
B5A7
330
B1CC
100
AcDbEntity
  8
1
  6
Continuous
100
AcDbLine
 10
357.1263969999998
 20
236.7066349999999
 30
0.0
 11
387.1486109999998
 21
236.7066349999999
 31
0.0
  0
LINE
  5
B5A8
330
B1CC
100
AcDbEntity
  8
1
  6
Continuous
100
AcDbLine
 10
355.4906509999999
 20
232.7066349999999
 30
0.0
 11
388.784357
 21
232.7066349999999
 31
0.0
  0
LINE
  5
B5A9
330
B1CC
100
AcDbEntity
  8
1
  6
Continuous
100
AcDbLine
 10
395.1375039999999
 20
227.721309
 30
0.0
 11
349.1375039999998
 21
227.721309
 31
0.0
  0
LINE
  5
B5AA
330
B1CC
100
AcDbEntity
  8
1
  6
Continuous
100
AcDbLine
 10
394.312588
 20
229.20357
 30
0.0
 11
349.9624199999999
 21
229.20357
 31
0.0
  0
LINE
  5
B5AB
330
B1CC
100
AcDbEntity
  8
1
  6
Continuous
100
AcDbLine
 10
349.1375039999998
 20
226.0064899999999
 30
0.0
 11
395.1375039999999
 21
226.0064899999999
 31
0.0
  0
LINE
  5
B5AC
330
B1CC
100
AcDbEntity
  8
1
  6
Continuous
100
AcDbLine
 10
400.8582699999998
 20
223.70649
 30
0.0
 11
407.589776
 21
179.2064899999998
 31
0.0
  0
LINE
  5
B5AD
330
B1CC
100
AcDbEntity
  8
1
  6
Continuous
100
AcDbLine
 10
390.1375039999999
 20
223.70649
 30
0.0
 11
404.137504
 21
223.70649
 31
0.0
  0
LINE
  5
B5AE
330
B1CC
100
AcDbEntity
  8
1
  6
Continuous
100
AcDbLine
 10
401.001979
 20
221.4064899999999
 30
0.0
 11
404.137504
 21
221.4064899999999
 31
0.0
  0
LINE
  5
B5AF
330
B1CC
100
AcDbEntity
  8
1
  6
Continuous
100
AcDbLine
 10
404.137504
 20
223.70649
 30
0.0
 11
404.137504
 21
221.4064899999999
 31
0.0
  0
LINE
  5
B5B0
330
B1CC
100
AcDbEntity
  8
1
  6
Continuous
100
AcDbLine
 10
385.639031
 20
226.0064899999999
 30
0.0
 11
383.451213
 21
227.721309
 31
0.0
  0
LINE
  5
B5B1
330
B1CC
100
AcDbEntity
  8
1
  6
Continuous
100
AcDbLine
 10
387.053245
 20
226.0064899999999
 30
0.0
 11
384.8654259999999
 21
227.721309
 31
0.0
  0
LINE
  5
B5B2
330
B1CC
100
AcDbEntity
  8
1
  6
Continuous
100
AcDbLine
 10
384.0918209999999
 20
226.0064899999999
 30
0.0
 11
386.2796399999999
 21
227.721309
 31
0.0
  0
LINE
  5
B5B3
330
B1CC
100
AcDbEntity
  8
1
  6
Continuous
100
AcDbLine
 10
387.1486109999998
 20
236.7066349999999
 30
0.0
 11
387.1486109999998
 21
232.7066349999999
 31
0.0
  0
ARC
  5
B5B4
330
B1CC
100
AcDbEntity
  8
1
  6
Continuous
100
AcDbCircle
 10
388.784357
 20
226.593017
 30
0.0
 40
6.113617999999997
100
AcDbArc
 50
25.277722
 51
90.0
  0
LINE
  5
B5B5
330
B1CC
100
AcDbEntity
  8
1
  6
Continuous
100
AcDbLine
 10
395.1375039999999
 20
227.3487259999999
 30
0.0
 11
394.764921
 21
227.721309
 31
0.0
  0
LINE
  5
B5B6
330
B1CC
100
AcDbEntity
  8
1
  6
Continuous
100
AcDbLine
 10
395.127588
 20
229.20357
 30
0.0
 11
394.312588
 21
229.20357
 31
0.0
  0
ARC
  5
B5B7
330
B1CC
100
AcDbEntity
  8
1
  6
Continuous
100
AcDbCircle
 10
391.526106
 20
230.7537979999999
 30
0.0
 40
4.697225
100
AcDbArc
 50
319.789963
 51
333.713305
  0
ARC
  5
B5B8
330
B1CC
100
AcDbEntity
  8
1
  6
Continuous
100
AcDbCircle
 10
394.8636179999999
 20
228.283717
 30
0.0
 40
0.9569799999999998
100
AcDbArc
 50
24.04026499999999
 51
73.98808699999998
  0
LINE
  5
B5B9
330
B1CC
100
AcDbEntity
  8
1
  6
Continuous
100
AcDbLine
 10
395.1375039999999
 20
227.721309
 30
0.0
 11
395.1375039999999
 21
226.0064899999999
 31
0.0
  0
LINE
  5
B5BA
330
B1CC
100
AcDbEntity
  8
1
  6
Continuous
100
AcDbLine
 10
388.467458
 20
226.0064899999999
 30
0.0
 11
386.2796399999999
 21
227.721309
 31
0.0
  0
LINE
  5
B5BB
330
B1CC
100
AcDbEntity
  8
1
  6
Continuous
100
AcDbLine
 10
395.1375039999999
 20
227.1526779999999
 30
0.0
 11
393.9913160000001
 21
226.0064899999999
 31
0.0
  0
LINE
  5
B5BC
330
B1CC
100
AcDbEntity
  8
1
  6
Continuous
100
AcDbLine
 10
395.1375039999999
 20
226.407512
 30
0.0
 11
393.350707
 21
227.721309
 31
0.0
  0
LINE
  5
B5BD
330
B1CC
100
AcDbEntity
  8
1
  6
Continuous
100
AcDbLine
 10
392.577102
 20
226.0064899999999
 30
0.0
 11
394.764921
 21
227.721309
 31
0.0
  0
LINE
  5
B5BE
330
B1CC
100
AcDbEntity
  8
1
  6
Continuous
100
AcDbLine
 10
391.162889
 20
226.0064899999999
 30
0.0
 11
393.350707
 21
227.721309
 31
0.0
  0
LINE
  5
B5BF
330
B1CC
100
AcDbEntity
  8
1
  6
Continuous
100
AcDbLine
 10
389.748675
 20
226.0064899999999
 30
0.0
 11
391.9364939999999
 21
227.721309
 31
0.0
  0
LINE
  5
B5C0
330
B1CC
100
AcDbEntity
  8
1
  6
Continuous
100
AcDbLine
 10
388.3344619999999
 20
226.0064899999999
 30
0.0
 11
390.5222799999998
 21
227.721309
 31
0.0
  0
LINE
  5
B5C1
330
B1CC
100
AcDbEntity
  8
1
  6
Continuous
100
AcDbLine
 10
386.920248
 20
226.0064899999999
 30
0.0
 11
389.108067
 21
227.721309
 31
0.0
  0
LINE
  5
B5C2
330
B1CC
100
AcDbEntity
  8
1
  6
Continuous
100
AcDbLine
 10
394.1243119999999
 20
226.0064899999999
 30
0.0
 11
391.9364939999999
 21
227.721309
 31
0.0
  0
LINE
  5
B5C3
330
B1CC
100
AcDbEntity
  8
1
  6
Continuous
100
AcDbLine
 10
392.7100989999999
 20
226.0064899999999
 30
0.0
 11
390.5222799999998
 21
227.721309
 31
0.0
  0
LINE
  5
B5C4
330
B1CC
100
AcDbEntity
  8
1
  6
Continuous
100
AcDbLine
 10
391.2958849999998
 20
226.0064899999999
 30
0.0
 11
389.108067
 21
227.721309
 31
0.0
  0
LINE
  5
B5C5
330
B1CC
100
AcDbEntity
  8
1
  6
Continuous
100
AcDbLine
 10
389.8816719999999
 20
226.0064899999999
 30
0.0
 11
387.6938529999998
 21
227.721309
 31
0.0
  0
LINE
  5
B5C6
330
B1CC
100
AcDbEntity
  8
1
  6
Continuous
100
AcDbLine
 10
385.506035
 20
226.0064899999999
 30
0.0
 11
387.6938529999998
 21
227.721309
 31
0.0
  0
ARC
  5
B5C7
330
B1CC
100
AcDbEntity
  8
1
  6
Continuous
100
AcDbCircle
 10
393.4703139999998
 20
223.0064899999999
 30
0.0
 40
3.0
100
AcDbArc
 50
13.49339899999998
 51
90.0
  0
LINE
  5
B5C8
330
B1CC
100
AcDbEntity
  8
2
  6
Continuous
100
AcDbLine
 10
378.1375419999998
 20
236.7066349999999
 30
0.0
 11
377.461004
 21
237.878433
 31
0.0
  0
LINE
  5
B5C9
330
B1CC
100
AcDbEntity
  8
1
  6
Continuous
100
AcDbLine
 10
377.0207529999999
 20
226.0064899999999
 30
0.0
 11
379.208572
 21
227.721309
 31
0.0
  0
LINE
  5
B5CA
330
B1CC
100
AcDbEntity
  8
1
  6
Continuous
100
AcDbLine
 10
378.5679629999998
 20
226.0064899999999
 30
0.0
 11
376.380145
 21
227.721309
 31
0.0
  0
LINE
  5
B5CB
330
B1CC
100
AcDbEntity
  8
1
  6
Continuous
100
AcDbLine
 10
375.60654
 20
226.0064899999999
 30
0.0
 11
377.794358
 21
227.721309
 31
0.0
  0
LINE
  5
B5CC
330
B1CC
100
AcDbEntity
  8
1
  6
Continuous
100
AcDbLine
 10
374.192326
 20
226.0064899999999
 30
0.0
 11
376.380145
 21
227.721309
 31
0.0
  0
LINE
  5
B5CD
330
B1CC
100
AcDbEntity
  8
1
  6
Continuous
100
AcDbLine
 10
372.7781129999998
 20
226.0064899999999
 30
0.0
 11
374.965931
 21
227.721309
 31
0.0
  0
LINE
  5
B5CE
330
B1CC
100
AcDbEntity
  8
1
  6
Continuous
100
AcDbLine
 10
371.363899
 20
226.0064899999999
 30
0.0
 11
373.5517179999998
 21
227.721309
 31
0.0
  0
LINE
  5
B5CF
330
B1CC
100
AcDbEntity
  8
1
  6
Continuous
100
AcDbLine
 10
377.1537499999998
 20
226.0064899999999
 30
0.0
 11
374.965931
 21
227.721309
 31
0.0
  0
LINE
  5
B5D0
330
B1CC
100
AcDbEntity
  8
1
  6
Continuous
100
AcDbLine
 10
375.7395359999999
 20
226.0064899999999
 30
0.0
 11
373.5517179999998
 21
227.721309
 31
0.0
  0
LINE
  5
B5D1
330
B1CC
100
AcDbEntity
  8
1
  6
Continuous
100
AcDbLine
 10
372.9111089999999
 20
226.0064899999999
 30
0.0
 11
370.7232899999998
 21
227.721309
 31
0.0
  0
LINE
  5
B5D2
330
B1CC
100
AcDbEntity
  8
1
  6
Continuous
100
AcDbLine
 10
374.325323
 20
226.0064899999999
 30
0.0
 11
372.1375039999998
 21
227.721309
 31
0.0
  0
LINE
  5
B5D3
330
B1CC
100
AcDbEntity
  8
1
  6
Continuous
100
AcDbLine
 10
369.949685
 20
226.0064899999999
 30
0.0
 11
372.1375039999998
 21
227.721309
 31
0.0
  0
LINE
  5
B5D4
330
B1CC
100
AcDbEntity
  8
1
  6
Continuous
100
AcDbLine
 10
379.6430579999998
 20
236.7066349999999
 30
0.0
 11
379.6430579999998
 21
232.7066349999999
 31
0.0
  0
LINE
  5
B5D5
330
B1CC
100
AcDbEntity
  8
1
  6
Continuous
100
AcDbLine
 10
382.677608
 20
226.0064899999999
 30
0.0
 11
384.8654259999999
 21
227.721309
 31
0.0
  0
LINE
  5
B5D6
330
B1CC
100
AcDbEntity
  8
1
  6
Continuous
100
AcDbLine
 10
381.2633939999998
 20
226.0064899999999
 30
0.0
 11
383.451213
 21
227.721309
 31
0.0
  0
LINE
  5
B5D7
330
B1CC
100
AcDbEntity
  8
1
  6
Continuous
100
AcDbLine
 10
384.2248169999999
 20
226.0064899999999
 30
0.0
 11
382.0369989999999
 21
227.721309
 31
0.0
  0
LINE
  5
B5D8
330
B1CC
100
AcDbEntity
  8
1
  6
Continuous
100
AcDbLine
 10
382.810604
 20
226.0064899999999
 30
0.0
 11
380.622785
 21
227.721309
 31
0.0
  0
LINE
  5
B5D9
330
B1CC
100
AcDbEntity
  8
1
  6
Continuous
100
AcDbLine
 10
379.8491799999998
 20
226.0064899999999
 30
0.0
 11
382.0369989999999
 21
227.721309
 31
0.0
  0
LINE
  5
B5DA
330
B1CC
100
AcDbEntity
  8
1
  6
Continuous
100
AcDbLine
 10
379.9821769999998
 20
226.0064899999999
 30
0.0
 11
377.794358
 21
227.721309
 31
0.0
  0
LINE
  5
B5DB
330
B1CC
100
AcDbEntity
  8
1
  6
Continuous
100
AcDbLine
 10
378.4349669999999
 20
226.0064899999999
 30
0.0
 11
380.622785
 21
227.721309
 31
0.0
  0
LINE
  5
B5DC
330
B1CC
100
AcDbEntity
  8
1
  6
Continuous
100
AcDbLine
 10
381.39639
 20
226.0064899999999
 30
0.0
 11
379.208572
 21
227.721309
 31
0.0
  0
LINE
  5
B5DD
330
B1CC
100
AcDbEntity
  8
1
  6
Continuous
100
AcDbLine
 10
347.3875039999999
 20
223.0064899999999
 30
0.0
 11
347.3875039999999
 21
218.40649
 31
0.0
  0
LINE
  5
B5DE
330
B1CC
100
AcDbEntity
  8
5
  6
PHANTOM
100
AcDbLine
 10
352.8916500000002
 20
193.5867969999999
 30
0.0
 11
351.4122009999999
 21
193.614855
 31
0.0
  0
LINE
  5
B5DF
330
B1CC
100
AcDbEntity
  8
5
  6
PHANTOM
100
AcDbLine
 10
363.453004
 20
195.686917
 30
0.0
 11
351.4558109999999
 21
195.914445
 31
0.0
  0
LINE
  5
B5E0
330
B1CC
100
AcDbEntity
  8
5
  6
PHANTOM
100
AcDbLine
 10
351.4558109999999
 20
195.914445
 30
0.0
 11
351.4122009999999
 21
193.614855
 31
0.0
  0
LINE
  5
B5E1
330
B1CC
100
AcDbEntity
  8
1
  6
Continuous
100
AcDbLine
 10
347.3875039999999
 20
218.40649
 30
0.0
 11
355.243405
 21
218.40649
 31
0.0
  0
LINE
  5
B5E2
330
B1CC
100
AcDbEntity
  8
1
  6
Continuous
100
AcDbLine
 10
361.573546
 20
216.1478919999999
 30
0.0
 11
360.615446
 21
216.147012
 31
0.0
  0
ARC
  5
B5E3
330
B1CC
100
AcDbEntity
  8
1
  6
Continuous
100
AcDbCircle
 10
360.7409359999999
 20
223.994524
 30
0.0
 40
7.848514999999999
100
AcDbArc
 50
225.396746
 51
269.083862
  0
ARC
  5
B5E4
330
B1CC
100
AcDbEntity
  8
1
  6
Continuous
100
AcDbCircle
 10
355.243405
 20
208.4064899999999
 30
0.0
 40
10.0
100
AcDbArc
 50
31.136199
 51
90.0
  0
LINE
  5
B5E5
330
B1CC
100
AcDbEntity
  8
1
  6
Continuous
100
AcDbLine
 10
357.1931329999999
 20
218.214984
 30
0.0
 11
357.237504
 21
218.1439899999999
 31
0.0
  0
ARC
  5
B5E6
330
B1CC
100
AcDbEntity
  8
1
  6
Continuous
100
AcDbCircle
 10
355.4906509999999
 20
226.593017
 30
0.0
 40
6.113617999999997
100
AcDbArc
 50
90.0
 51
154.722278
  0
LINE
  5
B5E7
330
B1CC
100
AcDbEntity
  8
1
  6
Continuous
100
AcDbLine
 10
351.564909
 20
226.0064899999999
 30
0.0
 11
353.7527279999998
 21
227.721309
 31
0.0
  0
LINE
  5
B5E8
330
B1CC
100
AcDbEntity
  8
1
  6
Continuous
100
AcDbLine
 10
352.979123
 20
226.0064899999999
 30
0.0
 11
355.166941
 21
227.721309
 31
0.0
  0
LINE
  5
B5E9
330
B1CC
100
AcDbEntity
  8
1
  6
Continuous
100
AcDbLine
 10
354.526333
 20
226.0064899999999
 30
0.0
 11
352.3385139999998
 21
227.721309
 31
0.0
  0
LINE
  5
B5EA
330
B1CC
100
AcDbEntity
  8
2
  6
Continuous
100
AcDbLine
 10
366.137542
 20
236.7066349999999
 30
0.0
 11
366.8140799999998
 21
237.878433
 31
0.0
  0
LINE
  5
B5EB
330
B1CC
100
AcDbEntity
  8
1
  6
Continuous
100
AcDbLine
 10
357.1263969999998
 20
236.7066349999999
 30
0.0
 11
357.1263969999998
 21
232.7066349999999
 31
0.0
  0
LINE
  5
B5EC
330
B1CC
100
AcDbEntity
  8
1
  6
Continuous
100
AcDbLine
 10
364.6319509999998
 20
236.7066349999999
 30
0.0
 11
364.6319509999998
 21
232.7066349999999
 31
0.0
  0
LINE
  5
B5ED
330
B1CC
100
AcDbEntity
  8
1
  6
Continuous
100
AcDbLine
 10
360.0501909999999
 20
226.0064899999999
 30
0.0
 11
362.238009
 21
227.721309
 31
0.0
  0
LINE
  5
B5EE
330
B1CC
100
AcDbEntity
  8
1
  6
Continuous
100
AcDbLine
 10
361.4644039999998
 20
226.0064899999999
 30
0.0
 11
363.652223
 21
227.721309
 31
0.0
  0
LINE
  5
B5EF
330
B1CC
100
AcDbEntity
  8
1
  6
Continuous
100
AcDbLine
 10
363.011614
 20
226.0064899999999
 30
0.0
 11
360.823796
 21
227.721309
 31
0.0
  0
LINE
  5
B5F0
330
B1CC
100
AcDbEntity
  8
1
  6
Continuous
100
AcDbLine
 10
354.393336
 20
226.0064899999999
 30
0.0
 11
356.5811549999998
 21
227.721309
 31
0.0
  0
LINE
  5
B5F1
330
B1CC
100
AcDbEntity
  8
1
  6
Continuous
100
AcDbLine
 10
355.80755
 20
226.0064899999999
 30
0.0
 11
357.995368
 21
227.721309
 31
0.0
  0
LINE
  5
B5F2
330
B1CC
100
AcDbEntity
  8
1
  6
Continuous
100
AcDbLine
 10
357.221763
 20
226.0064899999999
 30
0.0
 11
359.409582
 21
227.721309
 31
0.0
  0
LINE
  5
B5F3
330
B1CC
100
AcDbEntity
  8
1
  6
Continuous
100
AcDbLine
 10
358.635977
 20
226.0064899999999
 30
0.0
 11
360.823796
 21
227.721309
 31
0.0
  0
LINE
  5
B5F4
330
B1CC
100
AcDbEntity
  8
1
  6
Continuous
100
AcDbLine
 10
357.3547599999998
 20
226.0064899999999
 30
0.0
 11
355.166941
 21
227.721309
 31
0.0
  0
LINE
  5
B5F5
330
B1CC
100
AcDbEntity
  8
1
  6
Continuous
100
AcDbLine
 10
358.768973
 20
226.0064899999999
 30
0.0
 11
356.5811549999998
 21
227.721309
 31
0.0
  0
LINE
  5
B5F6
330
B1CC
100
AcDbEntity
  8
1
  6
Continuous
100
AcDbLine
 10
360.1831869999998
 20
226.0064899999999
 30
0.0
 11
357.995368
 21
227.721309
 31
0.0
  0
LINE
  5
B5F7
330
B1CC
100
AcDbEntity
  8
1
  6
Continuous
100
AcDbLine
 10
361.5974
 20
226.0064899999999
 30
0.0
 11
359.409582
 21
227.721309
 31
0.0
  0
LINE
  5
B5F8
330
B1CC
100
AcDbEntity
  8
1
  6
Continuous
100
AcDbLine
 10
364.2928309999998
 20
226.0064899999999
 30
0.0
 11
366.48065
 21
227.721309
 31
0.0
  0
LINE
  5
B5F9
330
B1CC
100
AcDbEntity
  8
1
  6
Continuous
100
AcDbLine
 10
365.7070449999998
 20
226.0064899999999
 30
0.0
 11
367.8948629999999
 21
227.721309
 31
0.0
  0
LINE
  5
B5FA
330
B1CC
100
AcDbEntity
  8
1
  6
Continuous
100
AcDbLine
 10
367.121258
 20
226.0064899999999
 30
0.0
 11
369.3090769999998
 21
227.721309
 31
0.0
  0
LINE
  5
B5FB
330
B1CC
100
AcDbEntity
  8
1
  6
Continuous
100
AcDbLine
 10
367.254255
 20
226.0064899999999
 30
0.0
 11
365.066436
 21
227.721309
 31
0.0
  0
LINE
  5
B5FC
330
B1CC
100
AcDbEntity
  8
1
  6
Continuous
100
AcDbLine
 10
368.668468
 20
226.0064899999999
 30
0.0
 11
366.48065
 21
227.721309
 31
0.0
  0
LINE
  5
B5FD
330
B1CC
100
AcDbEntity
  8
1
  6
Continuous
100
AcDbLine
 10
362.878618
 20
226.0064899999999
 30
0.0
 11
365.066436
 21
227.721309
 31
0.0
  0
LINE
  5
B5FE
330
B1CC
100
AcDbEntity
  8
1
  6
Continuous
100
AcDbLine
 10
364.4258279999998
 20
226.0064899999999
 30
0.0
 11
362.238009
 21
227.721309
 31
0.0
  0
LINE
  5
B5FF
330
B1CC
100
AcDbEntity
  8
1
  6
Continuous
100
AcDbLine
 10
365.840041
 20
226.0064899999999
 30
0.0
 11
363.652223
 21
227.721309
 31
0.0
  0
LINE
  5
B600
330
B1CC
100
AcDbEntity
  8
1
  6
Continuous
100
AcDbLine
 10
355.9405459999999
 20
226.0064899999999
 30
0.0
 11
353.7527279999998
 21
227.721309
 31
0.0
  0
LINE
  5
B601
330
B1CC
100
AcDbEntity
  8
1
  6
Continuous
100
AcDbLine
 10
349.14742
 20
229.20357
 30
0.0
 11
349.9624199999999
 21
229.20357
 31
0.0
  0
LINE
  5
B602
330
B1CC
100
AcDbEntity
  8
1
  6
Continuous
100
AcDbLine
 10
349.1375039999998
 20
227.3487259999999
 30
0.0
 11
349.5100869999998
 21
227.721309
 31
0.0
  0
ARC
  5
B603
330
B1CC
100
AcDbEntity
  8
1
  6
Continuous
100
AcDbCircle
 10
352.7489019999999
 20
230.7537979999999
 30
0.0
 40
4.697225
100
AcDbArc
 50
206.286695
 51
220.210037
  0
ARC
  5
B604
330
B1CC
100
AcDbEntity
  8
1
  6
Continuous
100
AcDbCircle
 10
349.4113909999999
 20
228.283717
 30
0.0
 40
0.9569799999999998
100
AcDbArc
 50
106.011913
 51
155.9597349999999
  0
LINE
  5
B605
330
B1CC
100
AcDbEntity
  8
1
  6
Continuous
100
AcDbLine
 10
349.1375039999998
 20
227.721309
 30
0.0
 11
349.1375039999998
 21
226.0064899999999
 31
0.0
  0
LINE
  5
B606
330
B1CC
100
AcDbEntity
  8
1
  6
Continuous
100
AcDbLine
 10
349.1375039999998
 20
226.407512
 30
0.0
 11
350.9243009999999
 21
227.721309
 31
0.0
  0
LINE
  5
B607
330
B1CC
100
AcDbEntity
  8
1
  6
Continuous
100
AcDbLine
 10
350.1506959999999
 20
226.0064899999999
 30
0.0
 11
352.3385139999998
 21
227.721309
 31
0.0
  0
LINE
  5
B608
330
B1CC
100
AcDbEntity
  8
1
  6
Continuous
100
AcDbLine
 10
350.283692
 20
226.0064899999999
 30
0.0
 11
349.1375039999998
 21
227.1526779999999
 31
0.0
  0
LINE
  5
B609
330
B1CC
100
AcDbEntity
  8
1
  6
Continuous
100
AcDbLine
 10
351.697906
 20
226.0064899999999
 30
0.0
 11
349.5100869999998
 21
227.721309
 31
0.0
  0
LINE
  5
B60A
330
B1CC
100
AcDbEntity
  8
1
  6
Continuous
100
AcDbLine
 10
353.112119
 20
226.0064899999999
 30
0.0
 11
350.9243009999999
 21
227.721309
 31
0.0
  0
LINE
  5
B60B
330
B1CC
100
AcDbEntity
  8
1
  6
Continuous
100
AcDbLine
 10
349.1375039999998
 20
225.879073
 30
0.0
 11
349.5100869999998
 21
226.0064899999999
 31
0.0
  0
ARC
  5
B60C
330
B1CC
100
AcDbEntity
  8
1
  6
Continuous
100
AcDbCircle
 10
350.8189279999998
 20
222.544827
 30
0.0
 40
3.462340999999999
100
AcDbArc
 50
88.86512399999999
 51
172.3374649999999
  0
LINE
  5
B60D
330
B1CC
100
AcDbEntity
  8
1
  6
Continuous
100
AcDbLine
 10
367.137504
 20
276.7066349999999
 30
0.0
 11
377.1375039999999
 21
276.7066349999999
 31
0.0
  0
LINE
  5
B60E
330
B1CC
100
AcDbEntity
  8
1
  6
Continuous
100
AcDbLine
 10
378.1375039999999
 20
275.706635
 30
0.0
 11
366.1375039999999
 21
275.706635
 31
0.0
  0
LINE
  5
B60F
330
B1CC
100
AcDbEntity
  8
1
  6
Continuous
100
AcDbLine
 10
378.1375039999999
 20
275.706635
 30
0.0
 11
377.1375039999999
 21
276.7066349999999
 31
0.0
  0
LINE
  5
B610
330
B1CC
100
AcDbEntity
  8
1
  6
Continuous
100
AcDbLine
 10
366.1375039999999
 20
275.706635
 30
0.0
 11
367.137504
 21
276.7066349999999
 31
0.0
  0
CIRCLE
  5
B611
330
B1CC
100
AcDbEntity
  8
1
  6
Continuous
100
AcDbCircle
 10
397.1375039999998
 20
179.2064899999998
 30
0.0
 40
7.0
  0
ARC
  5
B612
330
B1CC
100
AcDbEntity
  8
1
  6
Continuous
100
AcDbCircle
 10
300.615904
 20
193.036659
 30
0.0
 40
45.0
100
AcDbArc
 50
201.469657
 51
206.964022
  0
ARC
  5
B613
330
B1CC
100
AcDbEntity
  8
1
  6
Continuous
100
AcDbCircle
 10
300.615904
 20
193.036659
 30
0.0
 40
45.0
100
AcDbArc
 50
191.644122
 51
194.324408
  0
ARC
  5
B614
330
B1CC
100
AcDbEntity
  8
1
  6
Continuous
100
AcDbCircle
 10
302.9534019999999
 20
192.971041
 30
0.0
 40
45.0
100
AcDbArc
 50
199.536031
 51
206.322889
  0
LINE
  5
B615
330
B1CC
100
AcDbEntity
  8
1
  6
Continuous
100
AcDbLine
 10
78.01316099999998
 20
169.8573749999999
 30
0.0
 11
78.01316099999998
 21
167.706535
 31
0.0
  0
LINE
  5
B616
330
B1CC
100
AcDbEntity
  8
1
  6
Continuous
100
AcDbLine
 10
75.713161
 20
177.197755
 30
0.0
 11
75.713161
 21
167.706535
 31
0.0
  0
ARC
  5
B617
330
B1CC
100
AcDbEntity
  8
1
  6
Continuous
100
AcDbCircle
 10
188.6691719999998
 20
74.60120899999998
 30
0.0
 40
24.75
100
AcDbArc
 50
107.162077
 51
124.0016379999999
  0
ARC
  5
B618
330
B1CC
100
AcDbEntity
  8
1
  6
Continuous
100
AcDbCircle
 10
188.6691719999998
 20
74.60120899999998
 30
0.0
 40
20.44999999999999
100
AcDbArc
 50
79.08535
 51
134.8426149999999
  0
ARC
  5
B619
330
B1CC
100
AcDbEntity
  8
1
  6
Continuous
100
AcDbCircle
 10
188.6691719999998
 20
74.60120899999998
 30
0.0
 40
22.45
100
AcDbArc
 50
83.08227399999998
 51
124.0016379999999
  0
ARC
  5
B61A
330
B1CC
100
AcDbEntity
  8
1
  6
Continuous
100
AcDbCircle
 10
163.6692469999998
 20
179.2064899999998
 30
0.0
 40
37.5
100
AcDbArc
 50
166.3548839999999
 51
337.988649
  0
ARC
  5
B61B
330
B1CC
100
AcDbEntity
  8
1
  6
Continuous
100
AcDbCircle
 10
163.6692469999998
 20
179.2064899999998
 30
0.0
 40
28.0
100
AcDbArc
 50
181.63505
 51
333.6775289999998
  0
ARC
  5
B61C
330
B1CC
100
AcDbEntity
  8
1
  6
Continuous
100
AcDbCircle
 10
163.6692469999998
 20
179.2064899999998
 30
0.0
 40
19.5
100
AcDbArc
 50
185.5746659999999
 51
330.1173549999999
  0
ARC
  5
B61D
330
B1CC
100
AcDbEntity
  8
1
  6
Continuous
100
AcDbCircle
 10
163.6692469999998
 20
179.2064899999998
 30
0.0
 40
28.0
100
AcDbArc
 50
4.857635
 51
12.100412
  0
ARC
  5
B61E
330
B1CC
100
AcDbEntity
  8
1
  6
Continuous
100
AcDbCircle
 10
163.6692469999998
 20
179.2064899999998
 30
0.0
 40
28.0
100
AcDbArc
 50
22.65674699999999
 51
36.01371799999999
  0
ARC
  5
B61F
330
B1CC
100
AcDbEntity
  8
1
  6
Continuous
100
AcDbCircle
 10
163.6692469999998
 20
179.2064899999998
 30
0.0
 40
37.5
100
AcDbArc
 50
351.805585
 51
42.09619599999999
  0
LINE
  5
B620
330
B1CC
100
AcDbEntity
  8
1
  6
Continuous
100
AcDbLine
 10
170.669172
 20
320.8969989999999
 30
0.0
 11
170.669172
 21
321.1876839999998
 31
0.0
  0
LINE
  5
B621
330
B1CC
100
AcDbEntity
  8
1
  6
Continuous
100
AcDbLine
 10
156.669172
 20
320.8969989999999
 30
0.0
 11
156.669172
 21
322.396999
 31
0.0
  0
LINE
  5
B622
330
B1CC
100
AcDbEntity
  8
1
  6
Continuous
100
AcDbLine
 10
170.669172
 20
320.8969989999999
 30
0.0
 11
156.669172
 21
320.8969989999999
 31
0.0
  0
CIRCLE
  5
B623
330
B1CC
100
AcDbEntity
  8
1
  6
Continuous
100
AcDbCircle
 10
163.6692469999998
 20
179.2064899999998
 30
0.0
 40
7.0
  0
LINE
  5
B624
330
B1CC
100
AcDbEntity
  8
1
  6
Continuous
100
AcDbLine
 10
157.6692469999999
 20
182.670591
 30
0.0
 11
163.6692469999998
 21
186.134693
 31
0.0
  0
LINE
  5
B625
330
B1CC
100
AcDbEntity
  8
1
  6
Continuous
100
AcDbLine
 10
163.6692469999998
 20
172.278286
 30
0.0
 11
157.6692469999999
 21
175.7423879999999
 31
0.0
  0
LINE
  5
B626
330
B1CC
100
AcDbEntity
  8
1
  6
Continuous
100
AcDbLine
 10
87.67114999999998
 20
182.4065349999999
 30
0.0
 11
86.87115
 21
183.206535
 31
0.0
  0
LINE
  5
B627
330
B1CC
100
AcDbEntity
  8
2
  6
Continuous
100
AcDbLine
 10
87.54765
 20
182.530035
 30
0.0
 11
86.78833199999997
 21
182.530035
 31
0.0
  0
CIRCLE
  5
B628
330
B1CC
100
AcDbEntity
  8
1
  6
Continuous
100
AcDbCircle
 10
163.6692469999998
 20
179.2064899999998
 30
0.0
 40
6.0
  0
CIRCLE
  5
B629
330
B1CC
100
AcDbEntity
  8
1
  6
Continuous
100
AcDbCircle
 10
163.6692469999998
 20
179.2064899999998
 30
0.0
 40
4.0
  0
CIRCLE
  5
B62A
330
B1CC
100
AcDbEntity
  8
2
  6
Continuous
100
AcDbCircle
 10
163.6692469999998
 20
179.2064899999998
 30
0.0
 40
3.3235
  0
ARC
  5
B62B
330
B1CC
100
AcDbEntity
  8
1
  6
Continuous
100
AcDbCircle
 10
166.669172
 20
324.562062
 30
0.0
 40
8.665063999999999
100
AcDbArc
 50
249.7438419999999
 51
290.256158
  0
LINE
  5
B62C
330
B1CC
100
AcDbEntity
  8
1
  6
Continuous
100
AcDbLine
 10
159.669172
 20
315.814181
 30
0.0
 11
167.6691719999998
 21
315.814181
 31
0.0
  0
LINE
  5
B62D
330
B1CC
100
AcDbEntity
  8
1
  6
Continuous
100
AcDbLine
 10
166.8691719999999
 20
315.014181
 30
0.0
 11
160.4691719999999
 21
315.014181
 31
0.0
  0
LINE
  5
B62E
330
B1CC
100
AcDbEntity
  8
1
  6
Continuous
100
AcDbLine
 10
157.669172
 20
315.8969990000001
 30
0.0
 11
169.669172
 21
315.8969990000001
 31
0.0
  0
LINE
  5
B62F
330
B1CC
100
AcDbEntity
  8
1
  6
Continuous
100
AcDbLine
 10
87.67114999999998
 20
176.006535
 30
0.0
 11
86.87115
 21
175.206535
 31
0.0
  0
LINE
  5
B630
330
B1CC
100
AcDbEntity
  8
2
  6
Continuous
100
AcDbLine
 10
87.54765
 20
175.883035
 30
0.0
 11
86.78833199999997
 21
175.883035
 31
0.0
  0
ARC
  5
B631
330
B1CC
100
AcDbEntity
  8
1
  6
Continuous
100
AcDbCircle
 10
166.669172
 20
312.231935
 30
0.0
 40
8.665063999999999
100
AcDbArc
 50
69.743842
 51
110.256158
  0
LINE
  5
B632
330
B1CC
100
AcDbEntity
  8
1
  6
Continuous
100
AcDbLine
 10
157.6692469999999
 20
182.670591
 30
0.0
 11
157.6692469999999
 21
175.7423879999999
 31
0.0
  0
LINE
  5
B633
330
B1CC
100
AcDbEntity
  8
1
  6
Continuous
100
AcDbLine
 10
81.78833199999997
 20
172.206535
 30
0.0
 11
81.78833199999997
 21
186.2065349999998
 31
0.0
  0
LINE
  5
B634
330
B1CC
100
AcDbEntity
  8
1
  6
Continuous
100
AcDbLine
 10
86.87115
 20
183.206535
 30
0.0
 11
86.87115
 21
175.206535
 31
0.0
  0
ARC
  5
B635
330
B1CC
100
AcDbEntity
  8
1
  6
Continuous
100
AcDbCircle
 10
93.25243399999999
 20
179.206535
 30
0.0
 40
11.464102
100
AcDbArc
 50
162.412046
 51
197.5879539999999
  0
ARC
  5
B636
330
B1CC
100
AcDbEntity
  8
1
  6
Continuous
100
AcDbCircle
 10
75.32423
 20
179.206535
 30
0.0
 40
11.464102
100
AcDbArc
 50
342.4120459999999
 51
17.587954
  0
LINE
  5
B637
330
B1CC
100
AcDbEntity
  8
1
  6
Continuous
100
AcDbLine
 10
86.78833199999997
 20
185.206535
 30
0.0
 11
86.78833199999997
 21
173.206535
 31
0.0
  0
LINE
  5
B638
330
B1CC
100
AcDbEntity
  8
1
  6
Continuous
100
AcDbLine
 10
81.78833199999997
 20
172.206535
 30
0.0
 11
80.28833199999999
 21
172.206535
 31
0.0
  0
LINE
  5
B639
330
B1CC
100
AcDbEntity
  8
2
  6
Continuous
100
AcDbLine
 10
160.345672
 20
315.1376809999998
 30
0.0
 11
160.345672
 21
315.8969990000001
 31
0.0
  0
LINE
  5
B63A
330
B1CC
100
AcDbEntity
  8
1
  6
Continuous
100
AcDbLine
 10
160.4691719999999
 20
315.014181
 30
0.0
 11
159.669172
 21
315.814181
 31
0.0
  0
LINE
  5
B63B
330
B1CC
100
AcDbEntity
  8
1
  6
Continuous
100
AcDbLine
 10
159.669172
 20
315.8969990000001
 30
0.0
 11
159.669172
 21
315.814181
 31
0.0
  0
ARC
  5
B63C
330
B1CC
100
AcDbEntity
  8
1
  6
Continuous
100
AcDbCircle
 10
160.669172
 20
324.562062
 30
0.0
 40
8.665063999999999
100
AcDbArc
 50
249.7438419999999
 51
290.256158
  0
LINE
  5
B63D
330
B1CC
100
AcDbEntity
  8
1
  6
Continuous
100
AcDbLine
 10
163.6691719999998
 20
320.3611
 30
0.0
 11
163.6691719999998
 21
316.4328970000001
 31
0.0
  0
LINE
  5
B63E
330
B1CC
100
AcDbEntity
  8
1
  6
Continuous
100
AcDbLine
 10
86.78833199999997
 20
175.206535
 30
0.0
 11
86.87115
 21
175.206535
 31
0.0
  0
ARC
  5
B63F
330
B1CC
100
AcDbEntity
  8
1
  6
Continuous
100
AcDbCircle
 10
83.72134499999999
 20
174.0103829999999
 30
0.0
 40
3.066986999999998
100
AcDbArc
 50
334.384247
 51
34.38424699999998
  0
ARC
  5
B640
330
B1CC
100
AcDbEntity
  8
1
  6
Continuous
100
AcDbCircle
 10
84.85531899999998
 20
174.0103829999999
 30
0.0
 40
3.066986999999998
100
AcDbArc
 50
145.615753
 51
205.615753
  0
LINE
  5
B641
330
B1CC
100
AcDbEntity
  8
1
  6
Continuous
100
AcDbLine
 10
82.32423
 20
175.742434
 30
0.0
 11
86.25243399999998
 21
175.742434
 31
0.0
  0
LINE
  5
B642
330
B1CC
100
AcDbEntity
  8
1
  6
Continuous
100
AcDbLine
 10
82.32423
 20
172.278332
 30
0.0
 11
86.25243399999998
 21
172.278332
 31
0.0
  0
LINE
  5
B643
330
B1CC
100
AcDbEntity
  8
1
  6
Continuous
100
AcDbLine
 10
82.32423
 20
172.278332
 30
0.0
 11
81.78833199999997
 21
173.206535
 31
0.0
  0
LINE
  5
B644
330
B1CC
100
AcDbEntity
  8
1
  6
Continuous
100
AcDbLine
 10
86.25243399999998
 20
172.278332
 30
0.0
 11
86.78833199999997
 21
173.206535
 31
0.0
  0
ARC
  5
B645
330
B1CC
100
AcDbEntity
  8
1
  6
Continuous
100
AcDbCircle
 10
160.669172
 20
312.231935
 30
0.0
 40
8.665063999999999
100
AcDbArc
 50
69.743842
 51
110.256158
  0
LINE
  5
B646
330
B1CC
100
AcDbEntity
  8
1
  6
Continuous
100
AcDbLine
 10
157.669172
 20
315.8969990000001
 30
0.0
 11
157.669172
 21
320.8969989999999
 31
0.0
  0
LINE
  5
B647
330
B1CC
100
AcDbEntity
  8
1
  6
Continuous
100
AcDbLine
 10
81.78833199999997
 20
186.2065349999998
 30
0.0
 11
80.28833199999999
 21
186.2065349999998
 31
0.0
  0
LINE
  5
B648
330
B1CC
100
AcDbEntity
  8
1
  6
Continuous
100
AcDbLine
 10
86.78833199999997
 20
183.206535
 30
0.0
 11
86.87115
 21
183.206535
 31
0.0
  0
LINE
  5
B649
330
B1CC
100
AcDbEntity
  8
1
  6
Continuous
100
AcDbLine
 10
86.25243399999998
 20
186.1347389999999
 30
0.0
 11
86.78833199999997
 21
185.206535
 31
0.0
  0
LINE
  5
B64A
330
B1CC
100
AcDbEntity
  8
1
  6
Continuous
100
AcDbLine
 10
82.32423
 20
186.1347389999999
 30
0.0
 11
81.78833199999997
 21
185.206535
 31
0.0
  0
LINE
  5
B64B
330
B1CC
100
AcDbEntity
  8
1
  6
Continuous
100
AcDbLine
 10
82.32423
 20
186.1347389999999
 30
0.0
 11
86.25243399999998
 21
186.1347389999999
 31
0.0
  0
LINE
  5
B64C
330
B1CC
100
AcDbEntity
  8
1
  6
Continuous
100
AcDbLine
 10
82.32423
 20
182.670637
 30
0.0
 11
86.25243399999998
 21
182.670637
 31
0.0
  0
ARC
  5
B64D
330
B1CC
100
AcDbEntity
  8
1
  6
Continuous
100
AcDbCircle
 10
84.85531899999998
 20
184.4026879999999
 30
0.0
 40
3.066986999999998
100
AcDbArc
 50
154.3842469999999
 51
214.384247
  0
ARC
  5
B64E
330
B1CC
100
AcDbEntity
  8
1
  6
Continuous
100
AcDbCircle
 10
83.72134499999999
 20
184.4026879999999
 30
0.0
 40
3.066986999999998
100
AcDbArc
 50
325.6157529999999
 51
25.615753
  0
LINE
  5
B64F
330
B1CC
100
AcDbEntity
  8
1
  6
Continuous
100
AcDbLine
 10
169.6692469999999
 20
182.670591
 30
0.0
 11
169.6692469999999
 21
175.7423879999999
 31
0.0
  0
LINE
  5
B650
330
B1CC
100
AcDbEntity
  8
1
  6
Continuous
100
AcDbLine
 10
87.67114999999998
 20
176.006535
 30
0.0
 11
87.67114999999998
 21
182.4065349999999
 31
0.0
  0
LINE
  5
B651
330
B1CC
100
AcDbEntity
  8
2
  6
Continuous
100
AcDbLine
 10
166.992672
 20
315.1376809999998
 30
0.0
 11
166.992672
 21
315.8969990000001
 31
0.0
  0
LINE
  5
B652
330
B1CC
100
AcDbEntity
  8
1
  6
Continuous
100
AcDbLine
 10
166.8691719999999
 20
315.014181
 30
0.0
 11
167.6691719999998
 21
315.814181
 31
0.0
  0
LINE
  5
B653
330
B1CC
100
AcDbEntity
  8
1
  6
Continuous
100
AcDbLine
 10
167.6691719999998
 20
315.8969990000001
 30
0.0
 11
167.6691719999998
 21
315.814181
 31
0.0
  0
LINE
  5
B654
330
B1CC
100
AcDbEntity
  8
1
  6
Continuous
100
AcDbLine
 10
169.669172
 20
315.8969990000001
 30
0.0
 11
169.669172
 21
320.8969989999999
 31
0.0
  0
LINE
  5
B655
330
B1CC
100
AcDbEntity
  8
1
  6
Continuous
100
AcDbLine
 10
163.6692469999998
 20
172.278286
 30
0.0
 11
169.6692469999999
 21
175.7423879999999
 31
0.0
  0
LINE
  5
B656
330
B1CC
100
AcDbEntity
  8
1
  6
Continuous
100
AcDbLine
 10
169.6692469999999
 20
182.670591
 30
0.0
 11
163.6692469999998
 21
186.134693
 31
0.0
  0
LINE
  5
B657
330
B1CC
100
AcDbEntity
  8
1
  6
Continuous
100
AcDbLine
 10
85.34970300000003
 20
186.1347389999999
 30
0.0
 11
85.34970300000003
 21
186.4995449999999
 31
0.0
  0
LINE
  5
B658
330
B1CC
100
AcDbEntity
  8
1
  6
Continuous
100
AcDbLine
 10
163.6692469999998
 20
97.745606
 30
0.0
 11
163.6692469999998
 21
101.673809
 31
0.0
  0
LINE
  5
B659
330
B1CC
100
AcDbEntity
  8
1
  6
Continuous
100
AcDbLine
 10
169.6692469999999
 20
102.2097079999999
 30
0.0
 11
169.6692469999999
 21
97.20970800000001
 31
0.0
  0
LINE
  5
B65A
330
B1CC
100
AcDbEntity
  8
1
  6
Continuous
100
AcDbLine
 10
157.6692469999999
 20
102.2097079999999
 30
0.0
 11
157.6692469999999
 21
97.20970800000001
 31
0.0
  0
LINE
  5
B65B
330
B1CC
100
AcDbEntity
  8
1
  6
Continuous
100
AcDbLine
 10
170.6692469999999
 20
97.20970800000001
 30
0.0
 11
156.6692469999999
 21
97.20970800000001
 31
0.0
  0
ARC
  5
B65C
330
B1CC
100
AcDbEntity
  8
1
  6
Continuous
100
AcDbCircle
 10
160.6692469999998
 20
105.874771
 30
0.0
 40
8.665063999999999
100
AcDbArc
 50
249.7438419999999
 51
290.256158
  0
LINE
  5
B65D
330
B1CC
100
AcDbEntity
  8
1
  6
Continuous
100
AcDbLine
 10
156.6692469999999
 20
97.20970800000001
 30
0.0
 11
156.6692469999999
 21
95.70970800000001
 31
0.0
  0
LINE
  5
B65E
330
B1CC
100
AcDbEntity
  8
1
  6
Continuous
100
AcDbLine
 10
170.6692469999999
 20
97.20970800000001
 30
0.0
 11
170.6692469999999
 21
96.919021
 31
0.0
  0
ARC
  5
B65F
330
B1CC
100
AcDbEntity
  8
1
  6
Continuous
100
AcDbCircle
 10
166.6692469999999
 20
105.874771
 30
0.0
 40
8.665063999999999
100
AcDbArc
 50
249.7438419999999
 51
290.256158
  0
LINE
  5
B660
330
B1CC
100
AcDbEntity
  8
1
  6
Continuous
100
AcDbLine
 10
159.6692469999998
 20
102.292526
 30
0.0
 11
167.6692469999998
 21
102.292526
 31
0.0
  0
LINE
  5
B661
330
B1CC
100
AcDbEntity
  8
1
  6
Continuous
100
AcDbLine
 10
166.869247
 20
103.092526
 30
0.0
 11
160.4692469999999
 21
103.092526
 31
0.0
  0
LINE
  5
B662
330
B1CC
100
AcDbEntity
  8
1
  6
Continuous
100
AcDbLine
 10
157.6692469999999
 20
102.2097079999999
 30
0.0
 11
169.6692469999999
 21
102.2097079999999
 31
0.0
  0
ARC
  5
B663
330
B1CC
100
AcDbEntity
  8
1
  6
Continuous
100
AcDbCircle
 10
160.6692469999998
 20
93.54464400000001
 30
0.0
 40
8.665063999999999
100
AcDbArc
 50
69.743842
 51
110.256158
  0
LINE
  5
B664
330
B1CC
100
AcDbEntity
  8
2
  6
Continuous
100
AcDbLine
 10
160.3457469999999
 20
102.9690259999999
 30
0.0
 11
160.3457469999999
 21
102.2097079999999
 31
0.0
  0
LINE
  5
B665
330
B1CC
100
AcDbEntity
  8
1
  6
Continuous
100
AcDbLine
 10
160.4692469999999
 20
103.092526
 30
0.0
 11
159.6692469999998
 21
102.292526
 31
0.0
  0
LINE
  5
B666
330
B1CC
100
AcDbEntity
  8
1
  6
Continuous
100
AcDbLine
 10
159.6692469999998
 20
102.2097079999999
 30
0.0
 11
159.6692469999998
 21
102.292526
 31
0.0
  0
ARC
  5
B667
330
B1CC
100
AcDbEntity
  8
1
  6
Continuous
100
AcDbCircle
 10
166.6692469999999
 20
93.54464400000001
 30
0.0
 40
8.665063999999999
100
AcDbArc
 50
69.743842
 51
110.256158
  0
LINE
  5
B668
330
B1CC
100
AcDbEntity
  8
2
  6
Continuous
100
AcDbLine
 10
166.992747
 20
102.9690259999999
 30
0.0
 11
166.992747
 21
102.2097079999999
 31
0.0
  0
LINE
  5
B669
330
B1CC
100
AcDbEntity
  8
1
  6
Continuous
100
AcDbLine
 10
166.869247
 20
103.092526
 30
0.0
 11
167.6692469999998
 21
102.292526
 31
0.0
  0
LINE
  5
B66A
330
B1CC
100
AcDbEntity
  8
1
  6
Continuous
100
AcDbLine
 10
167.6692469999998
 20
102.2097079999999
 30
0.0
 11
167.6692469999998
 21
102.292526
 31
0.0
  0
ARC
  5
B66B
330
B1CC
100
AcDbEntity
  8
1
  6
Continuous
100
AcDbCircle
 10
293.7118759999999
 20
179.2064899999998
 30
0.0
 40
10.5
100
AcDbArc
 50
318.189685
 51
15.61096599999999
  0
LINE
  5
B66C
330
B1CC
100
AcDbEntity
  8
1
  6
Continuous
100
AcDbLine
 10
301.538114
 20
175.277054
 30
0.0
 11
301.538114
 21
172.20649
 31
0.0
  0
LINE
  5
B66D
330
B1CC
100
AcDbEntity
  8
1
  6
Continuous
100
AcDbLine
 10
301.538114
 20
172.20649
 30
0.0
 11
300.09486
 21
172.20649
 31
0.0
  0
LINE
  5
B66E
330
B1CC
100
AcDbEntity
  8
1
  6
Continuous
100
AcDbLine
 10
252.736887
 20
183.2064899999998
 30
0.0
 11
252.736887
 21
175.5036199999999
 31
0.0
  0
ARC
  5
B66F
330
B1CC
100
AcDbEntity
  8
1
  6
Continuous
100
AcDbCircle
 10
264.2838069999999
 20
179.2064899999998
 30
0.0
 40
11.464102
100
AcDbArc
 50
162.412046
 51
197.5879539999999
  0
LINE
  5
B670
330
B1CC
100
AcDbEntity
  8
1
  6
Continuous
100
AcDbLine
 10
251.936887
 20
176.0064899999999
 30
0.0
 11
251.936887
 21
182.4064899999999
 31
0.0
  0
LINE
  5
B671
330
B1CC
100
AcDbEntity
  8
1
  6
Continuous
100
AcDbLine
 10
252.8197049999999
 20
185.20649
 30
0.0
 11
252.8197049999999
 21
175.5036199999999
 31
0.0
  0
LINE
  5
B672
330
B1CC
100
AcDbEntity
  8
1
  6
Continuous
100
AcDbLine
 10
254.2419989999999
 20
175.7423879999999
 30
0.0
 11
253.3556029999998
 21
175.7423879999999
 31
0.0
  0
LINE
  5
B673
330
B1CC
100
AcDbEntity
  8
1
  6
Continuous
100
AcDbLine
 10
251.936887
 20
176.0064899999999
 30
0.0
 11
252.439757
 21
175.5036199999999
 31
0.0
  0
LINE
  5
B674
330
B1CC
100
AcDbEntity
  8
2
  6
Continuous
100
AcDbLine
 10
252.0603869999999
 20
175.8829899999998
 30
0.0
 11
252.8197049999999
 21
175.8829899999998
 31
0.0
  0
ARC
  5
B675
330
B1CC
100
AcDbEntity
  8
1
  6
Continuous
100
AcDbCircle
 10
255.8866919999999
 20
174.0103369999999
 30
0.0
 40
3.066986999999998
100
AcDbArc
 50
145.615753
 51
150.8636899999999
  0
LINE
  5
B676
330
B1CC
100
AcDbEntity
  8
1
  6
Continuous
100
AcDbLine
 10
254.0502459999999
 20
186.134693
 30
0.0
 11
253.3556029999998
 21
186.134693
 31
0.0
  0
LINE
  5
B677
330
B1CC
100
AcDbEntity
  8
1
  6
Continuous
100
AcDbLine
 10
254.2419989999999
 20
182.670591
 30
0.0
 11
253.3556029999998
 21
182.670591
 31
0.0
  0
LINE
  5
B678
330
B1CC
100
AcDbEntity
  8
1
  6
Continuous
100
AcDbLine
 10
251.936887
 20
182.4064899999999
 30
0.0
 11
252.736887
 21
183.2064899999998
 31
0.0
  0
LINE
  5
B679
330
B1CC
100
AcDbEntity
  8
2
  6
Continuous
100
AcDbLine
 10
252.0603869999999
 20
182.52999
 30
0.0
 11
252.8197049999999
 21
182.52999
 31
0.0
  0
LINE
  5
B67A
330
B1CC
100
AcDbEntity
  8
1
  6
Continuous
100
AcDbLine
 10
252.8197049999999
 20
183.2064899999998
 30
0.0
 11
252.736887
 21
183.2064899999998
 31
0.0
  0
LINE
  5
B67B
330
B1CC
100
AcDbEntity
  8
1
  6
Continuous
100
AcDbLine
 10
253.3556029999998
 20
186.134693
 30
0.0
 11
252.8197049999999
 21
185.20649
 31
0.0
  0
ARC
  5
B67C
330
B1CC
100
AcDbEntity
  8
1
  6
Continuous
100
AcDbCircle
 10
255.8866919999999
 20
184.4026419999999
 30
0.0
 40
3.066986999999998
100
AcDbArc
 50
154.3842469999999
 51
214.384247
  0
ARC
  5
B67D
330
B1CC
100
AcDbEntity
  8
1
  6
Continuous
100
AcDbCircle
 10
300.615904
 20
193.036659
 30
0.0
 40
45.0
100
AcDbArc
 50
191.644122
 51
194.324408
  0
ENDSEC
  0
SECTION
  2
OBJECTS
  0
DICTIONARY
  5
B1BA
330
0
100
AcDbDictionary
281
     1
  3
ACAD_CIP_PREVIOUS_PRODUCT_INFO
350
B6DF
  3
ACAD_COLOR
350
B6C1
  3
ACAD_DETAILVIEWSTYLE
350
B6DA
  3
ACAD_GROUP
350
B1BB
  3
ACAD_LAYOUT
350
B1C7
  3
ACAD_MATERIAL
350
B68F
  3
ACAD_MLEADERSTYLE
350
B6D6
  3
ACAD_MLINESTYLE
350
B1C4
  3
ACAD_PLOTSETTINGS
350
B1C6
  3
ACAD_PLOTSTYLENAME
350
B68D
  3
ACAD_SCALELIST
350
B6C4
  3
ACAD_SECTIONVIEWSTYLE
350
B6D8
  3
ACAD_TABLESTYLE
350
B6C2
  3
ACAD_VISUALSTYLE
350
B6A8
  3
ACDB_RECOMPOSE_DATA
350
B6FD
  3
AcDbVariableDictionary
350
B6F0
  3
DWGPROPS
350
B6FE
  0
DICTIONARY
  5
B6E0
330
B1BE
100
AcDbDictionary
280
     1
281
     1
  3
ADSK_XREC_LAYER_RECONCILED
360
B6E1
  0
DICTIONARY
  5
B6E2
330
B1D4
100
AcDbDictionary
280
     1
281
     1
  3
ADSK_XREC_LAYER_RECONCILED
360
B6E3
  0
DICTIONARY
  5
B6E4
330
B1D5
100
AcDbDictionary
280
     1
281
     1
  3
ADSK_XREC_LAYER_RECONCILED
360
B6E5
  0
DICTIONARY
  5
B6E6
330
B1D6
100
AcDbDictionary
280
     1
281
     1
  3
ADSK_XREC_LAYER_RECONCILED
360
B6E7
  0
DICTIONARY
  5
B6E8
330
B1D7
100
AcDbDictionary
280
     1
281
     1
  3
ADSK_XREC_LAYER_RECONCILED
360
B6E9
  0
DICTIONARY
  5
B6EA
330
B1D8
100
AcDbDictionary
280
     1
281
     1
  3
ADSK_XREC_LAYER_RECONCILED
360
B6EB
  0
DICTIONARY
  5
B6EC
330
B1D9
100
AcDbDictionary
280
     1
281
     1
  3
ADSK_XREC_LAYER_RECONCILED
360
B6ED
  0
DICTIONARY
  5
B6EE
330
B1DA
100
AcDbDictionary
280
     1
281
     1
  3
ADSK_XREC_LAYER_RECONCILED
360
B6EF
  0
DICTIONARY
  5
B688
330
B1CC
100
AcDbDictionary
281
     1
  3
ACAD_LAYOUTSELFREF
350
B689
  0
DICTIONARY
  5
B686
330
B1C8
100
AcDbDictionary
281
     1
  3
ACAD_LAYOUTSELFREF
350
B687
  0
XRECORD
  5
B6DF
102
{ACAD_REACTORS
330
B1BA
102
}
330
B1BA
100
AcDbXrecord
280
     1
300
ACDLT
300
2014
300
ACDLT_F_S
  0
DICTIONARY
  5
B6C1
102
{ACAD_REACTORS
330
B1BA
102
}
330
B1BA
100
AcDbDictionary
281
     1
  0
DICTIONARY
  5
B6DA
102
{ACAD_REACTORS
330
B1BA
102
}
330
B1BA
100
AcDbDictionary
281
     1
  3
Imperial24
350
B6DB
  0
DICTIONARY
  5
B1BB
102
{ACAD_REACTORS
330
B1BA
102
}
330
B1BA
100
AcDbDictionary
281
     1
  0
DICTIONARY
  5
B1C7
102
{ACAD_REACTORS
330
B1BA
102
}
330
B1BA
100
AcDbDictionary
281
     1
  3
Model
350
B6DC
  3
レイアウト1
350
B6DD
  0
DICTIONARY
  5
B68F
102
{ACAD_REACTORS
330
B1BA
102
}
330
B1BA
100
AcDbDictionary
281
     1
  3
ByBlock
350
B698
  3
ByLayer
350
B690
  3
Global
350
B6A0
  0
DICTIONARY
  5
B6D6
102
{ACAD_REACTORS
330
B1BA
102
}
330
B1BA
100
AcDbDictionary
281
     1
  3
Standard
350
B6D7
  0
DICTIONARY
  5
B1C4
102
{ACAD_REACTORS
330
B1BA
102
}
330
B1BA
100
AcDbDictionary
281
     1
  3
STANDARD
350
B1C5
  0
DICTIONARY
  5
B1C6
102
{ACAD_REACTORS
330
B1BA
102
}
330
B1BA
100
AcDbDictionary
281
     1
  0
ACDBDICTIONARYWDFLT
  5
B68D
102
{ACAD_REACTORS
330
B1BA
102
}
330
B1BA
100
AcDbDictionary
281
     1
  3
Normal
350
B68E
100
AcDbDictionaryWithDefault
340
B68E
  0
DICTIONARY
  5
B6C4
102
{ACAD_REACTORS
330
B1BA
102
}
330
B1BA
100
AcDbDictionary
281
     1
  3
A0
350
B6C5
  3
A1
350
B6C6
  3
A2
350
B6C7
  3
A3
350
B6C8
  3
A4
350
B6C9
  3
A5
350
B6CA
  3
A6
350
B6CB
  3
A7
350
B6CC
  3
A8
350
B6CD
  3
A9
350
B6CE
  3
B0
350
B6CF
  3
B1
350
B6D0
  3
B2
350
B6D1
  3
B3
350
B6D2
  3
B4
350
B6D3
  3
B5
350
B6D4
  3
B6
350
B6D5
  0
DICTIONARY
  5
B6D8
102
{ACAD_REACTORS
330
B1BA
102
}
330
B1BA
100
AcDbDictionary
281
     1
  3
Imperial24
350
B6D9
  0
DICTIONARY
  5
B6C2
102
{ACAD_REACTORS
330
B1BA
102
}
330
B1BA
100
AcDbDictionary
281
     1
  3
Standard
350
B6C3
  0
DICTIONARY
  5
B6A8
102
{ACAD_REACTORS
330
B1BA
102
}
330
B1BA
100
AcDbDictionary
281
     1
  3
2dWireframe
350
B6AE
  3
Basic
350
B6AD
  3
Brighten
350
B6B4
  3
ColorChange
350
B6B8
  3
Conceptual
350
B6B1
  3
Dim
350
B6B3
  3
EdgeColorOff
350
B6C0
  3
Facepattern
350
B6B7
  3
Flat
350
B6A9
  3
FlatWithEdges
350
B6AA
  3
Gouraud
350
B6AB
  3
GouraudWithEdges
350
B6AC
  3
Hidden
350
B6B0
  3
JitterOff
350
B6BE
  3
Linepattern
350
B6B6
  3
OverhangOff
350
B6BF
  3
Realistic
350
B6B2
  3
Shaded
350
B6BD
  3
Shaded with edges
350
B6BC
  3
Shades of Gray
350
B6B9
  3
Sketchy
350
B6BA
  3
Thicken
350
B6B5
  3
Wireframe
350
B6AF
  3
X-Ray
350
B6BB
  0
XRECORD
  5
B6FD
102
{ACAD_REACTORS
330
B1BA
102
}
330
B1BA
100
AcDbXrecord
280
     1
 90
        1
330
B6C3
  0
DICTIONARY
  5
B6F0
102
{ACAD_REACTORS
330
B1BA
102
}
330
B1BA
100
AcDbDictionary
281
     1
  3
CANNOSCALE
350
B6F5
  3
CMLEADERSTYLE
350
B6F2
  3
CTABLESTYLE
350
B6F1
  3
CVIEWDETAILSTYLE
350
B6F3
  3
CVIEWSECTIONSTYLE
350
B6F4
  3
DIMASSOC
350
B6F8
  3
INDEXCTL
350
B6F7
  3
SORTENTS
350
B6F6
  3
XCLIPFRAME
350
B6F9
  0
XRECORD
  5
B6FE
102
{ACAD_REACTORS
330
B1BA
102
}
330
B1BA
100
AcDbXrecord
280
     1
  1
DWGPROPS COOKIE
  2

  3

  4

  6

  7

  8
Yoshitsune
  9

300
=
301
=
302
=
303
=
304
=
305
=
306
=
307
=
308
=
309
=
 40
0.0000125925925926
 41
2451302.672639583
 42
2457192.68805022
  1

 90
        0
  0
XRECORD
  5
B6E1
102
{ACAD_REACTORS
330
B6E0
102
}
330
B6E0
100
AcDbXrecord
280
     1
290
     1
  0
XRECORD
  5
B6E3
102
{ACAD_REACTORS
330
B6E2
102
}
330
B6E2
100
AcDbXrecord
280
     1
290
     1
  0
XRECORD
  5
B6E5
102
{ACAD_REACTORS
330
B6E4
102
}
330
B6E4
100
AcDbXrecord
280
     1
290
     1
  0
XRECORD
  5
B6E7
102
{ACAD_REACTORS
330
B6E6
102
}
330
B6E6
100
AcDbXrecord
280
     1
290
     1
  0
XRECORD
  5
B6E9
102
{ACAD_REACTORS
330
B6E8
102
}
330
B6E8
100
AcDbXrecord
280
     1
290
     1
  0
XRECORD
  5
B6EB
102
{ACAD_REACTORS
330
B6EA
102
}
330
B6EA
100
AcDbXrecord
280
     1
290
     1
  0
XRECORD
  5
B6ED
102
{ACAD_REACTORS
330
B6EC
102
}
330
B6EC
100
AcDbXrecord
280
     1
290
     1
  0
XRECORD
  5
B6EF
102
{ACAD_REACTORS
330
B6EE
102
}
330
B6EE
100
AcDbXrecord
280
     1
290
     1
  0
XRECORD
  5
B689
102
{ACAD_REACTORS
330
B688
102
}
330
B688
100
AcDbXrecord
280
     1
340
B1CC
  0
XRECORD
  5
B687
102
{ACAD_REACTORS
330
B686
102
}
330
B686
100
AcDbXrecord
280
     1
340
B1C8
  0
ACDBDETAILVIEWSTYLE
  5
B6DB
102
{ACAD_XDICTIONARY
360
B736
102
}
102
{ACAD_REACTORS
330
B6DA
102
}
330
B6DA
100
AcDbModelDocViewStyle
 70
     0
  3
Imperial24
290
     0
100
AcDbDetailViewStyle
 70
     0
 71
     0
 90
        3
 71
     1
340
B1BF
 40
0.24
340
0
 40
0.24
300

 40
0.36
280
     3
 71
     2
340
B1C3
 90
       25
 71
     3
340
B1BF
 40
0.24
 90
        1
 40
0.75
 90
        1
300
%<\AcVar ViewType \f "%tc1">% %<\AcVar ViewDetailId>%\PSCALE %<\AcVar ViewScale \f "%sn">%
 71
     4
340
B1C3
 90
       25
340
B1C3
 90
       25
280
     0
  0
LAYOUT
  5
B6DC
102
{ACAD_XDICTIONARY
360
B738
102
}
102
{ACAD_REACTORS
330
B1C7
102
}
330
B1C7
100
AcDbPlotSettings
  1

  2
Canon LBP9100C
  4

  6

 40
0.0
 41
0.0
 42
0.0
 43
0.0
 44
0.0
 45
0.0
 46
0.0
 47
0.0
 48
0.0
 49
0.0
140
0.0
141
0.0
142
1.0
143
1.0
 70
  1712
 72
     0
 73
     0
 74
     0
  7

 75
     0
147
1.0
148
0.0
149
0.0
100
AcDbLayout
  1
Model
 70
     1
 71
     0
 10
0.0
 20
0.0
 11
12.0
 21
9.0
 12
0.0
 22
0.0
 32
0.0
 14
0.0
 24
0.0
 34
0.0
 15
0.0
 25
0.0
 35
0.0
146
0.0
 13
0.0
 23
0.0
 33
0.0
 16
1.0
 26
0.0
 36
0.0
 17
0.0
 27
1.0
 37
0.0
 76
     0
330
B1CC
331
B685
  0
LAYOUT
  5
B6DD
102
{ACAD_XDICTIONARY
360
B73A
102
}
102
{ACAD_REACTORS
330
B1C7
102
}
330
B1C7
100
AcDbPlotSettings
  1

  2
Canon LBP9100C
  4

  6

 40
0.0
 41
0.0
 42
0.0
 43
0.0
 44
0.0
 45
0.0
 46
0.0
 47
0.0
 48
0.0
 49
0.0
140
0.0
141
0.0
142
1.0
143
1.0
 70
   688
 72
     0
 73
     0
 74
     5
  7

 75
    16
147
1.0
148
0.0
149
0.0
100
AcDbLayout
  1
レイアウト1
 70
     0
 71
     1
 10
0.0
 20
0.0
 11
420.0
 21
297.0
 12
0.0
 22
0.0
 32
0.0
 14
1.000000000000000E+20
 24
1.000000000000000E+20
 34
1.000000000000000E+20
 15
-1.000000000000000E+20
 25
-1.000000000000000E+20
 35
-1.000000000000000E+20
146
0.0
 13
0.0
 23
0.0
 33
0.0
 16
1.0
 26
0.0
 36
0.0
 17
0.0
 27
1.0
 37
0.0
 76
     0
330
B1C8
  0
MATERIAL
  5
B698
102
{ACAD_XDICTIONARY
360
B699
102
}
102
{ACAD_REACTORS
330
B68F
102
}
330
B68F
100
AcDbMaterial
  1
ByBlock
 72
     0
 43
0.0208333333333333
 43
0.0
 43
0.0
 43
0.0
 43
0.0
 43
0.0208333333333333
 43
0.0
 43
0.0
 43
0.0
 43
0.0
 43
1.0
 43
0.0
 43
0.0
 43
0.0
 43
0.0
 43
1.0
 77
     0
 47
0.0208333333333333
 47
0.0
 47
0.0
 47
0.0
 47
0.0
 47
0.0208333333333333
 47
0.0
 47
0.0
 47
0.0
 47
0.0
 47
1.0
 47
0.0
 47
0.0
 47
0.0
 47
0.0
 47
1.0
171
     0
 49
0.0208333333333333
 49
0.0
 49
0.0
 49
0.0
 49
0.0
 49
0.0208333333333333
 49
0.0
 49
0.0
 49
0.0
 49
0.0
 49
1.0
 49
0.0
 49
0.0
 49
0.0
 49
0.0
 49
1.0
175
     0
142
0.0208333333333333
142
0.0
142
0.0
142
0.0
142
0.0
142
0.0208333333333333
142
0.0
142
0.0
142
0.0
142
0.0
142
1.0
142
0.0
142
0.0
142
0.0
142
0.0
142
1.0
179
     0
144
0.0208333333333333
144
0.0
144
0.0
144
0.0
144
0.0
144
0.0208333333333333
144
0.0
144
0.0
144
0.0
144
0.0
144
1.0
144
0.0
144
0.0
144
0.0
144
0.0
144
1.0
147
0.0208333333333333
147
0.0
147
0.0
147
0.0
147
0.0
147
0.0208333333333333
147
0.0
147
0.0
147
0.0
147
0.0
147
1.0
147
0.0
147
0.0
147
0.0
147
0.0
147
1.0
  0
MATERIAL
  5
B690
102
{ACAD_XDICTIONARY
360
B691
102
}
102
{ACAD_REACTORS
330
B68F
102
}
330
B68F
100
AcDbMaterial
  1
ByLayer
 72
     0
 43
0.0208333333333333
 43
0.0
 43
0.0
 43
0.0
 43
0.0
 43
0.0208333333333333
 43
0.0
 43
0.0
 43
0.0
 43
0.0
 43
1.0
 43
0.0
 43
0.0
 43
0.0
 43
0.0
 43
1.0
 77
     0
 47
0.0208333333333333
 47
0.0
 47
0.0
 47
0.0
 47
0.0
 47
0.0208333333333333
 47
0.0
 47
0.0
 47
0.0
 47
0.0
 47
1.0
 47
0.0
 47
0.0
 47
0.0
 47
0.0
 47
1.0
171
     0
 49
0.0208333333333333
 49
0.0
 49
0.0
 49
0.0
 49
0.0
 49
0.0208333333333333
 49
0.0
 49
0.0
 49
0.0
 49
0.0
 49
1.0
 49
0.0
 49
0.0
 49
0.0
 49
0.0
 49
1.0
175
     0
142
0.0208333333333333
142
0.0
142
0.0
142
0.0
142
0.0
142
0.0208333333333333
142
0.0
142
0.0
142
0.0
142
0.0
142
1.0
142
0.0
142
0.0
142
0.0
142
0.0
142
1.0
179
     0
144
0.0208333333333333
144
0.0
144
0.0
144
0.0
144
0.0
144
0.0208333333333333
144
0.0
144
0.0
144
0.0
144
0.0
144
1.0
144
0.0
144
0.0
144
0.0
144
0.0
144
1.0
147
0.0208333333333333
147
0.0
147
0.0
147
0.0
147
0.0
147
0.0208333333333333
147
0.0
147
0.0
147
0.0
147
0.0
147
1.0
147
0.0
147
0.0
147
0.0
147
0.0
147
1.0
  0
MATERIAL
  5
B6A0
102
{ACAD_XDICTIONARY
360
B6A1
102
}
102
{ACAD_REACTORS
330
B68F
102
}
330
B68F
100
AcDbMaterial
  1
Global
 72
     0
 43
0.0208333333333333
 43
0.0
 43
0.0
 43
0.0
 43
0.0
 43
0.0208333333333333
 43
0.0
 43
0.0
 43
0.0
 43
0.0
 43
1.0
 43
0.0
 43
0.0
 43
0.0
 43
0.0
 43
1.0
 77
     0
 47
0.0208333333333333
 47
0.0
 47
0.0
 47
0.0
 47
0.0
 47
0.0208333333333333
 47
0.0
 47
0.0
 47
0.0
 47
0.0
 47
1.0
 47
0.0
 47
0.0
 47
0.0
 47
0.0
 47
1.0
171
     0
 49
0.0208333333333333
 49
0.0
 49
0.0
 49
0.0
 49
0.0
 49
0.0208333333333333
 49
0.0
 49
0.0
 49
0.0
 49
0.0
 49
1.0
 49
0.0
 49
0.0
 49
0.0
 49
0.0
 49
1.0
175
     0
142
0.0208333333333333
142
0.0
142
0.0
142
0.0
142
0.0
142
0.0208333333333333
142
0.0
142
0.0
142
0.0
142
0.0
142
1.0
142
0.0
142
0.0
142
0.0
142
0.0
142
1.0
179
     0
144
0.0208333333333333
144
0.0
144
0.0
144
0.0
144
0.0
144
0.0208333333333333
144
0.0
144
0.0
144
0.0
144
0.0
144
1.0
144
0.0
144
0.0
144
0.0
144
0.0
144
1.0
147
0.0208333333333333
147
0.0
147
0.0
147
0.0
147
0.0
147
0.0208333333333333
147
0.0
147
0.0
147
0.0
147
0.0
147
1.0
147
0.0
147
0.0
147
0.0
147
0.0
147
1.0
  0
MLEADERSTYLE
  5
B6D7
102
{ACAD_REACTORS
330
B6D6
102
}
330
B6D6
100
AcDbMLeaderStyle
170
     2
171
     1
172
     0
 90
        2
 40
0.0
 41
0.0
173
     1
 91
-1056964608
340
B1C1
 92
       -2
290
     1
 42
0.09
291
     1
 43
0.36
  3
Standard
 44
0.18
300

342
B1BF
174
     1
178
     6
175
     1
176
     0
 93
-1056964608
 45
0.18
292
     0
297
     0
 46
0.18
 94
-1056964608
 47
1.0
 49
1.0
140
1.0
293
     1
141
0.0
294
     1
177
     0
142
1.0
295
     0
296
     0
143
0.125
1001
ACAD_MLEADERVER
1070
     2
  0
MLINESTYLE
  5
B1C5
102
{ACAD_REACTORS
330
B1C4
102
}
330
B1C4
100
AcDbMlineStyle
  2
STANDARD
 70
     0
  3

 62
   256
 51
90.0
 52
90.0
 71
     2
 49
0.5
 62
   256
  6
BYLAYER
 49
-0.5
 62
   256
  6
BYLAYER
  0
ACDBPLACEHOLDER
  5
B68E
102
{ACAD_REACTORS
330
B68D
102
}
330
B68D
  0
SCALE
  5
B6C5
102
{ACAD_REACTORS
330
B6C4
102
}
330
B6C4
100
AcDbScale
 70
     0
300
1:1
140
1.0
141
1.0
290
     1
  0
SCALE
  5
B6C6
102
{ACAD_REACTORS
330
B6C4
102
}
330
B6C4
100
AcDbScale
 70
     0
300
1/128" = 1'-0"
140
0.0078125
141
12.0
290
     0
  0
SCALE
  5
B6C7
102
{ACAD_REACTORS
330
B6C4
102
}
330
B6C4
100
AcDbScale
 70
     0
300
1/64" = 1'-0"
140
0.015625
141
12.0
290
     0
  0
SCALE
  5
B6C8
102
{ACAD_REACTORS
330
B6C4
102
}
330
B6C4
100
AcDbScale
 70
     0
300
1/32" = 1'-0"
140
0.03125
141
12.0
290
     0
  0
SCALE
  5
B6C9
102
{ACAD_REACTORS
330
B6C4
102
}
330
B6C4
100
AcDbScale
 70
     0
300
1/16" = 1'-0"
140
0.0625
141
12.0
290
     0
  0
SCALE
  5
B6CA
102
{ACAD_REACTORS
330
B6C4
102
}
330
B6C4
100
AcDbScale
 70
     0
300
3/32" = 1'-0"
140
0.09375
141
12.0
290
     0
  0
SCALE
  5
B6CB
102
{ACAD_REACTORS
330
B6C4
102
}
330
B6C4
100
AcDbScale
 70
     0
300
1/8" = 1'-0"
140
0.125
141
12.0
290
     0
  0
SCALE
  5
B6CC
102
{ACAD_REACTORS
330
B6C4
102
}
330
B6C4
100
AcDbScale
 70
     0
300
3/16" = 1'-0"
140
0.1875
141
12.0
290
     0
  0
SCALE
  5
B6CD
102
{ACAD_REACTORS
330
B6C4
102
}
330
B6C4
100
AcDbScale
 70
     0
300
1/4" = 1'-0"
140
0.25
141
12.0
290
     0
  0
SCALE
  5
B6CE
102
{ACAD_REACTORS
330
B6C4
102
}
330
B6C4
100
AcDbScale
 70
     0
300
3/8" = 1'-0"
140
0.375
141
12.0
290
     0
  0
SCALE
  5
B6CF
102
{ACAD_REACTORS
330
B6C4
102
}
330
B6C4
100
AcDbScale
 70
     0
300
1/2" = 1'-0"
140
0.5
141
12.0
290
     0
  0
SCALE
  5
B6D0
102
{ACAD_REACTORS
330
B6C4
102
}
330
B6C4
100
AcDbScale
 70
     0
300
3/4" = 1'-0"
140
0.75
141
12.0
290
     0
  0
SCALE
  5
B6D1
102
{ACAD_REACTORS
330
B6C4
102
}
330
B6C4
100
AcDbScale
 70
     0
300
1" = 1'-0"
140
1.0
141
12.0
290
     0
  0
SCALE
  5
B6D2
102
{ACAD_REACTORS
330
B6C4
102
}
330
B6C4
100
AcDbScale
 70
     0
300
1-1/2" = 1'-0"
140
1.5
141
12.0
290
     0
  0
SCALE
  5
B6D3
102
{ACAD_REACTORS
330
B6C4
102
}
330
B6C4
100
AcDbScale
 70
     0
300
3" = 1'-0"
140
3.0
141
12.0
290
     0
  0
SCALE
  5
B6D4
102
{ACAD_REACTORS
330
B6C4
102
}
330
B6C4
100
AcDbScale
 70
     0
300
6" = 1'-0"
140
6.0
141
12.0
290
     0
  0
SCALE
  5
B6D5
102
{ACAD_REACTORS
330
B6C4
102
}
330
B6C4
100
AcDbScale
 70
     0
300
1'-0" = 1'-0"
140
12.0
141
12.0
290
     0
  0
ACDBSECTIONVIEWSTYLE
  5
B6D9
102
{ACAD_XDICTIONARY
360
B734
102
}
102
{ACAD_REACTORS
330
B6D8
102
}
330
B6D8
100
AcDbModelDocViewStyle
 70
     0
  3
Imperial24
290
     0
100
AcDbSectionViewStyle
 70
     0
 71
     0
 90
       78
 71
     1
340
B1BF
 40
0.24
340
0
340
0
 40
0.24
300
I, O, Q, S, X, Z
 40
0.48
 90
        3
 40
0.18
 90
        1
 71
     2
340
B1C3
 90
       25
340
B1C3
 90
       50
 40
0.24
 40
0.0
 40
0.24
 71
     3
340
B1BF
 40
0.24
 90
        1
 40
0.75
 90
        1
300
%<\AcVar ViewType \f "%tc1">% %<\AcVar ViewSectionStartId>%-%<\AcVar ViewSectionEndId>%\PSCALE %<\AcVar ViewScale \f "%sn">%
 71
     4
300
ANSI31
 40
1.0
 90
        0
290
     0
290
     0
 90
        6
 40
0.0
 40
1.570796326794896
 40
0.2617993877991494
 40
1.308996938995747
 40
-0.2617993877991494
 40
1.832595714594046
  0
TABLESTYLE
  5
B6C3
102
{ACAD_XDICTIONARY
360
B6FB
102
}
102
{ACAD_REACTORS
330
B6C2
102
}
330
B6C2
100
AcDbTableStyle
  3
Standard
 70
     0
 71
     0
 40
0.06
 41
0.06
280
     0
281
     0
  7
STANDARD
140
0.18
170
     2
 62
     0
 63
     7
283
     0
274
    -2
284
     1
 64
     0
275
    -2
285
     1
 65
     0
276
    -2
286
     1
 66
     0
277
    -2
287
     1
 67
     0
278
    -2
288
     1
 68
     0
279
    -2
289
     1
 69
     0
  7
STANDARD
140
0.25
170
     5
 62
     0
 63
     7
283
     0
274
    -2
284
     1
 64
     0
275
    -2
285
     1
 65
     0
276
    -2
286
     1
 66
     0
277
    -2
287
     1
 67
     0
278
    -2
288
     1
 68
     0
279
    -2
289
     1
 69
     0
  7
STANDARD
140
0.18
170
     5
 62
     0
 63
     7
283
     0
274
    -2
284
     1
 64
     0
275
    -2
285
     1
 65
     0
276
    -2
286
     1
 66
     0
277
    -2
287
     1
 67
     0
278
    -2
288
     1
 68
     0
279
    -2
289
     1
 69
     0
  0
VISUALSTYLE
  5
B6AE
102
{ACAD_XDICTIONARY
360
B70C
102
}
102
{ACAD_REACTORS
330
B6A8
102
}
330
B6A8
100
AcDbVisualStyle
  2
2dWireframe
 70
     4
 71
     0
 72
     2
 73
     0
 90
        0
 40
-0.6
 41
-30.0
 62
     5
 63
     7
 74
     1
 91
        4
 64
     7
 65
   257
 75
     1
175
     1
 42
1.0
 92
        0
 66
   257
 43
1.0
 76
     1
 77
     6
 78
     2
 67
     7
 79
     5
170
     0
171
     0
290
     0
174
     0
 93
        1
 44
0.0
173
     0
291
     0
 45
0.0
1001
ACAD
1000
AcDbSavedByObjectVersion
1070
     0
  0
VISUALSTYLE
  5
B6AD
102
{ACAD_XDICTIONARY
360
B70A
102
}
102
{ACAD_REACTORS
330
B6A8
102
}
330
B6A8
100
AcDbVisualStyle
  2
Basic
 70
     7
 71
     1
 72
     0
 73
     1
 90
        0
 40
-0.6
 41
-30.0
 62
     5
 63
     7
 74
     0
 91
        4
 64
     7
 65
   257
 75
     1
175
     1
 42
1.0
 92
        8
 66
     7
 43
1.0
 76
     1
 77
     6
 78
     2
 67
     7
 79
     5
170
     0
171
     0
290
     0
174
     0
 93
        1
 44
0.0
173
     0
291
     1
 45
0.0
1001
ACAD
1000
AcDbSavedByObjectVersion
1070
     0
  0
VISUALSTYLE
  5
B6B4
102
{ACAD_XDICTIONARY
360
B718
102
}
102
{ACAD_REACTORS
330
B6A8
102
}
330
B6A8
100
AcDbVisualStyle
  2
Brighten
 70
    12
 71
     2
 72
     2
 73
     0
 90
        0
 40
-0.6
 41
-30.0
 62
     5
 63
     7
 74
     1
 91
        4
 64
     7
 65
   257
 75
     1
175
     1
 42
1.0
 92
        8
 66
     7
 43
1.0
 76
     1
 77
     6
 78
     2
 67
     7
 79
     5
170
     0
171
     0
290
     0
174
     0
 93
        1
 44
50.0
173
     0
291
     1
 45
0.0
1001
ACAD
1000
AcDbSavedByObjectVersion
1070
     0
  0
VISUALSTYLE
  5
B6B8
102
{ACAD_XDICTIONARY
360
B720
102
}
102
{ACAD_REACTORS
330
B6A8
102
}
330
B6A8
100
AcDbVisualStyle
  2
ColorChange
 70
    16
 71
     2
 72
     2
 73
     3
 90
        0
 40
-0.6
 41
-30.0
 62
     5
 63
     8
 74
     1
 91
        4
 64
     7
 65
   257
 75
     1
175
     1
 42
1.0
 92
        8
 66
     8
 43
1.0
 76
     1
 77
     6
 78
     2
 67
     7
 79
     5
170
     0
171
     0
290
     0
174
     0
 93
        1
 44
0.0
173
     0
291
     1
 45
0.0
1001
ACAD
1000
AcDbSavedByObjectVersion
1070
     0
  0
VISUALSTYLE
  5
B6B1
102
{ACAD_XDICTIONARY
360
B712
102
}
102
{ACAD_REACTORS
330
B6A8
102
}
330
B6A8
100
AcDbVisualStyle
  2
Conceptual
 70
     9
 71
     3
 72
     2
 73
     0
 90
        0
 40
-0.6
 41
-30.0
 62
     5
 63
     7
 74
     2
 91
        2
 64
     7
 65
   257
 75
     1
175
     1
 42
179.0
 92
        8
 66
     7
 43
1.0
 76
     1
 77
     6
 78
     2
 67
     7
 79
     3
170
     0
171
     0
290
     0
174
     0
 93
        1
 44
0.0
173
     0
291
     0
 45
0.0
1001
ACAD
1000
AcDbSavedByObjectVersion
1070
     0
  0
VISUALSTYLE
  5
B6B3
102
{ACAD_XDICTIONARY
360
B716
102
}
102
{ACAD_REACTORS
330
B6A8
102
}
330
B6A8
100
AcDbVisualStyle
  2
Dim
 70
    11
 71
     2
 72
     2
 73
     0
 90
        0
 40
-0.6
 41
-30.0
 62
     5
 63
     7
 74
     1
 91
        4
 64
     7
 65
   257
 75
     1
175
     1
 42
1.0
 92
        8
 66
     7
 43
1.0
 76
     1
 77
     6
 78
     2
 67
     7
 79
     5
170
     0
171
     0
290
     0
174
     0
 93
        1
 44
-50.0
173
     0
291
     1
 45
0.0
1001
ACAD
1000
AcDbSavedByObjectVersion
1070
     0
  0
VISUALSTYLE
  5
B6C0
102
{ACAD_XDICTIONARY
360
B730
102
}
102
{ACAD_REACTORS
330
B6A8
102
}
330
B6A8
100
AcDbVisualStyle
  2
EdgeColorOff
 70
    22
 71
     2
 72
     2
 73
     0
 90
        0
 40
-0.6
 41
-30.0
 62
     5
 63
     7
 74
     1
 91
        4
 64
     7
 65
   257
 75
     1
175
     1
 42
1.0
 92
        8
 66
     7
 43
1.0
 76
     1
 77
     6
 78
     2
 67
     7
 79
     5
170
     0
171
     0
290
     0
174
     0
 93
        1
 44
0.0
173
     0
291
     1
 45
0.0
1001
ACAD
1000
AcDbSavedByObjectVersion
1070
     0
  0
VISUALSTYLE
  5
B6B7
102
{ACAD_XDICTIONARY
360
B71E
102
}
102
{ACAD_REACTORS
330
B6A8
102
}
330
B6A8
100
AcDbVisualStyle
  2
Facepattern
 70
    15
 71
     2
 72
     2
 73
     0
 90
        0
 40
-0.6
 41
-30.0
 62
     5
 63
     7
 74
     1
 91
        4
 64
     7
 65
   257
 75
     1
175
     1
 42
1.0
 92
        8
 66
     7
 43
1.0
 76
     1
 77
     6
 78
     2
 67
     7
 79
     5
170
     0
171
     0
290
     0
174
     0
 93
        1
 44
0.0
173
     0
291
     1
 45
0.0
1001
ACAD
1000
AcDbSavedByObjectVersion
1070
     0
  0
VISUALSTYLE
  5
B6A9
102
{ACAD_XDICTIONARY
360
B702
102
}
102
{ACAD_REACTORS
330
B6A8
102
}
330
B6A8
100
AcDbVisualStyle
  2
Flat
 70
     0
 71
     2
 72
     1
 73
     1
 90
        2
 40
-0.6
 41
30.0
 62
     5
 63
     7
 74
     0
 91
        0
 64
     7
 65
   257
 75
     1
175
     1
 42
1.0
 92
        8
 66
     7
 43
1.0
 76
     1
 77
     6
 78
     2
 67
     7
 79
     5
170
     0
171
     0
290
     0
174
     0
 93
       13
 44
0.0
173
     0
291
     1
 45
0.0
1001
ACAD
1000
AcDbSavedByObjectVersion
1070
     0
  0
VISUALSTYLE
  5
B6AA
102
{ACAD_XDICTIONARY
360
B704
102
}
102
{ACAD_REACTORS
330
B6A8
102
}
330
B6A8
100
AcDbVisualStyle
  2
FlatWithEdges
 70
     1
 71
     2
 72
     1
 73
     1
 90
        2
 40
-0.6
 41
30.0
 62
     5
 63
     7
 74
     1
 91
        0
 64
     7
 65
   257
 75
     1
175
     1
 42
1.0
 92
        0
 66
   257
 43
1.0
 76
     1
 77
     6
 78
     2
 67
     7
 79
     5
170
     0
171
     0
290
     0
174
     0
 93
       13
 44
0.0
173
     0
291
     1
 45
0.0
1001
ACAD
1000
AcDbSavedByObjectVersion
1070
     0
  0
VISUALSTYLE
  5
B6AB
102
{ACAD_XDICTIONARY
360
B706
102
}
102
{ACAD_REACTORS
330
B6A8
102
}
330
B6A8
100
AcDbVisualStyle
  2
Gouraud
 70
     2
 71
     2
 72
     2
 73
     1
 90
        2
 40
-0.6
 41
30.0
 62
     5
 63
     7
 74
     0
 91
        0
 64
     7
 65
   257
 75
     1
175
     1
 42
1.0
 92
        0
 66
     7
 43
1.0
 76
     1
 77
     6
 78
     2
 67
     7
 79
     5
170
     0
171
     0
290
     0
174
     0
 93
       13
 44
0.0
173
     0
291
     1
 45
0.0
1001
ACAD
1000
AcDbSavedByObjectVersion
1070
     0
  0
VISUALSTYLE
  5
B6AC
102
{ACAD_XDICTIONARY
360
B708
102
}
102
{ACAD_REACTORS
330
B6A8
102
}
330
B6A8
100
AcDbVisualStyle
  2
GouraudWithEdges
 70
     3
 71
     2
 72
     2
 73
     1
 90
        2
 40
-0.6
 41
30.0
 62
     5
 63
     7
 74
     1
 91
        0
 64
     7
 65
   257
 75
     1
175
     1
 42
1.0
 92
        0
 66
   257
 43
1.0
 76
     1
 77
     6
 78
     2
 67
     7
 79
     5
170
     0
171
     0
290
     0
174
     0
 93
       13
 44
0.0
173
     0
291
     1
 45
0.0
1001
ACAD
1000
AcDbSavedByObjectVersion
1070
     0
  0
VISUALSTYLE
  5
B6B0
102
{ACAD_XDICTIONARY
360
B710
102
}
102
{ACAD_REACTORS
330
B6A8
102
}
330
B6A8
100
AcDbVisualStyle
  2
Hidden
 70
     6
 71
     1
 72
     2
 73
     2
 90
        0
 40
-0.6
 41
-30.0
 62
     5
 63
     7
 74
     2
 91
        2
 64
     7
 65
   257
 75
     2
175
     1
 42
40.0
 92
        0
 66
   257
 43
1.0
 76
     1
 77
     6
 78
     2
 67
     7
 79
     3
170
     0
171
     0
290
     0
174
     0
 93
        1
 44
0.0
173
     0
291
     0
 45
0.0
1001
ACAD
1000
AcDbSavedByObjectVersion
1070
     0
  0
VISUALSTYLE
  5
B6BE
102
{ACAD_XDICTIONARY
360
B72C
102
}
102
{ACAD_REACTORS
330
B6A8
102
}
330
B6A8
100
AcDbVisualStyle
  2
JitterOff
 70
    20
 71
     2
 72
     2
 73
     0
 90
        0
 40
-0.6
 41
-30.0
 62
     5
 63
     7
 74
     1
 91
        4
 64
     7
 65
   257
 75
     1
175
     1
 42
1.0
 92
       10
 66
     7
 43
1.0
 76
     1
 77
     6
 78
     2
 67
     7
 79
     5
170
     0
171
     0
290
     0
174
     0
 93
        1
 44
0.0
173
     0
291
     1
 45
0.0
1001
ACAD
1000
AcDbSavedByObjectVersion
1070
     0
  0
VISUALSTYLE
  5
B6B6
102
{ACAD_XDICTIONARY
360
B71C
102
}
102
{ACAD_REACTORS
330
B6A8
102
}
330
B6A8
100
AcDbVisualStyle
  2
Linepattern
 70
    14
 71
     2
 72
     2
 73
     0
 90
        0
 40
-0.6
 41
-30.0
 62
     5
 63
     7
 74
     1
 91
        4
 64
     7
 65
   257
 75
     7
175
     7
 42
1.0
 92
        8
 66
     7
 43
1.0
 76
     1
 77
     6
 78
     2
 67
     7
 79
     5
170
     0
171
     0
290
     0
174
     0
 93
        1
 44
0.0
173
     0
291
     1
 45
0.0
1001
ACAD
1000
AcDbSavedByObjectVersion
1070
     0
  0
VISUALSTYLE
  5
B6BF
102
{ACAD_XDICTIONARY
360
B72E
102
}
102
{ACAD_REACTORS
330
B6A8
102
}
330
B6A8
100
AcDbVisualStyle
  2
OverhangOff
 70
    21
 71
     2
 72
     2
 73
     0
 90
        0
 40
-0.6
 41
-30.0
 62
     5
 63
     7
 74
     1
 91
        4
 64
     7
 65
   257
 75
     1
175
     1
 42
1.0
 92
        9
 66
     7
 43
1.0
 76
     1
 77
     6
 78
     2
 67
     7
 79
     5
170
     0
171
     0
290
     0
174
     0
 93
        1
 44
0.0
173
     0
291
     1
 45
0.0
1001
ACAD
1000
AcDbSavedByObjectVersion
1070
     0
  0
VISUALSTYLE
  5
B6B2
102
{ACAD_XDICTIONARY
360
B714
102
}
102
{ACAD_REACTORS
330
B6A8
102
}
330
B6A8
100
AcDbVisualStyle
  2
Realistic
 70
     8
 71
     2
 72
     3
 73
     0
 90
        2
 40
-0.6
 41
30.0
 62
     5
 63
     7
 74
     0
 91
        0
 64
     7
 65
   257
 75
     1
175
     1
 42
1.0
 92
        8
 66
   257
 43
1.0
 76
     1
 77
     6
 78
     2
 67
     7
 79
     3
170
     0
171
     0
290
     0
174
     0
 93
       13
 44
0.0
173
     0
291
     0
 45
0.0
1001
ACAD
1000
AcDbSavedByObjectVersion
1070
     0
  0
VISUALSTYLE
  5
B6BD
102
{ACAD_XDICTIONARY
360
B72A
102
}
102
{ACAD_REACTORS
330
B6A8
102
}
330
B6A8
100
AcDbVisualStyle
  2
Shaded
 70
    27
 71
     2
 72
     2
 73
     1
 90
        2
 40
-0.6
 41
30.0
 62
     5
 63
     7
 74
     0
 91
        4
 64
     7
 65
   257
 75
     1
175
     1
 42
1.0
 92
        8
 66
   257
 43
1.0
 76
     1
 77
     6
 78
     2
 67
     8
 79
     3
170
     0
171
     0
290
     0
174
     0
 93
        5
 44
0.0
173
     0
291
     0
 45
0.0
1001
ACAD
1000
AcDbSavedByObjectVersion
1070
     0
  0
VISUALSTYLE
  5
B6BC
102
{ACAD_XDICTIONARY
360
B728
102
}
102
{ACAD_REACTORS
330
B6A8
102
}
330
B6A8
100
AcDbVisualStyle
  2
Shaded with edges
 70
    26
 71
     2
 72
     2
 73
     1
 90
        2
 40
-0.6
 41
30.0
 62
     5
 63
     7
 74
     1
 91
       10
 64
     7
 65
   257
 75
     2
175
     1
 42
1.0
 92
        8
 66
   257
 43
1.0
 76
     1
 77
     6
 78
     2
 67
     7
 79
     3
170
     0
171
     0
290
     0
174
     0
 93
        5
 44
0.0
173
     0
291
     0
 45
0.0
1001
ACAD
1000
AcDbSavedByObjectVersion
1070
     0
  0
VISUALSTYLE
  5
B6B9
102
{ACAD_XDICTIONARY
360
B722
102
}
102
{ACAD_REACTORS
330
B6A8
102
}
330
B6A8
100
AcDbVisualStyle
  2
Shades of Gray
 70
    23
 71
     2
 72
     2
 73
     3
 90
        0
 40
-0.6
 41
-30.0
 62
     5
 63
     7
 74
     2
 91
        2
 64
     7
 65
     7
 75
     1
175
     1
 42
40.0
 92
        8
 66
     7
 43
1.0
 76
     1
 77
     6
 78
     2
 67
     7
 79
     3
170
     0
171
     0
290
     0
174
     0
 93
        1
 44
0.0
173
     0
291
     0
 45
0.0
1001
ACAD
1000
AcDbSavedByObjectVersion
1070
     0
  0
VISUALSTYLE
  5
B6BA
102
{ACAD_XDICTIONARY
360
B724
102
}
102
{ACAD_REACTORS
330
B6A8
102
}
330
B6A8
100
AcDbVisualStyle
  2
Sketchy
 70
    24
 71
     1
 72
     2
 73
     2
 90
        0
 40
-0.6
 41
-30.0
 62
     5
 63
     7
 74
     2
 91
        2
 64
     7
 65
     7
 75
     1
175
     1
 42
40.0
 92
       11
 66
     7
 43
1.0
 76
     1
 77
     6
 78
     2
 67
     7
 79
     6
170
     0
171
     0
290
     0
174
     0
 93
        1
 44
0.0
173
     0
291
     0
 45
0.0
1001
ACAD
1000
AcDbSavedByObjectVersion
1070
     0
  0
VISUALSTYLE
  5
B6B5
102
{ACAD_XDICTIONARY
360
B71A
102
}
102
{ACAD_REACTORS
330
B6A8
102
}
330
B6A8
100
AcDbVisualStyle
  2
Thicken
 70
    13
 71
     2
 72
     2
 73
     0
 90
        0
 40
-0.6
 41
-30.0
 62
     5
 63
     7
 74
     1
 91
        4
 64
     7
 65
   257
 75
     1
175
     1
 42
1.0
 92
       12
 66
     7
 43
1.0
 76
     1
 77
     6
 78
     2
 67
     7
 79
     5
170
     0
171
     0
290
     0
174
     0
 93
        1
 44
0.0
173
     0
291
     1
 45
0.0
1001
ACAD
1000
AcDbSavedByObjectVersion
1070
     0
  0
VISUALSTYLE
  5
B6AF
102
{ACAD_XDICTIONARY
360
B70E
102
}
102
{ACAD_REACTORS
330
B6A8
102
}
330
B6A8
100
AcDbVisualStyle
  2
Wireframe
 70
     5
 71
     0
 72
     2
 73
     0
 90
        0
 40
-0.6
 41
-30.0
 62
     5
 63
     7
 74
     1
 91
        4
 64
     7
 65
   257
 75
     1
175
     1
 42
1.0
 92
        0
 66
   257
 43
1.0
 76
     1
 77
     6
 78
     2
 67
     7
 79
     3
170
     0
171
     0
290
     0
174
     0
 93
        1
 44
0.0
173
     0
291
     0
 45
0.0
1001
ACAD
1000
AcDbSavedByObjectVersion
1070
     0
  0
VISUALSTYLE
  5
B6BB
102
{ACAD_XDICTIONARY
360
B726
102
}
102
{ACAD_REACTORS
330
B6A8
102
}
330
B6A8
100
AcDbVisualStyle
  2
X-Ray
 70
    25
 71
     2
 72
     2
 73
     1
 90
        1
 40
0.5
 41
-30.0
 62
     5
 63
     7
 74
     1
 91
        0
 64
     7
 65
   257
 75
     1
175
     1
 42
1.0
 92
        8
 66
     7
 43
1.0
 76
     1
 77
     6
 78
     2
 67
     7
 79
     3
170
     0
171
     0
290
     0
174
     0
 93
       13
 44
0.0
173
     0
291
     0
 45
0.0
1001
ACAD
1000
AcDbSavedByObjectVersion
1070
     0
  0
DICTIONARYVAR
  5
B6F5
102
{ACAD_REACTORS
330
B6F0
102
}
330
B6F0
100
DictionaryVariables
280
     0
  1
1:1
  0
DICTIONARYVAR
  5
B6F2
102
{ACAD_REACTORS
330
B6F0
102
}
330
B6F0
100
DictionaryVariables
280
     0
  1
STANDARD
  0
DICTIONARYVAR
  5
B6F1
102
{ACAD_REACTORS
330
B6F0
102
}
330
B6F0
100
DictionaryVariables
280
     0
  1
STANDARD
  0
DICTIONARYVAR
  5
B6F3
102
{ACAD_REACTORS
330
B6F0
102
}
330
B6F0
100
DictionaryVariables
280
     0
  1
Imperial24
  0
DICTIONARYVAR
  5
B6F4
102
{ACAD_REACTORS
330
B6F0
102
}
330
B6F0
100
DictionaryVariables
280
     0
  1
Imperial24
  0
DICTIONARYVAR
  5
B6F8
102
{ACAD_REACTORS
330
B6F0
102
}
330
B6F0
100
DictionaryVariables
280
     0
  1
1
  0
DICTIONARYVAR
  5
B6F7
102
{ACAD_REACTORS
330
B6F0
102
}
330
B6F0
100
DictionaryVariables
280
     0
  1
0
  0
DICTIONARYVAR
  5
B6F6
102
{ACAD_REACTORS
330
B6F0
102
}
330
B6F0
100
DictionaryVariables
280
     0
  1
127
  0
DICTIONARYVAR
  5
B6F9
102
{ACAD_REACTORS
330
B6F0
102
}
330
B6F0
100
DictionaryVariables
280
     0
  1
2
  0
DICTIONARY
  5
B736
330
B6DB
100
AcDbDictionary
280
     1
281
     1
  3
ACAD_XREC_ROUNDTRIP
360
B737
  0
DICTIONARY
  5
B738
330
B6DC
100
AcDbDictionary
280
     1
281
     1
  3
ACAD_XREC_ROUNDTRIP
360
B739
  0
DICTIONARY
  5
B73A
330
B6DD
100
AcDbDictionary
280
     1
281
     1
  3
ACAD_XREC_ROUNDTRIP
360
B73B
  0
DICTIONARY
  5
B699
330
B698
100
AcDbDictionary
280
     1
281
     1
  3
ACAD_XREC_ROUNDTRIP
360
B700
  3
BUMPTILE
360
B69B
  3
DIFFUSETILE
360
B69A
  3
OPACITYTILE
360
B69E
  3
REFLECTIONTILE
360
B69D
  3
REFRACTIONTILE
360
B69F
  3
SPECULARTILE
360
B69C
  0
DICTIONARY
  5
B691
330
B690
100
AcDbDictionary
280
     1
281
     1
  3
ACAD_XREC_ROUNDTRIP
360
B6FF
  3
BUMPTILE
360
B693
  3
DIFFUSETILE
360
B692
  3
OPACITYTILE
360
B696
  3
REFLECTIONTILE
360
B695
  3
REFRACTIONTILE
360
B697
  3
SPECULARTILE
360
B694
  0
DICTIONARY
  5
B6A1
330
B6A0
100
AcDbDictionary
280
     1
281
     1
  3
ACAD_XREC_ROUNDTRIP
360
B701
  3
BUMPTILE
360
B6A3
  3
DIFFUSETILE
360
B6A2
  3
OPACITYTILE
360
B6A6
  3
REFLECTIONTILE
360
B6A5
  3
REFRACTIONTILE
360
B6A7
  3
SPECULARTILE
360
B6A4
  0
DICTIONARY
  5
B734
330
B6D9
100
AcDbDictionary
280
     1
281
     1
  3
ACAD_XREC_ROUNDTRIP
360
B735
  0
DICTIONARY
  5
B6FB
330
B6C3
100
AcDbDictionary
280
     1
281
     1
  3
ACAD_ROUNDTRIP_2008_TABLESTYLE_CELLSTYLEMAP
360
B6FC
  3
ACAD_XREC_ROUNDTRIP
360
B732
  0
DICTIONARY
  5
B70C
330
B6AE
100
AcDbDictionary
280
     1
281
     1
  3
ACAD_XREC_ROUNDTRIP
360
B70D
  0
DICTIONARY
  5
B70A
330
B6AD
100
AcDbDictionary
280
     1
281
     1
  3
ACAD_XREC_ROUNDTRIP
360
B70B
  0
DICTIONARY
  5
B718
330
B6B4
100
AcDbDictionary
280
     1
281
     1
  3
ACAD_XREC_ROUNDTRIP
360
B719
  0
DICTIONARY
  5
B720
330
B6B8
100
AcDbDictionary
280
     1
281
     1
  3
ACAD_XREC_ROUNDTRIP
360
B721
  0
DICTIONARY
  5
B712
330
B6B1
100
AcDbDictionary
280
     1
281
     1
  3
ACAD_XREC_ROUNDTRIP
360
B713
  0
DICTIONARY
  5
B716
330
B6B3
100
AcDbDictionary
280
     1
281
     1
  3
ACAD_XREC_ROUNDTRIP
360
B717
  0
DICTIONARY
  5
B730
330
B6C0
100
AcDbDictionary
280
     1
281
     1
  3
ACAD_XREC_ROUNDTRIP
360
B731
  0
DICTIONARY
  5
B71E
330
B6B7
100
AcDbDictionary
280
     1
281
     1
  3
ACAD_XREC_ROUNDTRIP
360
B71F
  0
DICTIONARY
  5
B702
330
B6A9
100
AcDbDictionary
280
     1
281
     1
  3
ACAD_XREC_ROUNDTRIP
360
B703
  0
DICTIONARY
  5
B704
330
B6AA
100
AcDbDictionary
280
     1
281
     1
  3
ACAD_XREC_ROUNDTRIP
360
B705
  0
DICTIONARY
  5
B706
330
B6AB
100
AcDbDictionary
280
     1
281
     1
  3
ACAD_XREC_ROUNDTRIP
360
B707
  0
DICTIONARY
  5
B708
330
B6AC
100
AcDbDictionary
280
     1
281
     1
  3
ACAD_XREC_ROUNDTRIP
360
B709
  0
DICTIONARY
  5
B710
330
B6B0
100
AcDbDictionary
280
     1
281
     1
  3
ACAD_XREC_ROUNDTRIP
360
B711
  0
DICTIONARY
  5
B72C
330
B6BE
100
AcDbDictionary
280
     1
281
     1
  3
ACAD_XREC_ROUNDTRIP
360
B72D
  0
DICTIONARY
  5
B71C
330
B6B6
100
AcDbDictionary
280
     1
281
     1
  3
ACAD_XREC_ROUNDTRIP
360
B71D
  0
DICTIONARY
  5
B72E
330
B6BF
100
AcDbDictionary
280
     1
281
     1
  3
ACAD_XREC_ROUNDTRIP
360
B72F
  0
DICTIONARY
  5
B714
330
B6B2
100
AcDbDictionary
280
     1
281
     1
  3
ACAD_XREC_ROUNDTRIP
360
B715
  0
DICTIONARY
  5
B72A
330
B6BD
100
AcDbDictionary
280
     1
281
     1
  3
ACAD_XREC_ROUNDTRIP
360
B72B
  0
DICTIONARY
  5
B728
330
B6BC
100
AcDbDictionary
280
     1
281
     1
  3
ACAD_XREC_ROUNDTRIP
360
B729
  0
DICTIONARY
  5
B722
330
B6B9
100
AcDbDictionary
280
     1
281
     1
  3
ACAD_XREC_ROUNDTRIP
360
B723
  0
DICTIONARY
  5
B724
330
B6BA
100
AcDbDictionary
280
     1
281
     1
  3
ACAD_XREC_ROUNDTRIP
360
B725
  0
DICTIONARY
  5
B71A
330
B6B5
100
AcDbDictionary
280
     1
281
     1
  3
ACAD_XREC_ROUNDTRIP
360
B71B
  0
DICTIONARY
  5
B70E
330
B6AF
100
AcDbDictionary
280
     1
281
     1
  3
ACAD_XREC_ROUNDTRIP
360
B70F
  0
DICTIONARY
  5
B726
330
B6BB
100
AcDbDictionary
280
     1
281
     1
  3
ACAD_XREC_ROUNDTRIP
360
B727
  0
XRECORD
  5
B737
102
{ACAD_REACTORS
330
B736
102
}
330
B736
100
AcDbXrecord
280
     1
102
DISPLAYNAME
  1
Imperial24
102
FLAGS
 90
        0
  0
XRECORD
  5
B739
102
{ACAD_REACTORS
330
B738
102
}
330
B738
100
AcDbXrecord
280
     1
102
SHADEPLOT
 70
     0
102
SHADEPLOTRESLEVEL
 70
     2
102
SHADEPLOTCUSTOMDPI
 70
   300
  0
XRECORD
  5
B73B
102
{ACAD_REACTORS
330
B73A
102
}
330
B73A
100
AcDbXrecord
280
     1
102
SHADEPLOT
 70
     0
102
SHADEPLOTRESLEVEL
 70
     2
102
SHADEPLOTCUSTOMDPI
 70
   300
  0
XRECORD
  5
B700
102
{ACAD_REACTORS
330
B699
102
}
330
B699
100
AcDbXrecord
280
     1
102
MATERIAL
148
0.0
149
0.0
149
0.0
 93
        0
 94
      127
282
     0
 72
     0
 77
     0
171
     0
175
     0
179
     0
273
     0
  0
XRECORD
  5
B69B
102
{ACAD_REACTORS
330
B699
102
}
330
B699
100
AcDbXrecord
280
     1
270
     1
271
     1
  0
XRECORD
  5
B69A
102
{ACAD_REACTORS
330
B699
102
}
330
B699
100
AcDbXrecord
280
     1
270
     1
271
     1
  0
XRECORD
  5
B69E
102
{ACAD_REACTORS
330
B699
102
}
330
B699
100
AcDbXrecord
280
     1
270
     1
271
     1
  0
XRECORD
  5
B69D
102
{ACAD_REACTORS
330
B699
102
}
330
B699
100
AcDbXrecord
280
     1
270
     1
271
     1
  0
XRECORD
  5
B69F
102
{ACAD_REACTORS
330
B699
102
}
330
B699
100
AcDbXrecord
280
     1
270
     1
271
     1
  0
XRECORD
  5
B69C
102
{ACAD_REACTORS
330
B699
102
}
330
B699
100
AcDbXrecord
280
     1
270
     1
271
     1
  0
XRECORD
  5
B6FF
102
{ACAD_REACTORS
330
B691
102
}
330
B691
100
AcDbXrecord
280
     1
102
MATERIAL
148
0.0
149
0.0
149
0.0
 93
        0
 94
      127
282
     0
 72
     0
 77
     0
171
     0
175
     0
179
     0
273
     0
  0
XRECORD
  5
B693
102
{ACAD_REACTORS
330
B691
102
}
330
B691
100
AcDbXrecord
280
     1
270
     1
271
     1
  0
XRECORD
  5
B692
102
{ACAD_REACTORS
330
B691
102
}
330
B691
100
AcDbXrecord
280
     1
270
     1
271
     1
  0
XRECORD
  5
B696
102
{ACAD_REACTORS
330
B691
102
}
330
B691
100
AcDbXrecord
280
     1
270
     1
271
     1
  0
XRECORD
  5
B695
102
{ACAD_REACTORS
330
B691
102
}
330
B691
100
AcDbXrecord
280
     1
270
     1
271
     1
  0
XRECORD
  5
B697
102
{ACAD_REACTORS
330
B691
102
}
330
B691
100
AcDbXrecord
280
     1
270
     1
271
     1
  0
XRECORD
  5
B694
102
{ACAD_REACTORS
330
B691
102
}
330
B691
100
AcDbXrecord
280
     1
270
     1
271
     1
  0
XRECORD
  5
B701
102
{ACAD_REACTORS
330
B6A1
102
}
330
B6A1
100
AcDbXrecord
280
     1
102
MATERIAL
148
0.0
149
0.0
149
0.0
 93
        0
 94
      127
282
     0
 72
     0
 77
     0
171
     0
175
     0
179
     0
273
     0
  0
XRECORD
  5
B6A3
102
{ACAD_REACTORS
330
B6A1
102
}
330
B6A1
100
AcDbXrecord
280
     1
270
     1
271
     1
  0
XRECORD
  5
B6A2
102
{ACAD_REACTORS
330
B6A1
102
}
330
B6A1
100
AcDbXrecord
280
     1
270
     1
271
     1
  0
XRECORD
  5
B6A6
102
{ACAD_REACTORS
330
B6A1
102
}
330
B6A1
100
AcDbXrecord
280
     1
270
     1
271
     1
  0
XRECORD
  5
B6A5
102
{ACAD_REACTORS
330
B6A1
102
}
330
B6A1
100
AcDbXrecord
280
     1
270
     1
271
     1
  0
XRECORD
  5
B6A7
102
{ACAD_REACTORS
330
B6A1
102
}
330
B6A1
100
AcDbXrecord
280
     1
270
     1
271
     1
  0
XRECORD
  5
B6A4
102
{ACAD_REACTORS
330
B6A1
102
}
330
B6A1
100
AcDbXrecord
280
     1
270
     1
271
     1
  0
XRECORD
  5
B735
102
{ACAD_REACTORS
330
B734
102
}
330
B734
100
AcDbXrecord
280
     1
102
DISPLAYNAME
  1
Imperial24
102
FLAGS
 90
        0
  0
CELLSTYLEMAP
  5
B6FC
102
{ACAD_REACTORS
330
B6FB
102
}
330
B6FB
100
AcDbCellStyleMap
 90
        3
300
CELLSTYLE
  1
TABLEFORMAT_BEGIN
 90
        5
170
     1
 91
        0
 92
    32768
 62
   257
 93
        1
300
CONTENTFORMAT
  1
CONTENTFORMAT_BEGIN
 90
        0
 91
        0
 92
      512
 93
        0
300

 40
0.0
140
1.0
 94
        5
 62
     0
340
B1BF
144
0.25
309
CONTENTFORMAT_END
171
     0
 94
        0
309
TABLEFORMAT_END
  1
CELLSTYLE_BEGIN
 90
        1
 91
        1
300
_TITLE
309
CELLSTYLE_END
300
CELLSTYLE
  1
TABLEFORMAT_BEGIN
 90
        5
170
     1
 91
        0
 92
        0
 62
   257
 93
        1
300
CONTENTFORMAT
  1
CONTENTFORMAT_BEGIN
 90
        0
 91
        0
 92
      512
 93
        0
300

 40
0.0
140
1.0
 94
        5
 62
     0
340
B1BF
144
0.18
309
CONTENTFORMAT_END
171
     0
 94
        0
309
TABLEFORMAT_END
  1
CELLSTYLE_BEGIN
 90
        2
 91
        1
300
_HEADER
309
CELLSTYLE_END
300
CELLSTYLE
  1
TABLEFORMAT_BEGIN
 90
        5
170
     1
 91
        0
 92
        0
 62
   257
 93
        1
300
CONTENTFORMAT
  1
CONTENTFORMAT_BEGIN
 90
        0
 91
        0
 92
      512
 93
        0
300

 40
0.0
140
1.0
 94
        2
 62
     0
340
B1BF
144
0.18
309
CONTENTFORMAT_END
171
     0
 94
        0
309
TABLEFORMAT_END
  1
CELLSTYLE_BEGIN
 90
        3
 91
        2
300
_DATA
309
CELLSTYLE_END
  0
XRECORD
  5
B732
102
{ACAD_REACTORS
330
B6FB
102
}
330
B6FB
100
AcDbXrecord
280
     1
102
ACAD_ROUNDTRIP_PRE2007_TABLESTYLE
 90
      512
 91
        0
  1

 92
      512
 93
        0
  2

 94
      512
 95
        0
  3

  0
XRECORD
  5
B70D
102
{ACAD_REACTORS
330
B70C
102
}
330
B70C
100
AcDbXrecord
280
     1
102
RTVSPost2010Prop28
280
     1
102
RTVSPost2010PropOp28
 70
     1
102
RTVSPost2010Prop29
280
     1
102
RTVSPost2010PropOp29
 70
     1
102
RTVSPost2010Prop30
280
     0
102
RTVSPost2010PropOp30
 70
     1
102
RTVSPost2010Prop31
280
     0
102
RTVSPost2010PropOp31
 70
     1
102
RTVSPost2010Prop32
280
     0
102
RTVSPost2010PropOp32
 70
     1
102
RTVSPost2010Prop33
280
     0
102
RTVSPost2010PropOp33
 70
     1
102
RTVSPost2010Prop34
280
     0
102
RTVSPost2010PropOp34
 70
     1
102
RTVSPost2010Prop35
280
     0
102
RTVSPost2010PropOp35
 70
     1
102
RTVSPost2010Prop36
280
     0
102
RTVSPost2010PropOp36
 70
     1
102
RTVSPost2010Prop37
 90
       50
102
RTVSPost2010PropOp37
 70
     1
102
RTVSPost2010Prop38
140
0.0
102
RTVSPost2010PropOp38
 70
     1
102
RTVSPost2010Prop39
140
1.0
102
RTVSPost2010PropOp39
 70
     1
102
RTVSPost2010Prop40
 90
        0
102
RTVSPost2010PropOp40
 70
     1
102
RTVSPost2010Prop41ColorIndex
 90
       18
102
RTVSPost2010Prop41ColorRGB
 90
        0
102
RTVSPost2010PropOp41
 70
     1
102
RTVSPost2010Prop42
 90
       50
102
RTVSPost2010PropOp42
 70
     1
102
RTVSPost2010Prop43
 90
        3
102
RTVSPost2010PropOp43
 70
     1
102
RTVSPost2010Prop44ColorIndex
 90
        5
102
RTVSPost2010Prop44ColorRGB
 90
      255
102
RTVSPost2010PropOp44
 70
     1
102
RTVSPost2010Prop45
280
     0
102
RTVSPost2010PropOp45
 70
     1
102
RTVSPost2010Prop46
 90
       50
102
RTVSPost2010PropOp46
 70
     1
102
RTVSPost2010Prop47
 90
       50
102
RTVSPost2010PropOp47
 70
     1
102
RTVSPost2010Prop48
 90
       50
102
RTVSPost2010PropOp48
 70
     1
102
RTVSPost2010Prop49
280
     0
102
RTVSPost2010PropOp49
 70
     1
102
RTVSPost2010Prop50
 90
       50
102
RTVSPost2010PropOp50
 70
     1
102
RTVSPost2010Prop51ColorIndex
 90
      256
102
RTVSPost2010Prop51ColorRGB
 90
-16777216
102
RTVSPost2010PropOp51
 70
     0
102
RTVSPost2010Prop52
140
1.0
102
RTVSPost2010PropOp52
 70
     0
102
RTVSPost2010Prop53
 90
        2
102
RTVSPost2010PropOp53
 70
     1
102
RTVSPost2010Prop54
  1
strokes_ogs.tif
102
RTVSPost2010PropOp54
 70
     1
102
RTVSPost2010Prop55
280
     0
102
RTVSPost2010PropOp55
 70
     1
102
RTVSPost2010Prop56
140
1.0
102
RTVSPost2010PropOp56
 70
     1
102
RTVSPost2010Prop57
140
1.0
102
RTVSPost2010PropOp57
 70
     1
102
RTVSPropertyOp0
 70
     1
102
RTVSPropertyOp1
 70
     1
102
RTVSPropertyOp2
 70
     1
102
RTVSPropertyOp3
 70
     1
102
RTVSPropertyOp4
 70
     1
102
RTVSPropertyOp5
 70
     1
102
RTVSPropertyOp6
 70
     1
102
RTVSPropertyOp7
 70
     1
102
RTVSPropertyOp8
 70
     1
102
RTVSPropertyOp9
 70
     1
102
RTVSPropertyOp10
 70
     1
102
RTVSPropertyOp11
 70
     1
102
RTVSPropertyOp12
 70
     1
102
RTVSPropertyOp13
 70
     1
102
RTVSPropertyOp14
 70
     1
102
RTVSPropertyOp15
 70
     1
102
RTVSPropertyOp16
 70
     1
102
RTVSPropertyOp17
 70
     1
102
RTVSPropertyOp18
 70
     1
102
RTVSPropertyOp19
 70
     1
102
RTVSPropertyOp20
 70
     1
102
RTVSPropertyOp21
 70
     1
102
RTVSPropertyOp22
 70
     1
102
RTVSPropertyOp23
 70
     1
102
RTVSPropertyOp24
 70
     1
102
RTVSPropertyOp25
 70
     1
102
RTVSPropertyOp26
 70
     1
102
RTVSPropertyOp27
 70
     1
102
RTVSPropertyOp28
 70
     1
102
RTVSPropertyOp29
 70
     1
102
RTVSPropertyOp30
 70
     1
102
RTVSPropertyOp31
 70
     1
102
RTVSPropertyOp32
 70
     1
102
RTVSPropertyOp33
 70
     1
102
RTVSPropertyOp34
 70
     1
102
RTVSPropertyOp35
 70
     1
102
RTVSPropertyOp36
 70
     1
102
RTVSPropertyOp37
 70
     1
102
RTVSPropertyOp38
 70
     1
102
RTVSPropertyOp39
 70
     1
102
RTVSPropertyOp40
 70
     1
102
RTVSPropertyOp41
 70
     1
102
RTVSPropertyOp42
 70
     1
102
RTVSPropertyOp43
 70
     1
102
RTVSPropertyOp44
 70
     1
102
RTVSPropertyOp45
 70
     1
102
RTVSPropertyOp46
 70
     1
102
RTVSPropertyOp47
 70
     1
102
RTVSPropertyOp48
 70
     1
102
RTVSPropertyOp49
 70
     1
102
RTVSPropertyOp50
 70
     1
102
RTVSPropertyOp51
 70
     0
102
RTVSPropertyOp52
 70
     0
102
RTVSPropertyOp53
 70
     1
102
RTVSPropertyOp54
 70
     1
102
RTVSPropertyOp55
 70
     1
102
RTVSPropertyOp56
 70
     1
102
RTVSPropertyOp57
 70
     1
102
RTVSPropertyOp58
 70
     1
102
RTVSPropertyOp59
 70
     1
102
RTVSPropertyOp60
 70
     1
102
RTVSPropertyOp61
 70
     1
102
RTVSPropertyOp62
 70
     1
  0
XRECORD
  5
B70B
102
{ACAD_REACTORS
330
B70A
102
}
330
B70A
100
AcDbXrecord
280
     1
102
RTVSPost2010Prop28
280
     0
102
RTVSPost2010PropOp28
 70
     1
102
RTVSPost2010Prop29
280
     1
102
RTVSPost2010PropOp29
 70
     1
102
RTVSPost2010Prop30
280
     1
102
RTVSPost2010PropOp30
 70
     1
102
RTVSPost2010Prop31
280
     0
102
RTVSPost2010PropOp31
 70
     1
102
RTVSPost2010Prop32
280
     0
102
RTVSPost2010PropOp32
 70
     1
102
RTVSPost2010Prop33
280
     0
102
RTVSPost2010PropOp33
 70
     1
102
RTVSPost2010Prop34
280
     0
102
RTVSPost2010PropOp34
 70
     1
102
RTVSPost2010Prop35
280
     0
102
RTVSPost2010PropOp35
 70
     1
102
RTVSPost2010Prop36
280
     0
102
RTVSPost2010PropOp36
 70
     1
102
RTVSPost2010Prop37
 90
       50
102
RTVSPost2010PropOp37
 70
     1
102
RTVSPost2010Prop38
140
0.0
102
RTVSPost2010PropOp38
 70
     1
102
RTVSPost2010Prop39
140
1.0
102
RTVSPost2010PropOp39
 70
     1
102
RTVSPost2010Prop40
 90
        0
102
RTVSPost2010PropOp40
 70
     1
102
RTVSPost2010Prop41ColorIndex
 90
       18
102
RTVSPost2010Prop41ColorRGB
 90
        0
102
RTVSPost2010PropOp41
 70
     1
102
RTVSPost2010Prop42
 90
       50
102
RTVSPost2010PropOp42
 70
     1
102
RTVSPost2010Prop43
 90
        3
102
RTVSPost2010PropOp43
 70
     1
102
RTVSPost2010Prop44ColorIndex
 90
        5
102
RTVSPost2010Prop44ColorRGB
 90
      255
102
RTVSPost2010PropOp44
 70
     1
102
RTVSPost2010Prop45
280
     0
102
RTVSPost2010PropOp45
 70
     1
102
RTVSPost2010Prop46
 90
       50
102
RTVSPost2010PropOp46
 70
     1
102
RTVSPost2010Prop47
 90
       50
102
RTVSPost2010PropOp47
 70
     1
102
RTVSPost2010Prop48
 90
       50
102
RTVSPost2010PropOp48
 70
     1
102
RTVSPost2010Prop49
280
     0
102
RTVSPost2010PropOp49
 70
     1
102
RTVSPost2010Prop50
 90
       50
102
RTVSPost2010PropOp50
 70
     1
102
RTVSPost2010Prop51ColorIndex
 90
      256
102
RTVSPost2010Prop51ColorRGB
 90
-16777216
102
RTVSPost2010PropOp51
 70
     0
102
RTVSPost2010Prop52
140
1.0
102
RTVSPost2010PropOp52
 70
     0
102
RTVSPost2010Prop53
 90
        2
102
RTVSPost2010PropOp53
 70
     1
102
RTVSPost2010Prop54
  1
strokes_ogs.tif
102
RTVSPost2010PropOp54
 70
     1
102
RTVSPost2010Prop55
280
     0
102
RTVSPost2010PropOp55
 70
     1
102
RTVSPost2010Prop56
140
1.0
102
RTVSPost2010PropOp56
 70
     1
102
RTVSPost2010Prop57
140
1.0
102
RTVSPost2010PropOp57
 70
     1
102
RTVSPropertyOp0
 70
     1
102
RTVSPropertyOp1
 70
     1
102
RTVSPropertyOp2
 70
     1
102
RTVSPropertyOp3
 70
     1
102
RTVSPropertyOp4
 70
     1
102
RTVSPropertyOp5
 70
     1
102
RTVSPropertyOp6
 70
     1
102
RTVSPropertyOp7
 70
     1
102
RTVSPropertyOp8
 70
     1
102
RTVSPropertyOp9
 70
     1
102
RTVSPropertyOp10
 70
     1
102
RTVSPropertyOp11
 70
     1
102
RTVSPropertyOp12
 70
     1
102
RTVSPropertyOp13
 70
     1
102
RTVSPropertyOp14
 70
     1
102
RTVSPropertyOp15
 70
     1
102
RTVSPropertyOp16
 70
     1
102
RTVSPropertyOp17
 70
     1
102
RTVSPropertyOp18
 70
     1
102
RTVSPropertyOp19
 70
     1
102
RTVSPropertyOp20
 70
     1
102
RTVSPropertyOp21
 70
     1
102
RTVSPropertyOp22
 70
     1
102
RTVSPropertyOp23
 70
     1
102
RTVSPropertyOp24
 70
     1
102
RTVSPropertyOp25
 70
     1
102
RTVSPropertyOp26
 70
     1
102
RTVSPropertyOp27
 70
     1
102
RTVSPropertyOp28
 70
     1
102
RTVSPropertyOp29
 70
     1
102
RTVSPropertyOp30
 70
     1
102
RTVSPropertyOp31
 70
     1
102
RTVSPropertyOp32
 70
     1
102
RTVSPropertyOp33
 70
     1
102
RTVSPropertyOp34
 70
     1
102
RTVSPropertyOp35
 70
     1
102
RTVSPropertyOp36
 70
     1
102
RTVSPropertyOp37
 70
     1
102
RTVSPropertyOp38
 70
     1
102
RTVSPropertyOp39
 70
     1
102
RTVSPropertyOp40
 70
     1
102
RTVSPropertyOp41
 70
     1
102
RTVSPropertyOp42
 70
     1
102
RTVSPropertyOp43
 70
     1
102
RTVSPropertyOp44
 70
     1
102
RTVSPropertyOp45
 70
     1
102
RTVSPropertyOp46
 70
     1
102
RTVSPropertyOp47
 70
     1
102
RTVSPropertyOp48
 70
     1
102
RTVSPropertyOp49
 70
     1
102
RTVSPropertyOp50
 70
     1
102
RTVSPropertyOp51
 70
     0
102
RTVSPropertyOp52
 70
     0
102
RTVSPropertyOp53
 70
     1
102
RTVSPropertyOp54
 70
     1
102
RTVSPropertyOp55
 70
     1
102
RTVSPropertyOp56
 70
     1
102
RTVSPropertyOp57
 70
     1
102
RTVSPropertyOp58
 70
     1
102
RTVSPropertyOp59
 70
     1
102
RTVSPropertyOp60
 70
     1
102
RTVSPropertyOp61
 70
     1
102
RTVSPropertyOp62
 70
     1
  0
XRECORD
  5
B719
102
{ACAD_REACTORS
330
B718
102
}
330
B718
100
AcDbXrecord
280
     1
102
RTVSPost2010Prop28
280
     0
102
RTVSPost2010PropOp28
 70
     1
102
RTVSPost2010Prop29
280
     1
102
RTVSPost2010PropOp29
 70
     1
102
RTVSPost2010Prop30
280
     1
102
RTVSPost2010PropOp30
 70
     1
102
RTVSPost2010Prop31
280
     0
102
RTVSPost2010PropOp31
 70
     1
102
RTVSPost2010Prop32
280
     0
102
RTVSPost2010PropOp32
 70
     1
102
RTVSPost2010Prop33
280
     0
102
RTVSPost2010PropOp33
 70
     1
102
RTVSPost2010Prop34
280
     0
102
RTVSPost2010PropOp34
 70
     1
102
RTVSPost2010Prop35
280
     0
102
RTVSPost2010PropOp35
 70
     1
102
RTVSPost2010Prop36
280
     0
102
RTVSPost2010PropOp36
 70
     1
102
RTVSPost2010Prop37
 90
       50
102
RTVSPost2010PropOp37
 70
     1
102
RTVSPost2010Prop38
140
0.0
102
RTVSPost2010PropOp38
 70
     1
102
RTVSPost2010Prop39
140
1.0
102
RTVSPost2010PropOp39
 70
     1
102
RTVSPost2010Prop40
 90
        0
102
RTVSPost2010PropOp40
 70
     1
102
RTVSPost2010Prop41ColorIndex
 90
       18
102
RTVSPost2010Prop41ColorRGB
 90
        0
102
RTVSPost2010PropOp41
 70
     1
102
RTVSPost2010Prop42
 90
       50
102
RTVSPost2010PropOp42
 70
     1
102
RTVSPost2010Prop43
 90
        3
102
RTVSPost2010PropOp43
 70
     1
102
RTVSPost2010Prop44ColorIndex
 90
        5
102
RTVSPost2010Prop44ColorRGB
 90
      255
102
RTVSPost2010PropOp44
 70
     1
102
RTVSPost2010Prop45
280
     0
102
RTVSPost2010PropOp45
 70
     1
102
RTVSPost2010Prop46
 90
       50
102
RTVSPost2010PropOp46
 70
     1
102
RTVSPost2010Prop47
 90
       50
102
RTVSPost2010PropOp47
 70
     1
102
RTVSPost2010Prop48
 90
       50
102
RTVSPost2010PropOp48
 70
     1
102
RTVSPost2010Prop49
280
     0
102
RTVSPost2010PropOp49
 70
     1
102
RTVSPost2010Prop50
 90
       50
102
RTVSPost2010PropOp50
 70
     1
102
RTVSPost2010Prop51ColorIndex
 90
      256
102
RTVSPost2010Prop51ColorRGB
 90
-16777216
102
RTVSPost2010PropOp51
 70
     0
102
RTVSPost2010Prop52
140
1.0
102
RTVSPost2010PropOp52
 70
     0
102
RTVSPost2010Prop53
 90
        2
102
RTVSPost2010PropOp53
 70
     1
102
RTVSPost2010Prop54
  1
strokes_ogs.tif
102
RTVSPost2010PropOp54
 70
     1
102
RTVSPost2010Prop55
280
     0
102
RTVSPost2010PropOp55
 70
     1
102
RTVSPost2010Prop56
140
1.0
102
RTVSPost2010PropOp56
 70
     1
102
RTVSPost2010Prop57
140
1.0
102
RTVSPost2010PropOp57
 70
     1
102
RTVSPropertyOp0
 70
     1
102
RTVSPropertyOp1
 70
     1
102
RTVSPropertyOp2
 70
     1
102
RTVSPropertyOp3
 70
     1
102
RTVSPropertyOp4
 70
     1
102
RTVSPropertyOp5
 70
     1
102
RTVSPropertyOp6
 70
     1
102
RTVSPropertyOp7
 70
     1
102
RTVSPropertyOp8
 70
     1
102
RTVSPropertyOp9
 70
     1
102
RTVSPropertyOp10
 70
     1
102
RTVSPropertyOp11
 70
     1
102
RTVSPropertyOp12
 70
     1
102
RTVSPropertyOp13
 70
     1
102
RTVSPropertyOp14
 70
     1
102
RTVSPropertyOp15
 70
     1
102
RTVSPropertyOp16
 70
     1
102
RTVSPropertyOp17
 70
     1
102
RTVSPropertyOp18
 70
     1
102
RTVSPropertyOp19
 70
     1
102
RTVSPropertyOp20
 70
     1
102
RTVSPropertyOp21
 70
     1
102
RTVSPropertyOp22
 70
     1
102
RTVSPropertyOp23
 70
     1
102
RTVSPropertyOp24
 70
     1
102
RTVSPropertyOp25
 70
     1
102
RTVSPropertyOp26
 70
     1
102
RTVSPropertyOp27
 70
     1
102
RTVSPropertyOp28
 70
     1
102
RTVSPropertyOp29
 70
     1
102
RTVSPropertyOp30
 70
     1
102
RTVSPropertyOp31
 70
     1
102
RTVSPropertyOp32
 70
     1
102
RTVSPropertyOp33
 70
     1
102
RTVSPropertyOp34
 70
     1
102
RTVSPropertyOp35
 70
     1
102
RTVSPropertyOp36
 70
     1
102
RTVSPropertyOp37
 70
     1
102
RTVSPropertyOp38
 70
     1
102
RTVSPropertyOp39
 70
     1
102
RTVSPropertyOp40
 70
     1
102
RTVSPropertyOp41
 70
     1
102
RTVSPropertyOp42
 70
     1
102
RTVSPropertyOp43
 70
     1
102
RTVSPropertyOp44
 70
     1
102
RTVSPropertyOp45
 70
     1
102
RTVSPropertyOp46
 70
     1
102
RTVSPropertyOp47
 70
     1
102
RTVSPropertyOp48
 70
     1
102
RTVSPropertyOp49
 70
     1
102
RTVSPropertyOp50
 70
     1
102
RTVSPropertyOp51
 70
     0
102
RTVSPropertyOp52
 70
     0
102
RTVSPropertyOp53
 70
     1
102
RTVSPropertyOp54
 70
     1
102
RTVSPropertyOp55
 70
     1
102
RTVSPropertyOp56
 70
     1
102
RTVSPropertyOp57
 70
     1
102
RTVSPropertyOp58
 70
     1
102
RTVSPropertyOp59
 70
     1
102
RTVSPropertyOp60
 70
     1
102
RTVSPropertyOp61
 70
     1
102
RTVSPropertyOp62
 70
     1
  0
XRECORD
  5
B721
102
{ACAD_REACTORS
330
B720
102
}
330
B720
100
AcDbXrecord
280
     1
102
RTVSPost2010Prop28
280
     0
102
RTVSPost2010PropOp28
 70
     1
102
RTVSPost2010Prop29
280
     1
102
RTVSPost2010PropOp29
 70
     1
102
RTVSPost2010Prop30
280
     1
102
RTVSPost2010PropOp30
 70
     1
102
RTVSPost2010Prop31
280
     0
102
RTVSPost2010PropOp31
 70
     1
102
RTVSPost2010Prop32
280
     0
102
RTVSPost2010PropOp32
 70
     1
102
RTVSPost2010Prop33
280
     0
102
RTVSPost2010PropOp33
 70
     1
102
RTVSPost2010Prop34
280
     0
102
RTVSPost2010PropOp34
 70
     1
102
RTVSPost2010Prop35
280
     0
102
RTVSPost2010PropOp35
 70
     1
102
RTVSPost2010Prop36
280
     0
102
RTVSPost2010PropOp36
 70
     1
102
RTVSPost2010Prop37
 90
       50
102
RTVSPost2010PropOp37
 70
     1
102
RTVSPost2010Prop38
140
0.0
102
RTVSPost2010PropOp38
 70
     1
102
RTVSPost2010Prop39
140
1.0
102
RTVSPost2010PropOp39
 70
     1
102
RTVSPost2010Prop40
 90
        0
102
RTVSPost2010PropOp40
 70
     1
102
RTVSPost2010Prop41ColorIndex
 90
       18
102
RTVSPost2010Prop41ColorRGB
 90
        0
102
RTVSPost2010PropOp41
 70
     1
102
RTVSPost2010Prop42
 90
       50
102
RTVSPost2010PropOp42
 70
     1
102
RTVSPost2010Prop43
 90
        3
102
RTVSPost2010PropOp43
 70
     1
102
RTVSPost2010Prop44ColorIndex
 90
        5
102
RTVSPost2010Prop44ColorRGB
 90
      255
102
RTVSPost2010PropOp44
 70
     1
102
RTVSPost2010Prop45
280
     0
102
RTVSPost2010PropOp45
 70
     1
102
RTVSPost2010Prop46
 90
       50
102
RTVSPost2010PropOp46
 70
     1
102
RTVSPost2010Prop47
 90
       50
102
RTVSPost2010PropOp47
 70
     1
102
RTVSPost2010Prop48
 90
       50
102
RTVSPost2010PropOp48
 70
     1
102
RTVSPost2010Prop49
280
     0
102
RTVSPost2010PropOp49
 70
     1
102
RTVSPost2010Prop50
 90
       50
102
RTVSPost2010PropOp50
 70
     1
102
RTVSPost2010Prop51ColorIndex
 90
      256
102
RTVSPost2010Prop51ColorRGB
 90
-16777216
102
RTVSPost2010PropOp51
 70
     0
102
RTVSPost2010Prop52
140
1.0
102
RTVSPost2010PropOp52
 70
     0
102
RTVSPost2010Prop53
 90
        2
102
RTVSPost2010PropOp53
 70
     1
102
RTVSPost2010Prop54
  1
strokes_ogs.tif
102
RTVSPost2010PropOp54
 70
     1
102
RTVSPost2010Prop55
280
     0
102
RTVSPost2010PropOp55
 70
     1
102
RTVSPost2010Prop56
140
1.0
102
RTVSPost2010PropOp56
 70
     1
102
RTVSPost2010Prop57
140
1.0
102
RTVSPost2010PropOp57
 70
     1
102
RTVSPropertyOp0
 70
     1
102
RTVSPropertyOp1
 70
     1
102
RTVSPropertyOp2
 70
     1
102
RTVSPropertyOp3
 70
     1
102
RTVSPropertyOp4
 70
     1
102
RTVSPropertyOp5
 70
     1
102
RTVSPropertyOp6
 70
     1
102
RTVSPropertyOp7
 70
     1
102
RTVSPropertyOp8
 70
     1
102
RTVSPropertyOp9
 70
     1
102
RTVSPropertyOp10
 70
     1
102
RTVSPropertyOp11
 70
     1
102
RTVSPropertyOp12
 70
     1
102
RTVSPropertyOp13
 70
     1
102
RTVSPropertyOp14
 70
     1
102
RTVSPropertyOp15
 70
     1
102
RTVSPropertyOp16
 70
     1
102
RTVSPropertyOp17
 70
     1
102
RTVSPropertyOp18
 70
     1
102
RTVSPropertyOp19
 70
     1
102
RTVSPropertyOp20
 70
     1
102
RTVSPropertyOp21
 70
     1
102
RTVSPropertyOp22
 70
     1
102
RTVSPropertyOp23
 70
     1
102
RTVSPropertyOp24
 70
     1
102
RTVSPropertyOp25
 70
     1
102
RTVSPropertyOp26
 70
     1
102
RTVSPropertyOp27
 70
     1
102
RTVSPropertyOp28
 70
     1
102
RTVSPropertyOp29
 70
     1
102
RTVSPropertyOp30
 70
     1
102
RTVSPropertyOp31
 70
     1
102
RTVSPropertyOp32
 70
     1
102
RTVSPropertyOp33
 70
     1
102
RTVSPropertyOp34
 70
     1
102
RTVSPropertyOp35
 70
     1
102
RTVSPropertyOp36
 70
     1
102
RTVSPropertyOp37
 70
     1
102
RTVSPropertyOp38
 70
     1
102
RTVSPropertyOp39
 70
     1
102
RTVSPropertyOp40
 70
     1
102
RTVSPropertyOp41
 70
     1
102
RTVSPropertyOp42
 70
     1
102
RTVSPropertyOp43
 70
     1
102
RTVSPropertyOp44
 70
     1
102
RTVSPropertyOp45
 70
     1
102
RTVSPropertyOp46
 70
     1
102
RTVSPropertyOp47
 70
     1
102
RTVSPropertyOp48
 70
     1
102
RTVSPropertyOp49
 70
     1
102
RTVSPropertyOp50
 70
     1
102
RTVSPropertyOp51
 70
     0
102
RTVSPropertyOp52
 70
     0
102
RTVSPropertyOp53
 70
     1
102
RTVSPropertyOp54
 70
     1
102
RTVSPropertyOp55
 70
     1
102
RTVSPropertyOp56
 70
     1
102
RTVSPropertyOp57
 70
     1
102
RTVSPropertyOp58
 70
     1
102
RTVSPropertyOp59
 70
     1
102
RTVSPropertyOp60
 70
     1
102
RTVSPropertyOp61
 70
     1
102
RTVSPropertyOp62
 70
     1
  0
XRECORD
  5
B713
102
{ACAD_REACTORS
330
B712
102
}
330
B712
100
AcDbXrecord
280
     1
102
RTVSPost2010Prop28
280
     0
102
RTVSPost2010PropOp28
 70
     1
102
RTVSPost2010Prop29
280
     1
102
RTVSPost2010PropOp29
 70
     1
102
RTVSPost2010Prop30
280
     1
102
RTVSPost2010PropOp30
 70
     1
102
RTVSPost2010Prop31
280
     0
102
RTVSPost2010PropOp31
 70
     1
102
RTVSPost2010Prop32
280
     0
102
RTVSPost2010PropOp32
 70
     1
102
RTVSPost2010Prop33
280
     0
102
RTVSPost2010PropOp33
 70
     1
102
RTVSPost2010Prop34
280
     0
102
RTVSPost2010PropOp34
 70
     1
102
RTVSPost2010Prop35
280
     0
102
RTVSPost2010PropOp35
 70
     1
102
RTVSPost2010Prop36
280
     0
102
RTVSPost2010PropOp36
 70
     1
102
RTVSPost2010Prop37
 90
       50
102
RTVSPost2010PropOp37
 70
     1
102
RTVSPost2010Prop38
140
0.0
102
RTVSPost2010PropOp38
 70
     1
102
RTVSPost2010Prop39
140
1.0
102
RTVSPost2010PropOp39
 70
     1
102
RTVSPost2010Prop40
 90
        0
102
RTVSPost2010PropOp40
 70
     1
102
RTVSPost2010Prop41ColorIndex
 90
       18
102
RTVSPost2010Prop41ColorRGB
 90
        0
102
RTVSPost2010PropOp41
 70
     1
102
RTVSPost2010Prop42
 90
       50
102
RTVSPost2010PropOp42
 70
     1
102
RTVSPost2010Prop43
 90
        3
102
RTVSPost2010PropOp43
 70
     1
102
RTVSPost2010Prop44ColorIndex
 90
        5
102
RTVSPost2010Prop44ColorRGB
 90
      255
102
RTVSPost2010PropOp44
 70
     1
102
RTVSPost2010Prop45
280
     0
102
RTVSPost2010PropOp45
 70
     1
102
RTVSPost2010Prop46
 90
       50
102
RTVSPost2010PropOp46
 70
     1
102
RTVSPost2010Prop47
 90
       50
102
RTVSPost2010PropOp47
 70
     1
102
RTVSPost2010Prop48
 90
       50
102
RTVSPost2010PropOp48
 70
     1
102
RTVSPost2010Prop49
280
     0
102
RTVSPost2010PropOp49
 70
     1
102
RTVSPost2010Prop50
 90
       50
102
RTVSPost2010PropOp50
 70
     1
102
RTVSPost2010Prop51ColorIndex
 90
      256
102
RTVSPost2010Prop51ColorRGB
 90
-16777216
102
RTVSPost2010PropOp51
 70
     0
102
RTVSPost2010Prop52
140
1.0
102
RTVSPost2010PropOp52
 70
     0
102
RTVSPost2010Prop53
 90
        2
102
RTVSPost2010PropOp53
 70
     1
102
RTVSPost2010Prop54
  1
strokes_ogs.tif
102
RTVSPost2010PropOp54
 70
     1
102
RTVSPost2010Prop55
280
     0
102
RTVSPost2010PropOp55
 70
     1
102
RTVSPost2010Prop56
140
1.0
102
RTVSPost2010PropOp56
 70
     1
102
RTVSPost2010Prop57
140
1.0
102
RTVSPost2010PropOp57
 70
     1
102
RTVSPropertyOp0
 70
     1
102
RTVSPropertyOp1
 70
     1
102
RTVSPropertyOp2
 70
     1
102
RTVSPropertyOp3
 70
     1
102
RTVSPropertyOp4
 70
     1
102
RTVSPropertyOp5
 70
     1
102
RTVSPropertyOp6
 70
     1
102
RTVSPropertyOp7
 70
     1
102
RTVSPropertyOp8
 70
     1
102
RTVSPropertyOp9
 70
     1
102
RTVSPropertyOp10
 70
     1
102
RTVSPropertyOp11
 70
     1
102
RTVSPropertyOp12
 70
     1
102
RTVSPropertyOp13
 70
     1
102
RTVSPropertyOp14
 70
     1
102
RTVSPropertyOp15
 70
     1
102
RTVSPropertyOp16
 70
     1
102
RTVSPropertyOp17
 70
     1
102
RTVSPropertyOp18
 70
     1
102
RTVSPropertyOp19
 70
     1
102
RTVSPropertyOp20
 70
     1
102
RTVSPropertyOp21
 70
     1
102
RTVSPropertyOp22
 70
     1
102
RTVSPropertyOp23
 70
     1
102
RTVSPropertyOp24
 70
     1
102
RTVSPropertyOp25
 70
     1
102
RTVSPropertyOp26
 70
     1
102
RTVSPropertyOp27
 70
     1
102
RTVSPropertyOp28
 70
     1
102
RTVSPropertyOp29
 70
     1
102
RTVSPropertyOp30
 70
     1
102
RTVSPropertyOp31
 70
     1
102
RTVSPropertyOp32
 70
     1
102
RTVSPropertyOp33
 70
     1
102
RTVSPropertyOp34
 70
     1
102
RTVSPropertyOp35
 70
     1
102
RTVSPropertyOp36
 70
     1
102
RTVSPropertyOp37
 70
     1
102
RTVSPropertyOp38
 70
     1
102
RTVSPropertyOp39
 70
     1
102
RTVSPropertyOp40
 70
     1
102
RTVSPropertyOp41
 70
     1
102
RTVSPropertyOp42
 70
     1
102
RTVSPropertyOp43
 70
     1
102
RTVSPropertyOp44
 70
     1
102
RTVSPropertyOp45
 70
     1
102
RTVSPropertyOp46
 70
     1
102
RTVSPropertyOp47
 70
     1
102
RTVSPropertyOp48
 70
     1
102
RTVSPropertyOp49
 70
     1
102
RTVSPropertyOp50
 70
     1
102
RTVSPropertyOp51
 70
     0
102
RTVSPropertyOp52
 70
     0
102
RTVSPropertyOp53
 70
     1
102
RTVSPropertyOp54
 70
     1
102
RTVSPropertyOp55
 70
     1
102
RTVSPropertyOp56
 70
     1
102
RTVSPropertyOp57
 70
     1
102
RTVSPropertyOp58
 70
     1
102
RTVSPropertyOp59
 70
     1
102
RTVSPropertyOp60
 70
     1
102
RTVSPropertyOp61
 70
     1
102
RTVSPropertyOp62
 70
     1
  0
XRECORD
  5
B717
102
{ACAD_REACTORS
330
B716
102
}
330
B716
100
AcDbXrecord
280
     1
102
RTVSPost2010Prop28
280
     0
102
RTVSPost2010PropOp28
 70
     1
102
RTVSPost2010Prop29
280
     1
102
RTVSPost2010PropOp29
 70
     1
102
RTVSPost2010Prop30
280
     1
102
RTVSPost2010PropOp30
 70
     1
102
RTVSPost2010Prop31
280
     0
102
RTVSPost2010PropOp31
 70
     1
102
RTVSPost2010Prop32
280
     0
102
RTVSPost2010PropOp32
 70
     1
102
RTVSPost2010Prop33
280
     0
102
RTVSPost2010PropOp33
 70
     1
102
RTVSPost2010Prop34
280
     0
102
RTVSPost2010PropOp34
 70
     1
102
RTVSPost2010Prop35
280
     0
102
RTVSPost2010PropOp35
 70
     1
102
RTVSPost2010Prop36
280
     0
102
RTVSPost2010PropOp36
 70
     1
102
RTVSPost2010Prop37
 90
       50
102
RTVSPost2010PropOp37
 70
     1
102
RTVSPost2010Prop38
140
0.0
102
RTVSPost2010PropOp38
 70
     1
102
RTVSPost2010Prop39
140
1.0
102
RTVSPost2010PropOp39
 70
     1
102
RTVSPost2010Prop40
 90
        0
102
RTVSPost2010PropOp40
 70
     1
102
RTVSPost2010Prop41ColorIndex
 90
       18
102
RTVSPost2010Prop41ColorRGB
 90
        0
102
RTVSPost2010PropOp41
 70
     1
102
RTVSPost2010Prop42
 90
       50
102
RTVSPost2010PropOp42
 70
     1
102
RTVSPost2010Prop43
 90
        3
102
RTVSPost2010PropOp43
 70
     1
102
RTVSPost2010Prop44ColorIndex
 90
        5
102
RTVSPost2010Prop44ColorRGB
 90
      255
102
RTVSPost2010PropOp44
 70
     1
102
RTVSPost2010Prop45
280
     0
102
RTVSPost2010PropOp45
 70
     1
102
RTVSPost2010Prop46
 90
       50
102
RTVSPost2010PropOp46
 70
     1
102
RTVSPost2010Prop47
 90
       50
102
RTVSPost2010PropOp47
 70
     1
102
RTVSPost2010Prop48
 90
       50
102
RTVSPost2010PropOp48
 70
     1
102
RTVSPost2010Prop49
280
     0
102
RTVSPost2010PropOp49
 70
     1
102
RTVSPost2010Prop50
 90
       50
102
RTVSPost2010PropOp50
 70
     1
102
RTVSPost2010Prop51ColorIndex
 90
      256
102
RTVSPost2010Prop51ColorRGB
 90
-16777216
102
RTVSPost2010PropOp51
 70
     0
102
RTVSPost2010Prop52
140
1.0
102
RTVSPost2010PropOp52
 70
     0
102
RTVSPost2010Prop53
 90
        2
102
RTVSPost2010PropOp53
 70
     1
102
RTVSPost2010Prop54
  1
strokes_ogs.tif
102
RTVSPost2010PropOp54
 70
     1
102
RTVSPost2010Prop55
280
     0
102
RTVSPost2010PropOp55
 70
     1
102
RTVSPost2010Prop56
140
1.0
102
RTVSPost2010PropOp56
 70
     1
102
RTVSPost2010Prop57
140
1.0
102
RTVSPost2010PropOp57
 70
     1
102
RTVSPropertyOp0
 70
     1
102
RTVSPropertyOp1
 70
     1
102
RTVSPropertyOp2
 70
     1
102
RTVSPropertyOp3
 70
     1
102
RTVSPropertyOp4
 70
     1
102
RTVSPropertyOp5
 70
     1
102
RTVSPropertyOp6
 70
     1
102
RTVSPropertyOp7
 70
     1
102
RTVSPropertyOp8
 70
     1
102
RTVSPropertyOp9
 70
     1
102
RTVSPropertyOp10
 70
     1
102
RTVSPropertyOp11
 70
     1
102
RTVSPropertyOp12
 70
     1
102
RTVSPropertyOp13
 70
     1
102
RTVSPropertyOp14
 70
     1
102
RTVSPropertyOp15
 70
     1
102
RTVSPropertyOp16
 70
     1
102
RTVSPropertyOp17
 70
     1
102
RTVSPropertyOp18
 70
     1
102
RTVSPropertyOp19
 70
     1
102
RTVSPropertyOp20
 70
     1
102
RTVSPropertyOp21
 70
     1
102
RTVSPropertyOp22
 70
     1
102
RTVSPropertyOp23
 70
     1
102
RTVSPropertyOp24
 70
     1
102
RTVSPropertyOp25
 70
     1
102
RTVSPropertyOp26
 70
     1
102
RTVSPropertyOp27
 70
     1
102
RTVSPropertyOp28
 70
     1
102
RTVSPropertyOp29
 70
     1
102
RTVSPropertyOp30
 70
     1
102
RTVSPropertyOp31
 70
     1
102
RTVSPropertyOp32
 70
     1
102
RTVSPropertyOp33
 70
     1
102
RTVSPropertyOp34
 70
     1
102
RTVSPropertyOp35
 70
     1
102
RTVSPropertyOp36
 70
     1
102
RTVSPropertyOp37
 70
     1
102
RTVSPropertyOp38
 70
     1
102
RTVSPropertyOp39
 70
     1
102
RTVSPropertyOp40
 70
     1
102
RTVSPropertyOp41
 70
     1
102
RTVSPropertyOp42
 70
     1
102
RTVSPropertyOp43
 70
     1
102
RTVSPropertyOp44
 70
     1
102
RTVSPropertyOp45
 70
     1
102
RTVSPropertyOp46
 70
     1
102
RTVSPropertyOp47
 70
     1
102
RTVSPropertyOp48
 70
     1
102
RTVSPropertyOp49
 70
     1
102
RTVSPropertyOp50
 70
     1
102
RTVSPropertyOp51
 70
     0
102
RTVSPropertyOp52
 70
     0
102
RTVSPropertyOp53
 70
     1
102
RTVSPropertyOp54
 70
     1
102
RTVSPropertyOp55
 70
     1
102
RTVSPropertyOp56
 70
     1
102
RTVSPropertyOp57
 70
     1
102
RTVSPropertyOp58
 70
     1
102
RTVSPropertyOp59
 70
     1
102
RTVSPropertyOp60
 70
     1
102
RTVSPropertyOp61
 70
     1
102
RTVSPropertyOp62
 70
     1
  0
XRECORD
  5
B731
102
{ACAD_REACTORS
330
B730
102
}
330
B730
100
AcDbXrecord
280
     1
102
RTVSPost2010Prop28
280
     0
102
RTVSPost2010PropOp28
 70
     1
102
RTVSPost2010Prop29
280
     1
102
RTVSPost2010PropOp29
 70
     1
102
RTVSPost2010Prop30
280
     1
102
RTVSPost2010PropOp30
 70
     1
102
RTVSPost2010Prop31
280
     0
102
RTVSPost2010PropOp31
 70
     1
102
RTVSPost2010Prop32
280
     0
102
RTVSPost2010PropOp32
 70
     1
102
RTVSPost2010Prop33
280
     0
102
RTVSPost2010PropOp33
 70
     1
102
RTVSPost2010Prop34
280
     0
102
RTVSPost2010PropOp34
 70
     1
102
RTVSPost2010Prop35
280
     0
102
RTVSPost2010PropOp35
 70
     1
102
RTVSPost2010Prop36
280
     0
102
RTVSPost2010PropOp36
 70
     1
102
RTVSPost2010Prop37
 90
       50
102
RTVSPost2010PropOp37
 70
     0
102
RTVSPost2010Prop38
140
0.0
102
RTVSPost2010PropOp38
 70
     0
102
RTVSPost2010Prop39
140
1.0
102
RTVSPost2010PropOp39
 70
     0
102
RTVSPost2010Prop40
 90
        0
102
RTVSPost2010PropOp40
 70
     0
102
RTVSPost2010Prop41ColorIndex
 90
       18
102
RTVSPost2010Prop41ColorRGB
 90
        0
102
RTVSPost2010PropOp41
 70
     0
102
RTVSPost2010Prop42
 90
       50
102
RTVSPost2010PropOp42
 70
     0
102
RTVSPost2010Prop43
 90
        3
102
RTVSPost2010PropOp43
 70
     0
102
RTVSPost2010Prop44ColorIndex
 90
        5
102
RTVSPost2010Prop44ColorRGB
 90
      255
102
RTVSPost2010PropOp44
 70
     0
102
RTVSPost2010Prop45
280
     0
102
RTVSPost2010PropOp45
 70
     1
102
RTVSPost2010Prop46
 90
       50
102
RTVSPost2010PropOp46
 70
     0
102
RTVSPost2010Prop47
 90
       50
102
RTVSPost2010PropOp47
 70
     0
102
RTVSPost2010Prop48
 90
       50
102
RTVSPost2010PropOp48
 70
     0
102
RTVSPost2010Prop49
280
     0
102
RTVSPost2010PropOp49
 70
     1
102
RTVSPost2010Prop50
 90
       50
102
RTVSPost2010PropOp50
 70
     0
102
RTVSPost2010Prop51ColorIndex
 90
      256
102
RTVSPost2010Prop51ColorRGB
 90
-16777216
102
RTVSPost2010PropOp51
 70
     0
102
RTVSPost2010Prop52
140
1.0
102
RTVSPost2010PropOp52
 70
     0
102
RTVSPost2010Prop53
 90
        2
102
RTVSPost2010PropOp53
 70
     0
102
RTVSPost2010Prop54
  1
strokes_ogs.tif
102
RTVSPost2010PropOp54
 70
     0
102
RTVSPost2010Prop55
280
     0
102
RTVSPost2010PropOp55
 70
     1
102
RTVSPost2010Prop56
140
1.0
102
RTVSPost2010PropOp56
 70
     0
102
RTVSPost2010Prop57
140
1.0
102
RTVSPost2010PropOp57
 70
     0
102
RTVSPropertyOp0
 70
     0
102
RTVSPropertyOp1
 70
     0
102
RTVSPropertyOp2
 70
     0
102
RTVSPropertyOp3
 70
     0
102
RTVSPropertyOp4
 70
     0
102
RTVSPropertyOp5
 70
     0
102
RTVSPropertyOp6
 70
     0
102
RTVSPropertyOp7
 70
     0
102
RTVSPropertyOp8
 70
     0
102
RTVSPropertyOp9
 70
     0
102
RTVSPropertyOp10
 70
     0
102
RTVSPropertyOp11
 70
     0
102
RTVSPropertyOp12
 70
     0
102
RTVSPropertyOp13
 70
     0
102
RTVSPropertyOp14
 70
     2
102
RTVSPropertyOp15
 70
     0
102
RTVSPropertyOp16
 70
     0
102
RTVSPropertyOp17
 70
     0
102
RTVSPropertyOp18
 70
     0
102
RTVSPropertyOp19
 70
     0
102
RTVSPropertyOp20
 70
     0
102
RTVSPropertyOp21
 70
     0
102
RTVSPropertyOp22
 70
     0
102
RTVSPropertyOp23
 70
     0
102
RTVSPropertyOp24
 70
     0
102
RTVSPropertyOp25
 70
     0
102
RTVSPropertyOp26
 70
     0
102
RTVSPropertyOp27
 70
     0
102
RTVSPropertyOp28
 70
     1
102
RTVSPropertyOp29
 70
     1
102
RTVSPropertyOp30
 70
     1
102
RTVSPropertyOp31
 70
     1
102
RTVSPropertyOp32
 70
     1
102
RTVSPropertyOp33
 70
     1
102
RTVSPropertyOp34
 70
     1
102
RTVSPropertyOp35
 70
     1
102
RTVSPropertyOp36
 70
     1
102
RTVSPropertyOp37
 70
     0
102
RTVSPropertyOp38
 70
     0
102
RTVSPropertyOp39
 70
     0
102
RTVSPropertyOp40
 70
     0
102
RTVSPropertyOp41
 70
     0
102
RTVSPropertyOp42
 70
     0
102
RTVSPropertyOp43
 70
     0
102
RTVSPropertyOp44
 70
     0
102
RTVSPropertyOp45
 70
     1
102
RTVSPropertyOp46
 70
     0
102
RTVSPropertyOp47
 70
     0
102
RTVSPropertyOp48
 70
     0
102
RTVSPropertyOp49
 70
     1
102
RTVSPropertyOp50
 70
     0
102
RTVSPropertyOp51
 70
     0
102
RTVSPropertyOp52
 70
     0
102
RTVSPropertyOp53
 70
     0
102
RTVSPropertyOp54
 70
     0
102
RTVSPropertyOp55
 70
     1
102
RTVSPropertyOp56
 70
     0
102
RTVSPropertyOp57
 70
     0
102
RTVSPropertyOp58
 70
     0
102
RTVSPropertyOp59
 70
     0
102
RTVSPropertyOp60
 70
     0
102
RTVSPropertyOp61
 70
     0
102
RTVSPropertyOp62
 70
     0
  0
XRECORD
  5
B71F
102
{ACAD_REACTORS
330
B71E
102
}
330
B71E
100
AcDbXrecord
280
     1
102
RTVSPost2010Prop28
280
     0
102
RTVSPost2010PropOp28
 70
     1
102
RTVSPost2010Prop29
280
     1
102
RTVSPost2010PropOp29
 70
     1
102
RTVSPost2010Prop30
280
     1
102
RTVSPost2010PropOp30
 70
     1
102
RTVSPost2010Prop31
280
     0
102
RTVSPost2010PropOp31
 70
     1
102
RTVSPost2010Prop32
280
     0
102
RTVSPost2010PropOp32
 70
     1
102
RTVSPost2010Prop33
280
     0
102
RTVSPost2010PropOp33
 70
     1
102
RTVSPost2010Prop34
280
     0
102
RTVSPost2010PropOp34
 70
     1
102
RTVSPost2010Prop35
280
     0
102
RTVSPost2010PropOp35
 70
     1
102
RTVSPost2010Prop36
280
     0
102
RTVSPost2010PropOp36
 70
     1
102
RTVSPost2010Prop37
 90
       50
102
RTVSPost2010PropOp37
 70
     1
102
RTVSPost2010Prop38
140
0.0
102
RTVSPost2010PropOp38
 70
     1
102
RTVSPost2010Prop39
140
1.0
102
RTVSPost2010PropOp39
 70
     1
102
RTVSPost2010Prop40
 90
        0
102
RTVSPost2010PropOp40
 70
     1
102
RTVSPost2010Prop41ColorIndex
 90
       18
102
RTVSPost2010Prop41ColorRGB
 90
        0
102
RTVSPost2010PropOp41
 70
     1
102
RTVSPost2010Prop42
 90
       50
102
RTVSPost2010PropOp42
 70
     1
102
RTVSPost2010Prop43
 90
        3
102
RTVSPost2010PropOp43
 70
     1
102
RTVSPost2010Prop44ColorIndex
 90
        5
102
RTVSPost2010Prop44ColorRGB
 90
      255
102
RTVSPost2010PropOp44
 70
     1
102
RTVSPost2010Prop45
280
     0
102
RTVSPost2010PropOp45
 70
     1
102
RTVSPost2010Prop46
 90
       50
102
RTVSPost2010PropOp46
 70
     1
102
RTVSPost2010Prop47
 90
       50
102
RTVSPost2010PropOp47
 70
     1
102
RTVSPost2010Prop48
 90
       50
102
RTVSPost2010PropOp48
 70
     1
102
RTVSPost2010Prop49
280
     0
102
RTVSPost2010PropOp49
 70
     1
102
RTVSPost2010Prop50
 90
       50
102
RTVSPost2010PropOp50
 70
     1
102
RTVSPost2010Prop51ColorIndex
 90
      256
102
RTVSPost2010Prop51ColorRGB
 90
-16777216
102
RTVSPost2010PropOp51
 70
     0
102
RTVSPost2010Prop52
140
1.0
102
RTVSPost2010PropOp52
 70
     0
102
RTVSPost2010Prop53
 90
        2
102
RTVSPost2010PropOp53
 70
     1
102
RTVSPost2010Prop54
  1
strokes_ogs.tif
102
RTVSPost2010PropOp54
 70
     1
102
RTVSPost2010Prop55
280
     0
102
RTVSPost2010PropOp55
 70
     1
102
RTVSPost2010Prop56
140
1.0
102
RTVSPost2010PropOp56
 70
     1
102
RTVSPost2010Prop57
140
1.0
102
RTVSPost2010PropOp57
 70
     1
102
RTVSPropertyOp0
 70
     1
102
RTVSPropertyOp1
 70
     1
102
RTVSPropertyOp2
 70
     1
102
RTVSPropertyOp3
 70
     1
102
RTVSPropertyOp4
 70
     1
102
RTVSPropertyOp5
 70
     1
102
RTVSPropertyOp6
 70
     1
102
RTVSPropertyOp7
 70
     1
102
RTVSPropertyOp8
 70
     1
102
RTVSPropertyOp9
 70
     1
102
RTVSPropertyOp10
 70
     1
102
RTVSPropertyOp11
 70
     1
102
RTVSPropertyOp12
 70
     1
102
RTVSPropertyOp13
 70
     1
102
RTVSPropertyOp14
 70
     1
102
RTVSPropertyOp15
 70
     1
102
RTVSPropertyOp16
 70
     1
102
RTVSPropertyOp17
 70
     1
102
RTVSPropertyOp18
 70
     1
102
RTVSPropertyOp19
 70
     1
102
RTVSPropertyOp20
 70
     1
102
RTVSPropertyOp21
 70
     1
102
RTVSPropertyOp22
 70
     1
102
RTVSPropertyOp23
 70
     1
102
RTVSPropertyOp24
 70
     1
102
RTVSPropertyOp25
 70
     1
102
RTVSPropertyOp26
 70
     1
102
RTVSPropertyOp27
 70
     1
102
RTVSPropertyOp28
 70
     1
102
RTVSPropertyOp29
 70
     1
102
RTVSPropertyOp30
 70
     1
102
RTVSPropertyOp31
 70
     1
102
RTVSPropertyOp32
 70
     1
102
RTVSPropertyOp33
 70
     1
102
RTVSPropertyOp34
 70
     1
102
RTVSPropertyOp35
 70
     1
102
RTVSPropertyOp36
 70
     1
102
RTVSPropertyOp37
 70
     1
102
RTVSPropertyOp38
 70
     1
102
RTVSPropertyOp39
 70
     1
102
RTVSPropertyOp40
 70
     1
102
RTVSPropertyOp41
 70
     1
102
RTVSPropertyOp42
 70
     1
102
RTVSPropertyOp43
 70
     1
102
RTVSPropertyOp44
 70
     1
102
RTVSPropertyOp45
 70
     1
102
RTVSPropertyOp46
 70
     1
102
RTVSPropertyOp47
 70
     1
102
RTVSPropertyOp48
 70
     1
102
RTVSPropertyOp49
 70
     1
102
RTVSPropertyOp50
 70
     1
102
RTVSPropertyOp51
 70
     0
102
RTVSPropertyOp52
 70
     0
102
RTVSPropertyOp53
 70
     1
102
RTVSPropertyOp54
 70
     1
102
RTVSPropertyOp55
 70
     1
102
RTVSPropertyOp56
 70
     1
102
RTVSPropertyOp57
 70
     1
102
RTVSPropertyOp58
 70
     1
102
RTVSPropertyOp59
 70
     1
102
RTVSPropertyOp60
 70
     1
102
RTVSPropertyOp61
 70
     1
102
RTVSPropertyOp62
 70
     1
  0
XRECORD
  5
B703
102
{ACAD_REACTORS
330
B702
102
}
330
B702
100
AcDbXrecord
280
     1
102
RTVSPost2010Prop28
280
     0
102
RTVSPost2010PropOp28
 70
     1
102
RTVSPost2010Prop29
280
     1
102
RTVSPost2010PropOp29
 70
     1
102
RTVSPost2010Prop30
280
     1
102
RTVSPost2010PropOp30
 70
     1
102
RTVSPost2010Prop31
280
     0
102
RTVSPost2010PropOp31
 70
     1
102
RTVSPost2010Prop32
280
     0
102
RTVSPost2010PropOp32
 70
     1
102
RTVSPost2010Prop33
280
     0
102
RTVSPost2010PropOp33
 70
     1
102
RTVSPost2010Prop34
280
     0
102
RTVSPost2010PropOp34
 70
     1
102
RTVSPost2010Prop35
280
     0
102
RTVSPost2010PropOp35
 70
     1
102
RTVSPost2010Prop36
280
     0
102
RTVSPost2010PropOp36
 70
     1
102
RTVSPost2010Prop37
 90
       50
102
RTVSPost2010PropOp37
 70
     1
102
RTVSPost2010Prop38
140
0.0
102
RTVSPost2010PropOp38
 70
     1
102
RTVSPost2010Prop39
140
1.0
102
RTVSPost2010PropOp39
 70
     1
102
RTVSPost2010Prop40
 90
        0
102
RTVSPost2010PropOp40
 70
     1
102
RTVSPost2010Prop41ColorIndex
 90
       18
102
RTVSPost2010Prop41ColorRGB
 90
        0
102
RTVSPost2010PropOp41
 70
     1
102
RTVSPost2010Prop42
 90
       50
102
RTVSPost2010PropOp42
 70
     1
102
RTVSPost2010Prop43
 90
        3
102
RTVSPost2010PropOp43
 70
     1
102
RTVSPost2010Prop44ColorIndex
 90
        5
102
RTVSPost2010Prop44ColorRGB
 90
      255
102
RTVSPost2010PropOp44
 70
     1
102
RTVSPost2010Prop45
280
     0
102
RTVSPost2010PropOp45
 70
     1
102
RTVSPost2010Prop46
 90
       50
102
RTVSPost2010PropOp46
 70
     1
102
RTVSPost2010Prop47
 90
       50
102
RTVSPost2010PropOp47
 70
     1
102
RTVSPost2010Prop48
 90
       50
102
RTVSPost2010PropOp48
 70
     1
102
RTVSPost2010Prop49
280
     0
102
RTVSPost2010PropOp49
 70
     1
102
RTVSPost2010Prop50
 90
       50
102
RTVSPost2010PropOp50
 70
     1
102
RTVSPost2010Prop51ColorIndex
 90
      256
102
RTVSPost2010Prop51ColorRGB
 90
-16777216
102
RTVSPost2010PropOp51
 70
     0
102
RTVSPost2010Prop52
140
1.0
102
RTVSPost2010PropOp52
 70
     0
102
RTVSPost2010Prop53
 90
        2
102
RTVSPost2010PropOp53
 70
     1
102
RTVSPost2010Prop54
  1
strokes_ogs.tif
102
RTVSPost2010PropOp54
 70
     1
102
RTVSPost2010Prop55
280
     0
102
RTVSPost2010PropOp55
 70
     1
102
RTVSPost2010Prop56
140
1.0
102
RTVSPost2010PropOp56
 70
     1
102
RTVSPost2010Prop57
140
1.0
102
RTVSPost2010PropOp57
 70
     1
102
RTVSPropertyOp0
 70
     1
102
RTVSPropertyOp1
 70
     1
102
RTVSPropertyOp2
 70
     1
102
RTVSPropertyOp3
 70
     1
102
RTVSPropertyOp4
 70
     1
102
RTVSPropertyOp5
 70
     1
102
RTVSPropertyOp6
 70
     1
102
RTVSPropertyOp7
 70
     1
102
RTVSPropertyOp8
 70
     1
102
RTVSPropertyOp9
 70
     1
102
RTVSPropertyOp10
 70
     1
102
RTVSPropertyOp11
 70
     1
102
RTVSPropertyOp12
 70
     1
102
RTVSPropertyOp13
 70
     1
102
RTVSPropertyOp14
 70
     1
102
RTVSPropertyOp15
 70
     1
102
RTVSPropertyOp16
 70
     1
102
RTVSPropertyOp17
 70
     1
102
RTVSPropertyOp18
 70
     1
102
RTVSPropertyOp19
 70
     1
102
RTVSPropertyOp20
 70
     1
102
RTVSPropertyOp21
 70
     1
102
RTVSPropertyOp22
 70
     1
102
RTVSPropertyOp23
 70
     1
102
RTVSPropertyOp24
 70
     1
102
RTVSPropertyOp25
 70
     1
102
RTVSPropertyOp26
 70
     1
102
RTVSPropertyOp27
 70
     1
102
RTVSPropertyOp28
 70
     1
102
RTVSPropertyOp29
 70
     1
102
RTVSPropertyOp30
 70
     1
102
RTVSPropertyOp31
 70
     1
102
RTVSPropertyOp32
 70
     1
102
RTVSPropertyOp33
 70
     1
102
RTVSPropertyOp34
 70
     1
102
RTVSPropertyOp35
 70
     1
102
RTVSPropertyOp36
 70
     1
102
RTVSPropertyOp37
 70
     1
102
RTVSPropertyOp38
 70
     1
102
RTVSPropertyOp39
 70
     1
102
RTVSPropertyOp40
 70
     1
102
RTVSPropertyOp41
 70
     1
102
RTVSPropertyOp42
 70
     1
102
RTVSPropertyOp43
 70
     1
102
RTVSPropertyOp44
 70
     1
102
RTVSPropertyOp45
 70
     1
102
RTVSPropertyOp46
 70
     1
102
RTVSPropertyOp47
 70
     1
102
RTVSPropertyOp48
 70
     1
102
RTVSPropertyOp49
 70
     1
102
RTVSPropertyOp50
 70
     1
102
RTVSPropertyOp51
 70
     0
102
RTVSPropertyOp52
 70
     0
102
RTVSPropertyOp53
 70
     1
102
RTVSPropertyOp54
 70
     1
102
RTVSPropertyOp55
 70
     1
102
RTVSPropertyOp56
 70
     1
102
RTVSPropertyOp57
 70
     1
102
RTVSPropertyOp58
 70
     1
102
RTVSPropertyOp59
 70
     1
102
RTVSPropertyOp60
 70
     1
102
RTVSPropertyOp61
 70
     1
102
RTVSPropertyOp62
 70
     1
  0
XRECORD
  5
B705
102
{ACAD_REACTORS
330
B704
102
}
330
B704
100
AcDbXrecord
280
     1
102
RTVSPost2010Prop28
280
     0
102
RTVSPost2010PropOp28
 70
     1
102
RTVSPost2010Prop29
280
     1
102
RTVSPost2010PropOp29
 70
     1
102
RTVSPost2010Prop30
280
     1
102
RTVSPost2010PropOp30
 70
     1
102
RTVSPost2010Prop31
280
     0
102
RTVSPost2010PropOp31
 70
     1
102
RTVSPost2010Prop32
280
     0
102
RTVSPost2010PropOp32
 70
     1
102
RTVSPost2010Prop33
280
     0
102
RTVSPost2010PropOp33
 70
     1
102
RTVSPost2010Prop34
280
     0
102
RTVSPost2010PropOp34
 70
     1
102
RTVSPost2010Prop35
280
     0
102
RTVSPost2010PropOp35
 70
     1
102
RTVSPost2010Prop36
280
     0
102
RTVSPost2010PropOp36
 70
     1
102
RTVSPost2010Prop37
 90
       50
102
RTVSPost2010PropOp37
 70
     1
102
RTVSPost2010Prop38
140
0.0
102
RTVSPost2010PropOp38
 70
     1
102
RTVSPost2010Prop39
140
1.0
102
RTVSPost2010PropOp39
 70
     1
102
RTVSPost2010Prop40
 90
        0
102
RTVSPost2010PropOp40
 70
     1
102
RTVSPost2010Prop41ColorIndex
 90
       18
102
RTVSPost2010Prop41ColorRGB
 90
        0
102
RTVSPost2010PropOp41
 70
     1
102
RTVSPost2010Prop42
 90
       50
102
RTVSPost2010PropOp42
 70
     1
102
RTVSPost2010Prop43
 90
        3
102
RTVSPost2010PropOp43
 70
     1
102
RTVSPost2010Prop44ColorIndex
 90
        5
102
RTVSPost2010Prop44ColorRGB
 90
      255
102
RTVSPost2010PropOp44
 70
     1
102
RTVSPost2010Prop45
280
     0
102
RTVSPost2010PropOp45
 70
     1
102
RTVSPost2010Prop46
 90
       50
102
RTVSPost2010PropOp46
 70
     1
102
RTVSPost2010Prop47
 90
       50
102
RTVSPost2010PropOp47
 70
     1
102
RTVSPost2010Prop48
 90
       50
102
RTVSPost2010PropOp48
 70
     1
102
RTVSPost2010Prop49
280
     0
102
RTVSPost2010PropOp49
 70
     1
102
RTVSPost2010Prop50
 90
       50
102
RTVSPost2010PropOp50
 70
     1
102
RTVSPost2010Prop51ColorIndex
 90
      256
102
RTVSPost2010Prop51ColorRGB
 90
-16777216
102
RTVSPost2010PropOp51
 70
     0
102
RTVSPost2010Prop52
140
1.0
102
RTVSPost2010PropOp52
 70
     0
102
RTVSPost2010Prop53
 90
        2
102
RTVSPost2010PropOp53
 70
     1
102
RTVSPost2010Prop54
  1
strokes_ogs.tif
102
RTVSPost2010PropOp54
 70
     1
102
RTVSPost2010Prop55
280
     0
102
RTVSPost2010PropOp55
 70
     1
102
RTVSPost2010Prop56
140
1.0
102
RTVSPost2010PropOp56
 70
     1
102
RTVSPost2010Prop57
140
1.0
102
RTVSPost2010PropOp57
 70
     1
102
RTVSPropertyOp0
 70
     1
102
RTVSPropertyOp1
 70
     1
102
RTVSPropertyOp2
 70
     1
102
RTVSPropertyOp3
 70
     1
102
RTVSPropertyOp4
 70
     1
102
RTVSPropertyOp5
 70
     1
102
RTVSPropertyOp6
 70
     1
102
RTVSPropertyOp7
 70
     1
102
RTVSPropertyOp8
 70
     1
102
RTVSPropertyOp9
 70
     1
102
RTVSPropertyOp10
 70
     1
102
RTVSPropertyOp11
 70
     1
102
RTVSPropertyOp12
 70
     1
102
RTVSPropertyOp13
 70
     1
102
RTVSPropertyOp14
 70
     1
102
RTVSPropertyOp15
 70
     1
102
RTVSPropertyOp16
 70
     1
102
RTVSPropertyOp17
 70
     1
102
RTVSPropertyOp18
 70
     1
102
RTVSPropertyOp19
 70
     1
102
RTVSPropertyOp20
 70
     1
102
RTVSPropertyOp21
 70
     1
102
RTVSPropertyOp22
 70
     1
102
RTVSPropertyOp23
 70
     1
102
RTVSPropertyOp24
 70
     1
102
RTVSPropertyOp25
 70
     1
102
RTVSPropertyOp26
 70
     1
102
RTVSPropertyOp27
 70
     1
102
RTVSPropertyOp28
 70
     1
102
RTVSPropertyOp29
 70
     1
102
RTVSPropertyOp30
 70
     1
102
RTVSPropertyOp31
 70
     1
102
RTVSPropertyOp32
 70
     1
102
RTVSPropertyOp33
 70
     1
102
RTVSPropertyOp34
 70
     1
102
RTVSPropertyOp35
 70
     1
102
RTVSPropertyOp36
 70
     1
102
RTVSPropertyOp37
 70
     1
102
RTVSPropertyOp38
 70
     1
102
RTVSPropertyOp39
 70
     1
102
RTVSPropertyOp40
 70
     1
102
RTVSPropertyOp41
 70
     1
102
RTVSPropertyOp42
 70
     1
102
RTVSPropertyOp43
 70
     1
102
RTVSPropertyOp44
 70
     1
102
RTVSPropertyOp45
 70
     1
102
RTVSPropertyOp46
 70
     1
102
RTVSPropertyOp47
 70
     1
102
RTVSPropertyOp48
 70
     1
102
RTVSPropertyOp49
 70
     1
102
RTVSPropertyOp50
 70
     1
102
RTVSPropertyOp51
 70
     0
102
RTVSPropertyOp52
 70
     0
102
RTVSPropertyOp53
 70
     1
102
RTVSPropertyOp54
 70
     1
102
RTVSPropertyOp55
 70
     1
102
RTVSPropertyOp56
 70
     1
102
RTVSPropertyOp57
 70
     1
102
RTVSPropertyOp58
 70
     1
102
RTVSPropertyOp59
 70
     1
102
RTVSPropertyOp60
 70
     1
102
RTVSPropertyOp61
 70
     1
102
RTVSPropertyOp62
 70
     1
  0
XRECORD
  5
B707
102
{ACAD_REACTORS
330
B706
102
}
330
B706
100
AcDbXrecord
280
     1
102
RTVSPost2010Prop28
280
     0
102
RTVSPost2010PropOp28
 70
     1
102
RTVSPost2010Prop29
280
     1
102
RTVSPost2010PropOp29
 70
     1
102
RTVSPost2010Prop30
280
     1
102
RTVSPost2010PropOp30
 70
     1
102
RTVSPost2010Prop31
280
     0
102
RTVSPost2010PropOp31
 70
     1
102
RTVSPost2010Prop32
280
     0
102
RTVSPost2010PropOp32
 70
     1
102
RTVSPost2010Prop33
280
     0
102
RTVSPost2010PropOp33
 70
     1
102
RTVSPost2010Prop34
280
     0
102
RTVSPost2010PropOp34
 70
     1
102
RTVSPost2010Prop35
280
     0
102
RTVSPost2010PropOp35
 70
     1
102
RTVSPost2010Prop36
280
     0
102
RTVSPost2010PropOp36
 70
     1
102
RTVSPost2010Prop37
 90
       50
102
RTVSPost2010PropOp37
 70
     1
102
RTVSPost2010Prop38
140
0.0
102
RTVSPost2010PropOp38
 70
     1
102
RTVSPost2010Prop39
140
1.0
102
RTVSPost2010PropOp39
 70
     1
102
RTVSPost2010Prop40
 90
        0
102
RTVSPost2010PropOp40
 70
     1
102
RTVSPost2010Prop41ColorIndex
 90
       18
102
RTVSPost2010Prop41ColorRGB
 90
        0
102
RTVSPost2010PropOp41
 70
     1
102
RTVSPost2010Prop42
 90
       50
102
RTVSPost2010PropOp42
 70
     1
102
RTVSPost2010Prop43
 90
        3
102
RTVSPost2010PropOp43
 70
     1
102
RTVSPost2010Prop44ColorIndex
 90
        5
102
RTVSPost2010Prop44ColorRGB
 90
      255
102
RTVSPost2010PropOp44
 70
     1
102
RTVSPost2010Prop45
280
     0
102
RTVSPost2010PropOp45
 70
     1
102
RTVSPost2010Prop46
 90
       50
102
RTVSPost2010PropOp46
 70
     1
102
RTVSPost2010Prop47
 90
       50
102
RTVSPost2010PropOp47
 70
     1
102
RTVSPost2010Prop48
 90
       50
102
RTVSPost2010PropOp48
 70
     1
102
RTVSPost2010Prop49
280
     0
102
RTVSPost2010PropOp49
 70
     1
102
RTVSPost2010Prop50
 90
       50
102
RTVSPost2010PropOp50
 70
     1
102
RTVSPost2010Prop51ColorIndex
 90
      256
102
RTVSPost2010Prop51ColorRGB
 90
-16777216
102
RTVSPost2010PropOp51
 70
     0
102
RTVSPost2010Prop52
140
1.0
102
RTVSPost2010PropOp52
 70
     0
102
RTVSPost2010Prop53
 90
        2
102
RTVSPost2010PropOp53
 70
     1
102
RTVSPost2010Prop54
  1
strokes_ogs.tif
102
RTVSPost2010PropOp54
 70
     1
102
RTVSPost2010Prop55
280
     0
102
RTVSPost2010PropOp55
 70
     1
102
RTVSPost2010Prop56
140
1.0
102
RTVSPost2010PropOp56
 70
     1
102
RTVSPost2010Prop57
140
1.0
102
RTVSPost2010PropOp57
 70
     1
102
RTVSPropertyOp0
 70
     1
102
RTVSPropertyOp1
 70
     1
102
RTVSPropertyOp2
 70
     1
102
RTVSPropertyOp3
 70
     1
102
RTVSPropertyOp4
 70
     1
102
RTVSPropertyOp5
 70
     1
102
RTVSPropertyOp6
 70
     1
102
RTVSPropertyOp7
 70
     1
102
RTVSPropertyOp8
 70
     1
102
RTVSPropertyOp9
 70
     1
102
RTVSPropertyOp10
 70
     1
102
RTVSPropertyOp11
 70
     1
102
RTVSPropertyOp12
 70
     1
102
RTVSPropertyOp13
 70
     1
102
RTVSPropertyOp14
 70
     1
102
RTVSPropertyOp15
 70
     1
102
RTVSPropertyOp16
 70
     1
102
RTVSPropertyOp17
 70
     1
102
RTVSPropertyOp18
 70
     1
102
RTVSPropertyOp19
 70
     1
102
RTVSPropertyOp20
 70
     1
102
RTVSPropertyOp21
 70
     1
102
RTVSPropertyOp22
 70
     1
102
RTVSPropertyOp23
 70
     1
102
RTVSPropertyOp24
 70
     1
102
RTVSPropertyOp25
 70
     1
102
RTVSPropertyOp26
 70
     1
102
RTVSPropertyOp27
 70
     1
102
RTVSPropertyOp28
 70
     1
102
RTVSPropertyOp29
 70
     1
102
RTVSPropertyOp30
 70
     1
102
RTVSPropertyOp31
 70
     1
102
RTVSPropertyOp32
 70
     1
102
RTVSPropertyOp33
 70
     1
102
RTVSPropertyOp34
 70
     1
102
RTVSPropertyOp35
 70
     1
102
RTVSPropertyOp36
 70
     1
102
RTVSPropertyOp37
 70
     1
102
RTVSPropertyOp38
 70
     1
102
RTVSPropertyOp39
 70
     1
102
RTVSPropertyOp40
 70
     1
102
RTVSPropertyOp41
 70
     1
102
RTVSPropertyOp42
 70
     1
102
RTVSPropertyOp43
 70
     1
102
RTVSPropertyOp44
 70
     1
102
RTVSPropertyOp45
 70
     1
102
RTVSPropertyOp46
 70
     1
102
RTVSPropertyOp47
 70
     1
102
RTVSPropertyOp48
 70
     1
102
RTVSPropertyOp49
 70
     1
102
RTVSPropertyOp50
 70
     1
102
RTVSPropertyOp51
 70
     0
102
RTVSPropertyOp52
 70
     0
102
RTVSPropertyOp53
 70
     1
102
RTVSPropertyOp54
 70
     1
102
RTVSPropertyOp55
 70
     1
102
RTVSPropertyOp56
 70
     1
102
RTVSPropertyOp57
 70
     1
102
RTVSPropertyOp58
 70
     1
102
RTVSPropertyOp59
 70
     1
102
RTVSPropertyOp60
 70
     1
102
RTVSPropertyOp61
 70
     1
102
RTVSPropertyOp62
 70
     1
  0
XRECORD
  5
B709
102
{ACAD_REACTORS
330
B708
102
}
330
B708
100
AcDbXrecord
280
     1
102
RTVSPost2010Prop28
280
     0
102
RTVSPost2010PropOp28
 70
     1
102
RTVSPost2010Prop29
280
     1
102
RTVSPost2010PropOp29
 70
     1
102
RTVSPost2010Prop30
280
     1
102
RTVSPost2010PropOp30
 70
     1
102
RTVSPost2010Prop31
280
     0
102
RTVSPost2010PropOp31
 70
     1
102
RTVSPost2010Prop32
280
     0
102
RTVSPost2010PropOp32
 70
     1
102
RTVSPost2010Prop33
280
     0
102
RTVSPost2010PropOp33
 70
     1
102
RTVSPost2010Prop34
280
     0
102
RTVSPost2010PropOp34
 70
     1
102
RTVSPost2010Prop35
280
     0
102
RTVSPost2010PropOp35
 70
     1
102
RTVSPost2010Prop36
280
     0
102
RTVSPost2010PropOp36
 70
     1
102
RTVSPost2010Prop37
 90
       50
102
RTVSPost2010PropOp37
 70
     1
102
RTVSPost2010Prop38
140
0.0
102
RTVSPost2010PropOp38
 70
     1
102
RTVSPost2010Prop39
140
1.0
102
RTVSPost2010PropOp39
 70
     1
102
RTVSPost2010Prop40
 90
        0
102
RTVSPost2010PropOp40
 70
     1
102
RTVSPost2010Prop41ColorIndex
 90
       18
102
RTVSPost2010Prop41ColorRGB
 90
        0
102
RTVSPost2010PropOp41
 70
     1
102
RTVSPost2010Prop42
 90
       50
102
RTVSPost2010PropOp42
 70
     1
102
RTVSPost2010Prop43
 90
        3
102
RTVSPost2010PropOp43
 70
     1
102
RTVSPost2010Prop44ColorIndex
 90
        5
102
RTVSPost2010Prop44ColorRGB
 90
      255
102
RTVSPost2010PropOp44
 70
     1
102
RTVSPost2010Prop45
280
     0
102
RTVSPost2010PropOp45
 70
     1
102
RTVSPost2010Prop46
 90
       50
102
RTVSPost2010PropOp46
 70
     1
102
RTVSPost2010Prop47
 90
       50
102
RTVSPost2010PropOp47
 70
     1
102
RTVSPost2010Prop48
 90
       50
102
RTVSPost2010PropOp48
 70
     1
102
RTVSPost2010Prop49
280
     0
102
RTVSPost2010PropOp49
 70
     1
102
RTVSPost2010Prop50
 90
       50
102
RTVSPost2010PropOp50
 70
     1
102
RTVSPost2010Prop51ColorIndex
 90
      256
102
RTVSPost2010Prop51ColorRGB
 90
-16777216
102
RTVSPost2010PropOp51
 70
     0
102
RTVSPost2010Prop52
140
1.0
102
RTVSPost2010PropOp52
 70
     0
102
RTVSPost2010Prop53
 90
        2
102
RTVSPost2010PropOp53
 70
     1
102
RTVSPost2010Prop54
  1
strokes_ogs.tif
102
RTVSPost2010PropOp54
 70
     1
102
RTVSPost2010Prop55
280
     0
102
RTVSPost2010PropOp55
 70
     1
102
RTVSPost2010Prop56
140
1.0
102
RTVSPost2010PropOp56
 70
     1
102
RTVSPost2010Prop57
140
1.0
102
RTVSPost2010PropOp57
 70
     1
102
RTVSPropertyOp0
 70
     1
102
RTVSPropertyOp1
 70
     1
102
RTVSPropertyOp2
 70
     1
102
RTVSPropertyOp3
 70
     1
102
RTVSPropertyOp4
 70
     1
102
RTVSPropertyOp5
 70
     1
102
RTVSPropertyOp6
 70
     1
102
RTVSPropertyOp7
 70
     1
102
RTVSPropertyOp8
 70
     1
102
RTVSPropertyOp9
 70
     1
102
RTVSPropertyOp10
 70
     1
102
RTVSPropertyOp11
 70
     1
102
RTVSPropertyOp12
 70
     1
102
RTVSPropertyOp13
 70
     1
102
RTVSPropertyOp14
 70
     1
102
RTVSPropertyOp15
 70
     1
102
RTVSPropertyOp16
 70
     1
102
RTVSPropertyOp17
 70
     1
102
RTVSPropertyOp18
 70
     1
102
RTVSPropertyOp19
 70
     1
102
RTVSPropertyOp20
 70
     1
102
RTVSPropertyOp21
 70
     1
102
RTVSPropertyOp22
 70
     1
102
RTVSPropertyOp23
 70
     1
102
RTVSPropertyOp24
 70
     1
102
RTVSPropertyOp25
 70
     1
102
RTVSPropertyOp26
 70
     1
102
RTVSPropertyOp27
 70
     1
102
RTVSPropertyOp28
 70
     1
102
RTVSPropertyOp29
 70
     1
102
RTVSPropertyOp30
 70
     1
102
RTVSPropertyOp31
 70
     1
102
RTVSPropertyOp32
 70
     1
102
RTVSPropertyOp33
 70
     1
102
RTVSPropertyOp34
 70
     1
102
RTVSPropertyOp35
 70
     1
102
RTVSPropertyOp36
 70
     1
102
RTVSPropertyOp37
 70
     1
102
RTVSPropertyOp38
 70
     1
102
RTVSPropertyOp39
 70
     1
102
RTVSPropertyOp40
 70
     1
102
RTVSPropertyOp41
 70
     1
102
RTVSPropertyOp42
 70
     1
102
RTVSPropertyOp43
 70
     1
102
RTVSPropertyOp44
 70
     1
102
RTVSPropertyOp45
 70
     1
102
RTVSPropertyOp46
 70
     1
102
RTVSPropertyOp47
 70
     1
102
RTVSPropertyOp48
 70
     1
102
RTVSPropertyOp49
 70
     1
102
RTVSPropertyOp50
 70
     1
102
RTVSPropertyOp51
 70
     0
102
RTVSPropertyOp52
 70
     0
102
RTVSPropertyOp53
 70
     1
102
RTVSPropertyOp54
 70
     1
102
RTVSPropertyOp55
 70
     1
102
RTVSPropertyOp56
 70
     1
102
RTVSPropertyOp57
 70
     1
102
RTVSPropertyOp58
 70
     1
102
RTVSPropertyOp59
 70
     1
102
RTVSPropertyOp60
 70
     1
102
RTVSPropertyOp61
 70
     1
102
RTVSPropertyOp62
 70
     1
  0
XRECORD
  5
B711
102
{ACAD_REACTORS
330
B710
102
}
330
B710
100
AcDbXrecord
280
     1
102
RTVSPost2010Prop28
280
     0
102
RTVSPost2010PropOp28
 70
     1
102
RTVSPost2010Prop29
280
     1
102
RTVSPost2010PropOp29
 70
     1
102
RTVSPost2010Prop30
280
     1
102
RTVSPost2010PropOp30
 70
     1
102
RTVSPost2010Prop31
280
     0
102
RTVSPost2010PropOp31
 70
     1
102
RTVSPost2010Prop32
280
     0
102
RTVSPost2010PropOp32
 70
     1
102
RTVSPost2010Prop33
280
     0
102
RTVSPost2010PropOp33
 70
     1
102
RTVSPost2010Prop34
280
     0
102
RTVSPost2010PropOp34
 70
     1
102
RTVSPost2010Prop35
280
     0
102
RTVSPost2010PropOp35
 70
     1
102
RTVSPost2010Prop36
280
     0
102
RTVSPost2010PropOp36
 70
     1
102
RTVSPost2010Prop37
 90
       50
102
RTVSPost2010PropOp37
 70
     1
102
RTVSPost2010Prop38
140
0.0
102
RTVSPost2010PropOp38
 70
     1
102
RTVSPost2010Prop39
140
1.0
102
RTVSPost2010PropOp39
 70
     1
102
RTVSPost2010Prop40
 90
        0
102
RTVSPost2010PropOp40
 70
     1
102
RTVSPost2010Prop41ColorIndex
 90
       18
102
RTVSPost2010Prop41ColorRGB
 90
        0
102
RTVSPost2010PropOp41
 70
     1
102
RTVSPost2010Prop42
 90
       50
102
RTVSPost2010PropOp42
 70
     1
102
RTVSPost2010Prop43
 90
        3
102
RTVSPost2010PropOp43
 70
     1
102
RTVSPost2010Prop44ColorIndex
 90
        5
102
RTVSPost2010Prop44ColorRGB
 90
      255
102
RTVSPost2010PropOp44
 70
     1
102
RTVSPost2010Prop45
280
     0
102
RTVSPost2010PropOp45
 70
     1
102
RTVSPost2010Prop46
 90
       50
102
RTVSPost2010PropOp46
 70
     1
102
RTVSPost2010Prop47
 90
       50
102
RTVSPost2010PropOp47
 70
     1
102
RTVSPost2010Prop48
 90
       50
102
RTVSPost2010PropOp48
 70
     1
102
RTVSPost2010Prop49
280
     0
102
RTVSPost2010PropOp49
 70
     1
102
RTVSPost2010Prop50
 90
       50
102
RTVSPost2010PropOp50
 70
     1
102
RTVSPost2010Prop51ColorIndex
 90
      256
102
RTVSPost2010Prop51ColorRGB
 90
-16777216
102
RTVSPost2010PropOp51
 70
     0
102
RTVSPost2010Prop52
140
1.0
102
RTVSPost2010PropOp52
 70
     0
102
RTVSPost2010Prop53
 90
        2
102
RTVSPost2010PropOp53
 70
     1
102
RTVSPost2010Prop54
  1
strokes_ogs.tif
102
RTVSPost2010PropOp54
 70
     1
102
RTVSPost2010Prop55
280
     0
102
RTVSPost2010PropOp55
 70
     1
102
RTVSPost2010Prop56
140
1.0
102
RTVSPost2010PropOp56
 70
     1
102
RTVSPost2010Prop57
140
1.0
102
RTVSPost2010PropOp57
 70
     1
102
RTVSPropertyOp0
 70
     1
102
RTVSPropertyOp1
 70
     1
102
RTVSPropertyOp2
 70
     1
102
RTVSPropertyOp3
 70
     1
102
RTVSPropertyOp4
 70
     1
102
RTVSPropertyOp5
 70
     1
102
RTVSPropertyOp6
 70
     1
102
RTVSPropertyOp7
 70
     1
102
RTVSPropertyOp8
 70
     1
102
RTVSPropertyOp9
 70
     1
102
RTVSPropertyOp10
 70
     1
102
RTVSPropertyOp11
 70
     1
102
RTVSPropertyOp12
 70
     1
102
RTVSPropertyOp13
 70
     1
102
RTVSPropertyOp14
 70
     1
102
RTVSPropertyOp15
 70
     1
102
RTVSPropertyOp16
 70
     1
102
RTVSPropertyOp17
 70
     1
102
RTVSPropertyOp18
 70
     1
102
RTVSPropertyOp19
 70
     1
102
RTVSPropertyOp20
 70
     1
102
RTVSPropertyOp21
 70
     1
102
RTVSPropertyOp22
 70
     1
102
RTVSPropertyOp23
 70
     1
102
RTVSPropertyOp24
 70
     1
102
RTVSPropertyOp25
 70
     1
102
RTVSPropertyOp26
 70
     1
102
RTVSPropertyOp27
 70
     1
102
RTVSPropertyOp28
 70
     1
102
RTVSPropertyOp29
 70
     1
102
RTVSPropertyOp30
 70
     1
102
RTVSPropertyOp31
 70
     1
102
RTVSPropertyOp32
 70
     1
102
RTVSPropertyOp33
 70
     1
102
RTVSPropertyOp34
 70
     1
102
RTVSPropertyOp35
 70
     1
102
RTVSPropertyOp36
 70
     1
102
RTVSPropertyOp37
 70
     1
102
RTVSPropertyOp38
 70
     1
102
RTVSPropertyOp39
 70
     1
102
RTVSPropertyOp40
 70
     1
102
RTVSPropertyOp41
 70
     1
102
RTVSPropertyOp42
 70
     1
102
RTVSPropertyOp43
 70
     1
102
RTVSPropertyOp44
 70
     1
102
RTVSPropertyOp45
 70
     1
102
RTVSPropertyOp46
 70
     1
102
RTVSPropertyOp47
 70
     1
102
RTVSPropertyOp48
 70
     1
102
RTVSPropertyOp49
 70
     1
102
RTVSPropertyOp50
 70
     1
102
RTVSPropertyOp51
 70
     0
102
RTVSPropertyOp52
 70
     0
102
RTVSPropertyOp53
 70
     1
102
RTVSPropertyOp54
 70
     1
102
RTVSPropertyOp55
 70
     1
102
RTVSPropertyOp56
 70
     1
102
RTVSPropertyOp57
 70
     1
102
RTVSPropertyOp58
 70
     1
102
RTVSPropertyOp59
 70
     1
102
RTVSPropertyOp60
 70
     1
102
RTVSPropertyOp61
 70
     1
102
RTVSPropertyOp62
 70
     1
  0
XRECORD
  5
B72D
102
{ACAD_REACTORS
330
B72C
102
}
330
B72C
100
AcDbXrecord
280
     1
102
RTVSPost2010Prop28
280
     0
102
RTVSPost2010PropOp28
 70
     1
102
RTVSPost2010Prop29
280
     1
102
RTVSPost2010PropOp29
 70
     1
102
RTVSPost2010Prop30
280
     1
102
RTVSPost2010PropOp30
 70
     1
102
RTVSPost2010Prop31
280
     0
102
RTVSPost2010PropOp31
 70
     1
102
RTVSPost2010Prop32
280
     0
102
RTVSPost2010PropOp32
 70
     1
102
RTVSPost2010Prop33
280
     0
102
RTVSPost2010PropOp33
 70
     1
102
RTVSPost2010Prop34
280
     0
102
RTVSPost2010PropOp34
 70
     1
102
RTVSPost2010Prop35
280
     0
102
RTVSPost2010PropOp35
 70
     1
102
RTVSPost2010Prop36
280
     0
102
RTVSPost2010PropOp36
 70
     1
102
RTVSPost2010Prop37
 90
       50
102
RTVSPost2010PropOp37
 70
     0
102
RTVSPost2010Prop38
140
0.0
102
RTVSPost2010PropOp38
 70
     0
102
RTVSPost2010Prop39
140
1.0
102
RTVSPost2010PropOp39
 70
     0
102
RTVSPost2010Prop40
 90
        0
102
RTVSPost2010PropOp40
 70
     0
102
RTVSPost2010Prop41ColorIndex
 90
       18
102
RTVSPost2010Prop41ColorRGB
 90
        0
102
RTVSPost2010PropOp41
 70
     0
102
RTVSPost2010Prop42
 90
       50
102
RTVSPost2010PropOp42
 70
     0
102
RTVSPost2010Prop43
 90
        3
102
RTVSPost2010PropOp43
 70
     0
102
RTVSPost2010Prop44ColorIndex
 90
        5
102
RTVSPost2010Prop44ColorRGB
 90
      255
102
RTVSPost2010PropOp44
 70
     0
102
RTVSPost2010Prop45
280
     0
102
RTVSPost2010PropOp45
 70
     1
102
RTVSPost2010Prop46
 90
       50
102
RTVSPost2010PropOp46
 70
     0
102
RTVSPost2010Prop47
 90
       50
102
RTVSPost2010PropOp47
 70
     0
102
RTVSPost2010Prop48
 90
       50
102
RTVSPost2010PropOp48
 70
     0
102
RTVSPost2010Prop49
280
     0
102
RTVSPost2010PropOp49
 70
     1
102
RTVSPost2010Prop50
 90
       50
102
RTVSPost2010PropOp50
 70
     0
102
RTVSPost2010Prop51ColorIndex
 90
      256
102
RTVSPost2010Prop51ColorRGB
 90
-16777216
102
RTVSPost2010PropOp51
 70
     0
102
RTVSPost2010Prop52
140
1.0
102
RTVSPost2010PropOp52
 70
     0
102
RTVSPost2010Prop53
 90
        2
102
RTVSPost2010PropOp53
 70
     0
102
RTVSPost2010Prop54
  1
strokes_ogs.tif
102
RTVSPost2010PropOp54
 70
     0
102
RTVSPost2010Prop55
280
     0
102
RTVSPost2010PropOp55
 70
     1
102
RTVSPost2010Prop56
140
1.0
102
RTVSPost2010PropOp56
 70
     0
102
RTVSPost2010Prop57
140
1.0
102
RTVSPost2010PropOp57
 70
     0
102
RTVSPropertyOp0
 70
     0
102
RTVSPropertyOp1
 70
     0
102
RTVSPropertyOp2
 70
     0
102
RTVSPropertyOp3
 70
     0
102
RTVSPropertyOp4
 70
     0
102
RTVSPropertyOp5
 70
     0
102
RTVSPropertyOp6
 70
     0
102
RTVSPropertyOp7
 70
     0
102
RTVSPropertyOp8
 70
     0
102
RTVSPropertyOp9
 70
     0
102
RTVSPropertyOp10
 70
     0
102
RTVSPropertyOp11
 70
     0
102
RTVSPropertyOp12
 70
     0
102
RTVSPropertyOp13
 70
     0
102
RTVSPropertyOp14
 70
     2
102
RTVSPropertyOp15
 70
     0
102
RTVSPropertyOp16
 70
     0
102
RTVSPropertyOp17
 70
     0
102
RTVSPropertyOp18
 70
     0
102
RTVSPropertyOp19
 70
     0
102
RTVSPropertyOp20
 70
     0
102
RTVSPropertyOp21
 70
     0
102
RTVSPropertyOp22
 70
     0
102
RTVSPropertyOp23
 70
     0
102
RTVSPropertyOp24
 70
     0
102
RTVSPropertyOp25
 70
     0
102
RTVSPropertyOp26
 70
     0
102
RTVSPropertyOp27
 70
     0
102
RTVSPropertyOp28
 70
     1
102
RTVSPropertyOp29
 70
     1
102
RTVSPropertyOp30
 70
     1
102
RTVSPropertyOp31
 70
     1
102
RTVSPropertyOp32
 70
     1
102
RTVSPropertyOp33
 70
     1
102
RTVSPropertyOp34
 70
     1
102
RTVSPropertyOp35
 70
     1
102
RTVSPropertyOp36
 70
     1
102
RTVSPropertyOp37
 70
     0
102
RTVSPropertyOp38
 70
     0
102
RTVSPropertyOp39
 70
     0
102
RTVSPropertyOp40
 70
     0
102
RTVSPropertyOp41
 70
     0
102
RTVSPropertyOp42
 70
     0
102
RTVSPropertyOp43
 70
     0
102
RTVSPropertyOp44
 70
     0
102
RTVSPropertyOp45
 70
     1
102
RTVSPropertyOp46
 70
     0
102
RTVSPropertyOp47
 70
     0
102
RTVSPropertyOp48
 70
     0
102
RTVSPropertyOp49
 70
     1
102
RTVSPropertyOp50
 70
     0
102
RTVSPropertyOp51
 70
     0
102
RTVSPropertyOp52
 70
     0
102
RTVSPropertyOp53
 70
     0
102
RTVSPropertyOp54
 70
     0
102
RTVSPropertyOp55
 70
     1
102
RTVSPropertyOp56
 70
     0
102
RTVSPropertyOp57
 70
     0
102
RTVSPropertyOp58
 70
     0
102
RTVSPropertyOp59
 70
     0
102
RTVSPropertyOp60
 70
     0
102
RTVSPropertyOp61
 70
     0
102
RTVSPropertyOp62
 70
     0
  0
XRECORD
  5
B71D
102
{ACAD_REACTORS
330
B71C
102
}
330
B71C
100
AcDbXrecord
280
     1
102
RTVSPost2010Prop28
280
     0
102
RTVSPost2010PropOp28
 70
     1
102
RTVSPost2010Prop29
280
     1
102
RTVSPost2010PropOp29
 70
     1
102
RTVSPost2010Prop30
280
     1
102
RTVSPost2010PropOp30
 70
     1
102
RTVSPost2010Prop31
280
     0
102
RTVSPost2010PropOp31
 70
     1
102
RTVSPost2010Prop32
280
     0
102
RTVSPost2010PropOp32
 70
     1
102
RTVSPost2010Prop33
280
     0
102
RTVSPost2010PropOp33
 70
     1
102
RTVSPost2010Prop34
280
     0
102
RTVSPost2010PropOp34
 70
     1
102
RTVSPost2010Prop35
280
     0
102
RTVSPost2010PropOp35
 70
     1
102
RTVSPost2010Prop36
280
     0
102
RTVSPost2010PropOp36
 70
     1
102
RTVSPost2010Prop37
 90
       50
102
RTVSPost2010PropOp37
 70
     1
102
RTVSPost2010Prop38
140
0.0
102
RTVSPost2010PropOp38
 70
     1
102
RTVSPost2010Prop39
140
1.0
102
RTVSPost2010PropOp39
 70
     1
102
RTVSPost2010Prop40
 90
        0
102
RTVSPost2010PropOp40
 70
     1
102
RTVSPost2010Prop41ColorIndex
 90
       18
102
RTVSPost2010Prop41ColorRGB
 90
        0
102
RTVSPost2010PropOp41
 70
     1
102
RTVSPost2010Prop42
 90
       50
102
RTVSPost2010PropOp42
 70
     1
102
RTVSPost2010Prop43
 90
        3
102
RTVSPost2010PropOp43
 70
     1
102
RTVSPost2010Prop44ColorIndex
 90
        5
102
RTVSPost2010Prop44ColorRGB
 90
      255
102
RTVSPost2010PropOp44
 70
     1
102
RTVSPost2010Prop45
280
     0
102
RTVSPost2010PropOp45
 70
     1
102
RTVSPost2010Prop46
 90
       50
102
RTVSPost2010PropOp46
 70
     1
102
RTVSPost2010Prop47
 90
       50
102
RTVSPost2010PropOp47
 70
     1
102
RTVSPost2010Prop48
 90
       50
102
RTVSPost2010PropOp48
 70
     1
102
RTVSPost2010Prop49
280
     0
102
RTVSPost2010PropOp49
 70
     1
102
RTVSPost2010Prop50
 90
       50
102
RTVSPost2010PropOp50
 70
     1
102
RTVSPost2010Prop51ColorIndex
 90
      256
102
RTVSPost2010Prop51ColorRGB
 90
-16777216
102
RTVSPost2010PropOp51
 70
     0
102
RTVSPost2010Prop52
140
1.0
102
RTVSPost2010PropOp52
 70
     0
102
RTVSPost2010Prop53
 90
        2
102
RTVSPost2010PropOp53
 70
     1
102
RTVSPost2010Prop54
  1
strokes_ogs.tif
102
RTVSPost2010PropOp54
 70
     1
102
RTVSPost2010Prop55
280
     0
102
RTVSPost2010PropOp55
 70
     1
102
RTVSPost2010Prop56
140
1.0
102
RTVSPost2010PropOp56
 70
     1
102
RTVSPost2010Prop57
140
1.0
102
RTVSPost2010PropOp57
 70
     1
102
RTVSPropertyOp0
 70
     1
102
RTVSPropertyOp1
 70
     1
102
RTVSPropertyOp2
 70
     1
102
RTVSPropertyOp3
 70
     1
102
RTVSPropertyOp4
 70
     1
102
RTVSPropertyOp5
 70
     1
102
RTVSPropertyOp6
 70
     1
102
RTVSPropertyOp7
 70
     1
102
RTVSPropertyOp8
 70
     1
102
RTVSPropertyOp9
 70
     1
102
RTVSPropertyOp10
 70
     1
102
RTVSPropertyOp11
 70
     1
102
RTVSPropertyOp12
 70
     1
102
RTVSPropertyOp13
 70
     1
102
RTVSPropertyOp14
 70
     1
102
RTVSPropertyOp15
 70
     1
102
RTVSPropertyOp16
 70
     1
102
RTVSPropertyOp17
 70
     1
102
RTVSPropertyOp18
 70
     1
102
RTVSPropertyOp19
 70
     1
102
RTVSPropertyOp20
 70
     1
102
RTVSPropertyOp21
 70
     1
102
RTVSPropertyOp22
 70
     1
102
RTVSPropertyOp23
 70
     1
102
RTVSPropertyOp24
 70
     1
102
RTVSPropertyOp25
 70
     1
102
RTVSPropertyOp26
 70
     1
102
RTVSPropertyOp27
 70
     1
102
RTVSPropertyOp28
 70
     1
102
RTVSPropertyOp29
 70
     1
102
RTVSPropertyOp30
 70
     1
102
RTVSPropertyOp31
 70
     1
102
RTVSPropertyOp32
 70
     1
102
RTVSPropertyOp33
 70
     1
102
RTVSPropertyOp34
 70
     1
102
RTVSPropertyOp35
 70
     1
102
RTVSPropertyOp36
 70
     1
102
RTVSPropertyOp37
 70
     1
102
RTVSPropertyOp38
 70
     1
102
RTVSPropertyOp39
 70
     1
102
RTVSPropertyOp40
 70
     1
102
RTVSPropertyOp41
 70
     1
102
RTVSPropertyOp42
 70
     1
102
RTVSPropertyOp43
 70
     1
102
RTVSPropertyOp44
 70
     1
102
RTVSPropertyOp45
 70
     1
102
RTVSPropertyOp46
 70
     1
102
RTVSPropertyOp47
 70
     1
102
RTVSPropertyOp48
 70
     1
102
RTVSPropertyOp49
 70
     1
102
RTVSPropertyOp50
 70
     1
102
RTVSPropertyOp51
 70
     0
102
RTVSPropertyOp52
 70
     0
102
RTVSPropertyOp53
 70
     1
102
RTVSPropertyOp54
 70
     1
102
RTVSPropertyOp55
 70
     1
102
RTVSPropertyOp56
 70
     1
102
RTVSPropertyOp57
 70
     1
102
RTVSPropertyOp58
 70
     1
102
RTVSPropertyOp59
 70
     1
102
RTVSPropertyOp60
 70
     1
102
RTVSPropertyOp61
 70
     1
102
RTVSPropertyOp62
 70
     1
  0
XRECORD
  5
B72F
102
{ACAD_REACTORS
330
B72E
102
}
330
B72E
100
AcDbXrecord
280
     1
102
RTVSPost2010Prop28
280
     0
102
RTVSPost2010PropOp28
 70
     1
102
RTVSPost2010Prop29
280
     1
102
RTVSPost2010PropOp29
 70
     1
102
RTVSPost2010Prop30
280
     1
102
RTVSPost2010PropOp30
 70
     1
102
RTVSPost2010Prop31
280
     0
102
RTVSPost2010PropOp31
 70
     1
102
RTVSPost2010Prop32
280
     0
102
RTVSPost2010PropOp32
 70
     1
102
RTVSPost2010Prop33
280
     0
102
RTVSPost2010PropOp33
 70
     1
102
RTVSPost2010Prop34
280
     0
102
RTVSPost2010PropOp34
 70
     1
102
RTVSPost2010Prop35
280
     0
102
RTVSPost2010PropOp35
 70
     1
102
RTVSPost2010Prop36
280
     0
102
RTVSPost2010PropOp36
 70
     1
102
RTVSPost2010Prop37
 90
       50
102
RTVSPost2010PropOp37
 70
     0
102
RTVSPost2010Prop38
140
0.0
102
RTVSPost2010PropOp38
 70
     0
102
RTVSPost2010Prop39
140
1.0
102
RTVSPost2010PropOp39
 70
     0
102
RTVSPost2010Prop40
 90
        0
102
RTVSPost2010PropOp40
 70
     0
102
RTVSPost2010Prop41ColorIndex
 90
       18
102
RTVSPost2010Prop41ColorRGB
 90
        0
102
RTVSPost2010PropOp41
 70
     0
102
RTVSPost2010Prop42
 90
       50
102
RTVSPost2010PropOp42
 70
     0
102
RTVSPost2010Prop43
 90
        3
102
RTVSPost2010PropOp43
 70
     0
102
RTVSPost2010Prop44ColorIndex
 90
        5
102
RTVSPost2010Prop44ColorRGB
 90
      255
102
RTVSPost2010PropOp44
 70
     0
102
RTVSPost2010Prop45
280
     0
102
RTVSPost2010PropOp45
 70
     1
102
RTVSPost2010Prop46
 90
       50
102
RTVSPost2010PropOp46
 70
     0
102
RTVSPost2010Prop47
 90
       50
102
RTVSPost2010PropOp47
 70
     0
102
RTVSPost2010Prop48
 90
       50
102
RTVSPost2010PropOp48
 70
     0
102
RTVSPost2010Prop49
280
     0
102
RTVSPost2010PropOp49
 70
     1
102
RTVSPost2010Prop50
 90
       50
102
RTVSPost2010PropOp50
 70
     0
102
RTVSPost2010Prop51ColorIndex
 90
      256
102
RTVSPost2010Prop51ColorRGB
 90
-16777216
102
RTVSPost2010PropOp51
 70
     0
102
RTVSPost2010Prop52
140
1.0
102
RTVSPost2010PropOp52
 70
     0
102
RTVSPost2010Prop53
 90
        2
102
RTVSPost2010PropOp53
 70
     0
102
RTVSPost2010Prop54
  1
strokes_ogs.tif
102
RTVSPost2010PropOp54
 70
     0
102
RTVSPost2010Prop55
280
     0
102
RTVSPost2010PropOp55
 70
     1
102
RTVSPost2010Prop56
140
1.0
102
RTVSPost2010PropOp56
 70
     0
102
RTVSPost2010Prop57
140
1.0
102
RTVSPost2010PropOp57
 70
     0
102
RTVSPropertyOp0
 70
     0
102
RTVSPropertyOp1
 70
     0
102
RTVSPropertyOp2
 70
     0
102
RTVSPropertyOp3
 70
     0
102
RTVSPropertyOp4
 70
     0
102
RTVSPropertyOp5
 70
     0
102
RTVSPropertyOp6
 70
     0
102
RTVSPropertyOp7
 70
     0
102
RTVSPropertyOp8
 70
     0
102
RTVSPropertyOp9
 70
     0
102
RTVSPropertyOp10
 70
     0
102
RTVSPropertyOp11
 70
     0
102
RTVSPropertyOp12
 70
     0
102
RTVSPropertyOp13
 70
     0
102
RTVSPropertyOp14
 70
     2
102
RTVSPropertyOp15
 70
     0
102
RTVSPropertyOp16
 70
     0
102
RTVSPropertyOp17
 70
     0
102
RTVSPropertyOp18
 70
     0
102
RTVSPropertyOp19
 70
     0
102
RTVSPropertyOp20
 70
     0
102
RTVSPropertyOp21
 70
     0
102
RTVSPropertyOp22
 70
     0
102
RTVSPropertyOp23
 70
     0
102
RTVSPropertyOp24
 70
     0
102
RTVSPropertyOp25
 70
     0
102
RTVSPropertyOp26
 70
     0
102
RTVSPropertyOp27
 70
     0
102
RTVSPropertyOp28
 70
     1
102
RTVSPropertyOp29
 70
     1
102
RTVSPropertyOp30
 70
     1
102
RTVSPropertyOp31
 70
     1
102
RTVSPropertyOp32
 70
     1
102
RTVSPropertyOp33
 70
     1
102
RTVSPropertyOp34
 70
     1
102
RTVSPropertyOp35
 70
     1
102
RTVSPropertyOp36
 70
     1
102
RTVSPropertyOp37
 70
     0
102
RTVSPropertyOp38
 70
     0
102
RTVSPropertyOp39
 70
     0
102
RTVSPropertyOp40
 70
     0
102
RTVSPropertyOp41
 70
     0
102
RTVSPropertyOp42
 70
     0
102
RTVSPropertyOp43
 70
     0
102
RTVSPropertyOp44
 70
     0
102
RTVSPropertyOp45
 70
     1
102
RTVSPropertyOp46
 70
     0
102
RTVSPropertyOp47
 70
     0
102
RTVSPropertyOp48
 70
     0
102
RTVSPropertyOp49
 70
     1
102
RTVSPropertyOp50
 70
     0
102
RTVSPropertyOp51
 70
     0
102
RTVSPropertyOp52
 70
     0
102
RTVSPropertyOp53
 70
     0
102
RTVSPropertyOp54
 70
     0
102
RTVSPropertyOp55
 70
     1
102
RTVSPropertyOp56
 70
     0
102
RTVSPropertyOp57
 70
     0
102
RTVSPropertyOp58
 70
     0
102
RTVSPropertyOp59
 70
     0
102
RTVSPropertyOp60
 70
     0
102
RTVSPropertyOp61
 70
     0
102
RTVSPropertyOp62
 70
     0
  0
XRECORD
  5
B715
102
{ACAD_REACTORS
330
B714
102
}
330
B714
100
AcDbXrecord
280
     1
102
RTVSPost2010Prop28
280
     0
102
RTVSPost2010PropOp28
 70
     1
102
RTVSPost2010Prop29
280
     1
102
RTVSPost2010PropOp29
 70
     1
102
RTVSPost2010Prop30
280
     1
102
RTVSPost2010PropOp30
 70
     1
102
RTVSPost2010Prop31
280
     0
102
RTVSPost2010PropOp31
 70
     1
102
RTVSPost2010Prop32
280
     0
102
RTVSPost2010PropOp32
 70
     1
102
RTVSPost2010Prop33
280
     0
102
RTVSPost2010PropOp33
 70
     1
102
RTVSPost2010Prop34
280
     0
102
RTVSPost2010PropOp34
 70
     1
102
RTVSPost2010Prop35
280
     0
102
RTVSPost2010PropOp35
 70
     1
102
RTVSPost2010Prop36
280
     0
102
RTVSPost2010PropOp36
 70
     1
102
RTVSPost2010Prop37
 90
       50
102
RTVSPost2010PropOp37
 70
     1
102
RTVSPost2010Prop38
140
0.0
102
RTVSPost2010PropOp38
 70
     1
102
RTVSPost2010Prop39
140
1.0
102
RTVSPost2010PropOp39
 70
     1
102
RTVSPost2010Prop40
 90
        0
102
RTVSPost2010PropOp40
 70
     1
102
RTVSPost2010Prop41ColorIndex
 90
       18
102
RTVSPost2010Prop41ColorRGB
 90
        0
102
RTVSPost2010PropOp41
 70
     1
102
RTVSPost2010Prop42
 90
       50
102
RTVSPost2010PropOp42
 70
     1
102
RTVSPost2010Prop43
 90
        3
102
RTVSPost2010PropOp43
 70
     1
102
RTVSPost2010Prop44ColorIndex
 90
        5
102
RTVSPost2010Prop44ColorRGB
 90
      255
102
RTVSPost2010PropOp44
 70
     1
102
RTVSPost2010Prop45
280
     0
102
RTVSPost2010PropOp45
 70
     1
102
RTVSPost2010Prop46
 90
       50
102
RTVSPost2010PropOp46
 70
     1
102
RTVSPost2010Prop47
 90
       50
102
RTVSPost2010PropOp47
 70
     1
102
RTVSPost2010Prop48
 90
       50
102
RTVSPost2010PropOp48
 70
     1
102
RTVSPost2010Prop49
280
     0
102
RTVSPost2010PropOp49
 70
     1
102
RTVSPost2010Prop50
 90
       50
102
RTVSPost2010PropOp50
 70
     1
102
RTVSPost2010Prop51ColorIndex
 90
      256
102
RTVSPost2010Prop51ColorRGB
 90
-16777216
102
RTVSPost2010PropOp51
 70
     0
102
RTVSPost2010Prop52
140
1.0
102
RTVSPost2010PropOp52
 70
     0
102
RTVSPost2010Prop53
 90
        2
102
RTVSPost2010PropOp53
 70
     1
102
RTVSPost2010Prop54
  1
strokes_ogs.tif
102
RTVSPost2010PropOp54
 70
     1
102
RTVSPost2010Prop55
280
     0
102
RTVSPost2010PropOp55
 70
     1
102
RTVSPost2010Prop56
140
1.0
102
RTVSPost2010PropOp56
 70
     1
102
RTVSPost2010Prop57
140
1.0
102
RTVSPost2010PropOp57
 70
     1
102
RTVSPropertyOp0
 70
     1
102
RTVSPropertyOp1
 70
     1
102
RTVSPropertyOp2
 70
     1
102
RTVSPropertyOp3
 70
     1
102
RTVSPropertyOp4
 70
     1
102
RTVSPropertyOp5
 70
     1
102
RTVSPropertyOp6
 70
     1
102
RTVSPropertyOp7
 70
     1
102
RTVSPropertyOp8
 70
     1
102
RTVSPropertyOp9
 70
     1
102
RTVSPropertyOp10
 70
     1
102
RTVSPropertyOp11
 70
     1
102
RTVSPropertyOp12
 70
     1
102
RTVSPropertyOp13
 70
     1
102
RTVSPropertyOp14
 70
     1
102
RTVSPropertyOp15
 70
     1
102
RTVSPropertyOp16
 70
     1
102
RTVSPropertyOp17
 70
     1
102
RTVSPropertyOp18
 70
     1
102
RTVSPropertyOp19
 70
     1
102
RTVSPropertyOp20
 70
     1
102
RTVSPropertyOp21
 70
     1
102
RTVSPropertyOp22
 70
     1
102
RTVSPropertyOp23
 70
     1
102
RTVSPropertyOp24
 70
     1
102
RTVSPropertyOp25
 70
     1
102
RTVSPropertyOp26
 70
     1
102
RTVSPropertyOp27
 70
     1
102
RTVSPropertyOp28
 70
     1
102
RTVSPropertyOp29
 70
     1
102
RTVSPropertyOp30
 70
     1
102
RTVSPropertyOp31
 70
     1
102
RTVSPropertyOp32
 70
     1
102
RTVSPropertyOp33
 70
     1
102
RTVSPropertyOp34
 70
     1
102
RTVSPropertyOp35
 70
     1
102
RTVSPropertyOp36
 70
     1
102
RTVSPropertyOp37
 70
     1
102
RTVSPropertyOp38
 70
     1
102
RTVSPropertyOp39
 70
     1
102
RTVSPropertyOp40
 70
     1
102
RTVSPropertyOp41
 70
     1
102
RTVSPropertyOp42
 70
     1
102
RTVSPropertyOp43
 70
     1
102
RTVSPropertyOp44
 70
     1
102
RTVSPropertyOp45
 70
     1
102
RTVSPropertyOp46
 70
     1
102
RTVSPropertyOp47
 70
     1
102
RTVSPropertyOp48
 70
     1
102
RTVSPropertyOp49
 70
     1
102
RTVSPropertyOp50
 70
     1
102
RTVSPropertyOp51
 70
     0
102
RTVSPropertyOp52
 70
     0
102
RTVSPropertyOp53
 70
     1
102
RTVSPropertyOp54
 70
     1
102
RTVSPropertyOp55
 70
     1
102
RTVSPropertyOp56
 70
     1
102
RTVSPropertyOp57
 70
     1
102
RTVSPropertyOp58
 70
     1
102
RTVSPropertyOp59
 70
     1
102
RTVSPropertyOp60
 70
     1
102
RTVSPropertyOp61
 70
     1
102
RTVSPropertyOp62
 70
     1
  0
XRECORD
  5
B72B
102
{ACAD_REACTORS
330
B72A
102
}
330
B72A
100
AcDbXrecord
280
     1
102
RTVSPost2010Prop28
280
     0
102
RTVSPost2010PropOp28
 70
     1
102
RTVSPost2010Prop29
280
     1
102
RTVSPost2010PropOp29
 70
     1
102
RTVSPost2010Prop30
280
     1
102
RTVSPost2010PropOp30
 70
     1
102
RTVSPost2010Prop31
280
     0
102
RTVSPost2010PropOp31
 70
     1
102
RTVSPost2010Prop32
280
     0
102
RTVSPost2010PropOp32
 70
     1
102
RTVSPost2010Prop33
280
     0
102
RTVSPost2010PropOp33
 70
     1
102
RTVSPost2010Prop34
280
     0
102
RTVSPost2010PropOp34
 70
     1
102
RTVSPost2010Prop35
280
     0
102
RTVSPost2010PropOp35
 70
     1
102
RTVSPost2010Prop36
280
     0
102
RTVSPost2010PropOp36
 70
     1
102
RTVSPost2010Prop37
 90
       50
102
RTVSPost2010PropOp37
 70
     1
102
RTVSPost2010Prop38
140
0.0
102
RTVSPost2010PropOp38
 70
     1
102
RTVSPost2010Prop39
140
1.0
102
RTVSPost2010PropOp39
 70
     1
102
RTVSPost2010Prop40
 90
        0
102
RTVSPost2010PropOp40
 70
     1
102
RTVSPost2010Prop41ColorIndex
 90
       18
102
RTVSPost2010Prop41ColorRGB
 90
        0
102
RTVSPost2010PropOp41
 70
     1
102
RTVSPost2010Prop42
 90
       50
102
RTVSPost2010PropOp42
 70
     1
102
RTVSPost2010Prop43
 90
        3
102
RTVSPost2010PropOp43
 70
     1
102
RTVSPost2010Prop44ColorIndex
 90
        5
102
RTVSPost2010Prop44ColorRGB
 90
      255
102
RTVSPost2010PropOp44
 70
     1
102
RTVSPost2010Prop45
280
     0
102
RTVSPost2010PropOp45
 70
     1
102
RTVSPost2010Prop46
 90
       50
102
RTVSPost2010PropOp46
 70
     1
102
RTVSPost2010Prop47
 90
       50
102
RTVSPost2010PropOp47
 70
     1
102
RTVSPost2010Prop48
 90
       50
102
RTVSPost2010PropOp48
 70
     1
102
RTVSPost2010Prop49
280
     0
102
RTVSPost2010PropOp49
 70
     1
102
RTVSPost2010Prop50
 90
       50
102
RTVSPost2010PropOp50
 70
     1
102
RTVSPost2010Prop51ColorIndex
 90
      256
102
RTVSPost2010Prop51ColorRGB
 90
-16777216
102
RTVSPost2010PropOp51
 70
     0
102
RTVSPost2010Prop52
140
1.0
102
RTVSPost2010PropOp52
 70
     0
102
RTVSPost2010Prop53
 90
        2
102
RTVSPost2010PropOp53
 70
     1
102
RTVSPost2010Prop54
  1
strokes_ogs.tif
102
RTVSPost2010PropOp54
 70
     1
102
RTVSPost2010Prop55
280
     0
102
RTVSPost2010PropOp55
 70
     1
102
RTVSPost2010Prop56
140
1.0
102
RTVSPost2010PropOp56
 70
     1
102
RTVSPost2010Prop57
140
1.0
102
RTVSPost2010PropOp57
 70
     1
102
RTVSPropertyOp0
 70
     1
102
RTVSPropertyOp1
 70
     1
102
RTVSPropertyOp2
 70
     1
102
RTVSPropertyOp3
 70
     1
102
RTVSPropertyOp4
 70
     1
102
RTVSPropertyOp5
 70
     1
102
RTVSPropertyOp6
 70
     1
102
RTVSPropertyOp7
 70
     1
102
RTVSPropertyOp8
 70
     1
102
RTVSPropertyOp9
 70
     1
102
RTVSPropertyOp10
 70
     1
102
RTVSPropertyOp11
 70
     1
102
RTVSPropertyOp12
 70
     1
102
RTVSPropertyOp13
 70
     1
102
RTVSPropertyOp14
 70
     1
102
RTVSPropertyOp15
 70
     1
102
RTVSPropertyOp16
 70
     1
102
RTVSPropertyOp17
 70
     1
102
RTVSPropertyOp18
 70
     1
102
RTVSPropertyOp19
 70
     1
102
RTVSPropertyOp20
 70
     1
102
RTVSPropertyOp21
 70
     1
102
RTVSPropertyOp22
 70
     1
102
RTVSPropertyOp23
 70
     1
102
RTVSPropertyOp24
 70
     1
102
RTVSPropertyOp25
 70
     1
102
RTVSPropertyOp26
 70
     1
102
RTVSPropertyOp27
 70
     1
102
RTVSPropertyOp28
 70
     1
102
RTVSPropertyOp29
 70
     1
102
RTVSPropertyOp30
 70
     1
102
RTVSPropertyOp31
 70
     1
102
RTVSPropertyOp32
 70
     1
102
RTVSPropertyOp33
 70
     1
102
RTVSPropertyOp34
 70
     1
102
RTVSPropertyOp35
 70
     1
102
RTVSPropertyOp36
 70
     1
102
RTVSPropertyOp37
 70
     1
102
RTVSPropertyOp38
 70
     1
102
RTVSPropertyOp39
 70
     1
102
RTVSPropertyOp40
 70
     1
102
RTVSPropertyOp41
 70
     1
102
RTVSPropertyOp42
 70
     1
102
RTVSPropertyOp43
 70
     1
102
RTVSPropertyOp44
 70
     1
102
RTVSPropertyOp45
 70
     1
102
RTVSPropertyOp46
 70
     1
102
RTVSPropertyOp47
 70
     1
102
RTVSPropertyOp48
 70
     1
102
RTVSPropertyOp49
 70
     1
102
RTVSPropertyOp50
 70
     1
102
RTVSPropertyOp51
 70
     0
102
RTVSPropertyOp52
 70
     0
102
RTVSPropertyOp53
 70
     1
102
RTVSPropertyOp54
 70
     1
102
RTVSPropertyOp55
 70
     1
102
RTVSPropertyOp56
 70
     1
102
RTVSPropertyOp57
 70
     1
102
RTVSPropertyOp58
 70
     1
102
RTVSPropertyOp59
 70
     1
102
RTVSPropertyOp60
 70
     1
102
RTVSPropertyOp61
 70
     1
102
RTVSPropertyOp62
 70
     1
  0
XRECORD
  5
B729
102
{ACAD_REACTORS
330
B728
102
}
330
B728
100
AcDbXrecord
280
     1
102
RTVSPost2010Prop28
280
     0
102
RTVSPost2010PropOp28
 70
     1
102
RTVSPost2010Prop29
280
     1
102
RTVSPost2010PropOp29
 70
     1
102
RTVSPost2010Prop30
280
     1
102
RTVSPost2010PropOp30
 70
     1
102
RTVSPost2010Prop31
280
     0
102
RTVSPost2010PropOp31
 70
     1
102
RTVSPost2010Prop32
280
     0
102
RTVSPost2010PropOp32
 70
     1
102
RTVSPost2010Prop33
280
     0
102
RTVSPost2010PropOp33
 70
     1
102
RTVSPost2010Prop34
280
     0
102
RTVSPost2010PropOp34
 70
     1
102
RTVSPost2010Prop35
280
     0
102
RTVSPost2010PropOp35
 70
     1
102
RTVSPost2010Prop36
280
     0
102
RTVSPost2010PropOp36
 70
     1
102
RTVSPost2010Prop37
 90
       50
102
RTVSPost2010PropOp37
 70
     1
102
RTVSPost2010Prop38
140
0.0
102
RTVSPost2010PropOp38
 70
     1
102
RTVSPost2010Prop39
140
1.0
102
RTVSPost2010PropOp39
 70
     1
102
RTVSPost2010Prop40
 90
        0
102
RTVSPost2010PropOp40
 70
     1
102
RTVSPost2010Prop41ColorIndex
 90
       18
102
RTVSPost2010Prop41ColorRGB
 90
        0
102
RTVSPost2010PropOp41
 70
     1
102
RTVSPost2010Prop42
 90
       50
102
RTVSPost2010PropOp42
 70
     1
102
RTVSPost2010Prop43
 90
        3
102
RTVSPost2010PropOp43
 70
     1
102
RTVSPost2010Prop44ColorIndex
 90
        5
102
RTVSPost2010Prop44ColorRGB
 90
      255
102
RTVSPost2010PropOp44
 70
     1
102
RTVSPost2010Prop45
280
     0
102
RTVSPost2010PropOp45
 70
     1
102
RTVSPost2010Prop46
 90
       50
102
RTVSPost2010PropOp46
 70
     1
102
RTVSPost2010Prop47
 90
       50
102
RTVSPost2010PropOp47
 70
     1
102
RTVSPost2010Prop48
 90
       50
102
RTVSPost2010PropOp48
 70
     1
102
RTVSPost2010Prop49
280
     0
102
RTVSPost2010PropOp49
 70
     1
102
RTVSPost2010Prop50
 90
       50
102
RTVSPost2010PropOp50
 70
     1
102
RTVSPost2010Prop51ColorIndex
 90
      256
102
RTVSPost2010Prop51ColorRGB
 90
-16777216
102
RTVSPost2010PropOp51
 70
     0
102
RTVSPost2010Prop52
140
1.0
102
RTVSPost2010PropOp52
 70
     0
102
RTVSPost2010Prop53
 90
        2
102
RTVSPost2010PropOp53
 70
     1
102
RTVSPost2010Prop54
  1
strokes_ogs.tif
102
RTVSPost2010PropOp54
 70
     1
102
RTVSPost2010Prop55
280
     0
102
RTVSPost2010PropOp55
 70
     1
102
RTVSPost2010Prop56
140
1.0
102
RTVSPost2010PropOp56
 70
     1
102
RTVSPost2010Prop57
140
1.0
102
RTVSPost2010PropOp57
 70
     1
102
RTVSPropertyOp0
 70
     1
102
RTVSPropertyOp1
 70
     1
102
RTVSPropertyOp2
 70
     1
102
RTVSPropertyOp3
 70
     1
102
RTVSPropertyOp4
 70
     1
102
RTVSPropertyOp5
 70
     1
102
RTVSPropertyOp6
 70
     1
102
RTVSPropertyOp7
 70
     1
102
RTVSPropertyOp8
 70
     1
102
RTVSPropertyOp9
 70
     1
102
RTVSPropertyOp10
 70
     1
102
RTVSPropertyOp11
 70
     1
102
RTVSPropertyOp12
 70
     1
102
RTVSPropertyOp13
 70
     1
102
RTVSPropertyOp14
 70
     1
102
RTVSPropertyOp15
 70
     1
102
RTVSPropertyOp16
 70
     1
102
RTVSPropertyOp17
 70
     1
102
RTVSPropertyOp18
 70
     1
102
RTVSPropertyOp19
 70
     1
102
RTVSPropertyOp20
 70
     1
102
RTVSPropertyOp21
 70
     1
102
RTVSPropertyOp22
 70
     1
102
RTVSPropertyOp23
 70
     1
102
RTVSPropertyOp24
 70
     1
102
RTVSPropertyOp25
 70
     1
102
RTVSPropertyOp26
 70
     1
102
RTVSPropertyOp27
 70
     1
102
RTVSPropertyOp28
 70
     1
102
RTVSPropertyOp29
 70
     1
102
RTVSPropertyOp30
 70
     1
102
RTVSPropertyOp31
 70
     1
102
RTVSPropertyOp32
 70
     1
102
RTVSPropertyOp33
 70
     1
102
RTVSPropertyOp34
 70
     1
102
RTVSPropertyOp35
 70
     1
102
RTVSPropertyOp36
 70
     1
102
RTVSPropertyOp37
 70
     1
102
RTVSPropertyOp38
 70
     1
102
RTVSPropertyOp39
 70
     1
102
RTVSPropertyOp40
 70
     1
102
RTVSPropertyOp41
 70
     1
102
RTVSPropertyOp42
 70
     1
102
RTVSPropertyOp43
 70
     1
102
RTVSPropertyOp44
 70
     1
102
RTVSPropertyOp45
 70
     1
102
RTVSPropertyOp46
 70
     1
102
RTVSPropertyOp47
 70
     1
102
RTVSPropertyOp48
 70
     1
102
RTVSPropertyOp49
 70
     1
102
RTVSPropertyOp50
 70
     1
102
RTVSPropertyOp51
 70
     0
102
RTVSPropertyOp52
 70
     0
102
RTVSPropertyOp53
 70
     1
102
RTVSPropertyOp54
 70
     1
102
RTVSPropertyOp55
 70
     1
102
RTVSPropertyOp56
 70
     1
102
RTVSPropertyOp57
 70
     1
102
RTVSPropertyOp58
 70
     1
102
RTVSPropertyOp59
 70
     1
102
RTVSPropertyOp60
 70
     1
102
RTVSPropertyOp61
 70
     1
102
RTVSPropertyOp62
 70
     1
  0
XRECORD
  5
B723
102
{ACAD_REACTORS
330
B722
102
}
330
B722
100
AcDbXrecord
280
     1
102
RTVSPost2010Prop28
280
     0
102
RTVSPost2010PropOp28
 70
     1
102
RTVSPost2010Prop29
280
     1
102
RTVSPost2010PropOp29
 70
     1
102
RTVSPost2010Prop30
280
     1
102
RTVSPost2010PropOp30
 70
     1
102
RTVSPost2010Prop31
280
     0
102
RTVSPost2010PropOp31
 70
     1
102
RTVSPost2010Prop32
280
     0
102
RTVSPost2010PropOp32
 70
     1
102
RTVSPost2010Prop33
280
     0
102
RTVSPost2010PropOp33
 70
     1
102
RTVSPost2010Prop34
280
     0
102
RTVSPost2010PropOp34
 70
     1
102
RTVSPost2010Prop35
280
     0
102
RTVSPost2010PropOp35
 70
     1
102
RTVSPost2010Prop36
280
     0
102
RTVSPost2010PropOp36
 70
     1
102
RTVSPost2010Prop37
 90
       50
102
RTVSPost2010PropOp37
 70
     1
102
RTVSPost2010Prop38
140
0.0
102
RTVSPost2010PropOp38
 70
     1
102
RTVSPost2010Prop39
140
1.0
102
RTVSPost2010PropOp39
 70
     1
102
RTVSPost2010Prop40
 90
        0
102
RTVSPost2010PropOp40
 70
     1
102
RTVSPost2010Prop41ColorIndex
 90
       18
102
RTVSPost2010Prop41ColorRGB
 90
        0
102
RTVSPost2010PropOp41
 70
     1
102
RTVSPost2010Prop42
 90
       50
102
RTVSPost2010PropOp42
 70
     1
102
RTVSPost2010Prop43
 90
        3
102
RTVSPost2010PropOp43
 70
     1
102
RTVSPost2010Prop44ColorIndex
 90
        5
102
RTVSPost2010Prop44ColorRGB
 90
      255
102
RTVSPost2010PropOp44
 70
     1
102
RTVSPost2010Prop45
280
     0
102
RTVSPost2010PropOp45
 70
     1
102
RTVSPost2010Prop46
 90
       50
102
RTVSPost2010PropOp46
 70
     1
102
RTVSPost2010Prop47
 90
       50
102
RTVSPost2010PropOp47
 70
     1
102
RTVSPost2010Prop48
 90
       50
102
RTVSPost2010PropOp48
 70
     1
102
RTVSPost2010Prop49
280
     0
102
RTVSPost2010PropOp49
 70
     1
102
RTVSPost2010Prop50
 90
       50
102
RTVSPost2010PropOp50
 70
     1
102
RTVSPost2010Prop51ColorIndex
 90
      256
102
RTVSPost2010Prop51ColorRGB
 90
-16777216
102
RTVSPost2010PropOp51
 70
     0
102
RTVSPost2010Prop52
140
1.0
102
RTVSPost2010PropOp52
 70
     0
102
RTVSPost2010Prop53
 90
        2
102
RTVSPost2010PropOp53
 70
     1
102
RTVSPost2010Prop54
  1
strokes_ogs.tif
102
RTVSPost2010PropOp54
 70
     1
102
RTVSPost2010Prop55
280
     0
102
RTVSPost2010PropOp55
 70
     1
102
RTVSPost2010Prop56
140
1.0
102
RTVSPost2010PropOp56
 70
     1
102
RTVSPost2010Prop57
140
1.0
102
RTVSPost2010PropOp57
 70
     1
102
RTVSPropertyOp0
 70
     1
102
RTVSPropertyOp1
 70
     1
102
RTVSPropertyOp2
 70
     1
102
RTVSPropertyOp3
 70
     1
102
RTVSPropertyOp4
 70
     1
102
RTVSPropertyOp5
 70
     1
102
RTVSPropertyOp6
 70
     1
102
RTVSPropertyOp7
 70
     1
102
RTVSPropertyOp8
 70
     1
102
RTVSPropertyOp9
 70
     1
102
RTVSPropertyOp10
 70
     1
102
RTVSPropertyOp11
 70
     1
102
RTVSPropertyOp12
 70
     1
102
RTVSPropertyOp13
 70
     1
102
RTVSPropertyOp14
 70
     1
102
RTVSPropertyOp15
 70
     1
102
RTVSPropertyOp16
 70
     1
102
RTVSPropertyOp17
 70
     1
102
RTVSPropertyOp18
 70
     1
102
RTVSPropertyOp19
 70
     1
102
RTVSPropertyOp20
 70
     1
102
RTVSPropertyOp21
 70
     1
102
RTVSPropertyOp22
 70
     1
102
RTVSPropertyOp23
 70
     1
102
RTVSPropertyOp24
 70
     1
102
RTVSPropertyOp25
 70
     1
102
RTVSPropertyOp26
 70
     1
102
RTVSPropertyOp27
 70
     1
102
RTVSPropertyOp28
 70
     1
102
RTVSPropertyOp29
 70
     1
102
RTVSPropertyOp30
 70
     1
102
RTVSPropertyOp31
 70
     1
102
RTVSPropertyOp32
 70
     1
102
RTVSPropertyOp33
 70
     1
102
RTVSPropertyOp34
 70
     1
102
RTVSPropertyOp35
 70
     1
102
RTVSPropertyOp36
 70
     1
102
RTVSPropertyOp37
 70
     1
102
RTVSPropertyOp38
 70
     1
102
RTVSPropertyOp39
 70
     1
102
RTVSPropertyOp40
 70
     1
102
RTVSPropertyOp41
 70
     1
102
RTVSPropertyOp42
 70
     1
102
RTVSPropertyOp43
 70
     1
102
RTVSPropertyOp44
 70
     1
102
RTVSPropertyOp45
 70
     1
102
RTVSPropertyOp46
 70
     1
102
RTVSPropertyOp47
 70
     1
102
RTVSPropertyOp48
 70
     1
102
RTVSPropertyOp49
 70
     1
102
RTVSPropertyOp50
 70
     1
102
RTVSPropertyOp51
 70
     0
102
RTVSPropertyOp52
 70
     0
102
RTVSPropertyOp53
 70
     1
102
RTVSPropertyOp54
 70
     1
102
RTVSPropertyOp55
 70
     1
102
RTVSPropertyOp56
 70
     1
102
RTVSPropertyOp57
 70
     1
102
RTVSPropertyOp58
 70
     1
102
RTVSPropertyOp59
 70
     1
102
RTVSPropertyOp60
 70
     1
102
RTVSPropertyOp61
 70
     1
102
RTVSPropertyOp62
 70
     1
  0
XRECORD
  5
B725
102
{ACAD_REACTORS
330
B724
102
}
330
B724
100
AcDbXrecord
280
     1
102
RTVSPost2010Prop28
280
     0
102
RTVSPost2010PropOp28
 70
     1
102
RTVSPost2010Prop29
280
     1
102
RTVSPost2010PropOp29
 70
     1
102
RTVSPost2010Prop30
280
     1
102
RTVSPost2010PropOp30
 70
     1
102
RTVSPost2010Prop31
280
     0
102
RTVSPost2010PropOp31
 70
     1
102
RTVSPost2010Prop32
280
     0
102
RTVSPost2010PropOp32
 70
     1
102
RTVSPost2010Prop33
280
     0
102
RTVSPost2010PropOp33
 70
     1
102
RTVSPost2010Prop34
280
     0
102
RTVSPost2010PropOp34
 70
     1
102
RTVSPost2010Prop35
280
     0
102
RTVSPost2010PropOp35
 70
     1
102
RTVSPost2010Prop36
280
     0
102
RTVSPost2010PropOp36
 70
     1
102
RTVSPost2010Prop37
 90
       50
102
RTVSPost2010PropOp37
 70
     1
102
RTVSPost2010Prop38
140
0.0
102
RTVSPost2010PropOp38
 70
     1
102
RTVSPost2010Prop39
140
1.0
102
RTVSPost2010PropOp39
 70
     1
102
RTVSPost2010Prop40
 90
        0
102
RTVSPost2010PropOp40
 70
     1
102
RTVSPost2010Prop41ColorIndex
 90
       18
102
RTVSPost2010Prop41ColorRGB
 90
        0
102
RTVSPost2010PropOp41
 70
     1
102
RTVSPost2010Prop42
 90
       50
102
RTVSPost2010PropOp42
 70
     1
102
RTVSPost2010Prop43
 90
        3
102
RTVSPost2010PropOp43
 70
     1
102
RTVSPost2010Prop44ColorIndex
 90
        5
102
RTVSPost2010Prop44ColorRGB
 90
      255
102
RTVSPost2010PropOp44
 70
     1
102
RTVSPost2010Prop45
280
     0
102
RTVSPost2010PropOp45
 70
     1
102
RTVSPost2010Prop46
 90
       50
102
RTVSPost2010PropOp46
 70
     1
102
RTVSPost2010Prop47
 90
       50
102
RTVSPost2010PropOp47
 70
     1
102
RTVSPost2010Prop48
 90
       50
102
RTVSPost2010PropOp48
 70
     1
102
RTVSPost2010Prop49
280
     0
102
RTVSPost2010PropOp49
 70
     1
102
RTVSPost2010Prop50
 90
       50
102
RTVSPost2010PropOp50
 70
     1
102
RTVSPost2010Prop51ColorIndex
 90
      256
102
RTVSPost2010Prop51ColorRGB
 90
-16777216
102
RTVSPost2010PropOp51
 70
     0
102
RTVSPost2010Prop52
140
1.0
102
RTVSPost2010PropOp52
 70
     0
102
RTVSPost2010Prop53
 90
        2
102
RTVSPost2010PropOp53
 70
     1
102
RTVSPost2010Prop54
  1
strokes_ogs.tif
102
RTVSPost2010PropOp54
 70
     1
102
RTVSPost2010Prop55
280
     0
102
RTVSPost2010PropOp55
 70
     1
102
RTVSPost2010Prop56
140
1.0
102
RTVSPost2010PropOp56
 70
     1
102
RTVSPost2010Prop57
140
1.0
102
RTVSPost2010PropOp57
 70
     1
102
RTVSPropertyOp0
 70
     1
102
RTVSPropertyOp1
 70
     1
102
RTVSPropertyOp2
 70
     1
102
RTVSPropertyOp3
 70
     1
102
RTVSPropertyOp4
 70
     1
102
RTVSPropertyOp5
 70
     1
102
RTVSPropertyOp6
 70
     1
102
RTVSPropertyOp7
 70
     1
102
RTVSPropertyOp8
 70
     1
102
RTVSPropertyOp9
 70
     1
102
RTVSPropertyOp10
 70
     1
102
RTVSPropertyOp11
 70
     1
102
RTVSPropertyOp12
 70
     1
102
RTVSPropertyOp13
 70
     1
102
RTVSPropertyOp14
 70
     1
102
RTVSPropertyOp15
 70
     1
102
RTVSPropertyOp16
 70
     1
102
RTVSPropertyOp17
 70
     1
102
RTVSPropertyOp18
 70
     1
102
RTVSPropertyOp19
 70
     1
102
RTVSPropertyOp20
 70
     1
102
RTVSPropertyOp21
 70
     1
102
RTVSPropertyOp22
 70
     1
102
RTVSPropertyOp23
 70
     1
102
RTVSPropertyOp24
 70
     1
102
RTVSPropertyOp25
 70
     1
102
RTVSPropertyOp26
 70
     1
102
RTVSPropertyOp27
 70
     1
102
RTVSPropertyOp28
 70
     1
102
RTVSPropertyOp29
 70
     1
102
RTVSPropertyOp30
 70
     1
102
RTVSPropertyOp31
 70
     1
102
RTVSPropertyOp32
 70
     1
102
RTVSPropertyOp33
 70
     1
102
RTVSPropertyOp34
 70
     1
102
RTVSPropertyOp35
 70
     1
102
RTVSPropertyOp36
 70
     1
102
RTVSPropertyOp37
 70
     1
102
RTVSPropertyOp38
 70
     1
102
RTVSPropertyOp39
 70
     1
102
RTVSPropertyOp40
 70
     1
102
RTVSPropertyOp41
 70
     1
102
RTVSPropertyOp42
 70
     1
102
RTVSPropertyOp43
 70
     1
102
RTVSPropertyOp44
 70
     1
102
RTVSPropertyOp45
 70
     1
102
RTVSPropertyOp46
 70
     1
102
RTVSPropertyOp47
 70
     1
102
RTVSPropertyOp48
 70
     1
102
RTVSPropertyOp49
 70
     1
102
RTVSPropertyOp50
 70
     1
102
RTVSPropertyOp51
 70
     0
102
RTVSPropertyOp52
 70
     0
102
RTVSPropertyOp53
 70
     1
102
RTVSPropertyOp54
 70
     1
102
RTVSPropertyOp55
 70
     1
102
RTVSPropertyOp56
 70
     1
102
RTVSPropertyOp57
 70
     1
102
RTVSPropertyOp58
 70
     1
102
RTVSPropertyOp59
 70
     1
102
RTVSPropertyOp60
 70
     1
102
RTVSPropertyOp61
 70
     1
102
RTVSPropertyOp62
 70
     1
  0
XRECORD
  5
B71B
102
{ACAD_REACTORS
330
B71A
102
}
330
B71A
100
AcDbXrecord
280
     1
102
RTVSPost2010Prop28
280
     0
102
RTVSPost2010PropOp28
 70
     1
102
RTVSPost2010Prop29
280
     1
102
RTVSPost2010PropOp29
 70
     1
102
RTVSPost2010Prop30
280
     1
102
RTVSPost2010PropOp30
 70
     1
102
RTVSPost2010Prop31
280
     0
102
RTVSPost2010PropOp31
 70
     1
102
RTVSPost2010Prop32
280
     0
102
RTVSPost2010PropOp32
 70
     1
102
RTVSPost2010Prop33
280
     0
102
RTVSPost2010PropOp33
 70
     1
102
RTVSPost2010Prop34
280
     0
102
RTVSPost2010PropOp34
 70
     1
102
RTVSPost2010Prop35
280
     0
102
RTVSPost2010PropOp35
 70
     1
102
RTVSPost2010Prop36
280
     0
102
RTVSPost2010PropOp36
 70
     1
102
RTVSPost2010Prop37
 90
       50
102
RTVSPost2010PropOp37
 70
     1
102
RTVSPost2010Prop38
140
0.0
102
RTVSPost2010PropOp38
 70
     1
102
RTVSPost2010Prop39
140
1.0
102
RTVSPost2010PropOp39
 70
     1
102
RTVSPost2010Prop40
 90
        0
102
RTVSPost2010PropOp40
 70
     1
102
RTVSPost2010Prop41ColorIndex
 90
       18
102
RTVSPost2010Prop41ColorRGB
 90
        0
102
RTVSPost2010PropOp41
 70
     1
102
RTVSPost2010Prop42
 90
       50
102
RTVSPost2010PropOp42
 70
     1
102
RTVSPost2010Prop43
 90
        3
102
RTVSPost2010PropOp43
 70
     1
102
RTVSPost2010Prop44ColorIndex
 90
        5
102
RTVSPost2010Prop44ColorRGB
 90
      255
102
RTVSPost2010PropOp44
 70
     1
102
RTVSPost2010Prop45
280
     0
102
RTVSPost2010PropOp45
 70
     1
102
RTVSPost2010Prop46
 90
       50
102
RTVSPost2010PropOp46
 70
     1
102
RTVSPost2010Prop47
 90
       50
102
RTVSPost2010PropOp47
 70
     1
102
RTVSPost2010Prop48
 90
       50
102
RTVSPost2010PropOp48
 70
     1
102
RTVSPost2010Prop49
280
     0
102
RTVSPost2010PropOp49
 70
     1
102
RTVSPost2010Prop50
 90
       50
102
RTVSPost2010PropOp50
 70
     1
102
RTVSPost2010Prop51ColorIndex
 90
      256
102
RTVSPost2010Prop51ColorRGB
 90
-16777216
102
RTVSPost2010PropOp51
 70
     0
102
RTVSPost2010Prop52
140
1.0
102
RTVSPost2010PropOp52
 70
     0
102
RTVSPost2010Prop53
 90
        2
102
RTVSPost2010PropOp53
 70
     1
102
RTVSPost2010Prop54
  1
strokes_ogs.tif
102
RTVSPost2010PropOp54
 70
     1
102
RTVSPost2010Prop55
280
     0
102
RTVSPost2010PropOp55
 70
     1
102
RTVSPost2010Prop56
140
1.0
102
RTVSPost2010PropOp56
 70
     1
102
RTVSPost2010Prop57
140
1.0
102
RTVSPost2010PropOp57
 70
     1
102
RTVSPropertyOp0
 70
     1
102
RTVSPropertyOp1
 70
     1
102
RTVSPropertyOp2
 70
     1
102
RTVSPropertyOp3
 70
     1
102
RTVSPropertyOp4
 70
     1
102
RTVSPropertyOp5
 70
     1
102
RTVSPropertyOp6
 70
     1
102
RTVSPropertyOp7
 70
     1
102
RTVSPropertyOp8
 70
     1
102
RTVSPropertyOp9
 70
     1
102
RTVSPropertyOp10
 70
     1
102
RTVSPropertyOp11
 70
     1
102
RTVSPropertyOp12
 70
     1
102
RTVSPropertyOp13
 70
     1
102
RTVSPropertyOp14
 70
     1
102
RTVSPropertyOp15
 70
     1
102
RTVSPropertyOp16
 70
     1
102
RTVSPropertyOp17
 70
     1
102
RTVSPropertyOp18
 70
     1
102
RTVSPropertyOp19
 70
     1
102
RTVSPropertyOp20
 70
     1
102
RTVSPropertyOp21
 70
     1
102
RTVSPropertyOp22
 70
     1
102
RTVSPropertyOp23
 70
     1
102
RTVSPropertyOp24
 70
     1
102
RTVSPropertyOp25
 70
     1
102
RTVSPropertyOp26
 70
     1
102
RTVSPropertyOp27
 70
     1
102
RTVSPropertyOp28
 70
     1
102
RTVSPropertyOp29
 70
     1
102
RTVSPropertyOp30
 70
     1
102
RTVSPropertyOp31
 70
     1
102
RTVSPropertyOp32
 70
     1
102
RTVSPropertyOp33
 70
     1
102
RTVSPropertyOp34
 70
     1
102
RTVSPropertyOp35
 70
     1
102
RTVSPropertyOp36
 70
     1
102
RTVSPropertyOp37
 70
     1
102
RTVSPropertyOp38
 70
     1
102
RTVSPropertyOp39
 70
     1
102
RTVSPropertyOp40
 70
     1
102
RTVSPropertyOp41
 70
     1
102
RTVSPropertyOp42
 70
     1
102
RTVSPropertyOp43
 70
     1
102
RTVSPropertyOp44
 70
     1
102
RTVSPropertyOp45
 70
     1
102
RTVSPropertyOp46
 70
     1
102
RTVSPropertyOp47
 70
     1
102
RTVSPropertyOp48
 70
     1
102
RTVSPropertyOp49
 70
     1
102
RTVSPropertyOp50
 70
     1
102
RTVSPropertyOp51
 70
     0
102
RTVSPropertyOp52
 70
     0
102
RTVSPropertyOp53
 70
     1
102
RTVSPropertyOp54
 70
     1
102
RTVSPropertyOp55
 70
     1
102
RTVSPropertyOp56
 70
     1
102
RTVSPropertyOp57
 70
     1
102
RTVSPropertyOp58
 70
     1
102
RTVSPropertyOp59
 70
     1
102
RTVSPropertyOp60
 70
     1
102
RTVSPropertyOp61
 70
     1
102
RTVSPropertyOp62
 70
     1
  0
XRECORD
  5
B70F
102
{ACAD_REACTORS
330
B70E
102
}
330
B70E
100
AcDbXrecord
280
     1
102
RTVSPost2010Prop28
280
     0
102
RTVSPost2010PropOp28
 70
     1
102
RTVSPost2010Prop29
280
     1
102
RTVSPost2010PropOp29
 70
     1
102
RTVSPost2010Prop30
280
     1
102
RTVSPost2010PropOp30
 70
     1
102
RTVSPost2010Prop31
280
     0
102
RTVSPost2010PropOp31
 70
     1
102
RTVSPost2010Prop32
280
     0
102
RTVSPost2010PropOp32
 70
     1
102
RTVSPost2010Prop33
280
     0
102
RTVSPost2010PropOp33
 70
     1
102
RTVSPost2010Prop34
280
     0
102
RTVSPost2010PropOp34
 70
     1
102
RTVSPost2010Prop35
280
     0
102
RTVSPost2010PropOp35
 70
     1
102
RTVSPost2010Prop36
280
     0
102
RTVSPost2010PropOp36
 70
     1
102
RTVSPost2010Prop37
 90
       50
102
RTVSPost2010PropOp37
 70
     1
102
RTVSPost2010Prop38
140
0.0
102
RTVSPost2010PropOp38
 70
     1
102
RTVSPost2010Prop39
140
1.0
102
RTVSPost2010PropOp39
 70
     1
102
RTVSPost2010Prop40
 90
        0
102
RTVSPost2010PropOp40
 70
     1
102
RTVSPost2010Prop41ColorIndex
 90
       18
102
RTVSPost2010Prop41ColorRGB
 90
        0
102
RTVSPost2010PropOp41
 70
     1
102
RTVSPost2010Prop42
 90
       50
102
RTVSPost2010PropOp42
 70
     1
102
RTVSPost2010Prop43
 90
        3
102
RTVSPost2010PropOp43
 70
     1
102
RTVSPost2010Prop44ColorIndex
 90
        5
102
RTVSPost2010Prop44ColorRGB
 90
      255
102
RTVSPost2010PropOp44
 70
     1
102
RTVSPost2010Prop45
280
     0
102
RTVSPost2010PropOp45
 70
     1
102
RTVSPost2010Prop46
 90
       50
102
RTVSPost2010PropOp46
 70
     1
102
RTVSPost2010Prop47
 90
       50
102
RTVSPost2010PropOp47
 70
     1
102
RTVSPost2010Prop48
 90
       50
102
RTVSPost2010PropOp48
 70
     1
102
RTVSPost2010Prop49
280
     0
102
RTVSPost2010PropOp49
 70
     1
102
RTVSPost2010Prop50
 90
       50
102
RTVSPost2010PropOp50
 70
     1
102
RTVSPost2010Prop51ColorIndex
 90
      256
102
RTVSPost2010Prop51ColorRGB
 90
-16777216
102
RTVSPost2010PropOp51
 70
     0
102
RTVSPost2010Prop52
140
1.0
102
RTVSPost2010PropOp52
 70
     0
102
RTVSPost2010Prop53
 90
        2
102
RTVSPost2010PropOp53
 70
     1
102
RTVSPost2010Prop54
  1
strokes_ogs.tif
102
RTVSPost2010PropOp54
 70
     1
102
RTVSPost2010Prop55
280
     0
102
RTVSPost2010PropOp55
 70
     1
102
RTVSPost2010Prop56
140
1.0
102
RTVSPost2010PropOp56
 70
     1
102
RTVSPost2010Prop57
140
1.0
102
RTVSPost2010PropOp57
 70
     1
102
RTVSPropertyOp0
 70
     1
102
RTVSPropertyOp1
 70
     1
102
RTVSPropertyOp2
 70
     1
102
RTVSPropertyOp3
 70
     1
102
RTVSPropertyOp4
 70
     1
102
RTVSPropertyOp5
 70
     1
102
RTVSPropertyOp6
 70
     1
102
RTVSPropertyOp7
 70
     1
102
RTVSPropertyOp8
 70
     1
102
RTVSPropertyOp9
 70
     1
102
RTVSPropertyOp10
 70
     1
102
RTVSPropertyOp11
 70
     1
102
RTVSPropertyOp12
 70
     1
102
RTVSPropertyOp13
 70
     1
102
RTVSPropertyOp14
 70
     1
102
RTVSPropertyOp15
 70
     1
102
RTVSPropertyOp16
 70
     1
102
RTVSPropertyOp17
 70
     1
102
RTVSPropertyOp18
 70
     1
102
RTVSPropertyOp19
 70
     1
102
RTVSPropertyOp20
 70
     1
102
RTVSPropertyOp21
 70
     1
102
RTVSPropertyOp22
 70
     1
102
RTVSPropertyOp23
 70
     1
102
RTVSPropertyOp24
 70
     1
102
RTVSPropertyOp25
 70
     1
102
RTVSPropertyOp26
 70
     1
102
RTVSPropertyOp27
 70
     1
102
RTVSPropertyOp28
 70
     1
102
RTVSPropertyOp29
 70
     1
102
RTVSPropertyOp30
 70
     1
102
RTVSPropertyOp31
 70
     1
102
RTVSPropertyOp32
 70
     1
102
RTVSPropertyOp33
 70
     1
102
RTVSPropertyOp34
 70
     1
102
RTVSPropertyOp35
 70
     1
102
RTVSPropertyOp36
 70
     1
102
RTVSPropertyOp37
 70
     1
102
RTVSPropertyOp38
 70
     1
102
RTVSPropertyOp39
 70
     1
102
RTVSPropertyOp40
 70
     1
102
RTVSPropertyOp41
 70
     1
102
RTVSPropertyOp42
 70
     1
102
RTVSPropertyOp43
 70
     1
102
RTVSPropertyOp44
 70
     1
102
RTVSPropertyOp45
 70
     1
102
RTVSPropertyOp46
 70
     1
102
RTVSPropertyOp47
 70
     1
102
RTVSPropertyOp48
 70
     1
102
RTVSPropertyOp49
 70
     1
102
RTVSPropertyOp50
 70
     1
102
RTVSPropertyOp51
 70
     0
102
RTVSPropertyOp52
 70
     0
102
RTVSPropertyOp53
 70
     1
102
RTVSPropertyOp54
 70
     1
102
RTVSPropertyOp55
 70
     1
102
RTVSPropertyOp56
 70
     1
102
RTVSPropertyOp57
 70
     1
102
RTVSPropertyOp58
 70
     1
102
RTVSPropertyOp59
 70
     1
102
RTVSPropertyOp60
 70
     1
102
RTVSPropertyOp61
 70
     1
102
RTVSPropertyOp62
 70
     1
  0
XRECORD
  5
B727
102
{ACAD_REACTORS
330
B726
102
}
330
B726
100
AcDbXrecord
280
     1
102
RTVSPost2010Prop28
280
     0
102
RTVSPost2010PropOp28
 70
     1
102
RTVSPost2010Prop29
280
     1
102
RTVSPost2010PropOp29
 70
     1
102
RTVSPost2010Prop30
280
     1
102
RTVSPost2010PropOp30
 70
     1
102
RTVSPost2010Prop31
280
     0
102
RTVSPost2010PropOp31
 70
     1
102
RTVSPost2010Prop32
280
     0
102
RTVSPost2010PropOp32
 70
     1
102
RTVSPost2010Prop33
280
     0
102
RTVSPost2010PropOp33
 70
     1
102
RTVSPost2010Prop34
280
     0
102
RTVSPost2010PropOp34
 70
     1
102
RTVSPost2010Prop35
280
     0
102
RTVSPost2010PropOp35
 70
     1
102
RTVSPost2010Prop36
280
     0
102
RTVSPost2010PropOp36
 70
     1
102
RTVSPost2010Prop37
 90
       50
102
RTVSPost2010PropOp37
 70
     1
102
RTVSPost2010Prop38
140
0.0
102
RTVSPost2010PropOp38
 70
     1
102
RTVSPost2010Prop39
140
1.0
102
RTVSPost2010PropOp39
 70
     1
102
RTVSPost2010Prop40
 90
        0
102
RTVSPost2010PropOp40
 70
     1
102
RTVSPost2010Prop41ColorIndex
 90
       18
102
RTVSPost2010Prop41ColorRGB
 90
        0
102
RTVSPost2010PropOp41
 70
     1
102
RTVSPost2010Prop42
 90
       50
102
RTVSPost2010PropOp42
 70
     1
102
RTVSPost2010Prop43
 90
        3
102
RTVSPost2010PropOp43
 70
     1
102
RTVSPost2010Prop44ColorIndex
 90
        5
102
RTVSPost2010Prop44ColorRGB
 90
      255
102
RTVSPost2010PropOp44
 70
     1
102
RTVSPost2010Prop45
280
     0
102
RTVSPost2010PropOp45
 70
     1
102
RTVSPost2010Prop46
 90
       50
102
RTVSPost2010PropOp46
 70
     1
102
RTVSPost2010Prop47
 90
       50
102
RTVSPost2010PropOp47
 70
     1
102
RTVSPost2010Prop48
 90
       50
102
RTVSPost2010PropOp48
 70
     1
102
RTVSPost2010Prop49
280
     0
102
RTVSPost2010PropOp49
 70
     1
102
RTVSPost2010Prop50
 90
       50
102
RTVSPost2010PropOp50
 70
     1
102
RTVSPost2010Prop51ColorIndex
 90
      256
102
RTVSPost2010Prop51ColorRGB
 90
-16777216
102
RTVSPost2010PropOp51
 70
     0
102
RTVSPost2010Prop52
140
1.0
102
RTVSPost2010PropOp52
 70
     0
102
RTVSPost2010Prop53
 90
        2
102
RTVSPost2010PropOp53
 70
     1
102
RTVSPost2010Prop54
  1
strokes_ogs.tif
102
RTVSPost2010PropOp54
 70
     1
102
RTVSPost2010Prop55
280
     0
102
RTVSPost2010PropOp55
 70
     1
102
RTVSPost2010Prop56
140
1.0
102
RTVSPost2010PropOp56
 70
     1
102
RTVSPost2010Prop57
140
1.0
102
RTVSPost2010PropOp57
 70
     1
102
RTVSPropertyOp0
 70
     1
102
RTVSPropertyOp1
 70
     1
102
RTVSPropertyOp2
 70
     1
102
RTVSPropertyOp3
 70
     1
102
RTVSPropertyOp4
 70
     1
102
RTVSPropertyOp5
 70
     1
102
RTVSPropertyOp6
 70
     1
102
RTVSPropertyOp7
 70
     1
102
RTVSPropertyOp8
 70
     1
102
RTVSPropertyOp9
 70
     1
102
RTVSPropertyOp10
 70
     1
102
RTVSPropertyOp11
 70
     1
102
RTVSPropertyOp12
 70
     1
102
RTVSPropertyOp13
 70
     1
102
RTVSPropertyOp14
 70
     1
102
RTVSPropertyOp15
 70
     1
102
RTVSPropertyOp16
 70
     1
102
RTVSPropertyOp17
 70
     1
102
RTVSPropertyOp18
 70
     1
102
RTVSPropertyOp19
 70
     1
102
RTVSPropertyOp20
 70
     1
102
RTVSPropertyOp21
 70
     1
102
RTVSPropertyOp22
 70
     1
102
RTVSPropertyOp23
 70
     1
102
RTVSPropertyOp24
 70
     1
102
RTVSPropertyOp25
 70
     1
102
RTVSPropertyOp26
 70
     1
102
RTVSPropertyOp27
 70
     1
102
RTVSPropertyOp28
 70
     1
102
RTVSPropertyOp29
 70
     1
102
RTVSPropertyOp30
 70
     1
102
RTVSPropertyOp31
 70
     1
102
RTVSPropertyOp32
 70
     1
102
RTVSPropertyOp33
 70
     1
102
RTVSPropertyOp34
 70
     1
102
RTVSPropertyOp35
 70
     1
102
RTVSPropertyOp36
 70
     1
102
RTVSPropertyOp37
 70
     1
102
RTVSPropertyOp38
 70
     1
102
RTVSPropertyOp39
 70
     1
102
RTVSPropertyOp40
 70
     1
102
RTVSPropertyOp41
 70
     1
102
RTVSPropertyOp42
 70
     1
102
RTVSPropertyOp43
 70
     1
102
RTVSPropertyOp44
 70
     1
102
RTVSPropertyOp45
 70
     1
102
RTVSPropertyOp46
 70
     1
102
RTVSPropertyOp47
 70
     1
102
RTVSPropertyOp48
 70
     1
102
RTVSPropertyOp49
 70
     1
102
RTVSPropertyOp50
 70
     1
102
RTVSPropertyOp51
 70
     0
102
RTVSPropertyOp52
 70
     0
102
RTVSPropertyOp53
 70
     1
102
RTVSPropertyOp54
 70
     1
102
RTVSPropertyOp55
 70
     1
102
RTVSPropertyOp56
 70
     1
102
RTVSPropertyOp57
 70
     1
102
RTVSPropertyOp58
 70
     1
102
RTVSPropertyOp59
 70
     1
102
RTVSPropertyOp60
 70
     1
102
RTVSPropertyOp61
 70
     1
102
RTVSPropertyOp62
 70
     1
  0
ENDSEC
  0
EOF
