  0
SECTION
  2
HEADER
  9
$ACADVER
  1
AC1015
  9
$ACADMAINTVER
 70
    20
  9
$DWGCODEPAGE
  3
ANSI_932
  9
$INSBASE
 10
0.0
 20
0.0
 30
0.0
  9
$EXTMIN
 10
10.00000153760811
 20
9.999999806846602
 30
0.0
  9
$EXTMAX
 10
606.7681565376077
 20
523.5455738068464
 30
0.0
  9
$LIMMIN
 10
0.0000015376083204
 20
-0.0000001931532552
  9
$LIMMAX
 10
792.0000015376079
 20
545.9999998068465
  9
$ORTHOMODE
 70
     1
  9
$REGENMODE
 70
     1
  9
$FILLMODE
 70
     1
  9
$QTEXTMODE
 70
     0
  9
$MIRRTEXT
 70
     1
  9
$LTSCALE
 40
1.0
  9
$ATTMODE
 70
     1
  9
$TEXTSIZE
 40
2.5
  9
$TRACEWID
 40
1.0
  9
$TEXTSTYLE
  7
STANDARD
  9
$CLAYER
  8
0
  9
$CELTYPE
  6
BYLAYER
  9
$CECOLOR
 62
   256
  9
$CELTSCALE
 40
1.0
  9
$DISPSILH
 70
     0
  9
$DIMSCALE
 40
1.0
  9
$DIMASZ
 40
3.0
  9
$DIMEXO
 40
1.0
  9
$DIMDLI
 40
10.0
  9
$DIMRND
 40
0.0
  9
$DIMDLE
 40
0.0
  9
$DIMEXE
 40
1.0
  9
$DIMTP
 40
0.0
  9
$DIMTM
 40
0.0
  9
$DIMTXT
 40
3.2
  9
$DIMCEN
 40
0.0
  9
$DIMTSZ
 40
0.0
  9
$DIMTOL
 70
     0
  9
$DIMLIM
 70
     0
  9
$DIMTIH
 70
     0
  9
$DIMTOH
 70
     0
  9
$DIMSE1
 70
     0
  9
$DIMSE2
 70
     0
  9
$DIMTAD
 70
     3
  9
$DIMZIN
 70
     8
  9
$DIMBLK
  1

  9
$DIMASO
 70
     1
  9
$DIMSHO
 70
     1
  9
$DIMPOST
  1

  9
$DIMAPOST
  1

  9
$DIMALT
 70
     0
  9
$DIMALTD
 70
     2
  9
$DIMALTF
 40
25.4
  9
$DIMLFAC
 40
1.0
  9
$DIMTOFL
 70
     1
  9
$DIMTVP
 40
0.0
  9
$DIMTIX
 70
     0
  9
$DIMSOXD
 70
     0
  9
$DIMSAH
 70
     1
  9
$DIMBLK1
  1
OPEN
  9
$DIMBLK2
  1
OPEN
  9
$DIMSTYLE
  2
STANDARD
  9
$DIMCLRD
 70
     0
  9
$DIMCLRE
 70
     0
  9
$DIMCLRT
 70
     0
  9
$DIMTFAC
 40
1.0
  9
$DIMGAP
 40
1.0
  9
$DIMJUST
 70
     0
  9
$DIMSD1
 70
     0
  9
$DIMSD2
 70
     0
  9
$DIMTOLJ
 70
     1
  9
$DIMTZIN
 70
     0
  9
$DIMALTZ
 70
     0
  9
$DIMALTTZ
 70
     0
  9
$DIMUPT
 70
     0
  9
$DIMDEC
 70
     4
  9
$DIMTDEC
 70
     4
  9
$DIMALTU
 70
     2
  9
$DIMALTTD
 70
     2
  9
$DIMTXSTY
  7
STANDARD
  9
$DIMAUNIT
 70
     0
  9
$DIMADEC
 70
     0
  9
$DIMALTRND
 40
0.0
  9
$DIMAZIN
 70
     0
  9
$DIMDSEP
 70
    46
  9
$DIMATFIT
 70
     3
  9
$DIMFRAC
 70
     0
  9
$DIMLDRBLK
  1
OPEN
  9
$DIMLUNIT
 70
     2
  9
$DIMLWD
 70
    -2
  9
$DIMLWE
 70
    -2
  9
$DIMTMOVE
 70
     0
  9
$LUNITS
 70
     2
  9
$LUPREC
 70
     4
  9
$SKETCHINC
 40
1.0
  9
$FILLETRAD
 40
10.0
  9
$AUNITS
 70
     0
  9
$AUPREC
 70
     0
  9
$MENU
  1
.
  9
$ELEVATION
 40
0.0
  9
$PELEVATION
 40
0.0
  9
$THICKNESS
 40
0.0
  9
$LIMCHECK
 70
     0
  9
$CHAMFERA
 40
10.0
  9
$CHAMFERB
 40
10.0
  9
$CHAMFERC
 40
20.0
  9
$CHAMFERD
 40
0.0
  9
$SKPOLY
 70
     0
  9
$TDCREATE
 40
2454876.396790197
  9
$TDUCREATE
 40
2454876.021790197
  9
$TDUPDATE
 40
2457192.688174051
  9
$TDUUPDATE
 40
2457192.313174051
  9
$TDINDWG
 40
0.0027442477
  9
$TDUSRTIMER
 40
0.0027442245
  9
$USRTIMER
 70
     1
  9
$ANGBASE
 50
0.0
  9
$ANGDIR
 70
     0
  9
$PDMODE
 70
     0
  9
$PDSIZE
 40
0.0
  9
$PLINEWID
 40
0.0
  9
$SPLFRAME
 70
     0
  9
$SPLINETYPE
 70
     6
  9
$SPLINESEGS
 70
     8
  9
$HANDSEED
  5
82B
  9
$SURFTAB1
 70
     6
  9
$SURFTAB2
 70
     6
  9
$SURFTYPE
 70
     6
  9
$SURFU
 70
     6
  9
$SURFV
 70
     6
  9
$UCSBASE
  2

  9
$UCSNAME
  2

  9
$UCSORG
 10
0.0
 20
0.0
 30
0.0
  9
$UCSXDIR
 10
1.0
 20
0.0
 30
0.0
  9
$UCSYDIR
 10
0.0
 20
1.0
 30
0.0
  9
$UCSORTHOREF
  2

  9
$UCSORTHOVIEW
 70
     0
  9
$UCSORGTOP
 10
0.0
 20
0.0
 30
0.0
  9
$UCSORGBOTTOM
 10
0.0
 20
0.0
 30
0.0
  9
$UCSORGLEFT
 10
0.0
 20
0.0
 30
0.0
  9
$UCSORGRIGHT
 10
0.0
 20
0.0
 30
0.0
  9
$UCSORGFRONT
 10
0.0
 20
0.0
 30
0.0
  9
$UCSORGBACK
 10
0.0
 20
0.0
 30
0.0
  9
$PUCSBASE
  2

  9
$PUCSNAME
  2

  9
$PUCSORG
 10
0.0
 20
0.0
 30
0.0
  9
$PUCSXDIR
 10
1.0
 20
0.0
 30
0.0
  9
$PUCSYDIR
 10
0.0
 20
1.0
 30
0.0
  9
$PUCSORTHOREF
  2

  9
$PUCSORTHOVIEW
 70
     0
  9
$PUCSORGTOP
 10
0.0
 20
0.0
 30
0.0
  9
$PUCSORGBOTTOM
 10
0.0
 20
0.0
 30
0.0
  9
$PUCSORGLEFT
 10
0.0
 20
0.0
 30
0.0
  9
$PUCSORGRIGHT
 10
0.0
 20
0.0
 30
0.0
  9
$PUCSORGFRONT
 10
0.0
 20
0.0
 30
0.0
  9
$PUCSORGBACK
 10
0.0
 20
0.0
 30
0.0
  9
$USERI1
 70
     0
  9
$USERI2
 70
     0
  9
$USERI3
 70
     0
  9
$USERI4
 70
     0
  9
$USERI5
 70
     0
  9
$USERR1
 40
0.0
  9
$USERR2
 40
0.0
  9
$USERR3
 40
0.0
  9
$USERR4
 40
0.0
  9
$USERR5
 40
0.0
  9
$WORLDVIEW
 70
     1
  9
$SHADEDGE
 70
     3
  9
$SHADEDIF
 70
    70
  9
$TILEMODE
 70
     1
  9
$MAXACTVP
 70
    48
  9
$PINSBASE
 10
0.0
 20
0.0
 30
0.0
  9
$PLIMCHECK
 70
     0
  9
$PEXTMIN
 10
1.000000000000000E+20
 20
1.000000000000000E+20
 30
1.000000000000000E+20
  9
$PEXTMAX
 10
-1.000000000000000E+20
 20
-1.000000000000000E+20
 30
-1.000000000000000E+20
  9
$PLIMMIN
 10
0.0
 20
0.0
  9
$PLIMMAX
 10
420.0
 20
297.0
  9
$UNITMODE
 70
     0
  9
$VISRETAIN
 70
     1
  9
$PLINEGEN
 70
     0
  9
$PSLTSCALE
 70
     1
  9
$TREEDEPTH
 70
  3020
  9
$CMLSTYLE
  2
STANDARD
  9
$CMLJUST
 70
     0
  9
$CMLSCALE
 40
20.0
  9
$PROXYGRAPHICS
 70
     1
  9
$MEASUREMENT
 70
     0
  9
$CELWEIGHT
370
    -1
  9
$ENDCAPS
280
     0
  9
$JOINSTYLE
280
     0
  9
$LWDISPLAY
290
     0
  9
$INSUNITS
 70
     0
  9
$HYPERLINKBASE
  1

  9
$STYLESHEET
  1

  9
$XEDIT
290
     1
  9
$CEPSNTYPE
380
     0
  9
$PSTYLEMODE
290
     1
  9
$FINGERPRINTGUID
  2
{92987207-CDAC-46D1-99D4-E2DB9D76C96D}
  9
$VERSIONGUID
  2
{D4C3B525-D2E1-4BC1-BCA9-064F3DB14222}
  9
$EXTNAMES
290
     1
  9
$PSVPSCALE
 40
0.0
  9
$OLESTARTUP
290
     0
  0
ENDSEC
  0
SECTION
  2
CLASSES
  0
CLASS
  1
ACDBDICTIONARYWDFLT
  2
AcDbDictionaryWithDefault
  3
ObjectDBX Classes
 90
        0
280
     0
281
     0
  0
CLASS
  1
ACDBPLACEHOLDER
  2
AcDbPlaceHolder
  3
ObjectDBX Classes
 90
        0
280
     0
281
     0
  0
CLASS
  1
LAYOUT
  2
AcDbLayout
  3
ObjectDBX Classes
 90
        0
280
     0
281
     0
  0
CLASS
  1
MATERIAL
  2
AcDbMaterial
  3
ObjectDBX Classes
 90
     1153
280
     0
281
     0
  0
CLASS
  1
VISUALSTYLE
  2
AcDbVisualStyle
  3
ObjectDBX Classes
 90
     4095
280
     0
281
     0
  0
CLASS
  1
TABLESTYLE
  2
AcDbTableStyle
  3
ObjectDBX Classes
 90
     4095
280
     0
281
     0
  0
CLASS
  1
SCALE
  2
AcDbScale
  3
ObjectDBX Classes
 90
     1153
280
     0
281
     0
  0
CLASS
  1
MLEADERSTYLE
  2
AcDbMLeaderStyle
  3
ACDB_MLEADERSTYLE_CLASS
 90
     4095
280
     0
281
     0
  0
CLASS
  1
ACDBSECTIONVIEWSTYLE
  2
AcDbSectionViewStyle
  3
ObjectDBX Classes
 90
     1025
280
     0
281
     0
  0
CLASS
  1
ACDBDETAILVIEWSTYLE
  2
AcDbDetailViewStyle
  3
ObjectDBX Classes
 90
     1025
280
     0
281
     0
  0
CLASS
  1
DICTIONARYVAR
  2
AcDbDictionaryVar
  3
ObjectDBX Classes
 90
        0
280
     0
281
     0
  0
CLASS
  1
CELLSTYLEMAP
  2
AcDbCellStyleMap
  3
ObjectDBX Classes
 90
     1152
280
     0
281
     0
  0
ENDSEC
  0
SECTION
  2
TABLES
  0
TABLE
  2
VPORT
  5
8
330
0
100
AcDbSymbolTable
 70
     1
  0
VPORT
  5
775
330
8
100
AcDbSymbolTableRecord
100
AcDbViewportTableRecord
  2
*ACTIVE
 70
     0
 10
0.0
 20
0.0
 11
1.0
 21
1.0
 12
521.1099106311921
 22
266.7723551968285
 13
0.0
 23
0.0
 14
10.0
 24
10.0
 15
10.0
 25
10.0
 16
0.0
 26
0.0
 36
1.0
 17
0.0
 27
0.0
 37
0.0
 40
517.4884897294189
 41
2.35006605019815
 42
50.0
 43
0.0
 44
0.0
 50
0.0
 51
0.0
 71
     0
 72
   100
 73
     1
 74
     0
 75
     0
 76
     0
 77
     0
 78
     0
281
     0
 65
     1
110
0.0
120
0.0
130
0.0
111
1.0
121
0.0
131
0.0
112
0.0
122
1.0
132
0.0
 79
     0
146
0.0
1001
ACAD_NAV_VCDISPLAY
1070
     3
  0
ENDTAB
  0
TABLE
  2
LTYPE
  5
5
330
0
100
AcDbSymbolTable
 70
     4
  0
LTYPE
  5
12
330
5
100
AcDbSymbolTableRecord
100
AcDbLinetypeTableRecord
  2
BYBLOCK
 70
     0
  3

 72
    65
 73
     0
 40
0.0
  0
LTYPE
  5
13
330
5
100
AcDbSymbolTableRecord
100
AcDbLinetypeTableRecord
  2
BYLAYER
 70
     0
  3

 72
    65
 73
     0
 40
0.0
  0
LTYPE
  5
14
330
5
100
AcDbSymbolTableRecord
100
AcDbLinetypeTableRecord
  2
CONTINUOUS
 70
     0
  3
Solid line
 72
    65
 73
     0
 40
0.0
  0
LTYPE
  5
4B
330
5
100
AcDbSymbolTableRecord
100
AcDbLinetypeTableRecord
  2
DASHED
 70
     0
  3
Dashed __ __ __ __ __ __ __ __ __ __ __ __ __ _
 72
    65
 73
     2
 40
19.04999999999999
 49
12.7
 74
     0
 49
-6.349999999999998
 74
     0
  0
LTYPE
  5
4C
330
5
100
AcDbSymbolTableRecord
100
AcDbLinetypeTableRecord
  2
CENTER
 70
     0
  3
Center ____ _ ____ _ ____ _ ____ _ ____ _ ____
 72
    65
 73
     4
 40
50.8
 49
31.75
 74
     0
 49
-6.349999999999998
 74
     0
 49
6.349999999999998
 74
     0
 49
-6.349999999999998
 74
     0
  0
LTYPE
  5
4D
330
5
100
AcDbSymbolTableRecord
100
AcDbLinetypeTableRecord
  2
PHANTOM
 70
     0
  3
Phantom ______  __  __  ______  __  __  ______
 72
    65
 73
     6
 40
63.5
 49
31.75
 74
     0
 49
-6.349999999999998
 74
     0
 49
6.349999999999998
 74
     0
 49
-6.349999999999998
 74
     0
 49
6.349999999999998
 74
     0
 49
-6.349999999999998
 74
     0
  0
ENDTAB
  0
TABLE
  2
LAYER
  5
2
330
0
100
AcDbSymbolTable
 70
     8
  0
LAYER
  5
E
102
{ACAD_XDICTIONARY
360
7CF
102
}
330
2
100
AcDbSymbolTableRecord
100
AcDbLayerTableRecord
  2
0
 70
     0
 62
     7
  6
CONTINUOUS
370
    -3
390
77E
  0
LAYER
  5
4E
102
{ACAD_XDICTIONARY
360
7D1
102
}
330
2
100
AcDbSymbolTableRecord
100
AcDbLayerTableRecord
  2
4
 70
     0
 62
     1
  6
CENTER
370
    -3
390
77E
  0
LAYER
  5
4F
102
{ACAD_XDICTIONARY
360
7D3
102
}
330
2
100
AcDbSymbolTableRecord
100
AcDbLayerTableRecord
  2
5
 70
     0
 62
     6
  6
PHANTOM
370
    -3
390
77E
  0
LAYER
  5
50
102
{ACAD_XDICTIONARY
360
7D5
102
}
330
2
100
AcDbSymbolTableRecord
100
AcDbLayerTableRecord
  2
1
 70
     0
 62
     7
  6
CONTINUOUS
370
    -3
390
77E
  0
LAYER
  5
51
102
{ACAD_XDICTIONARY
360
7D7
102
}
330
2
100
AcDbSymbolTableRecord
100
AcDbLayerTableRecord
  2
2
 70
     0
 62
     4
  6
CONTINUOUS
370
    -3
390
77E
  0
LAYER
  5
52
102
{ACAD_XDICTIONARY
360
7D9
102
}
330
2
100
AcDbSymbolTableRecord
100
AcDbLayerTableRecord
  2
3
 70
     0
 62
     2
  6
DASHED
370
    -3
390
77E
  0
LAYER
  5
53
102
{ACAD_XDICTIONARY
360
7DB
102
}
330
2
100
AcDbSymbolTableRecord
100
AcDbLayerTableRecord
  2
6
 70
     0
 62
     5
  6
CONTINUOUS
370
    -3
390
77E
  0
LAYER
  5
54
102
{ACAD_XDICTIONARY
360
7DD
102
}
330
2
100
AcDbSymbolTableRecord
100
AcDbLayerTableRecord
  2
7
 70
     0
 62
     3
  6
CONTINUOUS
370
    -3
390
77E
  0
ENDTAB
  0
TABLE
  2
STYLE
  5
3
330
0
100
AcDbSymbolTable
 70
     1
  0
STYLE
  5
F
330
3
100
AcDbSymbolTableRecord
100
AcDbTextStyleTableRecord
  2
STANDARD
 70
     0
 40
0.0
 41
1.0
 50
0.0
 71
     0
 42
2.5
  3
simplex.shx
  4

  0
ENDTAB
  0
TABLE
  2
VIEW
  5
6
330
0
100
AcDbSymbolTable
 70
     0
  0
ENDTAB
  0
TABLE
  2
UCS
  5
7
330
0
100
AcDbSymbolTable
 70
     0
  0
ENDTAB
  0
TABLE
  2
APPID
  5
9
330
0
100
AcDbSymbolTable
 70
     5
  0
APPID
  5
10
330
9
100
AcDbSymbolTableRecord
100
AcDbRegAppTableRecord
  2
ACAD
 70
     0
  0
APPID
  5
3E
330
9
100
AcDbSymbolTableRecord
100
AcDbRegAppTableRecord
  2
CONTENTTABDATA
 70
     0
  0
APPID
  5
3F
330
9
100
AcDbSymbolTableRecord
100
AcDbRegAppTableRecord
  2
CONTENTCURRENTTAB
 70
     0
  0
APPID
  5
7E9
330
9
100
AcDbSymbolTableRecord
100
AcDbRegAppTableRecord
  2
ACAD_NAV_VCDISPLAY
 70
     0
  0
APPID
  5
822
330
9
100
AcDbSymbolTableRecord
100
AcDbRegAppTableRecord
  2
ACAD_MLEADERVER
 70
     0
  0
ENDTAB
  0
TABLE
  2
DIMSTYLE
  5
A
330
0
100
AcDbSymbolTable
 70
     1
100
AcDbDimStyleTable
 71
     0
  0
DIMSTYLE
105
1D
330
A
100
AcDbSymbolTableRecord
100
AcDbDimStyleTableRecord
  2
STANDARD
 70
     0
 41
3.0
 42
1.0
 43
10.0
 44
1.0
 73
     0
 74
     0
 77
     3
 78
     8
140
3.2
141
0.0
147
1.0
172
     1
173
     1
340
F
341
2E
343
2E
344
2E
  0
ENDTAB
  0
TABLE
  2
BLOCK_RECORD
  5
1
330
0
100
AcDbSymbolTable
 70
     1
  0
BLOCK_RECORD
  5
18
102
{ACAD_XDICTIONARY
360
778
102
}
330
1
100
AcDbSymbolTableRecord
100
AcDbBlockTableRecord
  2
*MODEL_SPACE
340
7CC
  0
BLOCK_RECORD
  5
15
102
{ACAD_XDICTIONARY
360
776
102
}
330
1
100
AcDbSymbolTableRecord
100
AcDbBlockTableRecord
  2
*PAPER_SPACE
340
7CD
  0
BLOCK_RECORD
  5
2E
330
1
100
AcDbSymbolTableRecord
100
AcDbBlockTableRecord
  2
_OPEN
340
0
  0
ENDTAB
  0
ENDSEC
  0
SECTION
  2
BLOCKS
  0
BLOCK
  5
19
330
18
100
AcDbEntity
  8
0
100
AcDbBlockBegin
  2
*MODEL_SPACE
 70
     0
 10
0.0
 20
0.0
 30
0.0
  3
*MODEL_SPACE
  1

  0
ENDBLK
  5
1A
330
18
100
AcDbEntity
  8
0
100
AcDbBlockEnd
  0
BLOCK
  5
16
330
15
100
AcDbEntity
 67
     1
  8
0
100
AcDbBlockBegin
  2
*PAPER_SPACE
 70
     0
 10
0.0
 20
0.0
 30
0.0
  3
*PAPER_SPACE
  1

  0
ENDBLK
  5
17
330
15
100
AcDbEntity
 67
     1
  8
0
100
AcDbBlockEnd
  0
BLOCK
  5
2F
330
2E
100
AcDbEntity
  8
0
100
AcDbBlockBegin
  2
_OPEN
 70
     0
 10
0.0
 20
0.0
 30
0.0
  3
_OPEN
  1

  0
LINE
  5
30
330
2E
100
AcDbEntity
  8
0
  6
ByBlock
 62
     0
100
AcDbLine
 10
-1.0
 20
0.1666666666666666
 30
0.0
 11
0.0
 21
0.0
 31
0.0
  0
LINE
  5
31
330
2E
100
AcDbEntity
  8
0
  6
ByBlock
 62
     0
100
AcDbLine
 10
0.0
 20
0.0
 30
0.0
 11
-1.0
 21
-0.1666666666666666
 31
0.0
  0
LINE
  5
32
330
2E
100
AcDbEntity
  8
0
  6
ByBlock
 62
     0
100
AcDbLine
 10
0.0
 20
0.0
 30
0.0
 11
-1.0
 21
0.0
 31
0.0
  0
ENDBLK
  5
33
330
2E
100
AcDbEntity
  8
0
100
AcDbBlockEnd
  0
ENDSEC
  0
SECTION
  2
ENTITIES
  0
LINE
  5
402
330
18
100
AcDbEntity
  8
1
  6
Continuous
100
AcDbLine
 10
395.7948235376081
 20
324.1156938068466
 30
0.0
 11
398.7948235376081
 21
327.1156938068465
 31
0.0
  0
LINE
  5
403
330
18
100
AcDbEntity
  8
1
  6
Continuous
100
AcDbLine
 10
398.7948235376081
 20
324.1156938068466
 30
0.0
 11
395.7948235376081
 21
327.1156938068465
 31
0.0
  0
LINE
  5
404
330
18
100
AcDbEntity
  8
1
  6
Continuous
100
AcDbLine
 10
394.3806095376079
 20
324.1156938068466
 30
0.0
 11
397.380609537608
 21
327.1156938068465
 31
0.0
  0
LINE
  5
405
330
18
100
AcDbEntity
  8
1
  6
Continuous
100
AcDbLine
 10
397.380609537608
 20
324.1156938068466
 30
0.0
 11
394.3806095376079
 21
327.1156938068465
 31
0.0
  0
LINE
  5
406
330
18
100
AcDbEntity
  8
1
  6
Continuous
100
AcDbLine
 10
340.7262805376078
 20
329.7156938068464
 30
0.0
 11
400.7262805376078
 21
329.7156938068464
 31
0.0
  0
LINE
  5
407
330
18
100
AcDbEntity
  8
1
  6
Continuous
100
AcDbLine
 10
340.7262805376078
 20
327.1156938068465
 30
0.0
 11
400.7262805376078
 21
327.1156938068465
 31
0.0
  0
ARC
  5
408
330
18
100
AcDbEntity
  8
1
  6
Continuous
100
AcDbCircle
 10
393.9209605376079
 20
327.0156938068465
 30
0.0
 40
6.0
100
AcDbArc
 50
26.743684
 51
90.0
  0
ARC
  5
409
330
18
100
AcDbEntity
  8
1
  6
Continuous
100
AcDbCircle
 10
243.0789475376081
 20
250.5150338068465
 30
0.0
 40
156.309292
100
AcDbArc
 50
1.613291999999999
 51
22.068413
  0
ARC
  5
40A
330
18
100
AcDbEntity
  8
1
  6
Continuous
100
AcDbCircle
 10
245.8846915376079
 20
251.3941728068465
 30
0.0
 40
156.3812439999999
100
AcDbArc
 50
1.290342
 51
19.60434499999998
  0
LINE
  5
40B
330
18
100
AcDbEntity
  8
1
  6
Continuous
100
AcDbLine
 10
400.1910365376081
 20
231.3231708068466
 30
0.0
 11
394.8336095376081
 21
231.3231708068466
 31
0.0
  0
LINE
  5
40C
330
18
100
AcDbEntity
  8
1
  6
Continuous
100
AcDbLine
 10
400.1910365376081
 20
221.5082158068466
 30
0.0
 11
394.4502255376079
 21
221.5082158068466
 31
0.0
  0
LINE
  5
40D
330
18
100
AcDbEntity
  8
1
  6
Continuous
100
AcDbLine
 10
394.4502255376079
 20
216.6007388068466
 30
0.0
 11
400.1910365376081
 21
216.6007388068466
 31
0.0
  0
ARC
  5
40E
330
18
100
AcDbEntity
  8
1
  6
Continuous
100
AcDbCircle
 10
406.4498085376079
 20
228.3125388068465
 30
0.0
 40
12.0
100
AcDbArc
 50
141.227699
 51
180.0111799999999
  0
ARC
  5
40F
330
18
100
AcDbEntity
  8
1
  6
Continuous
100
AcDbCircle
 10
378.9299065376079
 20
250.4172118068466
 30
0.0
 40
20.398181
100
AcDbArc
 50
321.2145029999998
 51
0.7626530000000003
  0
LINE
  5
410
330
18
100
AcDbEntity
  8
4
  6
CENTER
100
AcDbLine
 10
405.9502255376078
 20
226.4156938068465
 30
0.0
 11
330.2251465376079
 21
226.4156938068465
 31
0.0
  0
LINE
  5
411
330
18
100
AcDbEntity
  8
1
  6
Continuous
100
AcDbLine
 10
340.7262805376078
 20
324.1156938068466
 30
0.0
 11
400.7262805376078
 21
324.1156938068466
 31
0.0
  0
ARC
  5
412
330
18
100
AcDbEntity
  8
1
  6
Continuous
100
AcDbCircle
 10
495.567869537608
 20
251.3941728068465
 30
0.0
 40
156.3812439999999
100
AcDbArc
 50
160.395655
 51
178.709658
  0
ARC
  5
413
330
18
100
AcDbEntity
  8
1
  6
Continuous
100
AcDbCircle
 10
498.3736135376078
 20
250.5150338068465
 30
0.0
 40
156.309292
100
AcDbArc
 50
157.931587
 51
178.386708
  0
LINE
  5
414
330
18
100
AcDbEntity
  8
1
  6
Continuous
100
AcDbLine
 10
91.31671153760812
 20
320.1176218068464
 30
0.0
 11
91.36952353760813
 21
210.5456258068465
 31
0.0
  0
LINE
  5
415
330
18
100
AcDbEntity
  8
1
  6
Continuous
100
AcDbLine
 10
391.5109105376079
 20
298.4417328068464
 30
0.0
 11
391.5532755376081
 21
210.5456258068465
 31
0.0
  0
LINE
  5
416
330
18
100
AcDbEntity
  8
1
  6
Continuous
100
AcDbLine
 10
339.2262805376079
 20
319.1156938068465
 30
0.0
 11
339.2262805376079
 21
250.7073798068464
 31
0.0
  0
LINE
  5
417
330
18
100
AcDbEntity
  8
1
  6
Continuous
100
AcDbLine
 10
356.726280537608
 20
154.5728918068465
 30
0.0
 11
356.726280537608
 21
298.2584948068464
 31
0.0
  0
LINE
  5
418
330
18
100
AcDbEntity
  8
1
  6
Continuous
100
AcDbLine
 10
384.7262805376079
 20
154.5728918068465
 30
0.0
 11
384.7262805376079
 21
298.2584948068464
 31
0.0
  0
LINE
  5
419
330
18
100
AcDbEntity
  8
1
  6
Continuous
100
AcDbLine
 10
349.9416505376079
 20
298.4417328068464
 30
0.0
 11
349.8992855376079
 21
210.5456258068465
 31
0.0
  0
LINE
  5
41A
330
18
100
AcDbEntity
  8
4
  6
CENTER
100
AcDbLine
 10
370.7262805376079
 20
412.9156938068463
 30
0.0
 11
370.7262805376079
 21
140.9156938068466
 31
0.0
  0
LINE
  5
41B
330
18
100
AcDbEntity
  8
1
  6
Continuous
100
AcDbLine
 10
99.14252953760813
 20
319.1156938068465
 30
0.0
 11
99.14252953760813
 21
250.7073798068464
 31
0.0
  0
LINE
  5
41C
330
18
100
AcDbEntity
  8
1
  6
Continuous
100
AcDbLine
 10
36.14252953760812
 20
319.1156938068465
 30
0.0
 11
36.14252953760812
 21
250.7073798068464
 31
0.0
  0
LINE
  5
41D
330
18
100
AcDbEntity
  8
1
  6
Continuous
100
AcDbLine
 10
88.41714653760808
 20
319.2166578068464
 30
0.0
 11
88.46952353760809
 21
210.5456258068465
 31
0.0
  0
LINE
  5
41E
330
18
100
AcDbEntity
  8
1
  6
Continuous
100
AcDbLine
 10
46.86791353760811
 20
319.2166578068464
 30
0.0
 11
46.8155355376081
 21
210.5456258068465
 31
0.0
  0
LINE
  5
41F
330
18
100
AcDbEntity
  8
1
  6
Continuous
100
AcDbLine
 10
43.96834753760812
 20
320.1176218068464
 30
0.0
 11
43.91553453760812
 21
210.5456258068465
 31
0.0
  0
LINE
  5
420
330
18
100
AcDbEntity
  8
1
  6
Continuous
100
AcDbLine
 10
53.64252953760812
 20
154.5728918068465
 30
0.0
 11
53.64252953760812
 21
298.2584948068464
 31
0.0
  0
LINE
  5
421
330
18
100
AcDbEntity
  8
1
  6
Continuous
100
AcDbLine
 10
81.64252953760808
 20
154.5728918068465
 30
0.0
 11
81.64252953760808
 21
298.2584948068464
 31
0.0
  0
LINE
  5
422
330
18
100
AcDbEntity
  8
4
  6
CENTER
100
AcDbLine
 10
67.64252953760811
 20
412.9156938068463
 30
0.0
 11
67.64252953760811
 21
140.9156938068466
 31
0.0
  0
ARC
  5
423
330
18
100
AcDbEntity
  8
1
  6
Continuous
100
AcDbCircle
 10
109.8840845376081
 20
314.5105358068466
 30
0.0
 40
123.224386
100
AcDbArc
 50
329.4023509999999
 51
352.2269309999999
  0
ARC
  5
424
330
18
100
AcDbEntity
  8
1
  6
Continuous
100
AcDbCircle
 10
160.5342235376079
 20
322.6355308068467
 30
0.0
 40
129.68
100
AcDbArc
 50
305.577955
 51
352.9389269999999
  0
LINE
  5
425
330
18
100
AcDbEntity
  8
1
  6
Continuous
100
AcDbLine
 10
240.6171845376081
 20
315.6576698068465
 30
0.0
 11
240.6171845376081
 21
234.2135218068466
 31
0.0
  0
ARC
  5
426
330
18
100
AcDbEntity
  8
1
  6
Continuous
100
AcDbCircle
 10
220.1844045376079
 20
226.4156938068465
 30
0.0
 40
77.5
100
AcDbArc
 50
80.90101899999998
 51
38.359769
  0
ARC
  5
427
330
18
100
AcDbEntity
  8
1
  6
Continuous
100
AcDbCircle
 10
220.1844045376079
 20
226.4156938068465
 30
0.0
 40
61.0
100
AcDbArc
 50
80.82199799999996
 51
30.636721
  0
LINE
  5
428
330
18
100
AcDbEntity
  8
4
  6
CENTER
100
AcDbLine
 10
220.1844045376079
 20
140.9156938068466
 30
0.0
 11
220.1844045376079
 21
311.9156938068464
 31
0.0
  0
LINE
  5
429
330
18
100
AcDbEntity
  8
4
  6
CENTER
100
AcDbLine
 10
264.184404537608
 20
412.9156938068463
 30
0.0
 11
264.184404537608
 21
254.4495248068466
 31
0.0
  0
LINE
  5
42A
330
18
100
AcDbEntity
  8
1
  6
Continuous
100
AcDbLine
 10
292.0268845376079
 20
84.48985980684657
 30
0.0
 11
148.3412815376081
 21
84.48985980684657
 31
0.0
  0
LINE
  5
42B
330
18
100
AcDbEntity
  8
1
  6
Continuous
100
AcDbLine
 10
292.0268845376079
 20
56.4898598068466
 30
0.0
 11
148.3412815376081
 21
56.4898598068466
 31
0.0
  0
LINE
  5
42C
330
18
100
AcDbEntity
  8
4
  6
CENTER
100
AcDbLine
 10
302.6840825376079
 20
70.48985980684658
 30
0.0
 11
137.6840825376081
 21
70.48985980684658
 31
0.0
  0
LINE
  5
42D
330
18
100
AcDbEntity
  8
4
  6
CENTER
100
AcDbLine
 10
305.6844045376079
 20
226.4156938068465
 30
0.0
 11
134.6844045376079
 21
226.4156938068465
 31
0.0
  0
TEXT
  5
42E
330
18
100
AcDbEntity
  8
4
  6
CENTER
100
AcDbText
 10
23.9795125376081
 20
10.04873680684658
 30
0.0
 40
1.399999999999999
  1
4
100
AcDbText
  0
TEXT
  5
42F
330
18
100
AcDbEntity
  8
7
  6
Continuous
100
AcDbText
 10
10.00000153760811
 20
25.9999998068466
 30
0.0
 40
3.0
  1
CODE No.9311
100
AcDbText
  0
TEXT
  5
430
330
18
100
AcDbEntity
  8
7
  6
Continuous
100
AcDbText
 10
10.00000153760811
 20
17.9999998068466
 30
0.0
 40
3.0
  1
TYPE No.309
100
AcDbText
  0
TEXT
  5
431
330
18
100
AcDbEntity
  8
1
  6
Continuous
100
AcDbText
 10
10.00000153760811
 20
9.999999806846602
 30
0.0
 40
1.399999999999999
  1
LAYER
100
AcDbText
  0
TEXT
  5
432
330
18
100
AcDbEntity
  8
2
  6
Continuous
100
AcDbText
 10
19.9795125376081
 20
10.04873680684658
 30
0.0
 40
1.399999999999999
  1
2
100
AcDbText
  0
TEXT
  5
433
330
18
100
AcDbEntity
  8
3
  6
DASHED
100
AcDbText
 10
21.97951253760811
 20
10.04873680684658
 30
0.0
 40
1.399999999999999
  1
3
100
AcDbText
  0
TEXT
  5
434
330
18
100
AcDbEntity
  8
1
  6
Continuous
100
AcDbText
 10
17.9795125376081
 20
10.04873680684658
 30
0.0
 40
1.399999999999999
  1
1
100
AcDbText
  0
TEXT
  5
435
330
18
100
AcDbEntity
  8
5
  6
PHANTOM
100
AcDbText
 10
25.97951253760811
 20
10.04873680684658
 30
0.0
 40
1.399999999999999
  1
5
100
AcDbText
  0
TEXT
  5
436
330
18
100
AcDbEntity
  8
6
  6
Continuous
100
AcDbText
 10
27.97951253760811
 20
10.04873680684658
 30
0.0
 40
1.399999999999999
  1
6
100
AcDbText
  0
TEXT
  5
437
330
18
100
AcDbEntity
  8
7
  6
Continuous
100
AcDbText
 10
29.97951253760811
 20
10.04873680684658
 30
0.0
 40
1.399999999999999
  1
7
100
AcDbText
  0
ARC
  5
438
330
18
100
AcDbEntity
  8
1
  6
Continuous
100
AcDbCircle
 10
177.684082537608
 20
70.48985980684658
 30
0.0
 40
35.0
100
AcDbArc
 50
161.180937
 51
198.819063
  0
ARC
  5
439
330
18
100
AcDbEntity
  8
1
  6
Continuous
100
AcDbCircle
 10
148.3412815376081
 20
60.4898598068466
 30
0.0
 40
4.0
100
AcDbArc
 50
198.819063
 51
270.0
  0
ARC
  5
43A
330
18
100
AcDbEntity
  8
1
  6
Continuous
100
AcDbCircle
 10
148.3412815376081
 20
80.48985980684657
 30
0.0
 40
4.0
100
AcDbArc
 50
90.0
 51
161.180937
  0
ARC
  5
43B
330
18
100
AcDbEntity
  8
1
  6
Continuous
100
AcDbCircle
 10
57.64252953760813
 20
154.5728918068465
 30
0.0
 40
4.0
100
AcDbArc
 50
180.0
 51
251.180937
  0
ARC
  5
43C
330
18
100
AcDbEntity
  8
1
  6
Continuous
100
AcDbCircle
 10
67.64252953760811
 20
183.9156938068466
 30
0.0
 40
35.0
100
AcDbArc
 50
251.180937
 51
288.819063
  0
ARC
  5
43D
330
18
100
AcDbEntity
  8
1
  6
Continuous
100
AcDbCircle
 10
77.64252953760811
 20
154.5728918068465
 30
0.0
 40
4.0
100
AcDbArc
 50
288.819063
 51
0.0
  0
ARC
  5
43E
330
18
100
AcDbEntity
  8
1
  6
Continuous
100
AcDbCircle
 10
85.29252953760813
 20
238.6697878068465
 30
0.0
 40
2.75
100
AcDbArc
 50
0.0
 51
93.12677599999998
  0
ARC
  5
43F
330
18
100
AcDbEntity
  8
1
  6
Continuous
100
AcDbCircle
 10
85.29252953760813
 20
214.1615998068465
 30
0.0
 40
2.75
100
AcDbArc
 50
266.8732240000001
 51
0.0
  0
LINE
  5
440
330
18
100
AcDbEntity
  8
4
  6
CENTER
100
AcDbLine
 10
33.13029753760811
 20
226.4156938068465
 30
0.0
 11
108.1436635376081
 21
226.4156938068465
 31
0.0
  0
LINE
  5
441
330
18
100
AcDbEntity
  8
1
  6
Continuous
100
AcDbLine
 10
85.14252953760808
 20
241.4156938068466
 30
0.0
 11
85.14252953760808
 21
211.4156938068465
 31
0.0
  0
LINE
  5
442
330
18
100
AcDbEntity
  8
1
  6
Continuous
100
AcDbLine
 10
47.2425295376081
 20
214.1615998068465
 30
0.0
 11
47.2425295376081
 21
238.6697878068465
 31
0.0
  0
LINE
  5
443
330
18
100
AcDbEntity
  8
1
  6
Continuous
100
AcDbLine
 10
50.14252953760813
 20
241.4156938068466
 30
0.0
 11
50.14252953760813
 21
211.4156938068465
 31
0.0
  0
LINE
  5
444
330
18
100
AcDbEntity
  8
1
  6
Continuous
100
AcDbLine
 10
46.8425295376081
 20
226.4156938068465
 30
0.0
 11
46.8425295376081
 21
234.4156938068465
 31
0.0
  0
LINE
  5
445
330
18
100
AcDbEntity
  8
1
  6
Continuous
100
AcDbLine
 10
37.42318453760811
 20
219.0544778068465
 30
0.0
 11
37.42318453760811
 21
233.7739618068466
 31
0.0
  0
ARC
  5
446
330
18
100
AcDbEntity
  8
1
  6
Continuous
100
AcDbCircle
 10
53.66399453760814
 20
226.4156938068465
 30
0.0
 40
16.24081099999999
100
AcDbArc
 50
162.412046
 51
180.0
  0
ARC
  5
447
330
18
100
AcDbEntity
  8
1
  6
Continuous
100
AcDbCircle
 10
69.17824453760812
 20
211.4156938068465
 30
0.0
 40
19.03571399999998
100
AcDbArc
 50
180.0
 51
215.300248
  0
LINE
  5
448
330
18
100
AcDbEntity
  8
1
  6
Continuous
100
AcDbLine
 10
43.9231845376081
 20
216.6007388068466
 30
0.0
 11
38.1823735376081
 21
216.6007388068466
 31
0.0
  0
LINE
  5
449
330
18
100
AcDbEntity
  8
1
  6
Continuous
100
AcDbLine
 10
38.1823735376081
 20
221.5082158068466
 30
0.0
 11
43.9231845376081
 21
221.5082158068466
 31
0.0
  0
ARC
  5
44A
330
18
100
AcDbEntity
  8
1
  6
Continuous
100
AcDbCircle
 10
41.7680825376081
 20
219.0544778068465
 30
0.0
 40
4.344898999999998
100
AcDbArc
 50
145.615753
 51
214.384247
  0
ARC
  5
44B
330
18
100
AcDbEntity
  8
1
  6
Continuous
100
AcDbCircle
 10
53.66399453760814
 20
226.4156938068465
 30
0.0
 40
16.24081099999999
100
AcDbArc
 50
180.0
 51
197.5879539999999
  0
LINE
  5
44C
330
18
100
AcDbEntity
  8
1
  6
Continuous
100
AcDbLine
 10
46.8425295376081
 20
226.4156938068465
 30
0.0
 11
46.8425295376081
 21
218.4156938068466
 31
0.0
  0
ARC
  5
44D
330
18
100
AcDbEntity
  8
1
  6
Continuous
100
AcDbCircle
 10
49.99252953760811
 20
214.1615998068465
 30
0.0
 40
2.75
100
AcDbArc
 50
180.0
 51
273.1267759999998
  0
LINE
  5
44E
330
18
100
AcDbEntity
  8
1
  6
Continuous
100
AcDbLine
 10
46.8155355376081
 20
210.5456258068465
 30
0.0
 11
43.91553453760812
 21
210.5456258068465
 31
0.0
  0
LINE
  5
44F
330
18
100
AcDbEntity
  8
1
  6
Continuous
100
AcDbLine
 10
46.8425295376081
 20
218.4156938068466
 30
0.0
 11
47.2425295376081
 21
218.4156938068466
 31
0.0
  0
ARC
  5
450
330
18
100
AcDbEntity
  8
1
  6
Continuous
100
AcDbCircle
 10
66.10681553760811
 20
211.4156938068465
 30
0.0
 40
19.03571399999998
100
AcDbArc
 50
324.6997519999998
 51
0.0
  0
ARC
  5
451
330
18
100
AcDbEntity
  8
1
  6
Continuous
100
AcDbCircle
 10
69.17824453760812
 20
241.4156938068466
 30
0.0
 40
19.03571399999998
100
AcDbArc
 50
144.6997519999999
 51
180.0
  0
ARC
  5
452
330
18
100
AcDbEntity
  8
1
  6
Continuous
100
AcDbCircle
 10
59.4389035376081
 20
250.4172118068466
 30
0.0
 40
23.298181
100
AcDbArc
 50
179.2863889999999
 51
217.5109419999997
  0
LINE
  5
453
330
18
100
AcDbEntity
  8
1
  6
Continuous
100
AcDbLine
 10
43.9231845376081
 20
236.2306478068465
 30
0.0
 11
38.1823735376081
 21
236.2306478068465
 31
0.0
  0
LINE
  5
454
330
18
100
AcDbEntity
  8
1
  6
Continuous
100
AcDbLine
 10
38.1823735376081
 20
231.3231708068466
 30
0.0
 11
43.9231845376081
 21
231.3231708068466
 31
0.0
  0
ARC
  5
455
330
18
100
AcDbEntity
  8
1
  6
Continuous
100
AcDbCircle
 10
41.7680825376081
 20
233.7769098068466
 30
0.0
 40
4.344898999999998
100
AcDbArc
 50
145.615753
 51
214.384247
  0
ARC
  5
456
330
18
100
AcDbEntity
  8
1
  6
Continuous
100
AcDbCircle
 10
49.99252953760811
 20
238.6697878068465
 30
0.0
 40
2.75
100
AcDbArc
 50
86.87322399999997
 51
180.0
  0
LINE
  5
457
330
18
100
AcDbEntity
  8
1
  6
Continuous
100
AcDbLine
 10
46.8425295376081
 20
234.4156938068465
 30
0.0
 11
47.2425295376081
 21
234.4156938068465
 31
0.0
  0
ARC
  5
458
330
18
100
AcDbEntity
  8
1
  6
Continuous
100
AcDbCircle
 10
66.10681553760811
 20
241.4156938068466
 30
0.0
 40
19.03571399999998
100
AcDbArc
 50
0.0
 51
35.30024799999999
  0
LINE
  5
459
330
18
100
AcDbEntity
  8
1
  6
Continuous
100
AcDbLine
 10
91.35657553760813
 20
237.3674288068465
 30
0.0
 11
91.35657553760813
 21
215.4674238068465
 31
0.0
  0
LINE
  5
45A
330
18
100
AcDbEntity
  8
1
  6
Continuous
100
AcDbLine
 10
94.95657553760812
 20
237.3674288068465
 30
0.0
 11
94.95657553760812
 21
215.4674238068465
 31
0.0
  0
LINE
  5
45B
330
18
100
AcDbEntity
  8
1
  6
Continuous
100
AcDbLine
 10
101.956575537608
 20
217.9156938068465
 30
0.0
 11
101.956575537608
 21
234.9156938068464
 31
0.0
  0
ARC
  5
45C
330
18
100
AcDbEntity
  8
1
  6
Continuous
100
AcDbCircle
 10
111.1973865376081
 20
226.4156938068465
 30
0.0
 40
16.24081099999999
100
AcDbArc
 50
162.412046
 51
197.5879539999999
  0
ARC
  5
45D
330
18
100
AcDbEntity
  8
1
  6
Continuous
100
AcDbCircle
 10
85.71576553760809
 20
226.4156938068465
 30
0.0
 40
16.24081099999999
100
AcDbArc
 50
342.4120459999998
 51
17.587954
  0
LINE
  5
45E
330
18
100
AcDbEntity
  8
1
  6
Continuous
100
AcDbLine
 10
102.917884537608
 20
221.0156938068466
 30
0.0
 11
102.917884537608
 21
231.8156938068466
 31
0.0
  0
LINE
  5
45F
330
18
100
AcDbEntity
  8
1
  6
Continuous
100
AcDbLine
 10
102.317884537608
 20
232.4156938068465
 30
0.0
 11
102.317884537608
 21
220.4156938068466
 31
0.0
  0
LINE
  5
460
330
18
100
AcDbEntity
  8
1
  6
Continuous
100
AcDbLine
 10
88.04252953760814
 20
214.1615998068465
 30
0.0
 11
88.04252953760814
 21
238.6697878068465
 31
0.0
  0
LINE
  5
461
330
18
100
AcDbEntity
  8
1
  6
Continuous
100
AcDbLine
 10
88.44252953760806
 20
226.4156938068465
 30
0.0
 11
88.44252953760806
 21
234.4156938068465
 31
0.0
  0
LINE
  5
462
330
18
100
AcDbEntity
  8
2
  6
Continuous
100
AcDbLine
 10
101.956575537608
 20
221.3626938068466
 30
0.0
 11
102.917884537608
 21
221.3626938068466
 31
0.0
  0
ARC
  5
463
330
18
100
AcDbEntity
  8
1
  6
Continuous
100
AcDbCircle
 10
97.61167753760814
 20
219.0544778068465
 30
0.0
 40
4.344898999999998
100
AcDbArc
 50
334.384247
 51
34.38424699999997
  0
LINE
  5
464
330
18
100
AcDbEntity
  8
1
  6
Continuous
100
AcDbLine
 10
101.956575537608
 20
220.4156938068466
 30
0.0
 11
102.317884537608
 21
220.4156938068466
 31
0.0
  0
ARC
  5
465
330
18
100
AcDbEntity
  8
1
  6
Continuous
100
AcDbCircle
 10
99.30147453760813
 20
219.0544778068465
 30
0.0
 40
4.344898999999998
100
AcDbArc
 50
145.615753
 51
205.615753
  0
LINE
  5
466
330
18
100
AcDbEntity
  8
1
  6
Continuous
100
AcDbLine
 10
88.44252953760806
 20
226.4156938068465
 30
0.0
 11
88.44252953760806
 21
218.4156938068466
 31
0.0
  0
LINE
  5
467
330
18
100
AcDbEntity
  8
1
  6
Continuous
100
AcDbLine
 10
91.36187553760812
 20
215.4656938068465
 30
0.0
 11
94.96715253760813
 21
215.4674288068465
 31
0.0
  0
LINE
  5
468
330
18
100
AcDbEntity
  8
1
  6
Continuous
100
AcDbLine
 10
91.36952453760812
 20
210.5456258068465
 30
0.0
 11
88.46952353760809
 21
210.5456258068465
 31
0.0
  0
LINE
  5
469
330
18
100
AcDbEntity
  8
1
  6
Continuous
100
AcDbLine
 10
88.44252953760806
 20
218.4156938068466
 30
0.0
 11
88.04252953760814
 21
218.4156938068466
 31
0.0
  0
LINE
  5
46A
330
18
100
AcDbEntity
  8
1
  6
Continuous
100
AcDbLine
 10
95.71576553760811
 20
216.6007388068466
 30
0.0
 11
101.197386537608
 21
216.6007388068466
 31
0.0
  0
LINE
  5
46B
330
18
100
AcDbEntity
  8
1
  6
Continuous
100
AcDbLine
 10
95.71576553760811
 20
216.6007388068466
 30
0.0
 11
94.95657553760812
 21
217.9156938068465
 31
0.0
  0
LINE
  5
46C
330
18
100
AcDbEntity
  8
1
  6
Continuous
100
AcDbLine
 10
101.197386537608
 20
216.6007388068466
 30
0.0
 11
101.956575537608
 21
217.9156938068465
 31
0.0
  0
LINE
  5
46D
330
18
100
AcDbEntity
  8
1
  6
Continuous
100
AcDbLine
 10
94.96014153760809
 20
230.0139598068466
 30
0.0
 11
91.36187553760812
 21
226.4156938068465
 31
0.0
  0
LINE
  5
46E
330
18
100
AcDbEntity
  8
1
  6
Continuous
100
AcDbLine
 10
94.9618755376081
 20
226.4156938068465
 30
0.0
 11
91.36360953760812
 21
222.8174278068464
 31
0.0
  0
LINE
  5
46F
330
18
100
AcDbEntity
  8
1
  6
Continuous
100
AcDbLine
 10
95.71576553760811
 20
221.5082158068466
 30
0.0
 11
101.197386537608
 21
221.5082158068466
 31
0.0
  0
LINE
  5
470
330
18
100
AcDbEntity
  8
1
  6
Continuous
100
AcDbLine
 10
102.917884537608
 20
221.0156938068466
 30
0.0
 11
102.317884537608
 21
220.4156938068466
 31
0.0
  0
LINE
  5
471
330
18
100
AcDbEntity
  8
2
  6
Continuous
100
AcDbLine
 10
101.956575537608
 20
231.4686938068466
 30
0.0
 11
102.917884537608
 21
231.4686938068466
 31
0.0
  0
ARC
  5
472
330
18
100
AcDbEntity
  8
1
  6
Continuous
100
AcDbCircle
 10
97.61167753760814
 20
233.7769098068466
 30
0.0
 40
4.344898999999998
100
AcDbArc
 50
325.6157529999998
 51
25.615753
  0
LINE
  5
473
330
18
100
AcDbEntity
  8
1
  6
Continuous
100
AcDbLine
 10
102.317884537608
 20
232.4156938068465
 30
0.0
 11
101.956575537608
 21
232.4156938068465
 31
0.0
  0
ARC
  5
474
330
18
100
AcDbEntity
  8
1
  6
Continuous
100
AcDbCircle
 10
75.84615553760811
 20
250.4172118068466
 30
0.0
 40
23.298181
100
AcDbArc
 50
325.110205
 51
0.7136110000000003
  0
LINE
  5
475
330
18
100
AcDbEntity
  8
1
  6
Continuous
100
AcDbLine
 10
91.36187553760812
 20
237.3656938068466
 30
0.0
 11
94.95659753760813
 21
237.3674288068465
 31
0.0
  0
LINE
  5
476
330
18
100
AcDbEntity
  8
1
  6
Continuous
100
AcDbLine
 10
88.44252953760806
 20
234.4156938068465
 30
0.0
 11
88.04252953760814
 21
234.4156938068465
 31
0.0
  0
ARC
  5
477
330
18
100
AcDbEntity
  8
1
  6
Continuous
100
AcDbCircle
 10
99.30147453760813
 20
233.7769098068466
 30
0.0
 40
4.344898999999998
100
AcDbArc
 50
154.3842469999999
 51
214.384247
  0
LINE
  5
478
330
18
100
AcDbEntity
  8
1
  6
Continuous
100
AcDbLine
 10
95.71576553760811
 20
231.3231708068466
 30
0.0
 11
101.197386537608
 21
231.3231708068466
 31
0.0
  0
LINE
  5
479
330
18
100
AcDbEntity
  8
1
  6
Continuous
100
AcDbLine
 10
95.71576553760811
 20
236.2306478068465
 30
0.0
 11
101.197386537608
 21
236.2306478068465
 31
0.0
  0
LINE
  5
47A
330
18
100
AcDbEntity
  8
1
  6
Continuous
100
AcDbLine
 10
95.71576553760811
 20
236.2306478068465
 30
0.0
 11
94.95657553760812
 21
234.9156938068464
 31
0.0
  0
LINE
  5
47B
330
18
100
AcDbEntity
  8
1
  6
Continuous
100
AcDbLine
 10
101.197386537608
 20
236.2306478068465
 30
0.0
 11
101.956575537608
 21
234.9156938068464
 31
0.0
  0
LINE
  5
47C
330
18
100
AcDbEntity
  8
1
  6
Continuous
100
AcDbLine
 10
102.317884537608
 20
232.4156938068465
 30
0.0
 11
102.917884537608
 21
231.8156938068466
 31
0.0
  0
LINE
  5
47D
330
18
100
AcDbEntity
  8
4
  6
CENTER
100
AcDbLine
 10
264.1840825376081
 20
33.9898598068466
 30
0.0
 11
264.1840825376081
 21
106.9898598068465
 31
0.0
  0
LINE
  5
47E
330
18
100
AcDbEntity
  8
1
  6
Continuous
100
AcDbLine
 10
211.684082537608
 20
97.80920580684661
 30
0.0
 11
211.684082537608
 21
104.8092058068466
 31
0.0
  0
LINE
  5
47F
330
18
100
AcDbEntity
  8
1
  6
Continuous
100
AcDbLine
 10
220.184082537608
 20
98.5683948068466
 30
0.0
 11
220.184082537608
 21
104.0500158068466
 31
0.0
  0
LINE
  5
480
330
18
100
AcDbEntity
  8
1
  6
Continuous
100
AcDbLine
 10
228.6840825376081
 20
97.80920580684661
 30
0.0
 11
228.6840825376081
 21
104.8092058068466
 31
0.0
  0
ARC
  5
481
330
18
100
AcDbEntity
  8
1
  6
Continuous
100
AcDbCircle
 10
264.1840825376081
 20
70.48985980684658
 30
0.0
 40
31.5
100
AcDbArc
 50
26.35024099999999
 51
125.6802629999999
  0
ARC
  5
482
330
18
100
AcDbEntity
  8
1
  6
Continuous
100
AcDbCircle
 10
264.1840825376081
 20
70.48985980684658
 30
0.0
 40
28.6
100
AcDbArc
 50
29.30841299999999
 51
125.6802629999999
  0
LINE
  5
483
330
18
100
AcDbEntity
  8
4
  6
CENTER
100
AcDbLine
 10
220.184082537608
 20
35.2705128068466
 30
0.0
 11
220.184082537608
 21
110.7705148068464
 31
0.0
  0
ARC
  5
484
330
18
100
AcDbEntity
  8
1
  6
Continuous
100
AcDbCircle
 10
264.1840825376081
 20
70.48985980684658
 30
0.0
 40
23.6
100
AcDbArc
 50
36.38586800000001
 51
142.252632
  0
ARC
  5
485
330
18
100
AcDbEntity
  8
1
  6
Continuous
100
AcDbCircle
 10
264.1840825376081
 20
70.48985980684658
 30
0.0
 40
23.6
100
AcDbArc
 50
217.747366
 51
323.6141319999998
  0
ARC
  5
486
330
18
100
AcDbEntity
  8
1
  6
Continuous
100
AcDbCircle
 10
264.1840825376081
 20
70.48985980684658
 30
0.0
 40
28.6
100
AcDbArc
 50
234.3197369999999
 51
330.691587
  0
ARC
  5
487
330
18
100
AcDbEntity
  8
1
  6
Continuous
100
AcDbCircle
 10
264.1840825376081
 20
70.48985980684658
 30
0.0
 40
31.5
100
AcDbArc
 50
234.3197369999999
 51
333.6497589999999
  0
LINE
  5
488
330
18
100
AcDbEntity
  8
1
  6
Continuous
100
AcDbLine
 10
239.9725155376081
 20
49.68005180684659
 30
0.0
 11
204.1171845376081
 21
49.66276980684661
 31
0.0
  0
LINE
  5
489
330
18
100
AcDbEntity
  8
1
  6
Continuous
100
AcDbLine
 10
239.9739135376081
 20
46.78005180684659
 30
0.0
 11
204.1171845376081
 21
46.76276880684659
 31
0.0
  0
LINE
  5
48A
330
18
100
AcDbEntity
  8
1
  6
Continuous
100
AcDbLine
 10
239.9739135376081
 20
94.1996678068466
 30
0.0
 11
204.1171845376081
 21
94.21694980684661
 31
0.0
  0
LINE
  5
48B
330
18
100
AcDbEntity
  8
1
  6
Continuous
100
AcDbLine
 10
239.9725155376081
 20
91.29966780684659
 30
0.0
 11
204.1171845376081
 21
91.3169488068466
 31
0.0
  0
LINE
  5
48C
330
18
100
AcDbEntity
  8
1
  6
Continuous
100
AcDbLine
 10
231.1340825376081
 20
97.80920580684661
 30
0.0
 11
209.2340825376081
 21
97.80920580684661
 31
0.0
  0
LINE
  5
48D
330
18
100
AcDbEntity
  8
1
  6
Continuous
100
AcDbLine
 10
232.438176537608
 20
90.88985980684659
 30
0.0
 11
207.9299885376081
 21
90.88985980684659
 31
0.0
  0
LINE
  5
48E
330
18
100
AcDbEntity
  8
1
  6
Continuous
100
AcDbLine
 10
220.184082537608
 20
94.2092058068466
 30
0.0
 11
209.2340825376081
 21
94.2092058068466
 31
0.0
  0
LINE
  5
48F
330
18
100
AcDbEntity
  8
1
  6
Continuous
100
AcDbLine
 10
232.438176537608
 20
50.08985980684659
 30
0.0
 11
207.9299885376081
 21
50.08985980684659
 31
0.0
  0
LINE
  5
490
330
18
100
AcDbEntity
  8
1
  6
Continuous
100
AcDbLine
 10
205.184082537608
 20
52.9898598068466
 30
0.0
 11
235.184082537608
 21
52.9898598068466
 31
0.0
  0
LINE
  5
491
330
18
100
AcDbEntity
  8
1
  6
Continuous
100
AcDbLine
 10
205.184082537608
 20
87.98985980684657
 30
0.0
 11
235.184082537608
 21
87.98985980684657
 31
0.0
  0
ARC
  5
492
330
18
100
AcDbEntity
  8
1
  6
Continuous
100
AcDbCircle
 10
205.184082537608
 20
72.02557480684664
 30
0.0
 40
19.03571399999998
100
AcDbArc
 50
234.6997519999999
 51
270.0
  0
LINE
  5
493
330
18
100
AcDbEntity
  8
1
  6
Continuous
100
AcDbLine
 10
204.1171845376081
 20
46.76276880684659
 30
0.0
 11
204.1171845376081
 21
49.66276980684661
 31
0.0
  0
ARC
  5
494
330
18
100
AcDbEntity
  8
1
  6
Continuous
100
AcDbCircle
 10
207.9299885376081
 20
52.83985980684658
 30
0.0
 40
2.75
100
AcDbArc
 50
176.873224
 51
270.0
  0
ARC
  5
495
330
18
100
AcDbEntity
  8
1
  6
Continuous
100
AcDbCircle
 10
205.184082537608
 20
68.9541458068466
 30
0.0
 40
19.03571399999998
100
AcDbArc
 50
90.0
 51
125.300248
  0
LINE
  5
496
330
18
100
AcDbEntity
  8
1
  6
Continuous
100
AcDbLine
 10
204.1171845376081
 20
94.21694980684661
 30
0.0
 11
204.1171845376081
 21
91.3169488068466
 31
0.0
  0
ARC
  5
497
330
18
100
AcDbEntity
  8
1
  6
Continuous
100
AcDbCircle
 10
207.9299885376081
 20
88.13985980684661
 30
0.0
 40
2.75
100
AcDbArc
 50
90.0
 51
183.1267759999999
  0
LINE
  5
498
330
18
100
AcDbEntity
  8
1
  6
Continuous
100
AcDbLine
 10
209.2340825376081
 20
94.2092058068466
 30
0.0
 11
209.2340825376081
 21
97.80920580684661
 31
0.0
  0
ARC
  5
499
330
18
100
AcDbEntity
  8
1
  6
Continuous
100
AcDbCircle
 10
239.9787335376079
 20
36.7800528068466
 30
0.0
 40
12.9
100
AcDbArc
 50
54.31973699999999
 51
90.02761600000004
  0
ARC
  5
49A
330
18
100
AcDbEntity
  8
1
  6
Continuous
100
AcDbCircle
 10
239.9787335376079
 20
36.7800528068466
 30
0.0
 40
10.0
100
AcDbArc
 50
54.31973699999999
 51
90.02761600000004
  0
ARC
  5
49B
330
18
100
AcDbEntity
  8
1
  6
Continuous
100
AcDbCircle
 10
235.184082537608
 20
72.02557480684664
 30
0.0
 40
19.03571399999998
100
AcDbArc
 50
270.0
 51
305.3002479999999
  0
LINE
  5
49C
330
18
100
AcDbEntity
  8
1
  6
Continuous
100
AcDbLine
 10
228.6840825376081
 20
46.7705128068466
 30
0.0
 11
211.684082537608
 21
46.7705128068466
 31
0.0
  0
ARC
  5
49D
330
18
100
AcDbEntity
  8
1
  6
Continuous
100
AcDbCircle
 10
224.4340825376081
 20
52.5460198068466
 30
0.0
 40
12.275507
100
AcDbArc
 50
249.7438419999999
 51
290.256158
  0
LINE
  5
49E
330
18
100
AcDbEntity
  8
1
  6
Continuous
100
AcDbLine
 10
228.6840825376081
 20
40.27051280684659
 30
0.0
 11
211.684082537608
 21
40.27051280684659
 31
0.0
  0
LINE
  5
49F
330
18
100
AcDbEntity
  8
1
  6
Continuous
100
AcDbLine
 10
220.184082537608
 20
49.6898598068466
 30
0.0
 11
228.184082537608
 21
49.6898598068466
 31
0.0
  0
ARC
  5
4A0
330
18
100
AcDbEntity
  8
1
  6
Continuous
100
AcDbCircle
 10
215.934082537608
 20
52.5460198068466
 30
0.0
 40
12.275507
100
AcDbArc
 50
249.7438419999999
 51
290.256158
  0
LINE
  5
4A1
330
18
100
AcDbEntity
  8
1
  6
Continuous
100
AcDbLine
 10
211.684082537608
 20
40.27051280684659
 30
0.0
 11
211.684082537608
 21
46.76641680684659
 31
0.0
  0
LINE
  5
4A2
330
18
100
AcDbEntity
  8
1
  6
Continuous
100
AcDbLine
 10
220.184082537608
 20
41.02970280684659
 30
0.0
 11
220.184082537608
 21
46.7705128068466
 31
0.0
  0
LINE
  5
4A3
330
18
100
AcDbEntity
  8
1
  6
Continuous
100
AcDbLine
 10
220.184082537608
 20
49.6898598068466
 30
0.0
 11
212.184082537608
 21
49.6898598068466
 31
0.0
  0
LINE
  5
4A4
330
18
100
AcDbEntity
  8
1
  6
Continuous
100
AcDbLine
 10
212.184082537608
 20
49.6898598068466
 30
0.0
 11
212.184082537608
 21
50.08985980684659
 31
0.0
  0
LINE
  5
4A5
330
18
100
AcDbEntity
  8
1
  6
Continuous
100
AcDbLine
 10
228.6840825376081
 20
40.27051280684659
 30
0.0
 11
228.6840825376081
 21
46.77460980684659
 31
0.0
  0
ARC
  5
4A6
330
18
100
AcDbEntity
  8
1
  6
Continuous
100
AcDbCircle
 10
232.438176537608
 20
52.83985980684658
 30
0.0
 40
2.75
100
AcDbArc
 50
270.0
 51
3.126775999999998
  0
LINE
  5
4A7
330
18
100
AcDbEntity
  8
1
  6
Continuous
100
AcDbLine
 10
228.184082537608
 20
49.6898598068466
 30
0.0
 11
228.184082537608
 21
50.08985980684659
 31
0.0
  0
ARC
  5
4A8
330
18
100
AcDbEntity
  8
1
  6
Continuous
100
AcDbCircle
 10
239.9787335376079
 20
104.1996658068465
 30
0.0
 40
12.9
100
AcDbArc
 50
269.9723839999999
 51
305.6802629999998
  0
ARC
  5
4A9
330
18
100
AcDbEntity
  8
1
  6
Continuous
100
AcDbCircle
 10
239.9787335376079
 20
104.1996658068465
 30
0.0
 40
10.0
100
AcDbArc
 50
269.9723839999999
 51
305.6802629999998
  0
ARC
  5
4AA
330
18
100
AcDbEntity
  8
1
  6
Continuous
100
AcDbCircle
 10
235.184082537608
 20
68.9541458068466
 30
0.0
 40
19.03571399999998
100
AcDbArc
 50
54.699752
 51
90.0
  0
ARC
  5
4AB
330
18
100
AcDbEntity
  8
1
  6
Continuous
100
AcDbCircle
 10
224.4340825376081
 20
110.0847118068466
 30
0.0
 40
12.275507
100
AcDbArc
 50
249.7438419999999
 51
290.256158
  0
LINE
  5
4AC
330
18
100
AcDbEntity
  8
1
  6
Continuous
100
AcDbLine
 10
229.684082537608
 20
97.80920580684661
 30
0.0
 11
220.184082537608
 21
97.80920580684661
 31
0.0
  0
LINE
  5
4AD
330
18
100
AcDbEntity
  8
1
  6
Continuous
100
AcDbLine
 10
220.184082537608
 20
91.28985980684658
 30
0.0
 11
228.184082537608
 21
91.28985980684658
 31
0.0
  0
LINE
  5
4AE
330
18
100
AcDbEntity
  8
1
  6
Continuous
100
AcDbLine
 10
220.184082537608
 20
94.2092058068466
 30
0.0
 11
231.1340825376081
 21
94.2092058068466
 31
0.0
  0
LINE
  5
4AF
330
18
100
AcDbEntity
  8
1
  6
Continuous
100
AcDbLine
 10
220.184082537608
 20
91.28985980684658
 30
0.0
 11
212.184082537608
 21
91.28985980684658
 31
0.0
  0
LINE
  5
4B0
330
18
100
AcDbEntity
  8
1
  6
Continuous
100
AcDbLine
 10
212.184082537608
 20
91.28985980684658
 30
0.0
 11
212.184082537608
 21
90.88985980684659
 31
0.0
  0
LINE
  5
4B1
330
18
100
AcDbEntity
  8
1
  6
Continuous
100
AcDbLine
 10
216.5846385376081
 20
97.80920580684661
 30
0.0
 11
220.1846385376081
 21
94.2092058068466
 31
0.0
  0
ARC
  5
4B2
330
18
100
AcDbEntity
  8
1
  6
Continuous
100
AcDbCircle
 10
215.934082537608
 20
110.0847118068466
 30
0.0
 40
12.275507
100
AcDbArc
 50
249.7438419999999
 51
290.256158
  0
LINE
  5
4B3
330
18
100
AcDbEntity
  8
1
  6
Continuous
100
AcDbLine
 10
220.184082537608
 20
97.80920580684661
 30
0.0
 11
223.785818537608
 21
94.20746980684659
 31
0.0
  0
ARC
  5
4B4
330
18
100
AcDbEntity
  8
1
  6
Continuous
100
AcDbCircle
 10
232.438176537608
 20
88.13985980684661
 30
0.0
 40
2.75
100
AcDbArc
 50
356.873224
 51
90.0
  0
LINE
  5
4B5
330
18
100
AcDbEntity
  8
1
  6
Continuous
100
AcDbLine
 10
228.184082537608
 20
91.28985980684658
 30
0.0
 11
228.184082537608
 21
90.88985980684659
 31
0.0
  0
LINE
  5
4B6
330
18
100
AcDbEntity
  8
1
  6
Continuous
100
AcDbLine
 10
231.1340825376081
 20
94.2092058068466
 30
0.0
 11
231.1340825376081
 21
97.80920580684661
 31
0.0
  0
ARC
  5
4B7
330
18
100
AcDbEntity
  8
1
  6
Continuous
100
AcDbCircle
 10
262.6840825376081
 20
70.48985980684658
 30
0.0
 40
35.0
100
AcDbArc
 50
341.1809369999998
 51
18.81906299999998
  0
ARC
  5
4B8
330
18
100
AcDbEntity
  8
1
  6
Continuous
100
AcDbCircle
 10
292.0268845376079
 20
60.4898598068466
 30
0.0
 40
4.0
100
AcDbArc
 50
270.0
 51
341.1809369999998
  0
ARC
  5
4B9
330
18
100
AcDbEntity
  8
1
  6
Continuous
100
AcDbCircle
 10
292.0268845376079
 20
80.48985980684657
 30
0.0
 40
4.0
100
AcDbArc
 50
18.81906299999998
 51
90.0
  0
ARC
  5
4BA
330
18
100
AcDbEntity
  8
1
  6
Continuous
100
AcDbCircle
 10
220.1844045376079
 20
226.4156938068465
 30
0.0
 40
46.5
100
AcDbArc
 50
83.119165
 51
21.741025
  0
ARC
  5
4BB
330
18
100
AcDbEntity
  8
1
  6
Continuous
100
AcDbCircle
 10
224.4340825376081
 20
92.5336988068466
 30
0.0
 40
12.275507
100
AcDbArc
 50
69.743842
 51
110.2561579999999
  0
LINE
  5
4BC
330
18
100
AcDbEntity
  8
1
  6
Continuous
100
AcDbLine
 10
228.6840825376081
 20
104.8092058068466
 30
0.0
 11
211.684082537608
 21
104.8092058068466
 31
0.0
  0
LINE
  5
4BD
330
18
100
AcDbEntity
  8
1
  6
Continuous
100
AcDbLine
 10
214.1840825376081
 20
105.1705148068465
 30
0.0
 11
226.184082537608
 21
105.1705148068465
 31
0.0
  0
LINE
  5
4BE
330
18
100
AcDbEntity
  8
1
  6
Continuous
100
AcDbLine
 10
225.5840825376081
 20
105.7705148068464
 30
0.0
 11
226.184082537608
 21
105.1705148068465
 31
0.0
  0
ARC
  5
4BF
330
18
100
AcDbEntity
  8
1
  6
Continuous
100
AcDbCircle
 10
215.934082537608
 20
92.5336988068466
 30
0.0
 40
12.275507
100
AcDbArc
 50
69.743842
 51
110.2561579999999
  0
LINE
  5
4C0
330
18
100
AcDbEntity
  8
1
  6
Continuous
100
AcDbLine
 10
225.5840825376081
 20
105.7705148068464
 30
0.0
 11
214.784082537608
 21
105.7705148068464
 31
0.0
  0
LINE
  5
4C1
330
18
100
AcDbEntity
  8
2
  6
Continuous
100
AcDbLine
 10
215.1310825376081
 20
104.8092058068466
 30
0.0
 11
215.1310825376081
 21
105.7705148068464
 31
0.0
  0
LINE
  5
4C2
330
18
100
AcDbEntity
  8
1
  6
Continuous
100
AcDbLine
 10
214.1840825376081
 20
105.1705148068465
 30
0.0
 11
214.784082537608
 21
105.7705148068464
 31
0.0
  0
LINE
  5
4C3
330
18
100
AcDbEntity
  8
1
  6
Continuous
100
AcDbLine
 10
214.1840825376081
 20
105.1705148068465
 30
0.0
 11
214.1840825376081
 21
104.8092058068466
 31
0.0
  0
LINE
  5
4C4
330
18
100
AcDbEntity
  8
2
  6
Continuous
100
AcDbLine
 10
225.237082537608
 20
104.8092058068466
 30
0.0
 11
225.237082537608
 21
105.7705148068464
 31
0.0
  0
LINE
  5
4C5
330
18
100
AcDbEntity
  8
1
  6
Continuous
100
AcDbLine
 10
226.184082537608
 20
104.8092058068466
 30
0.0
 11
226.184082537608
 21
105.1705148068465
 31
0.0
  0
ARC
  5
4C6
330
18
100
AcDbEntity
  8
1
  6
Continuous
100
AcDbCircle
 10
220.1844045376079
 20
226.4156938068465
 30
0.0
 40
36.0
100
AcDbArc
 50
87.83727899999998
 51
12.418436
  0
CIRCLE
  5
4C7
330
18
100
AcDbEntity
  8
1
  6
Continuous
100
AcDbCircle
 10
220.1844045376079
 20
226.4156938068465
 30
0.0
 40
10.94999999999999
  0
ARC
  5
4C8
330
18
100
AcDbEntity
  8
1
  6
Continuous
100
AcDbCircle
 10
101.9522665376081
 20
309.3003418068466
 30
0.0
 40
127.684495
100
AcDbArc
 50
324.750312
 51
333.229306
  0
ARC
  5
4C9
330
18
100
AcDbEntity
  8
1
  6
Continuous
100
AcDbCircle
 10
221.175154537608
 20
227.3943358068466
 30
0.0
 40
17.05797
100
AcDbArc
 50
151.2140169999999
 51
237.7886709999999
  0
CIRCLE
  5
4CA
330
18
100
AcDbEntity
  8
1
  6
Continuous
100
AcDbCircle
 10
196.085208537608
 20
193.2459968068465
 30
0.0
 40
3.5
  0
CIRCLE
  5
4CB
330
18
100
AcDbEntity
  8
1
  6
Continuous
100
AcDbCircle
 10
181.1910875376081
 20
239.0853898068465
 30
0.0
 40
3.5
  0
LINE
  5
4CC
330
18
100
AcDbEntity
  8
1
  6
Continuous
100
AcDbLine
 10
228.6844045376079
 20
221.5082158068466
 30
0.0
 11
228.6844045376079
 21
231.3231708068466
 31
0.0
  0
LINE
  5
4CD
330
18
100
AcDbEntity
  8
1
  6
Continuous
100
AcDbLine
 10
211.6844045376079
 20
221.5082158068466
 30
0.0
 11
211.6844045376079
 21
231.3231708068466
 31
0.0
  0
CIRCLE
  5
4CE
330
18
100
AcDbEntity
  8
1
  6
Continuous
100
AcDbCircle
 10
220.1844045376079
 20
226.4156938068465
 30
0.0
 40
8.5
  0
CIRCLE
  5
4CF
330
18
100
AcDbEntity
  8
1
  6
Continuous
100
AcDbCircle
 10
220.1844045376079
 20
226.4156938068465
 30
0.0
 40
6.0
  0
CIRCLE
  5
4D0
330
18
100
AcDbEntity
  8
2
  6
Continuous
100
AcDbCircle
 10
220.1844045376079
 20
226.4156938068465
 30
0.0
 40
5.052999999999999
  0
CIRCLE
  5
4D1
330
18
100
AcDbEntity
  8
1
  6
Continuous
100
AcDbCircle
 10
244.2835995376081
 20
193.2459968068465
 30
0.0
 40
3.5
  0
LINE
  5
4D2
330
18
100
AcDbEntity
  8
1
  6
Continuous
100
AcDbLine
 10
228.6844045376079
 20
221.5082158068466
 30
0.0
 11
220.1844045376079
 21
216.6007388068466
 31
0.0
  0
ARC
  5
4D3
330
18
100
AcDbEntity
  8
1
  6
Continuous
100
AcDbCircle
 10
220.4587155376081
 20
226.2571488068466
 30
0.0
 40
15.713917
100
AcDbArc
 50
237.7886709999999
 51
298.581575
  0
LINE
  5
4D4
330
18
100
AcDbEntity
  8
1
  6
Continuous
100
AcDbLine
 10
211.6844045376079
 20
221.5082158068466
 30
0.0
 11
220.1844045376079
 21
216.6007388068466
 31
0.0
  0
ARC
  5
4D5
330
18
100
AcDbEntity
  8
1
  6
Continuous
100
AcDbCircle
 10
212.968387537608
 20
247.1617678068465
 30
0.0
 40
37.80978199999999
100
AcDbArc
 50
293.3866929999999
 51
307.495857
  0
LINE
  5
4D6
330
18
100
AcDbEntity
  8
1
  6
Continuous
100
AcDbLine
 10
220.1844045376079
 20
236.2306478068465
 30
0.0
 11
228.6844045376079
 21
231.3231708068466
 31
0.0
  0
LINE
  5
4D7
330
18
100
AcDbEntity
  8
1
  6
Continuous
100
AcDbLine
 10
220.1844045376079
 20
236.2306478068465
 30
0.0
 11
211.6844045376079
 21
231.3231708068466
 31
0.0
  0
CIRCLE
  5
4D8
330
18
100
AcDbEntity
  8
1
  6
Continuous
100
AcDbCircle
 10
220.1844045376079
 20
267.4156938068465
 30
0.0
 40
3.5
  0
ARC
  5
4D9
330
18
100
AcDbEntity
  8
1
  6
Continuous
100
AcDbCircle
 10
259.1777215376081
 20
239.0853898068465
 30
0.0
 40
3.5
100
AcDbArc
 50
229.5371749999999
 51
50.219853
  0
ARC
  5
4DA
330
18
100
AcDbEntity
  8
1
  6
Continuous
100
AcDbCircle
 10
370.7262805376079
 20
183.9156938068466
 30
0.0
 40
35.0
100
AcDbArc
 50
251.180937
 51
288.819063
  0
ARC
  5
4DB
330
18
100
AcDbEntity
  8
1
  6
Continuous
100
AcDbCircle
 10
360.726280537608
 20
154.5728918068465
 30
0.0
 40
4.0
100
AcDbArc
 50
180.0
 51
251.180937
  0
ARC
  5
4DC
330
18
100
AcDbEntity
  8
1
  6
Continuous
100
AcDbCircle
 10
380.7262805376079
 20
154.5728918068465
 30
0.0
 40
4.0
100
AcDbArc
 50
288.819063
 51
0.0
  0
LINE
  5
4DD
330
18
100
AcDbEntity
  8
1
  6
Continuous
100
AcDbLine
 10
336.4168345376081
 20
217.9156938068465
 30
0.0
 11
336.4168345376081
 21
234.9156938068464
 31
0.0
  0
ARC
  5
4DE
330
18
100
AcDbEntity
  8
1
  6
Continuous
100
AcDbCircle
 10
352.6576445376079
 20
226.4156938068465
 30
0.0
 40
16.24081099999999
100
AcDbArc
 50
162.412046
 51
197.5879539999999
  0
LINE
  5
4DF
330
18
100
AcDbEntity
  8
1
  6
Continuous
100
AcDbLine
 10
335.4555255376081
 20
221.0156938068466
 30
0.0
 11
335.4555255376081
 21
231.8156938068466
 31
0.0
  0
LINE
  5
4E0
330
18
100
AcDbEntity
  8
1
  6
Continuous
100
AcDbLine
 10
336.0555255376081
 20
232.4156938068465
 30
0.0
 11
336.0555255376081
 21
220.4156938068466
 31
0.0
  0
ARC
  5
4E1
330
18
100
AcDbEntity
  8
1
  6
Continuous
100
AcDbCircle
 10
327.1760235376079
 20
226.4156938068465
 30
0.0
 40
16.24081099999999
100
AcDbArc
 50
342.4120459999998
 51
17.587954
  0
LINE
  5
4E2
330
18
100
AcDbEntity
  8
1
  6
Continuous
100
AcDbLine
 10
343.4168345376079
 20
237.3674288068465
 30
0.0
 11
343.4168345376079
 21
215.4674238068465
 31
0.0
  0
ARC
  5
4E3
330
18
100
AcDbEntity
  8
1
  6
Continuous
100
AcDbCircle
 10
335.0027525376079
 20
228.3125388068465
 30
0.0
 40
12.0
100
AcDbArc
 50
359.9888199999999
 51
38.772301
  0
ARC
  5
4E4
330
18
100
AcDbEntity
  8
1
  6
Continuous
100
AcDbCircle
 10
335.0078445376079
 20
228.3062008068466
 30
0.0
 40
14.9
100
AcDbArc
 50
359.9723839999999
 51
38.78549699999999
  0
ARC
  5
4E5
330
18
100
AcDbEntity
  8
1
  6
Continuous
100
AcDbCircle
 10
406.4447165376078
 20
228.3062008068466
 30
0.0
 40
14.9
100
AcDbArc
 50
141.214503
 51
180.0276159999999
  0
LINE
  5
4E6
330
18
100
AcDbEntity
  8
1
  6
Continuous
100
AcDbLine
 10
349.9262805376081
 20
226.4156938068465
 30
0.0
 11
349.9262805376081
 21
234.4156938068465
 31
0.0
  0
LINE
  5
4E7
330
18
100
AcDbEntity
  8
1
  6
Continuous
100
AcDbLine
 10
388.226280537608
 20
241.4156938068466
 30
0.0
 11
388.226280537608
 21
211.4156938068465
 31
0.0
  0
LINE
  5
4E8
330
18
100
AcDbEntity
  8
1
  6
Continuous
100
AcDbLine
 10
391.1262805376081
 20
214.1615998068465
 30
0.0
 11
391.1262805376081
 21
238.6697878068465
 31
0.0
  0
LINE
  5
4E9
330
18
100
AcDbEntity
  8
1
  6
Continuous
100
AcDbLine
 10
353.2262805376078
 20
241.4156938068466
 30
0.0
 11
353.2262805376078
 21
211.4156938068465
 31
0.0
  0
LINE
  5
4EA
330
18
100
AcDbEntity
  8
1
  6
Continuous
100
AcDbLine
 10
350.3262805376079
 20
214.1615998068465
 30
0.0
 11
350.3262805376079
 21
238.6697878068465
 31
0.0
  0
ARC
  5
4EB
330
18
100
AcDbEntity
  8
1
  6
Continuous
100
AcDbCircle
 10
372.2619945376081
 20
211.4156938068465
 30
0.0
 40
19.03571399999998
100
AcDbArc
 50
180.0
 51
215.300248
  0
LINE
  5
4EC
330
18
100
AcDbEntity
  8
1
  6
Continuous
100
AcDbLine
 10
346.9992855376081
 20
210.5456258068465
 30
0.0
 11
349.8992855376079
 21
210.5456258068465
 31
0.0
  0
ARC
  5
4ED
330
18
100
AcDbEntity
  8
1
  6
Continuous
100
AcDbCircle
 10
339.0719355376079
 20
219.0544778068465
 30
0.0
 40
4.344898999999998
100
AcDbArc
 50
334.384247
 51
34.38424699999997
  0
ARC
  5
4EE
330
18
100
AcDbEntity
  8
1
  6
Continuous
100
AcDbCircle
 10
340.7617325376081
 20
219.0544778068465
 30
0.0
 40
4.344898999999998
100
AcDbArc
 50
145.615753
 51
205.615753
  0
LINE
  5
4EF
330
18
100
AcDbEntity
  8
1
  6
Continuous
100
AcDbLine
 10
347.0027525376079
 20
228.3101968068466
 30
0.0
 11
346.999286537608
 21
210.5456258068465
 31
0.0
  0
LINE
  5
4F0
330
18
100
AcDbEntity
  8
1
  6
Continuous
100
AcDbLine
 10
342.6576445376081
 20
216.6007388068466
 30
0.0
 11
337.1760235376081
 21
216.6007388068466
 31
0.0
  0
LINE
  5
4F1
330
18
100
AcDbEntity
  8
1
  6
Continuous
100
AcDbLine
 10
337.1760235376081
 20
216.6007388068466
 30
0.0
 11
336.4168345376081
 21
217.9156938068465
 31
0.0
  0
LINE
  5
4F2
330
18
100
AcDbEntity
  8
1
  6
Continuous
100
AcDbLine
 10
347.011534537608
 20
215.4656938068465
 30
0.0
 11
343.406257537608
 21
215.4674288068465
 31
0.0
  0
LINE
  5
4F3
330
18
100
AcDbEntity
  8
1
  6
Continuous
100
AcDbLine
 10
342.6576445376081
 20
216.6007388068466
 30
0.0
 11
343.4168345376079
 21
217.9156938068465
 31
0.0
  0
LINE
  5
4F4
330
18
100
AcDbEntity
  8
1
  6
Continuous
100
AcDbLine
 10
342.6576445376081
 20
221.5082158068466
 30
0.0
 11
337.1760235376081
 21
221.5082158068466
 31
0.0
  0
LINE
  5
4F5
330
18
100
AcDbEntity
  8
1
  6
Continuous
100
AcDbLine
 10
336.4168345376081
 20
220.4156938068466
 30
0.0
 11
336.0555255376081
 21
220.4156938068466
 31
0.0
  0
LINE
  5
4F6
330
18
100
AcDbEntity
  8
1
  6
Continuous
100
AcDbLine
 10
335.4555255376081
 20
221.0156938068466
 30
0.0
 11
336.0555255376081
 21
220.4156938068466
 31
0.0
  0
LINE
  5
4F7
330
18
100
AcDbEntity
  8
2
  6
Continuous
100
AcDbLine
 10
336.4168345376081
 20
221.3626938068466
 30
0.0
 11
335.4555255376081
 21
221.3626938068466
 31
0.0
  0
LINE
  5
4F8
330
18
100
AcDbEntity
  8
1
  6
Continuous
100
AcDbLine
 10
347.0023825376082
 20
226.4156938068465
 30
0.0
 11
343.4168345376079
 21
222.8301448068466
 31
0.0
  0
LINE
  5
4F9
330
18
100
AcDbEntity
  8
1
  6
Continuous
100
AcDbLine
 10
343.4168345376079
 20
226.4156938068465
 30
0.0
 11
346.8977415376079
 21
229.8966008068465
 31
0.0
  0
LINE
  5
4FA
330
18
100
AcDbEntity
  8
1
  6
Continuous
100
AcDbLine
 10
349.9262805376081
 20
226.4156938068465
 30
0.0
 11
349.9262805376081
 21
218.4156938068466
 31
0.0
  0
ARC
  5
4FB
330
18
100
AcDbEntity
  8
1
  6
Continuous
100
AcDbCircle
 10
353.0762805376081
 20
214.1615998068465
 30
0.0
 40
2.75
100
AcDbArc
 50
180.0
 51
273.1267759999998
  0
LINE
  5
4FC
330
18
100
AcDbEntity
  8
1
  6
Continuous
100
AcDbLine
 10
349.9262805376081
 20
218.4156938068466
 30
0.0
 11
350.3262805376079
 21
218.4156938068466
 31
0.0
  0
ARC
  5
4FD
330
18
100
AcDbEntity
  8
1
  6
Continuous
100
AcDbCircle
 10
369.1905655376079
 20
211.4156938068465
 30
0.0
 40
19.03571399999998
100
AcDbArc
 50
324.6997519999998
 51
0.0
  0
LINE
  5
4FE
330
18
100
AcDbEntity
  8
1
  6
Continuous
100
AcDbLine
 10
394.4498085376079
 20
228.3101968068466
 30
0.0
 11
394.4532755376081
 21
210.5456258068465
 31
0.0
  0
ARC
  5
4FF
330
18
100
AcDbEntity
  8
1
  6
Continuous
100
AcDbCircle
 10
388.3762805376081
 20
214.1615998068465
 30
0.0
 40
2.75
100
AcDbArc
 50
266.8732240000001
 51
0.0
  0
LINE
  5
500
330
18
100
AcDbEntity
  8
1
  6
Continuous
100
AcDbLine
 10
391.5262805376079
 20
218.4156938068466
 30
0.0
 11
391.1262805376081
 21
218.4156938068466
 31
0.0
  0
LINE
  5
501
330
18
100
AcDbEntity
  8
1
  6
Continuous
100
AcDbLine
 10
391.5532745376079
 20
210.5456258068465
 30
0.0
 11
394.4532755376081
 21
210.5456258068465
 31
0.0
  0
LINE
  5
502
330
18
100
AcDbEntity
  8
1
  6
Continuous
100
AcDbLine
 10
342.1262805376081
 20
254.9156938068465
 30
0.0
 11
342.1262805376081
 21
250.6887198068465
 31
0.0
  0
ARC
  5
503
330
18
100
AcDbEntity
  8
1
  6
Continuous
100
AcDbCircle
 10
372.2619945376081
 20
241.4156938068466
 30
0.0
 40
19.03571399999998
100
AcDbArc
 50
144.6997519999999
 51
180.0
  0
ARC
  5
504
330
18
100
AcDbEntity
  8
1
  6
Continuous
100
AcDbCircle
 10
362.5226545376079
 20
250.4172118068466
 30
0.0
 40
20.398181
100
AcDbArc
 50
179.237347
 51
218.785497
  0
ARC
  5
505
330
18
100
AcDbEntity
  8
1
  6
Continuous
100
AcDbCircle
 10
362.5226545376079
 20
250.4172118068466
 30
0.0
 40
23.298181
100
AcDbArc
 50
179.2863889999999
 51
218.7723009999999
  0
LINE
  5
506
330
18
100
AcDbEntity
  8
1
  6
Continuous
100
AcDbLine
 10
342.6576445376081
 20
231.3231708068466
 30
0.0
 11
337.1760235376081
 21
231.3231708068466
 31
0.0
  0
LINE
  5
507
330
18
100
AcDbEntity
  8
1
  6
Continuous
100
AcDbLine
 10
342.6576445376081
 20
236.2306478068465
 30
0.0
 11
337.1760235376081
 21
236.2306478068465
 31
0.0
  0
ARC
  5
508
330
18
100
AcDbEntity
  8
1
  6
Continuous
100
AcDbCircle
 10
340.7617325376081
 20
233.7769098068466
 30
0.0
 40
4.344898999999998
100
AcDbArc
 50
154.3842469999999
 51
214.384247
  0
LINE
  5
509
330
18
100
AcDbEntity
  8
1
  6
Continuous
100
AcDbLine
 10
337.1760235376081
 20
236.2306478068465
 30
0.0
 11
336.4168345376081
 21
234.9156938068464
 31
0.0
  0
LINE
  5
50A
330
18
100
AcDbEntity
  8
1
  6
Continuous
100
AcDbLine
 10
336.0555255376081
 20
232.4156938068465
 30
0.0
 11
336.4168345376081
 21
232.4156938068465
 31
0.0
  0
LINE
  5
50B
330
18
100
AcDbEntity
  8
1
  6
Continuous
100
AcDbLine
 10
336.0555255376081
 20
232.4156938068465
 30
0.0
 11
335.4555255376081
 21
231.8156938068466
 31
0.0
  0
LINE
  5
50C
330
18
100
AcDbEntity
  8
2
  6
Continuous
100
AcDbLine
 10
336.4168345376081
 20
231.4686938068466
 30
0.0
 11
335.4555255376081
 21
231.4686938068466
 31
0.0
  0
LINE
  5
50D
330
18
100
AcDbEntity
  8
1
  6
Continuous
100
AcDbLine
 10
342.6576445376081
 20
236.2306478068465
 30
0.0
 11
343.4168345376079
 21
234.9156938068464
 31
0.0
  0
ARC
  5
50E
330
18
100
AcDbEntity
  8
1
  6
Continuous
100
AcDbCircle
 10
339.0719355376079
 20
233.7769098068466
 30
0.0
 40
4.344898999999998
100
AcDbArc
 50
325.6157529999998
 51
25.615753
  0
ARC
  5
50F
330
18
100
AcDbEntity
  8
1
  6
Continuous
100
AcDbCircle
 10
353.0762805376081
 20
238.6697878068465
 30
0.0
 40
2.75
100
AcDbArc
 50
86.87322399999997
 51
180.0
  0
LINE
  5
510
330
18
100
AcDbEntity
  8
1
  6
Continuous
100
AcDbLine
 10
349.9262805376081
 20
234.4156938068465
 30
0.0
 11
350.3262805376079
 21
234.4156938068465
 31
0.0
  0
ARC
  5
511
330
18
100
AcDbEntity
  8
1
  6
Continuous
100
AcDbCircle
 10
369.1905655376079
 20
241.4156938068466
 30
0.0
 40
19.03571399999998
100
AcDbArc
 50
0.0
 51
35.30024799999999
  0
ARC
  5
512
330
18
100
AcDbEntity
  8
1
  6
Continuous
100
AcDbCircle
 10
388.3762805376081
 20
238.6697878068465
 30
0.0
 40
2.75
100
AcDbArc
 50
0.0
 51
93.12677599999998
  0
LINE
  5
513
330
18
100
AcDbEntity
  8
1
  6
Continuous
100
AcDbLine
 10
391.5262805376079
 20
234.4156938068465
 30
0.0
 11
391.1262805376081
 21
234.4156938068465
 31
0.0
  0
LINE
  5
514
330
18
100
AcDbEntity
  8
1
  6
Continuous
100
AcDbLine
 10
225.550895537608
 20
473.0455738068464
 30
0.0
 11
148.341603537608
 21
473.0455738068464
 31
0.0
  0
LINE
  5
515
330
18
100
AcDbEntity
  8
1
  6
Continuous
100
AcDbLine
 10
225.550895537608
 20
501.0455738068466
 30
0.0
 11
148.341603537608
 21
501.0455738068466
 31
0.0
  0
LINE
  5
516
330
18
100
AcDbEntity
  8
4
  6
CENTER
100
AcDbLine
 10
302.6844045376078
 20
487.0455738068463
 30
0.0
 11
137.6844045376079
 21
487.0455738068463
 31
0.0
  0
LINE
  5
517
330
18
100
AcDbEntity
  8
1
  6
Continuous
100
AcDbLine
 10
57.14252953760812
 20
339.5156938068465
 30
0.0
 11
57.14252953760812
 21
407.4156938068464
 31
0.0
  0
LINE
  5
518
330
18
100
AcDbEntity
  8
1
  6
Continuous
100
AcDbLine
 10
78.14252953760811
 20
339.5156938068465
 30
0.0
 11
78.14252953760811
 21
407.4156938068464
 31
0.0
  0
LINE
  5
519
330
18
100
AcDbEntity
  8
1
  6
Continuous
100
AcDbLine
 10
84.22579053760813
 20
324.1156938068466
 30
0.0
 11
87.22579053760814
 21
327.1156938068465
 31
0.0
  0
LINE
  5
51A
330
18
100
AcDbEntity
  8
1
  6
Continuous
100
AcDbLine
 10
87.22579053760814
 20
324.1156938068466
 30
0.0
 11
84.22579053760813
 21
327.1156938068465
 31
0.0
  0
LINE
  5
51B
330
18
100
AcDbEntity
  8
1
  6
Continuous
100
AcDbLine
 10
85.64000453760812
 20
324.1156938068466
 30
0.0
 11
88.64000453760809
 21
327.1156938068465
 31
0.0
  0
LINE
  5
51C
330
18
100
AcDbEntity
  8
1
  6
Continuous
100
AcDbLine
 10
88.64000453760809
 20
324.1156938068466
 30
0.0
 11
85.64000453760812
 21
327.1156938068465
 31
0.0
  0
LINE
  5
51D
330
18
100
AcDbEntity
  8
1
  6
Continuous
100
AcDbLine
 10
37.64252953760811
 20
329.7156938068464
 30
0.0
 11
97.64252953760813
 21
329.7156938068464
 31
0.0
  0
LINE
  5
51E
330
18
100
AcDbEntity
  8
1
  6
Continuous
100
AcDbLine
 10
37.64252953760811
 20
327.1156938068465
 30
0.0
 11
97.64252953760813
 21
327.1156938068465
 31
0.0
  0
LINE
  5
51F
330
18
100
AcDbEntity
  8
1
  6
Continuous
100
AcDbLine
 10
47.64252953760812
 20
337.9156938068464
 30
0.0
 11
87.64252953760808
 21
337.9156938068464
 31
0.0
  0
LINE
  5
520
330
18
100
AcDbEntity
  8
1
  6
Continuous
100
AcDbLine
 10
44.44785053760811
 20
333.0156938068465
 30
0.0
 11
90.83720953760808
 21
333.0156938068465
 31
0.0
  0
ARC
  5
521
330
18
100
AcDbEntity
  8
1
  6
Continuous
100
AcDbCircle
 10
86.41728953760811
 20
319.2156938068464
 30
0.0
 40
2.0
100
AcDbArc
 50
0.027616
 51
90.0
  0
ARC
  5
522
330
18
100
AcDbEntity
  8
1
  6
Continuous
100
AcDbCircle
 10
52.24047053760811
 20
292.4576248068465
 30
0.0
 40
36.67814099999999
100
AcDbArc
 50
9.389900000000002
 51
25.81688399999999
  0
LINE
  5
523
330
18
100
AcDbEntity
  8
1
  6
Continuous
100
AcDbLine
 10
97.64252953760813
 20
324.1156938068466
 30
0.0
 11
37.64252953760811
 21
324.1156938068466
 31
0.0
  0
ARC
  5
524
330
18
100
AcDbEntity
  8
1
  6
Continuous
100
AcDbCircle
 10
57.64252953760813
 20
298.2584948068464
 30
0.0
 40
4.0
100
AcDbArc
 50
108.8190629999999
 51
180.0
  0
LINE
  5
525
330
18
100
AcDbEntity
  8
1
  6
Continuous
100
AcDbLine
 10
53.8303295376081
 20
310.8156938068465
 30
0.0
 11
81.45472953760814
 21
310.8156938068465
 31
0.0
  0
ARC
  5
526
330
18
100
AcDbEntity
  8
1
  6
Continuous
100
AcDbCircle
 10
83.04458853760808
 20
292.4576248068465
 30
0.0
 40
36.67814099999999
100
AcDbArc
 50
154.1831159999999
 51
170.6100999999998
  0
ARC
  5
527
330
18
100
AcDbEntity
  8
1
  6
Continuous
100
AcDbCircle
 10
53.8303295376081
 20
306.5909718068466
 30
0.0
 40
4.224721999999998
100
AcDbArc
 50
90.0
 51
154.1831159999999
  0
ARC
  5
528
330
18
100
AcDbEntity
  8
1
  6
Continuous
100
AcDbCircle
 10
67.64252953760811
 20
268.9156938068464
 30
0.0
 40
35.0
100
AcDbArc
 50
71.180937
 51
108.8190629999999
  0
ARC
  5
529
330
18
100
AcDbEntity
  8
1
  6
Continuous
100
AcDbCircle
 10
77.64252953760811
 20
298.2584948068464
 30
0.0
 40
4.0
100
AcDbArc
 50
0.0
 51
71.180937
  0
ARC
  5
52A
330
18
100
AcDbEntity
  8
1
  6
Continuous
100
AcDbCircle
 10
81.45472953760814
 20
306.5909718068466
 30
0.0
 40
4.224721999999998
100
AcDbArc
 50
25.81688399999999
 51
90.0
  0
LINE
  5
52B
330
18
100
AcDbEntity
  8
1
  6
Continuous
100
AcDbLine
 10
53.11309253760811
 20
324.1156938068466
 30
0.0
 11
56.1130925376081
 21
327.1156938068465
 31
0.0
  0
LINE
  5
52C
330
18
100
AcDbEntity
  8
1
  6
Continuous
100
AcDbLine
 10
56.1130925376081
 20
324.1156938068466
 30
0.0
 11
53.11309253760811
 21
327.1156938068465
 31
0.0
  0
LINE
  5
52D
330
18
100
AcDbEntity
  8
1
  6
Continuous
100
AcDbLine
 10
54.52730553760812
 20
324.1156938068466
 30
0.0
 11
57.52730553760811
 21
327.1156938068465
 31
0.0
  0
LINE
  5
52E
330
18
100
AcDbEntity
  8
1
  6
Continuous
100
AcDbLine
 10
57.52730553760811
 20
324.1156938068466
 30
0.0
 11
54.52730553760812
 21
327.1156938068465
 31
0.0
  0
LINE
  5
52F
330
18
100
AcDbEntity
  8
1
  6
Continuous
100
AcDbLine
 10
48.86776953760811
 20
321.2156938068464
 30
0.0
 11
86.41728953760811
 21
321.2156938068464
 31
0.0
  0
LINE
  5
530
330
18
100
AcDbEntity
  8
1
  6
Continuous
100
AcDbLine
 10
47.64252953760812
 20
337.9156938068464
 30
0.0
 11
47.64252953760812
 21
333.0156938068465
 31
0.0
  0
LINE
  5
531
330
18
100
AcDbEntity
  8
1
  6
Continuous
100
AcDbLine
 10
40.5567435376081
 20
327.1156938068465
 30
0.0
 11
37.64252953760811
 21
324.2014798068465
 31
0.0
  0
LINE
  5
532
330
18
100
AcDbEntity
  8
1
  6
Continuous
100
AcDbLine
 10
38.9709565376081
 20
324.1156938068466
 30
0.0
 11
41.97095653760809
 21
327.1156938068465
 31
0.0
  0
LINE
  5
533
330
18
100
AcDbEntity
  8
1
  6
Continuous
100
AcDbLine
 10
40.5567435376081
 20
324.1156938068466
 30
0.0
 11
37.64252953760811
 21
327.0299068068465
 31
0.0
  0
LINE
  5
534
330
18
100
AcDbEntity
  8
1
  6
Continuous
100
AcDbLine
 10
41.97095653760809
 20
324.1156938068466
 30
0.0
 11
38.9709565376081
 21
327.1156938068465
 31
0.0
  0
ARC
  5
535
330
18
100
AcDbEntity
  8
1
  6
Continuous
100
AcDbCircle
 10
44.44785053760811
 20
327.0156938068465
 30
0.0
 40
6.0
100
AcDbArc
 50
90.0
 51
153.256316
  0
ARC
  5
536
330
18
100
AcDbEntity
  8
1
  6
Continuous
100
AcDbCircle
 10
41.14252953760812
 20
319.1156938068465
 30
0.0
 40
5.0
100
AcDbArc
 50
90.0
 51
180.0
  0
LINE
  5
537
330
18
100
AcDbEntity
  8
1
  6
Continuous
100
AcDbLine
 10
39.14252953760811
 20
327.1156938068465
 30
0.0
 11
37.64252953760811
 21
325.6156938068465
 31
0.0
  0
LINE
  5
538
330
18
100
AcDbEntity
  8
1
  6
Continuous
100
AcDbLine
 10
37.64252953760811
 20
329.7156938068464
 30
0.0
 11
37.64252953760811
 21
324.1156938068466
 31
0.0
  0
LINE
  5
539
330
18
100
AcDbEntity
  8
1
  6
Continuous
100
AcDbLine
 10
39.14252953760811
 20
324.1156938068466
 30
0.0
 11
37.64252953760811
 21
325.6156938068465
 31
0.0
  0
LINE
  5
53A
330
18
100
AcDbEntity
  8
1
  6
Continuous
100
AcDbLine
 10
37.72831653760811
 20
324.1156938068466
 30
0.0
 11
37.64252953760811
 21
324.2014798068465
 31
0.0
  0
LINE
  5
53B
330
18
100
AcDbEntity
  8
1
  6
Continuous
100
AcDbLine
 10
37.72831653760811
 20
327.1156938068465
 30
0.0
 11
37.64252953760811
 21
327.0299068068465
 31
0.0
  0
LINE
  5
53C
330
18
100
AcDbEntity
  8
1
  6
Continuous
100
AcDbLine
 10
51.69887853760812
 20
324.1156938068466
 30
0.0
 11
54.69887853760813
 21
327.1156938068465
 31
0.0
  0
LINE
  5
53D
330
18
100
AcDbEntity
  8
1
  6
Continuous
100
AcDbLine
 10
54.69887853760813
 20
324.1156938068466
 30
0.0
 11
51.69887853760812
 21
327.1156938068465
 31
0.0
  0
LINE
  5
53E
330
18
100
AcDbEntity
  8
1
  6
Continuous
100
AcDbLine
 10
46.04202453760811
 20
324.1156938068466
 30
0.0
 11
49.0420245376081
 21
327.1156938068465
 31
0.0
  0
LINE
  5
53F
330
18
100
AcDbEntity
  8
1
  6
Continuous
100
AcDbLine
 10
47.4562385376081
 20
324.1156938068466
 30
0.0
 11
50.45623853760812
 21
327.1156938068465
 31
0.0
  0
LINE
  5
540
330
18
100
AcDbEntity
  8
1
  6
Continuous
100
AcDbLine
 10
49.0420245376081
 20
324.1156938068466
 30
0.0
 11
46.04202453760811
 21
327.1156938068465
 31
0.0
  0
LINE
  5
541
330
18
100
AcDbEntity
  8
1
  6
Continuous
100
AcDbLine
 10
50.45623853760812
 20
324.1156938068466
 30
0.0
 11
47.4562385376081
 21
327.1156938068465
 31
0.0
  0
LINE
  5
542
330
18
100
AcDbEntity
  8
1
  6
Continuous
100
AcDbLine
 10
40.38517053760811
 20
324.1156938068466
 30
0.0
 11
43.38517053760811
 21
327.1156938068465
 31
0.0
  0
LINE
  5
543
330
18
100
AcDbEntity
  8
1
  6
Continuous
100
AcDbLine
 10
41.7993835376081
 20
324.1156938068466
 30
0.0
 11
44.7993835376081
 21
327.1156938068465
 31
0.0
  0
LINE
  5
544
330
18
100
AcDbEntity
  8
1
  6
Continuous
100
AcDbLine
 10
43.38517053760811
 20
324.1156938068466
 30
0.0
 11
40.38517053760811
 21
327.1156938068465
 31
0.0
  0
LINE
  5
545
330
18
100
AcDbEntity
  8
1
  6
Continuous
100
AcDbLine
 10
44.7993835376081
 20
324.1156938068466
 30
0.0
 11
41.7993835376081
 21
327.1156938068465
 31
0.0
  0
LINE
  5
546
330
18
100
AcDbEntity
  8
1
  6
Continuous
100
AcDbLine
 10
43.21359753760812
 20
324.1156938068466
 30
0.0
 11
46.21359753760811
 21
327.1156938068465
 31
0.0
  0
LINE
  5
547
330
18
100
AcDbEntity
  8
1
  6
Continuous
100
AcDbLine
 10
44.62781153760809
 20
324.1156938068466
 30
0.0
 11
47.62781153760809
 21
327.1156938068465
 31
0.0
  0
LINE
  5
548
330
18
100
AcDbEntity
  8
1
  6
Continuous
100
AcDbLine
 10
46.21359753760811
 20
324.1156938068466
 30
0.0
 11
43.21359753760812
 21
327.1156938068465
 31
0.0
  0
LINE
  5
549
330
18
100
AcDbEntity
  8
1
  6
Continuous
100
AcDbLine
 10
47.62781153760809
 20
324.1156938068466
 30
0.0
 11
44.62781153760809
 21
327.1156938068465
 31
0.0
  0
LINE
  5
54A
330
18
100
AcDbEntity
  8
1
  6
Continuous
100
AcDbLine
 10
48.87045153760811
 20
324.1156938068466
 30
0.0
 11
51.87045153760811
 21
327.1156938068465
 31
0.0
  0
LINE
  5
54B
330
18
100
AcDbEntity
  8
1
  6
Continuous
100
AcDbLine
 10
50.28466553760811
 20
324.1156938068466
 30
0.0
 11
53.28466553760811
 21
327.1156938068465
 31
0.0
  0
LINE
  5
54C
330
18
100
AcDbEntity
  8
1
  6
Continuous
100
AcDbLine
 10
51.87045153760811
 20
324.1156938068466
 30
0.0
 11
48.87045153760811
 21
327.1156938068465
 31
0.0
  0
LINE
  5
54D
330
18
100
AcDbEntity
  8
1
  6
Continuous
100
AcDbLine
 10
53.28466553760811
 20
324.1156938068466
 30
0.0
 11
50.28466553760811
 21
327.1156938068465
 31
0.0
  0
ARC
  5
54E
330
18
100
AcDbEntity
  8
1
  6
Continuous
100
AcDbCircle
 10
47.9683465376081
 20
320.1156938068466
 30
0.0
 40
4.0
100
AcDbArc
 50
90.0
 51
179.972384
  0
ARC
  5
54F
330
18
100
AcDbEntity
  8
1
  6
Continuous
100
AcDbCircle
 10
48.86776953760811
 20
319.2156938068464
 30
0.0
 40
2.0
100
AcDbArc
 50
90.0
 51
179.972384
  0
LINE
  5
550
330
18
100
AcDbEntity
  8
1
  6
Continuous
100
AcDbLine
 10
67.64252953760811
 20
337.9156938068464
 30
0.0
 11
67.64252953760811
 21
333.0156938068465
 31
0.0
  0
LINE
  5
551
330
18
100
AcDbEntity
  8
1
  6
Continuous
100
AcDbLine
 10
68.66944153760812
 20
324.1156938068466
 30
0.0
 11
71.66944153760809
 21
327.1156938068465
 31
0.0
  0
LINE
  5
552
330
18
100
AcDbEntity
  8
1
  6
Continuous
100
AcDbLine
 10
71.66944153760809
 20
324.1156938068466
 30
0.0
 11
68.66944153760812
 21
327.1156938068465
 31
0.0
  0
LINE
  5
553
330
18
100
AcDbEntity
  8
1
  6
Continuous
100
AcDbLine
 10
70.08365553760812
 20
324.1156938068466
 30
0.0
 11
73.08365553760814
 21
327.1156938068465
 31
0.0
  0
LINE
  5
554
330
18
100
AcDbEntity
  8
1
  6
Continuous
100
AcDbLine
 10
73.08365553760814
 20
324.1156938068466
 30
0.0
 11
70.08365553760812
 21
327.1156938068465
 31
0.0
  0
LINE
  5
555
330
18
100
AcDbEntity
  8
1
  6
Continuous
100
AcDbLine
 10
63.0125875376081
 20
324.1156938068466
 30
0.0
 11
66.01258753760811
 21
327.1156938068465
 31
0.0
  0
LINE
  5
556
330
18
100
AcDbEntity
  8
1
  6
Continuous
100
AcDbLine
 10
64.4268005376081
 20
324.1156938068466
 30
0.0
 11
67.4268005376081
 21
327.1156938068465
 31
0.0
  0
LINE
  5
557
330
18
100
AcDbEntity
  8
1
  6
Continuous
100
AcDbLine
 10
66.01258753760811
 20
324.1156938068466
 30
0.0
 11
63.0125875376081
 21
327.1156938068465
 31
0.0
  0
LINE
  5
558
330
18
100
AcDbEntity
  8
1
  6
Continuous
100
AcDbLine
 10
67.4268005376081
 20
324.1156938068466
 30
0.0
 11
64.4268005376081
 21
327.1156938068465
 31
0.0
  0
LINE
  5
559
330
18
100
AcDbEntity
  8
1
  6
Continuous
100
AcDbLine
 10
65.84101453760812
 20
324.1156938068466
 30
0.0
 11
68.84101453760812
 21
327.1156938068465
 31
0.0
  0
LINE
  5
55A
330
18
100
AcDbEntity
  8
1
  6
Continuous
100
AcDbLine
 10
67.25522853760812
 20
324.1156938068466
 30
0.0
 11
70.2552285376081
 21
327.1156938068465
 31
0.0
  0
LINE
  5
55B
330
18
100
AcDbEntity
  8
1
  6
Continuous
100
AcDbLine
 10
68.84101453760812
 20
324.1156938068466
 30
0.0
 11
65.84101453760812
 21
327.1156938068465
 31
0.0
  0
LINE
  5
55C
330
18
100
AcDbEntity
  8
1
  6
Continuous
100
AcDbLine
 10
70.2552285376081
 20
324.1156938068466
 30
0.0
 11
67.25522853760812
 21
327.1156938068465
 31
0.0
  0
LINE
  5
55D
330
18
100
AcDbEntity
  8
1
  6
Continuous
100
AcDbLine
 10
57.35573353760814
 20
324.1156938068466
 30
0.0
 11
60.3557335376081
 21
327.1156938068465
 31
0.0
  0
LINE
  5
55E
330
18
100
AcDbEntity
  8
1
  6
Continuous
100
AcDbLine
 10
58.7699465376081
 20
324.1156938068466
 30
0.0
 11
61.76994653760811
 21
327.1156938068465
 31
0.0
  0
LINE
  5
55F
330
18
100
AcDbEntity
  8
1
  6
Continuous
100
AcDbLine
 10
60.3557335376081
 20
324.1156938068466
 30
0.0
 11
57.35573353760814
 21
327.1156938068465
 31
0.0
  0
LINE
  5
560
330
18
100
AcDbEntity
  8
1
  6
Continuous
100
AcDbLine
 10
61.76994653760811
 20
324.1156938068466
 30
0.0
 11
58.7699465376081
 21
327.1156938068465
 31
0.0
  0
LINE
  5
561
330
18
100
AcDbEntity
  8
1
  6
Continuous
100
AcDbLine
 10
60.18416053760811
 20
324.1156938068466
 30
0.0
 11
63.1841605376081
 21
327.1156938068465
 31
0.0
  0
LINE
  5
562
330
18
100
AcDbEntity
  8
1
  6
Continuous
100
AcDbLine
 10
61.59837353760811
 20
324.1156938068466
 30
0.0
 11
64.5983735376081
 21
327.1156938068465
 31
0.0
  0
LINE
  5
563
330
18
100
AcDbEntity
  8
1
  6
Continuous
100
AcDbLine
 10
63.1841605376081
 20
324.1156938068466
 30
0.0
 11
60.18416053760811
 21
327.1156938068465
 31
0.0
  0
LINE
  5
564
330
18
100
AcDbEntity
  8
1
  6
Continuous
100
AcDbLine
 10
64.5983735376081
 20
324.1156938068466
 30
0.0
 11
61.59837353760811
 21
327.1156938068465
 31
0.0
  0
LINE
  5
565
330
18
100
AcDbEntity
  8
1
  6
Continuous
100
AcDbLine
 10
55.9415195376081
 20
324.1156938068466
 30
0.0
 11
58.94151953760811
 21
327.1156938068465
 31
0.0
  0
LINE
  5
566
330
18
100
AcDbEntity
  8
1
  6
Continuous
100
AcDbLine
 10
58.94151953760811
 20
324.1156938068466
 30
0.0
 11
55.9415195376081
 21
327.1156938068465
 31
0.0
  0
LINE
  5
567
330
18
100
AcDbEntity
  8
1
  6
Continuous
100
AcDbLine
 10
81.39736353760808
 20
324.1156938068466
 30
0.0
 11
84.39736353760812
 21
327.1156938068465
 31
0.0
  0
LINE
  5
568
330
18
100
AcDbEntity
  8
1
  6
Continuous
100
AcDbLine
 10
82.81157753760814
 20
324.1156938068466
 30
0.0
 11
85.81157753760811
 21
327.1156938068465
 31
0.0
  0
LINE
  5
569
330
18
100
AcDbEntity
  8
1
  6
Continuous
100
AcDbLine
 10
84.39736353760812
 20
324.1156938068466
 30
0.0
 11
81.39736353760808
 21
327.1156938068465
 31
0.0
  0
LINE
  5
56A
330
18
100
AcDbEntity
  8
1
  6
Continuous
100
AcDbLine
 10
85.81157753760811
 20
324.1156938068466
 30
0.0
 11
82.81157753760814
 21
327.1156938068465
 31
0.0
  0
LINE
  5
56B
330
18
100
AcDbEntity
  8
1
  6
Continuous
100
AcDbLine
 10
75.74050953760809
 20
324.1156938068466
 30
0.0
 11
78.74050953760809
 21
327.1156938068465
 31
0.0
  0
LINE
  5
56C
330
18
100
AcDbEntity
  8
1
  6
Continuous
100
AcDbLine
 10
77.15472253760809
 20
324.1156938068466
 30
0.0
 11
80.1547225376081
 21
327.1156938068465
 31
0.0
  0
LINE
  5
56D
330
18
100
AcDbEntity
  8
1
  6
Continuous
100
AcDbLine
 10
78.74050953760809
 20
324.1156938068466
 30
0.0
 11
75.74050953760809
 21
327.1156938068465
 31
0.0
  0
LINE
  5
56E
330
18
100
AcDbEntity
  8
1
  6
Continuous
100
AcDbLine
 10
80.1547225376081
 20
324.1156938068466
 30
0.0
 11
77.15472253760809
 21
327.1156938068465
 31
0.0
  0
LINE
  5
56F
330
18
100
AcDbEntity
  8
1
  6
Continuous
100
AcDbLine
 10
78.5689365376081
 20
324.1156938068466
 30
0.0
 11
81.56893653760809
 21
327.1156938068465
 31
0.0
  0
LINE
  5
570
330
18
100
AcDbEntity
  8
1
  6
Continuous
100
AcDbLine
 10
79.98315053760808
 20
324.1156938068466
 30
0.0
 11
82.98315053760807
 21
327.1156938068465
 31
0.0
  0
LINE
  5
571
330
18
100
AcDbEntity
  8
1
  6
Continuous
100
AcDbLine
 10
81.56893653760809
 20
324.1156938068466
 30
0.0
 11
78.5689365376081
 21
327.1156938068465
 31
0.0
  0
LINE
  5
572
330
18
100
AcDbEntity
  8
1
  6
Continuous
100
AcDbLine
 10
82.98315053760807
 20
324.1156938068466
 30
0.0
 11
79.98315053760808
 21
327.1156938068465
 31
0.0
  0
LINE
  5
573
330
18
100
AcDbEntity
  8
1
  6
Continuous
100
AcDbLine
 10
72.91208253760811
 20
324.1156938068466
 30
0.0
 11
75.91208253760811
 21
327.1156938068465
 31
0.0
  0
LINE
  5
574
330
18
100
AcDbEntity
  8
1
  6
Continuous
100
AcDbLine
 10
74.32629553760809
 20
324.1156938068466
 30
0.0
 11
77.32629553760808
 21
327.1156938068465
 31
0.0
  0
LINE
  5
575
330
18
100
AcDbEntity
  8
1
  6
Continuous
100
AcDbLine
 10
75.91208253760811
 20
324.1156938068466
 30
0.0
 11
72.91208253760811
 21
327.1156938068465
 31
0.0
  0
LINE
  5
576
330
18
100
AcDbEntity
  8
1
  6
Continuous
100
AcDbLine
 10
77.32629553760808
 20
324.1156938068466
 30
0.0
 11
74.32629553760809
 21
327.1156938068465
 31
0.0
  0
LINE
  5
577
330
18
100
AcDbEntity
  8
1
  6
Continuous
100
AcDbLine
 10
71.49786853760808
 20
324.1156938068466
 30
0.0
 11
74.49786853760811
 21
327.1156938068465
 31
0.0
  0
LINE
  5
578
330
18
100
AcDbEntity
  8
1
  6
Continuous
100
AcDbLine
 10
74.49786853760811
 20
324.1156938068466
 30
0.0
 11
71.49786853760808
 21
327.1156938068465
 31
0.0
  0
ARC
  5
579
330
18
100
AcDbEntity
  8
1
  6
Continuous
100
AcDbCircle
 10
55.0425295376081
 20
339.5156938068465
 30
0.0
 40
2.1
100
AcDbArc
 50
310.367594
 51
0.0
  0
ARC
  5
57A
330
18
100
AcDbEntity
  8
1
  6
Continuous
100
AcDbCircle
 10
80.24252953760809
 20
339.5156938068465
 30
0.0
 40
2.1
100
AcDbArc
 50
180.0
 51
229.6324059999999
  0
LINE
  5
57B
330
18
100
AcDbEntity
  8
1
  6
Continuous
100
AcDbLine
 10
87.64252953760808
 20
337.9156938068464
 30
0.0
 11
87.64252953760808
 21
333.0156938068465
 31
0.0
  0
LINE
  5
57C
330
18
100
AcDbEntity
  8
1
  6
Continuous
100
AcDbLine
 10
97.64252953760813
 20
324.1156938068466
 30
0.0
 11
97.64252953760813
 21
329.7156938068464
 31
0.0
  0
LINE
  5
57D
330
18
100
AcDbEntity
  8
1
  6
Continuous
100
AcDbLine
 10
92.71107253760808
 20
324.1156938068466
 30
0.0
 11
95.71107253760807
 21
327.1156938068465
 31
0.0
  0
LINE
  5
57E
330
18
100
AcDbEntity
  8
1
  6
Continuous
100
AcDbLine
 10
94.12528553760813
 20
324.1156938068466
 30
0.0
 11
97.12528553760812
 21
327.1156938068465
 31
0.0
  0
LINE
  5
57F
330
18
100
AcDbEntity
  8
1
  6
Continuous
100
AcDbLine
 10
95.71107253760807
 20
324.1156938068466
 30
0.0
 11
92.71107253760808
 21
327.1156938068465
 31
0.0
  0
LINE
  5
580
330
18
100
AcDbEntity
  8
1
  6
Continuous
100
AcDbLine
 10
97.12528553760812
 20
324.1156938068466
 30
0.0
 11
94.12528553760813
 21
327.1156938068465
 31
0.0
  0
LINE
  5
581
330
18
100
AcDbEntity
  8
1
  6
Continuous
100
AcDbLine
 10
97.64252953760813
 20
325.0126628068465
 30
0.0
 11
95.53949953760811
 21
327.1156938068465
 31
0.0
  0
LINE
  5
582
330
18
100
AcDbEntity
  8
1
  6
Continuous
100
AcDbLine
 10
88.46843153760808
 20
324.1156938068466
 30
0.0
 11
91.46843153760809
 21
327.1156938068465
 31
0.0
  0
LINE
  5
583
330
18
100
AcDbEntity
  8
1
  6
Continuous
100
AcDbLine
 10
91.46843153760809
 20
324.1156938068466
 30
0.0
 11
88.46843153760808
 21
327.1156938068465
 31
0.0
  0
LINE
  5
584
330
18
100
AcDbEntity
  8
1
  6
Continuous
100
AcDbLine
 10
89.88264553760812
 20
324.1156938068466
 30
0.0
 11
92.88264553760813
 21
327.1156938068465
 31
0.0
  0
LINE
  5
585
330
18
100
AcDbEntity
  8
1
  6
Continuous
100
AcDbLine
 10
91.29685853760813
 20
324.1156938068466
 30
0.0
 11
94.29685853760807
 21
327.1156938068465
 31
0.0
  0
LINE
  5
586
330
18
100
AcDbEntity
  8
1
  6
Continuous
100
AcDbLine
 10
92.88264553760813
 20
324.1156938068466
 30
0.0
 11
89.88264553760812
 21
327.1156938068465
 31
0.0
  0
LINE
  5
587
330
18
100
AcDbEntity
  8
1
  6
Continuous
100
AcDbLine
 10
94.29685853760807
 20
324.1156938068466
 30
0.0
 11
91.29685853760813
 21
327.1156938068465
 31
0.0
  0
LINE
  5
588
330
18
100
AcDbEntity
  8
1
  6
Continuous
100
AcDbLine
 10
87.05421753760809
 20
324.1156938068466
 30
0.0
 11
90.0542175376081
 21
327.1156938068465
 31
0.0
  0
LINE
  5
589
330
18
100
AcDbEntity
  8
1
  6
Continuous
100
AcDbLine
 10
90.0542175376081
 20
324.1156938068466
 30
0.0
 11
87.05421753760809
 21
327.1156938068465
 31
0.0
  0
ARC
  5
58A
330
18
100
AcDbEntity
  8
1
  6
Continuous
100
AcDbCircle
 10
94.14252953760808
 20
319.1156938068465
 30
0.0
 40
5.0
100
AcDbArc
 50
0.0
 51
90.0
  0
ARC
  5
58B
330
18
100
AcDbEntity
  8
1
  6
Continuous
100
AcDbCircle
 10
87.31671253760808
 20
320.1156938068466
 30
0.0
 40
4.0
100
AcDbArc
 50
0.027616
 51
90.0
  0
LINE
  5
58C
330
18
100
AcDbEntity
  8
1
  6
Continuous
100
AcDbLine
 10
95.53949953760811
 20
324.1156938068466
 30
0.0
 11
97.64252953760813
 21
326.2187238068465
 31
0.0
  0
LINE
  5
58D
330
18
100
AcDbEntity
  8
1
  6
Continuous
100
AcDbLine
 10
96.95371253760812
 20
324.1156938068466
 30
0.0
 11
97.64252953760813
 21
324.8045098068465
 31
0.0
  0
ARC
  5
58E
330
18
100
AcDbEntity
  8
1
  6
Continuous
100
AcDbCircle
 10
90.83720953760808
 20
327.0156938068465
 30
0.0
 40
6.0
100
AcDbArc
 50
26.743684
 51
90.0
  0
LINE
  5
58F
330
18
100
AcDbEntity
  8
1
  6
Continuous
100
AcDbLine
 10
97.64252953760813
 20
326.4268768068465
 30
0.0
 11
96.95371253760812
 21
327.1156938068465
 31
0.0
  0
LINE
  5
590
330
18
100
AcDbEntity
  8
1
  6
Continuous
100
AcDbLine
 10
57.64252953760813
 20
407.9156938068464
 30
0.0
 11
77.64252953760811
 21
407.9156938068464
 31
0.0
  0
LINE
  5
591
330
18
100
AcDbEntity
  8
1
  6
Continuous
100
AcDbLine
 10
57.14252953760812
 20
407.4156938068464
 30
0.0
 11
78.14252953760811
 21
407.4156938068464
 31
0.0
  0
LINE
  5
592
330
18
100
AcDbEntity
  8
1
  6
Continuous
100
AcDbLine
 10
57.14252953760812
 20
407.4156938068464
 30
0.0
 11
57.64252953760813
 21
407.9156938068464
 31
0.0
  0
LINE
  5
593
330
18
100
AcDbEntity
  8
1
  6
Continuous
100
AcDbLine
 10
78.14252953760811
 20
407.4156938068464
 30
0.0
 11
77.64252953760811
 21
407.9156938068464
 31
0.0
  0
ARC
  5
594
330
18
100
AcDbEntity
  8
1
  6
Continuous
100
AcDbCircle
 10
177.6844045376081
 20
487.0455738068463
 30
0.0
 40
35.0
100
AcDbArc
 50
161.180937
 51
198.819063
  0
ARC
  5
595
330
18
100
AcDbEntity
  8
1
  6
Continuous
100
AcDbCircle
 10
148.341603537608
 20
477.0455738068466
 30
0.0
 40
4.0
100
AcDbArc
 50
198.819063
 51
270.0
  0
ARC
  5
596
330
18
100
AcDbEntity
  8
1
  6
Continuous
100
AcDbCircle
 10
148.341603537608
 20
497.0455738068466
 30
0.0
 40
4.0
100
AcDbArc
 50
90.0
 51
161.180937
  0
LINE
  5
597
330
18
100
AcDbEntity
  8
1
  6
Continuous
100
AcDbLine
 10
254.184404537608
 20
407.9156938068464
 30
0.0
 11
274.184404537608
 21
407.9156938068464
 31
0.0
  0
LINE
  5
598
330
18
100
AcDbEntity
  8
1
  6
Continuous
100
AcDbLine
 10
253.6844045376079
 20
407.4156938068464
 30
0.0
 11
274.684404537608
 21
407.4156938068464
 31
0.0
  0
LINE
  5
599
330
18
100
AcDbEntity
  8
1
  6
Continuous
100
AcDbLine
 10
269.453957537608
 20
324.1156938068466
 30
0.0
 11
272.4539575376081
 21
327.1156938068465
 31
0.0
  0
LINE
  5
59A
330
18
100
AcDbEntity
  8
1
  6
Continuous
100
AcDbLine
 10
270.868170537608
 20
324.1156938068466
 30
0.0
 11
273.868170537608
 21
327.1156938068465
 31
0.0
  0
LINE
  5
59B
330
18
100
AcDbEntity
  8
1
  6
Continuous
100
AcDbLine
 10
272.4539575376081
 20
324.1156938068466
 30
0.0
 11
269.453957537608
 21
327.1156938068465
 31
0.0
  0
LINE
  5
59C
330
18
100
AcDbEntity
  8
1
  6
Continuous
100
AcDbLine
 10
273.868170537608
 20
324.1156938068466
 30
0.0
 11
270.868170537608
 21
327.1156938068465
 31
0.0
  0
LINE
  5
59D
330
18
100
AcDbEntity
  8
1
  6
Continuous
100
AcDbLine
 10
234.1844045376079
 20
329.7156938068464
 30
0.0
 11
294.184404537608
 21
329.7156938068464
 31
0.0
  0
LINE
  5
59E
330
18
100
AcDbEntity
  8
1
  6
Continuous
100
AcDbLine
 10
234.1844045376079
 20
327.1156938068465
 30
0.0
 11
294.184404537608
 21
327.1156938068465
 31
0.0
  0
LINE
  5
59F
330
18
100
AcDbEntity
  8
1
  6
Continuous
100
AcDbLine
 10
241.090393537608
 20
337.9156938068464
 30
0.0
 11
287.2784155376079
 21
337.9156938068464
 31
0.0
  0
LINE
  5
5A0
330
18
100
AcDbEntity
  8
1
  6
Continuous
100
AcDbLine
 10
240.9897255376081
 20
333.0156938068465
 30
0.0
 11
287.3790845376078
 21
333.0156938068465
 31
0.0
  0
LINE
  5
5A1
330
18
100
AcDbEntity
  8
1
  6
Continuous
100
AcDbLine
 10
294.184404537608
 20
324.1156938068466
 30
0.0
 11
224.6844045376079
 21
324.1156938068466
 31
0.0
  0
LINE
  5
5A2
330
18
100
AcDbEntity
  8
1
  6
Continuous
100
AcDbLine
 10
253.6844045376079
 20
339.5156938068465
 30
0.0
 11
253.6844045376079
 21
407.4156938068464
 31
0.0
  0
ARC
  5
5A3
330
18
100
AcDbEntity
  8
1
  6
Continuous
100
AcDbCircle
 10
175.4361745376081
 20
305.5624048068464
 30
0.0
 40
57.06438499999999
100
AcDbArc
 50
352.2269309999999
 51
13.326211
  0
LINE
  5
5A4
330
18
100
AcDbEntity
  8
1
  6
Continuous
100
AcDbLine
 10
238.341258537608
 20
324.1156938068466
 30
0.0
 11
241.341258537608
 21
327.1156938068465
 31
0.0
  0
LINE
  5
5A5
330
18
100
AcDbEntity
  8
1
  6
Continuous
100
AcDbLine
 10
241.341258537608
 20
324.1156938068466
 30
0.0
 11
238.341258537608
 21
327.1156938068465
 31
0.0
  0
LINE
  5
5A6
330
18
100
AcDbEntity
  8
1
  6
Continuous
100
AcDbLine
 10
239.7554725376081
 20
324.1156938068466
 30
0.0
 11
242.755472537608
 21
327.1156938068465
 31
0.0
  0
LINE
  5
5A7
330
18
100
AcDbEntity
  8
1
  6
Continuous
100
AcDbLine
 10
241.169686537608
 20
324.1156938068466
 30
0.0
 11
244.1696865376081
 21
327.1156938068465
 31
0.0
  0
LINE
  5
5A8
330
18
100
AcDbEntity
  8
1
  6
Continuous
100
AcDbLine
 10
242.755472537608
 20
324.1156938068466
 30
0.0
 11
239.7554725376081
 21
327.1156938068465
 31
0.0
  0
LINE
  5
5A9
330
18
100
AcDbEntity
  8
1
  6
Continuous
100
AcDbLine
 10
244.1696865376081
 20
324.1156938068466
 30
0.0
 11
241.169686537608
 21
327.1156938068465
 31
0.0
  0
LINE
  5
5AA
330
18
100
AcDbEntity
  8
1
  6
Continuous
100
AcDbLine
 10
241.090393537608
 20
333.0156938068465
 30
0.0
 11
241.090393537608
 21
337.9156938068464
 31
0.0
  0
LINE
  5
5AB
330
18
100
AcDbEntity
  8
1
  6
Continuous
100
AcDbLine
 10
224.6844045376079
 20
321.2156938068464
 30
0.0
 11
230.614985537608
 21
321.2156938068464
 31
0.0
  0
LINE
  5
5AC
330
18
100
AcDbEntity
  8
1
  6
Continuous
100
AcDbLine
 10
224.6844045376079
 20
324.1156938068466
 30
0.0
 11
224.6844045376079
 21
321.2156938068464
 31
0.0
  0
LINE
  5
5AD
330
18
100
AcDbEntity
  8
1
  6
Continuous
100
AcDbLine
 10
236.9270455376081
 20
324.1156938068466
 30
0.0
 11
239.9270455376081
 21
327.1156938068465
 31
0.0
  0
LINE
  5
5AE
330
18
100
AcDbEntity
  8
1
  6
Continuous
100
AcDbLine
 10
239.9270455376081
 20
324.1156938068466
 30
0.0
 11
236.9270455376081
 21
327.1156938068465
 31
0.0
  0
LINE
  5
5AF
330
18
100
AcDbEntity
  8
1
  6
Continuous
100
AcDbLine
 10
235.684404537608
 20
327.1156938068465
 30
0.0
 11
234.1844045376079
 21
325.6156938068465
 31
0.0
  0
LINE
  5
5B0
330
18
100
AcDbEntity
  8
1
  6
Continuous
100
AcDbLine
 10
234.1844045376079
 20
329.7156938068464
 30
0.0
 11
234.1844045376079
 21
324.1156938068466
 31
0.0
  0
LINE
  5
5B1
330
18
100
AcDbEntity
  8
1
  6
Continuous
100
AcDbLine
 10
237.098618537608
 20
327.1156938068465
 30
0.0
 11
234.1844045376079
 21
324.2014798068465
 31
0.0
  0
LINE
  5
5B2
330
18
100
AcDbEntity
  8
1
  6
Continuous
100
AcDbLine
 10
235.512831537608
 20
324.1156938068466
 30
0.0
 11
238.5128315376079
 21
327.1156938068465
 31
0.0
  0
LINE
  5
5B3
330
18
100
AcDbEntity
  8
1
  6
Continuous
100
AcDbLine
 10
237.098618537608
 20
324.1156938068466
 30
0.0
 11
234.1844045376079
 21
327.0299068068465
 31
0.0
  0
LINE
  5
5B4
330
18
100
AcDbEntity
  8
1
  6
Continuous
100
AcDbLine
 10
238.5128315376079
 20
324.1156938068466
 30
0.0
 11
235.512831537608
 21
327.1156938068465
 31
0.0
  0
ARC
  5
5B5
330
18
100
AcDbEntity
  8
1
  6
Continuous
100
AcDbCircle
 10
244.066054537608
 20
321.8189748068466
 30
0.0
 40
13.464591
100
AcDbArc
 50
170.1787629999998
 51
193.326211
  0
LINE
  5
5B6
330
18
100
AcDbEntity
  8
1
  6
Continuous
100
AcDbLine
 10
235.684404537608
 20
324.1156938068466
 30
0.0
 11
234.1844045376079
 21
325.6156938068465
 31
0.0
  0
LINE
  5
5B7
330
18
100
AcDbEntity
  8
1
  6
Continuous
100
AcDbLine
 10
234.270191537608
 20
324.1156938068466
 30
0.0
 11
234.1844045376079
 21
324.2014798068465
 31
0.0
  0
LINE
  5
5B8
330
18
100
AcDbEntity
  8
1
  6
Continuous
100
AcDbLine
 10
234.270191537608
 20
327.1156938068465
 30
0.0
 11
234.1844045376079
 21
327.0299068068465
 31
0.0
  0
ARC
  5
5B9
330
18
100
AcDbEntity
  8
1
  6
Continuous
100
AcDbCircle
 10
240.9897255376081
 20
327.0156938068465
 30
0.0
 40
6.0
100
AcDbArc
 50
90.0
 51
153.256316
  0
LINE
  5
5BA
330
18
100
AcDbEntity
  8
1
  6
Continuous
100
AcDbLine
 10
252.637399537608
 20
333.0156938068465
 30
0.0
 11
252.637399537608
 21
337.9156938068464
 31
0.0
  0
LINE
  5
5BB
330
18
100
AcDbEntity
  8
1
  6
Continuous
100
AcDbLine
 10
253.897608537608
 20
324.1156938068466
 30
0.0
 11
256.8976085376081
 21
327.1156938068465
 31
0.0
  0
LINE
  5
5BC
330
18
100
AcDbEntity
  8
1
  6
Continuous
100
AcDbLine
 10
255.3118215376081
 20
324.1156938068466
 30
0.0
 11
258.3118215376081
 21
327.1156938068465
 31
0.0
  0
LINE
  5
5BD
330
18
100
AcDbEntity
  8
1
  6
Continuous
100
AcDbLine
 10
256.8976085376081
 20
324.1156938068466
 30
0.0
 11
253.897608537608
 21
327.1156938068465
 31
0.0
  0
LINE
  5
5BE
330
18
100
AcDbEntity
  8
1
  6
Continuous
100
AcDbLine
 10
258.3118215376081
 20
324.1156938068466
 30
0.0
 11
255.3118215376081
 21
327.1156938068465
 31
0.0
  0
LINE
  5
5BF
330
18
100
AcDbEntity
  8
1
  6
Continuous
100
AcDbLine
 10
256.726035537608
 20
324.1156938068466
 30
0.0
 11
259.726035537608
 21
327.1156938068465
 31
0.0
  0
LINE
  5
5C0
330
18
100
AcDbEntity
  8
1
  6
Continuous
100
AcDbLine
 10
259.726035537608
 20
324.1156938068466
 30
0.0
 11
256.726035537608
 21
327.1156938068465
 31
0.0
  0
LINE
  5
5C1
330
18
100
AcDbEntity
  8
1
  6
Continuous
100
AcDbLine
 10
249.654967537608
 20
324.1156938068466
 30
0.0
 11
252.654967537608
 21
327.1156938068465
 31
0.0
  0
LINE
  5
5C2
330
18
100
AcDbEntity
  8
1
  6
Continuous
100
AcDbLine
 10
252.654967537608
 20
324.1156938068466
 30
0.0
 11
249.654967537608
 21
327.1156938068465
 31
0.0
  0
LINE
  5
5C3
330
18
100
AcDbEntity
  8
1
  6
Continuous
100
AcDbLine
 10
248.240753537608
 20
324.1156938068466
 30
0.0
 11
251.2407535376081
 21
327.1156938068465
 31
0.0
  0
LINE
  5
5C4
330
18
100
AcDbEntity
  8
1
  6
Continuous
100
AcDbLine
 10
251.2407535376081
 20
324.1156938068466
 30
0.0
 11
248.240753537608
 21
327.1156938068465
 31
0.0
  0
LINE
  5
5C5
330
18
100
AcDbEntity
  8
1
  6
Continuous
100
AcDbLine
 10
242.583899537608
 20
324.1156938068466
 30
0.0
 11
245.5838995376081
 21
327.1156938068465
 31
0.0
  0
LINE
  5
5C6
330
18
100
AcDbEntity
  8
1
  6
Continuous
100
AcDbLine
 10
243.9981135376081
 20
324.1156938068466
 30
0.0
 11
246.998113537608
 21
327.1156938068465
 31
0.0
  0
LINE
  5
5C7
330
18
100
AcDbEntity
  8
1
  6
Continuous
100
AcDbLine
 10
245.5838995376081
 20
324.1156938068466
 30
0.0
 11
242.583899537608
 21
327.1156938068465
 31
0.0
  0
LINE
  5
5C8
330
18
100
AcDbEntity
  8
1
  6
Continuous
100
AcDbLine
 10
246.998113537608
 20
324.1156938068466
 30
0.0
 11
243.9981135376081
 21
327.1156938068465
 31
0.0
  0
LINE
  5
5C9
330
18
100
AcDbEntity
  8
1
  6
Continuous
100
AcDbLine
 10
245.4123265376081
 20
324.1156938068466
 30
0.0
 11
248.4123265376081
 21
327.1156938068465
 31
0.0
  0
LINE
  5
5CA
330
18
100
AcDbEntity
  8
1
  6
Continuous
100
AcDbLine
 10
246.8265405376081
 20
324.1156938068466
 30
0.0
 11
249.8265405376081
 21
327.1156938068465
 31
0.0
  0
LINE
  5
5CB
330
18
100
AcDbEntity
  8
1
  6
Continuous
100
AcDbLine
 10
248.4123265376081
 20
324.1156938068466
 30
0.0
 11
245.4123265376081
 21
327.1156938068465
 31
0.0
  0
LINE
  5
5CC
330
18
100
AcDbEntity
  8
1
  6
Continuous
100
AcDbLine
 10
249.8265405376081
 20
324.1156938068466
 30
0.0
 11
246.8265405376081
 21
327.1156938068465
 31
0.0
  0
LINE
  5
5CD
330
18
100
AcDbEntity
  8
1
  6
Continuous
100
AcDbLine
 10
251.069180537608
 20
324.1156938068466
 30
0.0
 11
254.069180537608
 21
327.1156938068465
 31
0.0
  0
LINE
  5
5CE
330
18
100
AcDbEntity
  8
1
  6
Continuous
100
AcDbLine
 10
254.069180537608
 20
324.1156938068466
 30
0.0
 11
251.069180537608
 21
327.1156938068465
 31
0.0
  0
LINE
  5
5CF
330
18
100
AcDbEntity
  8
1
  6
Continuous
100
AcDbLine
 10
252.4833945376081
 20
324.1156938068466
 30
0.0
 11
255.4833945376081
 21
327.1156938068465
 31
0.0
  0
LINE
  5
5D0
330
18
100
AcDbEntity
  8
1
  6
Continuous
100
AcDbLine
 10
255.4833945376081
 20
324.1156938068466
 30
0.0
 11
252.4833945376081
 21
327.1156938068465
 31
0.0
  0
LINE
  5
5D1
330
18
100
AcDbEntity
  8
1
  6
Continuous
100
AcDbLine
 10
265.2113165376081
 20
324.1156938068466
 30
0.0
 11
268.2113165376081
 21
327.1156938068465
 31
0.0
  0
LINE
  5
5D2
330
18
100
AcDbEntity
  8
1
  6
Continuous
100
AcDbLine
 10
268.2113165376081
 20
324.1156938068466
 30
0.0
 11
265.2113165376081
 21
327.1156938068465
 31
0.0
  0
LINE
  5
5D3
330
18
100
AcDbEntity
  8
1
  6
Continuous
100
AcDbLine
 10
259.5544625376081
 20
324.1156938068466
 30
0.0
 11
262.554462537608
 21
327.1156938068465
 31
0.0
  0
LINE
  5
5D4
330
18
100
AcDbEntity
  8
1
  6
Continuous
100
AcDbLine
 10
260.9686755376081
 20
324.1156938068466
 30
0.0
 11
263.9686755376081
 21
327.1156938068465
 31
0.0
  0
LINE
  5
5D5
330
18
100
AcDbEntity
  8
1
  6
Continuous
100
AcDbLine
 10
262.554462537608
 20
324.1156938068466
 30
0.0
 11
259.5544625376081
 21
327.1156938068465
 31
0.0
  0
LINE
  5
5D6
330
18
100
AcDbEntity
  8
1
  6
Continuous
100
AcDbLine
 10
263.9686755376081
 20
324.1156938068466
 30
0.0
 11
260.9686755376081
 21
327.1156938068465
 31
0.0
  0
LINE
  5
5D7
330
18
100
AcDbEntity
  8
1
  6
Continuous
100
AcDbLine
 10
262.382889537608
 20
324.1156938068466
 30
0.0
 11
265.382889537608
 21
327.1156938068465
 31
0.0
  0
LINE
  5
5D8
330
18
100
AcDbEntity
  8
1
  6
Continuous
100
AcDbLine
 10
263.7971035376081
 20
324.1156938068466
 30
0.0
 11
266.797103537608
 21
327.1156938068465
 31
0.0
  0
LINE
  5
5D9
330
18
100
AcDbEntity
  8
1
  6
Continuous
100
AcDbLine
 10
265.382889537608
 20
324.1156938068466
 30
0.0
 11
262.382889537608
 21
327.1156938068465
 31
0.0
  0
LINE
  5
5DA
330
18
100
AcDbEntity
  8
1
  6
Continuous
100
AcDbLine
 10
266.797103537608
 20
324.1156938068466
 30
0.0
 11
263.7971035376081
 21
327.1156938068465
 31
0.0
  0
LINE
  5
5DB
330
18
100
AcDbEntity
  8
1
  6
Continuous
100
AcDbLine
 10
258.1402485376081
 20
324.1156938068466
 30
0.0
 11
261.140248537608
 21
327.1156938068465
 31
0.0
  0
LINE
  5
5DC
330
18
100
AcDbEntity
  8
1
  6
Continuous
100
AcDbLine
 10
261.140248537608
 20
324.1156938068466
 30
0.0
 11
258.1402485376081
 21
327.1156938068465
 31
0.0
  0
LINE
  5
5DD
330
18
100
AcDbEntity
  8
1
  6
Continuous
100
AcDbLine
 10
266.625530537608
 20
324.1156938068466
 30
0.0
 11
269.625530537608
 21
327.1156938068465
 31
0.0
  0
LINE
  5
5DE
330
18
100
AcDbEntity
  8
1
  6
Continuous
100
AcDbLine
 10
269.625530537608
 20
324.1156938068466
 30
0.0
 11
266.625530537608
 21
327.1156938068465
 31
0.0
  0
LINE
  5
5DF
330
18
100
AcDbEntity
  8
1
  6
Continuous
100
AcDbLine
 10
268.0397435376079
 20
324.1156938068466
 30
0.0
 11
271.039743537608
 21
327.1156938068465
 31
0.0
  0
LINE
  5
5E0
330
18
100
AcDbEntity
  8
1
  6
Continuous
100
AcDbLine
 10
271.039743537608
 20
324.1156938068466
 30
0.0
 11
268.0397435376079
 21
327.1156938068465
 31
0.0
  0
ARC
  5
5E1
330
18
100
AcDbEntity
  8
1
  6
Continuous
100
AcDbCircle
 10
251.584404537608
 20
339.5156938068465
 30
0.0
 40
2.1
100
AcDbArc
 50
310.367594
 51
0.0
  0
LINE
  5
5E2
330
18
100
AcDbEntity
  8
1
  6
Continuous
100
AcDbLine
 10
253.6844045376079
 20
407.4156938068464
 30
0.0
 11
254.184404537608
 21
407.9156938068464
 31
0.0
  0
LINE
  5
5E3
330
18
100
AcDbEntity
  8
1
  6
Continuous
100
AcDbLine
 10
274.684404537608
 20
339.5156938068465
 30
0.0
 11
274.684404537608
 21
407.4156938068464
 31
0.0
  0
LINE
  5
5E4
330
18
100
AcDbEntity
  8
1
  6
Continuous
100
AcDbLine
 10
360.2262805376079
 20
339.5156938068465
 30
0.0
 11
360.2262805376079
 21
407.4156938068464
 31
0.0
  0
LINE
  5
5E5
330
18
100
AcDbEntity
  8
1
  6
Continuous
100
AcDbLine
 10
381.2262805376079
 20
339.5156938068465
 30
0.0
 11
381.2262805376079
 21
407.4156938068464
 31
0.0
  0
LINE
  5
5E6
330
18
100
AcDbEntity
  8
1
  6
Continuous
100
AcDbLine
 10
295.6844045376079
 20
310.8156938068465
 30
0.0
 11
295.0090695376081
 21
319.5032058068464
 31
0.0
  0
LINE
  5
5E7
330
18
100
AcDbEntity
  8
1
  6
Continuous
100
AcDbLine
 10
295.6844045376079
 20
310.8156938068465
 30
0.0
 11
292.4930295376078
 21
310.1922758068464
 31
0.0
  0
ARC
  5
5E8
330
18
100
AcDbEntity
  8
1
  6
Continuous
100
AcDbCircle
 10
293.2741735376081
 20
306.1934718068464
 30
0.0
 40
4.074384999999998
100
AcDbArc
 50
101.0532219999998
 51
172.938927
  0
LINE
  5
5E9
330
18
100
AcDbEntity
  8
1
  6
Continuous
100
AcDbLine
 10
287.2784155376079
 20
333.0156938068465
 30
0.0
 11
287.2784155376079
 21
337.9156938068464
 31
0.0
  0
LINE
  5
5EA
330
18
100
AcDbEntity
  8
1
  6
Continuous
100
AcDbLine
 10
275.731410537608
 20
333.0156938068465
 30
0.0
 11
275.731410537608
 21
337.9156938068464
 31
0.0
  0
LINE
  5
5EB
330
18
100
AcDbEntity
  8
1
  6
Continuous
100
AcDbLine
 10
285.010306537608
 20
324.1156938068466
 30
0.0
 11
288.0103065376079
 21
327.1156938068465
 31
0.0
  0
LINE
  5
5EC
330
18
100
AcDbEntity
  8
1
  6
Continuous
100
AcDbLine
 10
288.0103065376079
 20
324.1156938068466
 30
0.0
 11
285.010306537608
 21
327.1156938068465
 31
0.0
  0
LINE
  5
5ED
330
18
100
AcDbEntity
  8
1
  6
Continuous
100
AcDbLine
 10
286.4245205376079
 20
324.1156938068466
 30
0.0
 11
289.4245205376078
 21
327.1156938068465
 31
0.0
  0
LINE
  5
5EE
330
18
100
AcDbEntity
  8
1
  6
Continuous
100
AcDbLine
 10
289.4245205376078
 20
324.1156938068466
 30
0.0
 11
286.4245205376079
 21
327.1156938068465
 31
0.0
  0
ARC
  5
5EF
330
18
100
AcDbEntity
  8
1
  6
Continuous
100
AcDbCircle
 10
287.3790845376078
 20
327.0156938068465
 30
0.0
 40
6.0
100
AcDbArc
 50
26.743684
 51
90.0
  0
LINE
  5
5F0
330
18
100
AcDbEntity
  8
1
  6
Continuous
100
AcDbLine
 10
280.7676655376081
 20
324.1156938068466
 30
0.0
 11
283.7676655376081
 21
327.1156938068465
 31
0.0
  0
LINE
  5
5F1
330
18
100
AcDbEntity
  8
1
  6
Continuous
100
AcDbLine
 10
283.7676655376081
 20
324.1156938068466
 30
0.0
 11
280.7676655376081
 21
327.1156938068465
 31
0.0
  0
LINE
  5
5F2
330
18
100
AcDbEntity
  8
1
  6
Continuous
100
AcDbLine
 10
277.939238537608
 20
324.1156938068466
 30
0.0
 11
280.939238537608
 21
327.1156938068465
 31
0.0
  0
LINE
  5
5F3
330
18
100
AcDbEntity
  8
1
  6
Continuous
100
AcDbLine
 10
279.3534525376079
 20
324.1156938068466
 30
0.0
 11
282.3534525376079
 21
327.1156938068465
 31
0.0
  0
LINE
  5
5F4
330
18
100
AcDbEntity
  8
1
  6
Continuous
100
AcDbLine
 10
280.939238537608
 20
324.1156938068466
 30
0.0
 11
277.939238537608
 21
327.1156938068465
 31
0.0
  0
LINE
  5
5F5
330
18
100
AcDbEntity
  8
1
  6
Continuous
100
AcDbLine
 10
282.3534525376079
 20
324.1156938068466
 30
0.0
 11
279.3534525376079
 21
327.1156938068465
 31
0.0
  0
LINE
  5
5F6
330
18
100
AcDbEntity
  8
1
  6
Continuous
100
AcDbLine
 10
272.282384537608
 20
324.1156938068466
 30
0.0
 11
275.282384537608
 21
327.1156938068465
 31
0.0
  0
LINE
  5
5F7
330
18
100
AcDbEntity
  8
1
  6
Continuous
100
AcDbLine
 10
273.6965975376081
 20
324.1156938068466
 30
0.0
 11
276.6965975376079
 21
327.1156938068465
 31
0.0
  0
LINE
  5
5F8
330
18
100
AcDbEntity
  8
1
  6
Continuous
100
AcDbLine
 10
275.282384537608
 20
324.1156938068466
 30
0.0
 11
272.282384537608
 21
327.1156938068465
 31
0.0
  0
LINE
  5
5F9
330
18
100
AcDbEntity
  8
1
  6
Continuous
100
AcDbLine
 10
276.6965975376079
 20
324.1156938068466
 30
0.0
 11
273.6965975376081
 21
327.1156938068465
 31
0.0
  0
LINE
  5
5FA
330
18
100
AcDbEntity
  8
1
  6
Continuous
100
AcDbLine
 10
275.1108115376081
 20
324.1156938068466
 30
0.0
 11
278.1108115376081
 21
327.1156938068465
 31
0.0
  0
LINE
  5
5FB
330
18
100
AcDbEntity
  8
1
  6
Continuous
100
AcDbLine
 10
276.525025537608
 20
324.1156938068466
 30
0.0
 11
279.525025537608
 21
327.1156938068465
 31
0.0
  0
LINE
  5
5FC
330
18
100
AcDbEntity
  8
1
  6
Continuous
100
AcDbLine
 10
278.1108115376081
 20
324.1156938068466
 30
0.0
 11
275.1108115376081
 21
327.1156938068465
 31
0.0
  0
LINE
  5
5FD
330
18
100
AcDbEntity
  8
1
  6
Continuous
100
AcDbLine
 10
279.525025537608
 20
324.1156938068466
 30
0.0
 11
276.525025537608
 21
327.1156938068465
 31
0.0
  0
LINE
  5
5FE
330
18
100
AcDbEntity
  8
1
  6
Continuous
100
AcDbLine
 10
282.181879537608
 20
324.1156938068466
 30
0.0
 11
285.1818795376079
 21
327.1156938068465
 31
0.0
  0
LINE
  5
5FF
330
18
100
AcDbEntity
  8
1
  6
Continuous
100
AcDbLine
 10
285.1818795376079
 20
324.1156938068466
 30
0.0
 11
282.181879537608
 21
327.1156938068465
 31
0.0
  0
LINE
  5
600
330
18
100
AcDbEntity
  8
1
  6
Continuous
100
AcDbLine
 10
283.5960925376081
 20
324.1156938068466
 30
0.0
 11
286.5960925376081
 21
327.1156938068465
 31
0.0
  0
LINE
  5
601
330
18
100
AcDbEntity
  8
1
  6
Continuous
100
AcDbLine
 10
286.5960925376081
 20
324.1156938068466
 30
0.0
 11
283.5960925376081
 21
327.1156938068465
 31
0.0
  0
LINE
  5
602
330
18
100
AcDbEntity
  8
1
  6
Continuous
100
AcDbLine
 10
294.184404537608
 20
324.1156938068466
 30
0.0
 11
294.184404537608
 21
329.7156938068464
 31
0.0
  0
LINE
  5
603
330
18
100
AcDbEntity
  8
1
  6
Continuous
100
AcDbLine
 10
289.2529475376081
 20
324.1156938068466
 30
0.0
 11
292.2529475376081
 21
327.1156938068465
 31
0.0
  0
LINE
  5
604
330
18
100
AcDbEntity
  8
1
  6
Continuous
100
AcDbLine
 10
290.667160537608
 20
324.1156938068466
 30
0.0
 11
293.667160537608
 21
327.1156938068465
 31
0.0
  0
LINE
  5
605
330
18
100
AcDbEntity
  8
1
  6
Continuous
100
AcDbLine
 10
292.2529475376081
 20
324.1156938068466
 30
0.0
 11
289.2529475376081
 21
327.1156938068465
 31
0.0
  0
LINE
  5
606
330
18
100
AcDbEntity
  8
1
  6
Continuous
100
AcDbLine
 10
293.667160537608
 20
324.1156938068466
 30
0.0
 11
290.667160537608
 21
327.1156938068465
 31
0.0
  0
LINE
  5
607
330
18
100
AcDbEntity
  8
1
  6
Continuous
100
AcDbLine
 10
294.184404537608
 20
325.0126628068465
 30
0.0
 11
292.0813745376079
 21
327.1156938068465
 31
0.0
  0
LINE
  5
608
330
18
100
AcDbEntity
  8
1
  6
Continuous
100
AcDbLine
 10
287.8387335376079
 20
324.1156938068466
 30
0.0
 11
290.838733537608
 21
327.1156938068465
 31
0.0
  0
LINE
  5
609
330
18
100
AcDbEntity
  8
1
  6
Continuous
100
AcDbLine
 10
290.838733537608
 20
324.1156938068466
 30
0.0
 11
287.8387335376079
 21
327.1156938068465
 31
0.0
  0
ARC
  5
60A
330
18
100
AcDbEntity
  8
1
  6
Continuous
100
AcDbCircle
 10
290.0241085376078
 20
319.1156938068465
 30
0.0
 40
5.0
100
AcDbArc
 50
4.445021999999998
 51
90.0
  0
LINE
  5
60B
330
18
100
AcDbEntity
  8
1
  6
Continuous
100
AcDbLine
 10
292.0813745376079
 20
324.1156938068466
 30
0.0
 11
294.184404537608
 21
326.2187238068465
 31
0.0
  0
LINE
  5
60C
330
18
100
AcDbEntity
  8
1
  6
Continuous
100
AcDbLine
 10
293.4955875376081
 20
324.1156938068466
 30
0.0
 11
294.184404537608
 21
324.8045098068465
 31
0.0
  0
LINE
  5
60D
330
18
100
AcDbEntity
  8
1
  6
Continuous
100
AcDbLine
 10
294.184404537608
 20
326.4268768068465
 30
0.0
 11
293.4955875376081
 21
327.1156938068465
 31
0.0
  0
ARC
  5
60E
330
18
100
AcDbEntity
  8
1
  6
Continuous
100
AcDbCircle
 10
276.7844045376081
 20
339.5156938068465
 30
0.0
 40
2.1
100
AcDbArc
 50
180.0
 51
229.6324059999999
  0
ARC
  5
60F
330
18
100
AcDbEntity
  8
1
  6
Continuous
100
AcDbCircle
 10
370.7262815376079
 20
199.9144988068464
 30
0.0
 40
110.9011949999999
100
AcDbArc
 50
81.91808100000001
 51
98.08192300000001
  0
ARC
  5
610
330
18
100
AcDbEntity
  8
1
  6
Continuous
100
AcDbCircle
 10
370.7262805376079
 20
268.9156938068464
 30
0.0
 40
35.0
100
AcDbArc
 50
71.180937
 51
108.8190629999999
  0
ARC
  5
611
330
18
100
AcDbEntity
  8
1
  6
Continuous
100
AcDbCircle
 10
356.8914225376079
 20
300.6734138068464
 30
0.0
 40
9.209889
100
AcDbArc
 50
100.9954699999997
 51
161.141259
  0
ARC
  5
612
330
18
100
AcDbEntity
  8
1
  6
Continuous
100
AcDbCircle
 10
360.726280537608
 20
298.2584948068464
 30
0.0
 40
4.0
100
AcDbArc
 50
108.8190629999999
 51
180.0
  0
ARC
  5
613
330
18
100
AcDbEntity
  8
1
  6
Continuous
100
AcDbCircle
 10
386.128339537608
 20
292.4576248068465
 30
0.0
 40
36.67814099999999
100
AcDbArc
 50
166.2557639999999
 51
170.6100999999998
  0
ARC
  5
614
330
18
100
AcDbEntity
  8
1
  6
Continuous
100
AcDbCircle
 10
384.5611385376079
 20
300.6734138068464
 30
0.0
 40
9.209889
100
AcDbArc
 50
18.85874099999998
 51
85.359042
  0
ARC
  5
615
330
18
100
AcDbEntity
  8
1
  6
Continuous
100
AcDbCircle
 10
380.7262805376079
 20
298.2584948068464
 30
0.0
 40
4.0
100
AcDbArc
 50
0.0
 51
71.180937
  0
ARC
  5
616
330
18
100
AcDbEntity
  8
1
  6
Continuous
100
AcDbCircle
 10
355.3242215376082
 20
292.4576248068465
 30
0.0
 40
36.67814099999999
100
AcDbArc
 50
9.389900000000002
 51
13.744236
  0
LINE
  5
617
330
18
100
AcDbEntity
  8
1
  6
Continuous
100
AcDbLine
 10
350.7262805376079
 20
337.9156938068464
 30
0.0
 11
390.7262805376078
 21
337.9156938068464
 31
0.0
  0
LINE
  5
618
330
18
100
AcDbEntity
  8
1
  6
Continuous
100
AcDbLine
 10
347.5316015376081
 20
333.0156938068465
 30
0.0
 11
393.9209605376079
 21
333.0156938068465
 31
0.0
  0
LINE
  5
619
330
18
100
AcDbEntity
  8
1
  6
Continuous
100
AcDbLine
 10
363.2679115376078
 20
324.1156938068466
 30
0.0
 11
366.2679115376079
 21
327.1156938068465
 31
0.0
  0
LINE
  5
61A
330
18
100
AcDbEntity
  8
1
  6
Continuous
100
AcDbLine
 10
364.6821245376081
 20
324.1156938068466
 30
0.0
 11
367.6821245376079
 21
327.1156938068465
 31
0.0
  0
LINE
  5
61B
330
18
100
AcDbEntity
  8
1
  6
Continuous
100
AcDbLine
 10
366.2679115376079
 20
324.1156938068466
 30
0.0
 11
363.2679115376078
 21
327.1156938068465
 31
0.0
  0
LINE
  5
61C
330
18
100
AcDbEntity
  8
1
  6
Continuous
100
AcDbLine
 10
367.6821245376079
 20
324.1156938068466
 30
0.0
 11
364.6821245376081
 21
327.1156938068465
 31
0.0
  0
LINE
  5
61D
330
18
100
AcDbEntity
  8
1
  6
Continuous
100
AcDbLine
 10
350.7262805376079
 20
337.9156938068464
 30
0.0
 11
350.7262805376079
 21
333.0156938068465
 31
0.0
  0
LINE
  5
61E
330
18
100
AcDbEntity
  8
1
  6
Continuous
100
AcDbLine
 10
349.1257755376079
 20
324.1156938068466
 30
0.0
 11
352.1257755376079
 21
327.1156938068465
 31
0.0
  0
LINE
  5
61F
330
18
100
AcDbEntity
  8
1
  6
Continuous
100
AcDbLine
 10
352.1257755376079
 20
324.1156938068466
 30
0.0
 11
349.1257755376079
 21
327.1156938068465
 31
0.0
  0
LINE
  5
620
330
18
100
AcDbEntity
  8
1
  6
Continuous
100
AcDbLine
 10
347.7115625376079
 20
324.1156938068466
 30
0.0
 11
350.7115625376079
 21
327.1156938068465
 31
0.0
  0
LINE
  5
621
330
18
100
AcDbEntity
  8
1
  6
Continuous
100
AcDbLine
 10
350.7115625376079
 20
324.1156938068466
 30
0.0
 11
347.7115625376079
 21
327.1156938068465
 31
0.0
  0
LINE
  5
622
330
18
100
AcDbEntity
  8
1
  6
Continuous
100
AcDbLine
 10
343.4689215376082
 20
324.1156938068466
 30
0.0
 11
346.4689215376081
 21
327.1156938068465
 31
0.0
  0
LINE
  5
623
330
18
100
AcDbEntity
  8
1
  6
Continuous
100
AcDbLine
 10
344.8831345376079
 20
324.1156938068466
 30
0.0
 11
347.8831345376079
 21
327.1156938068465
 31
0.0
  0
LINE
  5
624
330
18
100
AcDbEntity
  8
1
  6
Continuous
100
AcDbLine
 10
346.4689215376081
 20
324.1156938068466
 30
0.0
 11
343.4689215376082
 21
327.1156938068465
 31
0.0
  0
LINE
  5
625
330
18
100
AcDbEntity
  8
1
  6
Continuous
100
AcDbLine
 10
347.8831345376079
 20
324.1156938068466
 30
0.0
 11
344.8831345376079
 21
327.1156938068465
 31
0.0
  0
LINE
  5
626
330
18
100
AcDbEntity
  8
1
  6
Continuous
100
AcDbLine
 10
346.2973485376081
 20
324.1156938068466
 30
0.0
 11
349.2973485376079
 21
327.1156938068465
 31
0.0
  0
LINE
  5
627
330
18
100
AcDbEntity
  8
1
  6
Continuous
100
AcDbLine
 10
349.2973485376079
 20
324.1156938068466
 30
0.0
 11
346.2973485376081
 21
327.1156938068465
 31
0.0
  0
LINE
  5
628
330
18
100
AcDbEntity
  8
1
  6
Continuous
100
AcDbLine
 10
340.7262805376078
 20
329.7156938068464
 30
0.0
 11
340.7262805376078
 21
324.1156938068466
 31
0.0
  0
LINE
  5
629
330
18
100
AcDbEntity
  8
1
  6
Continuous
100
AcDbLine
 10
342.2262805376079
 20
327.1156938068465
 30
0.0
 11
340.7262805376078
 21
325.6156938068465
 31
0.0
  0
LINE
  5
62A
330
18
100
AcDbEntity
  8
1
  6
Continuous
100
AcDbLine
 10
343.640494537608
 20
327.1156938068465
 30
0.0
 11
340.7262805376078
 21
324.2014798068465
 31
0.0
  0
LINE
  5
62B
330
18
100
AcDbEntity
  8
1
  6
Continuous
100
AcDbLine
 10
342.0547075376081
 20
324.1156938068466
 30
0.0
 11
345.0547075376081
 21
327.1156938068465
 31
0.0
  0
LINE
  5
62C
330
18
100
AcDbEntity
  8
1
  6
Continuous
100
AcDbLine
 10
343.640494537608
 20
324.1156938068466
 30
0.0
 11
340.7262805376078
 21
327.0299068068465
 31
0.0
  0
LINE
  5
62D
330
18
100
AcDbEntity
  8
1
  6
Continuous
100
AcDbLine
 10
345.0547075376081
 20
324.1156938068466
 30
0.0
 11
342.0547075376081
 21
327.1156938068465
 31
0.0
  0
LINE
  5
62E
330
18
100
AcDbEntity
  8
1
  6
Continuous
100
AcDbLine
 10
342.2262805376079
 20
324.1156938068466
 30
0.0
 11
340.7262805376078
 21
325.6156938068465
 31
0.0
  0
ARC
  5
62F
330
18
100
AcDbEntity
  8
1
  6
Continuous
100
AcDbCircle
 10
344.226280537608
 20
319.1156938068465
 30
0.0
 40
5.0
100
AcDbArc
 50
90.0
 51
180.0
  0
LINE
  5
630
330
18
100
AcDbEntity
  8
1
  6
Continuous
100
AcDbLine
 10
340.8120675376081
 20
324.1156938068466
 30
0.0
 11
340.7262805376078
 21
324.2014798068465
 31
0.0
  0
ARC
  5
631
330
18
100
AcDbEntity
  8
1
  6
Continuous
100
AcDbCircle
 10
347.5316015376081
 20
327.0156938068465
 30
0.0
 40
6.0
100
AcDbArc
 50
90.0
 51
153.256316
  0
LINE
  5
632
330
18
100
AcDbEntity
  8
1
  6
Continuous
100
AcDbLine
 10
340.8120675376081
 20
327.1156938068465
 30
0.0
 11
340.7262805376078
 21
327.0299068068465
 31
0.0
  0
LINE
  5
633
330
18
100
AcDbEntity
  8
1
  6
Continuous
100
AcDbLine
 10
360.4394845376079
 20
324.1156938068466
 30
0.0
 11
363.4394845376081
 21
327.1156938068465
 31
0.0
  0
LINE
  5
634
330
18
100
AcDbEntity
  8
1
  6
Continuous
100
AcDbLine
 10
361.8536975376081
 20
324.1156938068466
 30
0.0
 11
364.8536975376081
 21
327.1156938068465
 31
0.0
  0
LINE
  5
635
330
18
100
AcDbEntity
  8
1
  6
Continuous
100
AcDbLine
 10
363.4394845376081
 20
324.1156938068466
 30
0.0
 11
360.4394845376079
 21
327.1156938068465
 31
0.0
  0
LINE
  5
636
330
18
100
AcDbEntity
  8
1
  6
Continuous
100
AcDbLine
 10
364.8536975376081
 20
324.1156938068466
 30
0.0
 11
361.8536975376081
 21
327.1156938068465
 31
0.0
  0
LINE
  5
637
330
18
100
AcDbEntity
  8
1
  6
Continuous
100
AcDbLine
 10
354.7826295376079
 20
324.1156938068466
 30
0.0
 11
357.782629537608
 21
327.1156938068465
 31
0.0
  0
LINE
  5
638
330
18
100
AcDbEntity
  8
1
  6
Continuous
100
AcDbLine
 10
356.1968435376079
 20
324.1156938068466
 30
0.0
 11
359.1968435376081
 21
327.1156938068465
 31
0.0
  0
LINE
  5
639
330
18
100
AcDbEntity
  8
1
  6
Continuous
100
AcDbLine
 10
357.782629537608
 20
324.1156938068466
 30
0.0
 11
354.7826295376079
 21
327.1156938068465
 31
0.0
  0
LINE
  5
63A
330
18
100
AcDbEntity
  8
1
  6
Continuous
100
AcDbLine
 10
359.1968435376081
 20
324.1156938068466
 30
0.0
 11
356.1968435376079
 21
327.1156938068465
 31
0.0
  0
LINE
  5
63B
330
18
100
AcDbEntity
  8
1
  6
Continuous
100
AcDbLine
 10
357.6110565376079
 20
324.1156938068466
 30
0.0
 11
360.6110565376079
 21
327.1156938068465
 31
0.0
  0
LINE
  5
63C
330
18
100
AcDbEntity
  8
1
  6
Continuous
100
AcDbLine
 10
359.0252705376079
 20
324.1156938068466
 30
0.0
 11
362.025270537608
 21
327.1156938068465
 31
0.0
  0
LINE
  5
63D
330
18
100
AcDbEntity
  8
1
  6
Continuous
100
AcDbLine
 10
360.6110565376079
 20
324.1156938068466
 30
0.0
 11
357.6110565376079
 21
327.1156938068465
 31
0.0
  0
LINE
  5
63E
330
18
100
AcDbEntity
  8
1
  6
Continuous
100
AcDbLine
 10
362.025270537608
 20
324.1156938068466
 30
0.0
 11
359.0252705376079
 21
327.1156938068465
 31
0.0
  0
LINE
  5
63F
330
18
100
AcDbEntity
  8
1
  6
Continuous
100
AcDbLine
 10
350.539989537608
 20
324.1156938068466
 30
0.0
 11
353.5399895376079
 21
327.1156938068465
 31
0.0
  0
LINE
  5
640
330
18
100
AcDbEntity
  8
1
  6
Continuous
100
AcDbLine
 10
353.5399895376079
 20
324.1156938068466
 30
0.0
 11
350.539989537608
 21
327.1156938068465
 31
0.0
  0
LINE
  5
641
330
18
100
AcDbEntity
  8
1
  6
Continuous
100
AcDbLine
 10
351.9542025376079
 20
324.1156938068466
 30
0.0
 11
354.9542025376079
 21
327.1156938068465
 31
0.0
  0
LINE
  5
642
330
18
100
AcDbEntity
  8
1
  6
Continuous
100
AcDbLine
 10
353.3684165376079
 20
324.1156938068466
 30
0.0
 11
356.3684165376078
 21
327.1156938068465
 31
0.0
  0
LINE
  5
643
330
18
100
AcDbEntity
  8
1
  6
Continuous
100
AcDbLine
 10
354.9542025376079
 20
324.1156938068466
 30
0.0
 11
351.9542025376079
 21
327.1156938068465
 31
0.0
  0
LINE
  5
644
330
18
100
AcDbEntity
  8
1
  6
Continuous
100
AcDbLine
 10
356.3684165376078
 20
324.1156938068466
 30
0.0
 11
353.3684165376079
 21
327.1156938068465
 31
0.0
  0
ARC
  5
645
330
18
100
AcDbEntity
  8
1
  6
Continuous
100
AcDbCircle
 10
358.1262805376081
 20
339.5156938068465
 30
0.0
 40
2.1
100
AcDbArc
 50
310.367594
 51
0.0
  0
LINE
  5
646
330
18
100
AcDbEntity
  8
1
  6
Continuous
100
AcDbLine
 10
370.7262805376079
 20
337.9156938068464
 30
0.0
 11
370.7262805376079
 21
333.0156938068465
 31
0.0
  0
LINE
  5
647
330
18
100
AcDbEntity
  8
1
  6
Continuous
100
AcDbLine
 10
390.7262805376078
 20
337.9156938068464
 30
0.0
 11
390.7262805376078
 21
333.0156938068465
 31
0.0
  0
LINE
  5
648
330
18
100
AcDbEntity
  8
1
  6
Continuous
100
AcDbLine
 10
378.8242605376079
 20
324.1156938068466
 30
0.0
 11
381.8242605376081
 21
327.1156938068465
 31
0.0
  0
LINE
  5
649
330
18
100
AcDbEntity
  8
1
  6
Continuous
100
AcDbLine
 10
380.2384735376081
 20
324.1156938068466
 30
0.0
 11
383.2384735376081
 21
327.1156938068465
 31
0.0
  0
LINE
  5
64A
330
18
100
AcDbEntity
  8
1
  6
Continuous
100
AcDbLine
 10
381.8242605376081
 20
324.1156938068466
 30
0.0
 11
378.8242605376079
 21
327.1156938068465
 31
0.0
  0
LINE
  5
64B
330
18
100
AcDbEntity
  8
1
  6
Continuous
100
AcDbLine
 10
383.2384735376081
 20
324.1156938068466
 30
0.0
 11
380.2384735376081
 21
327.1156938068465
 31
0.0
  0
LINE
  5
64C
330
18
100
AcDbEntity
  8
1
  6
Continuous
100
AcDbLine
 10
371.7531925376081
 20
324.1156938068466
 30
0.0
 11
374.7531925376081
 21
327.1156938068465
 31
0.0
  0
LINE
  5
64D
330
18
100
AcDbEntity
  8
1
  6
Continuous
100
AcDbLine
 10
373.1674065376079
 20
324.1156938068466
 30
0.0
 11
376.1674065376078
 21
327.1156938068465
 31
0.0
  0
LINE
  5
64E
330
18
100
AcDbEntity
  8
1
  6
Continuous
100
AcDbLine
 10
374.7531925376081
 20
324.1156938068466
 30
0.0
 11
371.7531925376081
 21
327.1156938068465
 31
0.0
  0
LINE
  5
64F
330
18
100
AcDbEntity
  8
1
  6
Continuous
100
AcDbLine
 10
376.1674065376078
 20
324.1156938068466
 30
0.0
 11
373.1674065376079
 21
327.1156938068465
 31
0.0
  0
LINE
  5
650
330
18
100
AcDbEntity
  8
1
  6
Continuous
100
AcDbLine
 10
366.0963385376081
 20
324.1156938068466
 30
0.0
 11
369.0963385376079
 21
327.1156938068465
 31
0.0
  0
LINE
  5
651
330
18
100
AcDbEntity
  8
1
  6
Continuous
100
AcDbLine
 10
367.5105515376081
 20
324.1156938068466
 30
0.0
 11
370.5105515376081
 21
327.1156938068465
 31
0.0
  0
LINE
  5
652
330
18
100
AcDbEntity
  8
1
  6
Continuous
100
AcDbLine
 10
369.0963385376079
 20
324.1156938068466
 30
0.0
 11
366.0963385376081
 21
327.1156938068465
 31
0.0
  0
LINE
  5
653
330
18
100
AcDbEntity
  8
1
  6
Continuous
100
AcDbLine
 10
370.5105515376081
 20
324.1156938068466
 30
0.0
 11
367.5105515376081
 21
327.1156938068465
 31
0.0
  0
LINE
  5
654
330
18
100
AcDbEntity
  8
1
  6
Continuous
100
AcDbLine
 10
368.9247655376081
 20
324.1156938068466
 30
0.0
 11
371.9247655376079
 21
327.1156938068465
 31
0.0
  0
LINE
  5
655
330
18
100
AcDbEntity
  8
1
  6
Continuous
100
AcDbLine
 10
370.3389795376081
 20
324.1156938068466
 30
0.0
 11
373.3389795376079
 21
327.1156938068465
 31
0.0
  0
LINE
  5
656
330
18
100
AcDbEntity
  8
1
  6
Continuous
100
AcDbLine
 10
371.9247655376079
 20
324.1156938068466
 30
0.0
 11
368.9247655376081
 21
327.1156938068465
 31
0.0
  0
LINE
  5
657
330
18
100
AcDbEntity
  8
1
  6
Continuous
100
AcDbLine
 10
373.3389795376079
 20
324.1156938068466
 30
0.0
 11
370.3389795376081
 21
327.1156938068465
 31
0.0
  0
LINE
  5
658
330
18
100
AcDbEntity
  8
1
  6
Continuous
100
AcDbLine
 10
374.5816195376079
 20
324.1156938068466
 30
0.0
 11
377.581619537608
 21
327.1156938068465
 31
0.0
  0
LINE
  5
659
330
18
100
AcDbEntity
  8
1
  6
Continuous
100
AcDbLine
 10
375.9958335376079
 20
324.1156938068466
 30
0.0
 11
378.9958335376081
 21
327.1156938068465
 31
0.0
  0
LINE
  5
65A
330
18
100
AcDbEntity
  8
1
  6
Continuous
100
AcDbLine
 10
377.4100465376081
 20
324.1156938068466
 30
0.0
 11
380.4100465376081
 21
327.1156938068465
 31
0.0
  0
LINE
  5
65B
330
18
100
AcDbEntity
  8
1
  6
Continuous
100
AcDbLine
 10
377.581619537608
 20
324.1156938068466
 30
0.0
 11
374.5816195376079
 21
327.1156938068465
 31
0.0
  0
LINE
  5
65C
330
18
100
AcDbEntity
  8
1
  6
Continuous
100
AcDbLine
 10
378.9958335376081
 20
324.1156938068466
 30
0.0
 11
375.9958335376079
 21
327.1156938068465
 31
0.0
  0
LINE
  5
65D
330
18
100
AcDbEntity
  8
1
  6
Continuous
100
AcDbLine
 10
380.4100465376081
 20
324.1156938068466
 30
0.0
 11
377.4100465376081
 21
327.1156938068465
 31
0.0
  0
LINE
  5
65E
330
18
100
AcDbEntity
  8
1
  6
Continuous
100
AcDbLine
 10
390.1379685376081
 20
324.1156938068466
 30
0.0
 11
393.1379685376081
 21
327.1156938068465
 31
0.0
  0
LINE
  5
65F
330
18
100
AcDbEntity
  8
1
  6
Continuous
100
AcDbLine
 10
391.5521825376081
 20
324.1156938068466
 30
0.0
 11
394.5521825376081
 21
327.1156938068465
 31
0.0
  0
LINE
  5
660
330
18
100
AcDbEntity
  8
1
  6
Continuous
100
AcDbLine
 10
393.1379685376081
 20
324.1156938068466
 30
0.0
 11
390.1379685376081
 21
327.1156938068465
 31
0.0
  0
LINE
  5
661
330
18
100
AcDbEntity
  8
1
  6
Continuous
100
AcDbLine
 10
394.5521825376081
 20
324.1156938068466
 30
0.0
 11
391.5521825376081
 21
327.1156938068465
 31
0.0
  0
LINE
  5
662
330
18
100
AcDbEntity
  8
1
  6
Continuous
100
AcDbLine
 10
392.9663965376079
 20
324.1156938068466
 30
0.0
 11
395.9663965376078
 21
327.1156938068465
 31
0.0
  0
LINE
  5
663
330
18
100
AcDbEntity
  8
1
  6
Continuous
100
AcDbLine
 10
395.9663965376078
 20
324.1156938068466
 30
0.0
 11
392.9663965376079
 21
327.1156938068465
 31
0.0
  0
LINE
  5
664
330
18
100
AcDbEntity
  8
1
  6
Continuous
100
AcDbLine
 10
384.4811145376081
 20
324.1156938068466
 30
0.0
 11
387.4811145376079
 21
327.1156938068465
 31
0.0
  0
LINE
  5
665
330
18
100
AcDbEntity
  8
1
  6
Continuous
100
AcDbLine
 10
385.8953285376081
 20
324.1156938068466
 30
0.0
 11
388.8953285376081
 21
327.1156938068465
 31
0.0
  0
LINE
  5
666
330
18
100
AcDbEntity
  8
1
  6
Continuous
100
AcDbLine
 10
387.4811145376079
 20
324.1156938068466
 30
0.0
 11
384.4811145376081
 21
327.1156938068465
 31
0.0
  0
LINE
  5
667
330
18
100
AcDbEntity
  8
1
  6
Continuous
100
AcDbLine
 10
388.8953285376081
 20
324.1156938068466
 30
0.0
 11
385.8953285376081
 21
327.1156938068465
 31
0.0
  0
LINE
  5
668
330
18
100
AcDbEntity
  8
1
  6
Continuous
100
AcDbLine
 10
381.6526875376079
 20
324.1156938068466
 30
0.0
 11
384.6526875376079
 21
327.1156938068465
 31
0.0
  0
LINE
  5
669
330
18
100
AcDbEntity
  8
1
  6
Continuous
100
AcDbLine
 10
383.0669015376079
 20
324.1156938068466
 30
0.0
 11
386.0669015376079
 21
327.1156938068465
 31
0.0
  0
LINE
  5
66A
330
18
100
AcDbEntity
  8
1
  6
Continuous
100
AcDbLine
 10
384.6526875376079
 20
324.1156938068466
 30
0.0
 11
381.6526875376079
 21
327.1156938068465
 31
0.0
  0
LINE
  5
66B
330
18
100
AcDbEntity
  8
1
  6
Continuous
100
AcDbLine
 10
386.0669015376079
 20
324.1156938068466
 30
0.0
 11
383.0669015376079
 21
327.1156938068465
 31
0.0
  0
LINE
  5
66C
330
18
100
AcDbEntity
  8
1
  6
Continuous
100
AcDbLine
 10
387.309541537608
 20
324.1156938068466
 30
0.0
 11
390.3095415376079
 21
327.1156938068465
 31
0.0
  0
LINE
  5
66D
330
18
100
AcDbEntity
  8
1
  6
Continuous
100
AcDbLine
 10
388.723755537608
 20
324.1156938068466
 30
0.0
 11
391.7237555376079
 21
327.1156938068465
 31
0.0
  0
LINE
  5
66E
330
18
100
AcDbEntity
  8
1
  6
Continuous
100
AcDbLine
 10
390.3095415376079
 20
324.1156938068466
 30
0.0
 11
387.309541537608
 21
327.1156938068465
 31
0.0
  0
LINE
  5
66F
330
18
100
AcDbEntity
  8
1
  6
Continuous
100
AcDbLine
 10
391.7237555376079
 20
324.1156938068466
 30
0.0
 11
388.723755537608
 21
327.1156938068465
 31
0.0
  0
ARC
  5
670
330
18
100
AcDbEntity
  8
1
  6
Continuous
100
AcDbCircle
 10
383.3262805376081
 20
339.5156938068465
 30
0.0
 40
2.1
100
AcDbArc
 50
180.0
 51
229.6324059999999
  0
LINE
  5
671
330
18
100
AcDbEntity
  8
1
  6
Continuous
100
AcDbLine
 10
274.684404537608
 20
407.4156938068464
 30
0.0
 11
274.184404537608
 21
407.9156938068464
 31
0.0
  0
LINE
  5
672
330
18
100
AcDbEntity
  8
1
  6
Continuous
100
AcDbLine
 10
360.726280537608
 20
407.9156938068464
 30
0.0
 11
380.7262805376079
 21
407.9156938068464
 31
0.0
  0
LINE
  5
673
330
18
100
AcDbEntity
  8
1
  6
Continuous
100
AcDbLine
 10
360.2262805376079
 20
407.4156938068464
 30
0.0
 11
381.2262805376079
 21
407.4156938068464
 31
0.0
  0
LINE
  5
674
330
18
100
AcDbEntity
  8
1
  6
Continuous
100
AcDbLine
 10
360.2262805376079
 20
407.4156938068464
 30
0.0
 11
360.726280537608
 21
407.9156938068464
 31
0.0
  0
LINE
  5
675
330
18
100
AcDbEntity
  8
1
  6
Continuous
100
AcDbLine
 10
381.2262805376079
 20
407.4156938068464
 30
0.0
 11
380.7262805376079
 21
407.9156938068464
 31
0.0
  0
ARC
  5
676
330
18
100
AcDbEntity
  8
1
  6
Continuous
100
AcDbCircle
 10
264.1840825376081
 20
487.0455738068463
 30
0.0
 40
31.5
100
AcDbArc
 50
234.3197379999998
 51
125.680262
  0
LINE
  5
677
330
18
100
AcDbEntity
  8
1
  6
Continuous
100
AcDbLine
 10
252.6370775376079
 20
507.0455738068464
 30
0.0
 11
275.731088537608
 21
507.0455738068464
 31
0.0
  0
LINE
  5
678
330
18
100
AcDbEntity
  8
1
  6
Continuous
100
AcDbLine
 10
252.6370775376079
 20
467.0455738068466
 30
0.0
 11
275.731088537608
 21
467.0455738068466
 31
0.0
  0
CIRCLE
  5
679
330
18
100
AcDbEntity
  8
1
  6
Continuous
100
AcDbCircle
 10
264.1840825376081
 20
487.0455738068463
 30
0.0
 40
10.5
  0
CIRCLE
  5
67A
330
18
100
AcDbEntity
  8
1
  6
Continuous
100
AcDbCircle
 10
264.1840825376081
 20
487.0455738068463
 30
0.0
 40
28.5529
  0
CIRCLE
  5
67B
330
18
100
AcDbEntity
  8
1
  6
Continuous
100
AcDbCircle
 10
264.1840825376081
 20
487.0455738068463
 30
0.0
 40
30.0
  0
LINE
  5
67C
330
18
100
AcDbEntity
  8
1
  6
Continuous
100
AcDbLine
 10
205.1844045376081
 20
504.5455738068466
 30
0.0
 11
226.0412385376081
 21
504.5455738068466
 31
0.0
  0
LINE
  5
67D
330
18
100
AcDbEntity
  8
1
  6
Continuous
100
AcDbLine
 10
226.5322115376081
 20
507.4455738068466
 30
0.0
 11
207.930310537608
 21
507.4455738068466
 31
0.0
  0
LINE
  5
67E
330
18
100
AcDbEntity
  8
1
  6
Continuous
100
AcDbLine
 10
231.134404537608
 20
459.7262278068463
 30
0.0
 11
209.2344045376081
 21
459.7262278068463
 31
0.0
  0
LINE
  5
67F
330
18
100
AcDbEntity
  8
1
  6
Continuous
100
AcDbLine
 10
226.6090445376081
 20
507.8618228068466
 30
0.0
 11
204.117506537608
 21
507.8726628068464
 31
0.0
  0
LINE
  5
680
330
18
100
AcDbEntity
  8
1
  6
Continuous
100
AcDbLine
 10
239.9739135376081
 20
510.7553818068466
 30
0.0
 11
204.117506537608
 21
510.7726638068465
 31
0.0
  0
LINE
  5
681
330
18
100
AcDbEntity
  8
1
  6
Continuous
100
AcDbLine
 10
205.1844045376081
 20
469.5455738068464
 30
0.0
 11
226.0412385376081
 21
469.5455738068464
 31
0.0
  0
LINE
  5
682
330
18
100
AcDbEntity
  8
1
  6
Continuous
100
AcDbLine
 10
226.5322115376081
 20
466.6455738068464
 30
0.0
 11
207.930310537608
 21
466.6455738068464
 31
0.0
  0
LINE
  5
683
330
18
100
AcDbEntity
  8
1
  6
Continuous
100
AcDbLine
 10
239.9739135376081
 20
463.3357658068463
 30
0.0
 11
204.117506537608
 21
463.3184828068466
 31
0.0
  0
LINE
  5
684
330
18
100
AcDbEntity
  8
1
  6
Continuous
100
AcDbLine
 10
226.6090445376081
 20
466.2293248068466
 30
0.0
 11
204.117506537608
 21
466.2184838068466
 31
0.0
  0
LINE
  5
685
330
18
100
AcDbEntity
  8
1
  6
Continuous
100
AcDbLine
 10
204.117506537608
 20
463.3184828068466
 30
0.0
 11
204.117506537608
 21
466.2184838068466
 31
0.0
  0
LINE
  5
686
330
18
100
AcDbEntity
  8
1
  6
Continuous
100
AcDbLine
 10
209.2344045376081
 20
463.3262278068466
 30
0.0
 11
209.2344045376081
 21
459.7262278068463
 31
0.0
  0
ARC
  5
687
330
18
100
AcDbEntity
  8
1
  6
Continuous
100
AcDbCircle
 10
205.1844045376081
 20
488.5812888068463
 30
0.0
 40
19.03571399999998
100
AcDbArc
 50
234.6997519999999
 51
270.0
  0
ARC
  5
688
330
18
100
AcDbEntity
  8
1
  6
Continuous
100
AcDbCircle
 10
207.930310537608
 20
469.3955738068464
 30
0.0
 40
2.75
100
AcDbArc
 50
176.873224
 51
270.0
  0
ARC
  5
689
330
18
100
AcDbEntity
  8
1
  6
Continuous
100
AcDbCircle
 10
207.930310537608
 20
504.6955738068466
 30
0.0
 40
2.75
100
AcDbArc
 50
90.0
 51
183.1267759999999
  0
ARC
  5
68A
330
18
100
AcDbEntity
  8
1
  6
Continuous
100
AcDbCircle
 10
205.1844045376081
 20
485.5098598068463
 30
0.0
 40
19.03571399999998
100
AcDbArc
 50
90.0
 51
125.300248
  0
LINE
  5
68B
330
18
100
AcDbEntity
  8
1
  6
Continuous
100
AcDbLine
 10
204.117506537608
 20
510.7726638068465
 30
0.0
 11
204.117506537608
 21
507.8726628068464
 31
0.0
  0
LINE
  5
68C
330
18
100
AcDbEntity
  8
1
  6
Continuous
100
AcDbLine
 10
241.090072537608
 20
487.0455738068463
 30
0.0
 11
252.6370775376079
 21
467.0455738068466
 31
0.0
  0
ARC
  5
68D
330
18
100
AcDbEntity
  8
1
  6
Continuous
100
AcDbCircle
 10
338.2174895376079
 20
487.0455738068463
 30
0.0
 40
113.533085
100
AcDbArc
 50
167.954674
 51
192.045326
  0
LINE
  5
68E
330
18
100
AcDbEntity
  8
4
  6
CENTER
100
AcDbLine
 10
220.1844045376079
 20
446.7649188068466
 30
0.0
 11
220.1844045376079
 21
522.2649198068467
 31
0.0
  0
LINE
  5
68F
330
18
100
AcDbEntity
  8
4
  6
CENTER
100
AcDbLine
 10
264.1840825376081
 20
523.5455738068464
 30
0.0
 11
264.1840825376081
 21
450.5455738068466
 31
0.0
  0
ARC
  5
690
330
18
100
AcDbEntity
  8
1
  6
Continuous
100
AcDbCircle
 10
239.9787335376079
 20
453.3357668068465
 30
0.0
 40
10.0
100
AcDbArc
 50
54.31973800000001
 51
90.02761600000004
  0
LINE
  5
691
330
18
100
AcDbEntity
  8
1
  6
Continuous
100
AcDbLine
 10
225.584404537608
 20
451.7649188068466
 30
0.0
 11
226.1844045376079
 21
452.3649188068463
 31
0.0
  0
LINE
  5
692
330
18
100
AcDbEntity
  8
1
  6
Continuous
100
AcDbLine
 10
229.684404537608
 20
459.7262278068463
 30
0.0
 11
220.1844045376079
 21
459.7262278068463
 31
0.0
  0
ARC
  5
693
330
18
100
AcDbEntity
  8
1
  6
Continuous
100
AcDbCircle
 10
224.4344045376079
 20
447.4507208068463
 30
0.0
 40
12.275507
100
AcDbArc
 50
69.743842
 51
110.2561579999999
  0
ARC
  5
694
330
18
100
AcDbEntity
  8
1
  6
Continuous
100
AcDbCircle
 10
224.4344045376079
 20
465.0017338068463
 30
0.0
 40
12.275507
100
AcDbArc
 50
249.7438419999999
 51
290.256158
  0
LINE
  5
695
330
18
100
AcDbEntity
  8
1
  6
Continuous
100
AcDbLine
 10
214.1844045376079
 20
452.3649188068463
 30
0.0
 11
226.1844045376079
 21
452.3649188068463
 31
0.0
  0
LINE
  5
696
330
18
100
AcDbEntity
  8
1
  6
Continuous
100
AcDbLine
 10
228.6844045376079
 20
452.7262278068466
 30
0.0
 11
211.6844045376079
 21
452.7262278068466
 31
0.0
  0
LINE
  5
697
330
18
100
AcDbEntity
  8
1
  6
Continuous
100
AcDbLine
 10
220.1844045376079
 20
458.9670378068466
 30
0.0
 11
220.1844045376079
 21
453.4854168068464
 31
0.0
  0
LINE
  5
698
330
18
100
AcDbEntity
  8
1
  6
Continuous
100
AcDbLine
 10
211.6844045376079
 20
459.7262278068463
 30
0.0
 11
211.6844045376079
 21
452.7262278068466
 31
0.0
  0
LINE
  5
699
330
18
100
AcDbEntity
  8
1
  6
Continuous
100
AcDbLine
 10
225.584404537608
 20
451.7649188068466
 30
0.0
 11
214.784404537608
 21
451.7649188068466
 31
0.0
  0
ARC
  5
69A
330
18
100
AcDbEntity
  8
1
  6
Continuous
100
AcDbCircle
 10
215.9344045376079
 20
465.0017338068463
 30
0.0
 40
12.275507
100
AcDbArc
 50
249.7438419999999
 51
290.256158
  0
LINE
  5
69B
330
18
100
AcDbEntity
  8
2
  6
Continuous
100
AcDbLine
 10
215.131404537608
 20
452.7262278068466
 30
0.0
 11
215.131404537608
 21
451.7649188068466
 31
0.0
  0
LINE
  5
69C
330
18
100
AcDbEntity
  8
1
  6
Continuous
100
AcDbLine
 10
214.1844045376079
 20
452.3649188068463
 30
0.0
 11
214.1844045376079
 21
452.7262278068466
 31
0.0
  0
LINE
  5
69D
330
18
100
AcDbEntity
  8
1
  6
Continuous
100
AcDbLine
 10
214.1844045376079
 20
452.3649188068463
 30
0.0
 11
214.784404537608
 21
451.7649188068466
 31
0.0
  0
LINE
  5
69E
330
18
100
AcDbEntity
  8
2
  6
Continuous
100
AcDbLine
 10
225.237404537608
 20
452.7262278068466
 30
0.0
 11
225.237404537608
 21
451.7649188068466
 31
0.0
  0
LINE
  5
69F
330
18
100
AcDbEntity
  8
1
  6
Continuous
100
AcDbLine
 10
220.1844045376079
 20
459.7262278068463
 30
0.0
 11
216.5826695376081
 21
463.3279628068464
 31
0.0
  0
ARC
  5
6A0
330
18
100
AcDbEntity
  8
1
  6
Continuous
100
AcDbCircle
 10
215.9344045376079
 20
447.4507208068463
 30
0.0
 40
12.275507
100
AcDbArc
 50
69.743842
 51
110.2561579999999
  0
LINE
  5
6A1
330
18
100
AcDbEntity
  8
1
  6
Continuous
100
AcDbLine
 10
223.7838495376081
 20
459.7262278068463
 30
0.0
 11
220.1838495376081
 21
463.3262278068466
 31
0.0
  0
LINE
  5
6A2
330
18
100
AcDbEntity
  8
1
  6
Continuous
100
AcDbLine
 10
228.6844045376079
 20
459.7262278068463
 30
0.0
 11
228.6844045376079
 21
452.7262278068466
 31
0.0
  0
LINE
  5
6A3
330
18
100
AcDbEntity
  8
1
  6
Continuous
100
AcDbLine
 10
226.1844045376079
 20
452.7262278068466
 30
0.0
 11
226.1844045376079
 21
452.3649188068463
 31
0.0
  0
LINE
  5
6A4
330
18
100
AcDbEntity
  8
1
  6
Continuous
100
AcDbLine
 10
231.134404537608
 20
463.3262278068466
 30
0.0
 11
231.134404537608
 21
459.7262278068463
 31
0.0
  0
LINE
  5
6A5
330
18
100
AcDbEntity
  8
1
  6
Continuous
100
AcDbLine
 10
220.1844045376079
 20
466.2455738068463
 30
0.0
 11
226.606014537608
 21
466.2455738068463
 31
0.0
  0
LINE
  5
6A6
330
18
100
AcDbEntity
  8
1
  6
Continuous
100
AcDbLine
 10
220.1844045376079
 20
466.2455738068463
 30
0.0
 11
212.1844045376079
 21
466.2455738068463
 31
0.0
  0
LINE
  5
6A7
330
18
100
AcDbEntity
  8
1
  6
Continuous
100
AcDbLine
 10
212.1844045376079
 20
466.2455738068463
 30
0.0
 11
212.1844045376079
 21
466.6455738068464
 31
0.0
  0
ARC
  5
6A8
330
18
100
AcDbEntity
  8
1
  6
Continuous
100
AcDbCircle
 10
239.9787335376079
 20
520.7553798068463
 30
0.0
 40
10.0
100
AcDbArc
 50
269.9723839999999
 51
305.680262
  0
LINE
  5
6A9
330
18
100
AcDbEntity
  8
1
  6
Continuous
100
AcDbLine
 10
241.090072537608
 20
487.0455738068463
 30
0.0
 11
252.6370775376079
 21
507.0455738068464
 31
0.0
  0
LINE
  5
6AA
330
18
100
AcDbEntity
  8
1
  6
Continuous
100
AcDbLine
 10
212.1844045376079
 20
507.8455738068464
 30
0.0
 11
212.1844045376079
 21
507.4455738068466
 31
0.0
  0
LINE
  5
6AB
330
18
100
AcDbEntity
  8
1
  6
Continuous
100
AcDbLine
 10
220.1844045376079
 20
507.8455738068464
 30
0.0
 11
226.606014537608
 21
507.8455738068464
 31
0.0
  0
ARC
  5
6AC
330
18
100
AcDbEntity
  8
1
  6
Continuous
100
AcDbCircle
 10
224.4344045376079
 20
504.9894128068466
 30
0.0
 40
12.275507
100
AcDbArc
 50
69.743842
 51
110.2561579999999
  0
LINE
  5
6AD
330
18
100
AcDbEntity
  8
1
  6
Continuous
100
AcDbLine
 10
228.6844045376079
 20
517.2649198068468
 30
0.0
 11
211.6844045376079
 21
517.2649198068468
 31
0.0
  0
LINE
  5
6AE
330
18
100
AcDbEntity
  8
1
  6
Continuous
100
AcDbLine
 10
220.1844045376079
 20
507.8455738068464
 30
0.0
 11
212.1844045376079
 21
507.8455738068464
 31
0.0
  0
ARC
  5
6AF
330
18
100
AcDbEntity
  8
1
  6
Continuous
100
AcDbCircle
 10
215.9344045376079
 20
504.9894128068466
 30
0.0
 40
12.275507
100
AcDbArc
 50
69.743842
 51
110.2561579999999
  0
LINE
  5
6B0
330
18
100
AcDbEntity
  8
1
  6
Continuous
100
AcDbLine
 10
211.6844045376079
 20
517.2649198068468
 30
0.0
 11
211.6844045376079
 21
510.7690168068464
 31
0.0
  0
LINE
  5
6B1
330
18
100
AcDbEntity
  8
1
  6
Continuous
100
AcDbLine
 10
220.1844045376079
 20
516.5057298068465
 30
0.0
 11
220.1844045376079
 21
510.7649198068465
 31
0.0
  0
LINE
  5
6B2
330
18
100
AcDbEntity
  8
1
  6
Continuous
100
AcDbLine
 10
228.6844045376079
 20
517.2649198068468
 30
0.0
 11
228.6844045376079
 21
510.7608228068467
 31
0.0
  0
ARC
  5
6B3
330
18
100
AcDbEntity
  8
1
  6
Continuous
100
AcDbCircle
 10
262.684404537608
 20
487.0455738068463
 30
0.0
 40
35.0
100
AcDbArc
 50
341.1809369999998
 51
18.81906299999998
  0
LINE
  5
6B4
330
18
100
AcDbEntity
  8
1
  6
Continuous
100
AcDbLine
 10
275.731088537608
 20
467.0455738068466
 30
0.0
 11
287.2780935376081
 21
487.0455738068463
 31
0.0
  0
ARC
  5
6B5
330
18
100
AcDbEntity
  8
1
  6
Continuous
100
AcDbCircle
 10
292.0272065376078
 20
477.0455738068466
 30
0.0
 40
4.0
100
AcDbArc
 50
270.0
 51
341.1809369999998
  0
LINE
  5
6B6
330
18
100
AcDbEntity
  8
1
  6
Continuous
100
AcDbLine
 10
275.731088537608
 20
507.0455738068464
 30
0.0
 11
287.2780935376081
 21
487.0455738068463
 31
0.0
  0
ARC
  5
6B7
330
18
100
AcDbEntity
  8
1
  6
Continuous
100
AcDbCircle
 10
292.0272065376078
 20
497.0455738068466
 30
0.0
 40
4.0
100
AcDbArc
 50
18.81906299999998
 51
90.0
  0
LINE
  5
6B8
330
18
100
AcDbEntity
  8
4
  6
CENTER
100
AcDbLine
 10
477.2681565376078
 20
412.9156938068463
 30
0.0
 11
477.2681565376078
 21
254.4495248068466
 31
0.0
  0
LINE
  5
6B9
330
18
100
AcDbEntity
  8
1
  6
Continuous
100
AcDbLine
 10
500.8353765376081
 20
315.6576698068465
 30
0.0
 11
500.8353765376081
 21
234.2135218068466
 31
0.0
  0
ARC
  5
6BA
330
18
100
AcDbEntity
  8
1
  6
Continuous
100
AcDbCircle
 10
631.5684765376081
 20
314.5105358068466
 30
0.0
 40
123.224386
100
AcDbArc
 50
187.7730689999999
 51
210.5976489999999
  0
LINE
  5
6BB
330
18
100
AcDbEntity
  8
4
  6
CENTER
100
AcDbLine
 10
521.268156537608
 20
140.9156938068466
 30
0.0
 11
521.268156537608
 21
311.9156938068464
 31
0.0
  0
ARC
  5
6BC
330
18
100
AcDbEntity
  8
1
  6
Continuous
100
AcDbCircle
 10
521.268156537608
 20
226.4156938068465
 30
0.0
 40
61.0
100
AcDbArc
 50
149.363279
 51
99.17800200000002
  0
ARC
  5
6BD
330
18
100
AcDbEntity
  8
1
  6
Continuous
100
AcDbCircle
 10
521.268156537608
 20
226.4156938068465
 30
0.0
 40
77.5
100
AcDbArc
 50
141.640231
 51
99.09898099999999
  0
ARC
  5
6BE
330
18
100
AcDbEntity
  8
1
  6
Continuous
100
AcDbCircle
 10
580.9183375376078
 20
322.6355308068467
 30
0.0
 40
129.68
100
AcDbArc
 50
187.0610729999999
 51
234.4220450000001
  0
LINE
  5
6BF
330
18
100
AcDbEntity
  8
1
  6
Continuous
100
AcDbLine
 10
402.226280537608
 20
319.1156938068465
 30
0.0
 11
402.226280537608
 21
250.7073798068464
 31
0.0
  0
ARC
  5
6C0
330
18
100
AcDbEntity
  8
1
  6
Continuous
100
AcDbCircle
 10
521.268156537608
 20
224.9156938068466
 30
0.0
 40
46.5
100
AcDbArc
 50
156.955477
 51
96.22239100000001
  0
ARC
  5
6C1
330
18
100
AcDbEntity
  8
1
  6
Continuous
100
AcDbCircle
 10
521.268156537608
 20
224.9156938068466
 30
0.0
 40
36.0
100
AcDbArc
 50
165.6250599999999
 51
91.04337800000001
  0
LINE
  5
6C3
330
18
100
AcDbEntity
  8
1
  6
Continuous
100
AcDbLine
 10
512.768156537608
 20
221.5082158068466
 30
0.0
 11
521.268156537608
 21
216.6007388068466
 31
0.0
  0
LINE
  5
6C4
330
18
100
AcDbEntity
  8
1
  6
Continuous
100
AcDbLine
 10
521.268156537608
 20
236.2306478068465
 30
0.0
 11
512.768156537608
 21
231.3231708068466
 31
0.0
  0
CIRCLE
  5
6C5
330
18
100
AcDbEntity
  8
1
  6
Continuous
100
AcDbCircle
 10
521.268156537608
 20
226.4156938068465
 30
0.0
 40
8.5
  0
CIRCLE
  5
6C6
330
18
100
AcDbEntity
  8
1
  6
Continuous
100
AcDbCircle
 10
521.268156537608
 20
267.4156938068465
 30
0.0
 40
3.5
  0
ARC
  5
6C7
330
18
100
AcDbEntity
  8
1
  6
Continuous
100
AcDbCircle
 10
520.9938455376081
 20
226.2571488068466
 30
0.0
 40
15.713917
100
AcDbArc
 50
241.418425
 51
302.211329
  0
LINE
  5
6C8
330
18
100
AcDbEntity
  8
4
  6
CENTER
100
AcDbLine
 10
435.7681565376078
 20
226.4156938068465
 30
0.0
 11
606.7681565376077
 21
226.4156938068465
 31
0.0
  0
ARC
  5
6C9
330
18
100
AcDbEntity
  8
1
  6
Continuous
100
AcDbCircle
 10
384.7094155376079
 20
226.4156938068465
 30
0.0
 40
16.24081099999999
100
AcDbArc
 50
0.0
 51
17.587954
  0
LINE
  5
6CA
330
18
100
AcDbEntity
  8
1
  6
Continuous
100
AcDbLine
 10
400.9502255376078
 20
219.0544778068465
 30
0.0
 11
400.9502255376078
 21
233.7739618068466
 31
0.0
  0
ARC
  5
6CB
330
18
100
AcDbEntity
  8
1
  6
Continuous
100
AcDbCircle
 10
396.6053275376079
 20
219.0544778068465
 30
0.0
 40
4.344898999999998
100
AcDbArc
 50
325.6157529999998
 51
34.38424699999997
  0
ARC
  5
6CC
330
18
100
AcDbEntity
  8
1
  6
Continuous
100
AcDbCircle
 10
384.7094155376079
 20
226.4156938068465
 30
0.0
 40
16.24081099999999
100
AcDbArc
 50
342.4120459999998
 51
0.0
  0
LINE
  5
6CD
330
18
100
AcDbEntity
  8
1
  6
Continuous
100
AcDbLine
 10
399.3262805376081
 20
254.9156938068465
 30
0.0
 11
399.3262805376081
 21
250.6887198068465
 31
0.0
  0
ARC
  5
6CE
330
18
100
AcDbEntity
  8
1
  6
Continuous
100
AcDbCircle
 10
378.9299065376079
 20
250.4172118068466
 30
0.0
 40
23.298181
100
AcDbArc
 50
321.227699
 51
0.7136110000000003
  0
LINE
  5
6CF
330
18
100
AcDbEntity
  8
1
  6
Continuous
100
AcDbLine
 10
397.4108875376081
 20
236.2306478068465
 30
0.0
 11
400.1910365376081
 21
236.2306478068465
 31
0.0
  0
ARC
  5
6D0
330
18
100
AcDbEntity
  8
1
  6
Continuous
100
AcDbCircle
 10
396.6053275376079
 20
233.7769098068466
 30
0.0
 40
4.344898999999998
100
AcDbArc
 50
325.6157529999998
 51
34.38424699999997
  0
LINE
  5
6D1
330
18
100
AcDbEntity
  8
1
  6
Continuous
100
AcDbLine
 10
512.768156537608
 20
221.5082158068466
 30
0.0
 11
512.768156537608
 21
231.3231708068466
 31
0.0
  0
CIRCLE
  5
6D2
330
18
100
AcDbEntity
  8
1
  6
Continuous
100
AcDbCircle
 10
497.1689615376078
 20
193.2459968068465
 30
0.0
 40
3.5
  0
ARC
  5
6D3
330
18
100
AcDbEntity
  8
1
  6
Continuous
100
AcDbCircle
 10
528.4841745376081
 20
247.1617678068465
 30
0.0
 40
37.80978199999999
100
AcDbArc
 50
232.504143
 51
246.613307
  0
ARC
  5
6D4
330
18
100
AcDbEntity
  8
1
  6
Continuous
100
AcDbCircle
 10
482.2748395376081
 20
239.0853898068465
 30
0.0
 40
3.5
100
AcDbArc
 50
129.780147
 51
310.462825
  0
LINE
  5
6D5
330
18
100
AcDbEntity
  8
1
  6
Continuous
100
AcDbLine
 10
529.768156537608
 20
221.5082158068466
 30
0.0
 11
529.768156537608
 21
231.3231708068466
 31
0.0
  0
ARC
  5
6D6
330
18
100
AcDbEntity
  8
1
  6
Continuous
100
AcDbCircle
 10
520.2774065376079
 20
227.3943358068466
 30
0.0
 40
17.05797
100
AcDbArc
 50
302.211329
 51
28.78598300000001
  0
CIRCLE
  5
6D7
330
18
100
AcDbEntity
  8
1
  6
Continuous
100
AcDbCircle
 10
545.3673525376078
 20
193.2459968068465
 30
0.0
 40
3.5
  0
LINE
  5
6D8
330
18
100
AcDbEntity
  8
1
  6
Continuous
100
AcDbLine
 10
529.768156537608
 20
221.5082158068466
 30
0.0
 11
521.268156537608
 21
216.6007388068466
 31
0.0
  0
ARC
  5
6DA
330
18
100
AcDbEntity
  8
1
  6
Continuous
100
AcDbCircle
 10
639.5002955376082
 20
309.3003418068466
 30
0.0
 40
127.684495
100
AcDbArc
 50
206.7706939999999
 51
215.249688
  0
LINE
  5
6DB
330
18
100
AcDbEntity
  8
1
  6
Continuous
100
AcDbLine
 10
521.268156537608
 20
236.2306478068465
 30
0.0
 11
529.768156537608
 21
231.3231708068466
 31
0.0
  0
CIRCLE
  5
6DC
330
18
100
AcDbEntity
  8
1
  6
Continuous
100
AcDbCircle
 10
560.2614735376081
 20
239.0853898068465
 30
0.0
 40
3.5
  0
LINE
  5
6DD
330
18
100
AcDbEntity
  8
1
  6
Continuous
100
AcDbLine
 10
466.7681565376081
 20
339.5156938068465
 30
0.0
 11
466.7681565376081
 21
407.4156938068464
 31
0.0
  0
LINE
  5
6DE
330
18
100
AcDbEntity
  8
1
  6
Continuous
100
AcDbLine
 10
487.768156537608
 20
339.5156938068465
 30
0.0
 11
487.768156537608
 21
407.4156938068464
 31
0.0
  0
LINE
  5
6DF
330
18
100
AcDbEntity
  8
1
  6
Continuous
100
AcDbLine
 10
456.2706815376079
 20
324.1156938068466
 30
0.0
 11
459.2706815376081
 21
327.1156938068465
 31
0.0
  0
LINE
  5
6E0
330
18
100
AcDbEntity
  8
1
  6
Continuous
100
AcDbLine
 10
459.2706815376081
 20
324.1156938068466
 30
0.0
 11
456.2706815376079
 21
327.1156938068465
 31
0.0
  0
LINE
  5
6E1
330
18
100
AcDbEntity
  8
1
  6
Continuous
100
AcDbLine
 10
457.6848955376078
 20
324.1156938068466
 30
0.0
 11
460.6848955376078
 21
327.1156938068465
 31
0.0
  0
LINE
  5
6E2
330
18
100
AcDbEntity
  8
1
  6
Continuous
100
AcDbLine
 10
460.6848955376078
 20
324.1156938068466
 30
0.0
 11
457.6848955376078
 21
327.1156938068465
 31
0.0
  0
LINE
  5
6E3
330
18
100
AcDbEntity
  8
1
  6
Continuous
100
AcDbLine
 10
447.2681565376078
 20
324.1156938068466
 30
0.0
 11
516.7681565376081
 21
324.1156938068466
 31
0.0
  0
LINE
  5
6E4
330
18
100
AcDbEntity
  8
1
  6
Continuous
100
AcDbLine
 10
500.462835537608
 20
333.0156938068465
 30
0.0
 11
454.0734765376078
 21
333.0156938068465
 31
0.0
  0
LINE
  5
6E5
330
18
100
AcDbEntity
  8
1
  6
Continuous
100
AcDbLine
 10
500.3621675376081
 20
337.9156938068464
 30
0.0
 11
454.1741455376081
 21
337.9156938068464
 31
0.0
  0
LINE
  5
6E6
330
18
100
AcDbEntity
  8
1
  6
Continuous
100
AcDbLine
 10
507.2681565376078
 20
327.1156938068465
 30
0.0
 11
447.2681565376078
 21
327.1156938068465
 31
0.0
  0
LINE
  5
6E7
330
18
100
AcDbEntity
  8
1
  6
Continuous
100
AcDbLine
 10
507.2681565376078
 20
329.7156938068464
 30
0.0
 11
447.2681565376078
 21
329.7156938068464
 31
0.0
  0
LINE
  5
6E8
330
18
100
AcDbEntity
  8
1
  6
Continuous
100
AcDbLine
 10
445.7681565376081
 20
310.8156938068465
 30
0.0
 11
446.4434915376081
 21
319.5032058068464
 31
0.0
  0
ARC
  5
6E9
330
18
100
AcDbEntity
  8
1
  6
Continuous
100
AcDbCircle
 10
448.1783875376081
 20
306.1934718068464
 30
0.0
 40
4.074384999999998
100
AcDbArc
 50
7.061072999999998
 51
78.94677800000002
  0
LINE
  5
6EA
330
18
100
AcDbEntity
  8
1
  6
Continuous
100
AcDbLine
 10
445.7681565376081
 20
310.8156938068465
 30
0.0
 11
448.9595315376078
 21
310.1922758068464
 31
0.0
  0
LINE
  5
6EB
330
18
100
AcDbEntity
  8
1
  6
Continuous
100
AcDbLine
 10
400.7262805376078
 20
324.1156938068466
 30
0.0
 11
400.7262805376078
 21
329.7156938068464
 31
0.0
  0
LINE
  5
6EC
330
18
100
AcDbEntity
  8
1
  6
Continuous
100
AcDbLine
 10
397.2090365376079
 20
324.1156938068466
 30
0.0
 11
400.2090365376078
 21
327.1156938068465
 31
0.0
  0
LINE
  5
6ED
330
18
100
AcDbEntity
  8
1
  6
Continuous
100
AcDbLine
 10
400.2090365376078
 20
324.1156938068466
 30
0.0
 11
397.2090365376079
 21
327.1156938068465
 31
0.0
  0
LINE
  5
6EE
330
18
100
AcDbEntity
  8
1
  6
Continuous
100
AcDbLine
 10
400.7262805376078
 20
325.0126628068465
 30
0.0
 11
398.6232505376079
 21
327.1156938068465
 31
0.0
  0
LINE
  5
6EF
330
18
100
AcDbEntity
  8
1
  6
Continuous
100
AcDbLine
 10
398.6232505376079
 20
324.1156938068466
 30
0.0
 11
400.7262805376078
 21
326.2187238068465
 31
0.0
  0
LINE
  5
6F0
330
18
100
AcDbEntity
  8
1
  6
Continuous
100
AcDbLine
 10
400.0374635376081
 20
324.1156938068466
 30
0.0
 11
400.7262805376078
 21
324.8045098068465
 31
0.0
  0
ARC
  5
6F1
330
18
100
AcDbEntity
  8
1
  6
Continuous
100
AcDbCircle
 10
397.2262805376079
 20
319.1156938068465
 30
0.0
 40
5.0
100
AcDbArc
 50
0.0
 51
90.0
  0
LINE
  5
6F2
330
18
100
AcDbEntity
  8
1
  6
Continuous
100
AcDbLine
 10
400.7262805376078
 20
326.4268768068465
 30
0.0
 11
400.0374635376081
 21
327.1156938068465
 31
0.0
  0
LINE
  5
6F3
330
18
100
AcDbEntity
  8
1
  6
Continuous
100
AcDbLine
 10
454.1741455376081
 20
333.0156938068465
 30
0.0
 11
454.1741455376081
 21
337.9156938068464
 31
0.0
  0
LINE
  5
6F4
330
18
100
AcDbEntity
  8
1
  6
Continuous
100
AcDbLine
 10
447.2681565376078
 20
325.0126628068465
 30
0.0
 11
449.3711865376078
 21
327.1156938068465
 31
0.0
  0
LINE
  5
6F5
330
18
100
AcDbEntity
  8
1
  6
Continuous
100
AcDbLine
 10
454.8564685376081
 20
324.1156938068466
 30
0.0
 11
457.8564685376081
 21
327.1156938068465
 31
0.0
  0
LINE
  5
6F6
330
18
100
AcDbEntity
  8
1
  6
Continuous
100
AcDbLine
 10
457.8564685376081
 20
324.1156938068466
 30
0.0
 11
454.8564685376081
 21
327.1156938068465
 31
0.0
  0
LINE
  5
6F7
330
18
100
AcDbEntity
  8
1
  6
Continuous
100
AcDbLine
 10
450.613827537608
 20
324.1156938068466
 30
0.0
 11
453.6138275376079
 21
327.1156938068465
 31
0.0
  0
LINE
  5
6F8
330
18
100
AcDbEntity
  8
1
  6
Continuous
100
AcDbLine
 10
452.0280405376079
 20
324.1156938068466
 30
0.0
 11
455.0280405376081
 21
327.1156938068465
 31
0.0
  0
LINE
  5
6F9
330
18
100
AcDbEntity
  8
1
  6
Continuous
100
AcDbLine
 10
453.6138275376079
 20
324.1156938068466
 30
0.0
 11
450.613827537608
 21
327.1156938068465
 31
0.0
  0
LINE
  5
6FA
330
18
100
AcDbEntity
  8
1
  6
Continuous
100
AcDbLine
 10
455.0280405376081
 20
324.1156938068466
 30
0.0
 11
452.0280405376079
 21
327.1156938068465
 31
0.0
  0
LINE
  5
6FB
330
18
100
AcDbEntity
  8
1
  6
Continuous
100
AcDbLine
 10
453.4422545376078
 20
324.1156938068466
 30
0.0
 11
456.4422545376078
 21
327.1156938068465
 31
0.0
  0
LINE
  5
6FC
330
18
100
AcDbEntity
  8
1
  6
Continuous
100
AcDbLine
 10
456.4422545376078
 20
324.1156938068466
 30
0.0
 11
453.4422545376078
 21
327.1156938068465
 31
0.0
  0
LINE
  5
6FD
330
18
100
AcDbEntity
  8
1
  6
Continuous
100
AcDbLine
 10
447.7854005376078
 20
324.1156938068466
 30
0.0
 11
450.785400537608
 21
327.1156938068465
 31
0.0
  0
LINE
  5
6FE
330
18
100
AcDbEntity
  8
1
  6
Continuous
100
AcDbLine
 10
449.1996135376081
 20
324.1156938068466
 30
0.0
 11
452.1996135376078
 21
327.1156938068465
 31
0.0
  0
LINE
  5
6FF
330
18
100
AcDbEntity
  8
1
  6
Continuous
100
AcDbLine
 10
450.785400537608
 20
324.1156938068466
 30
0.0
 11
447.7854005376078
 21
327.1156938068465
 31
0.0
  0
LINE
  5
700
330
18
100
AcDbEntity
  8
1
  6
Continuous
100
AcDbLine
 10
452.1996135376078
 20
324.1156938068466
 30
0.0
 11
449.1996135376081
 21
327.1156938068465
 31
0.0
  0
LINE
  5
701
330
18
100
AcDbEntity
  8
1
  6
Continuous
100
AcDbLine
 10
447.2681565376078
 20
324.1156938068466
 30
0.0
 11
447.2681565376078
 21
329.7156938068464
 31
0.0
  0
ARC
  5
702
330
18
100
AcDbEntity
  8
1
  6
Continuous
100
AcDbCircle
 10
451.4284525376081
 20
319.1156938068465
 30
0.0
 40
5.0
100
AcDbArc
 50
90.0
 51
175.554978
  0
LINE
  5
703
330
18
100
AcDbEntity
  8
1
  6
Continuous
100
AcDbLine
 10
447.9569735376078
 20
324.1156938068466
 30
0.0
 11
447.2681565376078
 21
324.8045098068465
 31
0.0
  0
LINE
  5
704
330
18
100
AcDbEntity
  8
1
  6
Continuous
100
AcDbLine
 10
449.3711865376078
 20
324.1156938068466
 30
0.0
 11
447.2681565376078
 21
326.2187238068465
 31
0.0
  0
ARC
  5
705
330
18
100
AcDbEntity
  8
1
  6
Continuous
100
AcDbCircle
 10
454.0734765376078
 20
327.0156938068465
 30
0.0
 40
6.0
100
AcDbArc
 50
90.0
 51
153.256316
  0
LINE
  5
706
330
18
100
AcDbEntity
  8
1
  6
Continuous
100
AcDbLine
 10
447.2681565376078
 20
326.4268768068465
 30
0.0
 11
447.9569735376078
 21
327.1156938068465
 31
0.0
  0
ARC
  5
707
330
18
100
AcDbEntity
  8
1
  6
Continuous
100
AcDbCircle
 10
566.0163865376079
 20
305.5624048068464
 30
0.0
 40
57.06438499999999
100
AcDbArc
 50
166.673789
 51
187.7730689999999
  0
LINE
  5
708
330
18
100
AcDbEntity
  8
1
  6
Continuous
100
AcDbLine
 10
485.9691665376081
 20
324.1156938068466
 30
0.0
 11
488.9691665376078
 21
327.1156938068465
 31
0.0
  0
LINE
  5
709
330
18
100
AcDbEntity
  8
1
  6
Continuous
100
AcDbLine
 10
488.9691665376078
 20
324.1156938068466
 30
0.0
 11
485.9691665376081
 21
327.1156938068465
 31
0.0
  0
LINE
  5
70A
330
18
100
AcDbEntity
  8
1
  6
Continuous
100
AcDbLine
 10
487.3833805376079
 20
324.1156938068466
 30
0.0
 11
490.3833805376081
 21
327.1156938068465
 31
0.0
  0
LINE
  5
70B
330
18
100
AcDbEntity
  8
1
  6
Continuous
100
AcDbLine
 10
490.3833805376081
 20
324.1156938068466
 30
0.0
 11
487.3833805376079
 21
327.1156938068465
 31
0.0
  0
LINE
  5
70C
330
18
100
AcDbEntity
  8
1
  6
Continuous
100
AcDbLine
 10
488.7975935376081
 20
324.1156938068466
 30
0.0
 11
491.7975935376079
 21
327.1156938068465
 31
0.0
  0
LINE
  5
70D
330
18
100
AcDbEntity
  8
1
  6
Continuous
100
AcDbLine
 10
491.7975935376079
 20
324.1156938068466
 30
0.0
 11
488.7975935376081
 21
327.1156938068465
 31
0.0
  0
LINE
  5
70E
330
18
100
AcDbEntity
  8
1
  6
Continuous
100
AcDbLine
 10
465.721150537608
 20
333.0156938068465
 30
0.0
 11
465.721150537608
 21
337.9156938068464
 31
0.0
  0
LINE
  5
70F
330
18
100
AcDbEntity
  8
1
  6
Continuous
100
AcDbLine
 10
470.4128175376081
 20
324.1156938068466
 30
0.0
 11
473.4128175376081
 21
327.1156938068465
 31
0.0
  0
LINE
  5
710
330
18
100
AcDbEntity
  8
1
  6
Continuous
100
AcDbLine
 10
473.4128175376081
 20
324.1156938068466
 30
0.0
 11
470.4128175376081
 21
327.1156938068465
 31
0.0
  0
LINE
  5
711
330
18
100
AcDbEntity
  8
1
  6
Continuous
100
AcDbLine
 10
471.8270305376078
 20
324.1156938068466
 30
0.0
 11
474.8270305376078
 21
327.1156938068465
 31
0.0
  0
LINE
  5
712
330
18
100
AcDbEntity
  8
1
  6
Continuous
100
AcDbLine
 10
474.8270305376078
 20
324.1156938068466
 30
0.0
 11
471.8270305376078
 21
327.1156938068465
 31
0.0
  0
LINE
  5
713
330
18
100
AcDbEntity
  8
1
  6
Continuous
100
AcDbLine
 10
473.241244537608
 20
324.1156938068466
 30
0.0
 11
476.2412445376081
 21
327.1156938068465
 31
0.0
  0
LINE
  5
714
330
18
100
AcDbEntity
  8
1
  6
Continuous
100
AcDbLine
 10
476.2412445376081
 20
324.1156938068466
 30
0.0
 11
473.241244537608
 21
327.1156938068465
 31
0.0
  0
LINE
  5
715
330
18
100
AcDbEntity
  8
1
  6
Continuous
100
AcDbLine
 10
467.5843905376081
 20
324.1156938068466
 30
0.0
 11
470.5843905376078
 21
327.1156938068465
 31
0.0
  0
LINE
  5
716
330
18
100
AcDbEntity
  8
1
  6
Continuous
100
AcDbLine
 10
468.9986035376079
 20
324.1156938068466
 30
0.0
 11
471.9986035376079
 21
327.1156938068465
 31
0.0
  0
LINE
  5
717
330
18
100
AcDbEntity
  8
1
  6
Continuous
100
AcDbLine
 10
470.5843905376078
 20
324.1156938068466
 30
0.0
 11
467.5843905376081
 21
327.1156938068465
 31
0.0
  0
LINE
  5
718
330
18
100
AcDbEntity
  8
1
  6
Continuous
100
AcDbLine
 10
471.9986035376079
 20
324.1156938068466
 30
0.0
 11
468.9986035376079
 21
327.1156938068465
 31
0.0
  0
LINE
  5
719
330
18
100
AcDbEntity
  8
1
  6
Continuous
100
AcDbLine
 10
461.9275355376078
 20
324.1156938068466
 30
0.0
 11
464.9275355376079
 21
327.1156938068465
 31
0.0
  0
LINE
  5
71A
330
18
100
AcDbEntity
  8
1
  6
Continuous
100
AcDbLine
 10
463.3417495376082
 20
324.1156938068466
 30
0.0
 11
466.3417495376081
 21
327.1156938068465
 31
0.0
  0
LINE
  5
71B
330
18
100
AcDbEntity
  8
1
  6
Continuous
100
AcDbLine
 10
464.9275355376079
 20
324.1156938068466
 30
0.0
 11
461.9275355376078
 21
327.1156938068465
 31
0.0
  0
LINE
  5
71C
330
18
100
AcDbEntity
  8
1
  6
Continuous
100
AcDbLine
 10
466.3417495376081
 20
324.1156938068466
 30
0.0
 11
463.3417495376082
 21
327.1156938068465
 31
0.0
  0
LINE
  5
71D
330
18
100
AcDbEntity
  8
1
  6
Continuous
100
AcDbLine
 10
464.7559635376081
 20
324.1156938068466
 30
0.0
 11
467.7559635376081
 21
327.1156938068465
 31
0.0
  0
LINE
  5
71E
330
18
100
AcDbEntity
  8
1
  6
Continuous
100
AcDbLine
 10
466.1701765376078
 20
324.1156938068466
 30
0.0
 11
469.1701765376079
 21
327.1156938068465
 31
0.0
  0
LINE
  5
71F
330
18
100
AcDbEntity
  8
1
  6
Continuous
100
AcDbLine
 10
467.7559635376081
 20
324.1156938068466
 30
0.0
 11
464.7559635376081
 21
327.1156938068465
 31
0.0
  0
LINE
  5
720
330
18
100
AcDbEntity
  8
1
  6
Continuous
100
AcDbLine
 10
469.1701765376079
 20
324.1156938068466
 30
0.0
 11
466.1701765376078
 21
327.1156938068465
 31
0.0
  0
LINE
  5
721
330
18
100
AcDbEntity
  8
1
  6
Continuous
100
AcDbLine
 10
459.0991085376081
 20
324.1156938068466
 30
0.0
 11
462.0991085376081
 21
327.1156938068465
 31
0.0
  0
LINE
  5
722
330
18
100
AcDbEntity
  8
1
  6
Continuous
100
AcDbLine
 10
460.5133225376079
 20
324.1156938068466
 30
0.0
 11
463.5133225376081
 21
327.1156938068465
 31
0.0
  0
LINE
  5
723
330
18
100
AcDbEntity
  8
1
  6
Continuous
100
AcDbLine
 10
462.0991085376081
 20
324.1156938068466
 30
0.0
 11
459.0991085376081
 21
327.1156938068465
 31
0.0
  0
LINE
  5
724
330
18
100
AcDbEntity
  8
1
  6
Continuous
100
AcDbLine
 10
463.5133225376081
 20
324.1156938068466
 30
0.0
 11
460.5133225376079
 21
327.1156938068465
 31
0.0
  0
LINE
  5
725
330
18
100
AcDbEntity
  8
1
  6
Continuous
100
AcDbLine
 10
481.7265255376081
 20
324.1156938068466
 30
0.0
 11
484.7265255376078
 21
327.1156938068465
 31
0.0
  0
LINE
  5
726
330
18
100
AcDbEntity
  8
1
  6
Continuous
100
AcDbLine
 10
484.7265255376078
 20
324.1156938068466
 30
0.0
 11
481.7265255376081
 21
327.1156938068465
 31
0.0
  0
LINE
  5
727
330
18
100
AcDbEntity
  8
1
  6
Continuous
100
AcDbLine
 10
483.1407395376078
 20
324.1156938068466
 30
0.0
 11
486.1407395376081
 21
327.1156938068465
 31
0.0
  0
LINE
  5
728
330
18
100
AcDbEntity
  8
1
  6
Continuous
100
AcDbLine
 10
486.1407395376081
 20
324.1156938068466
 30
0.0
 11
483.1407395376078
 21
327.1156938068465
 31
0.0
  0
LINE
  5
729
330
18
100
AcDbEntity
  8
1
  6
Continuous
100
AcDbLine
 10
484.5549525376078
 20
324.1156938068466
 30
0.0
 11
487.5549525376078
 21
327.1156938068465
 31
0.0
  0
LINE
  5
72A
330
18
100
AcDbEntity
  8
1
  6
Continuous
100
AcDbLine
 10
487.5549525376078
 20
324.1156938068466
 30
0.0
 11
484.5549525376078
 21
327.1156938068465
 31
0.0
  0
LINE
  5
72B
330
18
100
AcDbEntity
  8
1
  6
Continuous
100
AcDbLine
 10
480.3123125376081
 20
324.1156938068466
 30
0.0
 11
483.3123125376081
 21
327.1156938068465
 31
0.0
  0
LINE
  5
72C
330
18
100
AcDbEntity
  8
1
  6
Continuous
100
AcDbLine
 10
483.3123125376081
 20
324.1156938068466
 30
0.0
 11
480.3123125376081
 21
327.1156938068465
 31
0.0
  0
LINE
  5
72D
330
18
100
AcDbEntity
  8
1
  6
Continuous
100
AcDbLine
 10
474.6554575376078
 20
324.1156938068466
 30
0.0
 11
477.655457537608
 21
327.1156938068465
 31
0.0
  0
LINE
  5
72E
330
18
100
AcDbEntity
  8
1
  6
Continuous
100
AcDbLine
 10
476.0696715376078
 20
324.1156938068466
 30
0.0
 11
479.0696715376078
 21
327.1156938068465
 31
0.0
  0
LINE
  5
72F
330
18
100
AcDbEntity
  8
1
  6
Continuous
100
AcDbLine
 10
477.655457537608
 20
324.1156938068466
 30
0.0
 11
474.6554575376078
 21
327.1156938068465
 31
0.0
  0
LINE
  5
730
330
18
100
AcDbEntity
  8
1
  6
Continuous
100
AcDbLine
 10
479.0696715376078
 20
324.1156938068466
 30
0.0
 11
476.0696715376078
 21
327.1156938068465
 31
0.0
  0
LINE
  5
731
330
18
100
AcDbEntity
  8
1
  6
Continuous
100
AcDbLine
 10
477.483885537608
 20
324.1156938068466
 30
0.0
 11
480.4838855376081
 21
327.1156938068465
 31
0.0
  0
LINE
  5
732
330
18
100
AcDbEntity
  8
1
  6
Continuous
100
AcDbLine
 10
478.8980985376078
 20
324.1156938068466
 30
0.0
 11
481.8980985376079
 21
327.1156938068465
 31
0.0
  0
LINE
  5
733
330
18
100
AcDbEntity
  8
1
  6
Continuous
100
AcDbLine
 10
480.4838855376081
 20
324.1156938068466
 30
0.0
 11
477.483885537608
 21
327.1156938068465
 31
0.0
  0
LINE
  5
734
330
18
100
AcDbEntity
  8
1
  6
Continuous
100
AcDbLine
 10
481.8980985376079
 20
324.1156938068466
 30
0.0
 11
478.8980985376078
 21
327.1156938068465
 31
0.0
  0
ARC
  5
735
330
18
100
AcDbEntity
  8
1
  6
Continuous
100
AcDbCircle
 10
464.6681565376079
 20
339.5156938068465
 30
0.0
 40
2.1
100
AcDbArc
 50
310.367594
 51
0.0
  0
ARC
  5
736
330
18
100
AcDbEntity
  8
1
  6
Continuous
100
AcDbCircle
 10
489.868156537608
 20
339.5156938068465
 30
0.0
 40
2.1
100
AcDbArc
 50
180.0
 51
229.6324059999999
  0
LINE
  5
737
330
18
100
AcDbEntity
  8
1
  6
Continuous
100
AcDbLine
 10
488.8151615376078
 20
333.0156938068465
 30
0.0
 11
488.8151615376078
 21
337.9156938068464
 31
0.0
  0
LINE
  5
738
330
18
100
AcDbEntity
  8
1
  6
Continuous
100
AcDbLine
 10
500.3621675376081
 20
333.0156938068465
 30
0.0
 11
500.3621675376081
 21
337.9156938068464
 31
0.0
  0
LINE
  5
739
330
18
100
AcDbEntity
  8
1
  6
Continuous
100
AcDbLine
 10
501.5255155376078
 20
324.1156938068466
 30
0.0
 11
504.525515537608
 21
327.1156938068465
 31
0.0
  0
LINE
  5
73A
330
18
100
AcDbEntity
  8
1
  6
Continuous
100
AcDbLine
 10
504.525515537608
 20
324.1156938068466
 30
0.0
 11
501.5255155376078
 21
327.1156938068465
 31
0.0
  0
ARC
  5
73B
330
18
100
AcDbEntity
  8
1
  6
Continuous
100
AcDbCircle
 10
500.462835537608
 20
327.0156938068465
 30
0.0
 40
6.0
100
AcDbArc
 50
26.743684
 51
90.0
  0
LINE
  5
73C
330
18
100
AcDbEntity
  8
1
  6
Continuous
100
AcDbLine
 10
502.9397295376081
 20
324.1156938068466
 30
0.0
 11
505.9397295376078
 21
327.1156938068465
 31
0.0
  0
LINE
  5
73D
330
18
100
AcDbEntity
  8
1
  6
Continuous
100
AcDbLine
 10
505.9397295376078
 20
324.1156938068466
 30
0.0
 11
502.9397295376081
 21
327.1156938068465
 31
0.0
  0
LINE
  5
73E
330
18
100
AcDbEntity
  8
1
  6
Continuous
100
AcDbLine
 10
491.626020537608
 20
324.1156938068466
 30
0.0
 11
494.6260205376082
 21
327.1156938068465
 31
0.0
  0
LINE
  5
73F
330
18
100
AcDbEntity
  8
1
  6
Continuous
100
AcDbLine
 10
493.0402345376078
 20
324.1156938068466
 30
0.0
 11
496.0402345376079
 21
327.1156938068465
 31
0.0
  0
LINE
  5
740
330
18
100
AcDbEntity
  8
1
  6
Continuous
100
AcDbLine
 10
494.6260205376082
 20
324.1156938068466
 30
0.0
 11
491.626020537608
 21
327.1156938068465
 31
0.0
  0
LINE
  5
741
330
18
100
AcDbEntity
  8
1
  6
Continuous
100
AcDbLine
 10
496.0402345376079
 20
324.1156938068466
 30
0.0
 11
493.0402345376078
 21
327.1156938068465
 31
0.0
  0
LINE
  5
742
330
18
100
AcDbEntity
  8
1
  6
Continuous
100
AcDbLine
 10
497.2828745376081
 20
324.1156938068466
 30
0.0
 11
500.282874537608
 21
327.1156938068465
 31
0.0
  0
LINE
  5
743
330
18
100
AcDbEntity
  8
1
  6
Continuous
100
AcDbLine
 10
498.6970885376081
 20
324.1156938068466
 30
0.0
 11
501.6970885376081
 21
327.1156938068465
 31
0.0
  0
LINE
  5
744
330
18
100
AcDbEntity
  8
1
  6
Continuous
100
AcDbLine
 10
500.282874537608
 20
324.1156938068466
 30
0.0
 11
497.2828745376081
 21
327.1156938068465
 31
0.0
  0
LINE
  5
745
330
18
100
AcDbEntity
  8
1
  6
Continuous
100
AcDbLine
 10
501.6970885376081
 20
324.1156938068466
 30
0.0
 11
498.6970885376081
 21
327.1156938068465
 31
0.0
  0
LINE
  5
746
330
18
100
AcDbEntity
  8
1
  6
Continuous
100
AcDbLine
 10
500.111302537608
 20
324.1156938068466
 30
0.0
 11
503.1113025376078
 21
327.1156938068465
 31
0.0
  0
LINE
  5
747
330
18
100
AcDbEntity
  8
1
  6
Continuous
100
AcDbLine
 10
503.1113025376078
 20
324.1156938068466
 30
0.0
 11
500.111302537608
 21
327.1156938068465
 31
0.0
  0
LINE
  5
748
330
18
100
AcDbEntity
  8
1
  6
Continuous
100
AcDbLine
 10
494.4544475376081
 20
324.1156938068466
 30
0.0
 11
497.4544475376081
 21
327.1156938068465
 31
0.0
  0
LINE
  5
749
330
18
100
AcDbEntity
  8
1
  6
Continuous
100
AcDbLine
 10
495.868661537608
 20
324.1156938068466
 30
0.0
 11
498.8686615376081
 21
327.1156938068465
 31
0.0
  0
LINE
  5
74A
330
18
100
AcDbEntity
  8
1
  6
Continuous
100
AcDbLine
 10
497.4544475376081
 20
324.1156938068466
 30
0.0
 11
494.4544475376081
 21
327.1156938068465
 31
0.0
  0
LINE
  5
74B
330
18
100
AcDbEntity
  8
1
  6
Continuous
100
AcDbLine
 10
498.8686615376081
 20
324.1156938068466
 30
0.0
 11
495.868661537608
 21
327.1156938068465
 31
0.0
  0
LINE
  5
74C
330
18
100
AcDbEntity
  8
1
  6
Continuous
100
AcDbLine
 10
490.2118075376078
 20
324.1156938068466
 30
0.0
 11
493.2118075376078
 21
327.1156938068465
 31
0.0
  0
LINE
  5
74D
330
18
100
AcDbEntity
  8
1
  6
Continuous
100
AcDbLine
 10
493.2118075376078
 20
324.1156938068466
 30
0.0
 11
490.2118075376078
 21
327.1156938068465
 31
0.0
  0
LINE
  5
74E
330
18
100
AcDbEntity
  8
1
  6
Continuous
100
AcDbLine
 10
505.7681565376078
 20
327.1156938068465
 30
0.0
 11
507.2681565376078
 21
325.6156938068465
 31
0.0
  0
LINE
  5
74F
330
18
100
AcDbEntity
  8
1
  6
Continuous
100
AcDbLine
 10
507.2681565376078
 20
329.7156938068464
 30
0.0
 11
507.2681565376078
 21
324.1156938068466
 31
0.0
  0
LINE
  5
750
330
18
100
AcDbEntity
  8
1
  6
Continuous
100
AcDbLine
 10
504.3539425376081
 20
324.1156938068466
 30
0.0
 11
507.2681565376078
 21
327.0299068068465
 31
0.0
  0
LINE
  5
751
330
18
100
AcDbEntity
  8
1
  6
Continuous
100
AcDbLine
 10
504.3539425376081
 20
327.1156938068465
 30
0.0
 11
507.2681565376078
 21
324.2014798068465
 31
0.0
  0
LINE
  5
752
330
18
100
AcDbEntity
  8
1
  6
Continuous
100
AcDbLine
 10
516.7681565376081
 20
321.2156938068464
 30
0.0
 11
510.8375755376081
 21
321.2156938068464
 31
0.0
  0
ARC
  5
753
330
18
100
AcDbEntity
  8
1
  6
Continuous
100
AcDbCircle
 10
497.3865065376078
 20
321.8189748068466
 30
0.0
 40
13.464591
100
AcDbArc
 50
346.673789
 51
9.821236999999998
  0
LINE
  5
754
330
18
100
AcDbEntity
  8
1
  6
Continuous
100
AcDbLine
 10
507.1823695376081
 20
324.1156938068466
 30
0.0
 11
507.2681565376078
 21
324.2014798068465
 31
0.0
  0
LINE
  5
755
330
18
100
AcDbEntity
  8
1
  6
Continuous
100
AcDbLine
 10
505.7681565376078
 20
324.1156938068466
 30
0.0
 11
507.2681565376078
 21
325.6156938068465
 31
0.0
  0
LINE
  5
756
330
18
100
AcDbEntity
  8
1
  6
Continuous
100
AcDbLine
 10
516.7681565376081
 20
324.1156938068466
 30
0.0
 11
516.7681565376081
 21
321.2156938068464
 31
0.0
  0
LINE
  5
757
330
18
100
AcDbEntity
  8
1
  6
Continuous
100
AcDbLine
 10
507.1823695376081
 20
327.1156938068465
 30
0.0
 11
507.2681565376078
 21
327.0299068068465
 31
0.0
  0
LINE
  5
758
330
18
100
AcDbEntity
  8
1
  6
Continuous
100
AcDbLine
 10
487.768156537608
 20
407.4156938068464
 30
0.0
 11
466.7681565376081
 21
407.4156938068464
 31
0.0
  0
LINE
  5
759
330
18
100
AcDbEntity
  8
1
  6
Continuous
100
AcDbLine
 10
487.2681565376081
 20
407.9156938068464
 30
0.0
 11
467.268156537608
 21
407.9156938068464
 31
0.0
  0
LINE
  5
75A
330
18
100
AcDbEntity
  8
1
  6
Continuous
100
AcDbLine
 10
466.7681565376081
 20
407.4156938068464
 30
0.0
 11
467.268156537608
 21
407.9156938068464
 31
0.0
  0
LINE
  5
75B
330
18
100
AcDbEntity
  8
1
  6
Continuous
100
AcDbLine
 10
487.768156537608
 20
407.4156938068464
 30
0.0
 11
487.2681565376081
 21
407.9156938068464
 31
0.0
  0
ENDSEC
  0
SECTION
  2
OBJECTS
  0
DICTIONARY
  5
C
330
0
100
AcDbDictionary
281
     1
  3
ACAD_CIP_PREVIOUS_PRODUCT_INFO
350
7CE
  3
ACAD_COLOR
350
7B1
  3
ACAD_DETAILVIEWSTYLE
350
7CA
  3
ACAD_GROUP
350
D
  3
ACAD_LAYOUT
350
94
  3
ACAD_MATERIAL
350
77F
  3
ACAD_MLEADERSTYLE
350
7C6
  3
ACAD_MLINESTYLE
350
1B
  3
ACAD_PLOTSETTINGS
350
95
  3
ACAD_PLOTSTYLENAME
350
77D
  3
ACAD_SCALELIST
350
7B4
  3
ACAD_SECTIONVIEWSTYLE
350
7C8
  3
ACAD_TABLESTYLE
350
7B2
  3
ACAD_VISUALSTYLE
350
798
  3
ACDB_RECOMPOSE_DATA
350
7EC
  3
AcDbVariableDictionary
350
7DF
  3
CONTENTDICTIONARY
350
3D
  3
DWGPROPS
350
7ED
  0
DICTIONARY
  5
7CF
330
E
100
AcDbDictionary
280
     1
281
     1
  3
ADSK_XREC_LAYER_RECONCILED
360
7D0
  0
DICTIONARY
  5
7D1
330
4E
100
AcDbDictionary
280
     1
281
     1
  3
ADSK_XREC_LAYER_RECONCILED
360
7D2
  0
DICTIONARY
  5
7D3
330
4F
100
AcDbDictionary
280
     1
281
     1
  3
ADSK_XREC_LAYER_RECONCILED
360
7D4
  0
DICTIONARY
  5
7D5
330
50
100
AcDbDictionary
280
     1
281
     1
  3
ADSK_XREC_LAYER_RECONCILED
360
7D6
  0
DICTIONARY
  5
7D7
330
51
100
AcDbDictionary
280
     1
281
     1
  3
ADSK_XREC_LAYER_RECONCILED
360
7D8
  0
DICTIONARY
  5
7D9
330
52
100
AcDbDictionary
280
     1
281
     1
  3
ADSK_XREC_LAYER_RECONCILED
360
7DA
  0
DICTIONARY
  5
7DB
330
53
100
AcDbDictionary
280
     1
281
     1
  3
ADSK_XREC_LAYER_RECONCILED
360
7DC
  0
DICTIONARY
  5
7DD
330
54
100
AcDbDictionary
280
     1
281
     1
  3
ADSK_XREC_LAYER_RECONCILED
360
7DE
  0
DICTIONARY
  5
778
330
18
100
AcDbDictionary
281
     1
  3
ACAD_LAYOUTSELFREF
350
779
  0
DICTIONARY
  5
776
330
15
100
AcDbDictionary
281
     1
  3
ACAD_LAYOUTSELFREF
350
777
  0
XRECORD
  5
7CE
102
{ACAD_REACTORS
330
C
102
}
330
C
100
AcDbXrecord
280
     1
300
ACDLT
300
2014
300
ACDLT_F_S
  0
DICTIONARY
  5
7B1
102
{ACAD_REACTORS
330
C
102
}
330
C
100
AcDbDictionary
281
     1
  0
DICTIONARY
  5
7CA
102
{ACAD_REACTORS
330
C
102
}
330
C
100
AcDbDictionary
281
     1
  3
Imperial24
350
7CB
  0
DICTIONARY
  5
D
102
{ACAD_REACTORS
330
C
102
}
330
C
100
AcDbDictionary
281
     1
  0
DICTIONARY
  5
94
102
{ACAD_REACTORS
330
C
102
}
330
C
100
AcDbDictionary
281
     1
  3
Model
350
7CC
  3
レイアウト1
350
7CD
  0
DICTIONARY
  5
77F
102
{ACAD_REACTORS
330
C
102
}
330
C
100
AcDbDictionary
281
     1
  3
ByBlock
350
788
  3
ByLayer
350
780
  3
Global
350
790
  0
DICTIONARY
  5
7C6
102
{ACAD_REACTORS
330
C
102
}
330
C
100
AcDbDictionary
281
     1
  3
Standard
350
7C7
  0
DICTIONARY
  5
1B
102
{ACAD_REACTORS
330
C
102
}
330
C
100
AcDbDictionary
281
     1
  3
STANDARD
350
1C
  0
DICTIONARY
  5
95
102
{ACAD_REACTORS
330
C
102
}
330
C
100
AcDbDictionary
281
     1
  0
ACDBDICTIONARYWDFLT
  5
77D
102
{ACAD_REACTORS
330
C
102
}
330
C
100
AcDbDictionary
281
     1
  3
Normal
350
77E
100
AcDbDictionaryWithDefault
340
77E
  0
DICTIONARY
  5
7B4
102
{ACAD_REACTORS
330
C
102
}
330
C
100
AcDbDictionary
281
     1
  3
A0
350
7B5
  3
A1
350
7B6
  3
A2
350
7B7
  3
A3
350
7B8
  3
A4
350
7B9
  3
A5
350
7BA
  3
A6
350
7BB
  3
A7
350
7BC
  3
A8
350
7BD
  3
A9
350
7BE
  3
B0
350
7BF
  3
B1
350
7C0
  3
B2
350
7C1
  3
B3
350
7C2
  3
B4
350
7C3
  3
B5
350
7C4
  3
B6
350
7C5
  0
DICTIONARY
  5
7C8
102
{ACAD_REACTORS
330
C
102
}
330
C
100
AcDbDictionary
281
     1
  3
Imperial24
350
7C9
  0
DICTIONARY
  5
7B2
102
{ACAD_REACTORS
330
C
102
}
330
C
100
AcDbDictionary
281
     1
  3
Standard
350
7B3
  0
DICTIONARY
  5
798
102
{ACAD_REACTORS
330
C
102
}
330
C
100
AcDbDictionary
281
     1
  3
2dWireframe
350
79E
  3
Basic
350
79D
  3
Brighten
350
7A4
  3
ColorChange
350
7A8
  3
Conceptual
350
7A1
  3
Dim
350
7A3
  3
EdgeColorOff
350
7B0
  3
Facepattern
350
7A7
  3
Flat
350
799
  3
FlatWithEdges
350
79A
  3
Gouraud
350
79B
  3
GouraudWithEdges
350
79C
  3
Hidden
350
7A0
  3
JitterOff
350
7AE
  3
Linepattern
350
7A6
  3
OverhangOff
350
7AF
  3
Realistic
350
7A2
  3
Shaded
350
7AD
  3
Shaded with edges
350
7AC
  3
Shades of Gray
350
7A9
  3
Sketchy
350
7AA
  3
Thicken
350
7A5
  3
Wireframe
350
79F
  3
X-Ray
350
7AB
  0
XRECORD
  5
7EC
102
{ACAD_REACTORS
330
C
102
}
330
C
100
AcDbXrecord
280
     1
 90
        1
330
7B3
  0
DICTIONARY
  5
7DF
102
{ACAD_REACTORS
330
C
102
}
330
C
100
AcDbDictionary
281
     1
  3
CANNOSCALE
350
7E4
  3
CMLEADERSTYLE
350
7E1
  3
CTABLESTYLE
350
7E0
  3
CVIEWDETAILSTYLE
350
7E2
  3
CVIEWSECTIONSTYLE
350
7E3
  3
DIMASSOC
350
7E7
  3
INDEXCTL
350
7E6
  3
SORTENTS
350
7E5
  3
XCLIPFRAME
350
7E8
  0
DICTIONARY
  5
3D
102
{ACAD_REACTORS
330
C
102
}
330
C
100
AcDbDictionary
281
     1
  0
XRECORD
  5
7ED
102
{ACAD_REACTORS
330
C
102
}
330
C
100
AcDbXrecord
280
     1
  1
DWGPROPS COOKIE
  2

  3

  4

  6

  7

  8
Yoshitsune
  9

300
=
301
=
302
=
303
=
304
=
305
=
306
=
307
=
308
=
309
=
 40
0.0027435763888889
 41
2454876.396790197
 42
2457192.688174051
  1

 90
        0
  0
XRECORD
  5
7D0
102
{ACAD_REACTORS
330
7CF
102
}
330
7CF
100
AcDbXrecord
280
     1
290
     1
  0
XRECORD
  5
7D2
102
{ACAD_REACTORS
330
7D1
102
}
330
7D1
100
AcDbXrecord
280
     1
290
     1
  0
XRECORD
  5
7D4
102
{ACAD_REACTORS
330
7D3
102
}
330
7D3
100
AcDbXrecord
280
     1
290
     1
  0
XRECORD
  5
7D6
102
{ACAD_REACTORS
330
7D5
102
}
330
7D5
100
AcDbXrecord
280
     1
290
     1
  0
XRECORD
  5
7D8
102
{ACAD_REACTORS
330
7D7
102
}
330
7D7
100
AcDbXrecord
280
     1
290
     1
  0
XRECORD
  5
7DA
102
{ACAD_REACTORS
330
7D9
102
}
330
7D9
100
AcDbXrecord
280
     1
290
     1
  0
XRECORD
  5
7DC
102
{ACAD_REACTORS
330
7DB
102
}
330
7DB
100
AcDbXrecord
280
     1
290
     1
  0
XRECORD
  5
7DE
102
{ACAD_REACTORS
330
7DD
102
}
330
7DD
100
AcDbXrecord
280
     1
290
     1
  0
XRECORD
  5
779
102
{ACAD_REACTORS
330
778
102
}
330
778
100
AcDbXrecord
280
     1
340
18
  0
XRECORD
  5
777
102
{ACAD_REACTORS
330
776
102
}
330
776
100
AcDbXrecord
280
     1
340
15
  0
ACDBDETAILVIEWSTYLE
  5
7CB
102
{ACAD_XDICTIONARY
360
825
102
}
102
{ACAD_REACTORS
330
7CA
102
}
330
7CA
100
AcDbModelDocViewStyle
 70
     0
  3
Imperial24
290
     0
100
AcDbDetailViewStyle
 70
     0
 71
     0
 90
        3
 71
     1
340
F
 40
0.24
340
0
 40
0.24
300

 40
0.36
280
     3
 71
     2
340
14
 90
       25
 71
     3
340
F
 40
0.24
 90
        1
 40
0.75
 90
        1
300
%<\AcVar ViewType \f "%tc1">% %<\AcVar ViewDetailId>%\PSCALE %<\AcVar ViewScale \f "%sn">%
 71
     4
340
14
 90
       25
340
14
 90
       25
280
     0
  0
LAYOUT
  5
7CC
102
{ACAD_XDICTIONARY
360
827
102
}
102
{ACAD_REACTORS
330
94
102
}
330
94
100
AcDbPlotSettings
  1

  2
Canon LBP9100C
  4

  6

 40
0.0
 41
0.0
 42
0.0
 43
0.0
 44
0.0
 45
0.0
 46
0.0
 47
0.0
 48
0.0
 49
0.0
140
0.0
141
0.0
142
1.0
143
1.0
 70
  1712
 72
     0
 73
     0
 74
     0
  7

 75
     0
147
1.0
148
0.0
149
0.0
100
AcDbLayout
  1
Model
 70
     1
 71
     0
 10
0.0
 20
0.0
 11
12.0
 21
9.0
 12
0.0
 22
0.0
 32
0.0
 14
0.0
 24
0.0
 34
0.0
 15
0.0
 25
0.0
 35
0.0
146
0.0
 13
0.0
 23
0.0
 33
0.0
 16
1.0
 26
0.0
 36
0.0
 17
0.0
 27
1.0
 37
0.0
 76
     0
330
18
331
775
  0
LAYOUT
  5
7CD
102
{ACAD_XDICTIONARY
360
829
102
}
102
{ACAD_REACTORS
330
94
102
}
330
94
100
AcDbPlotSettings
  1

  2
Canon LBP9100C
  4

  6

 40
0.0
 41
0.0
 42
0.0
 43
0.0
 44
0.0
 45
0.0
 46
0.0
 47
0.0
 48
0.0
 49
0.0
140
0.0
141
0.0
142
1.0
143
1.0
 70
   688
 72
     0
 73
     0
 74
     5
  7

 75
    16
147
1.0
148
0.0
149
0.0
100
AcDbLayout
  1
レイアウト1
 70
     1
 71
     1
 10
0.0
 20
0.0
 11
420.0
 21
297.0
 12
0.0
 22
0.0
 32
0.0
 14
1.000000000000000E+20
 24
1.000000000000000E+20
 34
1.000000000000000E+20
 15
-1.000000000000000E+20
 25
-1.000000000000000E+20
 35
-1.000000000000000E+20
146
0.0
 13
0.0
 23
0.0
 33
0.0
 16
1.0
 26
0.0
 36
0.0
 17
0.0
 27
1.0
 37
0.0
 76
     0
330
15
  0
MATERIAL
  5
788
102
{ACAD_XDICTIONARY
360
789
102
}
102
{ACAD_REACTORS
330
77F
102
}
330
77F
100
AcDbMaterial
  1
ByBlock
 72
     0
 43
0.0208333333333333
 43
0.0
 43
0.0
 43
0.0
 43
0.0
 43
0.0208333333333333
 43
0.0
 43
0.0
 43
0.0
 43
0.0
 43
1.0
 43
0.0
 43
0.0
 43
0.0
 43
0.0
 43
1.0
 77
     0
 47
0.0208333333333333
 47
0.0
 47
0.0
 47
0.0
 47
0.0
 47
0.0208333333333333
 47
0.0
 47
0.0
 47
0.0
 47
0.0
 47
1.0
 47
0.0
 47
0.0
 47
0.0
 47
0.0
 47
1.0
171
     0
 49
0.0208333333333333
 49
0.0
 49
0.0
 49
0.0
 49
0.0
 49
0.0208333333333333
 49
0.0
 49
0.0
 49
0.0
 49
0.0
 49
1.0
 49
0.0
 49
0.0
 49
0.0
 49
0.0
 49
1.0
175
     0
142
0.0208333333333333
142
0.0
142
0.0
142
0.0
142
0.0
142
0.0208333333333333
142
0.0
142
0.0
142
0.0
142
0.0
142
1.0
142
0.0
142
0.0
142
0.0
142
0.0
142
1.0
179
     0
144
0.0208333333333333
144
0.0
144
0.0
144
0.0
144
0.0
144
0.0208333333333333
144
0.0
144
0.0
144
0.0
144
0.0
144
1.0
144
0.0
144
0.0
144
0.0
144
0.0
144
1.0
147
0.0208333333333333
147
0.0
147
0.0
147
0.0
147
0.0
147
0.0208333333333333
147
0.0
147
0.0
147
0.0
147
0.0
147
1.0
147
0.0
147
0.0
147
0.0
147
0.0
147
1.0
  0
MATERIAL
  5
780
102
{ACAD_XDICTIONARY
360
781
102
}
102
{ACAD_REACTORS
330
77F
102
}
330
77F
100
AcDbMaterial
  1
ByLayer
 72
     0
 43
0.0208333333333333
 43
0.0
 43
0.0
 43
0.0
 43
0.0
 43
0.0208333333333333
 43
0.0
 43
0.0
 43
0.0
 43
0.0
 43
1.0
 43
0.0
 43
0.0
 43
0.0
 43
0.0
 43
1.0
 77
     0
 47
0.0208333333333333
 47
0.0
 47
0.0
 47
0.0
 47
0.0
 47
0.0208333333333333
 47
0.0
 47
0.0
 47
0.0
 47
0.0
 47
1.0
 47
0.0
 47
0.0
 47
0.0
 47
0.0
 47
1.0
171
     0
 49
0.0208333333333333
 49
0.0
 49
0.0
 49
0.0
 49
0.0
 49
0.0208333333333333
 49
0.0
 49
0.0
 49
0.0
 49
0.0
 49
1.0
 49
0.0
 49
0.0
 49
0.0
 49
0.0
 49
1.0
175
     0
142
0.0208333333333333
142
0.0
142
0.0
142
0.0
142
0.0
142
0.0208333333333333
142
0.0
142
0.0
142
0.0
142
0.0
142
1.0
142
0.0
142
0.0
142
0.0
142
0.0
142
1.0
179
     0
144
0.0208333333333333
144
0.0
144
0.0
144
0.0
144
0.0
144
0.0208333333333333
144
0.0
144
0.0
144
0.0
144
0.0
144
1.0
144
0.0
144
0.0
144
0.0
144
0.0
144
1.0
147
0.0208333333333333
147
0.0
147
0.0
147
0.0
147
0.0
147
0.0208333333333333
147
0.0
147
0.0
147
0.0
147
0.0
147
1.0
147
0.0
147
0.0
147
0.0
147
0.0
147
1.0
  0
MATERIAL
  5
790
102
{ACAD_XDICTIONARY
360
791
102
}
102
{ACAD_REACTORS
330
77F
102
}
330
77F
100
AcDbMaterial
  1
Global
 72
     0
 43
0.0208333333333333
 43
0.0
 43
0.0
 43
0.0
 43
0.0
 43
0.0208333333333333
 43
0.0
 43
0.0
 43
0.0
 43
0.0
 43
1.0
 43
0.0
 43
0.0
 43
0.0
 43
0.0
 43
1.0
 77
     0
 47
0.0208333333333333
 47
0.0
 47
0.0
 47
0.0
 47
0.0
 47
0.0208333333333333
 47
0.0
 47
0.0
 47
0.0
 47
0.0
 47
1.0
 47
0.0
 47
0.0
 47
0.0
 47
0.0
 47
1.0
171
     0
 49
0.0208333333333333
 49
0.0
 49
0.0
 49
0.0
 49
0.0
 49
0.0208333333333333
 49
0.0
 49
0.0
 49
0.0
 49
0.0
 49
1.0
 49
0.0
 49
0.0
 49
0.0
 49
0.0
 49
1.0
175
     0
142
0.0208333333333333
142
0.0
142
0.0
142
0.0
142
0.0
142
0.0208333333333333
142
0.0
142
0.0
142
0.0
142
0.0
142
1.0
142
0.0
142
0.0
142
0.0
142
0.0
142
1.0
179
     0
144
0.0208333333333333
144
0.0
144
0.0
144
0.0
144
0.0
144
0.0208333333333333
144
0.0
144
0.0
144
0.0
144
0.0
144
1.0
144
0.0
144
0.0
144
0.0
144
0.0
144
1.0
147
0.0208333333333333
147
0.0
147
0.0
147
0.0
147
0.0
147
0.0208333333333333
147
0.0
147
0.0
147
0.0
147
0.0
147
1.0
147
0.0
147
0.0
147
0.0
147
0.0
147
1.0
  0
MLEADERSTYLE
  5
7C7
102
{ACAD_REACTORS
330
7C6
102
}
330
7C6
100
AcDbMLeaderStyle
170
     2
171
     1
172
     0
 90
        2
 40
0.0
 41
0.0
173
     1
 91
-1056964608
340
12
 92
       -2
290
     1
 42
0.09
291
     1
 43
0.36
  3
Standard
 44
0.18
300

342
F
174
     1
178
     6
175
     1
176
     0
 93
-1056964608
 45
0.18
292
     0
297
     0
 46
0.18
 94
-1056964608
 47
1.0
 49
1.0
140
1.0
293
     1
141
0.0
294
     1
177
     0
142
1.0
295
     0
296
     0
143
0.125
1001
ACAD_MLEADERVER
1070
     2
  0
MLINESTYLE
  5
1C
102
{ACAD_REACTORS
330
1B
102
}
330
1B
100
AcDbMlineStyle
  2
STANDARD
 70
     0
  3

 62
   256
 51
90.0
 52
90.0
 71
     2
 49
0.5
 62
   256
  6
BYLAYER
 49
-0.5
 62
   256
  6
BYLAYER
  0
ACDBPLACEHOLDER
  5
77E
102
{ACAD_REACTORS
330
77D
102
}
330
77D
  0
SCALE
  5
7B5
102
{ACAD_REACTORS
330
7B4
102
}
330
7B4
100
AcDbScale
 70
     0
300
1:1
140
1.0
141
1.0
290
     1
  0
SCALE
  5
7B6
102
{ACAD_REACTORS
330
7B4
102
}
330
7B4
100
AcDbScale
 70
     0
300
1/128" = 1'-0"
140
0.0078125
141
12.0
290
     0
  0
SCALE
  5
7B7
102
{ACAD_REACTORS
330
7B4
102
}
330
7B4
100
AcDbScale
 70
     0
300
1/64" = 1'-0"
140
0.015625
141
12.0
290
     0
  0
SCALE
  5
7B8
102
{ACAD_REACTORS
330
7B4
102
}
330
7B4
100
AcDbScale
 70
     0
300
1/32" = 1'-0"
140
0.03125
141
12.0
290
     0
  0
SCALE
  5
7B9
102
{ACAD_REACTORS
330
7B4
102
}
330
7B4
100
AcDbScale
 70
     0
300
1/16" = 1'-0"
140
0.0625
141
12.0
290
     0
  0
SCALE
  5
7BA
102
{ACAD_REACTORS
330
7B4
102
}
330
7B4
100
AcDbScale
 70
     0
300
3/32" = 1'-0"
140
0.09375
141
12.0
290
     0
  0
SCALE
  5
7BB
102
{ACAD_REACTORS
330
7B4
102
}
330
7B4
100
AcDbScale
 70
     0
300
1/8" = 1'-0"
140
0.125
141
12.0
290
     0
  0
SCALE
  5
7BC
102
{ACAD_REACTORS
330
7B4
102
}
330
7B4
100
AcDbScale
 70
     0
300
3/16" = 1'-0"
140
0.1875
141
12.0
290
     0
  0
SCALE
  5
7BD
102
{ACAD_REACTORS
330
7B4
102
}
330
7B4
100
AcDbScale
 70
     0
300
1/4" = 1'-0"
140
0.25
141
12.0
290
     0
  0
SCALE
  5
7BE
102
{ACAD_REACTORS
330
7B4
102
}
330
7B4
100
AcDbScale
 70
     0
300
3/8" = 1'-0"
140
0.375
141
12.0
290
     0
  0
SCALE
  5
7BF
102
{ACAD_REACTORS
330
7B4
102
}
330
7B4
100
AcDbScale
 70
     0
300
1/2" = 1'-0"
140
0.5
141
12.0
290
     0
  0
SCALE
  5
7C0
102
{ACAD_REACTORS
330
7B4
102
}
330
7B4
100
AcDbScale
 70
     0
300
3/4" = 1'-0"
140
0.75
141
12.0
290
     0
  0
SCALE
  5
7C1
102
{ACAD_REACTORS
330
7B4
102
}
330
7B4
100
AcDbScale
 70
     0
300
1" = 1'-0"
140
1.0
141
12.0
290
     0
  0
SCALE
  5
7C2
102
{ACAD_REACTORS
330
7B4
102
}
330
7B4
100
AcDbScale
 70
     0
300
1-1/2" = 1'-0"
140
1.5
141
12.0
290
     0
  0
SCALE
  5
7C3
102
{ACAD_REACTORS
330
7B4
102
}
330
7B4
100
AcDbScale
 70
     0
300
3" = 1'-0"
140
3.0
141
12.0
290
     0
  0
SCALE
  5
7C4
102
{ACAD_REACTORS
330
7B4
102
}
330
7B4
100
AcDbScale
 70
     0
300
6" = 1'-0"
140
6.0
141
12.0
290
     0
  0
SCALE
  5
7C5
102
{ACAD_REACTORS
330
7B4
102
}
330
7B4
100
AcDbScale
 70
     0
300
1'-0" = 1'-0"
140
12.0
141
12.0
290
     0
  0
ACDBSECTIONVIEWSTYLE
  5
7C9
102
{ACAD_XDICTIONARY
360
823
102
}
102
{ACAD_REACTORS
330
7C8
102
}
330
7C8
100
AcDbModelDocViewStyle
 70
     0
  3
Imperial24
290
     0
100
AcDbSectionViewStyle
 70
     0
 71
     0
 90
       78
 71
     1
340
F
 40
0.24
340
0
340
0
 40
0.24
300
I, O, Q, S, X, Z
 40
0.48
 90
        3
 40
0.18
 90
        1
 71
     2
340
14
 90
       25
340
14
 90
       50
 40
0.24
 40
0.0
 40
0.24
 71
     3
340
F
 40
0.24
 90
        1
 40
0.75
 90
        1
300
%<\AcVar ViewType \f "%tc1">% %<\AcVar ViewSectionStartId>%-%<\AcVar ViewSectionEndId>%\PSCALE %<\AcVar ViewScale \f "%sn">%
 71
     4
300
ANSI31
 40
1.0
 90
        0
290
     0
290
     0
 90
        6
 40
0.0
 40
1.570796326794896
 40
0.2617993877991494
 40
1.308996938995747
 40
-0.2617993877991494
 40
1.832595714594046
  0
TABLESTYLE
  5
7B3
102
{ACAD_XDICTIONARY
360
7EA
102
}
102
{ACAD_REACTORS
330
7B2
102
}
330
7B2
100
AcDbTableStyle
  3
Standard
 70
     0
 71
     0
 40
0.06
 41
0.06
280
     0
281
     0
  7
STANDARD
140
0.18
170
     2
 62
     0
 63
     7
283
     0
274
    -2
284
     1
 64
     0
275
    -2
285
     1
 65
     0
276
    -2
286
     1
 66
     0
277
    -2
287
     1
 67
     0
278
    -2
288
     1
 68
     0
279
    -2
289
     1
 69
     0
  7
STANDARD
140
0.25
170
     5
 62
     0
 63
     7
283
     0
274
    -2
284
     1
 64
     0
275
    -2
285
     1
 65
     0
276
    -2
286
     1
 66
     0
277
    -2
287
     1
 67
     0
278
    -2
288
     1
 68
     0
279
    -2
289
     1
 69
     0
  7
STANDARD
140
0.18
170
     5
 62
     0
 63
     7
283
     0
274
    -2
284
     1
 64
     0
275
    -2
285
     1
 65
     0
276
    -2
286
     1
 66
     0
277
    -2
287
     1
 67
     0
278
    -2
288
     1
 68
     0
279
    -2
289
     1
 69
     0
  0
VISUALSTYLE
  5
79E
102
{ACAD_XDICTIONARY
360
7FB
102
}
102
{ACAD_REACTORS
330
798
102
}
330
798
100
AcDbVisualStyle
  2
2dWireframe
 70
     4
 71
     0
 72
     2
 73
     0
 90
        0
 40
-0.6
 41
-30.0
 62
     5
 63
     7
 74
     1
 91
        4
 64
     7
 65
   257
 75
     1
175
     1
 42
1.0
 92
        0
 66
   257
 43
1.0
 76
     1
 77
     6
 78
     2
 67
     7
 79
     5
170
     0
171
     0
290
     0
174
     0
 93
        1
 44
0.0
173
     0
291
     0
 45
0.0
1001
ACAD
1000
AcDbSavedByObjectVersion
1070
     0
  0
VISUALSTYLE
  5
79D
102
{ACAD_XDICTIONARY
360
7F9
102
}
102
{ACAD_REACTORS
330
798
102
}
330
798
100
AcDbVisualStyle
  2
Basic
 70
     7
 71
     1
 72
     0
 73
     1
 90
        0
 40
-0.6
 41
-30.0
 62
     5
 63
     7
 74
     0
 91
        4
 64
     7
 65
   257
 75
     1
175
     1
 42
1.0
 92
        8
 66
     7
 43
1.0
 76
     1
 77
     6
 78
     2
 67
     7
 79
     5
170
     0
171
     0
290
     0
174
     0
 93
        1
 44
0.0
173
     0
291
     1
 45
0.0
1001
ACAD
1000
AcDbSavedByObjectVersion
1070
     0
  0
VISUALSTYLE
  5
7A4
102
{ACAD_XDICTIONARY
360
807
102
}
102
{ACAD_REACTORS
330
798
102
}
330
798
100
AcDbVisualStyle
  2
Brighten
 70
    12
 71
     2
 72
     2
 73
     0
 90
        0
 40
-0.6
 41
-30.0
 62
     5
 63
     7
 74
     1
 91
        4
 64
     7
 65
   257
 75
     1
175
     1
 42
1.0
 92
        8
 66
     7
 43
1.0
 76
     1
 77
     6
 78
     2
 67
     7
 79
     5
170
     0
171
     0
290
     0
174
     0
 93
        1
 44
50.0
173
     0
291
     1
 45
0.0
1001
ACAD
1000
AcDbSavedByObjectVersion
1070
     0
  0
VISUALSTYLE
  5
7A8
102
{ACAD_XDICTIONARY
360
80F
102
}
102
{ACAD_REACTORS
330
798
102
}
330
798
100
AcDbVisualStyle
  2
ColorChange
 70
    16
 71
     2
 72
     2
 73
     3
 90
        0
 40
-0.6
 41
-30.0
 62
     5
 63
     8
 74
     1
 91
        4
 64
     7
 65
   257
 75
     1
175
     1
 42
1.0
 92
        8
 66
     8
 43
1.0
 76
     1
 77
     6
 78
     2
 67
     7
 79
     5
170
     0
171
     0
290
     0
174
     0
 93
        1
 44
0.0
173
     0
291
     1
 45
0.0
1001
ACAD
1000
AcDbSavedByObjectVersion
1070
     0
  0
VISUALSTYLE
  5
7A1
102
{ACAD_XDICTIONARY
360
801
102
}
102
{ACAD_REACTORS
330
798
102
}
330
798
100
AcDbVisualStyle
  2
Conceptual
 70
     9
 71
     3
 72
     2
 73
     0
 90
        0
 40
-0.6
 41
-30.0
 62
     5
 63
     7
 74
     2
 91
        2
 64
     7
 65
   257
 75
     1
175
     1
 42
179.0
 92
        8
 66
     7
 43
1.0
 76
     1
 77
     6
 78
     2
 67
     7
 79
     3
170
     0
171
     0
290
     0
174
     0
 93
        1
 44
0.0
173
     0
291
     0
 45
0.0
1001
ACAD
1000
AcDbSavedByObjectVersion
1070
     0
  0
VISUALSTYLE
  5
7A3
102
{ACAD_XDICTIONARY
360
805
102
}
102
{ACAD_REACTORS
330
798
102
}
330
798
100
AcDbVisualStyle
  2
Dim
 70
    11
 71
     2
 72
     2
 73
     0
 90
        0
 40
-0.6
 41
-30.0
 62
     5
 63
     7
 74
     1
 91
        4
 64
     7
 65
   257
 75
     1
175
     1
 42
1.0
 92
        8
 66
     7
 43
1.0
 76
     1
 77
     6
 78
     2
 67
     7
 79
     5
170
     0
171
     0
290
     0
174
     0
 93
        1
 44
-50.0
173
     0
291
     1
 45
0.0
1001
ACAD
1000
AcDbSavedByObjectVersion
1070
     0
  0
VISUALSTYLE
  5
7B0
102
{ACAD_XDICTIONARY
360
81F
102
}
102
{ACAD_REACTORS
330
798
102
}
330
798
100
AcDbVisualStyle
  2
EdgeColorOff
 70
    22
 71
     2
 72
     2
 73
     0
 90
        0
 40
-0.6
 41
-30.0
 62
     5
 63
     7
 74
     1
 91
        4
 64
     7
 65
   257
 75
     1
175
     1
 42
1.0
 92
        8
 66
     7
 43
1.0
 76
     1
 77
     6
 78
     2
 67
     7
 79
     5
170
     0
171
     0
290
     0
174
     0
 93
        1
 44
0.0
173
     0
291
     1
 45
0.0
1001
ACAD
1000
AcDbSavedByObjectVersion
1070
     0
  0
VISUALSTYLE
  5
7A7
102
{ACAD_XDICTIONARY
360
80D
102
}
102
{ACAD_REACTORS
330
798
102
}
330
798
100
AcDbVisualStyle
  2
Facepattern
 70
    15
 71
     2
 72
     2
 73
     0
 90
        0
 40
-0.6
 41
-30.0
 62
     5
 63
     7
 74
     1
 91
        4
 64
     7
 65
   257
 75
     1
175
     1
 42
1.0
 92
        8
 66
     7
 43
1.0
 76
     1
 77
     6
 78
     2
 67
     7
 79
     5
170
     0
171
     0
290
     0
174
     0
 93
        1
 44
0.0
173
     0
291
     1
 45
0.0
1001
ACAD
1000
AcDbSavedByObjectVersion
1070
     0
  0
VISUALSTYLE
  5
799
102
{ACAD_XDICTIONARY
360
7F1
102
}
102
{ACAD_REACTORS
330
798
102
}
330
798
100
AcDbVisualStyle
  2
Flat
 70
     0
 71
     2
 72
     1
 73
     1
 90
        2
 40
-0.6
 41
30.0
 62
     5
 63
     7
 74
     0
 91
        0
 64
     7
 65
   257
 75
     1
175
     1
 42
1.0
 92
        8
 66
     7
 43
1.0
 76
     1
 77
     6
 78
     2
 67
     7
 79
     5
170
     0
171
     0
290
     0
174
     0
 93
       13
 44
0.0
173
     0
291
     1
 45
0.0
1001
ACAD
1000
AcDbSavedByObjectVersion
1070
     0
  0
VISUALSTYLE
  5
79A
102
{ACAD_XDICTIONARY
360
7F3
102
}
102
{ACAD_REACTORS
330
798
102
}
330
798
100
AcDbVisualStyle
  2
FlatWithEdges
 70
     1
 71
     2
 72
     1
 73
     1
 90
        2
 40
-0.6
 41
30.0
 62
     5
 63
     7
 74
     1
 91
        0
 64
     7
 65
   257
 75
     1
175
     1
 42
1.0
 92
        0
 66
   257
 43
1.0
 76
     1
 77
     6
 78
     2
 67
     7
 79
     5
170
     0
171
     0
290
     0
174
     0
 93
       13
 44
0.0
173
     0
291
     1
 45
0.0
1001
ACAD
1000
AcDbSavedByObjectVersion
1070
     0
  0
VISUALSTYLE
  5
79B
102
{ACAD_XDICTIONARY
360
7F5
102
}
102
{ACAD_REACTORS
330
798
102
}
330
798
100
AcDbVisualStyle
  2
Gouraud
 70
     2
 71
     2
 72
     2
 73
     1
 90
        2
 40
-0.6
 41
30.0
 62
     5
 63
     7
 74
     0
 91
        0
 64
     7
 65
   257
 75
     1
175
     1
 42
1.0
 92
        0
 66
     7
 43
1.0
 76
     1
 77
     6
 78
     2
 67
     7
 79
     5
170
     0
171
     0
290
     0
174
     0
 93
       13
 44
0.0
173
     0
291
     1
 45
0.0
1001
ACAD
1000
AcDbSavedByObjectVersion
1070
     0
  0
VISUALSTYLE
  5
79C
102
{ACAD_XDICTIONARY
360
7F7
102
}
102
{ACAD_REACTORS
330
798
102
}
330
798
100
AcDbVisualStyle
  2
GouraudWithEdges
 70
     3
 71
     2
 72
     2
 73
     1
 90
        2
 40
-0.6
 41
30.0
 62
     5
 63
     7
 74
     1
 91
        0
 64
     7
 65
   257
 75
     1
175
     1
 42
1.0
 92
        0
 66
   257
 43
1.0
 76
     1
 77
     6
 78
     2
 67
     7
 79
     5
170
     0
171
     0
290
     0
174
     0
 93
       13
 44
0.0
173
     0
291
     1
 45
0.0
1001
ACAD
1000
AcDbSavedByObjectVersion
1070
     0
  0
VISUALSTYLE
  5
7A0
102
{ACAD_XDICTIONARY
360
7FF
102
}
102
{ACAD_REACTORS
330
798
102
}
330
798
100
AcDbVisualStyle
  2
Hidden
 70
     6
 71
     1
 72
     2
 73
     2
 90
        0
 40
-0.6
 41
-30.0
 62
     5
 63
     7
 74
     2
 91
        2
 64
     7
 65
   257
 75
     2
175
     1
 42
40.0
 92
        0
 66
   257
 43
1.0
 76
     1
 77
     6
 78
     2
 67
     7
 79
     3
170
     0
171
     0
290
     0
174
     0
 93
        1
 44
0.0
173
     0
291
     0
 45
0.0
1001
ACAD
1000
AcDbSavedByObjectVersion
1070
     0
  0
VISUALSTYLE
  5
7AE
102
{ACAD_XDICTIONARY
360
81B
102
}
102
{ACAD_REACTORS
330
798
102
}
330
798
100
AcDbVisualStyle
  2
JitterOff
 70
    20
 71
     2
 72
     2
 73
     0
 90
        0
 40
-0.6
 41
-30.0
 62
     5
 63
     7
 74
     1
 91
        4
 64
     7
 65
   257
 75
     1
175
     1
 42
1.0
 92
       10
 66
     7
 43
1.0
 76
     1
 77
     6
 78
     2
 67
     7
 79
     5
170
     0
171
     0
290
     0
174
     0
 93
        1
 44
0.0
173
     0
291
     1
 45
0.0
1001
ACAD
1000
AcDbSavedByObjectVersion
1070
     0
  0
VISUALSTYLE
  5
7A6
102
{ACAD_XDICTIONARY
360
80B
102
}
102
{ACAD_REACTORS
330
798
102
}
330
798
100
AcDbVisualStyle
  2
Linepattern
 70
    14
 71
     2
 72
     2
 73
     0
 90
        0
 40
-0.6
 41
-30.0
 62
     5
 63
     7
 74
     1
 91
        4
 64
     7
 65
   257
 75
     7
175
     7
 42
1.0
 92
        8
 66
     7
 43
1.0
 76
     1
 77
     6
 78
     2
 67
     7
 79
     5
170
     0
171
     0
290
     0
174
     0
 93
        1
 44
0.0
173
     0
291
     1
 45
0.0
1001
ACAD
1000
AcDbSavedByObjectVersion
1070
     0
  0
VISUALSTYLE
  5
7AF
102
{ACAD_XDICTIONARY
360
81D
102
}
102
{ACAD_REACTORS
330
798
102
}
330
798
100
AcDbVisualStyle
  2
OverhangOff
 70
    21
 71
     2
 72
     2
 73
     0
 90
        0
 40
-0.6
 41
-30.0
 62
     5
 63
     7
 74
     1
 91
        4
 64
     7
 65
   257
 75
     1
175
     1
 42
1.0
 92
        9
 66
     7
 43
1.0
 76
     1
 77
     6
 78
     2
 67
     7
 79
     5
170
     0
171
     0
290
     0
174
     0
 93
        1
 44
0.0
173
     0
291
     1
 45
0.0
1001
ACAD
1000
AcDbSavedByObjectVersion
1070
     0
  0
VISUALSTYLE
  5
7A2
102
{ACAD_XDICTIONARY
360
803
102
}
102
{ACAD_REACTORS
330
798
102
}
330
798
100
AcDbVisualStyle
  2
Realistic
 70
     8
 71
     2
 72
     3
 73
     0
 90
        2
 40
-0.6
 41
30.0
 62
     5
 63
     7
 74
     0
 91
        0
 64
     7
 65
   257
 75
     1
175
     1
 42
1.0
 92
        8
 66
   257
 43
1.0
 76
     1
 77
     6
 78
     2
 67
     7
 79
     3
170
     0
171
     0
290
     0
174
     0
 93
       13
 44
0.0
173
     0
291
     0
 45
0.0
1001
ACAD
1000
AcDbSavedByObjectVersion
1070
     0
  0
VISUALSTYLE
  5
7AD
102
{ACAD_XDICTIONARY
360
819
102
}
102
{ACAD_REACTORS
330
798
102
}
330
798
100
AcDbVisualStyle
  2
Shaded
 70
    27
 71
     2
 72
     2
 73
     1
 90
        2
 40
-0.6
 41
30.0
 62
     5
 63
     7
 74
     0
 91
        4
 64
     7
 65
   257
 75
     1
175
     1
 42
1.0
 92
        8
 66
   257
 43
1.0
 76
     1
 77
     6
 78
     2
 67
     8
 79
     3
170
     0
171
     0
290
     0
174
     0
 93
        5
 44
0.0
173
     0
291
     0
 45
0.0
1001
ACAD
1000
AcDbSavedByObjectVersion
1070
     0
  0
VISUALSTYLE
  5
7AC
102
{ACAD_XDICTIONARY
360
817
102
}
102
{ACAD_REACTORS
330
798
102
}
330
798
100
AcDbVisualStyle
  2
Shaded with edges
 70
    26
 71
     2
 72
     2
 73
     1
 90
        2
 40
-0.6
 41
30.0
 62
     5
 63
     7
 74
     1
 91
       10
 64
     7
 65
   257
 75
     2
175
     1
 42
1.0
 92
        8
 66
   257
 43
1.0
 76
     1
 77
     6
 78
     2
 67
     7
 79
     3
170
     0
171
     0
290
     0
174
     0
 93
        5
 44
0.0
173
     0
291
     0
 45
0.0
1001
ACAD
1000
AcDbSavedByObjectVersion
1070
     0
  0
VISUALSTYLE
  5
7A9
102
{ACAD_XDICTIONARY
360
811
102
}
102
{ACAD_REACTORS
330
798
102
}
330
798
100
AcDbVisualStyle
  2
Shades of Gray
 70
    23
 71
     2
 72
     2
 73
     3
 90
        0
 40
-0.6
 41
-30.0
 62
     5
 63
     7
 74
     2
 91
        2
 64
     7
 65
     7
 75
     1
175
     1
 42
40.0
 92
        8
 66
     7
 43
1.0
 76
     1
 77
     6
 78
     2
 67
     7
 79
     3
170
     0
171
     0
290
     0
174
     0
 93
        1
 44
0.0
173
     0
291
     0
 45
0.0
1001
ACAD
1000
AcDbSavedByObjectVersion
1070
     0
  0
VISUALSTYLE
  5
7AA
102
{ACAD_XDICTIONARY
360
813
102
}
102
{ACAD_REACTORS
330
798
102
}
330
798
100
AcDbVisualStyle
  2
Sketchy
 70
    24
 71
     1
 72
     2
 73
     2
 90
        0
 40
-0.6
 41
-30.0
 62
     5
 63
     7
 74
     2
 91
        2
 64
     7
 65
     7
 75
     1
175
     1
 42
40.0
 92
       11
 66
     7
 43
1.0
 76
     1
 77
     6
 78
     2
 67
     7
 79
     6
170
     0
171
     0
290
     0
174
     0
 93
        1
 44
0.0
173
     0
291
     0
 45
0.0
1001
ACAD
1000
AcDbSavedByObjectVersion
1070
     0
  0
VISUALSTYLE
  5
7A5
102
{ACAD_XDICTIONARY
360
809
102
}
102
{ACAD_REACTORS
330
798
102
}
330
798
100
AcDbVisualStyle
  2
Thicken
 70
    13
 71
     2
 72
     2
 73
     0
 90
        0
 40
-0.6
 41
-30.0
 62
     5
 63
     7
 74
     1
 91
        4
 64
     7
 65
   257
 75
     1
175
     1
 42
1.0
 92
       12
 66
     7
 43
1.0
 76
     1
 77
     6
 78
     2
 67
     7
 79
     5
170
     0
171
     0
290
     0
174
     0
 93
        1
 44
0.0
173
     0
291
     1
 45
0.0
1001
ACAD
1000
AcDbSavedByObjectVersion
1070
     0
  0
VISUALSTYLE
  5
79F
102
{ACAD_XDICTIONARY
360
7FD
102
}
102
{ACAD_REACTORS
330
798
102
}
330
798
100
AcDbVisualStyle
  2
Wireframe
 70
     5
 71
     0
 72
     2
 73
     0
 90
        0
 40
-0.6
 41
-30.0
 62
     5
 63
     7
 74
     1
 91
        4
 64
     7
 65
   257
 75
     1
175
     1
 42
1.0
 92
        0
 66
   257
 43
1.0
 76
     1
 77
     6
 78
     2
 67
     7
 79
     3
170
     0
171
     0
290
     0
174
     0
 93
        1
 44
0.0
173
     0
291
     0
 45
0.0
1001
ACAD
1000
AcDbSavedByObjectVersion
1070
     0
  0
VISUALSTYLE
  5
7AB
102
{ACAD_XDICTIONARY
360
815
102
}
102
{ACAD_REACTORS
330
798
102
}
330
798
100
AcDbVisualStyle
  2
X-Ray
 70
    25
 71
     2
 72
     2
 73
     1
 90
        1
 40
0.5
 41
-30.0
 62
     5
 63
     7
 74
     1
 91
        0
 64
     7
 65
   257
 75
     1
175
     1
 42
1.0
 92
        8
 66
     7
 43
1.0
 76
     1
 77
     6
 78
     2
 67
     7
 79
     3
170
     0
171
     0
290
     0
174
     0
 93
       13
 44
0.0
173
     0
291
     0
 45
0.0
1001
ACAD
1000
AcDbSavedByObjectVersion
1070
     0
  0
DICTIONARYVAR
  5
7E4
102
{ACAD_REACTORS
330
7DF
102
}
330
7DF
100
DictionaryVariables
280
     0
  1
1:1
  0
DICTIONARYVAR
  5
7E1
102
{ACAD_REACTORS
330
7DF
102
}
330
7DF
100
DictionaryVariables
280
     0
  1
STANDARD
  0
DICTIONARYVAR
  5
7E0
102
{ACAD_REACTORS
330
7DF
102
}
330
7DF
100
DictionaryVariables
280
     0
  1
STANDARD
  0
DICTIONARYVAR
  5
7E2
102
{ACAD_REACTORS
330
7DF
102
}
330
7DF
100
DictionaryVariables
280
     0
  1
Imperial24
  0
DICTIONARYVAR
  5
7E3
102
{ACAD_REACTORS
330
7DF
102
}
330
7DF
100
DictionaryVariables
280
     0
  1
Imperial24
  0
DICTIONARYVAR
  5
7E7
102
{ACAD_REACTORS
330
7DF
102
}
330
7DF
100
DictionaryVariables
280
     0
  1
1
  0
DICTIONARYVAR
  5
7E6
102
{ACAD_REACTORS
330
7DF
102
}
330
7DF
100
DictionaryVariables
280
     0
  1
0
  0
DICTIONARYVAR
  5
7E5
102
{ACAD_REACTORS
330
7DF
102
}
330
7DF
100
DictionaryVariables
280
     0
  1
127
  0
DICTIONARYVAR
  5
7E8
102
{ACAD_REACTORS
330
7DF
102
}
330
7DF
100
DictionaryVariables
280
     0
  1
2
  0
DICTIONARY
  5
825
330
7CB
100
AcDbDictionary
280
     1
281
     1
  3
ACAD_XREC_ROUNDTRIP
360
826
  0
DICTIONARY
  5
827
330
7CC
100
AcDbDictionary
280
     1
281
     1
  3
ACAD_XREC_ROUNDTRIP
360
828
  0
DICTIONARY
  5
829
330
7CD
100
AcDbDictionary
280
     1
281
     1
  3
ACAD_XREC_ROUNDTRIP
360
82A
  0
DICTIONARY
  5
789
330
788
100
AcDbDictionary
280
     1
281
     1
  3
ACAD_XREC_ROUNDTRIP
360
7EF
  3
BUMPTILE
360
78B
  3
DIFFUSETILE
360
78A
  3
OPACITYTILE
360
78E
  3
REFLECTIONTILE
360
78D
  3
REFRACTIONTILE
360
78F
  3
SPECULARTILE
360
78C
  0
DICTIONARY
  5
781
330
780
100
AcDbDictionary
280
     1
281
     1
  3
ACAD_XREC_ROUNDTRIP
360
7EE
  3
BUMPTILE
360
783
  3
DIFFUSETILE
360
782
  3
OPACITYTILE
360
786
  3
REFLECTIONTILE
360
785
  3
REFRACTIONTILE
360
787
  3
SPECULARTILE
360
784
  0
DICTIONARY
  5
791
330
790
100
AcDbDictionary
280
     1
281
     1
  3
ACAD_XREC_ROUNDTRIP
360
7F0
  3
BUMPTILE
360
793
  3
DIFFUSETILE
360
792
  3
OPACITYTILE
360
796
  3
REFLECTIONTILE
360
795
  3
REFRACTIONTILE
360
797
  3
SPECULARTILE
360
794
  0
DICTIONARY
  5
823
330
7C9
100
AcDbDictionary
280
     1
281
     1
  3
ACAD_XREC_ROUNDTRIP
360
824
  0
DICTIONARY
  5
7EA
330
7B3
100
AcDbDictionary
280
     1
281
     1
  3
ACAD_ROUNDTRIP_2008_TABLESTYLE_CELLSTYLEMAP
360
7EB
  3
ACAD_XREC_ROUNDTRIP
360
821
  0
DICTIONARY
  5
7FB
330
79E
100
AcDbDictionary
280
     1
281
     1
  3
ACAD_XREC_ROUNDTRIP
360
7FC
  0
DICTIONARY
  5
7F9
330
79D
100
AcDbDictionary
280
     1
281
     1
  3
ACAD_XREC_ROUNDTRIP
360
7FA
  0
DICTIONARY
  5
807
330
7A4
100
AcDbDictionary
280
     1
281
     1
  3
ACAD_XREC_ROUNDTRIP
360
808
  0
DICTIONARY
  5
80F
330
7A8
100
AcDbDictionary
280
     1
281
     1
  3
ACAD_XREC_ROUNDTRIP
360
810
  0
DICTIONARY
  5
801
330
7A1
100
AcDbDictionary
280
     1
281
     1
  3
ACAD_XREC_ROUNDTRIP
360
802
  0
DICTIONARY
  5
805
330
7A3
100
AcDbDictionary
280
     1
281
     1
  3
ACAD_XREC_ROUNDTRIP
360
806
  0
DICTIONARY
  5
81F
330
7B0
100
AcDbDictionary
280
     1
281
     1
  3
ACAD_XREC_ROUNDTRIP
360
820
  0
DICTIONARY
  5
80D
330
7A7
100
AcDbDictionary
280
     1
281
     1
  3
ACAD_XREC_ROUNDTRIP
360
80E
  0
DICTIONARY
  5
7F1
330
799
100
AcDbDictionary
280
     1
281
     1
  3
ACAD_XREC_ROUNDTRIP
360
7F2
  0
DICTIONARY
  5
7F3
330
79A
100
AcDbDictionary
280
     1
281
     1
  3
ACAD_XREC_ROUNDTRIP
360
7F4
  0
DICTIONARY
  5
7F5
330
79B
100
AcDbDictionary
280
     1
281
     1
  3
ACAD_XREC_ROUNDTRIP
360
7F6
  0
DICTIONARY
  5
7F7
330
79C
100
AcDbDictionary
280
     1
281
     1
  3
ACAD_XREC_ROUNDTRIP
360
7F8
  0
DICTIONARY
  5
7FF
330
7A0
100
AcDbDictionary
280
     1
281
     1
  3
ACAD_XREC_ROUNDTRIP
360
800
  0
DICTIONARY
  5
81B
330
7AE
100
AcDbDictionary
280
     1
281
     1
  3
ACAD_XREC_ROUNDTRIP
360
81C
  0
DICTIONARY
  5
80B
330
7A6
100
AcDbDictionary
280
     1
281
     1
  3
ACAD_XREC_ROUNDTRIP
360
80C
  0
DICTIONARY
  5
81D
330
7AF
100
AcDbDictionary
280
     1
281
     1
  3
ACAD_XREC_ROUNDTRIP
360
81E
  0
DICTIONARY
  5
803
330
7A2
100
AcDbDictionary
280
     1
281
     1
  3
ACAD_XREC_ROUNDTRIP
360
804
  0
DICTIONARY
  5
819
330
7AD
100
AcDbDictionary
280
     1
281
     1
  3
ACAD_XREC_ROUNDTRIP
360
81A
  0
DICTIONARY
  5
817
330
7AC
100
AcDbDictionary
280
     1
281
     1
  3
ACAD_XREC_ROUNDTRIP
360
818
  0
DICTIONARY
  5
811
330
7A9
100
AcDbDictionary
280
     1
281
     1
  3
ACAD_XREC_ROUNDTRIP
360
812
  0
DICTIONARY
  5
813
330
7AA
100
AcDbDictionary
280
     1
281
     1
  3
ACAD_XREC_ROUNDTRIP
360
814
  0
DICTIONARY
  5
809
330
7A5
100
AcDbDictionary
280
     1
281
     1
  3
ACAD_XREC_ROUNDTRIP
360
80A
  0
DICTIONARY
  5
7FD
330
79F
100
AcDbDictionary
280
     1
281
     1
  3
ACAD_XREC_ROUNDTRIP
360
7FE
  0
DICTIONARY
  5
815
330
7AB
100
AcDbDictionary
280
     1
281
     1
  3
ACAD_XREC_ROUNDTRIP
360
816
  0
XRECORD
  5
826
102
{ACAD_REACTORS
330
825
102
}
330
825
100
AcDbXrecord
280
     1
102
DISPLAYNAME
  1
Imperial24
102
FLAGS
 90
        0
  0
XRECORD
  5
828
102
{ACAD_REACTORS
330
827
102
}
330
827
100
AcDbXrecord
280
     1
102
SHADEPLOT
 70
     0
102
SHADEPLOTRESLEVEL
 70
     2
102
SHADEPLOTCUSTOMDPI
 70
   300
  0
XRECORD
  5
82A
102
{ACAD_REACTORS
330
829
102
}
330
829
100
AcDbXrecord
280
     1
102
SHADEPLOT
 70
     0
102
SHADEPLOTRESLEVEL
 70
     2
102
SHADEPLOTCUSTOMDPI
 70
   300
  0
XRECORD
  5
7EF
102
{ACAD_REACTORS
330
789
102
}
330
789
100
AcDbXrecord
280
     1
102
MATERIAL
148
0.0
149
0.0
149
0.0
 93
        0
 94
      127
282
     0
 72
     0
 77
     0
171
     0
175
     0
179
     0
273
     0
  0
XRECORD
  5
78B
102
{ACAD_REACTORS
330
789
102
}
330
789
100
AcDbXrecord
280
     1
270
     1
271
     1
  0
XRECORD
  5
78A
102
{ACAD_REACTORS
330
789
102
}
330
789
100
AcDbXrecord
280
     1
270
     1
271
     1
  0
XRECORD
  5
78E
102
{ACAD_REACTORS
330
789
102
}
330
789
100
AcDbXrecord
280
     1
270
     1
271
     1
  0
XRECORD
  5
78D
102
{ACAD_REACTORS
330
789
102
}
330
789
100
AcDbXrecord
280
     1
270
     1
271
     1
  0
XRECORD
  5
78F
102
{ACAD_REACTORS
330
789
102
}
330
789
100
AcDbXrecord
280
     1
270
     1
271
     1
  0
XRECORD
  5
78C
102
{ACAD_REACTORS
330
789
102
}
330
789
100
AcDbXrecord
280
     1
270
     1
271
     1
  0
XRECORD
  5
7EE
102
{ACAD_REACTORS
330
781
102
}
330
781
100
AcDbXrecord
280
     1
102
MATERIAL
148
0.0
149
0.0
149
0.0
 93
        0
 94
      127
282
     0
 72
     0
 77
     0
171
     0
175
     0
179
     0
273
     0
  0
XRECORD
  5
783
102
{ACAD_REACTORS
330
781
102
}
330
781
100
AcDbXrecord
280
     1
270
     1
271
     1
  0
XRECORD
  5
782
102
{ACAD_REACTORS
330
781
102
}
330
781
100
AcDbXrecord
280
     1
270
     1
271
     1
  0
XRECORD
  5
786
102
{ACAD_REACTORS
330
781
102
}
330
781
100
AcDbXrecord
280
     1
270
     1
271
     1
  0
XRECORD
  5
785
102
{ACAD_REACTORS
330
781
102
}
330
781
100
AcDbXrecord
280
     1
270
     1
271
     1
  0
XRECORD
  5
787
102
{ACAD_REACTORS
330
781
102
}
330
781
100
AcDbXrecord
280
     1
270
     1
271
     1
  0
XRECORD
  5
784
102
{ACAD_REACTORS
330
781
102
}
330
781
100
AcDbXrecord
280
     1
270
     1
271
     1
  0
XRECORD
  5
7F0
102
{ACAD_REACTORS
330
791
102
}
330
791
100
AcDbXrecord
280
     1
102
MATERIAL
148
0.0
149
0.0
149
0.0
 93
        0
 94
      127
282
     0
 72
     0
 77
     0
171
     0
175
     0
179
     0
273
     0
  0
XRECORD
  5
793
102
{ACAD_REACTORS
330
791
102
}
330
791
100
AcDbXrecord
280
     1
270
     1
271
     1
  0
XRECORD
  5
792
102
{ACAD_REACTORS
330
791
102
}
330
791
100
AcDbXrecord
280
     1
270
     1
271
     1
  0
XRECORD
  5
796
102
{ACAD_REACTORS
330
791
102
}
330
791
100
AcDbXrecord
280
     1
270
     1
271
     1
  0
XRECORD
  5
795
102
{ACAD_REACTORS
330
791
102
}
330
791
100
AcDbXrecord
280
     1
270
     1
271
     1
  0
XRECORD
  5
797
102
{ACAD_REACTORS
330
791
102
}
330
791
100
AcDbXrecord
280
     1
270
     1
271
     1
  0
XRECORD
  5
794
102
{ACAD_REACTORS
330
791
102
}
330
791
100
AcDbXrecord
280
     1
270
     1
271
     1
  0
XRECORD
  5
824
102
{ACAD_REACTORS
330
823
102
}
330
823
100
AcDbXrecord
280
     1
102
DISPLAYNAME
  1
Imperial24
102
FLAGS
 90
        0
  0
CELLSTYLEMAP
  5
7EB
102
{ACAD_REACTORS
330
7EA
102
}
330
7EA
100
AcDbCellStyleMap
 90
        3
300
CELLSTYLE
  1
TABLEFORMAT_BEGIN
 90
        5
170
     1
 91
        0
 92
    32768
 62
   257
 93
        1
300
CONTENTFORMAT
  1
CONTENTFORMAT_BEGIN
 90
        0
 91
        0
 92
      512
 93
        0
300

 40
0.0
140
1.0
 94
        5
 62
     0
340
F
144
0.25
309
CONTENTFORMAT_END
171
     0
 94
        0
309
TABLEFORMAT_END
  1
CELLSTYLE_BEGIN
 90
        1
 91
        1
300
_TITLE
309
CELLSTYLE_END
300
CELLSTYLE
  1
TABLEFORMAT_BEGIN
 90
        5
170
     1
 91
        0
 92
        0
 62
   257
 93
        1
300
CONTENTFORMAT
  1
CONTENTFORMAT_BEGIN
 90
        0
 91
        0
 92
      512
 93
        0
300

 40
0.0
140
1.0
 94
        5
 62
     0
340
F
144
0.18
309
CONTENTFORMAT_END
171
     0
 94
        0
309
TABLEFORMAT_END
  1
CELLSTYLE_BEGIN
 90
        2
 91
        1
300
_HEADER
309
CELLSTYLE_END
300
CELLSTYLE
  1
TABLEFORMAT_BEGIN
 90
        5
170
     1
 91
        0
 92
        0
 62
   257
 93
        1
300
CONTENTFORMAT
  1
CONTENTFORMAT_BEGIN
 90
        0
 91
        0
 92
      512
 93
        0
300

 40
0.0
140
1.0
 94
        2
 62
     0
340
F
144
0.18
309
CONTENTFORMAT_END
171
     0
 94
        0
309
TABLEFORMAT_END
  1
CELLSTYLE_BEGIN
 90
        3
 91
        2
300
_DATA
309
CELLSTYLE_END
  0
XRECORD
  5
821
102
{ACAD_REACTORS
330
7EA
102
}
330
7EA
100
AcDbXrecord
280
     1
102
ACAD_ROUNDTRIP_PRE2007_TABLESTYLE
 90
      512
 91
        0
  1

 92
      512
 93
        0
  2

 94
      512
 95
        0
  3

  0
XRECORD
  5
7FC
102
{ACAD_REACTORS
330
7FB
102
}
330
7FB
100
AcDbXrecord
280
     1
102
RTVSPost2010Prop28
280
     1
102
RTVSPost2010PropOp28
 70
     1
102
RTVSPost2010Prop29
280
     1
102
RTVSPost2010PropOp29
 70
     1
102
RTVSPost2010Prop30
280
     0
102
RTVSPost2010PropOp30
 70
     1
102
RTVSPost2010Prop31
280
     0
102
RTVSPost2010PropOp31
 70
     1
102
RTVSPost2010Prop32
280
     0
102
RTVSPost2010PropOp32
 70
     1
102
RTVSPost2010Prop33
280
     0
102
RTVSPost2010PropOp33
 70
     1
102
RTVSPost2010Prop34
280
     0
102
RTVSPost2010PropOp34
 70
     1
102
RTVSPost2010Prop35
280
     0
102
RTVSPost2010PropOp35
 70
     1
102
RTVSPost2010Prop36
280
     0
102
RTVSPost2010PropOp36
 70
     1
102
RTVSPost2010Prop37
 90
       50
102
RTVSPost2010PropOp37
 70
     1
102
RTVSPost2010Prop38
140
0.0
102
RTVSPost2010PropOp38
 70
     1
102
RTVSPost2010Prop39
140
1.0
102
RTVSPost2010PropOp39
 70
     1
102
RTVSPost2010Prop40
 90
        0
102
RTVSPost2010PropOp40
 70
     1
102
RTVSPost2010Prop41ColorIndex
 90
       18
102
RTVSPost2010Prop41ColorRGB
 90
        0
102
RTVSPost2010PropOp41
 70
     1
102
RTVSPost2010Prop42
 90
       50
102
RTVSPost2010PropOp42
 70
     1
102
RTVSPost2010Prop43
 90
        3
102
RTVSPost2010PropOp43
 70
     1
102
RTVSPost2010Prop44ColorIndex
 90
        5
102
RTVSPost2010Prop44ColorRGB
 90
      255
102
RTVSPost2010PropOp44
 70
     1
102
RTVSPost2010Prop45
280
     0
102
RTVSPost2010PropOp45
 70
     1
102
RTVSPost2010Prop46
 90
       50
102
RTVSPost2010PropOp46
 70
     1
102
RTVSPost2010Prop47
 90
       50
102
RTVSPost2010PropOp47
 70
     1
102
RTVSPost2010Prop48
 90
       50
102
RTVSPost2010PropOp48
 70
     1
102
RTVSPost2010Prop49
280
     0
102
RTVSPost2010PropOp49
 70
     1
102
RTVSPost2010Prop50
 90
       50
102
RTVSPost2010PropOp50
 70
     1
102
RTVSPost2010Prop51ColorIndex
 90
      256
102
RTVSPost2010Prop51ColorRGB
 90
-16777216
102
RTVSPost2010PropOp51
 70
     0
102
RTVSPost2010Prop52
140
1.0
102
RTVSPost2010PropOp52
 70
     0
102
RTVSPost2010Prop53
 90
        2
102
RTVSPost2010PropOp53
 70
     1
102
RTVSPost2010Prop54
  1
strokes_ogs.tif
102
RTVSPost2010PropOp54
 70
     1
102
RTVSPost2010Prop55
280
     0
102
RTVSPost2010PropOp55
 70
     1
102
RTVSPost2010Prop56
140
1.0
102
RTVSPost2010PropOp56
 70
     1
102
RTVSPost2010Prop57
140
1.0
102
RTVSPost2010PropOp57
 70
     1
102
RTVSPropertyOp0
 70
     1
102
RTVSPropertyOp1
 70
     1
102
RTVSPropertyOp2
 70
     1
102
RTVSPropertyOp3
 70
     1
102
RTVSPropertyOp4
 70
     1
102
RTVSPropertyOp5
 70
     1
102
RTVSPropertyOp6
 70
     1
102
RTVSPropertyOp7
 70
     1
102
RTVSPropertyOp8
 70
     1
102
RTVSPropertyOp9
 70
     1
102
RTVSPropertyOp10
 70
     1
102
RTVSPropertyOp11
 70
     1
102
RTVSPropertyOp12
 70
     1
102
RTVSPropertyOp13
 70
     1
102
RTVSPropertyOp14
 70
     1
102
RTVSPropertyOp15
 70
     1
102
RTVSPropertyOp16
 70
     1
102
RTVSPropertyOp17
 70
     1
102
RTVSPropertyOp18
 70
     1
102
RTVSPropertyOp19
 70
     1
102
RTVSPropertyOp20
 70
     1
102
RTVSPropertyOp21
 70
     1
102
RTVSPropertyOp22
 70
     1
102
RTVSPropertyOp23
 70
     1
102
RTVSPropertyOp24
 70
     1
102
RTVSPropertyOp25
 70
     1
102
RTVSPropertyOp26
 70
     1
102
RTVSPropertyOp27
 70
     1
102
RTVSPropertyOp28
 70
     1
102
RTVSPropertyOp29
 70
     1
102
RTVSPropertyOp30
 70
     1
102
RTVSPropertyOp31
 70
     1
102
RTVSPropertyOp32
 70
     1
102
RTVSPropertyOp33
 70
     1
102
RTVSPropertyOp34
 70
     1
102
RTVSPropertyOp35
 70
     1
102
RTVSPropertyOp36
 70
     1
102
RTVSPropertyOp37
 70
     1
102
RTVSPropertyOp38
 70
     1
102
RTVSPropertyOp39
 70
     1
102
RTVSPropertyOp40
 70
     1
102
RTVSPropertyOp41
 70
     1
102
RTVSPropertyOp42
 70
     1
102
RTVSPropertyOp43
 70
     1
102
RTVSPropertyOp44
 70
     1
102
RTVSPropertyOp45
 70
     1
102
RTVSPropertyOp46
 70
     1
102
RTVSPropertyOp47
 70
     1
102
RTVSPropertyOp48
 70
     1
102
RTVSPropertyOp49
 70
     1
102
RTVSPropertyOp50
 70
     1
102
RTVSPropertyOp51
 70
     0
102
RTVSPropertyOp52
 70
     0
102
RTVSPropertyOp53
 70
     1
102
RTVSPropertyOp54
 70
     1
102
RTVSPropertyOp55
 70
     1
102
RTVSPropertyOp56
 70
     1
102
RTVSPropertyOp57
 70
     1
102
RTVSPropertyOp58
 70
     1
102
RTVSPropertyOp59
 70
     1
102
RTVSPropertyOp60
 70
     1
102
RTVSPropertyOp61
 70
     1
102
RTVSPropertyOp62
 70
     1
  0
XRECORD
  5
7FA
102
{ACAD_REACTORS
330
7F9
102
}
330
7F9
100
AcDbXrecord
280
     1
102
RTVSPost2010Prop28
280
     0
102
RTVSPost2010PropOp28
 70
     1
102
RTVSPost2010Prop29
280
     1
102
RTVSPost2010PropOp29
 70
     1
102
RTVSPost2010Prop30
280
     1
102
RTVSPost2010PropOp30
 70
     1
102
RTVSPost2010Prop31
280
     0
102
RTVSPost2010PropOp31
 70
     1
102
RTVSPost2010Prop32
280
     0
102
RTVSPost2010PropOp32
 70
     1
102
RTVSPost2010Prop33
280
     0
102
RTVSPost2010PropOp33
 70
     1
102
RTVSPost2010Prop34
280
     0
102
RTVSPost2010PropOp34
 70
     1
102
RTVSPost2010Prop35
280
     0
102
RTVSPost2010PropOp35
 70
     1
102
RTVSPost2010Prop36
280
     0
102
RTVSPost2010PropOp36
 70
     1
102
RTVSPost2010Prop37
 90
       50
102
RTVSPost2010PropOp37
 70
     1
102
RTVSPost2010Prop38
140
0.0
102
RTVSPost2010PropOp38
 70
     1
102
RTVSPost2010Prop39
140
1.0
102
RTVSPost2010PropOp39
 70
     1
102
RTVSPost2010Prop40
 90
        0
102
RTVSPost2010PropOp40
 70
     1
102
RTVSPost2010Prop41ColorIndex
 90
       18
102
RTVSPost2010Prop41ColorRGB
 90
        0
102
RTVSPost2010PropOp41
 70
     1
102
RTVSPost2010Prop42
 90
       50
102
RTVSPost2010PropOp42
 70
     1
102
RTVSPost2010Prop43
 90
        3
102
RTVSPost2010PropOp43
 70
     1
102
RTVSPost2010Prop44ColorIndex
 90
        5
102
RTVSPost2010Prop44ColorRGB
 90
      255
102
RTVSPost2010PropOp44
 70
     1
102
RTVSPost2010Prop45
280
     0
102
RTVSPost2010PropOp45
 70
     1
102
RTVSPost2010Prop46
 90
       50
102
RTVSPost2010PropOp46
 70
     1
102
RTVSPost2010Prop47
 90
       50
102
RTVSPost2010PropOp47
 70
     1
102
RTVSPost2010Prop48
 90
       50
102
RTVSPost2010PropOp48
 70
     1
102
RTVSPost2010Prop49
280
     0
102
RTVSPost2010PropOp49
 70
     1
102
RTVSPost2010Prop50
 90
       50
102
RTVSPost2010PropOp50
 70
     1
102
RTVSPost2010Prop51ColorIndex
 90
      256
102
RTVSPost2010Prop51ColorRGB
 90
-16777216
102
RTVSPost2010PropOp51
 70
     0
102
RTVSPost2010Prop52
140
1.0
102
RTVSPost2010PropOp52
 70
     0
102
RTVSPost2010Prop53
 90
        2
102
RTVSPost2010PropOp53
 70
     1
102
RTVSPost2010Prop54
  1
strokes_ogs.tif
102
RTVSPost2010PropOp54
 70
     1
102
RTVSPost2010Prop55
280
     0
102
RTVSPost2010PropOp55
 70
     1
102
RTVSPost2010Prop56
140
1.0
102
RTVSPost2010PropOp56
 70
     1
102
RTVSPost2010Prop57
140
1.0
102
RTVSPost2010PropOp57
 70
     1
102
RTVSPropertyOp0
 70
     1
102
RTVSPropertyOp1
 70
     1
102
RTVSPropertyOp2
 70
     1
102
RTVSPropertyOp3
 70
     1
102
RTVSPropertyOp4
 70
     1
102
RTVSPropertyOp5
 70
     1
102
RTVSPropertyOp6
 70
     1
102
RTVSPropertyOp7
 70
     1
102
RTVSPropertyOp8
 70
     1
102
RTVSPropertyOp9
 70
     1
102
RTVSPropertyOp10
 70
     1
102
RTVSPropertyOp11
 70
     1
102
RTVSPropertyOp12
 70
     1
102
RTVSPropertyOp13
 70
     1
102
RTVSPropertyOp14
 70
     1
102
RTVSPropertyOp15
 70
     1
102
RTVSPropertyOp16
 70
     1
102
RTVSPropertyOp17
 70
     1
102
RTVSPropertyOp18
 70
     1
102
RTVSPropertyOp19
 70
     1
102
RTVSPropertyOp20
 70
     1
102
RTVSPropertyOp21
 70
     1
102
RTVSPropertyOp22
 70
     1
102
RTVSPropertyOp23
 70
     1
102
RTVSPropertyOp24
 70
     1
102
RTVSPropertyOp25
 70
     1
102
RTVSPropertyOp26
 70
     1
102
RTVSPropertyOp27
 70
     1
102
RTVSPropertyOp28
 70
     1
102
RTVSPropertyOp29
 70
     1
102
RTVSPropertyOp30
 70
     1
102
RTVSPropertyOp31
 70
     1
102
RTVSPropertyOp32
 70
     1
102
RTVSPropertyOp33
 70
     1
102
RTVSPropertyOp34
 70
     1
102
RTVSPropertyOp35
 70
     1
102
RTVSPropertyOp36
 70
     1
102
RTVSPropertyOp37
 70
     1
102
RTVSPropertyOp38
 70
     1
102
RTVSPropertyOp39
 70
     1
102
RTVSPropertyOp40
 70
     1
102
RTVSPropertyOp41
 70
     1
102
RTVSPropertyOp42
 70
     1
102
RTVSPropertyOp43
 70
     1
102
RTVSPropertyOp44
 70
     1
102
RTVSPropertyOp45
 70
     1
102
RTVSPropertyOp46
 70
     1
102
RTVSPropertyOp47
 70
     1
102
RTVSPropertyOp48
 70
     1
102
RTVSPropertyOp49
 70
     1
102
RTVSPropertyOp50
 70
     1
102
RTVSPropertyOp51
 70
     0
102
RTVSPropertyOp52
 70
     0
102
RTVSPropertyOp53
 70
     1
102
RTVSPropertyOp54
 70
     1
102
RTVSPropertyOp55
 70
     1
102
RTVSPropertyOp56
 70
     1
102
RTVSPropertyOp57
 70
     1
102
RTVSPropertyOp58
 70
     1
102
RTVSPropertyOp59
 70
     1
102
RTVSPropertyOp60
 70
     1
102
RTVSPropertyOp61
 70
     1
102
RTVSPropertyOp62
 70
     1
  0
XRECORD
  5
808
102
{ACAD_REACTORS
330
807
102
}
330
807
100
AcDbXrecord
280
     1
102
RTVSPost2010Prop28
280
     0
102
RTVSPost2010PropOp28
 70
     1
102
RTVSPost2010Prop29
280
     1
102
RTVSPost2010PropOp29
 70
     1
102
RTVSPost2010Prop30
280
     1
102
RTVSPost2010PropOp30
 70
     1
102
RTVSPost2010Prop31
280
     0
102
RTVSPost2010PropOp31
 70
     1
102
RTVSPost2010Prop32
280
     0
102
RTVSPost2010PropOp32
 70
     1
102
RTVSPost2010Prop33
280
     0
102
RTVSPost2010PropOp33
 70
     1
102
RTVSPost2010Prop34
280
     0
102
RTVSPost2010PropOp34
 70
     1
102
RTVSPost2010Prop35
280
     0
102
RTVSPost2010PropOp35
 70
     1
102
RTVSPost2010Prop36
280
     0
102
RTVSPost2010PropOp36
 70
     1
102
RTVSPost2010Prop37
 90
       50
102
RTVSPost2010PropOp37
 70
     1
102
RTVSPost2010Prop38
140
0.0
102
RTVSPost2010PropOp38
 70
     1
102
RTVSPost2010Prop39
140
1.0
102
RTVSPost2010PropOp39
 70
     1
102
RTVSPost2010Prop40
 90
        0
102
RTVSPost2010PropOp40
 70
     1
102
RTVSPost2010Prop41ColorIndex
 90
       18
102
RTVSPost2010Prop41ColorRGB
 90
        0
102
RTVSPost2010PropOp41
 70
     1
102
RTVSPost2010Prop42
 90
       50
102
RTVSPost2010PropOp42
 70
     1
102
RTVSPost2010Prop43
 90
        3
102
RTVSPost2010PropOp43
 70
     1
102
RTVSPost2010Prop44ColorIndex
 90
        5
102
RTVSPost2010Prop44ColorRGB
 90
      255
102
RTVSPost2010PropOp44
 70
     1
102
RTVSPost2010Prop45
280
     0
102
RTVSPost2010PropOp45
 70
     1
102
RTVSPost2010Prop46
 90
       50
102
RTVSPost2010PropOp46
 70
     1
102
RTVSPost2010Prop47
 90
       50
102
RTVSPost2010PropOp47
 70
     1
102
RTVSPost2010Prop48
 90
       50
102
RTVSPost2010PropOp48
 70
     1
102
RTVSPost2010Prop49
280
     0
102
RTVSPost2010PropOp49
 70
     1
102
RTVSPost2010Prop50
 90
       50
102
RTVSPost2010PropOp50
 70
     1
102
RTVSPost2010Prop51ColorIndex
 90
      256
102
RTVSPost2010Prop51ColorRGB
 90
-16777216
102
RTVSPost2010PropOp51
 70
     0
102
RTVSPost2010Prop52
140
1.0
102
RTVSPost2010PropOp52
 70
     0
102
RTVSPost2010Prop53
 90
        2
102
RTVSPost2010PropOp53
 70
     1
102
RTVSPost2010Prop54
  1
strokes_ogs.tif
102
RTVSPost2010PropOp54
 70
     1
102
RTVSPost2010Prop55
280
     0
102
RTVSPost2010PropOp55
 70
     1
102
RTVSPost2010Prop56
140
1.0
102
RTVSPost2010PropOp56
 70
     1
102
RTVSPost2010Prop57
140
1.0
102
RTVSPost2010PropOp57
 70
     1
102
RTVSPropertyOp0
 70
     1
102
RTVSPropertyOp1
 70
     1
102
RTVSPropertyOp2
 70
     1
102
RTVSPropertyOp3
 70
     1
102
RTVSPropertyOp4
 70
     1
102
RTVSPropertyOp5
 70
     1
102
RTVSPropertyOp6
 70
     1
102
RTVSPropertyOp7
 70
     1
102
RTVSPropertyOp8
 70
     1
102
RTVSPropertyOp9
 70
     1
102
RTVSPropertyOp10
 70
     1
102
RTVSPropertyOp11
 70
     1
102
RTVSPropertyOp12
 70
     1
102
RTVSPropertyOp13
 70
     1
102
RTVSPropertyOp14
 70
     1
102
RTVSPropertyOp15
 70
     1
102
RTVSPropertyOp16
 70
     1
102
RTVSPropertyOp17
 70
     1
102
RTVSPropertyOp18
 70
     1
102
RTVSPropertyOp19
 70
     1
102
RTVSPropertyOp20
 70
     1
102
RTVSPropertyOp21
 70
     1
102
RTVSPropertyOp22
 70
     1
102
RTVSPropertyOp23
 70
     1
102
RTVSPropertyOp24
 70
     1
102
RTVSPropertyOp25
 70
     1
102
RTVSPropertyOp26
 70
     1
102
RTVSPropertyOp27
 70
     1
102
RTVSPropertyOp28
 70
     1
102
RTVSPropertyOp29
 70
     1
102
RTVSPropertyOp30
 70
     1
102
RTVSPropertyOp31
 70
     1
102
RTVSPropertyOp32
 70
     1
102
RTVSPropertyOp33
 70
     1
102
RTVSPropertyOp34
 70
     1
102
RTVSPropertyOp35
 70
     1
102
RTVSPropertyOp36
 70
     1
102
RTVSPropertyOp37
 70
     1
102
RTVSPropertyOp38
 70
     1
102
RTVSPropertyOp39
 70
     1
102
RTVSPropertyOp40
 70
     1
102
RTVSPropertyOp41
 70
     1
102
RTVSPropertyOp42
 70
     1
102
RTVSPropertyOp43
 70
     1
102
RTVSPropertyOp44
 70
     1
102
RTVSPropertyOp45
 70
     1
102
RTVSPropertyOp46
 70
     1
102
RTVSPropertyOp47
 70
     1
102
RTVSPropertyOp48
 70
     1
102
RTVSPropertyOp49
 70
     1
102
RTVSPropertyOp50
 70
     1
102
RTVSPropertyOp51
 70
     0
102
RTVSPropertyOp52
 70
     0
102
RTVSPropertyOp53
 70
     1
102
RTVSPropertyOp54
 70
     1
102
RTVSPropertyOp55
 70
     1
102
RTVSPropertyOp56
 70
     1
102
RTVSPropertyOp57
 70
     1
102
RTVSPropertyOp58
 70
     1
102
RTVSPropertyOp59
 70
     1
102
RTVSPropertyOp60
 70
     1
102
RTVSPropertyOp61
 70
     1
102
RTVSPropertyOp62
 70
     1
  0
XRECORD
  5
810
102
{ACAD_REACTORS
330
80F
102
}
330
80F
100
AcDbXrecord
280
     1
102
RTVSPost2010Prop28
280
     0
102
RTVSPost2010PropOp28
 70
     1
102
RTVSPost2010Prop29
280
     1
102
RTVSPost2010PropOp29
 70
     1
102
RTVSPost2010Prop30
280
     1
102
RTVSPost2010PropOp30
 70
     1
102
RTVSPost2010Prop31
280
     0
102
RTVSPost2010PropOp31
 70
     1
102
RTVSPost2010Prop32
280
     0
102
RTVSPost2010PropOp32
 70
     1
102
RTVSPost2010Prop33
280
     0
102
RTVSPost2010PropOp33
 70
     1
102
RTVSPost2010Prop34
280
     0
102
RTVSPost2010PropOp34
 70
     1
102
RTVSPost2010Prop35
280
     0
102
RTVSPost2010PropOp35
 70
     1
102
RTVSPost2010Prop36
280
     0
102
RTVSPost2010PropOp36
 70
     1
102
RTVSPost2010Prop37
 90
       50
102
RTVSPost2010PropOp37
 70
     1
102
RTVSPost2010Prop38
140
0.0
102
RTVSPost2010PropOp38
 70
     1
102
RTVSPost2010Prop39
140
1.0
102
RTVSPost2010PropOp39
 70
     1
102
RTVSPost2010Prop40
 90
        0
102
RTVSPost2010PropOp40
 70
     1
102
RTVSPost2010Prop41ColorIndex
 90
       18
102
RTVSPost2010Prop41ColorRGB
 90
        0
102
RTVSPost2010PropOp41
 70
     1
102
RTVSPost2010Prop42
 90
       50
102
RTVSPost2010PropOp42
 70
     1
102
RTVSPost2010Prop43
 90
        3
102
RTVSPost2010PropOp43
 70
     1
102
RTVSPost2010Prop44ColorIndex
 90
        5
102
RTVSPost2010Prop44ColorRGB
 90
      255
102
RTVSPost2010PropOp44
 70
     1
102
RTVSPost2010Prop45
280
     0
102
RTVSPost2010PropOp45
 70
     1
102
RTVSPost2010Prop46
 90
       50
102
RTVSPost2010PropOp46
 70
     1
102
RTVSPost2010Prop47
 90
       50
102
RTVSPost2010PropOp47
 70
     1
102
RTVSPost2010Prop48
 90
       50
102
RTVSPost2010PropOp48
 70
     1
102
RTVSPost2010Prop49
280
     0
102
RTVSPost2010PropOp49
 70
     1
102
RTVSPost2010Prop50
 90
       50
102
RTVSPost2010PropOp50
 70
     1
102
RTVSPost2010Prop51ColorIndex
 90
      256
102
RTVSPost2010Prop51ColorRGB
 90
-16777216
102
RTVSPost2010PropOp51
 70
     0
102
RTVSPost2010Prop52
140
1.0
102
RTVSPost2010PropOp52
 70
     0
102
RTVSPost2010Prop53
 90
        2
102
RTVSPost2010PropOp53
 70
     1
102
RTVSPost2010Prop54
  1
strokes_ogs.tif
102
RTVSPost2010PropOp54
 70
     1
102
RTVSPost2010Prop55
280
     0
102
RTVSPost2010PropOp55
 70
     1
102
RTVSPost2010Prop56
140
1.0
102
RTVSPost2010PropOp56
 70
     1
102
RTVSPost2010Prop57
140
1.0
102
RTVSPost2010PropOp57
 70
     1
102
RTVSPropertyOp0
 70
     1
102
RTVSPropertyOp1
 70
     1
102
RTVSPropertyOp2
 70
     1
102
RTVSPropertyOp3
 70
     1
102
RTVSPropertyOp4
 70
     1
102
RTVSPropertyOp5
 70
     1
102
RTVSPropertyOp6
 70
     1
102
RTVSPropertyOp7
 70
     1
102
RTVSPropertyOp8
 70
     1
102
RTVSPropertyOp9
 70
     1
102
RTVSPropertyOp10
 70
     1
102
RTVSPropertyOp11
 70
     1
102
RTVSPropertyOp12
 70
     1
102
RTVSPropertyOp13
 70
     1
102
RTVSPropertyOp14
 70
     1
102
RTVSPropertyOp15
 70
     1
102
RTVSPropertyOp16
 70
     1
102
RTVSPropertyOp17
 70
     1
102
RTVSPropertyOp18
 70
     1
102
RTVSPropertyOp19
 70
     1
102
RTVSPropertyOp20
 70
     1
102
RTVSPropertyOp21
 70
     1
102
RTVSPropertyOp22
 70
     1
102
RTVSPropertyOp23
 70
     1
102
RTVSPropertyOp24
 70
     1
102
RTVSPropertyOp25
 70
     1
102
RTVSPropertyOp26
 70
     1
102
RTVSPropertyOp27
 70
     1
102
RTVSPropertyOp28
 70
     1
102
RTVSPropertyOp29
 70
     1
102
RTVSPropertyOp30
 70
     1
102
RTVSPropertyOp31
 70
     1
102
RTVSPropertyOp32
 70
     1
102
RTVSPropertyOp33
 70
     1
102
RTVSPropertyOp34
 70
     1
102
RTVSPropertyOp35
 70
     1
102
RTVSPropertyOp36
 70
     1
102
RTVSPropertyOp37
 70
     1
102
RTVSPropertyOp38
 70
     1
102
RTVSPropertyOp39
 70
     1
102
RTVSPropertyOp40
 70
     1
102
RTVSPropertyOp41
 70
     1
102
RTVSPropertyOp42
 70
     1
102
RTVSPropertyOp43
 70
     1
102
RTVSPropertyOp44
 70
     1
102
RTVSPropertyOp45
 70
     1
102
RTVSPropertyOp46
 70
     1
102
RTVSPropertyOp47
 70
     1
102
RTVSPropertyOp48
 70
     1
102
RTVSPropertyOp49
 70
     1
102
RTVSPropertyOp50
 70
     1
102
RTVSPropertyOp51
 70
     0
102
RTVSPropertyOp52
 70
     0
102
RTVSPropertyOp53
 70
     1
102
RTVSPropertyOp54
 70
     1
102
RTVSPropertyOp55
 70
     1
102
RTVSPropertyOp56
 70
     1
102
RTVSPropertyOp57
 70
     1
102
RTVSPropertyOp58
 70
     1
102
RTVSPropertyOp59
 70
     1
102
RTVSPropertyOp60
 70
     1
102
RTVSPropertyOp61
 70
     1
102
RTVSPropertyOp62
 70
     1
  0
XRECORD
  5
802
102
{ACAD_REACTORS
330
801
102
}
330
801
100
AcDbXrecord
280
     1
102
RTVSPost2010Prop28
280
     0
102
RTVSPost2010PropOp28
 70
     1
102
RTVSPost2010Prop29
280
     1
102
RTVSPost2010PropOp29
 70
     1
102
RTVSPost2010Prop30
280
     1
102
RTVSPost2010PropOp30
 70
     1
102
RTVSPost2010Prop31
280
     0
102
RTVSPost2010PropOp31
 70
     1
102
RTVSPost2010Prop32
280
     0
102
RTVSPost2010PropOp32
 70
     1
102
RTVSPost2010Prop33
280
     0
102
RTVSPost2010PropOp33
 70
     1
102
RTVSPost2010Prop34
280
     0
102
RTVSPost2010PropOp34
 70
     1
102
RTVSPost2010Prop35
280
     0
102
RTVSPost2010PropOp35
 70
     1
102
RTVSPost2010Prop36
280
     0
102
RTVSPost2010PropOp36
 70
     1
102
RTVSPost2010Prop37
 90
       50
102
RTVSPost2010PropOp37
 70
     1
102
RTVSPost2010Prop38
140
0.0
102
RTVSPost2010PropOp38
 70
     1
102
RTVSPost2010Prop39
140
1.0
102
RTVSPost2010PropOp39
 70
     1
102
RTVSPost2010Prop40
 90
        0
102
RTVSPost2010PropOp40
 70
     1
102
RTVSPost2010Prop41ColorIndex
 90
       18
102
RTVSPost2010Prop41ColorRGB
 90
        0
102
RTVSPost2010PropOp41
 70
     1
102
RTVSPost2010Prop42
 90
       50
102
RTVSPost2010PropOp42
 70
     1
102
RTVSPost2010Prop43
 90
        3
102
RTVSPost2010PropOp43
 70
     1
102
RTVSPost2010Prop44ColorIndex
 90
        5
102
RTVSPost2010Prop44ColorRGB
 90
      255
102
RTVSPost2010PropOp44
 70
     1
102
RTVSPost2010Prop45
280
     0
102
RTVSPost2010PropOp45
 70
     1
102
RTVSPost2010Prop46
 90
       50
102
RTVSPost2010PropOp46
 70
     1
102
RTVSPost2010Prop47
 90
       50
102
RTVSPost2010PropOp47
 70
     1
102
RTVSPost2010Prop48
 90
       50
102
RTVSPost2010PropOp48
 70
     1
102
RTVSPost2010Prop49
280
     0
102
RTVSPost2010PropOp49
 70
     1
102
RTVSPost2010Prop50
 90
       50
102
RTVSPost2010PropOp50
 70
     1
102
RTVSPost2010Prop51ColorIndex
 90
      256
102
RTVSPost2010Prop51ColorRGB
 90
-16777216
102
RTVSPost2010PropOp51
 70
     0
102
RTVSPost2010Prop52
140
1.0
102
RTVSPost2010PropOp52
 70
     0
102
RTVSPost2010Prop53
 90
        2
102
RTVSPost2010PropOp53
 70
     1
102
RTVSPost2010Prop54
  1
strokes_ogs.tif
102
RTVSPost2010PropOp54
 70
     1
102
RTVSPost2010Prop55
280
     0
102
RTVSPost2010PropOp55
 70
     1
102
RTVSPost2010Prop56
140
1.0
102
RTVSPost2010PropOp56
 70
     1
102
RTVSPost2010Prop57
140
1.0
102
RTVSPost2010PropOp57
 70
     1
102
RTVSPropertyOp0
 70
     1
102
RTVSPropertyOp1
 70
     1
102
RTVSPropertyOp2
 70
     1
102
RTVSPropertyOp3
 70
     1
102
RTVSPropertyOp4
 70
     1
102
RTVSPropertyOp5
 70
     1
102
RTVSPropertyOp6
 70
     1
102
RTVSPropertyOp7
 70
     1
102
RTVSPropertyOp8
 70
     1
102
RTVSPropertyOp9
 70
     1
102
RTVSPropertyOp10
 70
     1
102
RTVSPropertyOp11
 70
     1
102
RTVSPropertyOp12
 70
     1
102
RTVSPropertyOp13
 70
     1
102
RTVSPropertyOp14
 70
     1
102
RTVSPropertyOp15
 70
     1
102
RTVSPropertyOp16
 70
     1
102
RTVSPropertyOp17
 70
     1
102
RTVSPropertyOp18
 70
     1
102
RTVSPropertyOp19
 70
     1
102
RTVSPropertyOp20
 70
     1
102
RTVSPropertyOp21
 70
     1
102
RTVSPropertyOp22
 70
     1
102
RTVSPropertyOp23
 70
     1
102
RTVSPropertyOp24
 70
     1
102
RTVSPropertyOp25
 70
     1
102
RTVSPropertyOp26
 70
     1
102
RTVSPropertyOp27
 70
     1
102
RTVSPropertyOp28
 70
     1
102
RTVSPropertyOp29
 70
     1
102
RTVSPropertyOp30
 70
     1
102
RTVSPropertyOp31
 70
     1
102
RTVSPropertyOp32
 70
     1
102
RTVSPropertyOp33
 70
     1
102
RTVSPropertyOp34
 70
     1
102
RTVSPropertyOp35
 70
     1
102
RTVSPropertyOp36
 70
     1
102
RTVSPropertyOp37
 70
     1
102
RTVSPropertyOp38
 70
     1
102
RTVSPropertyOp39
 70
     1
102
RTVSPropertyOp40
 70
     1
102
RTVSPropertyOp41
 70
     1
102
RTVSPropertyOp42
 70
     1
102
RTVSPropertyOp43
 70
     1
102
RTVSPropertyOp44
 70
     1
102
RTVSPropertyOp45
 70
     1
102
RTVSPropertyOp46
 70
     1
102
RTVSPropertyOp47
 70
     1
102
RTVSPropertyOp48
 70
     1
102
RTVSPropertyOp49
 70
     1
102
RTVSPropertyOp50
 70
     1
102
RTVSPropertyOp51
 70
     0
102
RTVSPropertyOp52
 70
     0
102
RTVSPropertyOp53
 70
     1
102
RTVSPropertyOp54
 70
     1
102
RTVSPropertyOp55
 70
     1
102
RTVSPropertyOp56
 70
     1
102
RTVSPropertyOp57
 70
     1
102
RTVSPropertyOp58
 70
     1
102
RTVSPropertyOp59
 70
     1
102
RTVSPropertyOp60
 70
     1
102
RTVSPropertyOp61
 70
     1
102
RTVSPropertyOp62
 70
     1
  0
XRECORD
  5
806
102
{ACAD_REACTORS
330
805
102
}
330
805
100
AcDbXrecord
280
     1
102
RTVSPost2010Prop28
280
     0
102
RTVSPost2010PropOp28
 70
     1
102
RTVSPost2010Prop29
280
     1
102
RTVSPost2010PropOp29
 70
     1
102
RTVSPost2010Prop30
280
     1
102
RTVSPost2010PropOp30
 70
     1
102
RTVSPost2010Prop31
280
     0
102
RTVSPost2010PropOp31
 70
     1
102
RTVSPost2010Prop32
280
     0
102
RTVSPost2010PropOp32
 70
     1
102
RTVSPost2010Prop33
280
     0
102
RTVSPost2010PropOp33
 70
     1
102
RTVSPost2010Prop34
280
     0
102
RTVSPost2010PropOp34
 70
     1
102
RTVSPost2010Prop35
280
     0
102
RTVSPost2010PropOp35
 70
     1
102
RTVSPost2010Prop36
280
     0
102
RTVSPost2010PropOp36
 70
     1
102
RTVSPost2010Prop37
 90
       50
102
RTVSPost2010PropOp37
 70
     1
102
RTVSPost2010Prop38
140
0.0
102
RTVSPost2010PropOp38
 70
     1
102
RTVSPost2010Prop39
140
1.0
102
RTVSPost2010PropOp39
 70
     1
102
RTVSPost2010Prop40
 90
        0
102
RTVSPost2010PropOp40
 70
     1
102
RTVSPost2010Prop41ColorIndex
 90
       18
102
RTVSPost2010Prop41ColorRGB
 90
        0
102
RTVSPost2010PropOp41
 70
     1
102
RTVSPost2010Prop42
 90
       50
102
RTVSPost2010PropOp42
 70
     1
102
RTVSPost2010Prop43
 90
        3
102
RTVSPost2010PropOp43
 70
     1
102
RTVSPost2010Prop44ColorIndex
 90
        5
102
RTVSPost2010Prop44ColorRGB
 90
      255
102
RTVSPost2010PropOp44
 70
     1
102
RTVSPost2010Prop45
280
     0
102
RTVSPost2010PropOp45
 70
     1
102
RTVSPost2010Prop46
 90
       50
102
RTVSPost2010PropOp46
 70
     1
102
RTVSPost2010Prop47
 90
       50
102
RTVSPost2010PropOp47
 70
     1
102
RTVSPost2010Prop48
 90
       50
102
RTVSPost2010PropOp48
 70
     1
102
RTVSPost2010Prop49
280
     0
102
RTVSPost2010PropOp49
 70
     1
102
RTVSPost2010Prop50
 90
       50
102
RTVSPost2010PropOp50
 70
     1
102
RTVSPost2010Prop51ColorIndex
 90
      256
102
RTVSPost2010Prop51ColorRGB
 90
-16777216
102
RTVSPost2010PropOp51
 70
     0
102
RTVSPost2010Prop52
140
1.0
102
RTVSPost2010PropOp52
 70
     0
102
RTVSPost2010Prop53
 90
        2
102
RTVSPost2010PropOp53
 70
     1
102
RTVSPost2010Prop54
  1
strokes_ogs.tif
102
RTVSPost2010PropOp54
 70
     1
102
RTVSPost2010Prop55
280
     0
102
RTVSPost2010PropOp55
 70
     1
102
RTVSPost2010Prop56
140
1.0
102
RTVSPost2010PropOp56
 70
     1
102
RTVSPost2010Prop57
140
1.0
102
RTVSPost2010PropOp57
 70
     1
102
RTVSPropertyOp0
 70
     1
102
RTVSPropertyOp1
 70
     1
102
RTVSPropertyOp2
 70
     1
102
RTVSPropertyOp3
 70
     1
102
RTVSPropertyOp4
 70
     1
102
RTVSPropertyOp5
 70
     1
102
RTVSPropertyOp6
 70
     1
102
RTVSPropertyOp7
 70
     1
102
RTVSPropertyOp8
 70
     1
102
RTVSPropertyOp9
 70
     1
102
RTVSPropertyOp10
 70
     1
102
RTVSPropertyOp11
 70
     1
102
RTVSPropertyOp12
 70
     1
102
RTVSPropertyOp13
 70
     1
102
RTVSPropertyOp14
 70
     1
102
RTVSPropertyOp15
 70
     1
102
RTVSPropertyOp16
 70
     1
102
RTVSPropertyOp17
 70
     1
102
RTVSPropertyOp18
 70
     1
102
RTVSPropertyOp19
 70
     1
102
RTVSPropertyOp20
 70
     1
102
RTVSPropertyOp21
 70
     1
102
RTVSPropertyOp22
 70
     1
102
RTVSPropertyOp23
 70
     1
102
RTVSPropertyOp24
 70
     1
102
RTVSPropertyOp25
 70
     1
102
RTVSPropertyOp26
 70
     1
102
RTVSPropertyOp27
 70
     1
102
RTVSPropertyOp28
 70
     1
102
RTVSPropertyOp29
 70
     1
102
RTVSPropertyOp30
 70
     1
102
RTVSPropertyOp31
 70
     1
102
RTVSPropertyOp32
 70
     1
102
RTVSPropertyOp33
 70
     1
102
RTVSPropertyOp34
 70
     1
102
RTVSPropertyOp35
 70
     1
102
RTVSPropertyOp36
 70
     1
102
RTVSPropertyOp37
 70
     1
102
RTVSPropertyOp38
 70
     1
102
RTVSPropertyOp39
 70
     1
102
RTVSPropertyOp40
 70
     1
102
RTVSPropertyOp41
 70
     1
102
RTVSPropertyOp42
 70
     1
102
RTVSPropertyOp43
 70
     1
102
RTVSPropertyOp44
 70
     1
102
RTVSPropertyOp45
 70
     1
102
RTVSPropertyOp46
 70
     1
102
RTVSPropertyOp47
 70
     1
102
RTVSPropertyOp48
 70
     1
102
RTVSPropertyOp49
 70
     1
102
RTVSPropertyOp50
 70
     1
102
RTVSPropertyOp51
 70
     0
102
RTVSPropertyOp52
 70
     0
102
RTVSPropertyOp53
 70
     1
102
RTVSPropertyOp54
 70
     1
102
RTVSPropertyOp55
 70
     1
102
RTVSPropertyOp56
 70
     1
102
RTVSPropertyOp57
 70
     1
102
RTVSPropertyOp58
 70
     1
102
RTVSPropertyOp59
 70
     1
102
RTVSPropertyOp60
 70
     1
102
RTVSPropertyOp61
 70
     1
102
RTVSPropertyOp62
 70
     1
  0
XRECORD
  5
820
102
{ACAD_REACTORS
330
81F
102
}
330
81F
100
AcDbXrecord
280
     1
102
RTVSPost2010Prop28
280
     0
102
RTVSPost2010PropOp28
 70
     1
102
RTVSPost2010Prop29
280
     1
102
RTVSPost2010PropOp29
 70
     1
102
RTVSPost2010Prop30
280
     1
102
RTVSPost2010PropOp30
 70
     1
102
RTVSPost2010Prop31
280
     0
102
RTVSPost2010PropOp31
 70
     1
102
RTVSPost2010Prop32
280
     0
102
RTVSPost2010PropOp32
 70
     1
102
RTVSPost2010Prop33
280
     0
102
RTVSPost2010PropOp33
 70
     1
102
RTVSPost2010Prop34
280
     0
102
RTVSPost2010PropOp34
 70
     1
102
RTVSPost2010Prop35
280
     0
102
RTVSPost2010PropOp35
 70
     1
102
RTVSPost2010Prop36
280
     0
102
RTVSPost2010PropOp36
 70
     1
102
RTVSPost2010Prop37
 90
       50
102
RTVSPost2010PropOp37
 70
     0
102
RTVSPost2010Prop38
140
0.0
102
RTVSPost2010PropOp38
 70
     0
102
RTVSPost2010Prop39
140
1.0
102
RTVSPost2010PropOp39
 70
     0
102
RTVSPost2010Prop40
 90
        0
102
RTVSPost2010PropOp40
 70
     0
102
RTVSPost2010Prop41ColorIndex
 90
       18
102
RTVSPost2010Prop41ColorRGB
 90
        0
102
RTVSPost2010PropOp41
 70
     0
102
RTVSPost2010Prop42
 90
       50
102
RTVSPost2010PropOp42
 70
     0
102
RTVSPost2010Prop43
 90
        3
102
RTVSPost2010PropOp43
 70
     0
102
RTVSPost2010Prop44ColorIndex
 90
        5
102
RTVSPost2010Prop44ColorRGB
 90
      255
102
RTVSPost2010PropOp44
 70
     0
102
RTVSPost2010Prop45
280
     0
102
RTVSPost2010PropOp45
 70
     1
102
RTVSPost2010Prop46
 90
       50
102
RTVSPost2010PropOp46
 70
     0
102
RTVSPost2010Prop47
 90
       50
102
RTVSPost2010PropOp47
 70
     0
102
RTVSPost2010Prop48
 90
       50
102
RTVSPost2010PropOp48
 70
     0
102
RTVSPost2010Prop49
280
     0
102
RTVSPost2010PropOp49
 70
     1
102
RTVSPost2010Prop50
 90
       50
102
RTVSPost2010PropOp50
 70
     0
102
RTVSPost2010Prop51ColorIndex
 90
      256
102
RTVSPost2010Prop51ColorRGB
 90
-16777216
102
RTVSPost2010PropOp51
 70
     0
102
RTVSPost2010Prop52
140
1.0
102
RTVSPost2010PropOp52
 70
     0
102
RTVSPost2010Prop53
 90
        2
102
RTVSPost2010PropOp53
 70
     0
102
RTVSPost2010Prop54
  1
strokes_ogs.tif
102
RTVSPost2010PropOp54
 70
     0
102
RTVSPost2010Prop55
280
     0
102
RTVSPost2010PropOp55
 70
     1
102
RTVSPost2010Prop56
140
1.0
102
RTVSPost2010PropOp56
 70
     0
102
RTVSPost2010Prop57
140
1.0
102
RTVSPost2010PropOp57
 70
     0
102
RTVSPropertyOp0
 70
     0
102
RTVSPropertyOp1
 70
     0
102
RTVSPropertyOp2
 70
     0
102
RTVSPropertyOp3
 70
     0
102
RTVSPropertyOp4
 70
     0
102
RTVSPropertyOp5
 70
     0
102
RTVSPropertyOp6
 70
     0
102
RTVSPropertyOp7
 70
     0
102
RTVSPropertyOp8
 70
     0
102
RTVSPropertyOp9
 70
     0
102
RTVSPropertyOp10
 70
     0
102
RTVSPropertyOp11
 70
     0
102
RTVSPropertyOp12
 70
     0
102
RTVSPropertyOp13
 70
     0
102
RTVSPropertyOp14
 70
     2
102
RTVSPropertyOp15
 70
     0
102
RTVSPropertyOp16
 70
     0
102
RTVSPropertyOp17
 70
     0
102
RTVSPropertyOp18
 70
     0
102
RTVSPropertyOp19
 70
     0
102
RTVSPropertyOp20
 70
     0
102
RTVSPropertyOp21
 70
     0
102
RTVSPropertyOp22
 70
     0
102
RTVSPropertyOp23
 70
     0
102
RTVSPropertyOp24
 70
     0
102
RTVSPropertyOp25
 70
     0
102
RTVSPropertyOp26
 70
     0
102
RTVSPropertyOp27
 70
     0
102
RTVSPropertyOp28
 70
     1
102
RTVSPropertyOp29
 70
     1
102
RTVSPropertyOp30
 70
     1
102
RTVSPropertyOp31
 70
     1
102
RTVSPropertyOp32
 70
     1
102
RTVSPropertyOp33
 70
     1
102
RTVSPropertyOp34
 70
     1
102
RTVSPropertyOp35
 70
     1
102
RTVSPropertyOp36
 70
     1
102
RTVSPropertyOp37
 70
     0
102
RTVSPropertyOp38
 70
     0
102
RTVSPropertyOp39
 70
     0
102
RTVSPropertyOp40
 70
     0
102
RTVSPropertyOp41
 70
     0
102
RTVSPropertyOp42
 70
     0
102
RTVSPropertyOp43
 70
     0
102
RTVSPropertyOp44
 70
     0
102
RTVSPropertyOp45
 70
     1
102
RTVSPropertyOp46
 70
     0
102
RTVSPropertyOp47
 70
     0
102
RTVSPropertyOp48
 70
     0
102
RTVSPropertyOp49
 70
     1
102
RTVSPropertyOp50
 70
     0
102
RTVSPropertyOp51
 70
     0
102
RTVSPropertyOp52
 70
     0
102
RTVSPropertyOp53
 70
     0
102
RTVSPropertyOp54
 70
     0
102
RTVSPropertyOp55
 70
     1
102
RTVSPropertyOp56
 70
     0
102
RTVSPropertyOp57
 70
     0
102
RTVSPropertyOp58
 70
     0
102
RTVSPropertyOp59
 70
     0
102
RTVSPropertyOp60
 70
     0
102
RTVSPropertyOp61
 70
     0
102
RTVSPropertyOp62
 70
     0
  0
XRECORD
  5
80E
102
{ACAD_REACTORS
330
80D
102
}
330
80D
100
AcDbXrecord
280
     1
102
RTVSPost2010Prop28
280
     0
102
RTVSPost2010PropOp28
 70
     1
102
RTVSPost2010Prop29
280
     1
102
RTVSPost2010PropOp29
 70
     1
102
RTVSPost2010Prop30
280
     1
102
RTVSPost2010PropOp30
 70
     1
102
RTVSPost2010Prop31
280
     0
102
RTVSPost2010PropOp31
 70
     1
102
RTVSPost2010Prop32
280
     0
102
RTVSPost2010PropOp32
 70
     1
102
RTVSPost2010Prop33
280
     0
102
RTVSPost2010PropOp33
 70
     1
102
RTVSPost2010Prop34
280
     0
102
RTVSPost2010PropOp34
 70
     1
102
RTVSPost2010Prop35
280
     0
102
RTVSPost2010PropOp35
 70
     1
102
RTVSPost2010Prop36
280
     0
102
RTVSPost2010PropOp36
 70
     1
102
RTVSPost2010Prop37
 90
       50
102
RTVSPost2010PropOp37
 70
     1
102
RTVSPost2010Prop38
140
0.0
102
RTVSPost2010PropOp38
 70
     1
102
RTVSPost2010Prop39
140
1.0
102
RTVSPost2010PropOp39
 70
     1
102
RTVSPost2010Prop40
 90
        0
102
RTVSPost2010PropOp40
 70
     1
102
RTVSPost2010Prop41ColorIndex
 90
       18
102
RTVSPost2010Prop41ColorRGB
 90
        0
102
RTVSPost2010PropOp41
 70
     1
102
RTVSPost2010Prop42
 90
       50
102
RTVSPost2010PropOp42
 70
     1
102
RTVSPost2010Prop43
 90
        3
102
RTVSPost2010PropOp43
 70
     1
102
RTVSPost2010Prop44ColorIndex
 90
        5
102
RTVSPost2010Prop44ColorRGB
 90
      255
102
RTVSPost2010PropOp44
 70
     1
102
RTVSPost2010Prop45
280
     0
102
RTVSPost2010PropOp45
 70
     1
102
RTVSPost2010Prop46
 90
       50
102
RTVSPost2010PropOp46
 70
     1
102
RTVSPost2010Prop47
 90
       50
102
RTVSPost2010PropOp47
 70
     1
102
RTVSPost2010Prop48
 90
       50
102
RTVSPost2010PropOp48
 70
     1
102
RTVSPost2010Prop49
280
     0
102
RTVSPost2010PropOp49
 70
     1
102
RTVSPost2010Prop50
 90
       50
102
RTVSPost2010PropOp50
 70
     1
102
RTVSPost2010Prop51ColorIndex
 90
      256
102
RTVSPost2010Prop51ColorRGB
 90
-16777216
102
RTVSPost2010PropOp51
 70
     0
102
RTVSPost2010Prop52
140
1.0
102
RTVSPost2010PropOp52
 70
     0
102
RTVSPost2010Prop53
 90
        2
102
RTVSPost2010PropOp53
 70
     1
102
RTVSPost2010Prop54
  1
strokes_ogs.tif
102
RTVSPost2010PropOp54
 70
     1
102
RTVSPost2010Prop55
280
     0
102
RTVSPost2010PropOp55
 70
     1
102
RTVSPost2010Prop56
140
1.0
102
RTVSPost2010PropOp56
 70
     1
102
RTVSPost2010Prop57
140
1.0
102
RTVSPost2010PropOp57
 70
     1
102
RTVSPropertyOp0
 70
     1
102
RTVSPropertyOp1
 70
     1
102
RTVSPropertyOp2
 70
     1
102
RTVSPropertyOp3
 70
     1
102
RTVSPropertyOp4
 70
     1
102
RTVSPropertyOp5
 70
     1
102
RTVSPropertyOp6
 70
     1
102
RTVSPropertyOp7
 70
     1
102
RTVSPropertyOp8
 70
     1
102
RTVSPropertyOp9
 70
     1
102
RTVSPropertyOp10
 70
     1
102
RTVSPropertyOp11
 70
     1
102
RTVSPropertyOp12
 70
     1
102
RTVSPropertyOp13
 70
     1
102
RTVSPropertyOp14
 70
     1
102
RTVSPropertyOp15
 70
     1
102
RTVSPropertyOp16
 70
     1
102
RTVSPropertyOp17
 70
     1
102
RTVSPropertyOp18
 70
     1
102
RTVSPropertyOp19
 70
     1
102
RTVSPropertyOp20
 70
     1
102
RTVSPropertyOp21
 70
     1
102
RTVSPropertyOp22
 70
     1
102
RTVSPropertyOp23
 70
     1
102
RTVSPropertyOp24
 70
     1
102
RTVSPropertyOp25
 70
     1
102
RTVSPropertyOp26
 70
     1
102
RTVSPropertyOp27
 70
     1
102
RTVSPropertyOp28
 70
     1
102
RTVSPropertyOp29
 70
     1
102
RTVSPropertyOp30
 70
     1
102
RTVSPropertyOp31
 70
     1
102
RTVSPropertyOp32
 70
     1
102
RTVSPropertyOp33
 70
     1
102
RTVSPropertyOp34
 70
     1
102
RTVSPropertyOp35
 70
     1
102
RTVSPropertyOp36
 70
     1
102
RTVSPropertyOp37
 70
     1
102
RTVSPropertyOp38
 70
     1
102
RTVSPropertyOp39
 70
     1
102
RTVSPropertyOp40
 70
     1
102
RTVSPropertyOp41
 70
     1
102
RTVSPropertyOp42
 70
     1
102
RTVSPropertyOp43
 70
     1
102
RTVSPropertyOp44
 70
     1
102
RTVSPropertyOp45
 70
     1
102
RTVSPropertyOp46
 70
     1
102
RTVSPropertyOp47
 70
     1
102
RTVSPropertyOp48
 70
     1
102
RTVSPropertyOp49
 70
     1
102
RTVSPropertyOp50
 70
     1
102
RTVSPropertyOp51
 70
     0
102
RTVSPropertyOp52
 70
     0
102
RTVSPropertyOp53
 70
     1
102
RTVSPropertyOp54
 70
     1
102
RTVSPropertyOp55
 70
     1
102
RTVSPropertyOp56
 70
     1
102
RTVSPropertyOp57
 70
     1
102
RTVSPropertyOp58
 70
     1
102
RTVSPropertyOp59
 70
     1
102
RTVSPropertyOp60
 70
     1
102
RTVSPropertyOp61
 70
     1
102
RTVSPropertyOp62
 70
     1
  0
XRECORD
  5
7F2
102
{ACAD_REACTORS
330
7F1
102
}
330
7F1
100
AcDbXrecord
280
     1
102
RTVSPost2010Prop28
280
     0
102
RTVSPost2010PropOp28
 70
     1
102
RTVSPost2010Prop29
280
     1
102
RTVSPost2010PropOp29
 70
     1
102
RTVSPost2010Prop30
280
     1
102
RTVSPost2010PropOp30
 70
     1
102
RTVSPost2010Prop31
280
     0
102
RTVSPost2010PropOp31
 70
     1
102
RTVSPost2010Prop32
280
     0
102
RTVSPost2010PropOp32
 70
     1
102
RTVSPost2010Prop33
280
     0
102
RTVSPost2010PropOp33
 70
     1
102
RTVSPost2010Prop34
280
     0
102
RTVSPost2010PropOp34
 70
     1
102
RTVSPost2010Prop35
280
     0
102
RTVSPost2010PropOp35
 70
     1
102
RTVSPost2010Prop36
280
     0
102
RTVSPost2010PropOp36
 70
     1
102
RTVSPost2010Prop37
 90
       50
102
RTVSPost2010PropOp37
 70
     1
102
RTVSPost2010Prop38
140
0.0
102
RTVSPost2010PropOp38
 70
     1
102
RTVSPost2010Prop39
140
1.0
102
RTVSPost2010PropOp39
 70
     1
102
RTVSPost2010Prop40
 90
        0
102
RTVSPost2010PropOp40
 70
     1
102
RTVSPost2010Prop41ColorIndex
 90
       18
102
RTVSPost2010Prop41ColorRGB
 90
        0
102
RTVSPost2010PropOp41
 70
     1
102
RTVSPost2010Prop42
 90
       50
102
RTVSPost2010PropOp42
 70
     1
102
RTVSPost2010Prop43
 90
        3
102
RTVSPost2010PropOp43
 70
     1
102
RTVSPost2010Prop44ColorIndex
 90
        5
102
RTVSPost2010Prop44ColorRGB
 90
      255
102
RTVSPost2010PropOp44
 70
     1
102
RTVSPost2010Prop45
280
     0
102
RTVSPost2010PropOp45
 70
     1
102
RTVSPost2010Prop46
 90
       50
102
RTVSPost2010PropOp46
 70
     1
102
RTVSPost2010Prop47
 90
       50
102
RTVSPost2010PropOp47
 70
     1
102
RTVSPost2010Prop48
 90
       50
102
RTVSPost2010PropOp48
 70
     1
102
RTVSPost2010Prop49
280
     0
102
RTVSPost2010PropOp49
 70
     1
102
RTVSPost2010Prop50
 90
       50
102
RTVSPost2010PropOp50
 70
     1
102
RTVSPost2010Prop51ColorIndex
 90
      256
102
RTVSPost2010Prop51ColorRGB
 90
-16777216
102
RTVSPost2010PropOp51
 70
     0
102
RTVSPost2010Prop52
140
1.0
102
RTVSPost2010PropOp52
 70
     0
102
RTVSPost2010Prop53
 90
        2
102
RTVSPost2010PropOp53
 70
     1
102
RTVSPost2010Prop54
  1
strokes_ogs.tif
102
RTVSPost2010PropOp54
 70
     1
102
RTVSPost2010Prop55
280
     0
102
RTVSPost2010PropOp55
 70
     1
102
RTVSPost2010Prop56
140
1.0
102
RTVSPost2010PropOp56
 70
     1
102
RTVSPost2010Prop57
140
1.0
102
RTVSPost2010PropOp57
 70
     1
102
RTVSPropertyOp0
 70
     1
102
RTVSPropertyOp1
 70
     1
102
RTVSPropertyOp2
 70
     1
102
RTVSPropertyOp3
 70
     1
102
RTVSPropertyOp4
 70
     1
102
RTVSPropertyOp5
 70
     1
102
RTVSPropertyOp6
 70
     1
102
RTVSPropertyOp7
 70
     1
102
RTVSPropertyOp8
 70
     1
102
RTVSPropertyOp9
 70
     1
102
RTVSPropertyOp10
 70
     1
102
RTVSPropertyOp11
 70
     1
102
RTVSPropertyOp12
 70
     1
102
RTVSPropertyOp13
 70
     1
102
RTVSPropertyOp14
 70
     1
102
RTVSPropertyOp15
 70
     1
102
RTVSPropertyOp16
 70
     1
102
RTVSPropertyOp17
 70
     1
102
RTVSPropertyOp18
 70
     1
102
RTVSPropertyOp19
 70
     1
102
RTVSPropertyOp20
 70
     1
102
RTVSPropertyOp21
 70
     1
102
RTVSPropertyOp22
 70
     1
102
RTVSPropertyOp23
 70
     1
102
RTVSPropertyOp24
 70
     1
102
RTVSPropertyOp25
 70
     1
102
RTVSPropertyOp26
 70
     1
102
RTVSPropertyOp27
 70
     1
102
RTVSPropertyOp28
 70
     1
102
RTVSPropertyOp29
 70
     1
102
RTVSPropertyOp30
 70
     1
102
RTVSPropertyOp31
 70
     1
102
RTVSPropertyOp32
 70
     1
102
RTVSPropertyOp33
 70
     1
102
RTVSPropertyOp34
 70
     1
102
RTVSPropertyOp35
 70
     1
102
RTVSPropertyOp36
 70
     1
102
RTVSPropertyOp37
 70
     1
102
RTVSPropertyOp38
 70
     1
102
RTVSPropertyOp39
 70
     1
102
RTVSPropertyOp40
 70
     1
102
RTVSPropertyOp41
 70
     1
102
RTVSPropertyOp42
 70
     1
102
RTVSPropertyOp43
 70
     1
102
RTVSPropertyOp44
 70
     1
102
RTVSPropertyOp45
 70
     1
102
RTVSPropertyOp46
 70
     1
102
RTVSPropertyOp47
 70
     1
102
RTVSPropertyOp48
 70
     1
102
RTVSPropertyOp49
 70
     1
102
RTVSPropertyOp50
 70
     1
102
RTVSPropertyOp51
 70
     0
102
RTVSPropertyOp52
 70
     0
102
RTVSPropertyOp53
 70
     1
102
RTVSPropertyOp54
 70
     1
102
RTVSPropertyOp55
 70
     1
102
RTVSPropertyOp56
 70
     1
102
RTVSPropertyOp57
 70
     1
102
RTVSPropertyOp58
 70
     1
102
RTVSPropertyOp59
 70
     1
102
RTVSPropertyOp60
 70
     1
102
RTVSPropertyOp61
 70
     1
102
RTVSPropertyOp62
 70
     1
  0
XRECORD
  5
7F4
102
{ACAD_REACTORS
330
7F3
102
}
330
7F3
100
AcDbXrecord
280
     1
102
RTVSPost2010Prop28
280
     0
102
RTVSPost2010PropOp28
 70
     1
102
RTVSPost2010Prop29
280
     1
102
RTVSPost2010PropOp29
 70
     1
102
RTVSPost2010Prop30
280
     1
102
RTVSPost2010PropOp30
 70
     1
102
RTVSPost2010Prop31
280
     0
102
RTVSPost2010PropOp31
 70
     1
102
RTVSPost2010Prop32
280
     0
102
RTVSPost2010PropOp32
 70
     1
102
RTVSPost2010Prop33
280
     0
102
RTVSPost2010PropOp33
 70
     1
102
RTVSPost2010Prop34
280
     0
102
RTVSPost2010PropOp34
 70
     1
102
RTVSPost2010Prop35
280
     0
102
RTVSPost2010PropOp35
 70
     1
102
RTVSPost2010Prop36
280
     0
102
RTVSPost2010PropOp36
 70
     1
102
RTVSPost2010Prop37
 90
       50
102
RTVSPost2010PropOp37
 70
     1
102
RTVSPost2010Prop38
140
0.0
102
RTVSPost2010PropOp38
 70
     1
102
RTVSPost2010Prop39
140
1.0
102
RTVSPost2010PropOp39
 70
     1
102
RTVSPost2010Prop40
 90
        0
102
RTVSPost2010PropOp40
 70
     1
102
RTVSPost2010Prop41ColorIndex
 90
       18
102
RTVSPost2010Prop41ColorRGB
 90
        0
102
RTVSPost2010PropOp41
 70
     1
102
RTVSPost2010Prop42
 90
       50
102
RTVSPost2010PropOp42
 70
     1
102
RTVSPost2010Prop43
 90
        3
102
RTVSPost2010PropOp43
 70
     1
102
RTVSPost2010Prop44ColorIndex
 90
        5
102
RTVSPost2010Prop44ColorRGB
 90
      255
102
RTVSPost2010PropOp44
 70
     1
102
RTVSPost2010Prop45
280
     0
102
RTVSPost2010PropOp45
 70
     1
102
RTVSPost2010Prop46
 90
       50
102
RTVSPost2010PropOp46
 70
     1
102
RTVSPost2010Prop47
 90
       50
102
RTVSPost2010PropOp47
 70
     1
102
RTVSPost2010Prop48
 90
       50
102
RTVSPost2010PropOp48
 70
     1
102
RTVSPost2010Prop49
280
     0
102
RTVSPost2010PropOp49
 70
     1
102
RTVSPost2010Prop50
 90
       50
102
RTVSPost2010PropOp50
 70
     1
102
RTVSPost2010Prop51ColorIndex
 90
      256
102
RTVSPost2010Prop51ColorRGB
 90
-16777216
102
RTVSPost2010PropOp51
 70
     0
102
RTVSPost2010Prop52
140
1.0
102
RTVSPost2010PropOp52
 70
     0
102
RTVSPost2010Prop53
 90
        2
102
RTVSPost2010PropOp53
 70
     1
102
RTVSPost2010Prop54
  1
strokes_ogs.tif
102
RTVSPost2010PropOp54
 70
     1
102
RTVSPost2010Prop55
280
     0
102
RTVSPost2010PropOp55
 70
     1
102
RTVSPost2010Prop56
140
1.0
102
RTVSPost2010PropOp56
 70
     1
102
RTVSPost2010Prop57
140
1.0
102
RTVSPost2010PropOp57
 70
     1
102
RTVSPropertyOp0
 70
     1
102
RTVSPropertyOp1
 70
     1
102
RTVSPropertyOp2
 70
     1
102
RTVSPropertyOp3
 70
     1
102
RTVSPropertyOp4
 70
     1
102
RTVSPropertyOp5
 70
     1
102
RTVSPropertyOp6
 70
     1
102
RTVSPropertyOp7
 70
     1
102
RTVSPropertyOp8
 70
     1
102
RTVSPropertyOp9
 70
     1
102
RTVSPropertyOp10
 70
     1
102
RTVSPropertyOp11
 70
     1
102
RTVSPropertyOp12
 70
     1
102
RTVSPropertyOp13
 70
     1
102
RTVSPropertyOp14
 70
     1
102
RTVSPropertyOp15
 70
     1
102
RTVSPropertyOp16
 70
     1
102
RTVSPropertyOp17
 70
     1
102
RTVSPropertyOp18
 70
     1
102
RTVSPropertyOp19
 70
     1
102
RTVSPropertyOp20
 70
     1
102
RTVSPropertyOp21
 70
     1
102
RTVSPropertyOp22
 70
     1
102
RTVSPropertyOp23
 70
     1
102
RTVSPropertyOp24
 70
     1
102
RTVSPropertyOp25
 70
     1
102
RTVSPropertyOp26
 70
     1
102
RTVSPropertyOp27
 70
     1
102
RTVSPropertyOp28
 70
     1
102
RTVSPropertyOp29
 70
     1
102
RTVSPropertyOp30
 70
     1
102
RTVSPropertyOp31
 70
     1
102
RTVSPropertyOp32
 70
     1
102
RTVSPropertyOp33
 70
     1
102
RTVSPropertyOp34
 70
     1
102
RTVSPropertyOp35
 70
     1
102
RTVSPropertyOp36
 70
     1
102
RTVSPropertyOp37
 70
     1
102
RTVSPropertyOp38
 70
     1
102
RTVSPropertyOp39
 70
     1
102
RTVSPropertyOp40
 70
     1
102
RTVSPropertyOp41
 70
     1
102
RTVSPropertyOp42
 70
     1
102
RTVSPropertyOp43
 70
     1
102
RTVSPropertyOp44
 70
     1
102
RTVSPropertyOp45
 70
     1
102
RTVSPropertyOp46
 70
     1
102
RTVSPropertyOp47
 70
     1
102
RTVSPropertyOp48
 70
     1
102
RTVSPropertyOp49
 70
     1
102
RTVSPropertyOp50
 70
     1
102
RTVSPropertyOp51
 70
     0
102
RTVSPropertyOp52
 70
     0
102
RTVSPropertyOp53
 70
     1
102
RTVSPropertyOp54
 70
     1
102
RTVSPropertyOp55
 70
     1
102
RTVSPropertyOp56
 70
     1
102
RTVSPropertyOp57
 70
     1
102
RTVSPropertyOp58
 70
     1
102
RTVSPropertyOp59
 70
     1
102
RTVSPropertyOp60
 70
     1
102
RTVSPropertyOp61
 70
     1
102
RTVSPropertyOp62
 70
     1
  0
XRECORD
  5
7F6
102
{ACAD_REACTORS
330
7F5
102
}
330
7F5
100
AcDbXrecord
280
     1
102
RTVSPost2010Prop28
280
     0
102
RTVSPost2010PropOp28
 70
     1
102
RTVSPost2010Prop29
280
     1
102
RTVSPost2010PropOp29
 70
     1
102
RTVSPost2010Prop30
280
     1
102
RTVSPost2010PropOp30
 70
     1
102
RTVSPost2010Prop31
280
     0
102
RTVSPost2010PropOp31
 70
     1
102
RTVSPost2010Prop32
280
     0
102
RTVSPost2010PropOp32
 70
     1
102
RTVSPost2010Prop33
280
     0
102
RTVSPost2010PropOp33
 70
     1
102
RTVSPost2010Prop34
280
     0
102
RTVSPost2010PropOp34
 70
     1
102
RTVSPost2010Prop35
280
     0
102
RTVSPost2010PropOp35
 70
     1
102
RTVSPost2010Prop36
280
     0
102
RTVSPost2010PropOp36
 70
     1
102
RTVSPost2010Prop37
 90
       50
102
RTVSPost2010PropOp37
 70
     1
102
RTVSPost2010Prop38
140
0.0
102
RTVSPost2010PropOp38
 70
     1
102
RTVSPost2010Prop39
140
1.0
102
RTVSPost2010PropOp39
 70
     1
102
RTVSPost2010Prop40
 90
        0
102
RTVSPost2010PropOp40
 70
     1
102
RTVSPost2010Prop41ColorIndex
 90
       18
102
RTVSPost2010Prop41ColorRGB
 90
        0
102
RTVSPost2010PropOp41
 70
     1
102
RTVSPost2010Prop42
 90
       50
102
RTVSPost2010PropOp42
 70
     1
102
RTVSPost2010Prop43
 90
        3
102
RTVSPost2010PropOp43
 70
     1
102
RTVSPost2010Prop44ColorIndex
 90
        5
102
RTVSPost2010Prop44ColorRGB
 90
      255
102
RTVSPost2010PropOp44
 70
     1
102
RTVSPost2010Prop45
280
     0
102
RTVSPost2010PropOp45
 70
     1
102
RTVSPost2010Prop46
 90
       50
102
RTVSPost2010PropOp46
 70
     1
102
RTVSPost2010Prop47
 90
       50
102
RTVSPost2010PropOp47
 70
     1
102
RTVSPost2010Prop48
 90
       50
102
RTVSPost2010PropOp48
 70
     1
102
RTVSPost2010Prop49
280
     0
102
RTVSPost2010PropOp49
 70
     1
102
RTVSPost2010Prop50
 90
       50
102
RTVSPost2010PropOp50
 70
     1
102
RTVSPost2010Prop51ColorIndex
 90
      256
102
RTVSPost2010Prop51ColorRGB
 90
-16777216
102
RTVSPost2010PropOp51
 70
     0
102
RTVSPost2010Prop52
140
1.0
102
RTVSPost2010PropOp52
 70
     0
102
RTVSPost2010Prop53
 90
        2
102
RTVSPost2010PropOp53
 70
     1
102
RTVSPost2010Prop54
  1
strokes_ogs.tif
102
RTVSPost2010PropOp54
 70
     1
102
RTVSPost2010Prop55
280
     0
102
RTVSPost2010PropOp55
 70
     1
102
RTVSPost2010Prop56
140
1.0
102
RTVSPost2010PropOp56
 70
     1
102
RTVSPost2010Prop57
140
1.0
102
RTVSPost2010PropOp57
 70
     1
102
RTVSPropertyOp0
 70
     1
102
RTVSPropertyOp1
 70
     1
102
RTVSPropertyOp2
 70
     1
102
RTVSPropertyOp3
 70
     1
102
RTVSPropertyOp4
 70
     1
102
RTVSPropertyOp5
 70
     1
102
RTVSPropertyOp6
 70
     1
102
RTVSPropertyOp7
 70
     1
102
RTVSPropertyOp8
 70
     1
102
RTVSPropertyOp9
 70
     1
102
RTVSPropertyOp10
 70
     1
102
RTVSPropertyOp11
 70
     1
102
RTVSPropertyOp12
 70
     1
102
RTVSPropertyOp13
 70
     1
102
RTVSPropertyOp14
 70
     1
102
RTVSPropertyOp15
 70
     1
102
RTVSPropertyOp16
 70
     1
102
RTVSPropertyOp17
 70
     1
102
RTVSPropertyOp18
 70
     1
102
RTVSPropertyOp19
 70
     1
102
RTVSPropertyOp20
 70
     1
102
RTVSPropertyOp21
 70
     1
102
RTVSPropertyOp22
 70
     1
102
RTVSPropertyOp23
 70
     1
102
RTVSPropertyOp24
 70
     1
102
RTVSPropertyOp25
 70
     1
102
RTVSPropertyOp26
 70
     1
102
RTVSPropertyOp27
 70
     1
102
RTVSPropertyOp28
 70
     1
102
RTVSPropertyOp29
 70
     1
102
RTVSPropertyOp30
 70
     1
102
RTVSPropertyOp31
 70
     1
102
RTVSPropertyOp32
 70
     1
102
RTVSPropertyOp33
 70
     1
102
RTVSPropertyOp34
 70
     1
102
RTVSPropertyOp35
 70
     1
102
RTVSPropertyOp36
 70
     1
102
RTVSPropertyOp37
 70
     1
102
RTVSPropertyOp38
 70
     1
102
RTVSPropertyOp39
 70
     1
102
RTVSPropertyOp40
 70
     1
102
RTVSPropertyOp41
 70
     1
102
RTVSPropertyOp42
 70
     1
102
RTVSPropertyOp43
 70
     1
102
RTVSPropertyOp44
 70
     1
102
RTVSPropertyOp45
 70
     1
102
RTVSPropertyOp46
 70
     1
102
RTVSPropertyOp47
 70
     1
102
RTVSPropertyOp48
 70
     1
102
RTVSPropertyOp49
 70
     1
102
RTVSPropertyOp50
 70
     1
102
RTVSPropertyOp51
 70
     0
102
RTVSPropertyOp52
 70
     0
102
RTVSPropertyOp53
 70
     1
102
RTVSPropertyOp54
 70
     1
102
RTVSPropertyOp55
 70
     1
102
RTVSPropertyOp56
 70
     1
102
RTVSPropertyOp57
 70
     1
102
RTVSPropertyOp58
 70
     1
102
RTVSPropertyOp59
 70
     1
102
RTVSPropertyOp60
 70
     1
102
RTVSPropertyOp61
 70
     1
102
RTVSPropertyOp62
 70
     1
  0
XRECORD
  5
7F8
102
{ACAD_REACTORS
330
7F7
102
}
330
7F7
100
AcDbXrecord
280
     1
102
RTVSPost2010Prop28
280
     0
102
RTVSPost2010PropOp28
 70
     1
102
RTVSPost2010Prop29
280
     1
102
RTVSPost2010PropOp29
 70
     1
102
RTVSPost2010Prop30
280
     1
102
RTVSPost2010PropOp30
 70
     1
102
RTVSPost2010Prop31
280
     0
102
RTVSPost2010PropOp31
 70
     1
102
RTVSPost2010Prop32
280
     0
102
RTVSPost2010PropOp32
 70
     1
102
RTVSPost2010Prop33
280
     0
102
RTVSPost2010PropOp33
 70
     1
102
RTVSPost2010Prop34
280
     0
102
RTVSPost2010PropOp34
 70
     1
102
RTVSPost2010Prop35
280
     0
102
RTVSPost2010PropOp35
 70
     1
102
RTVSPost2010Prop36
280
     0
102
RTVSPost2010PropOp36
 70
     1
102
RTVSPost2010Prop37
 90
       50
102
RTVSPost2010PropOp37
 70
     1
102
RTVSPost2010Prop38
140
0.0
102
RTVSPost2010PropOp38
 70
     1
102
RTVSPost2010Prop39
140
1.0
102
RTVSPost2010PropOp39
 70
     1
102
RTVSPost2010Prop40
 90
        0
102
RTVSPost2010PropOp40
 70
     1
102
RTVSPost2010Prop41ColorIndex
 90
       18
102
RTVSPost2010Prop41ColorRGB
 90
        0
102
RTVSPost2010PropOp41
 70
     1
102
RTVSPost2010Prop42
 90
       50
102
RTVSPost2010PropOp42
 70
     1
102
RTVSPost2010Prop43
 90
        3
102
RTVSPost2010PropOp43
 70
     1
102
RTVSPost2010Prop44ColorIndex
 90
        5
102
RTVSPost2010Prop44ColorRGB
 90
      255
102
RTVSPost2010PropOp44
 70
     1
102
RTVSPost2010Prop45
280
     0
102
RTVSPost2010PropOp45
 70
     1
102
RTVSPost2010Prop46
 90
       50
102
RTVSPost2010PropOp46
 70
     1
102
RTVSPost2010Prop47
 90
       50
102
RTVSPost2010PropOp47
 70
     1
102
RTVSPost2010Prop48
 90
       50
102
RTVSPost2010PropOp48
 70
     1
102
RTVSPost2010Prop49
280
     0
102
RTVSPost2010PropOp49
 70
     1
102
RTVSPost2010Prop50
 90
       50
102
RTVSPost2010PropOp50
 70
     1
102
RTVSPost2010Prop51ColorIndex
 90
      256
102
RTVSPost2010Prop51ColorRGB
 90
-16777216
102
RTVSPost2010PropOp51
 70
     0
102
RTVSPost2010Prop52
140
1.0
102
RTVSPost2010PropOp52
 70
     0
102
RTVSPost2010Prop53
 90
        2
102
RTVSPost2010PropOp53
 70
     1
102
RTVSPost2010Prop54
  1
strokes_ogs.tif
102
RTVSPost2010PropOp54
 70
     1
102
RTVSPost2010Prop55
280
     0
102
RTVSPost2010PropOp55
 70
     1
102
RTVSPost2010Prop56
140
1.0
102
RTVSPost2010PropOp56
 70
     1
102
RTVSPost2010Prop57
140
1.0
102
RTVSPost2010PropOp57
 70
     1
102
RTVSPropertyOp0
 70
     1
102
RTVSPropertyOp1
 70
     1
102
RTVSPropertyOp2
 70
     1
102
RTVSPropertyOp3
 70
     1
102
RTVSPropertyOp4
 70
     1
102
RTVSPropertyOp5
 70
     1
102
RTVSPropertyOp6
 70
     1
102
RTVSPropertyOp7
 70
     1
102
RTVSPropertyOp8
 70
     1
102
RTVSPropertyOp9
 70
     1
102
RTVSPropertyOp10
 70
     1
102
RTVSPropertyOp11
 70
     1
102
RTVSPropertyOp12
 70
     1
102
RTVSPropertyOp13
 70
     1
102
RTVSPropertyOp14
 70
     1
102
RTVSPropertyOp15
 70
     1
102
RTVSPropertyOp16
 70
     1
102
RTVSPropertyOp17
 70
     1
102
RTVSPropertyOp18
 70
     1
102
RTVSPropertyOp19
 70
     1
102
RTVSPropertyOp20
 70
     1
102
RTVSPropertyOp21
 70
     1
102
RTVSPropertyOp22
 70
     1
102
RTVSPropertyOp23
 70
     1
102
RTVSPropertyOp24
 70
     1
102
RTVSPropertyOp25
 70
     1
102
RTVSPropertyOp26
 70
     1
102
RTVSPropertyOp27
 70
     1
102
RTVSPropertyOp28
 70
     1
102
RTVSPropertyOp29
 70
     1
102
RTVSPropertyOp30
 70
     1
102
RTVSPropertyOp31
 70
     1
102
RTVSPropertyOp32
 70
     1
102
RTVSPropertyOp33
 70
     1
102
RTVSPropertyOp34
 70
     1
102
RTVSPropertyOp35
 70
     1
102
RTVSPropertyOp36
 70
     1
102
RTVSPropertyOp37
 70
     1
102
RTVSPropertyOp38
 70
     1
102
RTVSPropertyOp39
 70
     1
102
RTVSPropertyOp40
 70
     1
102
RTVSPropertyOp41
 70
     1
102
RTVSPropertyOp42
 70
     1
102
RTVSPropertyOp43
 70
     1
102
RTVSPropertyOp44
 70
     1
102
RTVSPropertyOp45
 70
     1
102
RTVSPropertyOp46
 70
     1
102
RTVSPropertyOp47
 70
     1
102
RTVSPropertyOp48
 70
     1
102
RTVSPropertyOp49
 70
     1
102
RTVSPropertyOp50
 70
     1
102
RTVSPropertyOp51
 70
     0
102
RTVSPropertyOp52
 70
     0
102
RTVSPropertyOp53
 70
     1
102
RTVSPropertyOp54
 70
     1
102
RTVSPropertyOp55
 70
     1
102
RTVSPropertyOp56
 70
     1
102
RTVSPropertyOp57
 70
     1
102
RTVSPropertyOp58
 70
     1
102
RTVSPropertyOp59
 70
     1
102
RTVSPropertyOp60
 70
     1
102
RTVSPropertyOp61
 70
     1
102
RTVSPropertyOp62
 70
     1
  0
XRECORD
  5
800
102
{ACAD_REACTORS
330
7FF
102
}
330
7FF
100
AcDbXrecord
280
     1
102
RTVSPost2010Prop28
280
     0
102
RTVSPost2010PropOp28
 70
     1
102
RTVSPost2010Prop29
280
     1
102
RTVSPost2010PropOp29
 70
     1
102
RTVSPost2010Prop30
280
     1
102
RTVSPost2010PropOp30
 70
     1
102
RTVSPost2010Prop31
280
     0
102
RTVSPost2010PropOp31
 70
     1
102
RTVSPost2010Prop32
280
     0
102
RTVSPost2010PropOp32
 70
     1
102
RTVSPost2010Prop33
280
     0
102
RTVSPost2010PropOp33
 70
     1
102
RTVSPost2010Prop34
280
     0
102
RTVSPost2010PropOp34
 70
     1
102
RTVSPost2010Prop35
280
     0
102
RTVSPost2010PropOp35
 70
     1
102
RTVSPost2010Prop36
280
     0
102
RTVSPost2010PropOp36
 70
     1
102
RTVSPost2010Prop37
 90
       50
102
RTVSPost2010PropOp37
 70
     1
102
RTVSPost2010Prop38
140
0.0
102
RTVSPost2010PropOp38
 70
     1
102
RTVSPost2010Prop39
140
1.0
102
RTVSPost2010PropOp39
 70
     1
102
RTVSPost2010Prop40
 90
        0
102
RTVSPost2010PropOp40
 70
     1
102
RTVSPost2010Prop41ColorIndex
 90
       18
102
RTVSPost2010Prop41ColorRGB
 90
        0
102
RTVSPost2010PropOp41
 70
     1
102
RTVSPost2010Prop42
 90
       50
102
RTVSPost2010PropOp42
 70
     1
102
RTVSPost2010Prop43
 90
        3
102
RTVSPost2010PropOp43
 70
     1
102
RTVSPost2010Prop44ColorIndex
 90
        5
102
RTVSPost2010Prop44ColorRGB
 90
      255
102
RTVSPost2010PropOp44
 70
     1
102
RTVSPost2010Prop45
280
     0
102
RTVSPost2010PropOp45
 70
     1
102
RTVSPost2010Prop46
 90
       50
102
RTVSPost2010PropOp46
 70
     1
102
RTVSPost2010Prop47
 90
       50
102
RTVSPost2010PropOp47
 70
     1
102
RTVSPost2010Prop48
 90
       50
102
RTVSPost2010PropOp48
 70
     1
102
RTVSPost2010Prop49
280
     0
102
RTVSPost2010PropOp49
 70
     1
102
RTVSPost2010Prop50
 90
       50
102
RTVSPost2010PropOp50
 70
     1
102
RTVSPost2010Prop51ColorIndex
 90
      256
102
RTVSPost2010Prop51ColorRGB
 90
-16777216
102
RTVSPost2010PropOp51
 70
     0
102
RTVSPost2010Prop52
140
1.0
102
RTVSPost2010PropOp52
 70
     0
102
RTVSPost2010Prop53
 90
        2
102
RTVSPost2010PropOp53
 70
     1
102
RTVSPost2010Prop54
  1
strokes_ogs.tif
102
RTVSPost2010PropOp54
 70
     1
102
RTVSPost2010Prop55
280
     0
102
RTVSPost2010PropOp55
 70
     1
102
RTVSPost2010Prop56
140
1.0
102
RTVSPost2010PropOp56
 70
     1
102
RTVSPost2010Prop57
140
1.0
102
RTVSPost2010PropOp57
 70
     1
102
RTVSPropertyOp0
 70
     1
102
RTVSPropertyOp1
 70
     1
102
RTVSPropertyOp2
 70
     1
102
RTVSPropertyOp3
 70
     1
102
RTVSPropertyOp4
 70
     1
102
RTVSPropertyOp5
 70
     1
102
RTVSPropertyOp6
 70
     1
102
RTVSPropertyOp7
 70
     1
102
RTVSPropertyOp8
 70
     1
102
RTVSPropertyOp9
 70
     1
102
RTVSPropertyOp10
 70
     1
102
RTVSPropertyOp11
 70
     1
102
RTVSPropertyOp12
 70
     1
102
RTVSPropertyOp13
 70
     1
102
RTVSPropertyOp14
 70
     1
102
RTVSPropertyOp15
 70
     1
102
RTVSPropertyOp16
 70
     1
102
RTVSPropertyOp17
 70
     1
102
RTVSPropertyOp18
 70
     1
102
RTVSPropertyOp19
 70
     1
102
RTVSPropertyOp20
 70
     1
102
RTVSPropertyOp21
 70
     1
102
RTVSPropertyOp22
 70
     1
102
RTVSPropertyOp23
 70
     1
102
RTVSPropertyOp24
 70
     1
102
RTVSPropertyOp25
 70
     1
102
RTVSPropertyOp26
 70
     1
102
RTVSPropertyOp27
 70
     1
102
RTVSPropertyOp28
 70
     1
102
RTVSPropertyOp29
 70
     1
102
RTVSPropertyOp30
 70
     1
102
RTVSPropertyOp31
 70
     1
102
RTVSPropertyOp32
 70
     1
102
RTVSPropertyOp33
 70
     1
102
RTVSPropertyOp34
 70
     1
102
RTVSPropertyOp35
 70
     1
102
RTVSPropertyOp36
 70
     1
102
RTVSPropertyOp37
 70
     1
102
RTVSPropertyOp38
 70
     1
102
RTVSPropertyOp39
 70
     1
102
RTVSPropertyOp40
 70
     1
102
RTVSPropertyOp41
 70
     1
102
RTVSPropertyOp42
 70
     1
102
RTVSPropertyOp43
 70
     1
102
RTVSPropertyOp44
 70
     1
102
RTVSPropertyOp45
 70
     1
102
RTVSPropertyOp46
 70
     1
102
RTVSPropertyOp47
 70
     1
102
RTVSPropertyOp48
 70
     1
102
RTVSPropertyOp49
 70
     1
102
RTVSPropertyOp50
 70
     1
102
RTVSPropertyOp51
 70
     0
102
RTVSPropertyOp52
 70
     0
102
RTVSPropertyOp53
 70
     1
102
RTVSPropertyOp54
 70
     1
102
RTVSPropertyOp55
 70
     1
102
RTVSPropertyOp56
 70
     1
102
RTVSPropertyOp57
 70
     1
102
RTVSPropertyOp58
 70
     1
102
RTVSPropertyOp59
 70
     1
102
RTVSPropertyOp60
 70
     1
102
RTVSPropertyOp61
 70
     1
102
RTVSPropertyOp62
 70
     1
  0
XRECORD
  5
81C
102
{ACAD_REACTORS
330
81B
102
}
330
81B
100
AcDbXrecord
280
     1
102
RTVSPost2010Prop28
280
     0
102
RTVSPost2010PropOp28
 70
     1
102
RTVSPost2010Prop29
280
     1
102
RTVSPost2010PropOp29
 70
     1
102
RTVSPost2010Prop30
280
     1
102
RTVSPost2010PropOp30
 70
     1
102
RTVSPost2010Prop31
280
     0
102
RTVSPost2010PropOp31
 70
     1
102
RTVSPost2010Prop32
280
     0
102
RTVSPost2010PropOp32
 70
     1
102
RTVSPost2010Prop33
280
     0
102
RTVSPost2010PropOp33
 70
     1
102
RTVSPost2010Prop34
280
     0
102
RTVSPost2010PropOp34
 70
     1
102
RTVSPost2010Prop35
280
     0
102
RTVSPost2010PropOp35
 70
     1
102
RTVSPost2010Prop36
280
     0
102
RTVSPost2010PropOp36
 70
     1
102
RTVSPost2010Prop37
 90
       50
102
RTVSPost2010PropOp37
 70
     0
102
RTVSPost2010Prop38
140
0.0
102
RTVSPost2010PropOp38
 70
     0
102
RTVSPost2010Prop39
140
1.0
102
RTVSPost2010PropOp39
 70
     0
102
RTVSPost2010Prop40
 90
        0
102
RTVSPost2010PropOp40
 70
     0
102
RTVSPost2010Prop41ColorIndex
 90
       18
102
RTVSPost2010Prop41ColorRGB
 90
        0
102
RTVSPost2010PropOp41
 70
     0
102
RTVSPost2010Prop42
 90
       50
102
RTVSPost2010PropOp42
 70
     0
102
RTVSPost2010Prop43
 90
        3
102
RTVSPost2010PropOp43
 70
     0
102
RTVSPost2010Prop44ColorIndex
 90
        5
102
RTVSPost2010Prop44ColorRGB
 90
      255
102
RTVSPost2010PropOp44
 70
     0
102
RTVSPost2010Prop45
280
     0
102
RTVSPost2010PropOp45
 70
     1
102
RTVSPost2010Prop46
 90
       50
102
RTVSPost2010PropOp46
 70
     0
102
RTVSPost2010Prop47
 90
       50
102
RTVSPost2010PropOp47
 70
     0
102
RTVSPost2010Prop48
 90
       50
102
RTVSPost2010PropOp48
 70
     0
102
RTVSPost2010Prop49
280
     0
102
RTVSPost2010PropOp49
 70
     1
102
RTVSPost2010Prop50
 90
       50
102
RTVSPost2010PropOp50
 70
     0
102
RTVSPost2010Prop51ColorIndex
 90
      256
102
RTVSPost2010Prop51ColorRGB
 90
-16777216
102
RTVSPost2010PropOp51
 70
     0
102
RTVSPost2010Prop52
140
1.0
102
RTVSPost2010PropOp52
 70
     0
102
RTVSPost2010Prop53
 90
        2
102
RTVSPost2010PropOp53
 70
     0
102
RTVSPost2010Prop54
  1
strokes_ogs.tif
102
RTVSPost2010PropOp54
 70
     0
102
RTVSPost2010Prop55
280
     0
102
RTVSPost2010PropOp55
 70
     1
102
RTVSPost2010Prop56
140
1.0
102
RTVSPost2010PropOp56
 70
     0
102
RTVSPost2010Prop57
140
1.0
102
RTVSPost2010PropOp57
 70
     0
102
RTVSPropertyOp0
 70
     0
102
RTVSPropertyOp1
 70
     0
102
RTVSPropertyOp2
 70
     0
102
RTVSPropertyOp3
 70
     0
102
RTVSPropertyOp4
 70
     0
102
RTVSPropertyOp5
 70
     0
102
RTVSPropertyOp6
 70
     0
102
RTVSPropertyOp7
 70
     0
102
RTVSPropertyOp8
 70
     0
102
RTVSPropertyOp9
 70
     0
102
RTVSPropertyOp10
 70
     0
102
RTVSPropertyOp11
 70
     0
102
RTVSPropertyOp12
 70
     0
102
RTVSPropertyOp13
 70
     0
102
RTVSPropertyOp14
 70
     2
102
RTVSPropertyOp15
 70
     0
102
RTVSPropertyOp16
 70
     0
102
RTVSPropertyOp17
 70
     0
102
RTVSPropertyOp18
 70
     0
102
RTVSPropertyOp19
 70
     0
102
RTVSPropertyOp20
 70
     0
102
RTVSPropertyOp21
 70
     0
102
RTVSPropertyOp22
 70
     0
102
RTVSPropertyOp23
 70
     0
102
RTVSPropertyOp24
 70
     0
102
RTVSPropertyOp25
 70
     0
102
RTVSPropertyOp26
 70
     0
102
RTVSPropertyOp27
 70
     0
102
RTVSPropertyOp28
 70
     1
102
RTVSPropertyOp29
 70
     1
102
RTVSPropertyOp30
 70
     1
102
RTVSPropertyOp31
 70
     1
102
RTVSPropertyOp32
 70
     1
102
RTVSPropertyOp33
 70
     1
102
RTVSPropertyOp34
 70
     1
102
RTVSPropertyOp35
 70
     1
102
RTVSPropertyOp36
 70
     1
102
RTVSPropertyOp37
 70
     0
102
RTVSPropertyOp38
 70
     0
102
RTVSPropertyOp39
 70
     0
102
RTVSPropertyOp40
 70
     0
102
RTVSPropertyOp41
 70
     0
102
RTVSPropertyOp42
 70
     0
102
RTVSPropertyOp43
 70
     0
102
RTVSPropertyOp44
 70
     0
102
RTVSPropertyOp45
 70
     1
102
RTVSPropertyOp46
 70
     0
102
RTVSPropertyOp47
 70
     0
102
RTVSPropertyOp48
 70
     0
102
RTVSPropertyOp49
 70
     1
102
RTVSPropertyOp50
 70
     0
102
RTVSPropertyOp51
 70
     0
102
RTVSPropertyOp52
 70
     0
102
RTVSPropertyOp53
 70
     0
102
RTVSPropertyOp54
 70
     0
102
RTVSPropertyOp55
 70
     1
102
RTVSPropertyOp56
 70
     0
102
RTVSPropertyOp57
 70
     0
102
RTVSPropertyOp58
 70
     0
102
RTVSPropertyOp59
 70
     0
102
RTVSPropertyOp60
 70
     0
102
RTVSPropertyOp61
 70
     0
102
RTVSPropertyOp62
 70
     0
  0
XRECORD
  5
80C
102
{ACAD_REACTORS
330
80B
102
}
330
80B
100
AcDbXrecord
280
     1
102
RTVSPost2010Prop28
280
     0
102
RTVSPost2010PropOp28
 70
     1
102
RTVSPost2010Prop29
280
     1
102
RTVSPost2010PropOp29
 70
     1
102
RTVSPost2010Prop30
280
     1
102
RTVSPost2010PropOp30
 70
     1
102
RTVSPost2010Prop31
280
     0
102
RTVSPost2010PropOp31
 70
     1
102
RTVSPost2010Prop32
280
     0
102
RTVSPost2010PropOp32
 70
     1
102
RTVSPost2010Prop33
280
     0
102
RTVSPost2010PropOp33
 70
     1
102
RTVSPost2010Prop34
280
     0
102
RTVSPost2010PropOp34
 70
     1
102
RTVSPost2010Prop35
280
     0
102
RTVSPost2010PropOp35
 70
     1
102
RTVSPost2010Prop36
280
     0
102
RTVSPost2010PropOp36
 70
     1
102
RTVSPost2010Prop37
 90
       50
102
RTVSPost2010PropOp37
 70
     1
102
RTVSPost2010Prop38
140
0.0
102
RTVSPost2010PropOp38
 70
     1
102
RTVSPost2010Prop39
140
1.0
102
RTVSPost2010PropOp39
 70
     1
102
RTVSPost2010Prop40
 90
        0
102
RTVSPost2010PropOp40
 70
     1
102
RTVSPost2010Prop41ColorIndex
 90
       18
102
RTVSPost2010Prop41ColorRGB
 90
        0
102
RTVSPost2010PropOp41
 70
     1
102
RTVSPost2010Prop42
 90
       50
102
RTVSPost2010PropOp42
 70
     1
102
RTVSPost2010Prop43
 90
        3
102
RTVSPost2010PropOp43
 70
     1
102
RTVSPost2010Prop44ColorIndex
 90
        5
102
RTVSPost2010Prop44ColorRGB
 90
      255
102
RTVSPost2010PropOp44
 70
     1
102
RTVSPost2010Prop45
280
     0
102
RTVSPost2010PropOp45
 70
     1
102
RTVSPost2010Prop46
 90
       50
102
RTVSPost2010PropOp46
 70
     1
102
RTVSPost2010Prop47
 90
       50
102
RTVSPost2010PropOp47
 70
     1
102
RTVSPost2010Prop48
 90
       50
102
RTVSPost2010PropOp48
 70
     1
102
RTVSPost2010Prop49
280
     0
102
RTVSPost2010PropOp49
 70
     1
102
RTVSPost2010Prop50
 90
       50
102
RTVSPost2010PropOp50
 70
     1
102
RTVSPost2010Prop51ColorIndex
 90
      256
102
RTVSPost2010Prop51ColorRGB
 90
-16777216
102
RTVSPost2010PropOp51
 70
     0
102
RTVSPost2010Prop52
140
1.0
102
RTVSPost2010PropOp52
 70
     0
102
RTVSPost2010Prop53
 90
        2
102
RTVSPost2010PropOp53
 70
     1
102
RTVSPost2010Prop54
  1
strokes_ogs.tif
102
RTVSPost2010PropOp54
 70
     1
102
RTVSPost2010Prop55
280
     0
102
RTVSPost2010PropOp55
 70
     1
102
RTVSPost2010Prop56
140
1.0
102
RTVSPost2010PropOp56
 70
     1
102
RTVSPost2010Prop57
140
1.0
102
RTVSPost2010PropOp57
 70
     1
102
RTVSPropertyOp0
 70
     1
102
RTVSPropertyOp1
 70
     1
102
RTVSPropertyOp2
 70
     1
102
RTVSPropertyOp3
 70
     1
102
RTVSPropertyOp4
 70
     1
102
RTVSPropertyOp5
 70
     1
102
RTVSPropertyOp6
 70
     1
102
RTVSPropertyOp7
 70
     1
102
RTVSPropertyOp8
 70
     1
102
RTVSPropertyOp9
 70
     1
102
RTVSPropertyOp10
 70
     1
102
RTVSPropertyOp11
 70
     1
102
RTVSPropertyOp12
 70
     1
102
RTVSPropertyOp13
 70
     1
102
RTVSPropertyOp14
 70
     1
102
RTVSPropertyOp15
 70
     1
102
RTVSPropertyOp16
 70
     1
102
RTVSPropertyOp17
 70
     1
102
RTVSPropertyOp18
 70
     1
102
RTVSPropertyOp19
 70
     1
102
RTVSPropertyOp20
 70
     1
102
RTVSPropertyOp21
 70
     1
102
RTVSPropertyOp22
 70
     1
102
RTVSPropertyOp23
 70
     1
102
RTVSPropertyOp24
 70
     1
102
RTVSPropertyOp25
 70
     1
102
RTVSPropertyOp26
 70
     1
102
RTVSPropertyOp27
 70
     1
102
RTVSPropertyOp28
 70
     1
102
RTVSPropertyOp29
 70
     1
102
RTVSPropertyOp30
 70
     1
102
RTVSPropertyOp31
 70
     1
102
RTVSPropertyOp32
 70
     1
102
RTVSPropertyOp33
 70
     1
102
RTVSPropertyOp34
 70
     1
102
RTVSPropertyOp35
 70
     1
102
RTVSPropertyOp36
 70
     1
102
RTVSPropertyOp37
 70
     1
102
RTVSPropertyOp38
 70
     1
102
RTVSPropertyOp39
 70
     1
102
RTVSPropertyOp40
 70
     1
102
RTVSPropertyOp41
 70
     1
102
RTVSPropertyOp42
 70
     1
102
RTVSPropertyOp43
 70
     1
102
RTVSPropertyOp44
 70
     1
102
RTVSPropertyOp45
 70
     1
102
RTVSPropertyOp46
 70
     1
102
RTVSPropertyOp47
 70
     1
102
RTVSPropertyOp48
 70
     1
102
RTVSPropertyOp49
 70
     1
102
RTVSPropertyOp50
 70
     1
102
RTVSPropertyOp51
 70
     0
102
RTVSPropertyOp52
 70
     0
102
RTVSPropertyOp53
 70
     1
102
RTVSPropertyOp54
 70
     1
102
RTVSPropertyOp55
 70
     1
102
RTVSPropertyOp56
 70
     1
102
RTVSPropertyOp57
 70
     1
102
RTVSPropertyOp58
 70
     1
102
RTVSPropertyOp59
 70
     1
102
RTVSPropertyOp60
 70
     1
102
RTVSPropertyOp61
 70
     1
102
RTVSPropertyOp62
 70
     1
  0
XRECORD
  5
81E
102
{ACAD_REACTORS
330
81D
102
}
330
81D
100
AcDbXrecord
280
     1
102
RTVSPost2010Prop28
280
     0
102
RTVSPost2010PropOp28
 70
     1
102
RTVSPost2010Prop29
280
     1
102
RTVSPost2010PropOp29
 70
     1
102
RTVSPost2010Prop30
280
     1
102
RTVSPost2010PropOp30
 70
     1
102
RTVSPost2010Prop31
280
     0
102
RTVSPost2010PropOp31
 70
     1
102
RTVSPost2010Prop32
280
     0
102
RTVSPost2010PropOp32
 70
     1
102
RTVSPost2010Prop33
280
     0
102
RTVSPost2010PropOp33
 70
     1
102
RTVSPost2010Prop34
280
     0
102
RTVSPost2010PropOp34
 70
     1
102
RTVSPost2010Prop35
280
     0
102
RTVSPost2010PropOp35
 70
     1
102
RTVSPost2010Prop36
280
     0
102
RTVSPost2010PropOp36
 70
     1
102
RTVSPost2010Prop37
 90
       50
102
RTVSPost2010PropOp37
 70
     0
102
RTVSPost2010Prop38
140
0.0
102
RTVSPost2010PropOp38
 70
     0
102
RTVSPost2010Prop39
140
1.0
102
RTVSPost2010PropOp39
 70
     0
102
RTVSPost2010Prop40
 90
        0
102
RTVSPost2010PropOp40
 70
     0
102
RTVSPost2010Prop41ColorIndex
 90
       18
102
RTVSPost2010Prop41ColorRGB
 90
        0
102
RTVSPost2010PropOp41
 70
     0
102
RTVSPost2010Prop42
 90
       50
102
RTVSPost2010PropOp42
 70
     0
102
RTVSPost2010Prop43
 90
        3
102
RTVSPost2010PropOp43
 70
     0
102
RTVSPost2010Prop44ColorIndex
 90
        5
102
RTVSPost2010Prop44ColorRGB
 90
      255
102
RTVSPost2010PropOp44
 70
     0
102
RTVSPost2010Prop45
280
     0
102
RTVSPost2010PropOp45
 70
     1
102
RTVSPost2010Prop46
 90
       50
102
RTVSPost2010PropOp46
 70
     0
102
RTVSPost2010Prop47
 90
       50
102
RTVSPost2010PropOp47
 70
     0
102
RTVSPost2010Prop48
 90
       50
102
RTVSPost2010PropOp48
 70
     0
102
RTVSPost2010Prop49
280
     0
102
RTVSPost2010PropOp49
 70
     1
102
RTVSPost2010Prop50
 90
       50
102
RTVSPost2010PropOp50
 70
     0
102
RTVSPost2010Prop51ColorIndex
 90
      256
102
RTVSPost2010Prop51ColorRGB
 90
-16777216
102
RTVSPost2010PropOp51
 70
     0
102
RTVSPost2010Prop52
140
1.0
102
RTVSPost2010PropOp52
 70
     0
102
RTVSPost2010Prop53
 90
        2
102
RTVSPost2010PropOp53
 70
     0
102
RTVSPost2010Prop54
  1
strokes_ogs.tif
102
RTVSPost2010PropOp54
 70
     0
102
RTVSPost2010Prop55
280
     0
102
RTVSPost2010PropOp55
 70
     1
102
RTVSPost2010Prop56
140
1.0
102
RTVSPost2010PropOp56
 70
     0
102
RTVSPost2010Prop57
140
1.0
102
RTVSPost2010PropOp57
 70
     0
102
RTVSPropertyOp0
 70
     0
102
RTVSPropertyOp1
 70
     0
102
RTVSPropertyOp2
 70
     0
102
RTVSPropertyOp3
 70
     0
102
RTVSPropertyOp4
 70
     0
102
RTVSPropertyOp5
 70
     0
102
RTVSPropertyOp6
 70
     0
102
RTVSPropertyOp7
 70
     0
102
RTVSPropertyOp8
 70
     0
102
RTVSPropertyOp9
 70
     0
102
RTVSPropertyOp10
 70
     0
102
RTVSPropertyOp11
 70
     0
102
RTVSPropertyOp12
 70
     0
102
RTVSPropertyOp13
 70
     0
102
RTVSPropertyOp14
 70
     2
102
RTVSPropertyOp15
 70
     0
102
RTVSPropertyOp16
 70
     0
102
RTVSPropertyOp17
 70
     0
102
RTVSPropertyOp18
 70
     0
102
RTVSPropertyOp19
 70
     0
102
RTVSPropertyOp20
 70
     0
102
RTVSPropertyOp21
 70
     0
102
RTVSPropertyOp22
 70
     0
102
RTVSPropertyOp23
 70
     0
102
RTVSPropertyOp24
 70
     0
102
RTVSPropertyOp25
 70
     0
102
RTVSPropertyOp26
 70
     0
102
RTVSPropertyOp27
 70
     0
102
RTVSPropertyOp28
 70
     1
102
RTVSPropertyOp29
 70
     1
102
RTVSPropertyOp30
 70
     1
102
RTVSPropertyOp31
 70
     1
102
RTVSPropertyOp32
 70
     1
102
RTVSPropertyOp33
 70
     1
102
RTVSPropertyOp34
 70
     1
102
RTVSPropertyOp35
 70
     1
102
RTVSPropertyOp36
 70
     1
102
RTVSPropertyOp37
 70
     0
102
RTVSPropertyOp38
 70
     0
102
RTVSPropertyOp39
 70
     0
102
RTVSPropertyOp40
 70
     0
102
RTVSPropertyOp41
 70
     0
102
RTVSPropertyOp42
 70
     0
102
RTVSPropertyOp43
 70
     0
102
RTVSPropertyOp44
 70
     0
102
RTVSPropertyOp45
 70
     1
102
RTVSPropertyOp46
 70
     0
102
RTVSPropertyOp47
 70
     0
102
RTVSPropertyOp48
 70
     0
102
RTVSPropertyOp49
 70
     1
102
RTVSPropertyOp50
 70
     0
102
RTVSPropertyOp51
 70
     0
102
RTVSPropertyOp52
 70
     0
102
RTVSPropertyOp53
 70
     0
102
RTVSPropertyOp54
 70
     0
102
RTVSPropertyOp55
 70
     1
102
RTVSPropertyOp56
 70
     0
102
RTVSPropertyOp57
 70
     0
102
RTVSPropertyOp58
 70
     0
102
RTVSPropertyOp59
 70
     0
102
RTVSPropertyOp60
 70
     0
102
RTVSPropertyOp61
 70
     0
102
RTVSPropertyOp62
 70
     0
  0
XRECORD
  5
804
102
{ACAD_REACTORS
330
803
102
}
330
803
100
AcDbXrecord
280
     1
102
RTVSPost2010Prop28
280
     0
102
RTVSPost2010PropOp28
 70
     1
102
RTVSPost2010Prop29
280
     1
102
RTVSPost2010PropOp29
 70
     1
102
RTVSPost2010Prop30
280
     1
102
RTVSPost2010PropOp30
 70
     1
102
RTVSPost2010Prop31
280
     0
102
RTVSPost2010PropOp31
 70
     1
102
RTVSPost2010Prop32
280
     0
102
RTVSPost2010PropOp32
 70
     1
102
RTVSPost2010Prop33
280
     0
102
RTVSPost2010PropOp33
 70
     1
102
RTVSPost2010Prop34
280
     0
102
RTVSPost2010PropOp34
 70
     1
102
RTVSPost2010Prop35
280
     0
102
RTVSPost2010PropOp35
 70
     1
102
RTVSPost2010Prop36
280
     0
102
RTVSPost2010PropOp36
 70
     1
102
RTVSPost2010Prop37
 90
       50
102
RTVSPost2010PropOp37
 70
     1
102
RTVSPost2010Prop38
140
0.0
102
RTVSPost2010PropOp38
 70
     1
102
RTVSPost2010Prop39
140
1.0
102
RTVSPost2010PropOp39
 70
     1
102
RTVSPost2010Prop40
 90
        0
102
RTVSPost2010PropOp40
 70
     1
102
RTVSPost2010Prop41ColorIndex
 90
       18
102
RTVSPost2010Prop41ColorRGB
 90
        0
102
RTVSPost2010PropOp41
 70
     1
102
RTVSPost2010Prop42
 90
       50
102
RTVSPost2010PropOp42
 70
     1
102
RTVSPost2010Prop43
 90
        3
102
RTVSPost2010PropOp43
 70
     1
102
RTVSPost2010Prop44ColorIndex
 90
        5
102
RTVSPost2010Prop44ColorRGB
 90
      255
102
RTVSPost2010PropOp44
 70
     1
102
RTVSPost2010Prop45
280
     0
102
RTVSPost2010PropOp45
 70
     1
102
RTVSPost2010Prop46
 90
       50
102
RTVSPost2010PropOp46
 70
     1
102
RTVSPost2010Prop47
 90
       50
102
RTVSPost2010PropOp47
 70
     1
102
RTVSPost2010Prop48
 90
       50
102
RTVSPost2010PropOp48
 70
     1
102
RTVSPost2010Prop49
280
     0
102
RTVSPost2010PropOp49
 70
     1
102
RTVSPost2010Prop50
 90
       50
102
RTVSPost2010PropOp50
 70
     1
102
RTVSPost2010Prop51ColorIndex
 90
      256
102
RTVSPost2010Prop51ColorRGB
 90
-16777216
102
RTVSPost2010PropOp51
 70
     0
102
RTVSPost2010Prop52
140
1.0
102
RTVSPost2010PropOp52
 70
     0
102
RTVSPost2010Prop53
 90
        2
102
RTVSPost2010PropOp53
 70
     1
102
RTVSPost2010Prop54
  1
strokes_ogs.tif
102
RTVSPost2010PropOp54
 70
     1
102
RTVSPost2010Prop55
280
     0
102
RTVSPost2010PropOp55
 70
     1
102
RTVSPost2010Prop56
140
1.0
102
RTVSPost2010PropOp56
 70
     1
102
RTVSPost2010Prop57
140
1.0
102
RTVSPost2010PropOp57
 70
     1
102
RTVSPropertyOp0
 70
     1
102
RTVSPropertyOp1
 70
     1
102
RTVSPropertyOp2
 70
     1
102
RTVSPropertyOp3
 70
     1
102
RTVSPropertyOp4
 70
     1
102
RTVSPropertyOp5
 70
     1
102
RTVSPropertyOp6
 70
     1
102
RTVSPropertyOp7
 70
     1
102
RTVSPropertyOp8
 70
     1
102
RTVSPropertyOp9
 70
     1
102
RTVSPropertyOp10
 70
     1
102
RTVSPropertyOp11
 70
     1
102
RTVSPropertyOp12
 70
     1
102
RTVSPropertyOp13
 70
     1
102
RTVSPropertyOp14
 70
     1
102
RTVSPropertyOp15
 70
     1
102
RTVSPropertyOp16
 70
     1
102
RTVSPropertyOp17
 70
     1
102
RTVSPropertyOp18
 70
     1
102
RTVSPropertyOp19
 70
     1
102
RTVSPropertyOp20
 70
     1
102
RTVSPropertyOp21
 70
     1
102
RTVSPropertyOp22
 70
     1
102
RTVSPropertyOp23
 70
     1
102
RTVSPropertyOp24
 70
     1
102
RTVSPropertyOp25
 70
     1
102
RTVSPropertyOp26
 70
     1
102
RTVSPropertyOp27
 70
     1
102
RTVSPropertyOp28
 70
     1
102
RTVSPropertyOp29
 70
     1
102
RTVSPropertyOp30
 70
     1
102
RTVSPropertyOp31
 70
     1
102
RTVSPropertyOp32
 70
     1
102
RTVSPropertyOp33
 70
     1
102
RTVSPropertyOp34
 70
     1
102
RTVSPropertyOp35
 70
     1
102
RTVSPropertyOp36
 70
     1
102
RTVSPropertyOp37
 70
     1
102
RTVSPropertyOp38
 70
     1
102
RTVSPropertyOp39
 70
     1
102
RTVSPropertyOp40
 70
     1
102
RTVSPropertyOp41
 70
     1
102
RTVSPropertyOp42
 70
     1
102
RTVSPropertyOp43
 70
     1
102
RTVSPropertyOp44
 70
     1
102
RTVSPropertyOp45
 70
     1
102
RTVSPropertyOp46
 70
     1
102
RTVSPropertyOp47
 70
     1
102
RTVSPropertyOp48
 70
     1
102
RTVSPropertyOp49
 70
     1
102
RTVSPropertyOp50
 70
     1
102
RTVSPropertyOp51
 70
     0
102
RTVSPropertyOp52
 70
     0
102
RTVSPropertyOp53
 70
     1
102
RTVSPropertyOp54
 70
     1
102
RTVSPropertyOp55
 70
     1
102
RTVSPropertyOp56
 70
     1
102
RTVSPropertyOp57
 70
     1
102
RTVSPropertyOp58
 70
     1
102
RTVSPropertyOp59
 70
     1
102
RTVSPropertyOp60
 70
     1
102
RTVSPropertyOp61
 70
     1
102
RTVSPropertyOp62
 70
     1
  0
XRECORD
  5
81A
102
{ACAD_REACTORS
330
819
102
}
330
819
100
AcDbXrecord
280
     1
102
RTVSPost2010Prop28
280
     0
102
RTVSPost2010PropOp28
 70
     1
102
RTVSPost2010Prop29
280
     1
102
RTVSPost2010PropOp29
 70
     1
102
RTVSPost2010Prop30
280
     1
102
RTVSPost2010PropOp30
 70
     1
102
RTVSPost2010Prop31
280
     0
102
RTVSPost2010PropOp31
 70
     1
102
RTVSPost2010Prop32
280
     0
102
RTVSPost2010PropOp32
 70
     1
102
RTVSPost2010Prop33
280
     0
102
RTVSPost2010PropOp33
 70
     1
102
RTVSPost2010Prop34
280
     0
102
RTVSPost2010PropOp34
 70
     1
102
RTVSPost2010Prop35
280
     0
102
RTVSPost2010PropOp35
 70
     1
102
RTVSPost2010Prop36
280
     0
102
RTVSPost2010PropOp36
 70
     1
102
RTVSPost2010Prop37
 90
       50
102
RTVSPost2010PropOp37
 70
     1
102
RTVSPost2010Prop38
140
0.0
102
RTVSPost2010PropOp38
 70
     1
102
RTVSPost2010Prop39
140
1.0
102
RTVSPost2010PropOp39
 70
     1
102
RTVSPost2010Prop40
 90
        0
102
RTVSPost2010PropOp40
 70
     1
102
RTVSPost2010Prop41ColorIndex
 90
       18
102
RTVSPost2010Prop41ColorRGB
 90
        0
102
RTVSPost2010PropOp41
 70
     1
102
RTVSPost2010Prop42
 90
       50
102
RTVSPost2010PropOp42
 70
     1
102
RTVSPost2010Prop43
 90
        3
102
RTVSPost2010PropOp43
 70
     1
102
RTVSPost2010Prop44ColorIndex
 90
        5
102
RTVSPost2010Prop44ColorRGB
 90
      255
102
RTVSPost2010PropOp44
 70
     1
102
RTVSPost2010Prop45
280
     0
102
RTVSPost2010PropOp45
 70
     1
102
RTVSPost2010Prop46
 90
       50
102
RTVSPost2010PropOp46
 70
     1
102
RTVSPost2010Prop47
 90
       50
102
RTVSPost2010PropOp47
 70
     1
102
RTVSPost2010Prop48
 90
       50
102
RTVSPost2010PropOp48
 70
     1
102
RTVSPost2010Prop49
280
     0
102
RTVSPost2010PropOp49
 70
     1
102
RTVSPost2010Prop50
 90
       50
102
RTVSPost2010PropOp50
 70
     1
102
RTVSPost2010Prop51ColorIndex
 90
      256
102
RTVSPost2010Prop51ColorRGB
 90
-16777216
102
RTVSPost2010PropOp51
 70
     0
102
RTVSPost2010Prop52
140
1.0
102
RTVSPost2010PropOp52
 70
     0
102
RTVSPost2010Prop53
 90
        2
102
RTVSPost2010PropOp53
 70
     1
102
RTVSPost2010Prop54
  1
strokes_ogs.tif
102
RTVSPost2010PropOp54
 70
     1
102
RTVSPost2010Prop55
280
     0
102
RTVSPost2010PropOp55
 70
     1
102
RTVSPost2010Prop56
140
1.0
102
RTVSPost2010PropOp56
 70
     1
102
RTVSPost2010Prop57
140
1.0
102
RTVSPost2010PropOp57
 70
     1
102
RTVSPropertyOp0
 70
     1
102
RTVSPropertyOp1
 70
     1
102
RTVSPropertyOp2
 70
     1
102
RTVSPropertyOp3
 70
     1
102
RTVSPropertyOp4
 70
     1
102
RTVSPropertyOp5
 70
     1
102
RTVSPropertyOp6
 70
     1
102
RTVSPropertyOp7
 70
     1
102
RTVSPropertyOp8
 70
     1
102
RTVSPropertyOp9
 70
     1
102
RTVSPropertyOp10
 70
     1
102
RTVSPropertyOp11
 70
     1
102
RTVSPropertyOp12
 70
     1
102
RTVSPropertyOp13
 70
     1
102
RTVSPropertyOp14
 70
     1
102
RTVSPropertyOp15
 70
     1
102
RTVSPropertyOp16
 70
     1
102
RTVSPropertyOp17
 70
     1
102
RTVSPropertyOp18
 70
     1
102
RTVSPropertyOp19
 70
     1
102
RTVSPropertyOp20
 70
     1
102
RTVSPropertyOp21
 70
     1
102
RTVSPropertyOp22
 70
     1
102
RTVSPropertyOp23
 70
     1
102
RTVSPropertyOp24
 70
     1
102
RTVSPropertyOp25
 70
     1
102
RTVSPropertyOp26
 70
     1
102
RTVSPropertyOp27
 70
     1
102
RTVSPropertyOp28
 70
     1
102
RTVSPropertyOp29
 70
     1
102
RTVSPropertyOp30
 70
     1
102
RTVSPropertyOp31
 70
     1
102
RTVSPropertyOp32
 70
     1
102
RTVSPropertyOp33
 70
     1
102
RTVSPropertyOp34
 70
     1
102
RTVSPropertyOp35
 70
     1
102
RTVSPropertyOp36
 70
     1
102
RTVSPropertyOp37
 70
     1
102
RTVSPropertyOp38
 70
     1
102
RTVSPropertyOp39
 70
     1
102
RTVSPropertyOp40
 70
     1
102
RTVSPropertyOp41
 70
     1
102
RTVSPropertyOp42
 70
     1
102
RTVSPropertyOp43
 70
     1
102
RTVSPropertyOp44
 70
     1
102
RTVSPropertyOp45
 70
     1
102
RTVSPropertyOp46
 70
     1
102
RTVSPropertyOp47
 70
     1
102
RTVSPropertyOp48
 70
     1
102
RTVSPropertyOp49
 70
     1
102
RTVSPropertyOp50
 70
     1
102
RTVSPropertyOp51
 70
     0
102
RTVSPropertyOp52
 70
     0
102
RTVSPropertyOp53
 70
     1
102
RTVSPropertyOp54
 70
     1
102
RTVSPropertyOp55
 70
     1
102
RTVSPropertyOp56
 70
     1
102
RTVSPropertyOp57
 70
     1
102
RTVSPropertyOp58
 70
     1
102
RTVSPropertyOp59
 70
     1
102
RTVSPropertyOp60
 70
     1
102
RTVSPropertyOp61
 70
     1
102
RTVSPropertyOp62
 70
     1
  0
XRECORD
  5
818
102
{ACAD_REACTORS
330
817
102
}
330
817
100
AcDbXrecord
280
     1
102
RTVSPost2010Prop28
280
     0
102
RTVSPost2010PropOp28
 70
     1
102
RTVSPost2010Prop29
280
     1
102
RTVSPost2010PropOp29
 70
     1
102
RTVSPost2010Prop30
280
     1
102
RTVSPost2010PropOp30
 70
     1
102
RTVSPost2010Prop31
280
     0
102
RTVSPost2010PropOp31
 70
     1
102
RTVSPost2010Prop32
280
     0
102
RTVSPost2010PropOp32
 70
     1
102
RTVSPost2010Prop33
280
     0
102
RTVSPost2010PropOp33
 70
     1
102
RTVSPost2010Prop34
280
     0
102
RTVSPost2010PropOp34
 70
     1
102
RTVSPost2010Prop35
280
     0
102
RTVSPost2010PropOp35
 70
     1
102
RTVSPost2010Prop36
280
     0
102
RTVSPost2010PropOp36
 70
     1
102
RTVSPost2010Prop37
 90
       50
102
RTVSPost2010PropOp37
 70
     1
102
RTVSPost2010Prop38
140
0.0
102
RTVSPost2010PropOp38
 70
     1
102
RTVSPost2010Prop39
140
1.0
102
RTVSPost2010PropOp39
 70
     1
102
RTVSPost2010Prop40
 90
        0
102
RTVSPost2010PropOp40
 70
     1
102
RTVSPost2010Prop41ColorIndex
 90
       18
102
RTVSPost2010Prop41ColorRGB
 90
        0
102
RTVSPost2010PropOp41
 70
     1
102
RTVSPost2010Prop42
 90
       50
102
RTVSPost2010PropOp42
 70
     1
102
RTVSPost2010Prop43
 90
        3
102
RTVSPost2010PropOp43
 70
     1
102
RTVSPost2010Prop44ColorIndex
 90
        5
102
RTVSPost2010Prop44ColorRGB
 90
      255
102
RTVSPost2010PropOp44
 70
     1
102
RTVSPost2010Prop45
280
     0
102
RTVSPost2010PropOp45
 70
     1
102
RTVSPost2010Prop46
 90
       50
102
RTVSPost2010PropOp46
 70
     1
102
RTVSPost2010Prop47
 90
       50
102
RTVSPost2010PropOp47
 70
     1
102
RTVSPost2010Prop48
 90
       50
102
RTVSPost2010PropOp48
 70
     1
102
RTVSPost2010Prop49
280
     0
102
RTVSPost2010PropOp49
 70
     1
102
RTVSPost2010Prop50
 90
       50
102
RTVSPost2010PropOp50
 70
     1
102
RTVSPost2010Prop51ColorIndex
 90
      256
102
RTVSPost2010Prop51ColorRGB
 90
-16777216
102
RTVSPost2010PropOp51
 70
     0
102
RTVSPost2010Prop52
140
1.0
102
RTVSPost2010PropOp52
 70
     0
102
RTVSPost2010Prop53
 90
        2
102
RTVSPost2010PropOp53
 70
     1
102
RTVSPost2010Prop54
  1
strokes_ogs.tif
102
RTVSPost2010PropOp54
 70
     1
102
RTVSPost2010Prop55
280
     0
102
RTVSPost2010PropOp55
 70
     1
102
RTVSPost2010Prop56
140
1.0
102
RTVSPost2010PropOp56
 70
     1
102
RTVSPost2010Prop57
140
1.0
102
RTVSPost2010PropOp57
 70
     1
102
RTVSPropertyOp0
 70
     1
102
RTVSPropertyOp1
 70
     1
102
RTVSPropertyOp2
 70
     1
102
RTVSPropertyOp3
 70
     1
102
RTVSPropertyOp4
 70
     1
102
RTVSPropertyOp5
 70
     1
102
RTVSPropertyOp6
 70
     1
102
RTVSPropertyOp7
 70
     1
102
RTVSPropertyOp8
 70
     1
102
RTVSPropertyOp9
 70
     1
102
RTVSPropertyOp10
 70
     1
102
RTVSPropertyOp11
 70
     1
102
RTVSPropertyOp12
 70
     1
102
RTVSPropertyOp13
 70
     1
102
RTVSPropertyOp14
 70
     1
102
RTVSPropertyOp15
 70
     1
102
RTVSPropertyOp16
 70
     1
102
RTVSPropertyOp17
 70
     1
102
RTVSPropertyOp18
 70
     1
102
RTVSPropertyOp19
 70
     1
102
RTVSPropertyOp20
 70
     1
102
RTVSPropertyOp21
 70
     1
102
RTVSPropertyOp22
 70
     1
102
RTVSPropertyOp23
 70
     1
102
RTVSPropertyOp24
 70
     1
102
RTVSPropertyOp25
 70
     1
102
RTVSPropertyOp26
 70
     1
102
RTVSPropertyOp27
 70
     1
102
RTVSPropertyOp28
 70
     1
102
RTVSPropertyOp29
 70
     1
102
RTVSPropertyOp30
 70
     1
102
RTVSPropertyOp31
 70
     1
102
RTVSPropertyOp32
 70
     1
102
RTVSPropertyOp33
 70
     1
102
RTVSPropertyOp34
 70
     1
102
RTVSPropertyOp35
 70
     1
102
RTVSPropertyOp36
 70
     1
102
RTVSPropertyOp37
 70
     1
102
RTVSPropertyOp38
 70
     1
102
RTVSPropertyOp39
 70
     1
102
RTVSPropertyOp40
 70
     1
102
RTVSPropertyOp41
 70
     1
102
RTVSPropertyOp42
 70
     1
102
RTVSPropertyOp43
 70
     1
102
RTVSPropertyOp44
 70
     1
102
RTVSPropertyOp45
 70
     1
102
RTVSPropertyOp46
 70
     1
102
RTVSPropertyOp47
 70
     1
102
RTVSPropertyOp48
 70
     1
102
RTVSPropertyOp49
 70
     1
102
RTVSPropertyOp50
 70
     1
102
RTVSPropertyOp51
 70
     0
102
RTVSPropertyOp52
 70
     0
102
RTVSPropertyOp53
 70
     1
102
RTVSPropertyOp54
 70
     1
102
RTVSPropertyOp55
 70
     1
102
RTVSPropertyOp56
 70
     1
102
RTVSPropertyOp57
 70
     1
102
RTVSPropertyOp58
 70
     1
102
RTVSPropertyOp59
 70
     1
102
RTVSPropertyOp60
 70
     1
102
RTVSPropertyOp61
 70
     1
102
RTVSPropertyOp62
 70
     1
  0
XRECORD
  5
812
102
{ACAD_REACTORS
330
811
102
}
330
811
100
AcDbXrecord
280
     1
102
RTVSPost2010Prop28
280
     0
102
RTVSPost2010PropOp28
 70
     1
102
RTVSPost2010Prop29
280
     1
102
RTVSPost2010PropOp29
 70
     1
102
RTVSPost2010Prop30
280
     1
102
RTVSPost2010PropOp30
 70
     1
102
RTVSPost2010Prop31
280
     0
102
RTVSPost2010PropOp31
 70
     1
102
RTVSPost2010Prop32
280
     0
102
RTVSPost2010PropOp32
 70
     1
102
RTVSPost2010Prop33
280
     0
102
RTVSPost2010PropOp33
 70
     1
102
RTVSPost2010Prop34
280
     0
102
RTVSPost2010PropOp34
 70
     1
102
RTVSPost2010Prop35
280
     0
102
RTVSPost2010PropOp35
 70
     1
102
RTVSPost2010Prop36
280
     0
102
RTVSPost2010PropOp36
 70
     1
102
RTVSPost2010Prop37
 90
       50
102
RTVSPost2010PropOp37
 70
     1
102
RTVSPost2010Prop38
140
0.0
102
RTVSPost2010PropOp38
 70
     1
102
RTVSPost2010Prop39
140
1.0
102
RTVSPost2010PropOp39
 70
     1
102
RTVSPost2010Prop40
 90
        0
102
RTVSPost2010PropOp40
 70
     1
102
RTVSPost2010Prop41ColorIndex
 90
       18
102
RTVSPost2010Prop41ColorRGB
 90
        0
102
RTVSPost2010PropOp41
 70
     1
102
RTVSPost2010Prop42
 90
       50
102
RTVSPost2010PropOp42
 70
     1
102
RTVSPost2010Prop43
 90
        3
102
RTVSPost2010PropOp43
 70
     1
102
RTVSPost2010Prop44ColorIndex
 90
        5
102
RTVSPost2010Prop44ColorRGB
 90
      255
102
RTVSPost2010PropOp44
 70
     1
102
RTVSPost2010Prop45
280
     0
102
RTVSPost2010PropOp45
 70
     1
102
RTVSPost2010Prop46
 90
       50
102
RTVSPost2010PropOp46
 70
     1
102
RTVSPost2010Prop47
 90
       50
102
RTVSPost2010PropOp47
 70
     1
102
RTVSPost2010Prop48
 90
       50
102
RTVSPost2010PropOp48
 70
     1
102
RTVSPost2010Prop49
280
     0
102
RTVSPost2010PropOp49
 70
     1
102
RTVSPost2010Prop50
 90
       50
102
RTVSPost2010PropOp50
 70
     1
102
RTVSPost2010Prop51ColorIndex
 90
      256
102
RTVSPost2010Prop51ColorRGB
 90
-16777216
102
RTVSPost2010PropOp51
 70
     0
102
RTVSPost2010Prop52
140
1.0
102
RTVSPost2010PropOp52
 70
     0
102
RTVSPost2010Prop53
 90
        2
102
RTVSPost2010PropOp53
 70
     1
102
RTVSPost2010Prop54
  1
strokes_ogs.tif
102
RTVSPost2010PropOp54
 70
     1
102
RTVSPost2010Prop55
280
     0
102
RTVSPost2010PropOp55
 70
     1
102
RTVSPost2010Prop56
140
1.0
102
RTVSPost2010PropOp56
 70
     1
102
RTVSPost2010Prop57
140
1.0
102
RTVSPost2010PropOp57
 70
     1
102
RTVSPropertyOp0
 70
     1
102
RTVSPropertyOp1
 70
     1
102
RTVSPropertyOp2
 70
     1
102
RTVSPropertyOp3
 70
     1
102
RTVSPropertyOp4
 70
     1
102
RTVSPropertyOp5
 70
     1
102
RTVSPropertyOp6
 70
     1
102
RTVSPropertyOp7
 70
     1
102
RTVSPropertyOp8
 70
     1
102
RTVSPropertyOp9
 70
     1
102
RTVSPropertyOp10
 70
     1
102
RTVSPropertyOp11
 70
     1
102
RTVSPropertyOp12
 70
     1
102
RTVSPropertyOp13
 70
     1
102
RTVSPropertyOp14
 70
     1
102
RTVSPropertyOp15
 70
     1
102
RTVSPropertyOp16
 70
     1
102
RTVSPropertyOp17
 70
     1
102
RTVSPropertyOp18
 70
     1
102
RTVSPropertyOp19
 70
     1
102
RTVSPropertyOp20
 70
     1
102
RTVSPropertyOp21
 70
     1
102
RTVSPropertyOp22
 70
     1
102
RTVSPropertyOp23
 70
     1
102
RTVSPropertyOp24
 70
     1
102
RTVSPropertyOp25
 70
     1
102
RTVSPropertyOp26
 70
     1
102
RTVSPropertyOp27
 70
     1
102
RTVSPropertyOp28
 70
     1
102
RTVSPropertyOp29
 70
     1
102
RTVSPropertyOp30
 70
     1
102
RTVSPropertyOp31
 70
     1
102
RTVSPropertyOp32
 70
     1
102
RTVSPropertyOp33
 70
     1
102
RTVSPropertyOp34
 70
     1
102
RTVSPropertyOp35
 70
     1
102
RTVSPropertyOp36
 70
     1
102
RTVSPropertyOp37
 70
     1
102
RTVSPropertyOp38
 70
     1
102
RTVSPropertyOp39
 70
     1
102
RTVSPropertyOp40
 70
     1
102
RTVSPropertyOp41
 70
     1
102
RTVSPropertyOp42
 70
     1
102
RTVSPropertyOp43
 70
     1
102
RTVSPropertyOp44
 70
     1
102
RTVSPropertyOp45
 70
     1
102
RTVSPropertyOp46
 70
     1
102
RTVSPropertyOp47
 70
     1
102
RTVSPropertyOp48
 70
     1
102
RTVSPropertyOp49
 70
     1
102
RTVSPropertyOp50
 70
     1
102
RTVSPropertyOp51
 70
     0
102
RTVSPropertyOp52
 70
     0
102
RTVSPropertyOp53
 70
     1
102
RTVSPropertyOp54
 70
     1
102
RTVSPropertyOp55
 70
     1
102
RTVSPropertyOp56
 70
     1
102
RTVSPropertyOp57
 70
     1
102
RTVSPropertyOp58
 70
     1
102
RTVSPropertyOp59
 70
     1
102
RTVSPropertyOp60
 70
     1
102
RTVSPropertyOp61
 70
     1
102
RTVSPropertyOp62
 70
     1
  0
XRECORD
  5
814
102
{ACAD_REACTORS
330
813
102
}
330
813
100
AcDbXrecord
280
     1
102
RTVSPost2010Prop28
280
     0
102
RTVSPost2010PropOp28
 70
     1
102
RTVSPost2010Prop29
280
     1
102
RTVSPost2010PropOp29
 70
     1
102
RTVSPost2010Prop30
280
     1
102
RTVSPost2010PropOp30
 70
     1
102
RTVSPost2010Prop31
280
     0
102
RTVSPost2010PropOp31
 70
     1
102
RTVSPost2010Prop32
280
     0
102
RTVSPost2010PropOp32
 70
     1
102
RTVSPost2010Prop33
280
     0
102
RTVSPost2010PropOp33
 70
     1
102
RTVSPost2010Prop34
280
     0
102
RTVSPost2010PropOp34
 70
     1
102
RTVSPost2010Prop35
280
     0
102
RTVSPost2010PropOp35
 70
     1
102
RTVSPost2010Prop36
280
     0
102
RTVSPost2010PropOp36
 70
     1
102
RTVSPost2010Prop37
 90
       50
102
RTVSPost2010PropOp37
 70
     1
102
RTVSPost2010Prop38
140
0.0
102
RTVSPost2010PropOp38
 70
     1
102
RTVSPost2010Prop39
140
1.0
102
RTVSPost2010PropOp39
 70
     1
102
RTVSPost2010Prop40
 90
        0
102
RTVSPost2010PropOp40
 70
     1
102
RTVSPost2010Prop41ColorIndex
 90
       18
102
RTVSPost2010Prop41ColorRGB
 90
        0
102
RTVSPost2010PropOp41
 70
     1
102
RTVSPost2010Prop42
 90
       50
102
RTVSPost2010PropOp42
 70
     1
102
RTVSPost2010Prop43
 90
        3
102
RTVSPost2010PropOp43
 70
     1
102
RTVSPost2010Prop44ColorIndex
 90
        5
102
RTVSPost2010Prop44ColorRGB
 90
      255
102
RTVSPost2010PropOp44
 70
     1
102
RTVSPost2010Prop45
280
     0
102
RTVSPost2010PropOp45
 70
     1
102
RTVSPost2010Prop46
 90
       50
102
RTVSPost2010PropOp46
 70
     1
102
RTVSPost2010Prop47
 90
       50
102
RTVSPost2010PropOp47
 70
     1
102
RTVSPost2010Prop48
 90
       50
102
RTVSPost2010PropOp48
 70
     1
102
RTVSPost2010Prop49
280
     0
102
RTVSPost2010PropOp49
 70
     1
102
RTVSPost2010Prop50
 90
       50
102
RTVSPost2010PropOp50
 70
     1
102
RTVSPost2010Prop51ColorIndex
 90
      256
102
RTVSPost2010Prop51ColorRGB
 90
-16777216
102
RTVSPost2010PropOp51
 70
     0
102
RTVSPost2010Prop52
140
1.0
102
RTVSPost2010PropOp52
 70
     0
102
RTVSPost2010Prop53
 90
        2
102
RTVSPost2010PropOp53
 70
     1
102
RTVSPost2010Prop54
  1
strokes_ogs.tif
102
RTVSPost2010PropOp54
 70
     1
102
RTVSPost2010Prop55
280
     0
102
RTVSPost2010PropOp55
 70
     1
102
RTVSPost2010Prop56
140
1.0
102
RTVSPost2010PropOp56
 70
     1
102
RTVSPost2010Prop57
140
1.0
102
RTVSPost2010PropOp57
 70
     1
102
RTVSPropertyOp0
 70
     1
102
RTVSPropertyOp1
 70
     1
102
RTVSPropertyOp2
 70
     1
102
RTVSPropertyOp3
 70
     1
102
RTVSPropertyOp4
 70
     1
102
RTVSPropertyOp5
 70
     1
102
RTVSPropertyOp6
 70
     1
102
RTVSPropertyOp7
 70
     1
102
RTVSPropertyOp8
 70
     1
102
RTVSPropertyOp9
 70
     1
102
RTVSPropertyOp10
 70
     1
102
RTVSPropertyOp11
 70
     1
102
RTVSPropertyOp12
 70
     1
102
RTVSPropertyOp13
 70
     1
102
RTVSPropertyOp14
 70
     1
102
RTVSPropertyOp15
 70
     1
102
RTVSPropertyOp16
 70
     1
102
RTVSPropertyOp17
 70
     1
102
RTVSPropertyOp18
 70
     1
102
RTVSPropertyOp19
 70
     1
102
RTVSPropertyOp20
 70
     1
102
RTVSPropertyOp21
 70
     1
102
RTVSPropertyOp22
 70
     1
102
RTVSPropertyOp23
 70
     1
102
RTVSPropertyOp24
 70
     1
102
RTVSPropertyOp25
 70
     1
102
RTVSPropertyOp26
 70
     1
102
RTVSPropertyOp27
 70
     1
102
RTVSPropertyOp28
 70
     1
102
RTVSPropertyOp29
 70
     1
102
RTVSPropertyOp30
 70
     1
102
RTVSPropertyOp31
 70
     1
102
RTVSPropertyOp32
 70
     1
102
RTVSPropertyOp33
 70
     1
102
RTVSPropertyOp34
 70
     1
102
RTVSPropertyOp35
 70
     1
102
RTVSPropertyOp36
 70
     1
102
RTVSPropertyOp37
 70
     1
102
RTVSPropertyOp38
 70
     1
102
RTVSPropertyOp39
 70
     1
102
RTVSPropertyOp40
 70
     1
102
RTVSPropertyOp41
 70
     1
102
RTVSPropertyOp42
 70
     1
102
RTVSPropertyOp43
 70
     1
102
RTVSPropertyOp44
 70
     1
102
RTVSPropertyOp45
 70
     1
102
RTVSPropertyOp46
 70
     1
102
RTVSPropertyOp47
 70
     1
102
RTVSPropertyOp48
 70
     1
102
RTVSPropertyOp49
 70
     1
102
RTVSPropertyOp50
 70
     1
102
RTVSPropertyOp51
 70
     0
102
RTVSPropertyOp52
 70
     0
102
RTVSPropertyOp53
 70
     1
102
RTVSPropertyOp54
 70
     1
102
RTVSPropertyOp55
 70
     1
102
RTVSPropertyOp56
 70
     1
102
RTVSPropertyOp57
 70
     1
102
RTVSPropertyOp58
 70
     1
102
RTVSPropertyOp59
 70
     1
102
RTVSPropertyOp60
 70
     1
102
RTVSPropertyOp61
 70
     1
102
RTVSPropertyOp62
 70
     1
  0
XRECORD
  5
80A
102
{ACAD_REACTORS
330
809
102
}
330
809
100
AcDbXrecord
280
     1
102
RTVSPost2010Prop28
280
     0
102
RTVSPost2010PropOp28
 70
     1
102
RTVSPost2010Prop29
280
     1
102
RTVSPost2010PropOp29
 70
     1
102
RTVSPost2010Prop30
280
     1
102
RTVSPost2010PropOp30
 70
     1
102
RTVSPost2010Prop31
280
     0
102
RTVSPost2010PropOp31
 70
     1
102
RTVSPost2010Prop32
280
     0
102
RTVSPost2010PropOp32
 70
     1
102
RTVSPost2010Prop33
280
     0
102
RTVSPost2010PropOp33
 70
     1
102
RTVSPost2010Prop34
280
     0
102
RTVSPost2010PropOp34
 70
     1
102
RTVSPost2010Prop35
280
     0
102
RTVSPost2010PropOp35
 70
     1
102
RTVSPost2010Prop36
280
     0
102
RTVSPost2010PropOp36
 70
     1
102
RTVSPost2010Prop37
 90
       50
102
RTVSPost2010PropOp37
 70
     1
102
RTVSPost2010Prop38
140
0.0
102
RTVSPost2010PropOp38
 70
     1
102
RTVSPost2010Prop39
140
1.0
102
RTVSPost2010PropOp39
 70
     1
102
RTVSPost2010Prop40
 90
        0
102
RTVSPost2010PropOp40
 70
     1
102
RTVSPost2010Prop41ColorIndex
 90
       18
102
RTVSPost2010Prop41ColorRGB
 90
        0
102
RTVSPost2010PropOp41
 70
     1
102
RTVSPost2010Prop42
 90
       50
102
RTVSPost2010PropOp42
 70
     1
102
RTVSPost2010Prop43
 90
        3
102
RTVSPost2010PropOp43
 70
     1
102
RTVSPost2010Prop44ColorIndex
 90
        5
102
RTVSPost2010Prop44ColorRGB
 90
      255
102
RTVSPost2010PropOp44
 70
     1
102
RTVSPost2010Prop45
280
     0
102
RTVSPost2010PropOp45
 70
     1
102
RTVSPost2010Prop46
 90
       50
102
RTVSPost2010PropOp46
 70
     1
102
RTVSPost2010Prop47
 90
       50
102
RTVSPost2010PropOp47
 70
     1
102
RTVSPost2010Prop48
 90
       50
102
RTVSPost2010PropOp48
 70
     1
102
RTVSPost2010Prop49
280
     0
102
RTVSPost2010PropOp49
 70
     1
102
RTVSPost2010Prop50
 90
       50
102
RTVSPost2010PropOp50
 70
     1
102
RTVSPost2010Prop51ColorIndex
 90
      256
102
RTVSPost2010Prop51ColorRGB
 90
-16777216
102
RTVSPost2010PropOp51
 70
     0
102
RTVSPost2010Prop52
140
1.0
102
RTVSPost2010PropOp52
 70
     0
102
RTVSPost2010Prop53
 90
        2
102
RTVSPost2010PropOp53
 70
     1
102
RTVSPost2010Prop54
  1
strokes_ogs.tif
102
RTVSPost2010PropOp54
 70
     1
102
RTVSPost2010Prop55
280
     0
102
RTVSPost2010PropOp55
 70
     1
102
RTVSPost2010Prop56
140
1.0
102
RTVSPost2010PropOp56
 70
     1
102
RTVSPost2010Prop57
140
1.0
102
RTVSPost2010PropOp57
 70
     1
102
RTVSPropertyOp0
 70
     1
102
RTVSPropertyOp1
 70
     1
102
RTVSPropertyOp2
 70
     1
102
RTVSPropertyOp3
 70
     1
102
RTVSPropertyOp4
 70
     1
102
RTVSPropertyOp5
 70
     1
102
RTVSPropertyOp6
 70
     1
102
RTVSPropertyOp7
 70
     1
102
RTVSPropertyOp8
 70
     1
102
RTVSPropertyOp9
 70
     1
102
RTVSPropertyOp10
 70
     1
102
RTVSPropertyOp11
 70
     1
102
RTVSPropertyOp12
 70
     1
102
RTVSPropertyOp13
 70
     1
102
RTVSPropertyOp14
 70
     1
102
RTVSPropertyOp15
 70
     1
102
RTVSPropertyOp16
 70
     1
102
RTVSPropertyOp17
 70
     1
102
RTVSPropertyOp18
 70
     1
102
RTVSPropertyOp19
 70
     1
102
RTVSPropertyOp20
 70
     1
102
RTVSPropertyOp21
 70
     1
102
RTVSPropertyOp22
 70
     1
102
RTVSPropertyOp23
 70
     1
102
RTVSPropertyOp24
 70
     1
102
RTVSPropertyOp25
 70
     1
102
RTVSPropertyOp26
 70
     1
102
RTVSPropertyOp27
 70
     1
102
RTVSPropertyOp28
 70
     1
102
RTVSPropertyOp29
 70
     1
102
RTVSPropertyOp30
 70
     1
102
RTVSPropertyOp31
 70
     1
102
RTVSPropertyOp32
 70
     1
102
RTVSPropertyOp33
 70
     1
102
RTVSPropertyOp34
 70
     1
102
RTVSPropertyOp35
 70
     1
102
RTVSPropertyOp36
 70
     1
102
RTVSPropertyOp37
 70
     1
102
RTVSPropertyOp38
 70
     1
102
RTVSPropertyOp39
 70
     1
102
RTVSPropertyOp40
 70
     1
102
RTVSPropertyOp41
 70
     1
102
RTVSPropertyOp42
 70
     1
102
RTVSPropertyOp43
 70
     1
102
RTVSPropertyOp44
 70
     1
102
RTVSPropertyOp45
 70
     1
102
RTVSPropertyOp46
 70
     1
102
RTVSPropertyOp47
 70
     1
102
RTVSPropertyOp48
 70
     1
102
RTVSPropertyOp49
 70
     1
102
RTVSPropertyOp50
 70
     1
102
RTVSPropertyOp51
 70
     0
102
RTVSPropertyOp52
 70
     0
102
RTVSPropertyOp53
 70
     1
102
RTVSPropertyOp54
 70
     1
102
RTVSPropertyOp55
 70
     1
102
RTVSPropertyOp56
 70
     1
102
RTVSPropertyOp57
 70
     1
102
RTVSPropertyOp58
 70
     1
102
RTVSPropertyOp59
 70
     1
102
RTVSPropertyOp60
 70
     1
102
RTVSPropertyOp61
 70
     1
102
RTVSPropertyOp62
 70
     1
  0
XRECORD
  5
7FE
102
{ACAD_REACTORS
330
7FD
102
}
330
7FD
100
AcDbXrecord
280
     1
102
RTVSPost2010Prop28
280
     0
102
RTVSPost2010PropOp28
 70
     1
102
RTVSPost2010Prop29
280
     1
102
RTVSPost2010PropOp29
 70
     1
102
RTVSPost2010Prop30
280
     1
102
RTVSPost2010PropOp30
 70
     1
102
RTVSPost2010Prop31
280
     0
102
RTVSPost2010PropOp31
 70
     1
102
RTVSPost2010Prop32
280
     0
102
RTVSPost2010PropOp32
 70
     1
102
RTVSPost2010Prop33
280
     0
102
RTVSPost2010PropOp33
 70
     1
102
RTVSPost2010Prop34
280
     0
102
RTVSPost2010PropOp34
 70
     1
102
RTVSPost2010Prop35
280
     0
102
RTVSPost2010PropOp35
 70
     1
102
RTVSPost2010Prop36
280
     0
102
RTVSPost2010PropOp36
 70
     1
102
RTVSPost2010Prop37
 90
       50
102
RTVSPost2010PropOp37
 70
     1
102
RTVSPost2010Prop38
140
0.0
102
RTVSPost2010PropOp38
 70
     1
102
RTVSPost2010Prop39
140
1.0
102
RTVSPost2010PropOp39
 70
     1
102
RTVSPost2010Prop40
 90
        0
102
RTVSPost2010PropOp40
 70
     1
102
RTVSPost2010Prop41ColorIndex
 90
       18
102
RTVSPost2010Prop41ColorRGB
 90
        0
102
RTVSPost2010PropOp41
 70
     1
102
RTVSPost2010Prop42
 90
       50
102
RTVSPost2010PropOp42
 70
     1
102
RTVSPost2010Prop43
 90
        3
102
RTVSPost2010PropOp43
 70
     1
102
RTVSPost2010Prop44ColorIndex
 90
        5
102
RTVSPost2010Prop44ColorRGB
 90
      255
102
RTVSPost2010PropOp44
 70
     1
102
RTVSPost2010Prop45
280
     0
102
RTVSPost2010PropOp45
 70
     1
102
RTVSPost2010Prop46
 90
       50
102
RTVSPost2010PropOp46
 70
     1
102
RTVSPost2010Prop47
 90
       50
102
RTVSPost2010PropOp47
 70
     1
102
RTVSPost2010Prop48
 90
       50
102
RTVSPost2010PropOp48
 70
     1
102
RTVSPost2010Prop49
280
     0
102
RTVSPost2010PropOp49
 70
     1
102
RTVSPost2010Prop50
 90
       50
102
RTVSPost2010PropOp50
 70
     1
102
RTVSPost2010Prop51ColorIndex
 90
      256
102
RTVSPost2010Prop51ColorRGB
 90
-16777216
102
RTVSPost2010PropOp51
 70
     0
102
RTVSPost2010Prop52
140
1.0
102
RTVSPost2010PropOp52
 70
     0
102
RTVSPost2010Prop53
 90
        2
102
RTVSPost2010PropOp53
 70
     1
102
RTVSPost2010Prop54
  1
strokes_ogs.tif
102
RTVSPost2010PropOp54
 70
     1
102
RTVSPost2010Prop55
280
     0
102
RTVSPost2010PropOp55
 70
     1
102
RTVSPost2010Prop56
140
1.0
102
RTVSPost2010PropOp56
 70
     1
102
RTVSPost2010Prop57
140
1.0
102
RTVSPost2010PropOp57
 70
     1
102
RTVSPropertyOp0
 70
     1
102
RTVSPropertyOp1
 70
     1
102
RTVSPropertyOp2
 70
     1
102
RTVSPropertyOp3
 70
     1
102
RTVSPropertyOp4
 70
     1
102
RTVSPropertyOp5
 70
     1
102
RTVSPropertyOp6
 70
     1
102
RTVSPropertyOp7
 70
     1
102
RTVSPropertyOp8
 70
     1
102
RTVSPropertyOp9
 70
     1
102
RTVSPropertyOp10
 70
     1
102
RTVSPropertyOp11
 70
     1
102
RTVSPropertyOp12
 70
     1
102
RTVSPropertyOp13
 70
     1
102
RTVSPropertyOp14
 70
     1
102
RTVSPropertyOp15
 70
     1
102
RTVSPropertyOp16
 70
     1
102
RTVSPropertyOp17
 70
     1
102
RTVSPropertyOp18
 70
     1
102
RTVSPropertyOp19
 70
     1
102
RTVSPropertyOp20
 70
     1
102
RTVSPropertyOp21
 70
     1
102
RTVSPropertyOp22
 70
     1
102
RTVSPropertyOp23
 70
     1
102
RTVSPropertyOp24
 70
     1
102
RTVSPropertyOp25
 70
     1
102
RTVSPropertyOp26
 70
     1
102
RTVSPropertyOp27
 70
     1
102
RTVSPropertyOp28
 70
     1
102
RTVSPropertyOp29
 70
     1
102
RTVSPropertyOp30
 70
     1
102
RTVSPropertyOp31
 70
     1
102
RTVSPropertyOp32
 70
     1
102
RTVSPropertyOp33
 70
     1
102
RTVSPropertyOp34
 70
     1
102
RTVSPropertyOp35
 70
     1
102
RTVSPropertyOp36
 70
     1
102
RTVSPropertyOp37
 70
     1
102
RTVSPropertyOp38
 70
     1
102
RTVSPropertyOp39
 70
     1
102
RTVSPropertyOp40
 70
     1
102
RTVSPropertyOp41
 70
     1
102
RTVSPropertyOp42
 70
     1
102
RTVSPropertyOp43
 70
     1
102
RTVSPropertyOp44
 70
     1
102
RTVSPropertyOp45
 70
     1
102
RTVSPropertyOp46
 70
     1
102
RTVSPropertyOp47
 70
     1
102
RTVSPropertyOp48
 70
     1
102
RTVSPropertyOp49
 70
     1
102
RTVSPropertyOp50
 70
     1
102
RTVSPropertyOp51
 70
     0
102
RTVSPropertyOp52
 70
     0
102
RTVSPropertyOp53
 70
     1
102
RTVSPropertyOp54
 70
     1
102
RTVSPropertyOp55
 70
     1
102
RTVSPropertyOp56
 70
     1
102
RTVSPropertyOp57
 70
     1
102
RTVSPropertyOp58
 70
     1
102
RTVSPropertyOp59
 70
     1
102
RTVSPropertyOp60
 70
     1
102
RTVSPropertyOp61
 70
     1
102
RTVSPropertyOp62
 70
     1
  0
XRECORD
  5
816
102
{ACAD_REACTORS
330
815
102
}
330
815
100
AcDbXrecord
280
     1
102
RTVSPost2010Prop28
280
     0
102
RTVSPost2010PropOp28
 70
     1
102
RTVSPost2010Prop29
280
     1
102
RTVSPost2010PropOp29
 70
     1
102
RTVSPost2010Prop30
280
     1
102
RTVSPost2010PropOp30
 70
     1
102
RTVSPost2010Prop31
280
     0
102
RTVSPost2010PropOp31
 70
     1
102
RTVSPost2010Prop32
280
     0
102
RTVSPost2010PropOp32
 70
     1
102
RTVSPost2010Prop33
280
     0
102
RTVSPost2010PropOp33
 70
     1
102
RTVSPost2010Prop34
280
     0
102
RTVSPost2010PropOp34
 70
     1
102
RTVSPost2010Prop35
280
     0
102
RTVSPost2010PropOp35
 70
     1
102
RTVSPost2010Prop36
280
     0
102
RTVSPost2010PropOp36
 70
     1
102
RTVSPost2010Prop37
 90
       50
102
RTVSPost2010PropOp37
 70
     1
102
RTVSPost2010Prop38
140
0.0
102
RTVSPost2010PropOp38
 70
     1
102
RTVSPost2010Prop39
140
1.0
102
RTVSPost2010PropOp39
 70
     1
102
RTVSPost2010Prop40
 90
        0
102
RTVSPost2010PropOp40
 70
     1
102
RTVSPost2010Prop41ColorIndex
 90
       18
102
RTVSPost2010Prop41ColorRGB
 90
        0
102
RTVSPost2010PropOp41
 70
     1
102
RTVSPost2010Prop42
 90
       50
102
RTVSPost2010PropOp42
 70
     1
102
RTVSPost2010Prop43
 90
        3
102
RTVSPost2010PropOp43
 70
     1
102
RTVSPost2010Prop44ColorIndex
 90
        5
102
RTVSPost2010Prop44ColorRGB
 90
      255
102
RTVSPost2010PropOp44
 70
     1
102
RTVSPost2010Prop45
280
     0
102
RTVSPost2010PropOp45
 70
     1
102
RTVSPost2010Prop46
 90
       50
102
RTVSPost2010PropOp46
 70
     1
102
RTVSPost2010Prop47
 90
       50
102
RTVSPost2010PropOp47
 70
     1
102
RTVSPost2010Prop48
 90
       50
102
RTVSPost2010PropOp48
 70
     1
102
RTVSPost2010Prop49
280
     0
102
RTVSPost2010PropOp49
 70
     1
102
RTVSPost2010Prop50
 90
       50
102
RTVSPost2010PropOp50
 70
     1
102
RTVSPost2010Prop51ColorIndex
 90
      256
102
RTVSPost2010Prop51ColorRGB
 90
-16777216
102
RTVSPost2010PropOp51
 70
     0
102
RTVSPost2010Prop52
140
1.0
102
RTVSPost2010PropOp52
 70
     0
102
RTVSPost2010Prop53
 90
        2
102
RTVSPost2010PropOp53
 70
     1
102
RTVSPost2010Prop54
  1
strokes_ogs.tif
102
RTVSPost2010PropOp54
 70
     1
102
RTVSPost2010Prop55
280
     0
102
RTVSPost2010PropOp55
 70
     1
102
RTVSPost2010Prop56
140
1.0
102
RTVSPost2010PropOp56
 70
     1
102
RTVSPost2010Prop57
140
1.0
102
RTVSPost2010PropOp57
 70
     1
102
RTVSPropertyOp0
 70
     1
102
RTVSPropertyOp1
 70
     1
102
RTVSPropertyOp2
 70
     1
102
RTVSPropertyOp3
 70
     1
102
RTVSPropertyOp4
 70
     1
102
RTVSPropertyOp5
 70
     1
102
RTVSPropertyOp6
 70
     1
102
RTVSPropertyOp7
 70
     1
102
RTVSPropertyOp8
 70
     1
102
RTVSPropertyOp9
 70
     1
102
RTVSPropertyOp10
 70
     1
102
RTVSPropertyOp11
 70
     1
102
RTVSPropertyOp12
 70
     1
102
RTVSPropertyOp13
 70
     1
102
RTVSPropertyOp14
 70
     1
102
RTVSPropertyOp15
 70
     1
102
RTVSPropertyOp16
 70
     1
102
RTVSPropertyOp17
 70
     1
102
RTVSPropertyOp18
 70
     1
102
RTVSPropertyOp19
 70
     1
102
RTVSPropertyOp20
 70
     1
102
RTVSPropertyOp21
 70
     1
102
RTVSPropertyOp22
 70
     1
102
RTVSPropertyOp23
 70
     1
102
RTVSPropertyOp24
 70
     1
102
RTVSPropertyOp25
 70
     1
102
RTVSPropertyOp26
 70
     1
102
RTVSPropertyOp27
 70
     1
102
RTVSPropertyOp28
 70
     1
102
RTVSPropertyOp29
 70
     1
102
RTVSPropertyOp30
 70
     1
102
RTVSPropertyOp31
 70
     1
102
RTVSPropertyOp32
 70
     1
102
RTVSPropertyOp33
 70
     1
102
RTVSPropertyOp34
 70
     1
102
RTVSPropertyOp35
 70
     1
102
RTVSPropertyOp36
 70
     1
102
RTVSPropertyOp37
 70
     1
102
RTVSPropertyOp38
 70
     1
102
RTVSPropertyOp39
 70
     1
102
RTVSPropertyOp40
 70
     1
102
RTVSPropertyOp41
 70
     1
102
RTVSPropertyOp42
 70
     1
102
RTVSPropertyOp43
 70
     1
102
RTVSPropertyOp44
 70
     1
102
RTVSPropertyOp45
 70
     1
102
RTVSPropertyOp46
 70
     1
102
RTVSPropertyOp47
 70
     1
102
RTVSPropertyOp48
 70
     1
102
RTVSPropertyOp49
 70
     1
102
RTVSPropertyOp50
 70
     1
102
RTVSPropertyOp51
 70
     0
102
RTVSPropertyOp52
 70
     0
102
RTVSPropertyOp53
 70
     1
102
RTVSPropertyOp54
 70
     1
102
RTVSPropertyOp55
 70
     1
102
RTVSPropertyOp56
 70
     1
102
RTVSPropertyOp57
 70
     1
102
RTVSPropertyOp58
 70
     1
102
RTVSPropertyOp59
 70
     1
102
RTVSPropertyOp60
 70
     1
102
RTVSPropertyOp61
 70
     1
102
RTVSPropertyOp62
 70
     1
  0
ENDSEC
  0
EOF
