  0
SECTION
  2
HEADER
  9
$ACADVER
  1
AC1015
  9
$ACADMAINTVER
 70
    20
  9
$DWGCODEPAGE
  3
ANSI_932
  9
$INSBASE
 10
0.0
 20
0.0
 30
0.0
  9
$EXTMIN
 10
10.0
 20
9.999999999999998
 30
0.0
  9
$EXTMAX
 10
475.806619
 20
319.143827
 30
0.0
  9
$LIMMIN
 10
0.0
 20
0.0
  9
$LIMMAX
 10
495.0
 20
341.25
  9
$ORTHOMODE
 70
     1
  9
$REGENMODE
 70
     1
  9
$FILLMODE
 70
     1
  9
$QTEXTMODE
 70
     0
  9
$MIRRTEXT
 70
     1
  9
$LTSCALE
 40
20.0
  9
$ATTMODE
 70
     1
  9
$TEXTSIZE
 40
5.0
  9
$TRACEWID
 40
1.0
  9
$TEXTSTYLE
  7
STANDARD
  9
$CLAYER
  8
0
  9
$CELTYPE
  6
BYLAYER
  9
$CECOLOR
 62
   256
  9
$CELTSCALE
 40
1.0
  9
$DISPSILH
 70
     0
  9
$DIMSCALE
 40
1.0
  9
$DIMASZ
 40
3.0
  9
$DIMEXO
 40
1.0
  9
$DIMDLI
 40
10.0
  9
$DIMRND
 40
0.0
  9
$DIMDLE
 40
0.0
  9
$DIMEXE
 40
1.0
  9
$DIMTP
 40
0.0
  9
$DIMTM
 40
0.0
  9
$DIMTXT
 40
3.2
  9
$DIMCEN
 40
0.0
  9
$DIMTSZ
 40
0.0
  9
$DIMTOL
 70
     0
  9
$DIMLIM
 70
     0
  9
$DIMTIH
 70
     0
  9
$DIMTOH
 70
     0
  9
$DIMSE1
 70
     0
  9
$DIMSE2
 70
     0
  9
$DIMTAD
 70
     3
  9
$DIMZIN
 70
     8
  9
$DIMBLK
  1

  9
$DIMASO
 70
     1
  9
$DIMSHO
 70
     1
  9
$DIMPOST
  1

  9
$DIMAPOST
  1

  9
$DIMALT
 70
     0
  9
$DIMALTD
 70
     2
  9
$DIMALTF
 40
25.4
  9
$DIMLFAC
 40
1.0
  9
$DIMTOFL
 70
     1
  9
$DIMTVP
 40
0.0
  9
$DIMTIX
 70
     0
  9
$DIMSOXD
 70
     0
  9
$DIMSAH
 70
     1
  9
$DIMBLK1
  1
OPEN
  9
$DIMBLK2
  1
OPEN
  9
$DIMSTYLE
  2
STANDARD
  9
$DIMCLRD
 70
     0
  9
$DIMCLRE
 70
     0
  9
$DIMCLRT
 70
     0
  9
$DIMTFAC
 40
1.0
  9
$DIMGAP
 40
1.0
  9
$DIMJUST
 70
     0
  9
$DIMSD1
 70
     0
  9
$DIMSD2
 70
     0
  9
$DIMTOLJ
 70
     1
  9
$DIMTZIN
 70
     0
  9
$DIMALTZ
 70
     0
  9
$DIMALTTZ
 70
     0
  9
$DIMUPT
 70
     0
  9
$DIMDEC
 70
     4
  9
$DIMTDEC
 70
     4
  9
$DIMALTU
 70
     2
  9
$DIMALTTD
 70
     2
  9
$DIMTXSTY
  7
STANDARD
  9
$DIMAUNIT
 70
     0
  9
$DIMADEC
 70
     0
  9
$DIMALTRND
 40
0.0
  9
$DIMAZIN
 70
     0
  9
$DIMDSEP
 70
    46
  9
$DIMATFIT
 70
     3
  9
$DIMFRAC
 70
     0
  9
$DIMLDRBLK
  1
OPEN
  9
$DIMLUNIT
 70
     2
  9
$DIMLWD
 70
    -2
  9
$DIMLWE
 70
    -2
  9
$DIMTMOVE
 70
     0
  9
$LUNITS
 70
     2
  9
$LUPREC
 70
     4
  9
$SKETCHINC
 40
1.0
  9
$FILLETRAD
 40
3.0
  9
$AUNITS
 70
     0
  9
$AUPREC
 70
     2
  9
$MENU
  1
.
  9
$ELEVATION
 40
0.0
  9
$PELEVATION
 40
0.0
  9
$THICKNESS
 40
0.0
  9
$LIMCHECK
 70
     0
  9
$CHAMFERA
 40
10.0
  9
$CHAMFERB
 40
10.0
  9
$CHAMFERC
 40
0.0
  9
$CHAMFERD
 40
0.0
  9
$SKPOLY
 70
     0
  9
$TDCREATE
 40
2451301.601855556
  9
$TDUCREATE
 40
2451301.226855556
  9
$TDUPDATE
 40
2457192.688269919
  9
$TDUUPDATE
 40
2457192.313269919
  9
$TDINDWG
 40
0.0000103472
  9
$TDUSRTIMER
 40
0.0000097222
  9
$USRTIMER
 70
     1
  9
$ANGBASE
 50
0.0
  9
$ANGDIR
 70
     0
  9
$PDMODE
 70
     0
  9
$PDSIZE
 40
0.0
  9
$PLINEWID
 40
0.0
  9
$SPLFRAME
 70
     0
  9
$SPLINETYPE
 70
     6
  9
$SPLINESEGS
 70
     8
  9
$HANDSEED
  5
C91B
  9
$SURFTAB1
 70
     6
  9
$SURFTAB2
 70
     6
  9
$SURFTYPE
 70
     6
  9
$SURFU
 70
     6
  9
$SURFV
 70
     6
  9
$UCSBASE
  2

  9
$UCSNAME
  2

  9
$UCSORG
 10
0.0
 20
0.0
 30
0.0
  9
$UCSXDIR
 10
1.0
 20
0.0
 30
0.0
  9
$UCSYDIR
 10
0.0
 20
1.0
 30
0.0
  9
$UCSORTHOREF
  2

  9
$UCSORTHOVIEW
 70
     0
  9
$UCSORGTOP
 10
0.0
 20
0.0
 30
0.0
  9
$UCSORGBOTTOM
 10
0.0
 20
0.0
 30
0.0
  9
$UCSORGLEFT
 10
0.0
 20
0.0
 30
0.0
  9
$UCSORGRIGHT
 10
0.0
 20
0.0
 30
0.0
  9
$UCSORGFRONT
 10
0.0
 20
0.0
 30
0.0
  9
$UCSORGBACK
 10
0.0
 20
0.0
 30
0.0
  9
$PUCSBASE
  2

  9
$PUCSNAME
  2

  9
$PUCSORG
 10
0.0
 20
0.0
 30
0.0
  9
$PUCSXDIR
 10
1.0
 20
0.0
 30
0.0
  9
$PUCSYDIR
 10
0.0
 20
1.0
 30
0.0
  9
$PUCSORTHOREF
  2

  9
$PUCSORTHOVIEW
 70
     0
  9
$PUCSORGTOP
 10
0.0
 20
0.0
 30
0.0
  9
$PUCSORGBOTTOM
 10
0.0
 20
0.0
 30
0.0
  9
$PUCSORGLEFT
 10
0.0
 20
0.0
 30
0.0
  9
$PUCSORGRIGHT
 10
0.0
 20
0.0
 30
0.0
  9
$PUCSORGFRONT
 10
0.0
 20
0.0
 30
0.0
  9
$PUCSORGBACK
 10
0.0
 20
0.0
 30
0.0
  9
$USERI1
 70
     0
  9
$USERI2
 70
     0
  9
$USERI3
 70
     0
  9
$USERI4
 70
     0
  9
$USERI5
 70
     0
  9
$USERR1
 40
0.0
  9
$USERR2
 40
0.0
  9
$USERR3
 40
0.0
  9
$USERR4
 40
0.0
  9
$USERR5
 40
0.0
  9
$WORLDVIEW
 70
     1
  9
$SHADEDGE
 70
     3
  9
$SHADEDIF
 70
    70
  9
$TILEMODE
 70
     1
  9
$MAXACTVP
 70
    16
  9
$PINSBASE
 10
0.0
 20
0.0
 30
0.0
  9
$PLIMCHECK
 70
     0
  9
$PEXTMIN
 10
1.000000000000000E+20
 20
1.000000000000000E+20
 30
1.000000000000000E+20
  9
$PEXTMAX
 10
-1.000000000000000E+20
 20
-1.000000000000000E+20
 30
-1.000000000000000E+20
  9
$PLIMMIN
 10
0.0
 20
0.0
  9
$PLIMMAX
 10
420.0
 20
297.0
  9
$UNITMODE
 70
     0
  9
$VISRETAIN
 70
     0
  9
$PLINEGEN
 70
     0
  9
$PSLTSCALE
 70
     0
  9
$TREEDEPTH
 70
  3020
  9
$CMLSTYLE
  2
STANDARD
  9
$CMLJUST
 70
     0
  9
$CMLSCALE
 40
1.0
  9
$PROXYGRAPHICS
 70
     1
  9
$MEASUREMENT
 70
     0
  9
$CELWEIGHT
370
    -1
  9
$ENDCAPS
280
     0
  9
$JOINSTYLE
280
     0
  9
$LWDISPLAY
290
     0
  9
$INSUNITS
 70
     0
  9
$HYPERLINKBASE
  1

  9
$STYLESHEET
  1

  9
$XEDIT
290
     1
  9
$CEPSNTYPE
380
     0
  9
$PSTYLEMODE
290
     1
  9
$FINGERPRINTGUID
  2
{335C6419-4796-4893-A113-6E9707AA0074}
  9
$VERSIONGUID
  2
{5FB1A4BC-0562-4B61-9CCE-9C3853CE38C1}
  9
$EXTNAMES
290
     1
  9
$PSVPSCALE
 40
0.0
  9
$OLESTARTUP
290
     0
  0
ENDSEC
  0
SECTION
  2
CLASSES
  0
CLASS
  1
ACDBDICTIONARYWDFLT
  2
AcDbDictionaryWithDefault
  3
ObjectDBX Classes
 90
        0
280
     0
281
     0
  0
CLASS
  1
ACDBPLACEHOLDER
  2
AcDbPlaceHolder
  3
ObjectDBX Classes
 90
        0
280
     0
281
     0
  0
CLASS
  1
LAYOUT
  2
AcDbLayout
  3
ObjectDBX Classes
 90
        0
280
     0
281
     0
  0
CLASS
  1
DICTIONARYVAR
  2
AcDbDictionaryVar
  3
ObjectDBX Classes
 90
        0
280
     0
281
     0
  0
CLASS
  1
MATERIAL
  2
AcDbMaterial
  3
ObjectDBX Classes
 90
     1153
280
     0
281
     0
  0
CLASS
  1
VISUALSTYLE
  2
AcDbVisualStyle
  3
ObjectDBX Classes
 90
     4095
280
     0
281
     0
  0
CLASS
  1
TABLESTYLE
  2
AcDbTableStyle
  3
ObjectDBX Classes
 90
     4095
280
     0
281
     0
  0
CLASS
  1
SCALE
  2
AcDbScale
  3
ObjectDBX Classes
 90
     1153
280
     0
281
     0
  0
CLASS
  1
MLEADERSTYLE
  2
AcDbMLeaderStyle
  3
ACDB_MLEADERSTYLE_CLASS
 90
     4095
280
     0
281
     0
  0
CLASS
  1
ACDBSECTIONVIEWSTYLE
  2
AcDbSectionViewStyle
  3
ObjectDBX Classes
 90
     1025
280
     0
281
     0
  0
CLASS
  1
ACDBDETAILVIEWSTYLE
  2
AcDbDetailViewStyle
  3
ObjectDBX Classes
 90
     1025
280
     0
281
     0
  0
CLASS
  1
CELLSTYLEMAP
  2
AcDbCellStyleMap
  3
ObjectDBX Classes
 90
     1152
280
     0
281
     0
  0
ENDSEC
  0
SECTION
  2
TABLES
  0
TABLE
  2
VPORT
  5
C626
330
0
100
AcDbSymbolTable
 70
     1
  0
VPORT
  5
C864
330
C626
100
AcDbSymbolTableRecord
100
AcDbViewportTableRecord
  2
*ACTIVE
 70
     0
 10
0.0
 20
0.0
 11
1.0
 21
1.0
 12
336.5532924991376
 22
164.5717914826779
 13
0.0
 23
0.0
 14
10.0
 24
10.0
 15
10.0
 25
10.0
 16
0.0
 26
0.0
 36
1.0
 17
0.0
 27
0.0
 37
0.0
 40
312.5855276878816
 41
2.35006605019815
 42
50.0
 43
0.0
 44
0.0
 50
0.0
 51
0.0
 71
     0
 72
   100
 73
     1
 74
     0
 75
     0
 76
     0
 77
     0
 78
     0
281
     0
 65
     1
110
0.0
120
0.0
130
0.0
111
1.0
121
0.0
131
0.0
112
0.0
122
1.0
132
0.0
 79
     0
146
0.0
1001
ACAD_NAV_VCDISPLAY
1070
     3
  0
ENDTAB
  0
TABLE
  2
LTYPE
  5
C623
330
0
100
AcDbSymbolTable
 70
     4
  0
LTYPE
  5
C631
330
C623
100
AcDbSymbolTableRecord
100
AcDbLinetypeTableRecord
  2
BYBLOCK
 70
     0
  3

 72
    65
 73
     0
 40
0.0
  0
LTYPE
  5
C632
330
C623
100
AcDbSymbolTableRecord
100
AcDbLinetypeTableRecord
  2
BYLAYER
 70
     0
  3

 72
    65
 73
     0
 40
0.0
  0
LTYPE
  5
C633
330
C623
100
AcDbSymbolTableRecord
100
AcDbLinetypeTableRecord
  2
CONTINUOUS
 70
     0
  3
Solid line
 72
    65
 73
     0
 40
0.0
  0
LTYPE
  5
C641
330
C623
100
AcDbSymbolTableRecord
100
AcDbLinetypeTableRecord
  2
DASHED
 70
     0
  3
__ __ __ __ __ __ __ __ __ __ __ __ __ __ __ __
 72
    65
 73
     2
 40
0.75
 49
0.5
 74
     0
 49
-0.25
 74
     0
  0
LTYPE
  5
C642
330
C623
100
AcDbSymbolTableRecord
100
AcDbLinetypeTableRecord
  2
CENTER
 70
     0
  3
____ _ ____ _ ____ _ ____ _ ____ _ ____ _ ____ 
 72
    65
 73
     4
 40
2.0
 49
1.25
 74
     0
 49
-0.25
 74
     0
 49
0.25
 74
     0
 49
-0.25
 74
     0
  0
LTYPE
  5
C643
330
C623
100
AcDbSymbolTableRecord
100
AcDbLinetypeTableRecord
  2
PHANTOM
 70
     0
  3
______  __  __  ______  __  __  ______  __  __ 
 72
    65
 73
     6
 40
2.5
 49
1.25
 74
     0
 49
-0.25
 74
     0
 49
0.25
 74
     0
 49
-0.25
 74
     0
 49
0.25
 74
     0
 49
-0.25
 74
     0
  0
ENDTAB
  0
TABLE
  2
LAYER
  5
C620
330
0
100
AcDbSymbolTable
 70
     8
  0
LAYER
  5
C62E
102
{ACAD_XDICTIONARY
360
C8BF
102
}
330
C620
100
AcDbSymbolTableRecord
100
AcDbLayerTableRecord
  2
0
 70
     0
 62
     7
  6
CONTINUOUS
370
    -3
390
C86D
  0
LAYER
  5
C644
102
{ACAD_XDICTIONARY
360
C8C1
102
}
330
C620
100
AcDbSymbolTableRecord
100
AcDbLayerTableRecord
  2
4
 70
     0
 62
     1
  6
CENTER
370
    -3
390
C86D
  0
LAYER
  5
C645
102
{ACAD_XDICTIONARY
360
C8C3
102
}
330
C620
100
AcDbSymbolTableRecord
100
AcDbLayerTableRecord
  2
5
 70
     0
 62
     6
  6
PHANTOM
370
    -3
390
C86D
  0
LAYER
  5
C646
102
{ACAD_XDICTIONARY
360
C8C5
102
}
330
C620
100
AcDbSymbolTableRecord
100
AcDbLayerTableRecord
  2
1
 70
     0
 62
     7
  6
CONTINUOUS
370
    -3
390
C86D
  0
LAYER
  5
C647
102
{ACAD_XDICTIONARY
360
C8C7
102
}
330
C620
100
AcDbSymbolTableRecord
100
AcDbLayerTableRecord
  2
2
 70
     0
 62
     4
  6
CONTINUOUS
370
    -3
390
C86D
  0
LAYER
  5
C648
102
{ACAD_XDICTIONARY
360
C8C9
102
}
330
C620
100
AcDbSymbolTableRecord
100
AcDbLayerTableRecord
  2
3
 70
     0
 62
     2
  6
DASHED
370
    -3
390
C86D
  0
LAYER
  5
C649
102
{ACAD_XDICTIONARY
360
C8CB
102
}
330
C620
100
AcDbSymbolTableRecord
100
AcDbLayerTableRecord
  2
6
 70
     0
 62
     5
  6
CONTINUOUS
370
    -3
390
C86D
  0
LAYER
  5
C64A
102
{ACAD_XDICTIONARY
360
C8CD
102
}
330
C620
100
AcDbSymbolTableRecord
100
AcDbLayerTableRecord
  2
7
 70
     0
 62
     3
  6
CONTINUOUS
370
    -3
390
C86D
  0
ENDTAB
  0
TABLE
  2
STYLE
  5
C621
330
0
100
AcDbSymbolTable
 70
     1
  0
STYLE
  5
C62F
330
C621
100
AcDbSymbolTableRecord
100
AcDbTextStyleTableRecord
  2
STANDARD
 70
     0
 40
0.0
 41
1.0
 50
0.0
 71
     0
 42
5.0
  3
txt
  4

  0
ENDTAB
  0
TABLE
  2
VIEW
  5
C624
330
0
100
AcDbSymbolTable
 70
     0
  0
ENDTAB
  0
TABLE
  2
UCS
  5
C625
330
0
100
AcDbSymbolTable
 70
     0
  0
ENDTAB
  0
TABLE
  2
APPID
  5
C627
330
0
100
AcDbSymbolTable
 70
     3
  0
APPID
  5
C630
330
C627
100
AcDbSymbolTableRecord
100
AcDbRegAppTableRecord
  2
ACAD
 70
     0
  0
APPID
  5
C8D9
330
C627
100
AcDbSymbolTableRecord
100
AcDbRegAppTableRecord
  2
ACAD_NAV_VCDISPLAY
 70
     0
  0
APPID
  5
C912
330
C627
100
AcDbSymbolTableRecord
100
AcDbRegAppTableRecord
  2
ACAD_MLEADERVER
 70
     0
  0
ENDTAB
  0
TABLE
  2
DIMSTYLE
  5
C628
330
0
100
AcDbSymbolTable
 70
     1
100
AcDbDimStyleTable
 71
     0
  0
DIMSTYLE
105
C64C
330
C628
100
AcDbSymbolTableRecord
100
AcDbDimStyleTableRecord
  2
STANDARD
 70
     0
 41
3.0
 42
1.0
 43
10.0
 44
1.0
 73
     0
 74
     0
 77
     3
 78
     8
140
3.2
141
0.0
147
1.0
172
     1
173
     1
284
     8
285
     8
286
     8
340
C62F
  0
ENDTAB
  0
TABLE
  2
BLOCK_RECORD
  5
C61F
330
0
100
AcDbSymbolTable
 70
     1
  0
BLOCK_RECORD
  5
C63C
102
{ACAD_XDICTIONARY
360
C867
102
}
330
C61F
100
AcDbSymbolTableRecord
100
AcDbBlockTableRecord
  2
*MODEL_SPACE
340
C8BB
  0
BLOCK_RECORD
  5
C638
102
{ACAD_XDICTIONARY
360
C865
102
}
330
C61F
100
AcDbSymbolTableRecord
100
AcDbBlockTableRecord
  2
*PAPER_SPACE
340
C8BC
  0
BLOCK_RECORD
  5
C654
330
C61F
100
AcDbSymbolTableRecord
100
AcDbBlockTableRecord
  2
_OPEN
340
0
  0
ENDTAB
  0
ENDSEC
  0
SECTION
  2
BLOCKS
  0
BLOCK
  5
C63D
330
C63C
100
AcDbEntity
  8
0
100
AcDbBlockBegin
  2
*MODEL_SPACE
 70
     0
 10
0.0
 20
0.0
 30
0.0
  3
*MODEL_SPACE
  1

  0
ENDBLK
  5
C63E
330
C63C
100
AcDbEntity
  8
0
100
AcDbBlockEnd
  0
BLOCK
  5
C639
330
C638
100
AcDbEntity
 67
     1
  8
0
100
AcDbBlockBegin
  2
*PAPER_SPACE
 70
     0
 10
0.0
 20
0.0
 30
0.0
  3
*PAPER_SPACE
  1

  0
ENDBLK
  5
C63A
330
C638
100
AcDbEntity
 67
     1
  8
0
100
AcDbBlockEnd
  0
BLOCK
  5
C655
330
C654
100
AcDbEntity
  8
0
100
AcDbBlockBegin
  2
_OPEN
 70
     0
 10
0.0
 20
0.0
 30
0.0
  3
_OPEN
  1

  0
LINE
  5
C656
330
C654
100
AcDbEntity
  8
0
  6
ByBlock
 62
     0
100
AcDbLine
 10
-1.0
 20
0.166667
 30
0.0
 11
0.0
 21
0.0
 31
0.0
  0
LINE
  5
C657
330
C654
100
AcDbEntity
  8
0
  6
ByBlock
 62
     0
100
AcDbLine
 10
0.0
 20
0.0
 30
0.0
 11
-1.0
 21
-0.166667
 31
0.0
  0
LINE
  5
C658
330
C654
100
AcDbEntity
  8
0
  6
ByBlock
 62
     0
100
AcDbLine
 10
0.0
 20
0.0
 30
0.0
 11
-1.0
 21
0.0
 31
0.0
  0
ENDBLK
  5
C659
330
C654
100
AcDbEntity
  8
0
100
AcDbBlockEnd
  0
ENDSEC
  0
SECTION
  2
ENTITIES
  0
TEXT
  5
C65A
330
C63C
100
AcDbEntity
  8
7
  6
Continuous
100
AcDbText
 10
10.0
 20
18.0
 30
0.0
 40
3.0
  1
TYPE No.603A.F-N
100
AcDbText
  0
TEXT
  5
C65B
330
C63C
100
AcDbEntity
  8
7
  6
Continuous
100
AcDbText
 10
10.0
 20
26.0
 30
0.0
 40
3.0
  1
CODE No.9477
100
AcDbText
  0
TEXT
  5
C65C
330
C63C
100
AcDbEntity
  8
1
  6
Continuous
100
AcDbText
 10
10.0
 20
10.0
 30
0.0
 40
1.399999999999999
  1
LAYER
100
AcDbText
  0
TEXT
  5
C65D
330
C63C
100
AcDbEntity
  8
1
  6
Continuous
100
AcDbText
 10
17.97951099999998
 20
10.04873699999998
 30
0.0
 40
1.399999999999999
  1
1
100
AcDbText
  0
TEXT
  5
C65E
330
C63C
100
AcDbEntity
  8
7
  6
Continuous
100
AcDbText
 10
29.97951099999999
 20
10.04873699999998
 30
0.0
 40
1.399999999999999
  1
7
100
AcDbText
  0
TEXT
  5
C65F
330
C63C
100
AcDbEntity
  8
4
  6
CENTER
100
AcDbText
 10
23.97951099999999
 20
10.04873699999998
 30
0.0
 40
1.399999999999999
  1
4
100
AcDbText
  0
TEXT
  5
C660
330
C63C
100
AcDbEntity
  8
3
  6
DASHED
100
AcDbText
 10
21.979511
 20
10.04873699999998
 30
0.0
 40
1.399999999999999
  1
3
100
AcDbText
  0
TEXT
  5
C661
330
C63C
100
AcDbEntity
  8
2
  6
Continuous
100
AcDbText
 10
19.97951099999999
 20
10.04873699999998
 30
0.0
 40
1.399999999999999
  1
2
100
AcDbText
  0
TEXT
  5
C662
330
C63C
100
AcDbEntity
  8
6
  6
Continuous
100
AcDbText
 10
27.979511
 20
10.04873699999998
 30
0.0
 40
1.399999999999999
  1
6
100
AcDbText
  0
TEXT
  5
C663
330
C63C
100
AcDbEntity
  8
5
  6
PHANTOM
100
AcDbText
 10
25.97951099999999
 20
10.04873699999998
 30
0.0
 40
1.399999999999999
  1
5
100
AcDbText
  0
LINE
  5
C664
330
C63C
100
AcDbEntity
  8
4
  6
CENTER
100
AcDbLine
 10
140.518929
 20
312.143827
 30
0.0
 11
128.018929
 21
312.143827
 31
0.0
  0
LINE
  5
C665
330
C63C
100
AcDbEntity
  8
4
  6
CENTER
100
AcDbLine
 10
140.518929
 20
272.1438229999999
 30
0.0
 11
128.018929
 21
272.1438229999999
 31
0.0
  0
LINE
  5
C666
330
C63C
100
AcDbEntity
  8
4
  6
CENTER
100
AcDbLine
 10
229.268929
 20
292.143823
 30
0.0
 11
124.2689289999999
 21
292.143823
 31
0.0
  0
LINE
  5
C667
330
C63C
100
AcDbEntity
  8
1
  6
Continuous
100
AcDbLine
 10
127.268761
 20
212.872567
 30
0.0
 11
226.268929
 21
212.872567
 31
0.0
  0
LINE
  5
C668
330
C63C
100
AcDbEntity
  8
1
  6
Continuous
100
AcDbLine
 10
143.095078
 20
210.872567
 30
0.0
 11
127.268761
 21
210.872567
 31
0.0
  0
ARC
  5
C669
330
C63C
100
AcDbEntity
  8
1
  6
Continuous
100
AcDbCircle
 10
134.268929
 20
312.143827
 30
0.0
 40
7.0
100
AcDbArc
 50
8.525496999999997
 51
180.0
  0
ARC
  5
C66A
330
C63C
100
AcDbEntity
  8
1
  6
Continuous
100
AcDbCircle
 10
134.268929
 20
272.1438309999999
 30
0.0
 40
7.0
100
AcDbArc
 50
180.0
 51
351.474487
  0
LINE
  5
C66B
330
C63C
100
AcDbEntity
  8
4
  6
CENTER
100
AcDbLine
 10
161.768929
 20
144.8725669999998
 30
0.0
 11
161.768929
 21
200.872567
 31
0.0
  0
LINE
  5
C66C
330
C63C
100
AcDbEntity
  8
4
  6
CENTER
100
AcDbLine
 10
207.768929
 20
136.2132419999998
 30
0.0
 11
207.768929
 21
216.2355849999999
 31
0.0
  0
ARC
  5
C66D
330
C63C
100
AcDbEntity
  8
1
  6
Continuous
100
AcDbCircle
 10
191.4189289999999
 20
157.872659
 30
0.0
 40
2.5
100
AcDbArc
 50
90.0
 51
180.0
  0
LINE
  5
C66E
330
C63C
100
AcDbEntity
  8
1
  6
Continuous
100
AcDbLine
 10
197.268929
 20
160.3726589999999
 30
0.0
 11
197.268929
 21
161.3726589999999
 31
0.0
  0
LINE
  5
C66F
330
C63C
100
AcDbEntity
  8
1
  6
Continuous
100
AcDbLine
 10
218.268929
 20
160.3726589999999
 30
0.0
 11
218.268929
 21
161.3726589999999
 31
0.0
  0
ARC
  5
C670
330
C63C
100
AcDbEntity
  8
1
  6
Continuous
100
AcDbCircle
 10
161.768929
 20
172.872567
 30
0.0
 40
25.0
100
AcDbArc
 50
120.8480259999999
 51
31.50970500000001
  0
LINE
  5
C671
330
C63C
100
AcDbEntity
  8
1
  6
Continuous
100
AcDbLine
 10
226.618929
 20
151.8726589999999
 30
0.0
 11
188.918929
 21
151.8726589999999
 31
0.0
  0
LINE
  5
C672
330
C63C
100
AcDbEntity
  8
1
  6
Continuous
100
AcDbLine
 10
225.018923
 20
147.8726589999999
 30
0.0
 11
190.51892
 21
147.8726589999999
 31
0.0
  0
LINE
  5
C673
330
C63C
100
AcDbEntity
  8
1
  6
Continuous
100
AcDbLine
 10
224.1187609999998
 20
160.3726589999999
 30
0.0
 11
191.4189289999999
 21
160.3726589999999
 31
0.0
  0
LINE
  5
C674
330
C63C
100
AcDbEntity
  8
1
  6
Continuous
100
AcDbLine
 10
225.018923
 20
151.8726589999999
 30
0.0
 11
225.018923
 21
147.8726589999999
 31
0.0
  0
LINE
  5
C675
330
C63C
100
AcDbEntity
  8
1
  6
Continuous
100
AcDbLine
 10
190.51892
 20
151.8726589999999
 30
0.0
 11
190.51892
 21
147.8726589999999
 31
0.0
  0
LINE
  5
C676
330
C63C
100
AcDbEntity
  8
1
  6
Continuous
100
AcDbLine
 10
188.918929
 20
151.8726589999999
 30
0.0
 11
188.918929
 21
157.872659
 31
0.0
  0
ARC
  5
C677
330
C63C
100
AcDbEntity
  8
1
  6
Continuous
100
AcDbCircle
 10
196.6419149999999
 20
211.8725669999999
 30
0.0
 40
4.0
100
AcDbArc
 50
217.365448
 51
270.0
  0
ARC
  5
C678
330
C63C
100
AcDbEntity
  8
1
  6
Continuous
100
AcDbCircle
 10
196.52591
 20
206.872567
 30
0.0
 40
4.0
100
AcDbArc
 50
90.0
 51
156.5447409999999
  0
ARC
  5
C679
330
C63C
100
AcDbEntity
  8
1
  6
Continuous
100
AcDbCircle
 10
197.393677
 20
208.872567
 30
0.0
 40
4.0
100
AcDbArc
 50
90.0
 51
156.5447389999999
  0
LINE
  5
C67A
330
C63C
100
AcDbEntity
  8
1
  6
Continuous
100
AcDbLine
 10
197.768929
 20
206.872567
 30
0.0
 11
197.768929
 21
189.872567
 31
0.0
  0
LINE
  5
C67B
330
C63C
100
AcDbEntity
  8
1
  6
Continuous
100
AcDbLine
 10
217.7689289999999
 20
206.872567
 30
0.0
 11
217.7689289999999
 21
189.872567
 31
0.0
  0
LINE
  5
C67C
330
C63C
100
AcDbEntity
  8
1
  6
Continuous
100
AcDbLine
 10
202.768929
 20
179.872567
 30
0.0
 11
202.768929
 21
168.372659
 31
0.0
  0
LINE
  5
C67D
330
C63C
100
AcDbEntity
  8
1
  6
Continuous
100
AcDbLine
 10
212.768929
 20
179.872567
 30
0.0
 11
212.768929
 21
168.372659
 31
0.0
  0
ARC
  5
C67E
330
C63C
100
AcDbEntity
  8
1
  6
Continuous
100
AcDbCircle
 10
207.7686469999999
 20
174.6503999999999
 30
0.0
 40
13.277742
100
AcDbArc
 50
248.3089689999999
 51
291.6910659999999
  0
LINE
  5
C67F
330
C63C
100
AcDbEntity
  8
1
  6
Continuous
100
AcDbLine
 10
218.268929
 20
161.3726589999999
 30
0.0
 11
197.268929
 21
161.3726589999999
 31
0.0
  0
LINE
  5
C680
330
C63C
100
AcDbEntity
  8
1
  6
Continuous
100
AcDbLine
 10
212.676125
 20
162.3128439999999
 30
0.0
 11
212.676125
 21
168.372659
 31
0.0
  0
LINE
  5
C681
330
C63C
100
AcDbEntity
  8
1
  6
Continuous
100
AcDbLine
 10
217.583611
 20
168.372659
 30
0.0
 11
217.583611
 21
162.3128439999999
 31
0.0
  0
ARC
  5
C682
330
C63C
100
AcDbEntity
  8
1
  6
Continuous
100
AcDbCircle
 10
215.12986
 20
165.044473
 30
0.0
 40
3.671864999999998
100
AcDbArc
 50
228.0675349999999
 51
311.9324649999999
  0
LINE
  5
C683
330
C63C
100
AcDbEntity
  8
1
  6
Continuous
100
AcDbLine
 10
202.8611759999999
 20
162.3128439999999
 30
0.0
 11
202.8611759999999
 21
168.372659
 31
0.0
  0
LINE
  5
C684
330
C63C
100
AcDbEntity
  8
1
  6
Continuous
100
AcDbLine
 10
197.9536979999998
 20
168.372659
 30
0.0
 11
197.9536979999998
 21
162.3128439999999
 31
0.0
  0
ARC
  5
C685
330
C63C
100
AcDbEntity
  8
1
  6
Continuous
100
AcDbCircle
 10
200.4074329999999
 20
165.044473
 30
0.0
 40
3.671864999999998
100
AcDbArc
 50
228.0675349999999
 51
311.9324649999999
  0
LINE
  5
C686
330
C63C
100
AcDbEntity
  8
1
  6
Continuous
100
AcDbLine
 10
214.768929
 20
179.872567
 30
0.0
 11
200.768929
 21
179.872567
 31
0.0
  0
LINE
  5
C687
330
C63C
100
AcDbEntity
  8
1
  6
Continuous
100
AcDbLine
 10
217.7689289999999
 20
189.872567
 30
0.0
 11
197.768929
 21
189.872567
 31
0.0
  0
LINE
  5
C688
330
C63C
100
AcDbEntity
  8
1
  6
Continuous
100
AcDbLine
 10
217.7689289999999
 20
189.872567
 30
0.0
 11
214.768929
 21
179.872567
 31
0.0
  0
LINE
  5
C689
330
C63C
100
AcDbEntity
  8
1
  6
Continuous
100
AcDbLine
 10
197.768929
 20
189.872567
 30
0.0
 11
200.768929
 21
179.872567
 31
0.0
  0
LINE
  5
C68A
330
C63C
100
AcDbEntity
  8
1
  6
Continuous
100
AcDbLine
 10
218.895943
 20
207.8725669999998
 30
0.0
 11
196.6419149999999
 21
207.8725669999998
 31
0.0
  0
LINE
  5
C68B
330
C63C
100
AcDbEntity
  8
1
  6
Continuous
100
AcDbLine
 10
217.7689289999999
 20
206.872567
 30
0.0
 11
197.768929
 21
206.872567
 31
0.0
  0
LINE
  5
C68C
330
C63C
100
AcDbEntity
  8
1
  6
Continuous
100
AcDbLine
 10
226.268929
 20
210.872567
 30
0.0
 11
196.52591
 21
210.872567
 31
0.0
  0
LINE
  5
C68D
330
C63C
100
AcDbEntity
  8
4
  6
CENTER
100
AcDbLine
 10
219.2687609999999
 20
208.390683
 30
0.0
 11
219.2687609999999
 21
215.493495
 31
0.0
  0
ARC
  5
C68E
330
C63C
100
AcDbEntity
  8
1
  6
Continuous
100
AcDbCircle
 10
218.895943
 20
211.8725669999999
 30
0.0
 40
4.0
100
AcDbArc
 50
270.0
 51
345.522491
  0
LINE
  5
C68F
330
C63C
100
AcDbEntity
  8
1
  6
Continuous
100
AcDbLine
 10
214.268929
 20
207.8725669999998
 30
0.0
 11
214.268929
 21
206.872567
 31
0.0
  0
LINE
  5
C690
330
C63C
100
AcDbEntity
  8
1
  6
Continuous
100
AcDbLine
 10
226.268929
 20
210.872567
 30
0.0
 11
226.268929
 21
212.872567
 31
0.0
  0
LINE
  5
C691
330
C63C
100
AcDbEntity
  8
1
  6
Continuous
100
AcDbLine
 10
201.2689289999999
 20
207.8725669999998
 30
0.0
 11
201.2689289999999
 21
206.872567
 31
0.0
  0
LINE
  5
C692
330
C63C
100
AcDbEntity
  8
1
  6
Continuous
100
AcDbLine
 10
156.268929
 20
169.262193
 30
0.0
 11
156.268929
 21
207.2576949999999
 31
0.0
  0
LINE
  5
C693
330
C63C
100
AcDbEntity
  8
1
  6
Continuous
100
AcDbLine
 10
169.268929
 20
207.1711819999999
 30
0.0
 11
169.268929
 21
171.6531459999998
 31
0.0
  0
LINE
  5
C694
330
C63C
100
AcDbEntity
  8
1
  6
Continuous
100
AcDbLine
 10
193.72419
 20
210.4646999999999
 30
0.0
 11
174.8136679999998
 21
166.880433
 31
0.0
  0
LINE
  5
C695
330
C63C
100
AcDbEntity
  8
1
  6
Continuous
100
AcDbLine
 10
146.7646339999998
 20
209.4451229999999
 30
0.0
 11
152.7732239999999
 21
167.90001
 31
0.0
  0
LINE
  5
C696
330
C63C
100
AcDbEntity
  8
4
  6
CENTER
100
AcDbLine
 10
189.768929
 20
172.872567
 30
0.0
 11
133.768929
 21
172.872567
 31
0.0
  0
ARC
  5
C697
330
C63C
100
AcDbEntity
  8
1
  6
Continuous
100
AcDbCircle
 10
161.768929
 20
172.872567
 30
0.0
 40
17.5
100
AcDbArc
 50
131.5567029999999
 51
11.448888
  0
LINE
  5
C698
330
C63C
100
AcDbEntity
  8
1
  6
Continuous
100
AcDbLine
 10
156.732033
 20
164.4725659999998
 30
0.0
 11
171.144181
 21
164.4725659999998
 31
0.0
  0
ARC
  5
C699
330
C63C
100
AcDbEntity
  8
1
  6
Continuous
100
AcDbCircle
 10
171.144181
 20
168.4725659999998
 30
0.0
 40
4.0
100
AcDbArc
 50
270.0
 51
336.5447389999999
  0
ARC
  5
C69A
330
C63C
100
AcDbEntity
  8
1
  6
Continuous
100
AcDbCircle
 10
156.732033
 20
168.4725659999998
 30
0.0
 40
4.0
100
AcDbArc
 50
188.2295229999998
 51
270.0
  0
ARC
  5
C69B
330
C63C
100
AcDbEntity
  8
1
  6
Continuous
100
AcDbCircle
 10
143.095078
 20
206.872567
 30
0.0
 40
4.0
100
AcDbArc
 50
8.229523
 51
90.0
  0
ARC
  5
C69C
330
C63C
100
AcDbEntity
  8
1
  6
Continuous
100
AcDbCircle
 10
142.805825
 20
208.872567
 30
0.0
 40
4.0
100
AcDbArc
 50
8.229523
 51
90.0
  0
LINE
  5
C69D
330
C63C
100
AcDbEntity
  8
4
  6
CENTER
100
AcDbLine
 10
134.268761
 20
208.259301
 30
0.0
 11
134.268761
 21
215.7302539999998
 31
0.0
  0
ARC
  5
C69E
330
C63C
100
AcDbEntity
  8
1
  6
Continuous
100
AcDbCircle
 10
195.984581
 20
320.043825
 30
0.0
 40
3.0
100
AcDbArc
 50
219.296444
 51
317.396317
  0
ARC
  5
C69F
330
C63C
100
AcDbEntity
  8
1
  6
Continuous
100
AcDbCircle
 10
195.984581
 20
264.24383
 30
0.0
 40
3.0
100
AcDbArc
 50
42.60368299999998
 51
140.7036439999999
  0
LINE
  5
C6A0
330
C63C
100
AcDbEntity
  8
4
  6
CENTER
100
AcDbLine
 10
207.768929
 20
308.967394
 30
0.0
 11
207.768929
 21
275.643823
 31
0.0
  0
LINE
  5
C6A1
330
C63C
100
AcDbEntity
  8
4
  6
CENTER
100
AcDbLine
 10
219.268929
 20
318.393827
 30
0.0
 11
219.268929
 21
305.893827
 31
0.0
  0
LINE
  5
C6A2
330
C63C
100
AcDbEntity
  8
1
  6
Continuous
100
AcDbLine
 10
226.268929
 20
272.1438309999999
 30
0.0
 11
226.268929
 21
312.143827
 31
0.0
  0
LINE
  5
C6A3
330
C63C
100
AcDbEntity
  8
1
  6
Continuous
100
AcDbLine
 10
219.268929
 20
319.1438269999999
 30
0.0
 11
200.768929
 21
319.1438269999999
 31
0.0
  0
LINE
  5
C6A4
330
C63C
100
AcDbEntity
  8
4
  6
CENTER
100
AcDbLine
 10
225.518929
 20
312.143827
 30
0.0
 11
213.018929
 21
312.143827
 31
0.0
  0
ARC
  5
C6A5
330
C63C
100
AcDbEntity
  8
1
  6
Continuous
100
AcDbCircle
 10
219.268929
 20
312.143827
 30
0.0
 40
7.0
100
AcDbArc
 50
0.0
 51
90.0
  0
CIRCLE
  5
C6A6
330
C63C
100
AcDbEntity
  8
1
  6
Continuous
100
AcDbCircle
 10
219.268929
 20
312.143827
 30
0.0
 40
3.25
  0
ARC
  5
C6A7
330
C63C
100
AcDbEntity
  8
1
  6
Continuous
100
AcDbCircle
 10
200.768929
 20
315.6438269999998
 30
0.0
 40
3.5
100
AcDbArc
 50
90.0
 51
137.396332
  0
CIRCLE
  5
C6A8
330
C63C
100
AcDbEntity
  8
1
  6
Continuous
100
AcDbCircle
 10
207.768929
 20
292.143823
 30
0.0
 40
8.8
  0
CIRCLE
  5
C6A9
330
C63C
100
AcDbEntity
  8
1
  6
Continuous
100
AcDbCircle
 10
207.768929
 20
292.143823
 30
0.0
 40
12.5
  0
LINE
  5
C6AA
330
C63C
100
AcDbEntity
  8
1
  6
Continuous
100
AcDbLine
 10
212.0601049999999
 20
297.3542269999999
 30
0.0
 11
210.8148499999999
 21
296.108972
 31
0.0
  0
LINE
  5
C6AB
330
C63C
100
AcDbEntity
  8
1
  6
Continuous
100
AcDbLine
 10
212.0600889999999
 20
286.9334119999999
 30
0.0
 11
210.814835
 21
288.1786749999998
 31
0.0
  0
CIRCLE
  5
C6AC
330
C63C
100
AcDbEntity
  8
1
  6
Continuous
100
AcDbCircle
 10
207.768929
 20
292.143823
 30
0.0
 40
4.4
  0
CIRCLE
  5
C6AD
330
C63C
100
AcDbEntity
  8
1
  6
Continuous
100
AcDbCircle
 10
207.768929
 20
292.143823
 30
0.0
 40
5.0
  0
LINE
  5
C6AE
330
C63C
100
AcDbEntity
  8
1
  6
Continuous
100
AcDbLine
 10
212.979348
 20
296.434984
 30
0.0
 11
212.0601049999999
 21
297.3542269999999
 31
0.0
  0
LINE
  5
C6AF
330
C63C
100
AcDbEntity
  8
1
  6
Continuous
100
AcDbLine
 10
212.979348
 20
296.434984
 30
0.0
 11
211.734085
 21
295.18973
 31
0.0
  0
LINE
  5
C6B0
330
C63C
100
AcDbEntity
  8
1
  6
Continuous
100
AcDbLine
 10
212.979325
 20
287.852648
 30
0.0
 11
212.0600889999999
 21
286.9334119999999
 31
0.0
  0
LINE
  5
C6B1
330
C63C
100
AcDbEntity
  8
1
  6
Continuous
100
AcDbLine
 10
212.979325
 20
287.852648
 30
0.0
 11
211.73407
 21
289.09791
 31
0.0
  0
LINE
  5
C6B2
330
C63C
100
AcDbEntity
  8
1
  6
Continuous
100
AcDbLine
 10
203.4777679999999
 20
297.354242
 30
0.0
 11
202.558533
 21
296.435007
 31
0.0
  0
LINE
  5
C6B3
330
C63C
100
AcDbEntity
  8
1
  6
Continuous
100
AcDbLine
 10
204.723023
 20
296.108988
 30
0.0
 11
203.4777679999999
 21
297.354242
 31
0.0
  0
LINE
  5
C6B4
330
C63C
100
AcDbEntity
  8
1
  6
Continuous
100
AcDbLine
 10
203.4777529999999
 20
286.9334279999998
 30
0.0
 11
202.55851
 21
287.852671
 31
0.0
  0
LINE
  5
C6B5
330
C63C
100
AcDbEntity
  8
1
  6
Continuous
100
AcDbLine
 10
203.803772
 20
289.097925
 30
0.0
 11
202.55851
 21
287.852671
 31
0.0
  0
LINE
  5
C6B6
330
C63C
100
AcDbEntity
  8
1
  6
Continuous
100
AcDbLine
 10
203.803788
 20
295.189752
 30
0.0
 11
202.558533
 21
296.435007
 31
0.0
  0
LINE
  5
C6B7
330
C63C
100
AcDbEntity
  8
1
  6
Continuous
100
AcDbLine
 10
204.7230079999999
 20
288.1786819999998
 30
0.0
 11
203.4777529999999
 21
286.9334279999998
 31
0.0
  0
LINE
  5
C6B8
330
C63C
100
AcDbEntity
  8
1
  6
Continuous
100
AcDbLine
 10
200.768929
 20
265.1438309999999
 30
0.0
 11
219.268929
 21
265.1438309999999
 31
0.0
  0
LINE
  5
C6B9
330
C63C
100
AcDbEntity
  8
4
  6
CENTER
100
AcDbLine
 10
219.268929
 20
278.3938229999999
 30
0.0
 11
219.268929
 21
265.8938229999999
 31
0.0
  0
CIRCLE
  5
C6BA
330
C63C
100
AcDbEntity
  8
1
  6
Continuous
100
AcDbCircle
 10
219.268929
 20
272.1438229999999
 30
0.0
 40
3.25
  0
LINE
  5
C6BB
330
C63C
100
AcDbEntity
  8
4
  6
CENTER
100
AcDbLine
 10
225.518929
 20
272.1438229999999
 30
0.0
 11
213.018929
 21
272.1438229999999
 31
0.0
  0
ARC
  5
C6BC
330
C63C
100
AcDbEntity
  8
1
  6
Continuous
100
AcDbCircle
 10
219.268929
 20
272.1438309999999
 30
0.0
 40
7.0
100
AcDbArc
 50
270.0
 51
0.0
  0
ARC
  5
C6BD
330
C63C
100
AcDbEntity
  8
1
  6
Continuous
100
AcDbCircle
 10
200.768929
 20
268.6438309999999
 30
0.0
 40
3.5
100
AcDbArc
 50
222.603687
 51
270.0
  0
LINE
  5
C6BE
330
C63C
100
AcDbEntity
  8
4
  6
CENTER
100
AcDbLine
 10
134.268929
 20
318.393827
 30
0.0
 11
134.268929
 21
305.893827
 31
0.0
  0
LINE
  5
C6BF
330
C63C
100
AcDbEntity
  8
1
  6
Continuous
100
AcDbLine
 10
141.1915779999999
 20
313.181578
 30
0.0
 11
142.291027
 21
305.8473259999999
 31
0.0
  0
ARC
  5
C6C0
330
C63C
100
AcDbEntity
  8
1
  6
Continuous
100
AcDbCircle
 10
161.173767
 20
304.347574
 30
0.0
 40
15.0
100
AcDbArc
 50
149.3527829999999
 51
173.934692
  0
ARC
  5
C6C1
330
C63C
100
AcDbEntity
  8
1
  6
Continuous
100
AcDbCircle
 10
144.356156
 20
300.122003
 30
0.0
 40
12.5
100
AcDbArc
 50
38.50148
 51
71.75856
  0
ARC
  5
C6C2
330
C63C
100
AcDbEntity
  8
1
  6
Continuous
100
AcDbCircle
 10
177.897782
 20
300.919134
 30
0.0
 40
11.0
100
AcDbArc
 50
109.428223
 51
140.8283079999999
  0
LINE
  5
C6C3
330
C63C
100
AcDbEntity
  8
1
  6
Continuous
100
AcDbLine
 10
193.6629409999999
 20
318.143827
 30
0.0
 11
174.2389
 21
311.2927839999999
 31
0.0
  0
CIRCLE
  5
C6C4
330
C63C
100
AcDbEntity
  8
1
  6
Continuous
100
AcDbCircle
 10
134.268929
 20
312.143827
 30
0.0
 40
3.25
  0
LINE
  5
C6C5
330
C63C
100
AcDbEntity
  8
1
  6
Continuous
100
AcDbLine
 10
166.268929
 20
277.893823
 30
0.0
 11
157.268929
 21
277.893823
 31
0.0
  0
LINE
  5
C6C6
330
C63C
100
AcDbEntity
  8
1
  6
Continuous
100
AcDbLine
 10
166.268929
 20
306.3938269999998
 30
0.0
 11
157.268929
 21
306.3938269999998
 31
0.0
  0
ARC
  5
C6C7
330
C63C
100
AcDbEntity
  8
1
  6
Continuous
100
AcDbCircle
 10
166.268929
 20
310.3938269999998
 30
0.0
 40
4.0
100
AcDbArc
 50
270.0
 51
320.828323
  0
LINE
  5
C6C8
330
C63C
100
AcDbEntity
  8
1
  6
Continuous
100
AcDbLine
 10
193.6629409999999
 20
266.1438229999999
 30
0.0
 11
174.2388919999999
 21
272.994867
 31
0.0
  0
ARC
  5
C6C9
330
C63C
100
AcDbEntity
  8
1
  6
Continuous
100
AcDbCircle
 10
177.897782
 20
283.3685239999999
 30
0.0
 40
11.0
100
AcDbArc
 50
219.1716839999998
 51
250.571747
  0
ARC
  5
C6CA
330
C63C
100
AcDbEntity
  8
1
  6
Continuous
100
AcDbCircle
 10
166.268929
 20
273.893823
 30
0.0
 40
4.0
100
AcDbArc
 50
39.171677
 51
90.0
  0
LINE
  5
C6CB
330
C63C
100
AcDbEntity
  8
4
  6
CENTER
100
AcDbLine
 10
161.768929
 20
274.4382949999999
 30
0.0
 11
161.768929
 21
310.7241359999998
 31
0.0
  0
ARC
  5
C6CC
330
C63C
100
AcDbEntity
  8
1
  6
Continuous
100
AcDbCircle
 10
144.268929
 20
306.143827
 30
0.0
 40
2.0
100
AcDbArc
 50
188.525505
 51
353.9346919999999
  0
ARC
  5
C6CD
330
C63C
100
AcDbEntity
  8
1
  6
Continuous
100
AcDbCircle
 10
157.268929
 20
310.3938269999998
 30
0.0
 40
4.0
100
AcDbArc
 50
218.501469
 51
270.0
  0
ARC
  5
C6CE
330
C63C
100
AcDbEntity
  8
1
  6
Continuous
100
AcDbCircle
 10
144.268929
 20
278.143823
 30
0.0
 40
2.0
100
AcDbArc
 50
6.065291999999998
 51
171.474487
  0
ARC
  5
C6CF
330
C63C
100
AcDbEntity
  8
1
  6
Continuous
100
AcDbCircle
 10
161.173767
 20
279.9400729999999
 30
0.0
 40
15.0
100
AcDbArc
 50
186.0652809999999
 51
210.647165
  0
ARC
  5
C6D0
330
C63C
100
AcDbEntity
  8
1
  6
Continuous
100
AcDbCircle
 10
144.356156
 20
284.1656509999999
 30
0.0
 40
12.5
100
AcDbArc
 50
288.24144
 51
321.49852
  0
ARC
  5
C6D1
330
C63C
100
AcDbEntity
  8
1
  6
Continuous
100
AcDbCircle
 10
157.268929
 20
273.893823
 30
0.0
 40
4.0
100
AcDbArc
 50
90.0
 51
141.498535
  0
LINE
  5
C6D2
330
C63C
100
AcDbEntity
  8
4
  6
CENTER
100
AcDbLine
 10
134.268929
 20
278.3938229999999
 30
0.0
 11
134.268929
 21
265.8938229999999
 31
0.0
  0
LINE
  5
C6D3
330
C63C
100
AcDbEntity
  8
1
  6
Continuous
100
AcDbLine
 10
141.1915779999999
 20
271.106081
 30
0.0
 11
142.291027
 21
278.4403249999999
 31
0.0
  0
CIRCLE
  5
C6D4
330
C63C
100
AcDbEntity
  8
1
  6
Continuous
100
AcDbCircle
 10
134.268929
 20
272.1438229999999
 30
0.0
 40
3.25
  0
LINE
  5
C6D5
330
C63C
100
AcDbEntity
  8
4
  6
CENTER
100
AcDbLine
 10
52.0
 20
215.356679
 30
0.0
 11
52.0
 21
144.787148
 31
0.0
  0
LINE
  5
C6D6
330
C63C
100
AcDbEntity
  8
4
  6
CENTER
100
AcDbLine
 10
73.47280000000002
 20
172.872567
 30
0.0
 11
30.646424
 21
172.872567
 31
0.0
  0
LINE
  5
C6D7
330
C63C
100
AcDbEntity
  8
1
  6
Continuous
100
AcDbLine
 10
79.00000099999998
 20
212.872567
 30
0.0
 11
25.0
 21
212.872567
 31
0.0
  0
ARC
  5
C6D8
330
C63C
100
AcDbEntity
  8
1
  6
Continuous
100
AcDbCircle
 10
63.126946
 20
211.8725669999999
 30
0.0
 40
4.0
100
AcDbArc
 50
270.0
 51
286.3057779999999
  0
LINE
  5
C6D9
330
C63C
100
AcDbEntity
  8
1
  6
Continuous
100
AcDbLine
 10
79.00000099999998
 20
210.872567
 30
0.0
 11
25.0
 21
210.872567
 31
0.0
  0
LINE
  5
C6DA
330
C63C
100
AcDbEntity
  8
1
  6
Continuous
100
AcDbLine
 10
64.25
 20
164.4725659999998
 30
0.0
 11
64.25
 21
210.872567
 31
0.0
  0
ARC
  5
C6DB
330
C63C
100
AcDbEntity
  8
1
  6
Continuous
100
AcDbCircle
 10
66.37664100000001
 20
169.472566
 30
0.0
 40
5.0
100
AcDbArc
 50
270.0
 51
350.4772439999999
  0
LINE
  5
C6DC
330
C63C
100
AcDbEntity
  8
1
  6
Continuous
100
AcDbLine
 10
66.37664100000001
 20
164.4725659999998
 30
0.0
 11
64.25
 21
164.4725659999998
 31
0.0
  0
LINE
  5
C6DD
330
C63C
100
AcDbEntity
  8
1
  6
Continuous
100
AcDbLine
 10
127.268761
 20
210.872567
 30
0.0
 11
127.268761
 21
212.872567
 31
0.0
  0
LINE
  5
C6DE
330
C63C
100
AcDbEntity
  8
4
  6
CENTER
100
AcDbLine
 10
72.0
 20
215.1829269999999
 30
0.0
 11
72.0
 21
208.439143
 31
0.0
  0
LINE
  5
C6DF
330
C63C
100
AcDbEntity
  8
1
  6
Continuous
100
AcDbLine
 10
79.00000099999998
 20
210.872567
 30
0.0
 11
79.00000099999998
 21
212.872567
 31
0.0
  0
LINE
  5
C6E0
330
C63C
100
AcDbEntity
  8
1
  6
Continuous
100
AcDbLine
 10
39.75
 20
164.4725659999998
 30
0.0
 11
39.75
 21
210.872567
 31
0.0
  0
ARC
  5
C6E1
330
C63C
100
AcDbEntity
  8
1
  6
Continuous
100
AcDbCircle
 10
54.15
 20
197.535802
 30
0.0
 40
22.0
100
AcDbArc
 50
142.683563
 51
184.2200389999999
  0
ARC
  5
C6E2
330
C63C
100
AcDbEntity
  8
1
  6
Continuous
100
AcDbCircle
 10
54.15
 20
197.535802
 30
0.0
 40
20.0
100
AcDbArc
 50
138.176498
 51
184.2007289999999
  0
LINE
  5
C6E3
330
C63C
100
AcDbEntity
  8
1
  6
Continuous
100
AcDbLine
 10
41.999932
 20
206.872567
 30
0.0
 11
41.999932
 21
197.190404
 31
0.0
  0
LINE
  5
C6E4
330
C63C
100
AcDbEntity
  8
1
  6
Continuous
100
AcDbLine
 10
61.99993199999997
 20
206.872567
 30
0.0
 11
61.99993199999997
 21
197.1904819999998
 31
0.0
  0
LINE
  5
C6E5
330
C63C
100
AcDbEntity
  8
1
  6
Continuous
100
AcDbLine
 10
37.62335999999999
 20
164.4725659999998
 30
0.0
 11
39.75
 21
164.4725659999998
 31
0.0
  0
ARC
  5
C6E6
330
C63C
100
AcDbEntity
  8
1
  6
Continuous
100
AcDbCircle
 10
39.312298
 20
167.472566
 30
0.0
 40
3.0
100
AcDbArc
 50
184.2007289999999
 51
270.0
  0
ARC
  5
C6E7
330
C63C
100
AcDbEntity
  8
1
  6
Continuous
100
AcDbCircle
 10
38.245556
 20
168.4725659999998
 30
0.0
 40
4.0
100
AcDbArc
 50
184.2200389999999
 51
270.0
  0
LINE
  5
C6E8
330
C63C
100
AcDbEntity
  8
1
  6
Continuous
100
AcDbLine
 10
63.126946
 20
207.8725669999998
 30
0.0
 11
40.872918
 21
207.8725669999998
 31
0.0
  0
LINE
  5
C6E9
330
C63C
100
AcDbEntity
  8
1
  6
Continuous
100
AcDbLine
 10
61.99993199999997
 20
206.872567
 30
0.0
 11
41.999932
 21
206.872567
 31
0.0
  0
LINE
  5
C6EA
330
C63C
100
AcDbEntity
  8
1
  6
Continuous
100
AcDbLine
 10
58.5
 20
207.8725669999998
 30
0.0
 11
58.5
 21
206.872567
 31
0.0
  0
LINE
  5
C6EB
330
C63C
100
AcDbEntity
  8
4
  6
CENTER
100
AcDbLine
 10
32.0
 20
215.1829269999999
 30
0.0
 11
32.0
 21
208.439143
 31
0.0
  0
LINE
  5
C6EC
330
C63C
100
AcDbEntity
  8
1
  6
Continuous
100
AcDbLine
 10
45.49999999999999
 20
207.8725669999998
 30
0.0
 11
45.49999999999999
 21
206.872567
 31
0.0
  0
ARC
  5
C6ED
330
C63C
100
AcDbEntity
  8
1
  6
Continuous
100
AcDbCircle
 10
40.872918
 20
211.8725669999999
 30
0.0
 40
4.0
100
AcDbArc
 50
253.6962519999999
 51
270.0
  0
LINE
  5
C6EE
330
C63C
100
AcDbEntity
  8
1
  6
Continuous
100
AcDbLine
 10
25.0
 20
210.872567
 30
0.0
 11
25.0
 21
212.872567
 31
0.0
  0
LINE
  5
C6EF
330
C63C
100
AcDbEntity
  8
1
  6
Continuous
100
AcDbLine
 10
127.2689289999999
 20
312.143827
 30
0.0
 11
127.2689289999999
 21
272.1438309999999
 31
0.0
  0
LINE
  5
C6F0
330
C63C
100
AcDbEntity
  8
1
  6
Continuous
100
AcDbLine
 10
212.768929
 20
171.372659
 30
0.0
 11
202.768929
 21
171.372659
 31
0.0
  0
ARC
  5
C6F1
330
C63C
100
AcDbEntity
  8
1
  6
Continuous
100
AcDbCircle
 10
224.118929
 20
157.872659
 30
0.0
 40
2.5
100
AcDbArc
 50
0.0
 51
90.0
  0
LINE
  5
C6F2
330
C63C
100
AcDbEntity
  8
1
  6
Continuous
100
AcDbLine
 10
226.618929
 20
151.8726589999999
 30
0.0
 11
226.618929
 21
157.872659
 31
0.0
  0
ARC
  5
C6F3
330
C63C
100
AcDbEntity
  8
1
  6
Continuous
100
AcDbCircle
 10
207.768929
 20
292.143823
 30
0.0
 40
18.85
100
AcDbArc
 50
348.9416519999999
 51
11.058348
  0
ARC
  5
C6F4
330
C63C
100
AcDbEntity
  8
1
  6
Continuous
100
AcDbCircle
 10
74.0
 20
208.872567
 30
0.0
 40
4.0
100
AcDbArc
 50
350.4772439999999
 51
30.0
  0
LINE
  5
C6F5
330
C63C
100
AcDbEntity
  8
1
  6
Continuous
100
AcDbLine
 10
217.583611
 20
168.372659
 30
0.0
 11
197.9536979999998
 21
168.372659
 31
0.0
  0
LINE
  5
C6F6
330
C63C
100
AcDbEntity
  8
2
  6
Continuous
100
AcDbLine
 10
212.768929
 20
169.9662339999999
 30
0.0
 11
211.956929
 21
171.372659
 31
0.0
  0
LINE
  5
C6F7
330
C63C
100
AcDbEntity
  8
2
  6
Continuous
100
AcDbLine
 10
202.768929
 20
169.9662339999999
 30
0.0
 11
203.5809289999999
 21
171.372659
 31
0.0
  0
LINE
  5
C6F8
330
C63C
100
AcDbEntity
  8
2
  6
Continuous
100
AcDbLine
 10
211.956929
 20
171.372659
 30
0.0
 11
211.956929
 21
179.872567
 31
0.0
  0
LINE
  5
C6F9
330
C63C
100
AcDbEntity
  8
2
  6
Continuous
100
AcDbLine
 10
203.5809289999999
 20
171.372659
 30
0.0
 11
203.5809289999999
 21
179.872567
 31
0.0
  0
ARC
  5
C6FA
330
C63C
100
AcDbEntity
  8
1
  6
Continuous
100
AcDbCircle
 10
68.34999999999999
 20
157.872567
 30
0.0
 40
2.5
100
AcDbArc
 50
0.0
 51
90.0
  0
LINE
  5
C6FB
330
C63C
100
AcDbEntity
  8
1
  6
Continuous
100
AcDbLine
 10
68.34983199999999
 20
160.372567
 30
0.0
 11
63.0
 21
160.372567
 31
0.0
  0
LINE
  5
C6FC
330
C63C
100
AcDbEntity
  8
1
  6
Continuous
100
AcDbLine
 10
70.84999999999998
 20
151.872567
 30
0.0
 11
70.84999999999998
 21
157.872567
 31
0.0
  0
ARC
  5
C6FD
330
C63C
100
AcDbEntity
  8
1
  6
Continuous
100
AcDbCircle
 10
35.64999999999999
 20
157.872567
 30
0.0
 40
2.5
100
AcDbArc
 50
90.0
 51
180.0
  0
LINE
  5
C6FE
330
C63C
100
AcDbEntity
  8
1
  6
Continuous
100
AcDbLine
 10
33.14999999999999
 20
151.872567
 30
0.0
 11
33.14999999999999
 21
157.872567
 31
0.0
  0
LINE
  5
C6FF
330
C63C
100
AcDbEntity
  8
1
  6
Continuous
100
AcDbLine
 10
34.74999099999998
 20
151.872567
 30
0.0
 11
34.74999099999998
 21
147.872567
 31
0.0
  0
LINE
  5
C700
330
C63C
100
AcDbEntity
  8
1
  6
Continuous
100
AcDbLine
 10
69.249994
 20
147.872567
 30
0.0
 11
34.74999099999998
 21
147.872567
 31
0.0
  0
LINE
  5
C701
330
C63C
100
AcDbEntity
  8
1
  6
Continuous
100
AcDbLine
 10
70.84999999999998
 20
151.872567
 30
0.0
 11
63.0
 21
151.872567
 31
0.0
  0
LINE
  5
C702
330
C63C
100
AcDbEntity
  8
1
  6
Continuous
100
AcDbLine
 10
69.249994
 20
151.872567
 30
0.0
 11
69.249994
 21
147.872567
 31
0.0
  0
LINE
  5
C703
330
C63C
100
AcDbEntity
  8
1
  6
Continuous
100
AcDbLine
 10
41.0
 20
151.872567
 30
0.0
 11
33.14999999999999
 21
151.872567
 31
0.0
  0
LINE
  5
C704
330
C63C
100
AcDbEntity
  8
1
  6
Continuous
100
AcDbLine
 10
41.0
 20
160.372567
 30
0.0
 11
35.64999999999999
 21
160.372567
 31
0.0
  0
LINE
  5
C705
330
C63C
100
AcDbEntity
  8
5
  6
PHANTOM
100
AcDbLine
 10
225.018923
 20
141.872659
 30
0.0
 11
225.018923
 21
137.872659
 31
0.0
  0
LINE
  5
C706
330
C63C
100
AcDbEntity
  8
5
  6
PHANTOM
100
AcDbLine
 10
225.018923
 20
137.872659
 30
0.0
 11
190.51892
 21
137.872659
 31
0.0
  0
ARC
  5
C707
330
C63C
100
AcDbEntity
  8
5
  6
PHANTOM
100
AcDbCircle
 10
224.118929
 20
147.8726589999999
 30
0.0
 40
2.5
100
AcDbArc
 50
0.0
 51
90.0
  0
LINE
  5
C708
330
C63C
100
AcDbEntity
  8
5
  6
PHANTOM
100
AcDbLine
 10
224.1187609999998
 20
150.372659
 30
0.0
 11
191.4189289999999
 21
150.372659
 31
0.0
  0
LINE
  5
C709
330
C63C
100
AcDbEntity
  8
5
  6
PHANTOM
100
AcDbLine
 10
226.618929
 20
141.872659
 30
0.0
 11
188.918929
 21
141.872659
 31
0.0
  0
LINE
  5
C70A
330
C63C
100
AcDbEntity
  8
5
  6
PHANTOM
100
AcDbLine
 10
226.618929
 20
141.872659
 30
0.0
 11
226.618929
 21
147.8726589999999
 31
0.0
  0
LINE
  5
C70B
330
C63C
100
AcDbEntity
  8
5
  6
PHANTOM
100
AcDbLine
 10
190.51892
 20
141.872659
 30
0.0
 11
190.51892
 21
137.872659
 31
0.0
  0
LINE
  5
C70C
330
C63C
100
AcDbEntity
  8
5
  6
PHANTOM
100
AcDbLine
 10
188.918929
 20
141.872659
 30
0.0
 11
188.918929
 21
147.8726589999999
 31
0.0
  0
ARC
  5
C70D
330
C63C
100
AcDbEntity
  8
5
  6
PHANTOM
100
AcDbCircle
 10
191.4189289999999
 20
147.8726589999999
 30
0.0
 40
2.5
100
AcDbArc
 50
90.0
 51
180.0
  0
ARC
  5
C70E
330
C63C
100
AcDbEntity
  8
5
  6
PHANTOM
100
AcDbCircle
 10
224.118929
 20
167.872659
 30
0.0
 40
2.5
100
AcDbArc
 50
0.0
 51
90.0
  0
LINE
  5
C70F
330
C63C
100
AcDbEntity
  8
5
  6
PHANTOM
100
AcDbLine
 10
226.618929
 20
161.872659
 30
0.0
 11
188.918929
 21
161.872659
 31
0.0
  0
LINE
  5
C710
330
C63C
100
AcDbEntity
  8
5
  6
PHANTOM
100
AcDbLine
 10
226.618929
 20
161.872659
 30
0.0
 11
226.618929
 21
167.872659
 31
0.0
  0
LINE
  5
C711
330
C63C
100
AcDbEntity
  8
5
  6
PHANTOM
100
AcDbLine
 10
225.018923
 20
157.872659
 30
0.0
 11
190.51892
 21
157.872659
 31
0.0
  0
LINE
  5
C712
330
C63C
100
AcDbEntity
  8
5
  6
PHANTOM
100
AcDbLine
 10
225.018923
 20
161.872659
 30
0.0
 11
225.018923
 21
157.872659
 31
0.0
  0
LINE
  5
C713
330
C63C
100
AcDbEntity
  8
5
  6
PHANTOM
100
AcDbLine
 10
224.1187609999998
 20
170.372659
 30
0.0
 11
191.4189289999999
 21
170.372659
 31
0.0
  0
ARC
  5
C714
330
C63C
100
AcDbEntity
  8
5
  6
PHANTOM
100
AcDbCircle
 10
191.4189289999999
 20
167.872659
 30
0.0
 40
2.5
100
AcDbArc
 50
90.0
 51
180.0
  0
LINE
  5
C715
330
C63C
100
AcDbEntity
  8
5
  6
PHANTOM
100
AcDbLine
 10
190.51892
 20
161.872659
 30
0.0
 11
190.51892
 21
157.872659
 31
0.0
  0
LINE
  5
C716
330
C63C
100
AcDbEntity
  8
5
  6
PHANTOM
100
AcDbLine
 10
188.918929
 20
161.872659
 30
0.0
 11
188.918929
 21
167.872659
 31
0.0
  0
LINE
  5
C717
330
C63C
100
AcDbEntity
  8
1
  6
Continuous
100
AcDbLine
 10
318.7876989999999
 20
151.872567
 30
0.0
 11
318.7876989999999
 21
147.872567
 31
0.0
  0
LINE
  5
C718
330
C63C
100
AcDbEntity
  8
1
  6
Continuous
100
AcDbLine
 10
284.2876959999999
 20
151.872567
 30
0.0
 11
284.2876959999999
 21
147.872567
 31
0.0
  0
LINE
  5
C719
330
C63C
100
AcDbEntity
  8
4
  6
CENTER
100
AcDbLine
 10
301.53769
 20
215.356679
 30
0.0
 11
301.53769
 21
144.787148
 31
0.0
  0
LINE
  5
C71A
330
C63C
100
AcDbEntity
  8
1
  6
Continuous
100
AcDbLine
 10
284.2876959999999
 20
147.872567
 30
0.0
 11
318.7876989999999
 21
147.872567
 31
0.0
  0
ARC
  5
C71B
330
C63C
100
AcDbEntity
  8
1
  6
Continuous
100
AcDbCircle
 10
317.8876899999999
 20
157.872567
 30
0.0
 40
2.5
100
AcDbArc
 50
0.0
 51
90.0
  0
LINE
  5
C71C
330
C63C
100
AcDbEntity
  8
1
  6
Continuous
100
AcDbLine
 10
274.537689
 20
210.872567
 30
0.0
 11
328.53769
 21
210.872567
 31
0.0
  0
LINE
  5
C71D
330
C63C
100
AcDbEntity
  8
1
  6
Continuous
100
AcDbLine
 10
274.537689
 20
212.872567
 30
0.0
 11
328.53769
 21
212.872567
 31
0.0
  0
LINE
  5
C71E
330
C63C
100
AcDbEntity
  8
4
  6
CENTER
100
AcDbLine
 10
280.06489
 20
172.872567
 30
0.0
 11
322.8912659999999
 21
172.872567
 31
0.0
  0
LINE
  5
C71F
330
C63C
100
AcDbEntity
  8
1
  6
Continuous
100
AcDbLine
 10
320.3876899999999
 20
151.872567
 30
0.0
 11
320.3876899999999
 21
157.872567
 31
0.0
  0
LINE
  5
C720
330
C63C
100
AcDbEntity
  8
1
  6
Continuous
100
AcDbLine
 10
328.53769
 20
210.872567
 30
0.0
 11
328.53769
 21
212.872567
 31
0.0
  0
LINE
  5
C721
330
C63C
100
AcDbEntity
  8
4
  6
CENTER
100
AcDbLine
 10
321.5376899999998
 20
215.1829269999999
 30
0.0
 11
321.5376899999998
 21
208.439143
 31
0.0
  0
LINE
  5
C722
330
C63C
100
AcDbEntity
  8
1
  6
Continuous
100
AcDbLine
 10
313.78769
 20
164.4725659999998
 30
0.0
 11
313.78769
 21
208.0334189999999
 31
0.0
  0
LINE
  5
C723
330
C63C
100
AcDbEntity
  8
1
  6
Continuous
100
AcDbLine
 10
289.28769
 20
164.4725659999998
 30
0.0
 11
289.28769
 21
208.033459
 31
0.0
  0
LINE
  5
C724
330
C63C
100
AcDbEntity
  8
1
  6
Continuous
100
AcDbLine
 10
285.187858
 20
160.372567
 30
0.0
 11
317.8876899999999
 21
160.372567
 31
0.0
  0
LINE
  5
C725
330
C63C
100
AcDbEntity
  8
1
  6
Continuous
100
AcDbLine
 10
282.6876899999998
 20
151.872567
 30
0.0
 11
320.3876899999999
 21
151.872567
 31
0.0
  0
LINE
  5
C726
330
C63C
100
AcDbEntity
  8
1
  6
Continuous
100
AcDbLine
 10
312.03769
 20
160.372567
 30
0.0
 11
312.03769
 21
161.372567
 31
0.0
  0
LINE
  5
C727
330
C63C
100
AcDbEntity
  8
1
  6
Continuous
100
AcDbLine
 10
315.914331
 20
164.4725659999998
 30
0.0
 11
313.78769
 21
164.4725659999998
 31
0.0
  0
LINE
  5
C728
330
C63C
100
AcDbEntity
  8
1
  6
Continuous
100
AcDbLine
 10
291.03769
 20
160.372567
 30
0.0
 11
291.03769
 21
161.372567
 31
0.0
  0
LINE
  5
C729
330
C63C
100
AcDbEntity
  8
1
  6
Continuous
100
AcDbLine
 10
291.03769
 20
161.372567
 30
0.0
 11
312.03769
 21
161.372567
 31
0.0
  0
LINE
  5
C72A
330
C63C
100
AcDbEntity
  8
1
  6
Continuous
100
AcDbLine
 10
282.6876899999998
 20
151.872567
 30
0.0
 11
282.6876899999998
 21
157.872567
 31
0.0
  0
ARC
  5
C72B
330
C63C
100
AcDbEntity
  8
1
  6
Continuous
100
AcDbCircle
 10
285.1876899999999
 20
157.872567
 30
0.0
 40
2.5
100
AcDbArc
 50
90.0
 51
180.0
  0
LINE
  5
C72C
330
C63C
100
AcDbEntity
  8
1
  6
Continuous
100
AcDbLine
 10
291.5377579999999
 20
206.872567
 30
0.0
 11
311.537758
 21
206.872567
 31
0.0
  0
LINE
  5
C72D
330
C63C
100
AcDbEntity
  8
1
  6
Continuous
100
AcDbLine
 10
290.410744
 20
207.8725669999998
 30
0.0
 11
312.6647720000002
 21
207.8725669999998
 31
0.0
  0
ARC
  5
C72E
330
C63C
100
AcDbEntity
  8
1
  6
Continuous
100
AcDbCircle
 10
312.6647720000002
 20
211.8725669999999
 30
0.0
 40
4.0
100
AcDbArc
 50
270.0
 51
345.522488
  0
LINE
  5
C72F
330
C63C
100
AcDbEntity
  8
1
  6
Continuous
100
AcDbLine
 10
308.03769
 20
207.8725669999998
 30
0.0
 11
308.03769
 21
206.872567
 31
0.0
  0
LINE
  5
C730
330
C63C
100
AcDbEntity
  8
1
  6
Continuous
100
AcDbLine
 10
311.537758
 20
206.872567
 30
0.0
 11
311.537758
 21
189.872567
 31
0.0
  0
LINE
  5
C731
330
C63C
100
AcDbEntity
  8
1
  6
Continuous
100
AcDbLine
 10
295.03769
 20
207.8725669999998
 30
0.0
 11
295.03769
 21
206.872567
 31
0.0
  0
LINE
  5
C732
330
C63C
100
AcDbEntity
  8
1
  6
Continuous
100
AcDbLine
 10
291.5377579999999
 20
206.872567
 30
0.0
 11
291.5377579999999
 21
189.872567
 31
0.0
  0
ARC
  5
C733
330
C63C
100
AcDbEntity
  8
1
  6
Continuous
100
AcDbCircle
 10
290.410744
 20
211.8725669999999
 30
0.0
 40
4.0
100
AcDbArc
 50
194.4775119999999
 51
270.0
  0
LINE
  5
C734
330
C63C
100
AcDbEntity
  8
1
  6
Continuous
100
AcDbLine
 10
274.537689
 20
210.872567
 30
0.0
 11
274.537689
 21
212.872567
 31
0.0
  0
LINE
  5
C735
330
C63C
100
AcDbEntity
  8
4
  6
CENTER
100
AcDbLine
 10
281.53769
 20
215.1829269999999
 30
0.0
 11
281.53769
 21
208.439143
 31
0.0
  0
LINE
  5
C736
330
C63C
100
AcDbEntity
  8
1
  6
Continuous
100
AcDbLine
 10
311.537758
 20
189.872567
 30
0.0
 11
291.5377579999999
 21
189.872567
 31
0.0
  0
LINE
  5
C737
330
C63C
100
AcDbEntity
  8
1
  6
Continuous
100
AcDbLine
 10
311.537758
 20
189.872567
 30
0.0
 11
308.5377579999998
 21
179.872567
 31
0.0
  0
LINE
  5
C738
330
C63C
100
AcDbEntity
  8
1
  6
Continuous
100
AcDbLine
 10
308.5377579999998
 20
179.872567
 30
0.0
 11
294.537758
 21
179.872567
 31
0.0
  0
LINE
  5
C739
330
C63C
100
AcDbEntity
  8
1
  6
Continuous
100
AcDbLine
 10
291.5377579999999
 20
189.872567
 30
0.0
 11
294.537758
 21
179.872567
 31
0.0
  0
LINE
  5
C73A
330
C63C
100
AcDbEntity
  8
2
  6
Continuous
100
AcDbLine
 10
306.5377579999998
 20
169.9662339999999
 30
0.0
 11
305.7257579999999
 21
171.372659
 31
0.0
  0
LINE
  5
C73B
330
C63C
100
AcDbEntity
  8
1
  6
Continuous
100
AcDbLine
 10
306.5377579999998
 20
179.872567
 30
0.0
 11
306.5377579999998
 21
168.372659
 31
0.0
  0
LINE
  5
C73C
330
C63C
100
AcDbEntity
  8
1
  6
Continuous
100
AcDbLine
 10
310.03769
 20
168.372659
 30
0.0
 11
293.03769
 21
168.372659
 31
0.0
  0
LINE
  5
C73D
330
C63C
100
AcDbEntity
  8
1
  6
Continuous
100
AcDbLine
 10
301.53769
 20
162.3128439999999
 30
0.0
 11
301.53769
 21
168.372659
 31
0.0
  0
LINE
  5
C73E
330
C63C
100
AcDbEntity
  8
1
  6
Continuous
100
AcDbLine
 10
306.5377579999998
 20
171.372659
 30
0.0
 11
296.537758
 21
171.372659
 31
0.0
  0
LINE
  5
C73F
330
C63C
100
AcDbEntity
  8
2
  6
Continuous
100
AcDbLine
 10
305.7257579999999
 20
171.372659
 30
0.0
 11
305.7257579999999
 21
179.872567
 31
0.0
  0
LINE
  5
C740
330
C63C
100
AcDbEntity
  8
2
  6
Continuous
100
AcDbLine
 10
296.537758
 20
169.9662339999999
 30
0.0
 11
297.349758
 21
171.372659
 31
0.0
  0
LINE
  5
C741
330
C63C
100
AcDbEntity
  8
1
  6
Continuous
100
AcDbLine
 10
296.537758
 20
179.872567
 30
0.0
 11
296.537758
 21
168.372659
 31
0.0
  0
LINE
  5
C742
330
C63C
100
AcDbEntity
  8
2
  6
Continuous
100
AcDbLine
 10
297.349758
 20
171.372659
 30
0.0
 11
297.349758
 21
179.872567
 31
0.0
  0
LINE
  5
C743
330
C63C
100
AcDbEntity
  8
1
  6
Continuous
100
AcDbLine
 10
446.343347
 20
164.4725659999998
 30
0.0
 11
431.931199
 21
164.4725659999998
 31
0.0
  0
ARC
  5
C744
330
C63C
100
AcDbEntity
  8
1
  6
Continuous
100
AcDbCircle
 10
441.3064509999998
 20
172.872567
 30
0.0
 40
17.5
100
AcDbArc
 50
168.5511119999999
 51
48.44329699999999
  0
LINE
  5
C745
330
C63C
100
AcDbEntity
  8
4
  6
CENTER
100
AcDbLine
 10
413.3064509999998
 20
172.872567
 30
0.0
 11
469.306451
 21
172.872567
 31
0.0
  0
ARC
  5
C746
330
C63C
100
AcDbEntity
  8
1
  6
Continuous
100
AcDbCircle
 10
441.3064509999998
 20
172.872567
 30
0.0
 40
25.0
100
AcDbArc
 50
148.490295
 51
59.15197399999999
  0
LINE
  5
C747
330
C63C
100
AcDbEntity
  8
1
  6
Continuous
100
AcDbLine
 10
475.806619
 20
212.872567
 30
0.0
 11
376.8064509999998
 21
212.872567
 31
0.0
  0
LINE
  5
C748
330
C63C
100
AcDbEntity
  8
4
  6
CENTER
100
AcDbLine
 10
441.3064509999998
 20
144.8725669999998
 30
0.0
 11
441.3064509999998
 21
200.872567
 31
0.0
  0
LINE
  5
C749
330
C63C
100
AcDbEntity
  8
1
  6
Continuous
100
AcDbLine
 10
456.310746
 20
209.4451229999999
 30
0.0
 11
450.3021559999998
 21
167.90001
 31
0.0
  0
LINE
  5
C74A
330
C63C
100
AcDbEntity
  8
1
  6
Continuous
100
AcDbLine
 10
446.8064509999998
 20
169.262193
 30
0.0
 11
446.8064509999998
 21
207.2576949999999
 31
0.0
  0
ARC
  5
C74B
330
C63C
100
AcDbEntity
  8
1
  6
Continuous
100
AcDbCircle
 10
446.343347
 20
168.4725659999998
 30
0.0
 40
4.0
100
AcDbArc
 50
270.0
 51
351.770477
  0
LINE
  5
C74C
330
C63C
100
AcDbEntity
  8
1
  6
Continuous
100
AcDbLine
 10
459.9803019999998
 20
210.872567
 30
0.0
 11
475.806619
 21
210.872567
 31
0.0
  0
LINE
  5
C74D
330
C63C
100
AcDbEntity
  8
1
  6
Continuous
100
AcDbLine
 10
475.806619
 20
210.872567
 30
0.0
 11
475.806619
 21
212.872567
 31
0.0
  0
LINE
  5
C74E
330
C63C
100
AcDbEntity
  8
4
  6
CENTER
100
AcDbLine
 10
468.8066189999998
 20
208.259301
 30
0.0
 11
468.8066189999998
 21
215.7302539999998
 31
0.0
  0
ARC
  5
C74F
330
C63C
100
AcDbEntity
  8
1
  6
Continuous
100
AcDbCircle
 10
460.2695549999999
 20
208.872567
 30
0.0
 40
4.0
100
AcDbArc
 50
90.0
 51
171.770477
  0
ARC
  5
C750
330
C63C
100
AcDbEntity
  8
1
  6
Continuous
100
AcDbCircle
 10
459.9803019999998
 20
206.872567
 30
0.0
 40
4.0
100
AcDbArc
 50
90.0
 51
171.770477
  0
ARC
  5
C751
330
C63C
100
AcDbEntity
  8
5
  6
PHANTOM
100
AcDbCircle
 10
411.6564509999998
 20
147.8726589999999
 30
0.0
 40
2.5
100
AcDbArc
 50
0.0
 51
90.0
  0
ARC
  5
C752
330
C63C
100
AcDbEntity
  8
5
  6
PHANTOM
100
AcDbCircle
 10
378.9564509999999
 20
147.8726589999999
 30
0.0
 40
2.5
100
AcDbArc
 50
90.0
 51
180.0
  0
LINE
  5
C753
330
C63C
100
AcDbEntity
  8
4
  6
CENTER
100
AcDbLine
 10
395.3064509999999
 20
136.2132419999998
 30
0.0
 11
395.3064509999999
 21
216.2355849999999
 31
0.0
  0
LINE
  5
C754
330
C63C
100
AcDbEntity
  8
1
  6
Continuous
100
AcDbLine
 10
378.0564569999999
 20
151.8726589999999
 30
0.0
 11
378.0564569999999
 21
147.8726589999999
 31
0.0
  0
LINE
  5
C755
330
C63C
100
AcDbEntity
  8
1
  6
Continuous
100
AcDbLine
 10
412.55646
 20
151.8726589999999
 30
0.0
 11
412.55646
 21
147.8726589999999
 31
0.0
  0
LINE
  5
C756
330
C63C
100
AcDbEntity
  8
5
  6
PHANTOM
100
AcDbLine
 10
378.0564569999999
 20
137.872659
 30
0.0
 11
412.55646
 21
137.872659
 31
0.0
  0
LINE
  5
C757
330
C63C
100
AcDbEntity
  8
5
  6
PHANTOM
100
AcDbLine
 10
376.4564509999999
 20
141.872659
 30
0.0
 11
414.156451
 21
141.872659
 31
0.0
  0
LINE
  5
C758
330
C63C
100
AcDbEntity
  8
1
  6
Continuous
100
AcDbLine
 10
378.0564569999999
 20
147.8726589999999
 30
0.0
 11
412.55646
 21
147.8726589999999
 31
0.0
  0
LINE
  5
C759
330
C63C
100
AcDbEntity
  8
5
  6
PHANTOM
100
AcDbLine
 10
412.55646
 20
141.872659
 30
0.0
 11
412.55646
 21
137.872659
 31
0.0
  0
LINE
  5
C75A
330
C63C
100
AcDbEntity
  8
5
  6
PHANTOM
100
AcDbLine
 10
414.156451
 20
141.872659
 30
0.0
 11
414.156451
 21
147.8726589999999
 31
0.0
  0
LINE
  5
C75B
330
C63C
100
AcDbEntity
  8
5
  6
PHANTOM
100
AcDbLine
 10
378.0564569999999
 20
141.872659
 30
0.0
 11
378.0564569999999
 21
137.872659
 31
0.0
  0
LINE
  5
C75C
330
C63C
100
AcDbEntity
  8
5
  6
PHANTOM
100
AcDbLine
 10
376.4564509999999
 20
141.872659
 30
0.0
 11
376.4564509999999
 21
147.8726589999999
 31
0.0
  0
ARC
  5
C75D
330
C63C
100
AcDbEntity
  8
5
  6
PHANTOM
100
AcDbCircle
 10
378.9564509999999
 20
167.872659
 30
0.0
 40
2.5
100
AcDbArc
 50
90.0
 51
180.0
  0
ARC
  5
C75E
330
C63C
100
AcDbEntity
  8
1
  6
Continuous
100
AcDbCircle
 10
378.9564509999999
 20
157.872659
 30
0.0
 40
2.5
100
AcDbArc
 50
90.0
 51
180.0
  0
LINE
  5
C75F
330
C63C
100
AcDbEntity
  8
1
  6
Continuous
100
AcDbLine
 10
409.35119
 20
210.4646999999999
 30
0.0
 11
428.261712
 21
166.880433
 31
0.0
  0
LINE
  5
C760
330
C63C
100
AcDbEntity
  8
1
  6
Continuous
100
AcDbLine
 10
433.8064509999998
 20
207.1711819999999
 30
0.0
 11
433.8064509999998
 21
171.6531459999998
 31
0.0
  0
LINE
  5
C761
330
C63C
100
AcDbEntity
  8
1
  6
Continuous
100
AcDbLine
 10
385.3064509999999
 20
206.872567
 30
0.0
 11
385.3064509999999
 21
189.872567
 31
0.0
  0
LINE
  5
C762
330
C63C
100
AcDbEntity
  8
1
  6
Continuous
100
AcDbLine
 10
405.3064509999998
 20
206.872567
 30
0.0
 11
405.3064509999998
 21
189.872567
 31
0.0
  0
LINE
  5
C763
330
C63C
100
AcDbEntity
  8
5
  6
PHANTOM
100
AcDbLine
 10
378.9566189999999
 20
170.372659
 30
0.0
 11
411.6564509999998
 21
170.372659
 31
0.0
  0
LINE
  5
C764
330
C63C
100
AcDbEntity
  8
5
  6
PHANTOM
100
AcDbLine
 10
378.0564569999999
 20
157.872659
 30
0.0
 11
412.55646
 21
157.872659
 31
0.0
  0
LINE
  5
C765
330
C63C
100
AcDbEntity
  8
5
  6
PHANTOM
100
AcDbLine
 10
376.4564509999999
 20
161.872659
 30
0.0
 11
414.156451
 21
161.872659
 31
0.0
  0
LINE
  5
C766
330
C63C
100
AcDbEntity
  8
5
  6
PHANTOM
100
AcDbLine
 10
378.9566189999999
 20
150.372659
 30
0.0
 11
411.6564509999998
 21
150.372659
 31
0.0
  0
LINE
  5
C767
330
C63C
100
AcDbEntity
  8
1
  6
Continuous
100
AcDbLine
 10
378.9566189999999
 20
160.3726589999999
 30
0.0
 11
411.6564509999998
 21
160.3726589999999
 31
0.0
  0
LINE
  5
C768
330
C63C
100
AcDbEntity
  8
1
  6
Continuous
100
AcDbLine
 10
376.4564509999999
 20
151.8726589999999
 30
0.0
 11
414.156451
 21
151.8726589999999
 31
0.0
  0
ARC
  5
C769
330
C63C
100
AcDbEntity
  8
1
  6
Continuous
100
AcDbCircle
 10
431.931199
 20
168.4725659999998
 30
0.0
 40
4.0
100
AcDbArc
 50
203.4552609999999
 51
270.0
  0
LINE
  5
C76A
330
C63C
100
AcDbEntity
  8
5
  6
PHANTOM
100
AcDbLine
 10
414.156451
 20
161.872659
 30
0.0
 11
414.156451
 21
167.872659
 31
0.0
  0
LINE
  5
C76B
330
C63C
100
AcDbEntity
  8
5
  6
PHANTOM
100
AcDbLine
 10
412.55646
 20
161.872659
 30
0.0
 11
412.55646
 21
157.872659
 31
0.0
  0
ARC
  5
C76C
330
C63C
100
AcDbEntity
  8
5
  6
PHANTOM
100
AcDbCircle
 10
411.6564509999998
 20
167.872659
 30
0.0
 40
2.5
100
AcDbArc
 50
0.0
 51
90.0
  0
LINE
  5
C76D
330
C63C
100
AcDbEntity
  8
1
  6
Continuous
100
AcDbLine
 10
414.156451
 20
151.8726589999999
 30
0.0
 11
414.156451
 21
157.872659
 31
0.0
  0
ARC
  5
C76E
330
C63C
100
AcDbEntity
  8
1
  6
Continuous
100
AcDbCircle
 10
411.6564509999998
 20
157.872659
 30
0.0
 40
2.5
100
AcDbArc
 50
0.0
 51
90.0
  0
LINE
  5
C76F
330
C63C
100
AcDbEntity
  8
2
  6
Continuous
100
AcDbLine
 10
400.3064509999998
 20
169.9662339999999
 30
0.0
 11
399.4944509999998
 21
171.372659
 31
0.0
  0
LINE
  5
C770
330
C63C
100
AcDbEntity
  8
2
  6
Continuous
100
AcDbLine
 10
390.306451
 20
169.9662339999999
 30
0.0
 11
391.118451
 21
171.372659
 31
0.0
  0
LINE
  5
C771
330
C63C
100
AcDbEntity
  8
1
  6
Continuous
100
AcDbLine
 10
400.3064509999998
 20
179.872567
 30
0.0
 11
400.3064509999998
 21
168.372659
 31
0.0
  0
LINE
  5
C772
330
C63C
100
AcDbEntity
  8
1
  6
Continuous
100
AcDbLine
 10
390.306451
 20
179.872567
 30
0.0
 11
390.306451
 21
168.372659
 31
0.0
  0
LINE
  5
C773
330
C63C
100
AcDbEntity
  8
1
  6
Continuous
100
AcDbLine
 10
384.806451
 20
161.3726589999999
 30
0.0
 11
405.8064509999998
 21
161.3726589999999
 31
0.0
  0
LINE
  5
C774
330
C63C
100
AcDbEntity
  8
1
  6
Continuous
100
AcDbLine
 10
385.4917689999999
 20
168.372659
 30
0.0
 11
405.1216819999998
 21
168.372659
 31
0.0
  0
ARC
  5
C775
330
C63C
100
AcDbEntity
  8
1
  6
Continuous
100
AcDbCircle
 10
395.306733
 20
174.6503999999999
 30
0.0
 40
13.277742
100
AcDbArc
 50
248.3089339999999
 51
291.691031
  0
LINE
  5
C776
330
C63C
100
AcDbEntity
  8
1
  6
Continuous
100
AcDbLine
 10
405.8064509999998
 20
160.3726589999999
 30
0.0
 11
405.8064509999998
 21
161.3726589999999
 31
0.0
  0
LINE
  5
C777
330
C63C
100
AcDbEntity
  8
1
  6
Continuous
100
AcDbLine
 10
400.2142039999998
 20
162.3128439999999
 30
0.0
 11
400.2142039999998
 21
168.372659
 31
0.0
  0
LINE
  5
C778
330
C63C
100
AcDbEntity
  8
1
  6
Continuous
100
AcDbLine
 10
405.1216819999998
 20
168.372659
 30
0.0
 11
405.1216819999998
 21
162.3128439999999
 31
0.0
  0
ARC
  5
C779
330
C63C
100
AcDbEntity
  8
1
  6
Continuous
100
AcDbCircle
 10
402.667947
 20
165.044473
 30
0.0
 40
3.671864999999998
100
AcDbArc
 50
228.0675349999999
 51
311.9324649999999
  0
LINE
  5
C77A
330
C63C
100
AcDbEntity
  8
5
  6
PHANTOM
100
AcDbLine
 10
378.0564569999999
 20
161.872659
 30
0.0
 11
378.0564569999999
 21
157.872659
 31
0.0
  0
LINE
  5
C77B
330
C63C
100
AcDbEntity
  8
5
  6
PHANTOM
100
AcDbLine
 10
376.4564509999999
 20
161.872659
 30
0.0
 11
376.4564509999999
 21
167.872659
 31
0.0
  0
LINE
  5
C77C
330
C63C
100
AcDbEntity
  8
1
  6
Continuous
100
AcDbLine
 10
376.4564509999999
 20
151.8726589999999
 30
0.0
 11
376.4564509999999
 21
157.872659
 31
0.0
  0
LINE
  5
C77D
330
C63C
100
AcDbEntity
  8
1
  6
Continuous
100
AcDbLine
 10
390.3992549999999
 20
162.3128439999999
 30
0.0
 11
390.3992549999999
 21
168.372659
 31
0.0
  0
LINE
  5
C77E
330
C63C
100
AcDbEntity
  8
1
  6
Continuous
100
AcDbLine
 10
385.4917689999999
 20
168.372659
 30
0.0
 11
385.4917689999999
 21
162.3128439999999
 31
0.0
  0
LINE
  5
C77F
330
C63C
100
AcDbEntity
  8
1
  6
Continuous
100
AcDbLine
 10
384.806451
 20
160.3726589999999
 30
0.0
 11
384.806451
 21
161.3726589999999
 31
0.0
  0
ARC
  5
C780
330
C63C
100
AcDbEntity
  8
1
  6
Continuous
100
AcDbCircle
 10
387.9455199999999
 20
165.044473
 30
0.0
 40
3.671864999999998
100
AcDbArc
 50
228.0675349999999
 51
311.9324649999999
  0
LINE
  5
C781
330
C63C
100
AcDbEntity
  8
1
  6
Continuous
100
AcDbLine
 10
390.306451
 20
171.372659
 30
0.0
 11
400.3064509999998
 21
171.372659
 31
0.0
  0
LINE
  5
C782
330
C63C
100
AcDbEntity
  8
1
  6
Continuous
100
AcDbLine
 10
385.3064509999999
 20
189.872567
 30
0.0
 11
405.3064509999998
 21
189.872567
 31
0.0
  0
LINE
  5
C783
330
C63C
100
AcDbEntity
  8
1
  6
Continuous
100
AcDbLine
 10
388.306451
 20
179.872567
 30
0.0
 11
402.306451
 21
179.872567
 31
0.0
  0
LINE
  5
C784
330
C63C
100
AcDbEntity
  8
2
  6
Continuous
100
AcDbLine
 10
399.4944509999998
 20
171.372659
 30
0.0
 11
399.4944509999998
 21
179.872567
 31
0.0
  0
LINE
  5
C785
330
C63C
100
AcDbEntity
  8
1
  6
Continuous
100
AcDbLine
 10
405.3064509999998
 20
189.872567
 30
0.0
 11
402.306451
 21
179.872567
 31
0.0
  0
LINE
  5
C786
330
C63C
100
AcDbEntity
  8
2
  6
Continuous
100
AcDbLine
 10
391.118451
 20
171.372659
 30
0.0
 11
391.118451
 21
179.872567
 31
0.0
  0
LINE
  5
C787
330
C63C
100
AcDbEntity
  8
1
  6
Continuous
100
AcDbLine
 10
385.3064509999999
 20
189.872567
 30
0.0
 11
388.306451
 21
179.872567
 31
0.0
  0
ARC
  5
C788
330
C63C
100
AcDbEntity
  8
1
  6
Continuous
100
AcDbCircle
 10
405.6817029999998
 20
208.872567
 30
0.0
 40
4.0
100
AcDbArc
 50
23.455261
 51
90.0
  0
ARC
  5
C789
330
C63C
100
AcDbEntity
  8
1
  6
Continuous
100
AcDbCircle
 10
406.54947
 20
206.872567
 30
0.0
 40
4.0
100
AcDbArc
 50
23.45525899999999
 51
90.0
  0
ARC
  5
C78A
330
C63C
100
AcDbEntity
  8
1
  6
Continuous
100
AcDbCircle
 10
406.433465
 20
211.8725669999999
 30
0.0
 40
4.0
100
AcDbArc
 50
270.0
 51
322.6345519999999
  0
LINE
  5
C78B
330
C63C
100
AcDbEntity
  8
4
  6
CENTER
100
AcDbLine
 10
383.806619
 20
208.390683
 30
0.0
 11
383.806619
 21
215.493495
 31
0.0
  0
LINE
  5
C78C
330
C63C
100
AcDbEntity
  8
1
  6
Continuous
100
AcDbLine
 10
376.8064509999998
 20
210.872567
 30
0.0
 11
406.54947
 21
210.872567
 31
0.0
  0
LINE
  5
C78D
330
C63C
100
AcDbEntity
  8
1
  6
Continuous
100
AcDbLine
 10
385.3064509999999
 20
206.872567
 30
0.0
 11
405.3064509999998
 21
206.872567
 31
0.0
  0
LINE
  5
C78E
330
C63C
100
AcDbEntity
  8
1
  6
Continuous
100
AcDbLine
 10
384.179437
 20
207.8725669999998
 30
0.0
 11
406.433465
 21
207.8725669999998
 31
0.0
  0
LINE
  5
C78F
330
C63C
100
AcDbEntity
  8
1
  6
Continuous
100
AcDbLine
 10
401.806451
 20
207.8725669999998
 30
0.0
 11
401.806451
 21
206.872567
 31
0.0
  0
LINE
  5
C790
330
C63C
100
AcDbEntity
  8
1
  6
Continuous
100
AcDbLine
 10
376.8064509999998
 20
210.872567
 30
0.0
 11
376.8064509999998
 21
212.872567
 31
0.0
  0
LINE
  5
C791
330
C63C
100
AcDbEntity
  8
1
  6
Continuous
100
AcDbLine
 10
388.8064509999999
 20
207.8725669999998
 30
0.0
 11
388.8064509999999
 21
206.872567
 31
0.0
  0
ARC
  5
C792
330
C63C
100
AcDbEntity
  8
1
  6
Continuous
100
AcDbCircle
 10
384.179437
 20
211.8725669999999
 30
0.0
 40
4.0
100
AcDbArc
 50
194.477509
 51
270.0
  0
CIRCLE
  5
C793
330
C63C
100
AcDbEntity
  8
1
  6
Continuous
100
AcDbCircle
 10
441.3064509999998
 20
172.872567
 30
0.0
 40
4.25
  0
LINE
  5
C794
330
C63C
100
AcDbEntity
  8
1
  6
Continuous
100
AcDbLine
 10
166.268929
 20
53.75
 30
0.0
 11
157.268929
 21
53.75
 31
0.0
  0
LINE
  5
C795
330
C63C
100
AcDbEntity
  8
1
  6
Continuous
100
AcDbLine
 10
166.268929
 20
82.250004
 30
0.0
 11
157.268929
 21
82.250004
 31
0.0
  0
ARC
  5
C796
330
C63C
100
AcDbEntity
  8
1
  6
Continuous
100
AcDbCircle
 10
161.768929
 20
60.750004
 30
0.0
 40
9.0
100
AcDbArc
 50
241.82135
 51
298.17865
  0
LINE
  5
C797
330
C63C
100
AcDbEntity
  8
1
  6
Continuous
100
AcDbLine
 10
166.018929
 20
52.816684
 30
0.0
 11
157.518929
 21
52.816684
 31
0.0
  0
LINE
  5
C798
330
C63C
100
AcDbEntity
  8
4
  6
CENTER
100
AcDbLine
 10
229.268929
 20
68.000004
 30
0.0
 11
124.2689289999999
 21
68.000004
 31
0.0
  0
LINE
  5
C799
330
C63C
100
AcDbEntity
  8
1
  6
Continuous
100
AcDbLine
 10
127.2689289999999
 20
48.0
 30
0.0
 11
127.2689289999999
 21
87.99999599999997
 31
0.0
  0
LINE
  5
C79A
330
C63C
100
AcDbEntity
  8
4
  6
CENTER
100
AcDbLine
 10
161.768929
 20
85.70553199999997
 30
0.0
 11
161.768929
 21
59.99206899999999
 31
0.0
  0
ARC
  5
C79B
330
C63C
100
AcDbEntity
  8
1
  6
Continuous
100
AcDbCircle
 10
134.268929
 20
87.99999599999997
 30
0.0
 40
7.0
100
AcDbArc
 50
8.525513
 51
180.0
  0
CIRCLE
  5
C79C
330
C63C
100
AcDbEntity
  8
1
  6
Continuous
100
AcDbCircle
 10
134.268929
 20
88.000004
 30
0.0
 40
3.25
  0
LINE
  5
C79D
330
C63C
100
AcDbEntity
  8
4
  6
CENTER
100
AcDbLine
 10
140.518929
 20
88.000004
 30
0.0
 11
128.018929
 21
88.000004
 31
0.0
  0
ARC
  5
C79E
330
C63C
100
AcDbEntity
  8
1
  6
Continuous
100
AcDbCircle
 10
161.173767
 20
80.203754
 30
0.0
 40
15.0
100
AcDbArc
 50
149.352835
 51
173.934719
  0
ARC
  5
C79F
330
C63C
100
AcDbEntity
  8
1
  6
Continuous
100
AcDbCircle
 10
144.268929
 20
82.000004
 30
0.0
 40
2.0
100
AcDbArc
 50
188.525513
 51
353.934708
  0
LINE
  5
C7A0
330
C63C
100
AcDbEntity
  8
4
  6
CENTER
100
AcDbLine
 10
134.268929
 20
81.750004
 30
0.0
 11
134.268929
 21
94.250004
 31
0.0
  0
LINE
  5
C7A1
330
C63C
100
AcDbEntity
  8
1
  6
Continuous
100
AcDbLine
 10
141.1915779999999
 20
89.037746
 30
0.0
 11
142.291027
 21
81.70350199999999
 31
0.0
  0
ARC
  5
C7A2
330
C63C
100
AcDbEntity
  8
1
  6
Continuous
100
AcDbCircle
 10
157.268929
 20
86.25000400000002
 30
0.0
 40
4.0
100
AcDbArc
 50
218.5014649999998
 51
270.0
  0
ARC
  5
C7A3
330
C63C
100
AcDbEntity
  8
1
  6
Continuous
100
AcDbCircle
 10
144.356156
 20
75.978176
 30
0.0
 40
12.5
100
AcDbArc
 50
38.50148
 51
71.75856
  0
CIRCLE
  5
C7A4
330
C63C
100
AcDbEntity
  8
1
  6
Continuous
100
AcDbCircle
 10
134.268929
 20
48.0
 30
0.0
 40
3.25
  0
ARC
  5
C7A5
330
C63C
100
AcDbEntity
  8
1
  6
Continuous
100
AcDbCircle
 10
134.268929
 20
48.0
 30
0.0
 40
7.0
100
AcDbArc
 50
180.0
 51
351.4745029999998
  0
LINE
  5
C7A6
330
C63C
100
AcDbEntity
  8
4
  6
CENTER
100
AcDbLine
 10
140.518929
 20
48.0
 30
0.0
 11
128.018929
 21
48.0
 31
0.0
  0
LINE
  5
C7A7
330
C63C
100
AcDbEntity
  8
4
  6
CENTER
100
AcDbLine
 10
161.768929
 20
59.49206499999998
 30
0.0
 11
161.768929
 21
49.254764
 31
0.0
  0
ARC
  5
C7A8
330
C63C
100
AcDbEntity
  8
1
  6
Continuous
100
AcDbCircle
 10
161.173767
 20
55.796253
 30
0.0
 40
15.0
100
AcDbArc
 50
186.0653079999999
 51
210.6472169999999
  0
LINE
  5
C7A9
330
C63C
100
AcDbEntity
  8
1
  6
Continuous
100
AcDbLine
 10
141.1915779999999
 20
46.96224899999999
 30
0.0
 11
142.291027
 21
54.29650099999999
 31
0.0
  0
LINE
  5
C7AA
330
C63C
100
AcDbEntity
  8
4
  6
CENTER
100
AcDbLine
 10
134.268929
 20
41.74999999999999
 30
0.0
 11
134.268929
 21
54.25
 31
0.0
  0
ARC
  5
C7AB
330
C63C
100
AcDbEntity
  8
1
  6
Continuous
100
AcDbCircle
 10
144.268929
 20
54.0
 30
0.0
 40
2.0
100
AcDbArc
 50
6.065307999999999
 51
171.474495
  0
ARC
  5
C7AC
330
C63C
100
AcDbEntity
  8
1
  6
Continuous
100
AcDbCircle
 10
144.356156
 20
60.021824
 30
0.0
 40
12.5
100
AcDbArc
 50
288.24144
 51
321.49852
  0
ARC
  5
C7AD
330
C63C
100
AcDbEntity
  8
1
  6
Continuous
100
AcDbCircle
 10
157.268929
 20
49.75
 30
0.0
 40
4.0
100
AcDbArc
 50
90.0
 51
141.498531
  0
LINE
  5
C7AE
330
C63C
100
AcDbEntity
  8
1
  6
Continuous
100
AcDbLine
 10
157.518929
 20
52.816684
 30
0.0
 11
157.518929
 21
53.75
 31
0.0
  0
ARC
  5
C7AF
330
C63C
100
AcDbEntity
  8
1
  6
Continuous
100
AcDbCircle
 10
219.268929
 20
87.99999599999997
 30
0.0
 40
7.0
100
AcDbArc
 50
0.0
 51
90.0
  0
ARC
  5
C7B0
330
C63C
100
AcDbEntity
  8
1
  6
Continuous
100
AcDbCircle
 10
219.268929
 20
48.0
 30
0.0
 40
7.0
100
AcDbArc
 50
270.0
 51
0.0
  0
LINE
  5
C7B1
330
C63C
100
AcDbEntity
  8
4
  6
CENTER
100
AcDbLine
 10
207.768929
 20
46.50000399999998
 30
0.0
 11
207.768929
 21
89.500004
 31
0.0
  0
LINE
  5
C7B2
330
C63C
100
AcDbEntity
  8
1
  6
Continuous
100
AcDbLine
 10
226.268929
 20
87.99999599999997
 30
0.0
 11
226.268929
 21
71.615595
 31
0.0
  0
ARC
  5
C7B3
330
C63C
100
AcDbEntity
  8
1
  6
Continuous
100
AcDbCircle
 10
195.984581
 20
95.89999699999998
 30
0.0
 40
3.0
100
AcDbArc
 50
219.2963559999999
 51
317.396317
  0
LINE
  5
C7B4
330
C63C
100
AcDbEntity
  8
1
  6
Continuous
100
AcDbLine
 10
193.6629409999999
 20
94.00000400000001
 30
0.0
 11
174.2388919999999
 21
87.14896000000001
 31
0.0
  0
ARC
  5
C7B5
330
C63C
100
AcDbEntity
  8
1
  6
Continuous
100
AcDbCircle
 10
166.268929
 20
86.25000400000002
 30
0.0
 40
4.0
100
AcDbArc
 50
270.0
 51
320.828323
  0
ARC
  5
C7B6
330
C63C
100
AcDbEntity
  8
1
  6
Continuous
100
AcDbCircle
 10
177.897782
 20
76.77530299999998
 30
0.0
 40
11.0
100
AcDbArc
 50
109.428253
 51
140.828316
  0
LINE
  5
C7B7
330
C63C
100
AcDbEntity
  8
1
  6
Continuous
100
AcDbLine
 10
200.768929
 20
94.999996
 30
0.0
 11
219.268929
 21
94.999996
 31
0.0
  0
ARC
  5
C7B8
330
C63C
100
AcDbEntity
  8
1
  6
Continuous
100
AcDbCircle
 10
200.768929
 20
91.49999599999999
 30
0.0
 40
3.5
100
AcDbArc
 50
90.0
 51
137.3963129999999
  0
LINE
  5
C7B9
330
C63C
100
AcDbEntity
  8
4
  6
CENTER
100
AcDbLine
 10
225.518929
 20
88.000004
 30
0.0
 11
213.018929
 21
88.000004
 31
0.0
  0
CIRCLE
  5
C7BA
330
C63C
100
AcDbEntity
  8
1
  6
Continuous
100
AcDbCircle
 10
219.268929
 20
88.000004
 30
0.0
 40
3.25
  0
LINE
  5
C7BB
330
C63C
100
AcDbEntity
  8
4
  6
CENTER
100
AcDbLine
 10
219.268929
 20
81.750004
 30
0.0
 11
219.268929
 21
94.250004
 31
0.0
  0
ARC
  5
C7BC
330
C63C
100
AcDbEntity
  8
1
  6
Continuous
100
AcDbCircle
 10
195.984581
 20
40.100002
 30
0.0
 40
3.0
100
AcDbArc
 50
42.60368299999998
 51
140.7035559999999
  0
LINE
  5
C7BD
330
C63C
100
AcDbEntity
  8
1
  6
Continuous
100
AcDbLine
 10
193.6629409999999
 20
42.0
 30
0.0
 11
174.2389
 21
48.851043
 31
0.0
  0
ARC
  5
C7BE
330
C63C
100
AcDbEntity
  8
1
  6
Continuous
100
AcDbCircle
 10
177.897782
 20
59.224693
 30
0.0
 40
11.0
100
AcDbArc
 50
219.1716919999998
 51
250.571777
  0
LINE
  5
C7BF
330
C63C
100
AcDbEntity
  8
1
  6
Continuous
100
AcDbLine
 10
166.018929
 20
52.816684
 30
0.0
 11
166.018929
 21
53.75
 31
0.0
  0
ARC
  5
C7C0
330
C63C
100
AcDbEntity
  8
1
  6
Continuous
100
AcDbCircle
 10
166.268929
 20
49.75
 30
0.0
 40
4.0
100
AcDbArc
 50
39.171677
 51
90.0
  0
LINE
  5
C7C1
330
C63C
100
AcDbEntity
  8
1
  6
Continuous
100
AcDbLine
 10
219.268929
 20
41.0
 30
0.0
 11
200.768929
 21
41.0
 31
0.0
  0
ARC
  5
C7C2
330
C63C
100
AcDbEntity
  8
1
  6
Continuous
100
AcDbCircle
 10
200.768929
 20
44.5
 30
0.0
 40
3.5
100
AcDbArc
 50
222.603668
 51
270.0
  0
CIRCLE
  5
C7C3
330
C63C
100
AcDbEntity
  8
1
  6
Continuous
100
AcDbCircle
 10
219.268929
 20
48.0
 30
0.0
 40
3.25
  0
LINE
  5
C7C4
330
C63C
100
AcDbEntity
  8
4
  6
CENTER
100
AcDbLine
 10
219.268929
 20
41.74999999999999
 30
0.0
 11
219.268929
 21
54.25
 31
0.0
  0
LINE
  5
C7C5
330
C63C
100
AcDbEntity
  8
4
  6
CENTER
100
AcDbLine
 10
225.518929
 20
48.0
 30
0.0
 11
213.018929
 21
48.0
 31
0.0
  0
CIRCLE
  5
C7C6
330
C63C
100
AcDbEntity
  8
1
  6
Continuous
100
AcDbCircle
 10
207.768929
 20
68.000004
 30
0.0
 40
18.85
  0
CIRCLE
  5
C7C7
330
C63C
100
AcDbEntity
  8
1
  6
Continuous
100
AcDbCircle
 10
207.768929
 20
68.000004
 30
0.0
 40
17.249994
  0
LINE
  5
C7C8
330
C63C
100
AcDbEntity
  8
1
  6
Continuous
100
AcDbLine
 10
226.268929
 20
64.384413
 30
0.0
 11
226.268929
 21
48.0
 31
0.0
  0
LINE
  5
C7C9
330
C63C
100
AcDbEntity
  8
1
  6
Continuous
100
AcDbLine
 10
166.268929
 20
55.75
 30
0.0
 11
157.268929
 21
55.75
 31
0.0
  0
LINE
  5
C7CA
330
C63C
100
AcDbEntity
  8
1
  6
Continuous
100
AcDbLine
 10
166.268929
 20
80.25000400000001
 30
0.0
 11
157.268929
 21
80.25000400000001
 31
0.0
  0
LINE
  5
C7CB
330
C63C
100
AcDbEntity
  8
1
  6
Continuous
100
AcDbLine
 10
206.6605899999999
 20
68.49279
 30
0.0
 11
206.0531239999999
 21
69.12183900000001
 31
0.0
  0
LINE
  5
C7CC
330
C63C
100
AcDbEntity
  8
1
  6
Continuous
100
AcDbLine
 10
208.8772679999999
 20
68.49279
 30
0.0
 11
209.484734
 21
69.12183900000001
 31
0.0
  0
LINE
  5
C7CD
330
C63C
100
AcDbEntity
  8
1
  6
Continuous
100
AcDbLine
 10
207.768929
 20
68.92898399999999
 30
0.0
 11
208.2617149999999
 21
69.10834300000001
 31
0.0
  0
LINE
  5
C7CE
330
C63C
100
AcDbEntity
  8
1
  6
Continuous
100
AcDbLine
 10
207.768929
 20
68.92898399999999
 30
0.0
 11
207.2761429999999
 21
69.10834300000001
 31
0.0
  0
ARC
  5
C7CF
330
C63C
100
AcDbEntity
  8
1
  6
Continuous
100
AcDbCircle
 10
207.768929
 20
68.000004
 30
0.0
 40
4.5
100
AcDbArc
 50
320.433944
 51
219.565993
  0
CIRCLE
  5
C7D0
330
C63C
100
AcDbEntity
  8
1
  6
Continuous
100
AcDbCircle
 10
207.768929
 20
68.000004
 30
0.0
 40
3.5
  0
LINE
  5
C7D1
330
C63C
100
AcDbEntity
  8
1
  6
Continuous
100
AcDbLine
 10
201.768929
 20
74.000004
 30
0.0
 11
201.768929
 21
68.000004
 31
0.0
  0
LINE
  5
C7D2
330
C63C
100
AcDbEntity
  8
1
  6
Continuous
100
AcDbLine
 10
213.768929
 20
74.000004
 30
0.0
 11
213.768929
 21
68.000004
 31
0.0
  0
LINE
  5
C7D3
330
C63C
100
AcDbEntity
  8
1
  6
Continuous
100
AcDbLine
 10
207.768929
 20
67.071024
 30
0.0
 11
207.2761429999999
 21
66.891665
 31
0.0
  0
ARC
  5
C7D4
330
C63C
100
AcDbEntity
  8
1
  6
Continuous
100
AcDbCircle
 10
207.768929
 20
68.000004
 30
0.0
 40
6.0
100
AcDbArc
 50
180.0
 51
0.0
  0
LINE
  5
C7D5
330
C63C
100
AcDbEntity
  8
1
  6
Continuous
100
AcDbLine
 10
207.2761429999999
 20
66.891665
 30
0.0
 11
206.6470939999999
 21
66.284199
 31
0.0
  0
LINE
  5
C7D6
330
C63C
100
AcDbEntity
  8
1
  6
Continuous
100
AcDbLine
 10
206.839949
 20
68.000004
 30
0.0
 11
206.6605899999999
 21
68.49279
 31
0.0
  0
LINE
  5
C7D7
330
C63C
100
AcDbEntity
  8
1
  6
Continuous
100
AcDbLine
 10
206.839949
 20
68.000004
 30
0.0
 11
206.6605899999999
 21
67.50721799999999
 31
0.0
  0
LINE
  5
C7D8
330
C63C
100
AcDbEntity
  8
1
  6
Continuous
100
AcDbLine
 10
206.6605899999999
 20
67.50721799999999
 30
0.0
 11
206.0531239999999
 21
66.878169
 31
0.0
  0
ARC
  5
C7D9
330
C63C
100
AcDbEntity
  8
1
  6
Continuous
100
AcDbCircle
 10
207.768929
 20
68.000004
 30
0.0
 40
2.049999999999998
100
AcDbArc
 50
213.17764
 51
236.8223599999998
  0
LINE
  5
C7DA
330
C63C
100
AcDbEntity
  8
1
  6
Continuous
100
AcDbLine
 10
204.954689
 20
65.188435
 30
0.0
 11
205.2034069999999
 21
65.619227
 31
0.0
  0
ARC
  5
C7DB
330
C63C
100
AcDbEntity
  8
1
  6
Continuous
100
AcDbCircle
 10
204.608275
 20
65.388439
 30
0.0
 40
0.4
100
AcDbArc
 50
219.5661739999999
 51
330.0000849999999
  0
LINE
  5
C7DC
330
C63C
100
AcDbEntity
  8
1
  6
Continuous
100
AcDbLine
 10
208.2617149999999
 20
66.891665
 30
0.0
 11
208.8907639999999
 21
66.284199
 31
0.0
  0
LINE
  5
C7DD
330
C63C
100
AcDbEntity
  8
1
  6
Continuous
100
AcDbLine
 10
207.768929
 20
67.071024
 30
0.0
 11
208.2617149999999
 21
66.891665
 31
0.0
  0
LINE
  5
C7DE
330
C63C
100
AcDbEntity
  8
1
  6
Continuous
100
AcDbLine
 10
208.697909
 20
68.000004
 30
0.0
 11
208.8772679999999
 21
67.50721799999999
 31
0.0
  0
LINE
  5
C7DF
330
C63C
100
AcDbEntity
  8
1
  6
Continuous
100
AcDbLine
 10
208.8772679999999
 20
67.50721799999999
 30
0.0
 11
209.484734
 21
66.878169
 31
0.0
  0
LINE
  5
C7E0
330
C63C
100
AcDbEntity
  8
1
  6
Continuous
100
AcDbLine
 10
208.697909
 20
68.000004
 30
0.0
 11
208.8772679999999
 21
68.49279
 31
0.0
  0
ARC
  5
C7E1
330
C63C
100
AcDbEntity
  8
1
  6
Continuous
100
AcDbCircle
 10
207.768929
 20
68.000004
 30
0.0
 40
2.049999999999998
100
AcDbArc
 50
303.17764
 51
326.82236
  0
LINE
  5
C7E2
330
C63C
100
AcDbEntity
  8
1
  6
Continuous
100
AcDbLine
 10
210.3344529999999
 20
65.61923
 30
0.0
 11
210.5831719999999
 21
65.188435
 31
0.0
  0
ARC
  5
C7E3
330
C63C
100
AcDbEntity
  8
1
  6
Continuous
100
AcDbCircle
 10
210.929581
 20
65.388439
 30
0.0
 40
0.4
100
AcDbArc
 50
210.0001669999998
 51
320.4339739999999
  0
ARC
  5
C7E4
330
C63C
100
AcDbEntity
  8
1
  6
Continuous
100
AcDbCircle
 10
207.768929
 20
74.000004
 30
0.0
 40
6.0
100
AcDbArc
 50
0.0
 51
180.0
  0
LINE
  5
C7E5
330
C63C
100
AcDbEntity
  8
1
  6
Continuous
100
AcDbLine
 10
207.2761429999999
 20
69.10834300000001
 30
0.0
 11
206.6470939999999
 21
69.71580899999999
 31
0.0
  0
ARC
  5
C7E6
330
C63C
100
AcDbEntity
  8
1
  6
Continuous
100
AcDbCircle
 10
207.768929
 20
68.000004
 30
0.0
 40
2.049999999999998
100
AcDbArc
 50
123.1776399999999
 51
146.8223599999998
  0
LINE
  5
C7E7
330
C63C
100
AcDbEntity
  8
1
  6
Continuous
100
AcDbLine
 10
208.2617149999999
 20
69.10834300000001
 30
0.0
 11
208.8907639999999
 21
69.71580899999999
 31
0.0
  0
ARC
  5
C7E8
330
C63C
100
AcDbEntity
  8
1
  6
Continuous
100
AcDbCircle
 10
207.768929
 20
68.000004
 30
0.0
 40
2.049999999999998
100
AcDbArc
 50
33.17763999999999
 51
56.82235999999999
  0
ARC
  5
C7E9
330
C63C
100
AcDbEntity
  8
1
  6
Continuous
100
AcDbCircle
 10
166.268929
 20
49.75
 30
0.0
 40
6.0
100
AcDbArc
 50
39.171677
 51
90.0
  0
ARC
  5
C7EA
330
C63C
100
AcDbEntity
  8
1
  6
Continuous
100
AcDbCircle
 10
177.897782
 20
59.224693
 30
0.0
 40
9.0
100
AcDbArc
 50
219.1716919999998
 51
250.571777
  0
ARC
  5
C7EB
330
C63C
100
AcDbEntity
  8
1
  6
Continuous
100
AcDbCircle
 10
157.268929
 20
49.75
 30
0.0
 40
6.0
100
AcDbArc
 50
90.0
 51
141.498531
  0
ARC
  5
C7EC
330
C63C
100
AcDbEntity
  8
1
  6
Continuous
100
AcDbCircle
 10
144.356156
 20
60.021824
 30
0.0
 40
10.5
100
AcDbArc
 50
286.6004239999999
 51
321.49852
  0
LINE
  5
C7ED
330
C63C
100
AcDbEntity
  8
1
  6
Continuous
100
AcDbLine
 10
197.0019889999999
 20
42.92221399999998
 30
0.0
 11
174.904152
 21
50.737161
 31
0.0
  0
LINE
  5
C7EE
330
C63C
100
AcDbEntity
  8
1
  6
Continuous
100
AcDbLine
 10
197.0019889999999
 20
93.07779399999999
 30
0.0
 11
174.904152
 21
85.26284699999996
 31
0.0
  0
ARC
  5
C7EF
330
C63C
100
AcDbEntity
  8
1
  6
Continuous
100
AcDbCircle
 10
177.897782
 20
76.775315
 30
0.0
 40
9.0
100
AcDbArc
 50
109.428223
 51
140.8283079999999
  0
ARC
  5
C7F0
330
C63C
100
AcDbEntity
  8
1
  6
Continuous
100
AcDbCircle
 10
166.268929
 20
86.25000799999998
 30
0.0
 40
6.0
100
AcDbArc
 50
270.0
 51
320.828323
  0
ARC
  5
C7F1
330
C63C
100
AcDbEntity
  8
1
  6
Continuous
100
AcDbCircle
 10
157.268929
 20
86.25000799999998
 30
0.0
 40
6.0
100
AcDbArc
 50
218.501469
 51
270.0
  0
ARC
  5
C7F2
330
C63C
100
AcDbEntity
  8
1
  6
Continuous
100
AcDbCircle
 10
144.356156
 20
75.978184
 30
0.0
 40
10.5
100
AcDbArc
 50
38.50148
 51
73.39957599999998
  0
LINE
  5
C7F3
330
C63C
100
AcDbEntity
  8
1
  6
Continuous
100
AcDbLine
 10
310.03769
 20
168.372659
 30
0.0
 11
310.03769
 21
161.372567
 31
0.0
  0
LINE
  5
C7F4
330
C63C
100
AcDbEntity
  8
1
  6
Continuous
100
AcDbLine
 10
293.03769
 20
168.372659
 30
0.0
 11
293.03769
 21
161.372567
 31
0.0
  0
ARC
  5
C7F5
330
C63C
100
AcDbEntity
  8
1
  6
Continuous
100
AcDbCircle
 10
305.78769
 20
171.4475879999999
 30
0.0
 40
10.075021
100
AcDbArc
 50
245.049485
 51
294.9505149999998
  0
ARC
  5
C7F6
330
C63C
100
AcDbEntity
  8
1
  6
Continuous
100
AcDbCircle
 10
297.28769
 20
171.4475879999999
 30
0.0
 40
10.075021
100
AcDbArc
 50
245.049485
 51
294.9505149999998
  0
LINE
  5
C7F7
330
C63C
100
AcDbEntity
  8
1
  6
Continuous
100
AcDbLine
 10
165.768929
 20
277.893823
 30
0.0
 11
165.768929
 21
277.501818
 31
0.0
  0
LINE
  5
C7F8
330
C63C
100
AcDbEntity
  8
1
  6
Continuous
100
AcDbLine
 10
157.768929
 20
277.501818
 30
0.0
 11
157.768929
 21
277.893823
 31
0.0
  0
ARC
  5
C7F9
330
C63C
100
AcDbEntity
  8
1
  6
Continuous
100
AcDbCircle
 10
161.768929
 20
283.846106
 30
0.0
 40
7.5
100
AcDbArc
 50
237.769047
 51
302.230953
  0
LINE
  5
C7FA
330
C63C
100
AcDbEntity
  8
1
  6
Continuous
100
AcDbLine
 10
165.768929
 20
277.501818
 30
0.0
 11
157.768929
 21
277.501818
 31
0.0
  0
ARC
  5
C7FB
330
C63C
100
AcDbEntity
  8
1
  6
Continuous
100
AcDbCircle
 10
161.7689639999998
 20
299.393827
 30
0.0
 40
9.0
100
AcDbArc
 50
61.82135699999999
 51
118.178643
  0
LINE
  5
C7FC
330
C63C
100
AcDbEntity
  8
1
  6
Continuous
100
AcDbLine
 10
166.0189639999998
 20
307.3271429999999
 30
0.0
 11
157.5189639999998
 21
307.3271429999999
 31
0.0
  0
LINE
  5
C7FD
330
C63C
100
AcDbEntity
  8
1
  6
Continuous
100
AcDbLine
 10
157.5189639999998
 20
306.3938269999998
 30
0.0
 11
157.5189639999998
 21
307.3271429999999
 31
0.0
  0
LINE
  5
C7FE
330
C63C
100
AcDbEntity
  8
1
  6
Continuous
100
AcDbLine
 10
166.0189639999998
 20
306.3938269999998
 30
0.0
 11
166.0189639999998
 21
307.3271429999999
 31
0.0
  0
CIRCLE
  5
C7FF
330
C63C
100
AcDbEntity
  8
1
  6
Continuous
100
AcDbCircle
 10
161.768929
 20
172.872567
 30
0.0
 40
4.0
  0
ARC
  5
C800
330
C63C
100
AcDbEntity
  8
1
  6
Continuous
100
AcDbCircle
 10
161.768929
 20
76.29772099999998
 30
0.0
 40
7.5
100
AcDbArc
 50
57.76904700000001
 51
122.230953
  0
LINE
  5
C801
330
C63C
100
AcDbEntity
  8
1
  6
Continuous
100
AcDbLine
 10
165.768929
 20
82.642009
 30
0.0
 11
157.768929
 21
82.642009
 31
0.0
  0
LINE
  5
C802
330
C63C
100
AcDbEntity
  8
1
  6
Continuous
100
AcDbLine
 10
165.768929
 20
82.250004
 30
0.0
 11
165.768929
 21
82.642009
 31
0.0
  0
LINE
  5
C803
330
C63C
100
AcDbEntity
  8
1
  6
Continuous
100
AcDbLine
 10
157.768929
 20
82.642009
 30
0.0
 11
157.768929
 21
82.250004
 31
0.0
  0
LINE
  5
C804
330
C63C
100
AcDbEntity
  8
1
  6
Continuous
100
AcDbLine
 10
77.94488
 20
208.21081
 30
0.0
 11
71.30774099999998
 21
168.645369
 31
0.0
  0
LINE
  5
C805
330
C63C
100
AcDbEntity
  8
1
  6
Continuous
100
AcDbLine
 10
32.209646
 20
195.916888
 30
0.0
 11
34.25640099999999
 21
168.1782179999999
 31
0.0
  0
LINE
  5
C806
330
C63C
100
AcDbEntity
  8
1
  6
Continuous
100
AcDbLine
 10
34.20372899999998
 20
196.0707839999998
 30
0.0
 11
36.320357
 21
167.2528129999998
 31
0.0
  0
LINE
  5
C807
330
C63C
100
AcDbEntity
  8
1
  6
Continuous
100
AcDbLine
 10
26.05512
 20
208.21081
 30
0.0
 11
32.692259
 21
168.645369
 31
0.0
  0
ARC
  5
C808
330
C63C
100
AcDbEntity
  8
1
  6
Continuous
100
AcDbCircle
 10
30.0
 20
208.872567
 30
0.0
 40
4.0
100
AcDbArc
 50
150.0
 51
189.522756
  0
ARC
  5
C809
330
C63C
100
AcDbEntity
  8
1
  6
Continuous
100
AcDbCircle
 10
37.623359
 20
169.472566
 30
0.0
 40
5.0
100
AcDbArc
 50
189.522756
 51
270.0
  0
ARC
  5
C80A
330
C63C
100
AcDbEntity
  8
1
  6
Continuous
100
AcDbCircle
 10
49.85
 20
197.535802
 30
0.0
 40
22.0
100
AcDbArc
 50
355.779961
 51
37.316437
  0
ARC
  5
C80B
330
C63C
100
AcDbEntity
  8
1
  6
Continuous
100
AcDbCircle
 10
49.85
 20
197.535802
 30
0.0
 40
20.0
100
AcDbArc
 50
355.7992709999999
 51
41.82350200000001
  0
LINE
  5
C80C
330
C63C
100
AcDbEntity
  8
1
  6
Continuous
100
AcDbLine
 10
69.79627099999999
 20
196.0707839999998
 30
0.0
 11
67.679643
 21
167.2528129999998
 31
0.0
  0
LINE
  5
C80D
330
C63C
100
AcDbEntity
  8
1
  6
Continuous
100
AcDbLine
 10
71.790354
 20
195.916888
 30
0.0
 11
69.743599
 21
168.1782179999999
 31
0.0
  0
ARC
  5
C80E
330
C63C
100
AcDbEntity
  8
1
  6
Continuous
100
AcDbCircle
 10
64.687702
 20
167.472566
 30
0.0
 40
3.0
100
AcDbArc
 50
270.0
 51
355.7992709999999
  0
ARC
  5
C80F
330
C63C
100
AcDbEntity
  8
1
  6
Continuous
100
AcDbCircle
 10
65.75444399999999
 20
168.4725659999998
 30
0.0
 40
4.0
100
AcDbArc
 50
270.0
 51
355.779961
  0
LINE
  5
C810
330
C63C
100
AcDbEntity
  8
1
  6
Continuous
100
AcDbLine
 10
327.48257
 20
208.21081
 30
0.0
 11
320.845431
 21
168.645369
 31
0.0
  0
ARC
  5
C811
330
C63C
100
AcDbEntity
  8
1
  6
Continuous
100
AcDbCircle
 10
323.5376899999999
 20
208.872567
 30
0.0
 40
4.0
100
AcDbArc
 50
350.4772439999999
 51
30.0
  0
ARC
  5
C812
330
C63C
100
AcDbEntity
  8
1
  6
Continuous
100
AcDbCircle
 10
315.914331
 20
169.472566
 30
0.0
 40
5.0
100
AcDbArc
 50
270.0
 51
350.4772439999999
  0
ARC
  5
C813
330
C63C
100
AcDbEntity
  8
1
  6
Continuous
100
AcDbCircle
 10
323.5376899999999
 20
208.872567
 30
0.0
 40
2.0
100
AcDbArc
 50
350.4772439999999
 51
90.0
  0
LINE
  5
C814
330
C63C
100
AcDbEntity
  8
1
  6
Continuous
100
AcDbLine
 10
325.51013
 20
208.5416879999999
 30
0.0
 11
318.5374889999998
 21
166.9762479999999
 31
0.0
  0
ARC
  5
C815
330
C63C
100
AcDbEntity
  8
1
  6
Continuous
100
AcDbCircle
 10
315.5788289999999
 20
167.472566
 30
0.0
 40
3.0
100
AcDbArc
 50
270.0
 51
350.4772439999999
  0
LINE
  5
C816
330
C63C
100
AcDbEntity
  8
1
  6
Continuous
100
AcDbLine
 10
277.56525
 20
208.5416879999999
 30
0.0
 11
284.5378909999999
 21
166.9762479999999
 31
0.0
  0
LINE
  5
C817
330
C63C
100
AcDbEntity
  8
1
  6
Continuous
100
AcDbLine
 10
275.5928099999998
 20
208.21081
 30
0.0
 11
282.2299489999998
 21
168.645369
 31
0.0
  0
ARC
  5
C818
330
C63C
100
AcDbEntity
  8
1
  6
Continuous
100
AcDbCircle
 10
279.5376899999999
 20
208.872567
 30
0.0
 40
4.0
100
AcDbArc
 50
150.0
 51
189.522756
  0
ARC
  5
C819
330
C63C
100
AcDbEntity
  8
1
  6
Continuous
100
AcDbCircle
 10
279.5376899999999
 20
208.872567
 30
0.0
 40
2.0
100
AcDbArc
 50
90.0
 51
189.522756
  0
ARC
  5
C81A
330
C63C
100
AcDbEntity
  8
1
  6
Continuous
100
AcDbCircle
 10
287.1610490000001
 20
169.472566
 30
0.0
 40
5.0
100
AcDbArc
 50
189.522756
 51
270.0
  0
LINE
  5
C81B
330
C63C
100
AcDbEntity
  8
1
  6
Continuous
100
AcDbLine
 10
287.1610490000001
 20
164.4725659999998
 30
0.0
 11
289.28769
 21
164.4725659999998
 31
0.0
  0
ARC
  5
C81C
330
C63C
100
AcDbEntity
  8
1
  6
Continuous
100
AcDbCircle
 10
287.4965509999999
 20
167.472566
 30
0.0
 40
3.0
100
AcDbArc
 50
189.522756
 51
270.0
  0
LINE
  5
C81D
330
C63C
100
AcDbEntity
  8
1
  6
Continuous
100
AcDbLine
 10
156.188479
 20
56.25000400000001
 30
0.0
 11
161.768929
 21
56.25000400000001
 31
0.0
  0
LINE
  5
C81E
330
C63C
100
AcDbEntity
  8
1
  6
Continuous
100
AcDbLine
 10
156.188479
 20
79.750004
 30
0.0
 11
161.768929
 21
79.750004
 31
0.0
  0
LINE
  5
C81F
330
C63C
100
AcDbEntity
  8
1
  6
Continuous
100
AcDbLine
 10
184.354823
 20
79.000004
 30
0.0
 11
139.1831039999999
 21
79.000004
 31
0.0
  0
LINE
  5
C820
330
C63C
100
AcDbEntity
  8
1
  6
Continuous
100
AcDbLine
 10
184.354823
 20
57.000004
 30
0.0
 11
139.1831039999999
 21
57.000004
 31
0.0
  0
ARC
  5
C821
330
C63C
100
AcDbEntity
  8
1
  6
Continuous
100
AcDbCircle
 10
236.768964
 20
68.000004
 30
0.0
 40
100.0
100
AcDbArc
 50
174.730718
 51
185.269983
  0
ARC
  5
C822
330
C63C
100
AcDbEntity
  8
1
  6
Continuous
100
AcDbCircle
 10
139.1831039999999
 20
59.00000399999999
 30
0.0
 40
2.0
100
AcDbArc
 50
185.269282
 51
270.0
  0
LINE
  5
C823
330
C63C
100
AcDbEntity
  8
1
  6
Continuous
100
AcDbLine
 10
158.7689639999998
 20
55.75
 30
0.0
 11
158.7689639999998
 21
56.25000400000001
 31
0.0
  0
LINE
  5
C824
330
C63C
100
AcDbEntity
  8
1
  6
Continuous
100
AcDbLine
 10
155.696075
 20
56.66318
 30
0.0
 11
155.636684
 21
57.000004
 31
0.0
  0
ARC
  5
C825
330
C63C
100
AcDbEntity
  8
1
  6
Continuous
100
AcDbCircle
 10
156.188479
 20
56.750004
 30
0.0
 40
0.5
100
AcDbArc
 50
190.0
 51
270.0
  0
ARC
  5
C826
330
C63C
100
AcDbEntity
  8
1
  6
Continuous
100
AcDbCircle
 10
139.1831039999999
 20
77.000004
 30
0.0
 40
2.0
100
AcDbArc
 50
90.0
 51
174.730718
  0
LINE
  5
C827
330
C63C
100
AcDbEntity
  8
1
  6
Continuous
100
AcDbLine
 10
158.7689639999998
 20
80.25000400000001
 30
0.0
 11
158.7689639999998
 21
79.750004
 31
0.0
  0
LINE
  5
C828
330
C63C
100
AcDbEntity
  8
1
  6
Continuous
100
AcDbLine
 10
155.696075
 20
79.33682799999998
 30
0.0
 11
155.636684
 21
79.000004
 31
0.0
  0
ARC
  5
C829
330
C63C
100
AcDbEntity
  8
1
  6
Continuous
100
AcDbCircle
 10
156.188479
 20
79.250004
 30
0.0
 40
0.5
100
AcDbArc
 50
90.0
 51
170.0
  0
ARC
  5
C82A
330
C63C
100
AcDbEntity
  8
1
  6
Continuous
100
AcDbCircle
 10
86.76889399999996
 20
68.000004
 30
0.0
 40
100.0
100
AcDbArc
 50
354.7300169999999
 51
5.269281999999998
  0
LINE
  5
C82B
330
C63C
100
AcDbEntity
  8
1
  6
Continuous
100
AcDbLine
 10
164.7689639999998
 20
56.25000400000001
 30
0.0
 11
164.7689639999998
 21
55.75
 31
0.0
  0
LINE
  5
C82C
330
C63C
100
AcDbEntity
  8
1
  6
Continuous
100
AcDbLine
 10
167.8417829999999
 20
56.66318
 30
0.0
 11
167.9011749999999
 21
57.000004
 31
0.0
  0
ARC
  5
C82D
330
C63C
100
AcDbEntity
  8
1
  6
Continuous
100
AcDbCircle
 10
167.3493799999999
 20
56.750004
 30
0.0
 40
0.5
100
AcDbArc
 50
270.0
 51
350.0
  0
LINE
  5
C82E
330
C63C
100
AcDbEntity
  8
1
  6
Continuous
100
AcDbLine
 10
167.3493799999999
 20
56.25000400000001
 30
0.0
 11
161.768929
 21
56.25000400000001
 31
0.0
  0
ARC
  5
C82F
330
C63C
100
AcDbEntity
  8
1
  6
Continuous
100
AcDbCircle
 10
184.354754
 20
59.00000399999999
 30
0.0
 40
2.0
100
AcDbArc
 50
270.0
 51
354.730718
  0
LINE
  5
C830
330
C63C
100
AcDbEntity
  8
1
  6
Continuous
100
AcDbLine
 10
167.8417829999999
 20
79.33682799999998
 30
0.0
 11
167.9011749999999
 21
79.000004
 31
0.0
  0
ARC
  5
C831
330
C63C
100
AcDbEntity
  8
1
  6
Continuous
100
AcDbCircle
 10
167.3493799999999
 20
79.250004
 30
0.0
 40
0.5
100
AcDbArc
 50
10.0
 51
90.0
  0
LINE
  5
C832
330
C63C
100
AcDbEntity
  8
1
  6
Continuous
100
AcDbLine
 10
164.7689639999998
 20
79.750004
 30
0.0
 11
164.7689639999998
 21
80.25000400000001
 31
0.0
  0
LINE
  5
C833
330
C63C
100
AcDbEntity
  8
1
  6
Continuous
100
AcDbLine
 10
167.3493799999999
 20
79.750004
 30
0.0
 11
161.768929
 21
79.750004
 31
0.0
  0
ARC
  5
C834
330
C63C
100
AcDbEntity
  8
1
  6
Continuous
100
AcDbCircle
 10
184.354754
 20
77.000004
 30
0.0
 40
2.0
100
AcDbArc
 50
5.269281999999998
 51
90.0
  0
LINE
  5
C835
330
C63C
100
AcDbEntity
  8
1
  6
Continuous
100
AcDbLine
 10
41.0
 20
150.286673
 30
0.0
 11
41.0
 21
195.458392
 31
0.0
  0
LINE
  5
C836
330
C63C
100
AcDbEntity
  8
1
  6
Continuous
100
AcDbLine
 10
63.0
 20
150.286673
 30
0.0
 11
63.0
 21
195.458392
 31
0.0
  0
LINE
  5
C837
330
C63C
100
AcDbEntity
  8
1
  6
Continuous
100
AcDbLine
 10
63.75
 20
178.453017
 30
0.0
 11
63.75
 21
167.292116
 31
0.0
  0
LINE
  5
C838
330
C63C
100
AcDbEntity
  8
1
  6
Continuous
100
AcDbLine
 10
40.25
 20
178.453017
 30
0.0
 11
40.25
 21
167.292116
 31
0.0
  0
ARC
  5
C839
330
C63C
100
AcDbEntity
  8
1
  6
Continuous
100
AcDbCircle
 10
52.0
 20
97.87253200000002
 30
0.0
 40
100.0
100
AcDbArc
 50
84.73071800000003
 51
95.269983
  0
ARC
  5
C83A
330
C63C
100
AcDbEntity
  8
1
  6
Continuous
100
AcDbCircle
 10
43.0
 20
195.458392
 30
0.0
 40
2.0
100
AcDbArc
 50
95.26928199999998
 51
180.0
  0
ARC
  5
C83B
330
C63C
100
AcDbEntity
  8
1
  6
Continuous
100
AcDbCircle
 10
40.75
 20
178.453017
 30
0.0
 40
0.5
100
AcDbArc
 50
100.0
 51
180.0
  0
LINE
  5
C83C
330
C63C
100
AcDbEntity
  8
1
  6
Continuous
100
AcDbLine
 10
40.663176
 20
178.945421
 30
0.0
 11
41.0
 21
179.0048119999999
 31
0.0
  0
LINE
  5
C83D
330
C63C
100
AcDbEntity
  8
1
  6
Continuous
100
AcDbLine
 10
39.749996
 20
175.872532
 30
0.0
 11
40.25
 21
175.872532
 31
0.0
  0
ARC
  5
C83E
330
C63C
100
AcDbEntity
  8
1
  6
Continuous
100
AcDbCircle
 10
61.0
 20
195.458392
 30
0.0
 40
2.0
100
AcDbArc
 50
0.0
 51
84.73071800000003
  0
ARC
  5
C83F
330
C63C
100
AcDbEntity
  8
1
  6
Continuous
100
AcDbCircle
 10
63.25
 20
178.453017
 30
0.0
 40
0.5
100
AcDbArc
 50
0.0
 51
80.0
  0
LINE
  5
C840
330
C63C
100
AcDbEntity
  8
1
  6
Continuous
100
AcDbLine
 10
63.336824
 20
178.945421
 30
0.0
 11
63.0
 21
179.0048119999999
 31
0.0
  0
LINE
  5
C841
330
C63C
100
AcDbEntity
  8
1
  6
Continuous
100
AcDbLine
 10
64.25
 20
175.872532
 30
0.0
 11
63.75
 21
175.872532
 31
0.0
  0
ARC
  5
C842
330
C63C
100
AcDbEntity
  8
1
  6
Continuous
100
AcDbCircle
 10
52.0
 20
247.8726019999998
 30
0.0
 40
100.0
100
AcDbArc
 50
264.7300169999999
 51
275.2692819999999
  0
ARC
  5
C843
330
C63C
100
AcDbEntity
  8
1
  6
Continuous
100
AcDbCircle
 10
40.75
 20
167.292116
 30
0.0
 40
0.5
100
AcDbArc
 50
180.0
 51
260.0
  0
LINE
  5
C844
330
C63C
100
AcDbEntity
  8
1
  6
Continuous
100
AcDbLine
 10
40.663176
 20
166.799713
 30
0.0
 11
41.0
 21
166.7403209999999
 31
0.0
  0
LINE
  5
C845
330
C63C
100
AcDbEntity
  8
1
  6
Continuous
100
AcDbLine
 10
40.25
 20
169.872532
 30
0.0
 11
39.749996
 21
169.872532
 31
0.0
  0
ARC
  5
C846
330
C63C
100
AcDbEntity
  8
1
  6
Continuous
100
AcDbCircle
 10
43.0
 20
150.286742
 30
0.0
 40
2.0
100
AcDbArc
 50
180.0
 51
264.730718
  0
LINE
  5
C847
330
C63C
100
AcDbEntity
  8
1
  6
Continuous
100
AcDbLine
 10
63.75
 20
169.872532
 30
0.0
 11
64.25
 21
169.872532
 31
0.0
  0
ARC
  5
C848
330
C63C
100
AcDbEntity
  8
1
  6
Continuous
100
AcDbCircle
 10
63.25
 20
167.292116
 30
0.0
 40
0.5
100
AcDbArc
 50
280.0
 51
0.0
  0
LINE
  5
C849
330
C63C
100
AcDbEntity
  8
1
  6
Continuous
100
AcDbLine
 10
63.336824
 20
166.799713
 30
0.0
 11
63.0
 21
166.7403209999999
 31
0.0
  0
ARC
  5
C84A
330
C63C
100
AcDbEntity
  8
1
  6
Continuous
100
AcDbCircle
 10
61.0
 20
150.286742
 30
0.0
 40
2.0
100
AcDbArc
 50
275.2692819999999
 51
0.0
  0
LINE
  5
C84B
330
C63C
100
AcDbEntity
  8
1
  6
Continuous
100
AcDbLine
 10
313.2876899999998
 20
178.453017
 30
0.0
 11
313.2876899999998
 21
167.292116
 31
0.0
  0
ARC
  5
C84C
330
C63C
100
AcDbEntity
  8
1
  6
Continuous
100
AcDbCircle
 10
312.7876899999999
 20
167.292116
 30
0.0
 40
0.5
100
AcDbArc
 50
280.0
 51
0.0
  0
LINE
  5
C84D
330
C63C
100
AcDbEntity
  8
1
  6
Continuous
100
AcDbLine
 10
313.78769
 20
175.872532
 30
0.0
 11
313.2876899999998
 21
175.872532
 31
0.0
  0
LINE
  5
C84E
330
C63C
100
AcDbEntity
  8
1
  6
Continuous
100
AcDbLine
 10
313.2876899999998
 20
169.872532
 30
0.0
 11
313.78769
 21
169.872532
 31
0.0
  0
LINE
  5
C84F
330
C63C
100
AcDbEntity
  8
1
  6
Continuous
100
AcDbLine
 10
312.8745139999999
 20
166.799713
 30
0.0
 11
312.53769
 21
166.7403209999999
 31
0.0
  0
ARC
  5
C850
330
C63C
100
AcDbEntity
  8
1
  6
Continuous
100
AcDbCircle
 10
312.7876899999999
 20
178.453017
 30
0.0
 40
0.5
100
AcDbArc
 50
0.0
 51
80.0
  0
LINE
  5
C851
330
C63C
100
AcDbEntity
  8
1
  6
Continuous
100
AcDbLine
 10
312.8745139999999
 20
178.945421
 30
0.0
 11
312.53769
 21
179.0048119999999
 31
0.0
  0
LINE
  5
C852
330
C63C
100
AcDbEntity
  8
1
  6
Continuous
100
AcDbLine
 10
289.7876899999999
 20
178.453017
 30
0.0
 11
289.7876899999999
 21
167.292116
 31
0.0
  0
ARC
  5
C853
330
C63C
100
AcDbEntity
  8
1
  6
Continuous
100
AcDbCircle
 10
290.2876899999998
 20
167.292116
 30
0.0
 40
0.5
100
AcDbArc
 50
180.0
 51
260.0
  0
LINE
  5
C854
330
C63C
100
AcDbEntity
  8
1
  6
Continuous
100
AcDbLine
 10
290.200866
 20
166.799713
 30
0.0
 11
290.5376899999998
 21
166.7403209999999
 31
0.0
  0
LINE
  5
C855
330
C63C
100
AcDbEntity
  8
1
  6
Continuous
100
AcDbLine
 10
289.287686
 20
175.872532
 30
0.0
 11
289.7876899999999
 21
175.872532
 31
0.0
  0
LINE
  5
C856
330
C63C
100
AcDbEntity
  8
1
  6
Continuous
100
AcDbLine
 10
289.7876899999999
 20
169.872532
 30
0.0
 11
289.287686
 21
169.872532
 31
0.0
  0
ARC
  5
C857
330
C63C
100
AcDbEntity
  8
1
  6
Continuous
100
AcDbCircle
 10
290.2876899999998
 20
178.453017
 30
0.0
 40
0.5
100
AcDbArc
 50
100.0
 51
180.0
  0
LINE
  5
C858
330
C63C
100
AcDbEntity
  8
1
  6
Continuous
100
AcDbLine
 10
290.200866
 20
178.945421
 30
0.0
 11
290.5376899999998
 21
179.0048119999999
 31
0.0
  0
LINE
  5
C859
330
C63C
100
AcDbEntity
  8
1
  6
Continuous
100
AcDbLine
 10
290.5376899999998
 20
160.372567
 30
0.0
 11
290.5376899999998
 21
195.458392
 31
0.0
  0
LINE
  5
C85A
330
C63C
100
AcDbEntity
  8
1
  6
Continuous
100
AcDbLine
 10
312.53769
 20
160.372567
 30
0.0
 11
312.53769
 21
195.458392
 31
0.0
  0
ARC
  5
C85B
330
C63C
100
AcDbEntity
  8
1
  6
Continuous
100
AcDbCircle
 10
310.5376899999999
 20
195.458392
 30
0.0
 40
2.0
100
AcDbArc
 50
0.0
 51
59.99775099999999
  0
ARC
  5
C85C
330
C63C
100
AcDbEntity
  8
1
  6
Continuous
100
AcDbCircle
 10
292.5376899999998
 20
195.458392
 30
0.0
 40
2.0
100
AcDbArc
 50
119.997751
 51
180.0
  0
ENDSEC
  0
SECTION
  2
OBJECTS
  0
DICTIONARY
  5
C62A
330
0
100
AcDbDictionary
281
     1
  3
ACAD_CIP_PREVIOUS_PRODUCT_INFO
350
C8BE
  3
ACAD_COLOR
350
C8A0
  3
ACAD_DETAILVIEWSTYLE
350
C8B9
  3
ACAD_GROUP
350
C62B
  3
ACAD_LAYOUT
350
C637
  3
ACAD_MATERIAL
350
C86E
  3
ACAD_MLEADERSTYLE
350
C8B5
  3
ACAD_MLINESTYLE
350
C634
  3
ACAD_PLOTSETTINGS
350
C636
  3
ACAD_PLOTSTYLENAME
350
C86C
  3
ACAD_SCALELIST
350
C8A3
  3
ACAD_SECTIONVIEWSTYLE
350
C8B7
  3
ACAD_TABLESTYLE
350
C8A1
  3
ACAD_VISUALSTYLE
350
C887
  3
ACDB_RECOMPOSE_DATA
350
C8DC
  3
AcDbVariableDictionary
350
C8CF
  3
DWGPROPS
350
C8DD
  0
DICTIONARY
  5
C8BF
330
C62E
100
AcDbDictionary
280
     1
281
     1
  3
ADSK_XREC_LAYER_RECONCILED
360
C8C0
  0
DICTIONARY
  5
C8C1
330
C644
100
AcDbDictionary
280
     1
281
     1
  3
ADSK_XREC_LAYER_RECONCILED
360
C8C2
  0
DICTIONARY
  5
C8C3
330
C645
100
AcDbDictionary
280
     1
281
     1
  3
ADSK_XREC_LAYER_RECONCILED
360
C8C4
  0
DICTIONARY
  5
C8C5
330
C646
100
AcDbDictionary
280
     1
281
     1
  3
ADSK_XREC_LAYER_RECONCILED
360
C8C6
  0
DICTIONARY
  5
C8C7
330
C647
100
AcDbDictionary
280
     1
281
     1
  3
ADSK_XREC_LAYER_RECONCILED
360
C8C8
  0
DICTIONARY
  5
C8C9
330
C648
100
AcDbDictionary
280
     1
281
     1
  3
ADSK_XREC_LAYER_RECONCILED
360
C8CA
  0
DICTIONARY
  5
C8CB
330
C649
100
AcDbDictionary
280
     1
281
     1
  3
ADSK_XREC_LAYER_RECONCILED
360
C8CC
  0
DICTIONARY
  5
C8CD
330
C64A
100
AcDbDictionary
280
     1
281
     1
  3
ADSK_XREC_LAYER_RECONCILED
360
C8CE
  0
DICTIONARY
  5
C867
330
C63C
100
AcDbDictionary
281
     1
  3
ACAD_LAYOUTSELFREF
350
C868
  0
DICTIONARY
  5
C865
330
C638
100
AcDbDictionary
281
     1
  3
ACAD_LAYOUTSELFREF
350
C866
  0
XRECORD
  5
C8BE
102
{ACAD_REACTORS
330
C62A
102
}
330
C62A
100
AcDbXrecord
280
     1
300
ACDLT
300
2014
300
ACDLT_F_S
  0
DICTIONARY
  5
C8A0
102
{ACAD_REACTORS
330
C62A
102
}
330
C62A
100
AcDbDictionary
281
     1
  0
DICTIONARY
  5
C8B9
102
{ACAD_REACTORS
330
C62A
102
}
330
C62A
100
AcDbDictionary
281
     1
  3
Imperial24
350
C8BA
  0
DICTIONARY
  5
C62B
102
{ACAD_REACTORS
330
C62A
102
}
330
C62A
100
AcDbDictionary
281
     1
  0
DICTIONARY
  5
C637
102
{ACAD_REACTORS
330
C62A
102
}
330
C62A
100
AcDbDictionary
281
     1
  3
Model
350
C8BB
  3
レイアウト1
350
C8BC
  0
DICTIONARY
  5
C86E
102
{ACAD_REACTORS
330
C62A
102
}
330
C62A
100
AcDbDictionary
281
     1
  3
ByBlock
350
C877
  3
ByLayer
350
C86F
  3
Global
350
C87F
  0
DICTIONARY
  5
C8B5
102
{ACAD_REACTORS
330
C62A
102
}
330
C62A
100
AcDbDictionary
281
     1
  3
Standard
350
C8B6
  0
DICTIONARY
  5
C634
102
{ACAD_REACTORS
330
C62A
102
}
330
C62A
100
AcDbDictionary
281
     1
  3
STANDARD
350
C635
  0
DICTIONARY
  5
C636
102
{ACAD_REACTORS
330
C62A
102
}
330
C62A
100
AcDbDictionary
281
     1
  0
ACDBDICTIONARYWDFLT
  5
C86C
102
{ACAD_REACTORS
330
C62A
102
}
330
C62A
100
AcDbDictionary
281
     1
  3
Normal
350
C86D
100
AcDbDictionaryWithDefault
340
C86D
  0
DICTIONARY
  5
C8A3
102
{ACAD_REACTORS
330
C62A
102
}
330
C62A
100
AcDbDictionary
281
     1
  3
A0
350
C8A4
  3
A1
350
C8A5
  3
A2
350
C8A6
  3
A3
350
C8A7
  3
A4
350
C8A8
  3
A5
350
C8A9
  3
A6
350
C8AA
  3
A7
350
C8AB
  3
A8
350
C8AC
  3
A9
350
C8AD
  3
B0
350
C8AE
  3
B1
350
C8AF
  3
B2
350
C8B0
  3
B3
350
C8B1
  3
B4
350
C8B2
  3
B5
350
C8B3
  3
B6
350
C8B4
  0
DICTIONARY
  5
C8B7
102
{ACAD_REACTORS
330
C62A
102
}
330
C62A
100
AcDbDictionary
281
     1
  3
Imperial24
350
C8B8
  0
DICTIONARY
  5
C8A1
102
{ACAD_REACTORS
330
C62A
102
}
330
C62A
100
AcDbDictionary
281
     1
  3
Standard
350
C8A2
  0
DICTIONARY
  5
C887
102
{ACAD_REACTORS
330
C62A
102
}
330
C62A
100
AcDbDictionary
281
     1
  3
2dWireframe
350
C88D
  3
Basic
350
C88C
  3
Brighten
350
C893
  3
ColorChange
350
C897
  3
Conceptual
350
C890
  3
Dim
350
C892
  3
EdgeColorOff
350
C89F
  3
Facepattern
350
C896
  3
Flat
350
C888
  3
FlatWithEdges
350
C889
  3
Gouraud
350
C88A
  3
GouraudWithEdges
350
C88B
  3
Hidden
350
C88F
  3
JitterOff
350
C89D
  3
Linepattern
350
C895
  3
OverhangOff
350
C89E
  3
Realistic
350
C891
  3
Shaded
350
C89C
  3
Shaded with edges
350
C89B
  3
Shades of Gray
350
C898
  3
Sketchy
350
C899
  3
Thicken
350
C894
  3
Wireframe
350
C88E
  3
X-Ray
350
C89A
  0
XRECORD
  5
C8DC
102
{ACAD_REACTORS
330
C62A
102
}
330
C62A
100
AcDbXrecord
280
     1
 90
        1
330
C8A2
  0
DICTIONARY
  5
C8CF
102
{ACAD_REACTORS
330
C62A
102
}
330
C62A
100
AcDbDictionary
281
     1
  3
CANNOSCALE
350
C8D4
  3
CMLEADERSTYLE
350
C8D1
  3
CTABLESTYLE
350
C8D0
  3
CVIEWDETAILSTYLE
350
C8D2
  3
CVIEWSECTIONSTYLE
350
C8D3
  3
DIMASSOC
350
C8D7
  3
INDEXCTL
350
C8D6
  3
SORTENTS
350
C8D5
  3
XCLIPFRAME
350
C8D8
  0
XRECORD
  5
C8DD
102
{ACAD_REACTORS
330
C62A
102
}
330
C62A
100
AcDbXrecord
280
     1
  1
DWGPROPS COOKIE
  2

  3

  4

  6

  7

  8
Yoshitsune
  9

300
=
301
=
302
=
303
=
304
=
305
=
306
=
307
=
308
=
309
=
 40
0.0000096759259259
 41
2451301.601855556
 42
2457192.688269919
  1

 90
        0
  0
XRECORD
  5
C8C0
102
{ACAD_REACTORS
330
C8BF
102
}
330
C8BF
100
AcDbXrecord
280
     1
290
     1
  0
XRECORD
  5
C8C2
102
{ACAD_REACTORS
330
C8C1
102
}
330
C8C1
100
AcDbXrecord
280
     1
290
     1
  0
XRECORD
  5
C8C4
102
{ACAD_REACTORS
330
C8C3
102
}
330
C8C3
100
AcDbXrecord
280
     1
290
     1
  0
XRECORD
  5
C8C6
102
{ACAD_REACTORS
330
C8C5
102
}
330
C8C5
100
AcDbXrecord
280
     1
290
     1
  0
XRECORD
  5
C8C8
102
{ACAD_REACTORS
330
C8C7
102
}
330
C8C7
100
AcDbXrecord
280
     1
290
     1
  0
XRECORD
  5
C8CA
102
{ACAD_REACTORS
330
C8C9
102
}
330
C8C9
100
AcDbXrecord
280
     1
290
     1
  0
XRECORD
  5
C8CC
102
{ACAD_REACTORS
330
C8CB
102
}
330
C8CB
100
AcDbXrecord
280
     1
290
     1
  0
XRECORD
  5
C8CE
102
{ACAD_REACTORS
330
C8CD
102
}
330
C8CD
100
AcDbXrecord
280
     1
290
     1
  0
XRECORD
  5
C868
102
{ACAD_REACTORS
330
C867
102
}
330
C867
100
AcDbXrecord
280
     1
340
C63C
  0
XRECORD
  5
C866
102
{ACAD_REACTORS
330
C865
102
}
330
C865
100
AcDbXrecord
280
     1
340
C638
  0
ACDBDETAILVIEWSTYLE
  5
C8BA
102
{ACAD_XDICTIONARY
360
C915
102
}
102
{ACAD_REACTORS
330
C8B9
102
}
330
C8B9
100
AcDbModelDocViewStyle
 70
     0
  3
Imperial24
290
     0
100
AcDbDetailViewStyle
 70
     0
 71
     0
 90
        3
 71
     1
340
C62F
 40
0.24
340
0
 40
0.24
300

 40
0.36
280
     3
 71
     2
340
C633
 90
       25
 71
     3
340
C62F
 40
0.24
 90
        1
 40
0.75
 90
        1
300
%<\AcVar ViewType \f "%tc1">% %<\AcVar ViewDetailId>%\PSCALE %<\AcVar ViewScale \f "%sn">%
 71
     4
340
C633
 90
       25
340
C633
 90
       25
280
     0
  0
LAYOUT
  5
C8BB
102
{ACAD_XDICTIONARY
360
C917
102
}
102
{ACAD_REACTORS
330
C637
102
}
330
C637
100
AcDbPlotSettings
  1

  2
Canon LBP9100C
  4

  6

 40
0.0
 41
0.0
 42
0.0
 43
0.0
 44
0.0
 45
0.0
 46
0.0
 47
0.0
 48
0.0
 49
0.0
140
0.0
141
0.0
142
1.0
143
1.0
 70
  1712
 72
     0
 73
     0
 74
     0
  7

 75
     0
147
1.0
148
0.0
149
0.0
100
AcDbLayout
  1
Model
 70
     1
 71
     0
 10
0.0
 20
0.0
 11
12.0
 21
9.0
 12
0.0
 22
0.0
 32
0.0
 14
0.0
 24
0.0
 34
0.0
 15
0.0
 25
0.0
 35
0.0
146
0.0
 13
0.0
 23
0.0
 33
0.0
 16
1.0
 26
0.0
 36
0.0
 17
0.0
 27
1.0
 37
0.0
 76
     0
330
C63C
331
C864
  0
LAYOUT
  5
C8BC
102
{ACAD_XDICTIONARY
360
C919
102
}
102
{ACAD_REACTORS
330
C637
102
}
330
C637
100
AcDbPlotSettings
  1

  2
Canon LBP9100C
  4

  6

 40
0.0
 41
0.0
 42
0.0
 43
0.0
 44
0.0
 45
0.0
 46
0.0
 47
0.0
 48
0.0
 49
0.0
140
0.0
141
0.0
142
1.0
143
1.0
 70
   688
 72
     0
 73
     0
 74
     5
  7

 75
    16
147
1.0
148
0.0
149
0.0
100
AcDbLayout
  1
レイアウト1
 70
     0
 71
     1
 10
0.0
 20
0.0
 11
420.0
 21
297.0
 12
0.0
 22
0.0
 32
0.0
 14
1.000000000000000E+20
 24
1.000000000000000E+20
 34
1.000000000000000E+20
 15
-1.000000000000000E+20
 25
-1.000000000000000E+20
 35
-1.000000000000000E+20
146
0.0
 13
0.0
 23
0.0
 33
0.0
 16
1.0
 26
0.0
 36
0.0
 17
0.0
 27
1.0
 37
0.0
 76
     0
330
C638
  0
MATERIAL
  5
C877
102
{ACAD_XDICTIONARY
360
C878
102
}
102
{ACAD_REACTORS
330
C86E
102
}
330
C86E
100
AcDbMaterial
  1
ByBlock
 72
     0
 43
0.0208333333333333
 43
0.0
 43
0.0
 43
0.0
 43
0.0
 43
0.0208333333333333
 43
0.0
 43
0.0
 43
0.0
 43
0.0
 43
1.0
 43
0.0
 43
0.0
 43
0.0
 43
0.0
 43
1.0
 77
     0
 47
0.0208333333333333
 47
0.0
 47
0.0
 47
0.0
 47
0.0
 47
0.0208333333333333
 47
0.0
 47
0.0
 47
0.0
 47
0.0
 47
1.0
 47
0.0
 47
0.0
 47
0.0
 47
0.0
 47
1.0
171
     0
 49
0.0208333333333333
 49
0.0
 49
0.0
 49
0.0
 49
0.0
 49
0.0208333333333333
 49
0.0
 49
0.0
 49
0.0
 49
0.0
 49
1.0
 49
0.0
 49
0.0
 49
0.0
 49
0.0
 49
1.0
175
     0
142
0.0208333333333333
142
0.0
142
0.0
142
0.0
142
0.0
142
0.0208333333333333
142
0.0
142
0.0
142
0.0
142
0.0
142
1.0
142
0.0
142
0.0
142
0.0
142
0.0
142
1.0
179
     0
144
0.0208333333333333
144
0.0
144
0.0
144
0.0
144
0.0
144
0.0208333333333333
144
0.0
144
0.0
144
0.0
144
0.0
144
1.0
144
0.0
144
0.0
144
0.0
144
0.0
144
1.0
147
0.0208333333333333
147
0.0
147
0.0
147
0.0
147
0.0
147
0.0208333333333333
147
0.0
147
0.0
147
0.0
147
0.0
147
1.0
147
0.0
147
0.0
147
0.0
147
0.0
147
1.0
  0
MATERIAL
  5
C86F
102
{ACAD_XDICTIONARY
360
C870
102
}
102
{ACAD_REACTORS
330
C86E
102
}
330
C86E
100
AcDbMaterial
  1
ByLayer
 72
     0
 43
0.0208333333333333
 43
0.0
 43
0.0
 43
0.0
 43
0.0
 43
0.0208333333333333
 43
0.0
 43
0.0
 43
0.0
 43
0.0
 43
1.0
 43
0.0
 43
0.0
 43
0.0
 43
0.0
 43
1.0
 77
     0
 47
0.0208333333333333
 47
0.0
 47
0.0
 47
0.0
 47
0.0
 47
0.0208333333333333
 47
0.0
 47
0.0
 47
0.0
 47
0.0
 47
1.0
 47
0.0
 47
0.0
 47
0.0
 47
0.0
 47
1.0
171
     0
 49
0.0208333333333333
 49
0.0
 49
0.0
 49
0.0
 49
0.0
 49
0.0208333333333333
 49
0.0
 49
0.0
 49
0.0
 49
0.0
 49
1.0
 49
0.0
 49
0.0
 49
0.0
 49
0.0
 49
1.0
175
     0
142
0.0208333333333333
142
0.0
142
0.0
142
0.0
142
0.0
142
0.0208333333333333
142
0.0
142
0.0
142
0.0
142
0.0
142
1.0
142
0.0
142
0.0
142
0.0
142
0.0
142
1.0
179
     0
144
0.0208333333333333
144
0.0
144
0.0
144
0.0
144
0.0
144
0.0208333333333333
144
0.0
144
0.0
144
0.0
144
0.0
144
1.0
144
0.0
144
0.0
144
0.0
144
0.0
144
1.0
147
0.0208333333333333
147
0.0
147
0.0
147
0.0
147
0.0
147
0.0208333333333333
147
0.0
147
0.0
147
0.0
147
0.0
147
1.0
147
0.0
147
0.0
147
0.0
147
0.0
147
1.0
  0
MATERIAL
  5
C87F
102
{ACAD_XDICTIONARY
360
C880
102
}
102
{ACAD_REACTORS
330
C86E
102
}
330
C86E
100
AcDbMaterial
  1
Global
 72
     0
 43
0.0208333333333333
 43
0.0
 43
0.0
 43
0.0
 43
0.0
 43
0.0208333333333333
 43
0.0
 43
0.0
 43
0.0
 43
0.0
 43
1.0
 43
0.0
 43
0.0
 43
0.0
 43
0.0
 43
1.0
 77
     0
 47
0.0208333333333333
 47
0.0
 47
0.0
 47
0.0
 47
0.0
 47
0.0208333333333333
 47
0.0
 47
0.0
 47
0.0
 47
0.0
 47
1.0
 47
0.0
 47
0.0
 47
0.0
 47
0.0
 47
1.0
171
     0
 49
0.0208333333333333
 49
0.0
 49
0.0
 49
0.0
 49
0.0
 49
0.0208333333333333
 49
0.0
 49
0.0
 49
0.0
 49
0.0
 49
1.0
 49
0.0
 49
0.0
 49
0.0
 49
0.0
 49
1.0
175
     0
142
0.0208333333333333
142
0.0
142
0.0
142
0.0
142
0.0
142
0.0208333333333333
142
0.0
142
0.0
142
0.0
142
0.0
142
1.0
142
0.0
142
0.0
142
0.0
142
0.0
142
1.0
179
     0
144
0.0208333333333333
144
0.0
144
0.0
144
0.0
144
0.0
144
0.0208333333333333
144
0.0
144
0.0
144
0.0
144
0.0
144
1.0
144
0.0
144
0.0
144
0.0
144
0.0
144
1.0
147
0.0208333333333333
147
0.0
147
0.0
147
0.0
147
0.0
147
0.0208333333333333
147
0.0
147
0.0
147
0.0
147
0.0
147
1.0
147
0.0
147
0.0
147
0.0
147
0.0
147
1.0
  0
MLEADERSTYLE
  5
C8B6
102
{ACAD_REACTORS
330
C8B5
102
}
330
C8B5
100
AcDbMLeaderStyle
170
     2
171
     1
172
     0
 90
        2
 40
0.0
 41
0.0
173
     1
 91
-1056964608
340
C631
 92
       -2
290
     1
 42
0.09
291
     1
 43
0.36
  3
Standard
 44
0.18
300

342
C62F
174
     1
178
     6
175
     1
176
     0
 93
-1056964608
 45
0.18
292
     0
297
     0
 46
0.18
 94
-1056964608
 47
1.0
 49
1.0
140
1.0
293
     1
141
0.0
294
     1
177
     0
142
1.0
295
     0
296
     0
143
0.125
1001
ACAD_MLEADERVER
1070
     2
  0
MLINESTYLE
  5
C635
102
{ACAD_REACTORS
330
C634
102
}
330
C634
100
AcDbMlineStyle
  2
STANDARD
 70
     0
  3

 62
   256
 51
90.0
 52
90.0
 71
     2
 49
0.5
 62
   256
  6
BYLAYER
 49
-0.5
 62
   256
  6
BYLAYER
  0
ACDBPLACEHOLDER
  5
C86D
102
{ACAD_REACTORS
330
C86C
102
}
330
C86C
  0
SCALE
  5
C8A4
102
{ACAD_REACTORS
330
C8A3
102
}
330
C8A3
100
AcDbScale
 70
     0
300
1:1
140
1.0
141
1.0
290
     1
  0
SCALE
  5
C8A5
102
{ACAD_REACTORS
330
C8A3
102
}
330
C8A3
100
AcDbScale
 70
     0
300
1/128" = 1'-0"
140
0.0078125
141
12.0
290
     0
  0
SCALE
  5
C8A6
102
{ACAD_REACTORS
330
C8A3
102
}
330
C8A3
100
AcDbScale
 70
     0
300
1/64" = 1'-0"
140
0.015625
141
12.0
290
     0
  0
SCALE
  5
C8A7
102
{ACAD_REACTORS
330
C8A3
102
}
330
C8A3
100
AcDbScale
 70
     0
300
1/32" = 1'-0"
140
0.03125
141
12.0
290
     0
  0
SCALE
  5
C8A8
102
{ACAD_REACTORS
330
C8A3
102
}
330
C8A3
100
AcDbScale
 70
     0
300
1/16" = 1'-0"
140
0.0625
141
12.0
290
     0
  0
SCALE
  5
C8A9
102
{ACAD_REACTORS
330
C8A3
102
}
330
C8A3
100
AcDbScale
 70
     0
300
3/32" = 1'-0"
140
0.09375
141
12.0
290
     0
  0
SCALE
  5
C8AA
102
{ACAD_REACTORS
330
C8A3
102
}
330
C8A3
100
AcDbScale
 70
     0
300
1/8" = 1'-0"
140
0.125
141
12.0
290
     0
  0
SCALE
  5
C8AB
102
{ACAD_REACTORS
330
C8A3
102
}
330
C8A3
100
AcDbScale
 70
     0
300
3/16" = 1'-0"
140
0.1875
141
12.0
290
     0
  0
SCALE
  5
C8AC
102
{ACAD_REACTORS
330
C8A3
102
}
330
C8A3
100
AcDbScale
 70
     0
300
1/4" = 1'-0"
140
0.25
141
12.0
290
     0
  0
SCALE
  5
C8AD
102
{ACAD_REACTORS
330
C8A3
102
}
330
C8A3
100
AcDbScale
 70
     0
300
3/8" = 1'-0"
140
0.375
141
12.0
290
     0
  0
SCALE
  5
C8AE
102
{ACAD_REACTORS
330
C8A3
102
}
330
C8A3
100
AcDbScale
 70
     0
300
1/2" = 1'-0"
140
0.5
141
12.0
290
     0
  0
SCALE
  5
C8AF
102
{ACAD_REACTORS
330
C8A3
102
}
330
C8A3
100
AcDbScale
 70
     0
300
3/4" = 1'-0"
140
0.75
141
12.0
290
     0
  0
SCALE
  5
C8B0
102
{ACAD_REACTORS
330
C8A3
102
}
330
C8A3
100
AcDbScale
 70
     0
300
1" = 1'-0"
140
1.0
141
12.0
290
     0
  0
SCALE
  5
C8B1
102
{ACAD_REACTORS
330
C8A3
102
}
330
C8A3
100
AcDbScale
 70
     0
300
1-1/2" = 1'-0"
140
1.5
141
12.0
290
     0
  0
SCALE
  5
C8B2
102
{ACAD_REACTORS
330
C8A3
102
}
330
C8A3
100
AcDbScale
 70
     0
300
3" = 1'-0"
140
3.0
141
12.0
290
     0
  0
SCALE
  5
C8B3
102
{ACAD_REACTORS
330
C8A3
102
}
330
C8A3
100
AcDbScale
 70
     0
300
6" = 1'-0"
140
6.0
141
12.0
290
     0
  0
SCALE
  5
C8B4
102
{ACAD_REACTORS
330
C8A3
102
}
330
C8A3
100
AcDbScale
 70
     0
300
1'-0" = 1'-0"
140
12.0
141
12.0
290
     0
  0
ACDBSECTIONVIEWSTYLE
  5
C8B8
102
{ACAD_XDICTIONARY
360
C913
102
}
102
{ACAD_REACTORS
330
C8B7
102
}
330
C8B7
100
AcDbModelDocViewStyle
 70
     0
  3
Imperial24
290
     0
100
AcDbSectionViewStyle
 70
     0
 71
     0
 90
       78
 71
     1
340
C62F
 40
0.24
340
0
340
0
 40
0.24
300
I, O, Q, S, X, Z
 40
0.48
 90
        3
 40
0.18
 90
        1
 71
     2
340
C633
 90
       25
340
C633
 90
       50
 40
0.24
 40
0.0
 40
0.24
 71
     3
340
C62F
 40
0.24
 90
        1
 40
0.75
 90
        1
300
%<\AcVar ViewType \f "%tc1">% %<\AcVar ViewSectionStartId>%-%<\AcVar ViewSectionEndId>%\PSCALE %<\AcVar ViewScale \f "%sn">%
 71
     4
300
ANSI31
 40
1.0
 90
        0
290
     0
290
     0
 90
        6
 40
0.0
 40
1.570796326794896
 40
0.2617993877991494
 40
1.308996938995747
 40
-0.2617993877991494
 40
1.832595714594046
  0
TABLESTYLE
  5
C8A2
102
{ACAD_XDICTIONARY
360
C8DA
102
}
102
{ACAD_REACTORS
330
C8A1
102
}
330
C8A1
100
AcDbTableStyle
  3
Standard
 70
     0
 71
     0
 40
0.06
 41
0.06
280
     0
281
     0
  7
STANDARD
140
0.18
170
     2
 62
     0
 63
     7
283
     0
274
    -2
284
     1
 64
     0
275
    -2
285
     1
 65
     0
276
    -2
286
     1
 66
     0
277
    -2
287
     1
 67
     0
278
    -2
288
     1
 68
     0
279
    -2
289
     1
 69
     0
  7
STANDARD
140
0.25
170
     5
 62
     0
 63
     7
283
     0
274
    -2
284
     1
 64
     0
275
    -2
285
     1
 65
     0
276
    -2
286
     1
 66
     0
277
    -2
287
     1
 67
     0
278
    -2
288
     1
 68
     0
279
    -2
289
     1
 69
     0
  7
STANDARD
140
0.18
170
     5
 62
     0
 63
     7
283
     0
274
    -2
284
     1
 64
     0
275
    -2
285
     1
 65
     0
276
    -2
286
     1
 66
     0
277
    -2
287
     1
 67
     0
278
    -2
288
     1
 68
     0
279
    -2
289
     1
 69
     0
  0
VISUALSTYLE
  5
C88D
102
{ACAD_XDICTIONARY
360
C8EB
102
}
102
{ACAD_REACTORS
330
C887
102
}
330
C887
100
AcDbVisualStyle
  2
2dWireframe
 70
     4
 71
     0
 72
     2
 73
     0
 90
        0
 40
-0.6
 41
-30.0
 62
     5
 63
     7
 74
     1
 91
        4
 64
     7
 65
   257
 75
     1
175
     1
 42
1.0
 92
        0
 66
   257
 43
1.0
 76
     1
 77
     6
 78
     2
 67
     7
 79
     5
170
     0
171
     0
290
     0
174
     0
 93
        1
 44
0.0
173
     0
291
     0
 45
0.0
1001
ACAD
1000
AcDbSavedByObjectVersion
1070
     0
  0
VISUALSTYLE
  5
C88C
102
{ACAD_XDICTIONARY
360
C8E9
102
}
102
{ACAD_REACTORS
330
C887
102
}
330
C887
100
AcDbVisualStyle
  2
Basic
 70
     7
 71
     1
 72
     0
 73
     1
 90
        0
 40
-0.6
 41
-30.0
 62
     5
 63
     7
 74
     0
 91
        4
 64
     7
 65
   257
 75
     1
175
     1
 42
1.0
 92
        8
 66
     7
 43
1.0
 76
     1
 77
     6
 78
     2
 67
     7
 79
     5
170
     0
171
     0
290
     0
174
     0
 93
        1
 44
0.0
173
     0
291
     1
 45
0.0
1001
ACAD
1000
AcDbSavedByObjectVersion
1070
     0
  0
VISUALSTYLE
  5
C893
102
{ACAD_XDICTIONARY
360
C8F7
102
}
102
{ACAD_REACTORS
330
C887
102
}
330
C887
100
AcDbVisualStyle
  2
Brighten
 70
    12
 71
     2
 72
     2
 73
     0
 90
        0
 40
-0.6
 41
-30.0
 62
     5
 63
     7
 74
     1
 91
        4
 64
     7
 65
   257
 75
     1
175
     1
 42
1.0
 92
        8
 66
     7
 43
1.0
 76
     1
 77
     6
 78
     2
 67
     7
 79
     5
170
     0
171
     0
290
     0
174
     0
 93
        1
 44
50.0
173
     0
291
     1
 45
0.0
1001
ACAD
1000
AcDbSavedByObjectVersion
1070
     0
  0
VISUALSTYLE
  5
C897
102
{ACAD_XDICTIONARY
360
C8FF
102
}
102
{ACAD_REACTORS
330
C887
102
}
330
C887
100
AcDbVisualStyle
  2
ColorChange
 70
    16
 71
     2
 72
     2
 73
     3
 90
        0
 40
-0.6
 41
-30.0
 62
     5
 63
     8
 74
     1
 91
        4
 64
     7
 65
   257
 75
     1
175
     1
 42
1.0
 92
        8
 66
     8
 43
1.0
 76
     1
 77
     6
 78
     2
 67
     7
 79
     5
170
     0
171
     0
290
     0
174
     0
 93
        1
 44
0.0
173
     0
291
     1
 45
0.0
1001
ACAD
1000
AcDbSavedByObjectVersion
1070
     0
  0
VISUALSTYLE
  5
C890
102
{ACAD_XDICTIONARY
360
C8F1
102
}
102
{ACAD_REACTORS
330
C887
102
}
330
C887
100
AcDbVisualStyle
  2
Conceptual
 70
     9
 71
     3
 72
     2
 73
     0
 90
        0
 40
-0.6
 41
-30.0
 62
     5
 63
     7
 74
     2
 91
        2
 64
     7
 65
   257
 75
     1
175
     1
 42
179.0
 92
        8
 66
     7
 43
1.0
 76
     1
 77
     6
 78
     2
 67
     7
 79
     3
170
     0
171
     0
290
     0
174
     0
 93
        1
 44
0.0
173
     0
291
     0
 45
0.0
1001
ACAD
1000
AcDbSavedByObjectVersion
1070
     0
  0
VISUALSTYLE
  5
C892
102
{ACAD_XDICTIONARY
360
C8F5
102
}
102
{ACAD_REACTORS
330
C887
102
}
330
C887
100
AcDbVisualStyle
  2
Dim
 70
    11
 71
     2
 72
     2
 73
     0
 90
        0
 40
-0.6
 41
-30.0
 62
     5
 63
     7
 74
     1
 91
        4
 64
     7
 65
   257
 75
     1
175
     1
 42
1.0
 92
        8
 66
     7
 43
1.0
 76
     1
 77
     6
 78
     2
 67
     7
 79
     5
170
     0
171
     0
290
     0
174
     0
 93
        1
 44
-50.0
173
     0
291
     1
 45
0.0
1001
ACAD
1000
AcDbSavedByObjectVersion
1070
     0
  0
VISUALSTYLE
  5
C89F
102
{ACAD_XDICTIONARY
360
C90F
102
}
102
{ACAD_REACTORS
330
C887
102
}
330
C887
100
AcDbVisualStyle
  2
EdgeColorOff
 70
    22
 71
     2
 72
     2
 73
     0
 90
        0
 40
-0.6
 41
-30.0
 62
     5
 63
     7
 74
     1
 91
        4
 64
     7
 65
   257
 75
     1
175
     1
 42
1.0
 92
        8
 66
     7
 43
1.0
 76
     1
 77
     6
 78
     2
 67
     7
 79
     5
170
     0
171
     0
290
     0
174
     0
 93
        1
 44
0.0
173
     0
291
     1
 45
0.0
1001
ACAD
1000
AcDbSavedByObjectVersion
1070
     0
  0
VISUALSTYLE
  5
C896
102
{ACAD_XDICTIONARY
360
C8FD
102
}
102
{ACAD_REACTORS
330
C887
102
}
330
C887
100
AcDbVisualStyle
  2
Facepattern
 70
    15
 71
     2
 72
     2
 73
     0
 90
        0
 40
-0.6
 41
-30.0
 62
     5
 63
     7
 74
     1
 91
        4
 64
     7
 65
   257
 75
     1
175
     1
 42
1.0
 92
        8
 66
     7
 43
1.0
 76
     1
 77
     6
 78
     2
 67
     7
 79
     5
170
     0
171
     0
290
     0
174
     0
 93
        1
 44
0.0
173
     0
291
     1
 45
0.0
1001
ACAD
1000
AcDbSavedByObjectVersion
1070
     0
  0
VISUALSTYLE
  5
C888
102
{ACAD_XDICTIONARY
360
C8E1
102
}
102
{ACAD_REACTORS
330
C887
102
}
330
C887
100
AcDbVisualStyle
  2
Flat
 70
     0
 71
     2
 72
     1
 73
     1
 90
        2
 40
-0.6
 41
30.0
 62
     5
 63
     7
 74
     0
 91
        0
 64
     7
 65
   257
 75
     1
175
     1
 42
1.0
 92
        8
 66
     7
 43
1.0
 76
     1
 77
     6
 78
     2
 67
     7
 79
     5
170
     0
171
     0
290
     0
174
     0
 93
       13
 44
0.0
173
     0
291
     1
 45
0.0
1001
ACAD
1000
AcDbSavedByObjectVersion
1070
     0
  0
VISUALSTYLE
  5
C889
102
{ACAD_XDICTIONARY
360
C8E3
102
}
102
{ACAD_REACTORS
330
C887
102
}
330
C887
100
AcDbVisualStyle
  2
FlatWithEdges
 70
     1
 71
     2
 72
     1
 73
     1
 90
        2
 40
-0.6
 41
30.0
 62
     5
 63
     7
 74
     1
 91
        0
 64
     7
 65
   257
 75
     1
175
     1
 42
1.0
 92
        0
 66
   257
 43
1.0
 76
     1
 77
     6
 78
     2
 67
     7
 79
     5
170
     0
171
     0
290
     0
174
     0
 93
       13
 44
0.0
173
     0
291
     1
 45
0.0
1001
ACAD
1000
AcDbSavedByObjectVersion
1070
     0
  0
VISUALSTYLE
  5
C88A
102
{ACAD_XDICTIONARY
360
C8E5
102
}
102
{ACAD_REACTORS
330
C887
102
}
330
C887
100
AcDbVisualStyle
  2
Gouraud
 70
     2
 71
     2
 72
     2
 73
     1
 90
        2
 40
-0.6
 41
30.0
 62
     5
 63
     7
 74
     0
 91
        0
 64
     7
 65
   257
 75
     1
175
     1
 42
1.0
 92
        0
 66
     7
 43
1.0
 76
     1
 77
     6
 78
     2
 67
     7
 79
     5
170
     0
171
     0
290
     0
174
     0
 93
       13
 44
0.0
173
     0
291
     1
 45
0.0
1001
ACAD
1000
AcDbSavedByObjectVersion
1070
     0
  0
VISUALSTYLE
  5
C88B
102
{ACAD_XDICTIONARY
360
C8E7
102
}
102
{ACAD_REACTORS
330
C887
102
}
330
C887
100
AcDbVisualStyle
  2
GouraudWithEdges
 70
     3
 71
     2
 72
     2
 73
     1
 90
        2
 40
-0.6
 41
30.0
 62
     5
 63
     7
 74
     1
 91
        0
 64
     7
 65
   257
 75
     1
175
     1
 42
1.0
 92
        0
 66
   257
 43
1.0
 76
     1
 77
     6
 78
     2
 67
     7
 79
     5
170
     0
171
     0
290
     0
174
     0
 93
       13
 44
0.0
173
     0
291
     1
 45
0.0
1001
ACAD
1000
AcDbSavedByObjectVersion
1070
     0
  0
VISUALSTYLE
  5
C88F
102
{ACAD_XDICTIONARY
360
C8EF
102
}
102
{ACAD_REACTORS
330
C887
102
}
330
C887
100
AcDbVisualStyle
  2
Hidden
 70
     6
 71
     1
 72
     2
 73
     2
 90
        0
 40
-0.6
 41
-30.0
 62
     5
 63
     7
 74
     2
 91
        2
 64
     7
 65
   257
 75
     2
175
     1
 42
40.0
 92
        0
 66
   257
 43
1.0
 76
     1
 77
     6
 78
     2
 67
     7
 79
     3
170
     0
171
     0
290
     0
174
     0
 93
        1
 44
0.0
173
     0
291
     0
 45
0.0
1001
ACAD
1000
AcDbSavedByObjectVersion
1070
     0
  0
VISUALSTYLE
  5
C89D
102
{ACAD_XDICTIONARY
360
C90B
102
}
102
{ACAD_REACTORS
330
C887
102
}
330
C887
100
AcDbVisualStyle
  2
JitterOff
 70
    20
 71
     2
 72
     2
 73
     0
 90
        0
 40
-0.6
 41
-30.0
 62
     5
 63
     7
 74
     1
 91
        4
 64
     7
 65
   257
 75
     1
175
     1
 42
1.0
 92
       10
 66
     7
 43
1.0
 76
     1
 77
     6
 78
     2
 67
     7
 79
     5
170
     0
171
     0
290
     0
174
     0
 93
        1
 44
0.0
173
     0
291
     1
 45
0.0
1001
ACAD
1000
AcDbSavedByObjectVersion
1070
     0
  0
VISUALSTYLE
  5
C895
102
{ACAD_XDICTIONARY
360
C8FB
102
}
102
{ACAD_REACTORS
330
C887
102
}
330
C887
100
AcDbVisualStyle
  2
Linepattern
 70
    14
 71
     2
 72
     2
 73
     0
 90
        0
 40
-0.6
 41
-30.0
 62
     5
 63
     7
 74
     1
 91
        4
 64
     7
 65
   257
 75
     7
175
     7
 42
1.0
 92
        8
 66
     7
 43
1.0
 76
     1
 77
     6
 78
     2
 67
     7
 79
     5
170
     0
171
     0
290
     0
174
     0
 93
        1
 44
0.0
173
     0
291
     1
 45
0.0
1001
ACAD
1000
AcDbSavedByObjectVersion
1070
     0
  0
VISUALSTYLE
  5
C89E
102
{ACAD_XDICTIONARY
360
C90D
102
}
102
{ACAD_REACTORS
330
C887
102
}
330
C887
100
AcDbVisualStyle
  2
OverhangOff
 70
    21
 71
     2
 72
     2
 73
     0
 90
        0
 40
-0.6
 41
-30.0
 62
     5
 63
     7
 74
     1
 91
        4
 64
     7
 65
   257
 75
     1
175
     1
 42
1.0
 92
        9
 66
     7
 43
1.0
 76
     1
 77
     6
 78
     2
 67
     7
 79
     5
170
     0
171
     0
290
     0
174
     0
 93
        1
 44
0.0
173
     0
291
     1
 45
0.0
1001
ACAD
1000
AcDbSavedByObjectVersion
1070
     0
  0
VISUALSTYLE
  5
C891
102
{ACAD_XDICTIONARY
360
C8F3
102
}
102
{ACAD_REACTORS
330
C887
102
}
330
C887
100
AcDbVisualStyle
  2
Realistic
 70
     8
 71
     2
 72
     3
 73
     0
 90
        2
 40
-0.6
 41
30.0
 62
     5
 63
     7
 74
     0
 91
        0
 64
     7
 65
   257
 75
     1
175
     1
 42
1.0
 92
        8
 66
   257
 43
1.0
 76
     1
 77
     6
 78
     2
 67
     7
 79
     3
170
     0
171
     0
290
     0
174
     0
 93
       13
 44
0.0
173
     0
291
     0
 45
0.0
1001
ACAD
1000
AcDbSavedByObjectVersion
1070
     0
  0
VISUALSTYLE
  5
C89C
102
{ACAD_XDICTIONARY
360
C909
102
}
102
{ACAD_REACTORS
330
C887
102
}
330
C887
100
AcDbVisualStyle
  2
Shaded
 70
    27
 71
     2
 72
     2
 73
     1
 90
        2
 40
-0.6
 41
30.0
 62
     5
 63
     7
 74
     0
 91
        4
 64
     7
 65
   257
 75
     1
175
     1
 42
1.0
 92
        8
 66
   257
 43
1.0
 76
     1
 77
     6
 78
     2
 67
     8
 79
     3
170
     0
171
     0
290
     0
174
     0
 93
        5
 44
0.0
173
     0
291
     0
 45
0.0
1001
ACAD
1000
AcDbSavedByObjectVersion
1070
     0
  0
VISUALSTYLE
  5
C89B
102
{ACAD_XDICTIONARY
360
C907
102
}
102
{ACAD_REACTORS
330
C887
102
}
330
C887
100
AcDbVisualStyle
  2
Shaded with edges
 70
    26
 71
     2
 72
     2
 73
     1
 90
        2
 40
-0.6
 41
30.0
 62
     5
 63
     7
 74
     1
 91
       10
 64
     7
 65
   257
 75
     2
175
     1
 42
1.0
 92
        8
 66
   257
 43
1.0
 76
     1
 77
     6
 78
     2
 67
     7
 79
     3
170
     0
171
     0
290
     0
174
     0
 93
        5
 44
0.0
173
     0
291
     0
 45
0.0
1001
ACAD
1000
AcDbSavedByObjectVersion
1070
     0
  0
VISUALSTYLE
  5
C898
102
{ACAD_XDICTIONARY
360
C901
102
}
102
{ACAD_REACTORS
330
C887
102
}
330
C887
100
AcDbVisualStyle
  2
Shades of Gray
 70
    23
 71
     2
 72
     2
 73
     3
 90
        0
 40
-0.6
 41
-30.0
 62
     5
 63
     7
 74
     2
 91
        2
 64
     7
 65
     7
 75
     1
175
     1
 42
40.0
 92
        8
 66
     7
 43
1.0
 76
     1
 77
     6
 78
     2
 67
     7
 79
     3
170
     0
171
     0
290
     0
174
     0
 93
        1
 44
0.0
173
     0
291
     0
 45
0.0
1001
ACAD
1000
AcDbSavedByObjectVersion
1070
     0
  0
VISUALSTYLE
  5
C899
102
{ACAD_XDICTIONARY
360
C903
102
}
102
{ACAD_REACTORS
330
C887
102
}
330
C887
100
AcDbVisualStyle
  2
Sketchy
 70
    24
 71
     1
 72
     2
 73
     2
 90
        0
 40
-0.6
 41
-30.0
 62
     5
 63
     7
 74
     2
 91
        2
 64
     7
 65
     7
 75
     1
175
     1
 42
40.0
 92
       11
 66
     7
 43
1.0
 76
     1
 77
     6
 78
     2
 67
     7
 79
     6
170
     0
171
     0
290
     0
174
     0
 93
        1
 44
0.0
173
     0
291
     0
 45
0.0
1001
ACAD
1000
AcDbSavedByObjectVersion
1070
     0
  0
VISUALSTYLE
  5
C894
102
{ACAD_XDICTIONARY
360
C8F9
102
}
102
{ACAD_REACTORS
330
C887
102
}
330
C887
100
AcDbVisualStyle
  2
Thicken
 70
    13
 71
     2
 72
     2
 73
     0
 90
        0
 40
-0.6
 41
-30.0
 62
     5
 63
     7
 74
     1
 91
        4
 64
     7
 65
   257
 75
     1
175
     1
 42
1.0
 92
       12
 66
     7
 43
1.0
 76
     1
 77
     6
 78
     2
 67
     7
 79
     5
170
     0
171
     0
290
     0
174
     0
 93
        1
 44
0.0
173
     0
291
     1
 45
0.0
1001
ACAD
1000
AcDbSavedByObjectVersion
1070
     0
  0
VISUALSTYLE
  5
C88E
102
{ACAD_XDICTIONARY
360
C8ED
102
}
102
{ACAD_REACTORS
330
C887
102
}
330
C887
100
AcDbVisualStyle
  2
Wireframe
 70
     5
 71
     0
 72
     2
 73
     0
 90
        0
 40
-0.6
 41
-30.0
 62
     5
 63
     7
 74
     1
 91
        4
 64
     7
 65
   257
 75
     1
175
     1
 42
1.0
 92
        0
 66
   257
 43
1.0
 76
     1
 77
     6
 78
     2
 67
     7
 79
     3
170
     0
171
     0
290
     0
174
     0
 93
        1
 44
0.0
173
     0
291
     0
 45
0.0
1001
ACAD
1000
AcDbSavedByObjectVersion
1070
     0
  0
VISUALSTYLE
  5
C89A
102
{ACAD_XDICTIONARY
360
C905
102
}
102
{ACAD_REACTORS
330
C887
102
}
330
C887
100
AcDbVisualStyle
  2
X-Ray
 70
    25
 71
     2
 72
     2
 73
     1
 90
        1
 40
0.5
 41
-30.0
 62
     5
 63
     7
 74
     1
 91
        0
 64
     7
 65
   257
 75
     1
175
     1
 42
1.0
 92
        8
 66
     7
 43
1.0
 76
     1
 77
     6
 78
     2
 67
     7
 79
     3
170
     0
171
     0
290
     0
174
     0
 93
       13
 44
0.0
173
     0
291
     0
 45
0.0
1001
ACAD
1000
AcDbSavedByObjectVersion
1070
     0
  0
DICTIONARYVAR
  5
C8D4
102
{ACAD_REACTORS
330
C8CF
102
}
330
C8CF
100
DictionaryVariables
280
     0
  1
1:1
  0
DICTIONARYVAR
  5
C8D1
102
{ACAD_REACTORS
330
C8CF
102
}
330
C8CF
100
DictionaryVariables
280
     0
  1
STANDARD
  0
DICTIONARYVAR
  5
C8D0
102
{ACAD_REACTORS
330
C8CF
102
}
330
C8CF
100
DictionaryVariables
280
     0
  1
STANDARD
  0
DICTIONARYVAR
  5
C8D2
102
{ACAD_REACTORS
330
C8CF
102
}
330
C8CF
100
DictionaryVariables
280
     0
  1
Imperial24
  0
DICTIONARYVAR
  5
C8D3
102
{ACAD_REACTORS
330
C8CF
102
}
330
C8CF
100
DictionaryVariables
280
     0
  1
Imperial24
  0
DICTIONARYVAR
  5
C8D7
102
{ACAD_REACTORS
330
C8CF
102
}
330
C8CF
100
DictionaryVariables
280
     0
  1
1
  0
DICTIONARYVAR
  5
C8D6
102
{ACAD_REACTORS
330
C8CF
102
}
330
C8CF
100
DictionaryVariables
280
     0
  1
0
  0
DICTIONARYVAR
  5
C8D5
102
{ACAD_REACTORS
330
C8CF
102
}
330
C8CF
100
DictionaryVariables
280
     0
  1
127
  0
DICTIONARYVAR
  5
C8D8
102
{ACAD_REACTORS
330
C8CF
102
}
330
C8CF
100
DictionaryVariables
280
     0
  1
2
  0
DICTIONARY
  5
C915
330
C8BA
100
AcDbDictionary
280
     1
281
     1
  3
ACAD_XREC_ROUNDTRIP
360
C916
  0
DICTIONARY
  5
C917
330
C8BB
100
AcDbDictionary
280
     1
281
     1
  3
ACAD_XREC_ROUNDTRIP
360
C918
  0
DICTIONARY
  5
C919
330
C8BC
100
AcDbDictionary
280
     1
281
     1
  3
ACAD_XREC_ROUNDTRIP
360
C91A
  0
DICTIONARY
  5
C878
330
C877
100
AcDbDictionary
280
     1
281
     1
  3
ACAD_XREC_ROUNDTRIP
360
C8DF
  3
BUMPTILE
360
C87A
  3
DIFFUSETILE
360
C879
  3
OPACITYTILE
360
C87D
  3
REFLECTIONTILE
360
C87C
  3
REFRACTIONTILE
360
C87E
  3
SPECULARTILE
360
C87B
  0
DICTIONARY
  5
C870
330
C86F
100
AcDbDictionary
280
     1
281
     1
  3
ACAD_XREC_ROUNDTRIP
360
C8DE
  3
BUMPTILE
360
C872
  3
DIFFUSETILE
360
C871
  3
OPACITYTILE
360
C875
  3
REFLECTIONTILE
360
C874
  3
REFRACTIONTILE
360
C876
  3
SPECULARTILE
360
C873
  0
DICTIONARY
  5
C880
330
C87F
100
AcDbDictionary
280
     1
281
     1
  3
ACAD_XREC_ROUNDTRIP
360
C8E0
  3
BUMPTILE
360
C882
  3
DIFFUSETILE
360
C881
  3
OPACITYTILE
360
C885
  3
REFLECTIONTILE
360
C884
  3
REFRACTIONTILE
360
C886
  3
SPECULARTILE
360
C883
  0
DICTIONARY
  5
C913
330
C8B8
100
AcDbDictionary
280
     1
281
     1
  3
ACAD_XREC_ROUNDTRIP
360
C914
  0
DICTIONARY
  5
C8DA
330
C8A2
100
AcDbDictionary
280
     1
281
     1
  3
ACAD_ROUNDTRIP_2008_TABLESTYLE_CELLSTYLEMAP
360
C8DB
  3
ACAD_XREC_ROUNDTRIP
360
C911
  0
DICTIONARY
  5
C8EB
330
C88D
100
AcDbDictionary
280
     1
281
     1
  3
ACAD_XREC_ROUNDTRIP
360
C8EC
  0
DICTIONARY
  5
C8E9
330
C88C
100
AcDbDictionary
280
     1
281
     1
  3
ACAD_XREC_ROUNDTRIP
360
C8EA
  0
DICTIONARY
  5
C8F7
330
C893
100
AcDbDictionary
280
     1
281
     1
  3
ACAD_XREC_ROUNDTRIP
360
C8F8
  0
DICTIONARY
  5
C8FF
330
C897
100
AcDbDictionary
280
     1
281
     1
  3
ACAD_XREC_ROUNDTRIP
360
C900
  0
DICTIONARY
  5
C8F1
330
C890
100
AcDbDictionary
280
     1
281
     1
  3
ACAD_XREC_ROUNDTRIP
360
C8F2
  0
DICTIONARY
  5
C8F5
330
C892
100
AcDbDictionary
280
     1
281
     1
  3
ACAD_XREC_ROUNDTRIP
360
C8F6
  0
DICTIONARY
  5
C90F
330
C89F
100
AcDbDictionary
280
     1
281
     1
  3
ACAD_XREC_ROUNDTRIP
360
C910
  0
DICTIONARY
  5
C8FD
330
C896
100
AcDbDictionary
280
     1
281
     1
  3
ACAD_XREC_ROUNDTRIP
360
C8FE
  0
DICTIONARY
  5
C8E1
330
C888
100
AcDbDictionary
280
     1
281
     1
  3
ACAD_XREC_ROUNDTRIP
360
C8E2
  0
DICTIONARY
  5
C8E3
330
C889
100
AcDbDictionary
280
     1
281
     1
  3
ACAD_XREC_ROUNDTRIP
360
C8E4
  0
DICTIONARY
  5
C8E5
330
C88A
100
AcDbDictionary
280
     1
281
     1
  3
ACAD_XREC_ROUNDTRIP
360
C8E6
  0
DICTIONARY
  5
C8E7
330
C88B
100
AcDbDictionary
280
     1
281
     1
  3
ACAD_XREC_ROUNDTRIP
360
C8E8
  0
DICTIONARY
  5
C8EF
330
C88F
100
AcDbDictionary
280
     1
281
     1
  3
ACAD_XREC_ROUNDTRIP
360
C8F0
  0
DICTIONARY
  5
C90B
330
C89D
100
AcDbDictionary
280
     1
281
     1
  3
ACAD_XREC_ROUNDTRIP
360
C90C
  0
DICTIONARY
  5
C8FB
330
C895
100
AcDbDictionary
280
     1
281
     1
  3
ACAD_XREC_ROUNDTRIP
360
C8FC
  0
DICTIONARY
  5
C90D
330
C89E
100
AcDbDictionary
280
     1
281
     1
  3
ACAD_XREC_ROUNDTRIP
360
C90E
  0
DICTIONARY
  5
C8F3
330
C891
100
AcDbDictionary
280
     1
281
     1
  3
ACAD_XREC_ROUNDTRIP
360
C8F4
  0
DICTIONARY
  5
C909
330
C89C
100
AcDbDictionary
280
     1
281
     1
  3
ACAD_XREC_ROUNDTRIP
360
C90A
  0
DICTIONARY
  5
C907
330
C89B
100
AcDbDictionary
280
     1
281
     1
  3
ACAD_XREC_ROUNDTRIP
360
C908
  0
DICTIONARY
  5
C901
330
C898
100
AcDbDictionary
280
     1
281
     1
  3
ACAD_XREC_ROUNDTRIP
360
C902
  0
DICTIONARY
  5
C903
330
C899
100
AcDbDictionary
280
     1
281
     1
  3
ACAD_XREC_ROUNDTRIP
360
C904
  0
DICTIONARY
  5
C8F9
330
C894
100
AcDbDictionary
280
     1
281
     1
  3
ACAD_XREC_ROUNDTRIP
360
C8FA
  0
DICTIONARY
  5
C8ED
330
C88E
100
AcDbDictionary
280
     1
281
     1
  3
ACAD_XREC_ROUNDTRIP
360
C8EE
  0
DICTIONARY
  5
C905
330
C89A
100
AcDbDictionary
280
     1
281
     1
  3
ACAD_XREC_ROUNDTRIP
360
C906
  0
XRECORD
  5
C916
102
{ACAD_REACTORS
330
C915
102
}
330
C915
100
AcDbXrecord
280
     1
102
DISPLAYNAME
  1
Imperial24
102
FLAGS
 90
        0
  0
XRECORD
  5
C918
102
{ACAD_REACTORS
330
C917
102
}
330
C917
100
AcDbXrecord
280
     1
102
SHADEPLOT
 70
     0
102
SHADEPLOTRESLEVEL
 70
     2
102
SHADEPLOTCUSTOMDPI
 70
   300
  0
XRECORD
  5
C91A
102
{ACAD_REACTORS
330
C919
102
}
330
C919
100
AcDbXrecord
280
     1
102
SHADEPLOT
 70
     0
102
SHADEPLOTRESLEVEL
 70
     2
102
SHADEPLOTCUSTOMDPI
 70
   300
  0
XRECORD
  5
C8DF
102
{ACAD_REACTORS
330
C878
102
}
330
C878
100
AcDbXrecord
280
     1
102
MATERIAL
148
0.0
149
0.0
149
0.0
 93
        0
 94
      127
282
     0
 72
     0
 77
     0
171
     0
175
     0
179
     0
273
     0
  0
XRECORD
  5
C87A
102
{ACAD_REACTORS
330
C878
102
}
330
C878
100
AcDbXrecord
280
     1
270
     1
271
     1
  0
XRECORD
  5
C879
102
{ACAD_REACTORS
330
C878
102
}
330
C878
100
AcDbXrecord
280
     1
270
     1
271
     1
  0
XRECORD
  5
C87D
102
{ACAD_REACTORS
330
C878
102
}
330
C878
100
AcDbXrecord
280
     1
270
     1
271
     1
  0
XRECORD
  5
C87C
102
{ACAD_REACTORS
330
C878
102
}
330
C878
100
AcDbXrecord
280
     1
270
     1
271
     1
  0
XRECORD
  5
C87E
102
{ACAD_REACTORS
330
C878
102
}
330
C878
100
AcDbXrecord
280
     1
270
     1
271
     1
  0
XRECORD
  5
C87B
102
{ACAD_REACTORS
330
C878
102
}
330
C878
100
AcDbXrecord
280
     1
270
     1
271
     1
  0
XRECORD
  5
C8DE
102
{ACAD_REACTORS
330
C870
102
}
330
C870
100
AcDbXrecord
280
     1
102
MATERIAL
148
0.0
149
0.0
149
0.0
 93
        0
 94
      127
282
     0
 72
     0
 77
     0
171
     0
175
     0
179
     0
273
     0
  0
XRECORD
  5
C872
102
{ACAD_REACTORS
330
C870
102
}
330
C870
100
AcDbXrecord
280
     1
270
     1
271
     1
  0
XRECORD
  5
C871
102
{ACAD_REACTORS
330
C870
102
}
330
C870
100
AcDbXrecord
280
     1
270
     1
271
     1
  0
XRECORD
  5
C875
102
{ACAD_REACTORS
330
C870
102
}
330
C870
100
AcDbXrecord
280
     1
270
     1
271
     1
  0
XRECORD
  5
C874
102
{ACAD_REACTORS
330
C870
102
}
330
C870
100
AcDbXrecord
280
     1
270
     1
271
     1
  0
XRECORD
  5
C876
102
{ACAD_REACTORS
330
C870
102
}
330
C870
100
AcDbXrecord
280
     1
270
     1
271
     1
  0
XRECORD
  5
C873
102
{ACAD_REACTORS
330
C870
102
}
330
C870
100
AcDbXrecord
280
     1
270
     1
271
     1
  0
XRECORD
  5
C8E0
102
{ACAD_REACTORS
330
C880
102
}
330
C880
100
AcDbXrecord
280
     1
102
MATERIAL
148
0.0
149
0.0
149
0.0
 93
        0
 94
      127
282
     0
 72
     0
 77
     0
171
     0
175
     0
179
     0
273
     0
  0
XRECORD
  5
C882
102
{ACAD_REACTORS
330
C880
102
}
330
C880
100
AcDbXrecord
280
     1
270
     1
271
     1
  0
XRECORD
  5
C881
102
{ACAD_REACTORS
330
C880
102
}
330
C880
100
AcDbXrecord
280
     1
270
     1
271
     1
  0
XRECORD
  5
C885
102
{ACAD_REACTORS
330
C880
102
}
330
C880
100
AcDbXrecord
280
     1
270
     1
271
     1
  0
XRECORD
  5
C884
102
{ACAD_REACTORS
330
C880
102
}
330
C880
100
AcDbXrecord
280
     1
270
     1
271
     1
  0
XRECORD
  5
C886
102
{ACAD_REACTORS
330
C880
102
}
330
C880
100
AcDbXrecord
280
     1
270
     1
271
     1
  0
XRECORD
  5
C883
102
{ACAD_REACTORS
330
C880
102
}
330
C880
100
AcDbXrecord
280
     1
270
     1
271
     1
  0
XRECORD
  5
C914
102
{ACAD_REACTORS
330
C913
102
}
330
C913
100
AcDbXrecord
280
     1
102
DISPLAYNAME
  1
Imperial24
102
FLAGS
 90
        0
  0
CELLSTYLEMAP
  5
C8DB
102
{ACAD_REACTORS
330
C8DA
102
}
330
C8DA
100
AcDbCellStyleMap
 90
        3
300
CELLSTYLE
  1
TABLEFORMAT_BEGIN
 90
        5
170
     1
 91
        0
 92
    32768
 62
   257
 93
        1
300
CONTENTFORMAT
  1
CONTENTFORMAT_BEGIN
 90
        0
 91
        0
 92
      512
 93
        0
300

 40
0.0
140
1.0
 94
        5
 62
     0
340
C62F
144
0.25
309
CONTENTFORMAT_END
171
     0
 94
        0
309
TABLEFORMAT_END
  1
CELLSTYLE_BEGIN
 90
        1
 91
        1
300
_TITLE
309
CELLSTYLE_END
300
CELLSTYLE
  1
TABLEFORMAT_BEGIN
 90
        5
170
     1
 91
        0
 92
        0
 62
   257
 93
        1
300
CONTENTFORMAT
  1
CONTENTFORMAT_BEGIN
 90
        0
 91
        0
 92
      512
 93
        0
300

 40
0.0
140
1.0
 94
        5
 62
     0
340
C62F
144
0.18
309
CONTENTFORMAT_END
171
     0
 94
        0
309
TABLEFORMAT_END
  1
CELLSTYLE_BEGIN
 90
        2
 91
        1
300
_HEADER
309
CELLSTYLE_END
300
CELLSTYLE
  1
TABLEFORMAT_BEGIN
 90
        5
170
     1
 91
        0
 92
        0
 62
   257
 93
        1
300
CONTENTFORMAT
  1
CONTENTFORMAT_BEGIN
 90
        0
 91
        0
 92
      512
 93
        0
300

 40
0.0
140
1.0
 94
        2
 62
     0
340
C62F
144
0.18
309
CONTENTFORMAT_END
171
     0
 94
        0
309
TABLEFORMAT_END
  1
CELLSTYLE_BEGIN
 90
        3
 91
        2
300
_DATA
309
CELLSTYLE_END
  0
XRECORD
  5
C911
102
{ACAD_REACTORS
330
C8DA
102
}
330
C8DA
100
AcDbXrecord
280
     1
102
ACAD_ROUNDTRIP_PRE2007_TABLESTYLE
 90
      512
 91
        0
  1

 92
      512
 93
        0
  2

 94
      512
 95
        0
  3

  0
XRECORD
  5
C8EC
102
{ACAD_REACTORS
330
C8EB
102
}
330
C8EB
100
AcDbXrecord
280
     1
102
RTVSPost2010Prop28
280
     1
102
RTVSPost2010PropOp28
 70
     1
102
RTVSPost2010Prop29
280
     1
102
RTVSPost2010PropOp29
 70
     1
102
RTVSPost2010Prop30
280
     0
102
RTVSPost2010PropOp30
 70
     1
102
RTVSPost2010Prop31
280
     0
102
RTVSPost2010PropOp31
 70
     1
102
RTVSPost2010Prop32
280
     0
102
RTVSPost2010PropOp32
 70
     1
102
RTVSPost2010Prop33
280
     0
102
RTVSPost2010PropOp33
 70
     1
102
RTVSPost2010Prop34
280
     0
102
RTVSPost2010PropOp34
 70
     1
102
RTVSPost2010Prop35
280
     0
102
RTVSPost2010PropOp35
 70
     1
102
RTVSPost2010Prop36
280
     0
102
RTVSPost2010PropOp36
 70
     1
102
RTVSPost2010Prop37
 90
       50
102
RTVSPost2010PropOp37
 70
     1
102
RTVSPost2010Prop38
140
0.0
102
RTVSPost2010PropOp38
 70
     1
102
RTVSPost2010Prop39
140
1.0
102
RTVSPost2010PropOp39
 70
     1
102
RTVSPost2010Prop40
 90
        0
102
RTVSPost2010PropOp40
 70
     1
102
RTVSPost2010Prop41ColorIndex
 90
       18
102
RTVSPost2010Prop41ColorRGB
 90
        0
102
RTVSPost2010PropOp41
 70
     1
102
RTVSPost2010Prop42
 90
       50
102
RTVSPost2010PropOp42
 70
     1
102
RTVSPost2010Prop43
 90
        3
102
RTVSPost2010PropOp43
 70
     1
102
RTVSPost2010Prop44ColorIndex
 90
        5
102
RTVSPost2010Prop44ColorRGB
 90
      255
102
RTVSPost2010PropOp44
 70
     1
102
RTVSPost2010Prop45
280
     0
102
RTVSPost2010PropOp45
 70
     1
102
RTVSPost2010Prop46
 90
       50
102
RTVSPost2010PropOp46
 70
     1
102
RTVSPost2010Prop47
 90
       50
102
RTVSPost2010PropOp47
 70
     1
102
RTVSPost2010Prop48
 90
       50
102
RTVSPost2010PropOp48
 70
     1
102
RTVSPost2010Prop49
280
     0
102
RTVSPost2010PropOp49
 70
     1
102
RTVSPost2010Prop50
 90
       50
102
RTVSPost2010PropOp50
 70
     1
102
RTVSPost2010Prop51ColorIndex
 90
      256
102
RTVSPost2010Prop51ColorRGB
 90
-16777216
102
RTVSPost2010PropOp51
 70
     0
102
RTVSPost2010Prop52
140
1.0
102
RTVSPost2010PropOp52
 70
     0
102
RTVSPost2010Prop53
 90
        2
102
RTVSPost2010PropOp53
 70
     1
102
RTVSPost2010Prop54
  1
strokes_ogs.tif
102
RTVSPost2010PropOp54
 70
     1
102
RTVSPost2010Prop55
280
     0
102
RTVSPost2010PropOp55
 70
     1
102
RTVSPost2010Prop56
140
1.0
102
RTVSPost2010PropOp56
 70
     1
102
RTVSPost2010Prop57
140
1.0
102
RTVSPost2010PropOp57
 70
     1
102
RTVSPropertyOp0
 70
     1
102
RTVSPropertyOp1
 70
     1
102
RTVSPropertyOp2
 70
     1
102
RTVSPropertyOp3
 70
     1
102
RTVSPropertyOp4
 70
     1
102
RTVSPropertyOp5
 70
     1
102
RTVSPropertyOp6
 70
     1
102
RTVSPropertyOp7
 70
     1
102
RTVSPropertyOp8
 70
     1
102
RTVSPropertyOp9
 70
     1
102
RTVSPropertyOp10
 70
     1
102
RTVSPropertyOp11
 70
     1
102
RTVSPropertyOp12
 70
     1
102
RTVSPropertyOp13
 70
     1
102
RTVSPropertyOp14
 70
     1
102
RTVSPropertyOp15
 70
     1
102
RTVSPropertyOp16
 70
     1
102
RTVSPropertyOp17
 70
     1
102
RTVSPropertyOp18
 70
     1
102
RTVSPropertyOp19
 70
     1
102
RTVSPropertyOp20
 70
     1
102
RTVSPropertyOp21
 70
     1
102
RTVSPropertyOp22
 70
     1
102
RTVSPropertyOp23
 70
     1
102
RTVSPropertyOp24
 70
     1
102
RTVSPropertyOp25
 70
     1
102
RTVSPropertyOp26
 70
     1
102
RTVSPropertyOp27
 70
     1
102
RTVSPropertyOp28
 70
     1
102
RTVSPropertyOp29
 70
     1
102
RTVSPropertyOp30
 70
     1
102
RTVSPropertyOp31
 70
     1
102
RTVSPropertyOp32
 70
     1
102
RTVSPropertyOp33
 70
     1
102
RTVSPropertyOp34
 70
     1
102
RTVSPropertyOp35
 70
     1
102
RTVSPropertyOp36
 70
     1
102
RTVSPropertyOp37
 70
     1
102
RTVSPropertyOp38
 70
     1
102
RTVSPropertyOp39
 70
     1
102
RTVSPropertyOp40
 70
     1
102
RTVSPropertyOp41
 70
     1
102
RTVSPropertyOp42
 70
     1
102
RTVSPropertyOp43
 70
     1
102
RTVSPropertyOp44
 70
     1
102
RTVSPropertyOp45
 70
     1
102
RTVSPropertyOp46
 70
     1
102
RTVSPropertyOp47
 70
     1
102
RTVSPropertyOp48
 70
     1
102
RTVSPropertyOp49
 70
     1
102
RTVSPropertyOp50
 70
     1
102
RTVSPropertyOp51
 70
     0
102
RTVSPropertyOp52
 70
     0
102
RTVSPropertyOp53
 70
     1
102
RTVSPropertyOp54
 70
     1
102
RTVSPropertyOp55
 70
     1
102
RTVSPropertyOp56
 70
     1
102
RTVSPropertyOp57
 70
     1
102
RTVSPropertyOp58
 70
     1
102
RTVSPropertyOp59
 70
     1
102
RTVSPropertyOp60
 70
     1
102
RTVSPropertyOp61
 70
     1
102
RTVSPropertyOp62
 70
     1
  0
XRECORD
  5
C8EA
102
{ACAD_REACTORS
330
C8E9
102
}
330
C8E9
100
AcDbXrecord
280
     1
102
RTVSPost2010Prop28
280
     0
102
RTVSPost2010PropOp28
 70
     1
102
RTVSPost2010Prop29
280
     1
102
RTVSPost2010PropOp29
 70
     1
102
RTVSPost2010Prop30
280
     1
102
RTVSPost2010PropOp30
 70
     1
102
RTVSPost2010Prop31
280
     0
102
RTVSPost2010PropOp31
 70
     1
102
RTVSPost2010Prop32
280
     0
102
RTVSPost2010PropOp32
 70
     1
102
RTVSPost2010Prop33
280
     0
102
RTVSPost2010PropOp33
 70
     1
102
RTVSPost2010Prop34
280
     0
102
RTVSPost2010PropOp34
 70
     1
102
RTVSPost2010Prop35
280
     0
102
RTVSPost2010PropOp35
 70
     1
102
RTVSPost2010Prop36
280
     0
102
RTVSPost2010PropOp36
 70
     1
102
RTVSPost2010Prop37
 90
       50
102
RTVSPost2010PropOp37
 70
     1
102
RTVSPost2010Prop38
140
0.0
102
RTVSPost2010PropOp38
 70
     1
102
RTVSPost2010Prop39
140
1.0
102
RTVSPost2010PropOp39
 70
     1
102
RTVSPost2010Prop40
 90
        0
102
RTVSPost2010PropOp40
 70
     1
102
RTVSPost2010Prop41ColorIndex
 90
       18
102
RTVSPost2010Prop41ColorRGB
 90
        0
102
RTVSPost2010PropOp41
 70
     1
102
RTVSPost2010Prop42
 90
       50
102
RTVSPost2010PropOp42
 70
     1
102
RTVSPost2010Prop43
 90
        3
102
RTVSPost2010PropOp43
 70
     1
102
RTVSPost2010Prop44ColorIndex
 90
        5
102
RTVSPost2010Prop44ColorRGB
 90
      255
102
RTVSPost2010PropOp44
 70
     1
102
RTVSPost2010Prop45
280
     0
102
RTVSPost2010PropOp45
 70
     1
102
RTVSPost2010Prop46
 90
       50
102
RTVSPost2010PropOp46
 70
     1
102
RTVSPost2010Prop47
 90
       50
102
RTVSPost2010PropOp47
 70
     1
102
RTVSPost2010Prop48
 90
       50
102
RTVSPost2010PropOp48
 70
     1
102
RTVSPost2010Prop49
280
     0
102
RTVSPost2010PropOp49
 70
     1
102
RTVSPost2010Prop50
 90
       50
102
RTVSPost2010PropOp50
 70
     1
102
RTVSPost2010Prop51ColorIndex
 90
      256
102
RTVSPost2010Prop51ColorRGB
 90
-16777216
102
RTVSPost2010PropOp51
 70
     0
102
RTVSPost2010Prop52
140
1.0
102
RTVSPost2010PropOp52
 70
     0
102
RTVSPost2010Prop53
 90
        2
102
RTVSPost2010PropOp53
 70
     1
102
RTVSPost2010Prop54
  1
strokes_ogs.tif
102
RTVSPost2010PropOp54
 70
     1
102
RTVSPost2010Prop55
280
     0
102
RTVSPost2010PropOp55
 70
     1
102
RTVSPost2010Prop56
140
1.0
102
RTVSPost2010PropOp56
 70
     1
102
RTVSPost2010Prop57
140
1.0
102
RTVSPost2010PropOp57
 70
     1
102
RTVSPropertyOp0
 70
     1
102
RTVSPropertyOp1
 70
     1
102
RTVSPropertyOp2
 70
     1
102
RTVSPropertyOp3
 70
     1
102
RTVSPropertyOp4
 70
     1
102
RTVSPropertyOp5
 70
     1
102
RTVSPropertyOp6
 70
     1
102
RTVSPropertyOp7
 70
     1
102
RTVSPropertyOp8
 70
     1
102
RTVSPropertyOp9
 70
     1
102
RTVSPropertyOp10
 70
     1
102
RTVSPropertyOp11
 70
     1
102
RTVSPropertyOp12
 70
     1
102
RTVSPropertyOp13
 70
     1
102
RTVSPropertyOp14
 70
     1
102
RTVSPropertyOp15
 70
     1
102
RTVSPropertyOp16
 70
     1
102
RTVSPropertyOp17
 70
     1
102
RTVSPropertyOp18
 70
     1
102
RTVSPropertyOp19
 70
     1
102
RTVSPropertyOp20
 70
     1
102
RTVSPropertyOp21
 70
     1
102
RTVSPropertyOp22
 70
     1
102
RTVSPropertyOp23
 70
     1
102
RTVSPropertyOp24
 70
     1
102
RTVSPropertyOp25
 70
     1
102
RTVSPropertyOp26
 70
     1
102
RTVSPropertyOp27
 70
     1
102
RTVSPropertyOp28
 70
     1
102
RTVSPropertyOp29
 70
     1
102
RTVSPropertyOp30
 70
     1
102
RTVSPropertyOp31
 70
     1
102
RTVSPropertyOp32
 70
     1
102
RTVSPropertyOp33
 70
     1
102
RTVSPropertyOp34
 70
     1
102
RTVSPropertyOp35
 70
     1
102
RTVSPropertyOp36
 70
     1
102
RTVSPropertyOp37
 70
     1
102
RTVSPropertyOp38
 70
     1
102
RTVSPropertyOp39
 70
     1
102
RTVSPropertyOp40
 70
     1
102
RTVSPropertyOp41
 70
     1
102
RTVSPropertyOp42
 70
     1
102
RTVSPropertyOp43
 70
     1
102
RTVSPropertyOp44
 70
     1
102
RTVSPropertyOp45
 70
     1
102
RTVSPropertyOp46
 70
     1
102
RTVSPropertyOp47
 70
     1
102
RTVSPropertyOp48
 70
     1
102
RTVSPropertyOp49
 70
     1
102
RTVSPropertyOp50
 70
     1
102
RTVSPropertyOp51
 70
     0
102
RTVSPropertyOp52
 70
     0
102
RTVSPropertyOp53
 70
     1
102
RTVSPropertyOp54
 70
     1
102
RTVSPropertyOp55
 70
     1
102
RTVSPropertyOp56
 70
     1
102
RTVSPropertyOp57
 70
     1
102
RTVSPropertyOp58
 70
     1
102
RTVSPropertyOp59
 70
     1
102
RTVSPropertyOp60
 70
     1
102
RTVSPropertyOp61
 70
     1
102
RTVSPropertyOp62
 70
     1
  0
XRECORD
  5
C8F8
102
{ACAD_REACTORS
330
C8F7
102
}
330
C8F7
100
AcDbXrecord
280
     1
102
RTVSPost2010Prop28
280
     0
102
RTVSPost2010PropOp28
 70
     1
102
RTVSPost2010Prop29
280
     1
102
RTVSPost2010PropOp29
 70
     1
102
RTVSPost2010Prop30
280
     1
102
RTVSPost2010PropOp30
 70
     1
102
RTVSPost2010Prop31
280
     0
102
RTVSPost2010PropOp31
 70
     1
102
RTVSPost2010Prop32
280
     0
102
RTVSPost2010PropOp32
 70
     1
102
RTVSPost2010Prop33
280
     0
102
RTVSPost2010PropOp33
 70
     1
102
RTVSPost2010Prop34
280
     0
102
RTVSPost2010PropOp34
 70
     1
102
RTVSPost2010Prop35
280
     0
102
RTVSPost2010PropOp35
 70
     1
102
RTVSPost2010Prop36
280
     0
102
RTVSPost2010PropOp36
 70
     1
102
RTVSPost2010Prop37
 90
       50
102
RTVSPost2010PropOp37
 70
     1
102
RTVSPost2010Prop38
140
0.0
102
RTVSPost2010PropOp38
 70
     1
102
RTVSPost2010Prop39
140
1.0
102
RTVSPost2010PropOp39
 70
     1
102
RTVSPost2010Prop40
 90
        0
102
RTVSPost2010PropOp40
 70
     1
102
RTVSPost2010Prop41ColorIndex
 90
       18
102
RTVSPost2010Prop41ColorRGB
 90
        0
102
RTVSPost2010PropOp41
 70
     1
102
RTVSPost2010Prop42
 90
       50
102
RTVSPost2010PropOp42
 70
     1
102
RTVSPost2010Prop43
 90
        3
102
RTVSPost2010PropOp43
 70
     1
102
RTVSPost2010Prop44ColorIndex
 90
        5
102
RTVSPost2010Prop44ColorRGB
 90
      255
102
RTVSPost2010PropOp44
 70
     1
102
RTVSPost2010Prop45
280
     0
102
RTVSPost2010PropOp45
 70
     1
102
RTVSPost2010Prop46
 90
       50
102
RTVSPost2010PropOp46
 70
     1
102
RTVSPost2010Prop47
 90
       50
102
RTVSPost2010PropOp47
 70
     1
102
RTVSPost2010Prop48
 90
       50
102
RTVSPost2010PropOp48
 70
     1
102
RTVSPost2010Prop49
280
     0
102
RTVSPost2010PropOp49
 70
     1
102
RTVSPost2010Prop50
 90
       50
102
RTVSPost2010PropOp50
 70
     1
102
RTVSPost2010Prop51ColorIndex
 90
      256
102
RTVSPost2010Prop51ColorRGB
 90
-16777216
102
RTVSPost2010PropOp51
 70
     0
102
RTVSPost2010Prop52
140
1.0
102
RTVSPost2010PropOp52
 70
     0
102
RTVSPost2010Prop53
 90
        2
102
RTVSPost2010PropOp53
 70
     1
102
RTVSPost2010Prop54
  1
strokes_ogs.tif
102
RTVSPost2010PropOp54
 70
     1
102
RTVSPost2010Prop55
280
     0
102
RTVSPost2010PropOp55
 70
     1
102
RTVSPost2010Prop56
140
1.0
102
RTVSPost2010PropOp56
 70
     1
102
RTVSPost2010Prop57
140
1.0
102
RTVSPost2010PropOp57
 70
     1
102
RTVSPropertyOp0
 70
     1
102
RTVSPropertyOp1
 70
     1
102
RTVSPropertyOp2
 70
     1
102
RTVSPropertyOp3
 70
     1
102
RTVSPropertyOp4
 70
     1
102
RTVSPropertyOp5
 70
     1
102
RTVSPropertyOp6
 70
     1
102
RTVSPropertyOp7
 70
     1
102
RTVSPropertyOp8
 70
     1
102
RTVSPropertyOp9
 70
     1
102
RTVSPropertyOp10
 70
     1
102
RTVSPropertyOp11
 70
     1
102
RTVSPropertyOp12
 70
     1
102
RTVSPropertyOp13
 70
     1
102
RTVSPropertyOp14
 70
     1
102
RTVSPropertyOp15
 70
     1
102
RTVSPropertyOp16
 70
     1
102
RTVSPropertyOp17
 70
     1
102
RTVSPropertyOp18
 70
     1
102
RTVSPropertyOp19
 70
     1
102
RTVSPropertyOp20
 70
     1
102
RTVSPropertyOp21
 70
     1
102
RTVSPropertyOp22
 70
     1
102
RTVSPropertyOp23
 70
     1
102
RTVSPropertyOp24
 70
     1
102
RTVSPropertyOp25
 70
     1
102
RTVSPropertyOp26
 70
     1
102
RTVSPropertyOp27
 70
     1
102
RTVSPropertyOp28
 70
     1
102
RTVSPropertyOp29
 70
     1
102
RTVSPropertyOp30
 70
     1
102
RTVSPropertyOp31
 70
     1
102
RTVSPropertyOp32
 70
     1
102
RTVSPropertyOp33
 70
     1
102
RTVSPropertyOp34
 70
     1
102
RTVSPropertyOp35
 70
     1
102
RTVSPropertyOp36
 70
     1
102
RTVSPropertyOp37
 70
     1
102
RTVSPropertyOp38
 70
     1
102
RTVSPropertyOp39
 70
     1
102
RTVSPropertyOp40
 70
     1
102
RTVSPropertyOp41
 70
     1
102
RTVSPropertyOp42
 70
     1
102
RTVSPropertyOp43
 70
     1
102
RTVSPropertyOp44
 70
     1
102
RTVSPropertyOp45
 70
     1
102
RTVSPropertyOp46
 70
     1
102
RTVSPropertyOp47
 70
     1
102
RTVSPropertyOp48
 70
     1
102
RTVSPropertyOp49
 70
     1
102
RTVSPropertyOp50
 70
     1
102
RTVSPropertyOp51
 70
     0
102
RTVSPropertyOp52
 70
     0
102
RTVSPropertyOp53
 70
     1
102
RTVSPropertyOp54
 70
     1
102
RTVSPropertyOp55
 70
     1
102
RTVSPropertyOp56
 70
     1
102
RTVSPropertyOp57
 70
     1
102
RTVSPropertyOp58
 70
     1
102
RTVSPropertyOp59
 70
     1
102
RTVSPropertyOp60
 70
     1
102
RTVSPropertyOp61
 70
     1
102
RTVSPropertyOp62
 70
     1
  0
XRECORD
  5
C900
102
{ACAD_REACTORS
330
C8FF
102
}
330
C8FF
100
AcDbXrecord
280
     1
102
RTVSPost2010Prop28
280
     0
102
RTVSPost2010PropOp28
 70
     1
102
RTVSPost2010Prop29
280
     1
102
RTVSPost2010PropOp29
 70
     1
102
RTVSPost2010Prop30
280
     1
102
RTVSPost2010PropOp30
 70
     1
102
RTVSPost2010Prop31
280
     0
102
RTVSPost2010PropOp31
 70
     1
102
RTVSPost2010Prop32
280
     0
102
RTVSPost2010PropOp32
 70
     1
102
RTVSPost2010Prop33
280
     0
102
RTVSPost2010PropOp33
 70
     1
102
RTVSPost2010Prop34
280
     0
102
RTVSPost2010PropOp34
 70
     1
102
RTVSPost2010Prop35
280
     0
102
RTVSPost2010PropOp35
 70
     1
102
RTVSPost2010Prop36
280
     0
102
RTVSPost2010PropOp36
 70
     1
102
RTVSPost2010Prop37
 90
       50
102
RTVSPost2010PropOp37
 70
     1
102
RTVSPost2010Prop38
140
0.0
102
RTVSPost2010PropOp38
 70
     1
102
RTVSPost2010Prop39
140
1.0
102
RTVSPost2010PropOp39
 70
     1
102
RTVSPost2010Prop40
 90
        0
102
RTVSPost2010PropOp40
 70
     1
102
RTVSPost2010Prop41ColorIndex
 90
       18
102
RTVSPost2010Prop41ColorRGB
 90
        0
102
RTVSPost2010PropOp41
 70
     1
102
RTVSPost2010Prop42
 90
       50
102
RTVSPost2010PropOp42
 70
     1
102
RTVSPost2010Prop43
 90
        3
102
RTVSPost2010PropOp43
 70
     1
102
RTVSPost2010Prop44ColorIndex
 90
        5
102
RTVSPost2010Prop44ColorRGB
 90
      255
102
RTVSPost2010PropOp44
 70
     1
102
RTVSPost2010Prop45
280
     0
102
RTVSPost2010PropOp45
 70
     1
102
RTVSPost2010Prop46
 90
       50
102
RTVSPost2010PropOp46
 70
     1
102
RTVSPost2010Prop47
 90
       50
102
RTVSPost2010PropOp47
 70
     1
102
RTVSPost2010Prop48
 90
       50
102
RTVSPost2010PropOp48
 70
     1
102
RTVSPost2010Prop49
280
     0
102
RTVSPost2010PropOp49
 70
     1
102
RTVSPost2010Prop50
 90
       50
102
RTVSPost2010PropOp50
 70
     1
102
RTVSPost2010Prop51ColorIndex
 90
      256
102
RTVSPost2010Prop51ColorRGB
 90
-16777216
102
RTVSPost2010PropOp51
 70
     0
102
RTVSPost2010Prop52
140
1.0
102
RTVSPost2010PropOp52
 70
     0
102
RTVSPost2010Prop53
 90
        2
102
RTVSPost2010PropOp53
 70
     1
102
RTVSPost2010Prop54
  1
strokes_ogs.tif
102
RTVSPost2010PropOp54
 70
     1
102
RTVSPost2010Prop55
280
     0
102
RTVSPost2010PropOp55
 70
     1
102
RTVSPost2010Prop56
140
1.0
102
RTVSPost2010PropOp56
 70
     1
102
RTVSPost2010Prop57
140
1.0
102
RTVSPost2010PropOp57
 70
     1
102
RTVSPropertyOp0
 70
     1
102
RTVSPropertyOp1
 70
     1
102
RTVSPropertyOp2
 70
     1
102
RTVSPropertyOp3
 70
     1
102
RTVSPropertyOp4
 70
     1
102
RTVSPropertyOp5
 70
     1
102
RTVSPropertyOp6
 70
     1
102
RTVSPropertyOp7
 70
     1
102
RTVSPropertyOp8
 70
     1
102
RTVSPropertyOp9
 70
     1
102
RTVSPropertyOp10
 70
     1
102
RTVSPropertyOp11
 70
     1
102
RTVSPropertyOp12
 70
     1
102
RTVSPropertyOp13
 70
     1
102
RTVSPropertyOp14
 70
     1
102
RTVSPropertyOp15
 70
     1
102
RTVSPropertyOp16
 70
     1
102
RTVSPropertyOp17
 70
     1
102
RTVSPropertyOp18
 70
     1
102
RTVSPropertyOp19
 70
     1
102
RTVSPropertyOp20
 70
     1
102
RTVSPropertyOp21
 70
     1
102
RTVSPropertyOp22
 70
     1
102
RTVSPropertyOp23
 70
     1
102
RTVSPropertyOp24
 70
     1
102
RTVSPropertyOp25
 70
     1
102
RTVSPropertyOp26
 70
     1
102
RTVSPropertyOp27
 70
     1
102
RTVSPropertyOp28
 70
     1
102
RTVSPropertyOp29
 70
     1
102
RTVSPropertyOp30
 70
     1
102
RTVSPropertyOp31
 70
     1
102
RTVSPropertyOp32
 70
     1
102
RTVSPropertyOp33
 70
     1
102
RTVSPropertyOp34
 70
     1
102
RTVSPropertyOp35
 70
     1
102
RTVSPropertyOp36
 70
     1
102
RTVSPropertyOp37
 70
     1
102
RTVSPropertyOp38
 70
     1
102
RTVSPropertyOp39
 70
     1
102
RTVSPropertyOp40
 70
     1
102
RTVSPropertyOp41
 70
     1
102
RTVSPropertyOp42
 70
     1
102
RTVSPropertyOp43
 70
     1
102
RTVSPropertyOp44
 70
     1
102
RTVSPropertyOp45
 70
     1
102
RTVSPropertyOp46
 70
     1
102
RTVSPropertyOp47
 70
     1
102
RTVSPropertyOp48
 70
     1
102
RTVSPropertyOp49
 70
     1
102
RTVSPropertyOp50
 70
     1
102
RTVSPropertyOp51
 70
     0
102
RTVSPropertyOp52
 70
     0
102
RTVSPropertyOp53
 70
     1
102
RTVSPropertyOp54
 70
     1
102
RTVSPropertyOp55
 70
     1
102
RTVSPropertyOp56
 70
     1
102
RTVSPropertyOp57
 70
     1
102
RTVSPropertyOp58
 70
     1
102
RTVSPropertyOp59
 70
     1
102
RTVSPropertyOp60
 70
     1
102
RTVSPropertyOp61
 70
     1
102
RTVSPropertyOp62
 70
     1
  0
XRECORD
  5
C8F2
102
{ACAD_REACTORS
330
C8F1
102
}
330
C8F1
100
AcDbXrecord
280
     1
102
RTVSPost2010Prop28
280
     0
102
RTVSPost2010PropOp28
 70
     1
102
RTVSPost2010Prop29
280
     1
102
RTVSPost2010PropOp29
 70
     1
102
RTVSPost2010Prop30
280
     1
102
RTVSPost2010PropOp30
 70
     1
102
RTVSPost2010Prop31
280
     0
102
RTVSPost2010PropOp31
 70
     1
102
RTVSPost2010Prop32
280
     0
102
RTVSPost2010PropOp32
 70
     1
102
RTVSPost2010Prop33
280
     0
102
RTVSPost2010PropOp33
 70
     1
102
RTVSPost2010Prop34
280
     0
102
RTVSPost2010PropOp34
 70
     1
102
RTVSPost2010Prop35
280
     0
102
RTVSPost2010PropOp35
 70
     1
102
RTVSPost2010Prop36
280
     0
102
RTVSPost2010PropOp36
 70
     1
102
RTVSPost2010Prop37
 90
       50
102
RTVSPost2010PropOp37
 70
     1
102
RTVSPost2010Prop38
140
0.0
102
RTVSPost2010PropOp38
 70
     1
102
RTVSPost2010Prop39
140
1.0
102
RTVSPost2010PropOp39
 70
     1
102
RTVSPost2010Prop40
 90
        0
102
RTVSPost2010PropOp40
 70
     1
102
RTVSPost2010Prop41ColorIndex
 90
       18
102
RTVSPost2010Prop41ColorRGB
 90
        0
102
RTVSPost2010PropOp41
 70
     1
102
RTVSPost2010Prop42
 90
       50
102
RTVSPost2010PropOp42
 70
     1
102
RTVSPost2010Prop43
 90
        3
102
RTVSPost2010PropOp43
 70
     1
102
RTVSPost2010Prop44ColorIndex
 90
        5
102
RTVSPost2010Prop44ColorRGB
 90
      255
102
RTVSPost2010PropOp44
 70
     1
102
RTVSPost2010Prop45
280
     0
102
RTVSPost2010PropOp45
 70
     1
102
RTVSPost2010Prop46
 90
       50
102
RTVSPost2010PropOp46
 70
     1
102
RTVSPost2010Prop47
 90
       50
102
RTVSPost2010PropOp47
 70
     1
102
RTVSPost2010Prop48
 90
       50
102
RTVSPost2010PropOp48
 70
     1
102
RTVSPost2010Prop49
280
     0
102
RTVSPost2010PropOp49
 70
     1
102
RTVSPost2010Prop50
 90
       50
102
RTVSPost2010PropOp50
 70
     1
102
RTVSPost2010Prop51ColorIndex
 90
      256
102
RTVSPost2010Prop51ColorRGB
 90
-16777216
102
RTVSPost2010PropOp51
 70
     0
102
RTVSPost2010Prop52
140
1.0
102
RTVSPost2010PropOp52
 70
     0
102
RTVSPost2010Prop53
 90
        2
102
RTVSPost2010PropOp53
 70
     1
102
RTVSPost2010Prop54
  1
strokes_ogs.tif
102
RTVSPost2010PropOp54
 70
     1
102
RTVSPost2010Prop55
280
     0
102
RTVSPost2010PropOp55
 70
     1
102
RTVSPost2010Prop56
140
1.0
102
RTVSPost2010PropOp56
 70
     1
102
RTVSPost2010Prop57
140
1.0
102
RTVSPost2010PropOp57
 70
     1
102
RTVSPropertyOp0
 70
     1
102
RTVSPropertyOp1
 70
     1
102
RTVSPropertyOp2
 70
     1
102
RTVSPropertyOp3
 70
     1
102
RTVSPropertyOp4
 70
     1
102
RTVSPropertyOp5
 70
     1
102
RTVSPropertyOp6
 70
     1
102
RTVSPropertyOp7
 70
     1
102
RTVSPropertyOp8
 70
     1
102
RTVSPropertyOp9
 70
     1
102
RTVSPropertyOp10
 70
     1
102
RTVSPropertyOp11
 70
     1
102
RTVSPropertyOp12
 70
     1
102
RTVSPropertyOp13
 70
     1
102
RTVSPropertyOp14
 70
     1
102
RTVSPropertyOp15
 70
     1
102
RTVSPropertyOp16
 70
     1
102
RTVSPropertyOp17
 70
     1
102
RTVSPropertyOp18
 70
     1
102
RTVSPropertyOp19
 70
     1
102
RTVSPropertyOp20
 70
     1
102
RTVSPropertyOp21
 70
     1
102
RTVSPropertyOp22
 70
     1
102
RTVSPropertyOp23
 70
     1
102
RTVSPropertyOp24
 70
     1
102
RTVSPropertyOp25
 70
     1
102
RTVSPropertyOp26
 70
     1
102
RTVSPropertyOp27
 70
     1
102
RTVSPropertyOp28
 70
     1
102
RTVSPropertyOp29
 70
     1
102
RTVSPropertyOp30
 70
     1
102
RTVSPropertyOp31
 70
     1
102
RTVSPropertyOp32
 70
     1
102
RTVSPropertyOp33
 70
     1
102
RTVSPropertyOp34
 70
     1
102
RTVSPropertyOp35
 70
     1
102
RTVSPropertyOp36
 70
     1
102
RTVSPropertyOp37
 70
     1
102
RTVSPropertyOp38
 70
     1
102
RTVSPropertyOp39
 70
     1
102
RTVSPropertyOp40
 70
     1
102
RTVSPropertyOp41
 70
     1
102
RTVSPropertyOp42
 70
     1
102
RTVSPropertyOp43
 70
     1
102
RTVSPropertyOp44
 70
     1
102
RTVSPropertyOp45
 70
     1
102
RTVSPropertyOp46
 70
     1
102
RTVSPropertyOp47
 70
     1
102
RTVSPropertyOp48
 70
     1
102
RTVSPropertyOp49
 70
     1
102
RTVSPropertyOp50
 70
     1
102
RTVSPropertyOp51
 70
     0
102
RTVSPropertyOp52
 70
     0
102
RTVSPropertyOp53
 70
     1
102
RTVSPropertyOp54
 70
     1
102
RTVSPropertyOp55
 70
     1
102
RTVSPropertyOp56
 70
     1
102
RTVSPropertyOp57
 70
     1
102
RTVSPropertyOp58
 70
     1
102
RTVSPropertyOp59
 70
     1
102
RTVSPropertyOp60
 70
     1
102
RTVSPropertyOp61
 70
     1
102
RTVSPropertyOp62
 70
     1
  0
XRECORD
  5
C8F6
102
{ACAD_REACTORS
330
C8F5
102
}
330
C8F5
100
AcDbXrecord
280
     1
102
RTVSPost2010Prop28
280
     0
102
RTVSPost2010PropOp28
 70
     1
102
RTVSPost2010Prop29
280
     1
102
RTVSPost2010PropOp29
 70
     1
102
RTVSPost2010Prop30
280
     1
102
RTVSPost2010PropOp30
 70
     1
102
RTVSPost2010Prop31
280
     0
102
RTVSPost2010PropOp31
 70
     1
102
RTVSPost2010Prop32
280
     0
102
RTVSPost2010PropOp32
 70
     1
102
RTVSPost2010Prop33
280
     0
102
RTVSPost2010PropOp33
 70
     1
102
RTVSPost2010Prop34
280
     0
102
RTVSPost2010PropOp34
 70
     1
102
RTVSPost2010Prop35
280
     0
102
RTVSPost2010PropOp35
 70
     1
102
RTVSPost2010Prop36
280
     0
102
RTVSPost2010PropOp36
 70
     1
102
RTVSPost2010Prop37
 90
       50
102
RTVSPost2010PropOp37
 70
     1
102
RTVSPost2010Prop38
140
0.0
102
RTVSPost2010PropOp38
 70
     1
102
RTVSPost2010Prop39
140
1.0
102
RTVSPost2010PropOp39
 70
     1
102
RTVSPost2010Prop40
 90
        0
102
RTVSPost2010PropOp40
 70
     1
102
RTVSPost2010Prop41ColorIndex
 90
       18
102
RTVSPost2010Prop41ColorRGB
 90
        0
102
RTVSPost2010PropOp41
 70
     1
102
RTVSPost2010Prop42
 90
       50
102
RTVSPost2010PropOp42
 70
     1
102
RTVSPost2010Prop43
 90
        3
102
RTVSPost2010PropOp43
 70
     1
102
RTVSPost2010Prop44ColorIndex
 90
        5
102
RTVSPost2010Prop44ColorRGB
 90
      255
102
RTVSPost2010PropOp44
 70
     1
102
RTVSPost2010Prop45
280
     0
102
RTVSPost2010PropOp45
 70
     1
102
RTVSPost2010Prop46
 90
       50
102
RTVSPost2010PropOp46
 70
     1
102
RTVSPost2010Prop47
 90
       50
102
RTVSPost2010PropOp47
 70
     1
102
RTVSPost2010Prop48
 90
       50
102
RTVSPost2010PropOp48
 70
     1
102
RTVSPost2010Prop49
280
     0
102
RTVSPost2010PropOp49
 70
     1
102
RTVSPost2010Prop50
 90
       50
102
RTVSPost2010PropOp50
 70
     1
102
RTVSPost2010Prop51ColorIndex
 90
      256
102
RTVSPost2010Prop51ColorRGB
 90
-16777216
102
RTVSPost2010PropOp51
 70
     0
102
RTVSPost2010Prop52
140
1.0
102
RTVSPost2010PropOp52
 70
     0
102
RTVSPost2010Prop53
 90
        2
102
RTVSPost2010PropOp53
 70
     1
102
RTVSPost2010Prop54
  1
strokes_ogs.tif
102
RTVSPost2010PropOp54
 70
     1
102
RTVSPost2010Prop55
280
     0
102
RTVSPost2010PropOp55
 70
     1
102
RTVSPost2010Prop56
140
1.0
102
RTVSPost2010PropOp56
 70
     1
102
RTVSPost2010Prop57
140
1.0
102
RTVSPost2010PropOp57
 70
     1
102
RTVSPropertyOp0
 70
     1
102
RTVSPropertyOp1
 70
     1
102
RTVSPropertyOp2
 70
     1
102
RTVSPropertyOp3
 70
     1
102
RTVSPropertyOp4
 70
     1
102
RTVSPropertyOp5
 70
     1
102
RTVSPropertyOp6
 70
     1
102
RTVSPropertyOp7
 70
     1
102
RTVSPropertyOp8
 70
     1
102
RTVSPropertyOp9
 70
     1
102
RTVSPropertyOp10
 70
     1
102
RTVSPropertyOp11
 70
     1
102
RTVSPropertyOp12
 70
     1
102
RTVSPropertyOp13
 70
     1
102
RTVSPropertyOp14
 70
     1
102
RTVSPropertyOp15
 70
     1
102
RTVSPropertyOp16
 70
     1
102
RTVSPropertyOp17
 70
     1
102
RTVSPropertyOp18
 70
     1
102
RTVSPropertyOp19
 70
     1
102
RTVSPropertyOp20
 70
     1
102
RTVSPropertyOp21
 70
     1
102
RTVSPropertyOp22
 70
     1
102
RTVSPropertyOp23
 70
     1
102
RTVSPropertyOp24
 70
     1
102
RTVSPropertyOp25
 70
     1
102
RTVSPropertyOp26
 70
     1
102
RTVSPropertyOp27
 70
     1
102
RTVSPropertyOp28
 70
     1
102
RTVSPropertyOp29
 70
     1
102
RTVSPropertyOp30
 70
     1
102
RTVSPropertyOp31
 70
     1
102
RTVSPropertyOp32
 70
     1
102
RTVSPropertyOp33
 70
     1
102
RTVSPropertyOp34
 70
     1
102
RTVSPropertyOp35
 70
     1
102
RTVSPropertyOp36
 70
     1
102
RTVSPropertyOp37
 70
     1
102
RTVSPropertyOp38
 70
     1
102
RTVSPropertyOp39
 70
     1
102
RTVSPropertyOp40
 70
     1
102
RTVSPropertyOp41
 70
     1
102
RTVSPropertyOp42
 70
     1
102
RTVSPropertyOp43
 70
     1
102
RTVSPropertyOp44
 70
     1
102
RTVSPropertyOp45
 70
     1
102
RTVSPropertyOp46
 70
     1
102
RTVSPropertyOp47
 70
     1
102
RTVSPropertyOp48
 70
     1
102
RTVSPropertyOp49
 70
     1
102
RTVSPropertyOp50
 70
     1
102
RTVSPropertyOp51
 70
     0
102
RTVSPropertyOp52
 70
     0
102
RTVSPropertyOp53
 70
     1
102
RTVSPropertyOp54
 70
     1
102
RTVSPropertyOp55
 70
     1
102
RTVSPropertyOp56
 70
     1
102
RTVSPropertyOp57
 70
     1
102
RTVSPropertyOp58
 70
     1
102
RTVSPropertyOp59
 70
     1
102
RTVSPropertyOp60
 70
     1
102
RTVSPropertyOp61
 70
     1
102
RTVSPropertyOp62
 70
     1
  0
XRECORD
  5
C910
102
{ACAD_REACTORS
330
C90F
102
}
330
C90F
100
AcDbXrecord
280
     1
102
RTVSPost2010Prop28
280
     0
102
RTVSPost2010PropOp28
 70
     1
102
RTVSPost2010Prop29
280
     1
102
RTVSPost2010PropOp29
 70
     1
102
RTVSPost2010Prop30
280
     1
102
RTVSPost2010PropOp30
 70
     1
102
RTVSPost2010Prop31
280
     0
102
RTVSPost2010PropOp31
 70
     1
102
RTVSPost2010Prop32
280
     0
102
RTVSPost2010PropOp32
 70
     1
102
RTVSPost2010Prop33
280
     0
102
RTVSPost2010PropOp33
 70
     1
102
RTVSPost2010Prop34
280
     0
102
RTVSPost2010PropOp34
 70
     1
102
RTVSPost2010Prop35
280
     0
102
RTVSPost2010PropOp35
 70
     1
102
RTVSPost2010Prop36
280
     0
102
RTVSPost2010PropOp36
 70
     1
102
RTVSPost2010Prop37
 90
       50
102
RTVSPost2010PropOp37
 70
     0
102
RTVSPost2010Prop38
140
0.0
102
RTVSPost2010PropOp38
 70
     0
102
RTVSPost2010Prop39
140
1.0
102
RTVSPost2010PropOp39
 70
     0
102
RTVSPost2010Prop40
 90
        0
102
RTVSPost2010PropOp40
 70
     0
102
RTVSPost2010Prop41ColorIndex
 90
       18
102
RTVSPost2010Prop41ColorRGB
 90
        0
102
RTVSPost2010PropOp41
 70
     0
102
RTVSPost2010Prop42
 90
       50
102
RTVSPost2010PropOp42
 70
     0
102
RTVSPost2010Prop43
 90
        3
102
RTVSPost2010PropOp43
 70
     0
102
RTVSPost2010Prop44ColorIndex
 90
        5
102
RTVSPost2010Prop44ColorRGB
 90
      255
102
RTVSPost2010PropOp44
 70
     0
102
RTVSPost2010Prop45
280
     0
102
RTVSPost2010PropOp45
 70
     1
102
RTVSPost2010Prop46
 90
       50
102
RTVSPost2010PropOp46
 70
     0
102
RTVSPost2010Prop47
 90
       50
102
RTVSPost2010PropOp47
 70
     0
102
RTVSPost2010Prop48
 90
       50
102
RTVSPost2010PropOp48
 70
     0
102
RTVSPost2010Prop49
280
     0
102
RTVSPost2010PropOp49
 70
     1
102
RTVSPost2010Prop50
 90
       50
102
RTVSPost2010PropOp50
 70
     0
102
RTVSPost2010Prop51ColorIndex
 90
      256
102
RTVSPost2010Prop51ColorRGB
 90
-16777216
102
RTVSPost2010PropOp51
 70
     0
102
RTVSPost2010Prop52
140
1.0
102
RTVSPost2010PropOp52
 70
     0
102
RTVSPost2010Prop53
 90
        2
102
RTVSPost2010PropOp53
 70
     0
102
RTVSPost2010Prop54
  1
strokes_ogs.tif
102
RTVSPost2010PropOp54
 70
     0
102
RTVSPost2010Prop55
280
     0
102
RTVSPost2010PropOp55
 70
     1
102
RTVSPost2010Prop56
140
1.0
102
RTVSPost2010PropOp56
 70
     0
102
RTVSPost2010Prop57
140
1.0
102
RTVSPost2010PropOp57
 70
     0
102
RTVSPropertyOp0
 70
     0
102
RTVSPropertyOp1
 70
     0
102
RTVSPropertyOp2
 70
     0
102
RTVSPropertyOp3
 70
     0
102
RTVSPropertyOp4
 70
     0
102
RTVSPropertyOp5
 70
     0
102
RTVSPropertyOp6
 70
     0
102
RTVSPropertyOp7
 70
     0
102
RTVSPropertyOp8
 70
     0
102
RTVSPropertyOp9
 70
     0
102
RTVSPropertyOp10
 70
     0
102
RTVSPropertyOp11
 70
     0
102
RTVSPropertyOp12
 70
     0
102
RTVSPropertyOp13
 70
     0
102
RTVSPropertyOp14
 70
     2
102
RTVSPropertyOp15
 70
     0
102
RTVSPropertyOp16
 70
     0
102
RTVSPropertyOp17
 70
     0
102
RTVSPropertyOp18
 70
     0
102
RTVSPropertyOp19
 70
     0
102
RTVSPropertyOp20
 70
     0
102
RTVSPropertyOp21
 70
     0
102
RTVSPropertyOp22
 70
     0
102
RTVSPropertyOp23
 70
     0
102
RTVSPropertyOp24
 70
     0
102
RTVSPropertyOp25
 70
     0
102
RTVSPropertyOp26
 70
     0
102
RTVSPropertyOp27
 70
     0
102
RTVSPropertyOp28
 70
     1
102
RTVSPropertyOp29
 70
     1
102
RTVSPropertyOp30
 70
     1
102
RTVSPropertyOp31
 70
     1
102
RTVSPropertyOp32
 70
     1
102
RTVSPropertyOp33
 70
     1
102
RTVSPropertyOp34
 70
     1
102
RTVSPropertyOp35
 70
     1
102
RTVSPropertyOp36
 70
     1
102
RTVSPropertyOp37
 70
     0
102
RTVSPropertyOp38
 70
     0
102
RTVSPropertyOp39
 70
     0
102
RTVSPropertyOp40
 70
     0
102
RTVSPropertyOp41
 70
     0
102
RTVSPropertyOp42
 70
     0
102
RTVSPropertyOp43
 70
     0
102
RTVSPropertyOp44
 70
     0
102
RTVSPropertyOp45
 70
     1
102
RTVSPropertyOp46
 70
     0
102
RTVSPropertyOp47
 70
     0
102
RTVSPropertyOp48
 70
     0
102
RTVSPropertyOp49
 70
     1
102
RTVSPropertyOp50
 70
     0
102
RTVSPropertyOp51
 70
     0
102
RTVSPropertyOp52
 70
     0
102
RTVSPropertyOp53
 70
     0
102
RTVSPropertyOp54
 70
     0
102
RTVSPropertyOp55
 70
     1
102
RTVSPropertyOp56
 70
     0
102
RTVSPropertyOp57
 70
     0
102
RTVSPropertyOp58
 70
     0
102
RTVSPropertyOp59
 70
     0
102
RTVSPropertyOp60
 70
     0
102
RTVSPropertyOp61
 70
     0
102
RTVSPropertyOp62
 70
     0
  0
XRECORD
  5
C8FE
102
{ACAD_REACTORS
330
C8FD
102
}
330
C8FD
100
AcDbXrecord
280
     1
102
RTVSPost2010Prop28
280
     0
102
RTVSPost2010PropOp28
 70
     1
102
RTVSPost2010Prop29
280
     1
102
RTVSPost2010PropOp29
 70
     1
102
RTVSPost2010Prop30
280
     1
102
RTVSPost2010PropOp30
 70
     1
102
RTVSPost2010Prop31
280
     0
102
RTVSPost2010PropOp31
 70
     1
102
RTVSPost2010Prop32
280
     0
102
RTVSPost2010PropOp32
 70
     1
102
RTVSPost2010Prop33
280
     0
102
RTVSPost2010PropOp33
 70
     1
102
RTVSPost2010Prop34
280
     0
102
RTVSPost2010PropOp34
 70
     1
102
RTVSPost2010Prop35
280
     0
102
RTVSPost2010PropOp35
 70
     1
102
RTVSPost2010Prop36
280
     0
102
RTVSPost2010PropOp36
 70
     1
102
RTVSPost2010Prop37
 90
       50
102
RTVSPost2010PropOp37
 70
     1
102
RTVSPost2010Prop38
140
0.0
102
RTVSPost2010PropOp38
 70
     1
102
RTVSPost2010Prop39
140
1.0
102
RTVSPost2010PropOp39
 70
     1
102
RTVSPost2010Prop40
 90
        0
102
RTVSPost2010PropOp40
 70
     1
102
RTVSPost2010Prop41ColorIndex
 90
       18
102
RTVSPost2010Prop41ColorRGB
 90
        0
102
RTVSPost2010PropOp41
 70
     1
102
RTVSPost2010Prop42
 90
       50
102
RTVSPost2010PropOp42
 70
     1
102
RTVSPost2010Prop43
 90
        3
102
RTVSPost2010PropOp43
 70
     1
102
RTVSPost2010Prop44ColorIndex
 90
        5
102
RTVSPost2010Prop44ColorRGB
 90
      255
102
RTVSPost2010PropOp44
 70
     1
102
RTVSPost2010Prop45
280
     0
102
RTVSPost2010PropOp45
 70
     1
102
RTVSPost2010Prop46
 90
       50
102
RTVSPost2010PropOp46
 70
     1
102
RTVSPost2010Prop47
 90
       50
102
RTVSPost2010PropOp47
 70
     1
102
RTVSPost2010Prop48
 90
       50
102
RTVSPost2010PropOp48
 70
     1
102
RTVSPost2010Prop49
280
     0
102
RTVSPost2010PropOp49
 70
     1
102
RTVSPost2010Prop50
 90
       50
102
RTVSPost2010PropOp50
 70
     1
102
RTVSPost2010Prop51ColorIndex
 90
      256
102
RTVSPost2010Prop51ColorRGB
 90
-16777216
102
RTVSPost2010PropOp51
 70
     0
102
RTVSPost2010Prop52
140
1.0
102
RTVSPost2010PropOp52
 70
     0
102
RTVSPost2010Prop53
 90
        2
102
RTVSPost2010PropOp53
 70
     1
102
RTVSPost2010Prop54
  1
strokes_ogs.tif
102
RTVSPost2010PropOp54
 70
     1
102
RTVSPost2010Prop55
280
     0
102
RTVSPost2010PropOp55
 70
     1
102
RTVSPost2010Prop56
140
1.0
102
RTVSPost2010PropOp56
 70
     1
102
RTVSPost2010Prop57
140
1.0
102
RTVSPost2010PropOp57
 70
     1
102
RTVSPropertyOp0
 70
     1
102
RTVSPropertyOp1
 70
     1
102
RTVSPropertyOp2
 70
     1
102
RTVSPropertyOp3
 70
     1
102
RTVSPropertyOp4
 70
     1
102
RTVSPropertyOp5
 70
     1
102
RTVSPropertyOp6
 70
     1
102
RTVSPropertyOp7
 70
     1
102
RTVSPropertyOp8
 70
     1
102
RTVSPropertyOp9
 70
     1
102
RTVSPropertyOp10
 70
     1
102
RTVSPropertyOp11
 70
     1
102
RTVSPropertyOp12
 70
     1
102
RTVSPropertyOp13
 70
     1
102
RTVSPropertyOp14
 70
     1
102
RTVSPropertyOp15
 70
     1
102
RTVSPropertyOp16
 70
     1
102
RTVSPropertyOp17
 70
     1
102
RTVSPropertyOp18
 70
     1
102
RTVSPropertyOp19
 70
     1
102
RTVSPropertyOp20
 70
     1
102
RTVSPropertyOp21
 70
     1
102
RTVSPropertyOp22
 70
     1
102
RTVSPropertyOp23
 70
     1
102
RTVSPropertyOp24
 70
     1
102
RTVSPropertyOp25
 70
     1
102
RTVSPropertyOp26
 70
     1
102
RTVSPropertyOp27
 70
     1
102
RTVSPropertyOp28
 70
     1
102
RTVSPropertyOp29
 70
     1
102
RTVSPropertyOp30
 70
     1
102
RTVSPropertyOp31
 70
     1
102
RTVSPropertyOp32
 70
     1
102
RTVSPropertyOp33
 70
     1
102
RTVSPropertyOp34
 70
     1
102
RTVSPropertyOp35
 70
     1
102
RTVSPropertyOp36
 70
     1
102
RTVSPropertyOp37
 70
     1
102
RTVSPropertyOp38
 70
     1
102
RTVSPropertyOp39
 70
     1
102
RTVSPropertyOp40
 70
     1
102
RTVSPropertyOp41
 70
     1
102
RTVSPropertyOp42
 70
     1
102
RTVSPropertyOp43
 70
     1
102
RTVSPropertyOp44
 70
     1
102
RTVSPropertyOp45
 70
     1
102
RTVSPropertyOp46
 70
     1
102
RTVSPropertyOp47
 70
     1
102
RTVSPropertyOp48
 70
     1
102
RTVSPropertyOp49
 70
     1
102
RTVSPropertyOp50
 70
     1
102
RTVSPropertyOp51
 70
     0
102
RTVSPropertyOp52
 70
     0
102
RTVSPropertyOp53
 70
     1
102
RTVSPropertyOp54
 70
     1
102
RTVSPropertyOp55
 70
     1
102
RTVSPropertyOp56
 70
     1
102
RTVSPropertyOp57
 70
     1
102
RTVSPropertyOp58
 70
     1
102
RTVSPropertyOp59
 70
     1
102
RTVSPropertyOp60
 70
     1
102
RTVSPropertyOp61
 70
     1
102
RTVSPropertyOp62
 70
     1
  0
XRECORD
  5
C8E2
102
{ACAD_REACTORS
330
C8E1
102
}
330
C8E1
100
AcDbXrecord
280
     1
102
RTVSPost2010Prop28
280
     0
102
RTVSPost2010PropOp28
 70
     1
102
RTVSPost2010Prop29
280
     1
102
RTVSPost2010PropOp29
 70
     1
102
RTVSPost2010Prop30
280
     1
102
RTVSPost2010PropOp30
 70
     1
102
RTVSPost2010Prop31
280
     0
102
RTVSPost2010PropOp31
 70
     1
102
RTVSPost2010Prop32
280
     0
102
RTVSPost2010PropOp32
 70
     1
102
RTVSPost2010Prop33
280
     0
102
RTVSPost2010PropOp33
 70
     1
102
RTVSPost2010Prop34
280
     0
102
RTVSPost2010PropOp34
 70
     1
102
RTVSPost2010Prop35
280
     0
102
RTVSPost2010PropOp35
 70
     1
102
RTVSPost2010Prop36
280
     0
102
RTVSPost2010PropOp36
 70
     1
102
RTVSPost2010Prop37
 90
       50
102
RTVSPost2010PropOp37
 70
     1
102
RTVSPost2010Prop38
140
0.0
102
RTVSPost2010PropOp38
 70
     1
102
RTVSPost2010Prop39
140
1.0
102
RTVSPost2010PropOp39
 70
     1
102
RTVSPost2010Prop40
 90
        0
102
RTVSPost2010PropOp40
 70
     1
102
RTVSPost2010Prop41ColorIndex
 90
       18
102
RTVSPost2010Prop41ColorRGB
 90
        0
102
RTVSPost2010PropOp41
 70
     1
102
RTVSPost2010Prop42
 90
       50
102
RTVSPost2010PropOp42
 70
     1
102
RTVSPost2010Prop43
 90
        3
102
RTVSPost2010PropOp43
 70
     1
102
RTVSPost2010Prop44ColorIndex
 90
        5
102
RTVSPost2010Prop44ColorRGB
 90
      255
102
RTVSPost2010PropOp44
 70
     1
102
RTVSPost2010Prop45
280
     0
102
RTVSPost2010PropOp45
 70
     1
102
RTVSPost2010Prop46
 90
       50
102
RTVSPost2010PropOp46
 70
     1
102
RTVSPost2010Prop47
 90
       50
102
RTVSPost2010PropOp47
 70
     1
102
RTVSPost2010Prop48
 90
       50
102
RTVSPost2010PropOp48
 70
     1
102
RTVSPost2010Prop49
280
     0
102
RTVSPost2010PropOp49
 70
     1
102
RTVSPost2010Prop50
 90
       50
102
RTVSPost2010PropOp50
 70
     1
102
RTVSPost2010Prop51ColorIndex
 90
      256
102
RTVSPost2010Prop51ColorRGB
 90
-16777216
102
RTVSPost2010PropOp51
 70
     0
102
RTVSPost2010Prop52
140
1.0
102
RTVSPost2010PropOp52
 70
     0
102
RTVSPost2010Prop53
 90
        2
102
RTVSPost2010PropOp53
 70
     1
102
RTVSPost2010Prop54
  1
strokes_ogs.tif
102
RTVSPost2010PropOp54
 70
     1
102
RTVSPost2010Prop55
280
     0
102
RTVSPost2010PropOp55
 70
     1
102
RTVSPost2010Prop56
140
1.0
102
RTVSPost2010PropOp56
 70
     1
102
RTVSPost2010Prop57
140
1.0
102
RTVSPost2010PropOp57
 70
     1
102
RTVSPropertyOp0
 70
     1
102
RTVSPropertyOp1
 70
     1
102
RTVSPropertyOp2
 70
     1
102
RTVSPropertyOp3
 70
     1
102
RTVSPropertyOp4
 70
     1
102
RTVSPropertyOp5
 70
     1
102
RTVSPropertyOp6
 70
     1
102
RTVSPropertyOp7
 70
     1
102
RTVSPropertyOp8
 70
     1
102
RTVSPropertyOp9
 70
     1
102
RTVSPropertyOp10
 70
     1
102
RTVSPropertyOp11
 70
     1
102
RTVSPropertyOp12
 70
     1
102
RTVSPropertyOp13
 70
     1
102
RTVSPropertyOp14
 70
     1
102
RTVSPropertyOp15
 70
     1
102
RTVSPropertyOp16
 70
     1
102
RTVSPropertyOp17
 70
     1
102
RTVSPropertyOp18
 70
     1
102
RTVSPropertyOp19
 70
     1
102
RTVSPropertyOp20
 70
     1
102
RTVSPropertyOp21
 70
     1
102
RTVSPropertyOp22
 70
     1
102
RTVSPropertyOp23
 70
     1
102
RTVSPropertyOp24
 70
     1
102
RTVSPropertyOp25
 70
     1
102
RTVSPropertyOp26
 70
     1
102
RTVSPropertyOp27
 70
     1
102
RTVSPropertyOp28
 70
     1
102
RTVSPropertyOp29
 70
     1
102
RTVSPropertyOp30
 70
     1
102
RTVSPropertyOp31
 70
     1
102
RTVSPropertyOp32
 70
     1
102
RTVSPropertyOp33
 70
     1
102
RTVSPropertyOp34
 70
     1
102
RTVSPropertyOp35
 70
     1
102
RTVSPropertyOp36
 70
     1
102
RTVSPropertyOp37
 70
     1
102
RTVSPropertyOp38
 70
     1
102
RTVSPropertyOp39
 70
     1
102
RTVSPropertyOp40
 70
     1
102
RTVSPropertyOp41
 70
     1
102
RTVSPropertyOp42
 70
     1
102
RTVSPropertyOp43
 70
     1
102
RTVSPropertyOp44
 70
     1
102
RTVSPropertyOp45
 70
     1
102
RTVSPropertyOp46
 70
     1
102
RTVSPropertyOp47
 70
     1
102
RTVSPropertyOp48
 70
     1
102
RTVSPropertyOp49
 70
     1
102
RTVSPropertyOp50
 70
     1
102
RTVSPropertyOp51
 70
     0
102
RTVSPropertyOp52
 70
     0
102
RTVSPropertyOp53
 70
     1
102
RTVSPropertyOp54
 70
     1
102
RTVSPropertyOp55
 70
     1
102
RTVSPropertyOp56
 70
     1
102
RTVSPropertyOp57
 70
     1
102
RTVSPropertyOp58
 70
     1
102
RTVSPropertyOp59
 70
     1
102
RTVSPropertyOp60
 70
     1
102
RTVSPropertyOp61
 70
     1
102
RTVSPropertyOp62
 70
     1
  0
XRECORD
  5
C8E4
102
{ACAD_REACTORS
330
C8E3
102
}
330
C8E3
100
AcDbXrecord
280
     1
102
RTVSPost2010Prop28
280
     0
102
RTVSPost2010PropOp28
 70
     1
102
RTVSPost2010Prop29
280
     1
102
RTVSPost2010PropOp29
 70
     1
102
RTVSPost2010Prop30
280
     1
102
RTVSPost2010PropOp30
 70
     1
102
RTVSPost2010Prop31
280
     0
102
RTVSPost2010PropOp31
 70
     1
102
RTVSPost2010Prop32
280
     0
102
RTVSPost2010PropOp32
 70
     1
102
RTVSPost2010Prop33
280
     0
102
RTVSPost2010PropOp33
 70
     1
102
RTVSPost2010Prop34
280
     0
102
RTVSPost2010PropOp34
 70
     1
102
RTVSPost2010Prop35
280
     0
102
RTVSPost2010PropOp35
 70
     1
102
RTVSPost2010Prop36
280
     0
102
RTVSPost2010PropOp36
 70
     1
102
RTVSPost2010Prop37
 90
       50
102
RTVSPost2010PropOp37
 70
     1
102
RTVSPost2010Prop38
140
0.0
102
RTVSPost2010PropOp38
 70
     1
102
RTVSPost2010Prop39
140
1.0
102
RTVSPost2010PropOp39
 70
     1
102
RTVSPost2010Prop40
 90
        0
102
RTVSPost2010PropOp40
 70
     1
102
RTVSPost2010Prop41ColorIndex
 90
       18
102
RTVSPost2010Prop41ColorRGB
 90
        0
102
RTVSPost2010PropOp41
 70
     1
102
RTVSPost2010Prop42
 90
       50
102
RTVSPost2010PropOp42
 70
     1
102
RTVSPost2010Prop43
 90
        3
102
RTVSPost2010PropOp43
 70
     1
102
RTVSPost2010Prop44ColorIndex
 90
        5
102
RTVSPost2010Prop44ColorRGB
 90
      255
102
RTVSPost2010PropOp44
 70
     1
102
RTVSPost2010Prop45
280
     0
102
RTVSPost2010PropOp45
 70
     1
102
RTVSPost2010Prop46
 90
       50
102
RTVSPost2010PropOp46
 70
     1
102
RTVSPost2010Prop47
 90
       50
102
RTVSPost2010PropOp47
 70
     1
102
RTVSPost2010Prop48
 90
       50
102
RTVSPost2010PropOp48
 70
     1
102
RTVSPost2010Prop49
280
     0
102
RTVSPost2010PropOp49
 70
     1
102
RTVSPost2010Prop50
 90
       50
102
RTVSPost2010PropOp50
 70
     1
102
RTVSPost2010Prop51ColorIndex
 90
      256
102
RTVSPost2010Prop51ColorRGB
 90
-16777216
102
RTVSPost2010PropOp51
 70
     0
102
RTVSPost2010Prop52
140
1.0
102
RTVSPost2010PropOp52
 70
     0
102
RTVSPost2010Prop53
 90
        2
102
RTVSPost2010PropOp53
 70
     1
102
RTVSPost2010Prop54
  1
strokes_ogs.tif
102
RTVSPost2010PropOp54
 70
     1
102
RTVSPost2010Prop55
280
     0
102
RTVSPost2010PropOp55
 70
     1
102
RTVSPost2010Prop56
140
1.0
102
RTVSPost2010PropOp56
 70
     1
102
RTVSPost2010Prop57
140
1.0
102
RTVSPost2010PropOp57
 70
     1
102
RTVSPropertyOp0
 70
     1
102
RTVSPropertyOp1
 70
     1
102
RTVSPropertyOp2
 70
     1
102
RTVSPropertyOp3
 70
     1
102
RTVSPropertyOp4
 70
     1
102
RTVSPropertyOp5
 70
     1
102
RTVSPropertyOp6
 70
     1
102
RTVSPropertyOp7
 70
     1
102
RTVSPropertyOp8
 70
     1
102
RTVSPropertyOp9
 70
     1
102
RTVSPropertyOp10
 70
     1
102
RTVSPropertyOp11
 70
     1
102
RTVSPropertyOp12
 70
     1
102
RTVSPropertyOp13
 70
     1
102
RTVSPropertyOp14
 70
     1
102
RTVSPropertyOp15
 70
     1
102
RTVSPropertyOp16
 70
     1
102
RTVSPropertyOp17
 70
     1
102
RTVSPropertyOp18
 70
     1
102
RTVSPropertyOp19
 70
     1
102
RTVSPropertyOp20
 70
     1
102
RTVSPropertyOp21
 70
     1
102
RTVSPropertyOp22
 70
     1
102
RTVSPropertyOp23
 70
     1
102
RTVSPropertyOp24
 70
     1
102
RTVSPropertyOp25
 70
     1
102
RTVSPropertyOp26
 70
     1
102
RTVSPropertyOp27
 70
     1
102
RTVSPropertyOp28
 70
     1
102
RTVSPropertyOp29
 70
     1
102
RTVSPropertyOp30
 70
     1
102
RTVSPropertyOp31
 70
     1
102
RTVSPropertyOp32
 70
     1
102
RTVSPropertyOp33
 70
     1
102
RTVSPropertyOp34
 70
     1
102
RTVSPropertyOp35
 70
     1
102
RTVSPropertyOp36
 70
     1
102
RTVSPropertyOp37
 70
     1
102
RTVSPropertyOp38
 70
     1
102
RTVSPropertyOp39
 70
     1
102
RTVSPropertyOp40
 70
     1
102
RTVSPropertyOp41
 70
     1
102
RTVSPropertyOp42
 70
     1
102
RTVSPropertyOp43
 70
     1
102
RTVSPropertyOp44
 70
     1
102
RTVSPropertyOp45
 70
     1
102
RTVSPropertyOp46
 70
     1
102
RTVSPropertyOp47
 70
     1
102
RTVSPropertyOp48
 70
     1
102
RTVSPropertyOp49
 70
     1
102
RTVSPropertyOp50
 70
     1
102
RTVSPropertyOp51
 70
     0
102
RTVSPropertyOp52
 70
     0
102
RTVSPropertyOp53
 70
     1
102
RTVSPropertyOp54
 70
     1
102
RTVSPropertyOp55
 70
     1
102
RTVSPropertyOp56
 70
     1
102
RTVSPropertyOp57
 70
     1
102
RTVSPropertyOp58
 70
     1
102
RTVSPropertyOp59
 70
     1
102
RTVSPropertyOp60
 70
     1
102
RTVSPropertyOp61
 70
     1
102
RTVSPropertyOp62
 70
     1
  0
XRECORD
  5
C8E6
102
{ACAD_REACTORS
330
C8E5
102
}
330
C8E5
100
AcDbXrecord
280
     1
102
RTVSPost2010Prop28
280
     0
102
RTVSPost2010PropOp28
 70
     1
102
RTVSPost2010Prop29
280
     1
102
RTVSPost2010PropOp29
 70
     1
102
RTVSPost2010Prop30
280
     1
102
RTVSPost2010PropOp30
 70
     1
102
RTVSPost2010Prop31
280
     0
102
RTVSPost2010PropOp31
 70
     1
102
RTVSPost2010Prop32
280
     0
102
RTVSPost2010PropOp32
 70
     1
102
RTVSPost2010Prop33
280
     0
102
RTVSPost2010PropOp33
 70
     1
102
RTVSPost2010Prop34
280
     0
102
RTVSPost2010PropOp34
 70
     1
102
RTVSPost2010Prop35
280
     0
102
RTVSPost2010PropOp35
 70
     1
102
RTVSPost2010Prop36
280
     0
102
RTVSPost2010PropOp36
 70
     1
102
RTVSPost2010Prop37
 90
       50
102
RTVSPost2010PropOp37
 70
     1
102
RTVSPost2010Prop38
140
0.0
102
RTVSPost2010PropOp38
 70
     1
102
RTVSPost2010Prop39
140
1.0
102
RTVSPost2010PropOp39
 70
     1
102
RTVSPost2010Prop40
 90
        0
102
RTVSPost2010PropOp40
 70
     1
102
RTVSPost2010Prop41ColorIndex
 90
       18
102
RTVSPost2010Prop41ColorRGB
 90
        0
102
RTVSPost2010PropOp41
 70
     1
102
RTVSPost2010Prop42
 90
       50
102
RTVSPost2010PropOp42
 70
     1
102
RTVSPost2010Prop43
 90
        3
102
RTVSPost2010PropOp43
 70
     1
102
RTVSPost2010Prop44ColorIndex
 90
        5
102
RTVSPost2010Prop44ColorRGB
 90
      255
102
RTVSPost2010PropOp44
 70
     1
102
RTVSPost2010Prop45
280
     0
102
RTVSPost2010PropOp45
 70
     1
102
RTVSPost2010Prop46
 90
       50
102
RTVSPost2010PropOp46
 70
     1
102
RTVSPost2010Prop47
 90
       50
102
RTVSPost2010PropOp47
 70
     1
102
RTVSPost2010Prop48
 90
       50
102
RTVSPost2010PropOp48
 70
     1
102
RTVSPost2010Prop49
280
     0
102
RTVSPost2010PropOp49
 70
     1
102
RTVSPost2010Prop50
 90
       50
102
RTVSPost2010PropOp50
 70
     1
102
RTVSPost2010Prop51ColorIndex
 90
      256
102
RTVSPost2010Prop51ColorRGB
 90
-16777216
102
RTVSPost2010PropOp51
 70
     0
102
RTVSPost2010Prop52
140
1.0
102
RTVSPost2010PropOp52
 70
     0
102
RTVSPost2010Prop53
 90
        2
102
RTVSPost2010PropOp53
 70
     1
102
RTVSPost2010Prop54
  1
strokes_ogs.tif
102
RTVSPost2010PropOp54
 70
     1
102
RTVSPost2010Prop55
280
     0
102
RTVSPost2010PropOp55
 70
     1
102
RTVSPost2010Prop56
140
1.0
102
RTVSPost2010PropOp56
 70
     1
102
RTVSPost2010Prop57
140
1.0
102
RTVSPost2010PropOp57
 70
     1
102
RTVSPropertyOp0
 70
     1
102
RTVSPropertyOp1
 70
     1
102
RTVSPropertyOp2
 70
     1
102
RTVSPropertyOp3
 70
     1
102
RTVSPropertyOp4
 70
     1
102
RTVSPropertyOp5
 70
     1
102
RTVSPropertyOp6
 70
     1
102
RTVSPropertyOp7
 70
     1
102
RTVSPropertyOp8
 70
     1
102
RTVSPropertyOp9
 70
     1
102
RTVSPropertyOp10
 70
     1
102
RTVSPropertyOp11
 70
     1
102
RTVSPropertyOp12
 70
     1
102
RTVSPropertyOp13
 70
     1
102
RTVSPropertyOp14
 70
     1
102
RTVSPropertyOp15
 70
     1
102
RTVSPropertyOp16
 70
     1
102
RTVSPropertyOp17
 70
     1
102
RTVSPropertyOp18
 70
     1
102
RTVSPropertyOp19
 70
     1
102
RTVSPropertyOp20
 70
     1
102
RTVSPropertyOp21
 70
     1
102
RTVSPropertyOp22
 70
     1
102
RTVSPropertyOp23
 70
     1
102
RTVSPropertyOp24
 70
     1
102
RTVSPropertyOp25
 70
     1
102
RTVSPropertyOp26
 70
     1
102
RTVSPropertyOp27
 70
     1
102
RTVSPropertyOp28
 70
     1
102
RTVSPropertyOp29
 70
     1
102
RTVSPropertyOp30
 70
     1
102
RTVSPropertyOp31
 70
     1
102
RTVSPropertyOp32
 70
     1
102
RTVSPropertyOp33
 70
     1
102
RTVSPropertyOp34
 70
     1
102
RTVSPropertyOp35
 70
     1
102
RTVSPropertyOp36
 70
     1
102
RTVSPropertyOp37
 70
     1
102
RTVSPropertyOp38
 70
     1
102
RTVSPropertyOp39
 70
     1
102
RTVSPropertyOp40
 70
     1
102
RTVSPropertyOp41
 70
     1
102
RTVSPropertyOp42
 70
     1
102
RTVSPropertyOp43
 70
     1
102
RTVSPropertyOp44
 70
     1
102
RTVSPropertyOp45
 70
     1
102
RTVSPropertyOp46
 70
     1
102
RTVSPropertyOp47
 70
     1
102
RTVSPropertyOp48
 70
     1
102
RTVSPropertyOp49
 70
     1
102
RTVSPropertyOp50
 70
     1
102
RTVSPropertyOp51
 70
     0
102
RTVSPropertyOp52
 70
     0
102
RTVSPropertyOp53
 70
     1
102
RTVSPropertyOp54
 70
     1
102
RTVSPropertyOp55
 70
     1
102
RTVSPropertyOp56
 70
     1
102
RTVSPropertyOp57
 70
     1
102
RTVSPropertyOp58
 70
     1
102
RTVSPropertyOp59
 70
     1
102
RTVSPropertyOp60
 70
     1
102
RTVSPropertyOp61
 70
     1
102
RTVSPropertyOp62
 70
     1
  0
XRECORD
  5
C8E8
102
{ACAD_REACTORS
330
C8E7
102
}
330
C8E7
100
AcDbXrecord
280
     1
102
RTVSPost2010Prop28
280
     0
102
RTVSPost2010PropOp28
 70
     1
102
RTVSPost2010Prop29
280
     1
102
RTVSPost2010PropOp29
 70
     1
102
RTVSPost2010Prop30
280
     1
102
RTVSPost2010PropOp30
 70
     1
102
RTVSPost2010Prop31
280
     0
102
RTVSPost2010PropOp31
 70
     1
102
RTVSPost2010Prop32
280
     0
102
RTVSPost2010PropOp32
 70
     1
102
RTVSPost2010Prop33
280
     0
102
RTVSPost2010PropOp33
 70
     1
102
RTVSPost2010Prop34
280
     0
102
RTVSPost2010PropOp34
 70
     1
102
RTVSPost2010Prop35
280
     0
102
RTVSPost2010PropOp35
 70
     1
102
RTVSPost2010Prop36
280
     0
102
RTVSPost2010PropOp36
 70
     1
102
RTVSPost2010Prop37
 90
       50
102
RTVSPost2010PropOp37
 70
     1
102
RTVSPost2010Prop38
140
0.0
102
RTVSPost2010PropOp38
 70
     1
102
RTVSPost2010Prop39
140
1.0
102
RTVSPost2010PropOp39
 70
     1
102
RTVSPost2010Prop40
 90
        0
102
RTVSPost2010PropOp40
 70
     1
102
RTVSPost2010Prop41ColorIndex
 90
       18
102
RTVSPost2010Prop41ColorRGB
 90
        0
102
RTVSPost2010PropOp41
 70
     1
102
RTVSPost2010Prop42
 90
       50
102
RTVSPost2010PropOp42
 70
     1
102
RTVSPost2010Prop43
 90
        3
102
RTVSPost2010PropOp43
 70
     1
102
RTVSPost2010Prop44ColorIndex
 90
        5
102
RTVSPost2010Prop44ColorRGB
 90
      255
102
RTVSPost2010PropOp44
 70
     1
102
RTVSPost2010Prop45
280
     0
102
RTVSPost2010PropOp45
 70
     1
102
RTVSPost2010Prop46
 90
       50
102
RTVSPost2010PropOp46
 70
     1
102
RTVSPost2010Prop47
 90
       50
102
RTVSPost2010PropOp47
 70
     1
102
RTVSPost2010Prop48
 90
       50
102
RTVSPost2010PropOp48
 70
     1
102
RTVSPost2010Prop49
280
     0
102
RTVSPost2010PropOp49
 70
     1
102
RTVSPost2010Prop50
 90
       50
102
RTVSPost2010PropOp50
 70
     1
102
RTVSPost2010Prop51ColorIndex
 90
      256
102
RTVSPost2010Prop51ColorRGB
 90
-16777216
102
RTVSPost2010PropOp51
 70
     0
102
RTVSPost2010Prop52
140
1.0
102
RTVSPost2010PropOp52
 70
     0
102
RTVSPost2010Prop53
 90
        2
102
RTVSPost2010PropOp53
 70
     1
102
RTVSPost2010Prop54
  1
strokes_ogs.tif
102
RTVSPost2010PropOp54
 70
     1
102
RTVSPost2010Prop55
280
     0
102
RTVSPost2010PropOp55
 70
     1
102
RTVSPost2010Prop56
140
1.0
102
RTVSPost2010PropOp56
 70
     1
102
RTVSPost2010Prop57
140
1.0
102
RTVSPost2010PropOp57
 70
     1
102
RTVSPropertyOp0
 70
     1
102
RTVSPropertyOp1
 70
     1
102
RTVSPropertyOp2
 70
     1
102
RTVSPropertyOp3
 70
     1
102
RTVSPropertyOp4
 70
     1
102
RTVSPropertyOp5
 70
     1
102
RTVSPropertyOp6
 70
     1
102
RTVSPropertyOp7
 70
     1
102
RTVSPropertyOp8
 70
     1
102
RTVSPropertyOp9
 70
     1
102
RTVSPropertyOp10
 70
     1
102
RTVSPropertyOp11
 70
     1
102
RTVSPropertyOp12
 70
     1
102
RTVSPropertyOp13
 70
     1
102
RTVSPropertyOp14
 70
     1
102
RTVSPropertyOp15
 70
     1
102
RTVSPropertyOp16
 70
     1
102
RTVSPropertyOp17
 70
     1
102
RTVSPropertyOp18
 70
     1
102
RTVSPropertyOp19
 70
     1
102
RTVSPropertyOp20
 70
     1
102
RTVSPropertyOp21
 70
     1
102
RTVSPropertyOp22
 70
     1
102
RTVSPropertyOp23
 70
     1
102
RTVSPropertyOp24
 70
     1
102
RTVSPropertyOp25
 70
     1
102
RTVSPropertyOp26
 70
     1
102
RTVSPropertyOp27
 70
     1
102
RTVSPropertyOp28
 70
     1
102
RTVSPropertyOp29
 70
     1
102
RTVSPropertyOp30
 70
     1
102
RTVSPropertyOp31
 70
     1
102
RTVSPropertyOp32
 70
     1
102
RTVSPropertyOp33
 70
     1
102
RTVSPropertyOp34
 70
     1
102
RTVSPropertyOp35
 70
     1
102
RTVSPropertyOp36
 70
     1
102
RTVSPropertyOp37
 70
     1
102
RTVSPropertyOp38
 70
     1
102
RTVSPropertyOp39
 70
     1
102
RTVSPropertyOp40
 70
     1
102
RTVSPropertyOp41
 70
     1
102
RTVSPropertyOp42
 70
     1
102
RTVSPropertyOp43
 70
     1
102
RTVSPropertyOp44
 70
     1
102
RTVSPropertyOp45
 70
     1
102
RTVSPropertyOp46
 70
     1
102
RTVSPropertyOp47
 70
     1
102
RTVSPropertyOp48
 70
     1
102
RTVSPropertyOp49
 70
     1
102
RTVSPropertyOp50
 70
     1
102
RTVSPropertyOp51
 70
     0
102
RTVSPropertyOp52
 70
     0
102
RTVSPropertyOp53
 70
     1
102
RTVSPropertyOp54
 70
     1
102
RTVSPropertyOp55
 70
     1
102
RTVSPropertyOp56
 70
     1
102
RTVSPropertyOp57
 70
     1
102
RTVSPropertyOp58
 70
     1
102
RTVSPropertyOp59
 70
     1
102
RTVSPropertyOp60
 70
     1
102
RTVSPropertyOp61
 70
     1
102
RTVSPropertyOp62
 70
     1
  0
XRECORD
  5
C8F0
102
{ACAD_REACTORS
330
C8EF
102
}
330
C8EF
100
AcDbXrecord
280
     1
102
RTVSPost2010Prop28
280
     0
102
RTVSPost2010PropOp28
 70
     1
102
RTVSPost2010Prop29
280
     1
102
RTVSPost2010PropOp29
 70
     1
102
RTVSPost2010Prop30
280
     1
102
RTVSPost2010PropOp30
 70
     1
102
RTVSPost2010Prop31
280
     0
102
RTVSPost2010PropOp31
 70
     1
102
RTVSPost2010Prop32
280
     0
102
RTVSPost2010PropOp32
 70
     1
102
RTVSPost2010Prop33
280
     0
102
RTVSPost2010PropOp33
 70
     1
102
RTVSPost2010Prop34
280
     0
102
RTVSPost2010PropOp34
 70
     1
102
RTVSPost2010Prop35
280
     0
102
RTVSPost2010PropOp35
 70
     1
102
RTVSPost2010Prop36
280
     0
102
RTVSPost2010PropOp36
 70
     1
102
RTVSPost2010Prop37
 90
       50
102
RTVSPost2010PropOp37
 70
     1
102
RTVSPost2010Prop38
140
0.0
102
RTVSPost2010PropOp38
 70
     1
102
RTVSPost2010Prop39
140
1.0
102
RTVSPost2010PropOp39
 70
     1
102
RTVSPost2010Prop40
 90
        0
102
RTVSPost2010PropOp40
 70
     1
102
RTVSPost2010Prop41ColorIndex
 90
       18
102
RTVSPost2010Prop41ColorRGB
 90
        0
102
RTVSPost2010PropOp41
 70
     1
102
RTVSPost2010Prop42
 90
       50
102
RTVSPost2010PropOp42
 70
     1
102
RTVSPost2010Prop43
 90
        3
102
RTVSPost2010PropOp43
 70
     1
102
RTVSPost2010Prop44ColorIndex
 90
        5
102
RTVSPost2010Prop44ColorRGB
 90
      255
102
RTVSPost2010PropOp44
 70
     1
102
RTVSPost2010Prop45
280
     0
102
RTVSPost2010PropOp45
 70
     1
102
RTVSPost2010Prop46
 90
       50
102
RTVSPost2010PropOp46
 70
     1
102
RTVSPost2010Prop47
 90
       50
102
RTVSPost2010PropOp47
 70
     1
102
RTVSPost2010Prop48
 90
       50
102
RTVSPost2010PropOp48
 70
     1
102
RTVSPost2010Prop49
280
     0
102
RTVSPost2010PropOp49
 70
     1
102
RTVSPost2010Prop50
 90
       50
102
RTVSPost2010PropOp50
 70
     1
102
RTVSPost2010Prop51ColorIndex
 90
      256
102
RTVSPost2010Prop51ColorRGB
 90
-16777216
102
RTVSPost2010PropOp51
 70
     0
102
RTVSPost2010Prop52
140
1.0
102
RTVSPost2010PropOp52
 70
     0
102
RTVSPost2010Prop53
 90
        2
102
RTVSPost2010PropOp53
 70
     1
102
RTVSPost2010Prop54
  1
strokes_ogs.tif
102
RTVSPost2010PropOp54
 70
     1
102
RTVSPost2010Prop55
280
     0
102
RTVSPost2010PropOp55
 70
     1
102
RTVSPost2010Prop56
140
1.0
102
RTVSPost2010PropOp56
 70
     1
102
RTVSPost2010Prop57
140
1.0
102
RTVSPost2010PropOp57
 70
     1
102
RTVSPropertyOp0
 70
     1
102
RTVSPropertyOp1
 70
     1
102
RTVSPropertyOp2
 70
     1
102
RTVSPropertyOp3
 70
     1
102
RTVSPropertyOp4
 70
     1
102
RTVSPropertyOp5
 70
     1
102
RTVSPropertyOp6
 70
     1
102
RTVSPropertyOp7
 70
     1
102
RTVSPropertyOp8
 70
     1
102
RTVSPropertyOp9
 70
     1
102
RTVSPropertyOp10
 70
     1
102
RTVSPropertyOp11
 70
     1
102
RTVSPropertyOp12
 70
     1
102
RTVSPropertyOp13
 70
     1
102
RTVSPropertyOp14
 70
     1
102
RTVSPropertyOp15
 70
     1
102
RTVSPropertyOp16
 70
     1
102
RTVSPropertyOp17
 70
     1
102
RTVSPropertyOp18
 70
     1
102
RTVSPropertyOp19
 70
     1
102
RTVSPropertyOp20
 70
     1
102
RTVSPropertyOp21
 70
     1
102
RTVSPropertyOp22
 70
     1
102
RTVSPropertyOp23
 70
     1
102
RTVSPropertyOp24
 70
     1
102
RTVSPropertyOp25
 70
     1
102
RTVSPropertyOp26
 70
     1
102
RTVSPropertyOp27
 70
     1
102
RTVSPropertyOp28
 70
     1
102
RTVSPropertyOp29
 70
     1
102
RTVSPropertyOp30
 70
     1
102
RTVSPropertyOp31
 70
     1
102
RTVSPropertyOp32
 70
     1
102
RTVSPropertyOp33
 70
     1
102
RTVSPropertyOp34
 70
     1
102
RTVSPropertyOp35
 70
     1
102
RTVSPropertyOp36
 70
     1
102
RTVSPropertyOp37
 70
     1
102
RTVSPropertyOp38
 70
     1
102
RTVSPropertyOp39
 70
     1
102
RTVSPropertyOp40
 70
     1
102
RTVSPropertyOp41
 70
     1
102
RTVSPropertyOp42
 70
     1
102
RTVSPropertyOp43
 70
     1
102
RTVSPropertyOp44
 70
     1
102
RTVSPropertyOp45
 70
     1
102
RTVSPropertyOp46
 70
     1
102
RTVSPropertyOp47
 70
     1
102
RTVSPropertyOp48
 70
     1
102
RTVSPropertyOp49
 70
     1
102
RTVSPropertyOp50
 70
     1
102
RTVSPropertyOp51
 70
     0
102
RTVSPropertyOp52
 70
     0
102
RTVSPropertyOp53
 70
     1
102
RTVSPropertyOp54
 70
     1
102
RTVSPropertyOp55
 70
     1
102
RTVSPropertyOp56
 70
     1
102
RTVSPropertyOp57
 70
     1
102
RTVSPropertyOp58
 70
     1
102
RTVSPropertyOp59
 70
     1
102
RTVSPropertyOp60
 70
     1
102
RTVSPropertyOp61
 70
     1
102
RTVSPropertyOp62
 70
     1
  0
XRECORD
  5
C90C
102
{ACAD_REACTORS
330
C90B
102
}
330
C90B
100
AcDbXrecord
280
     1
102
RTVSPost2010Prop28
280
     0
102
RTVSPost2010PropOp28
 70
     1
102
RTVSPost2010Prop29
280
     1
102
RTVSPost2010PropOp29
 70
     1
102
RTVSPost2010Prop30
280
     1
102
RTVSPost2010PropOp30
 70
     1
102
RTVSPost2010Prop31
280
     0
102
RTVSPost2010PropOp31
 70
     1
102
RTVSPost2010Prop32
280
     0
102
RTVSPost2010PropOp32
 70
     1
102
RTVSPost2010Prop33
280
     0
102
RTVSPost2010PropOp33
 70
     1
102
RTVSPost2010Prop34
280
     0
102
RTVSPost2010PropOp34
 70
     1
102
RTVSPost2010Prop35
280
     0
102
RTVSPost2010PropOp35
 70
     1
102
RTVSPost2010Prop36
280
     0
102
RTVSPost2010PropOp36
 70
     1
102
RTVSPost2010Prop37
 90
       50
102
RTVSPost2010PropOp37
 70
     0
102
RTVSPost2010Prop38
140
0.0
102
RTVSPost2010PropOp38
 70
     0
102
RTVSPost2010Prop39
140
1.0
102
RTVSPost2010PropOp39
 70
     0
102
RTVSPost2010Prop40
 90
        0
102
RTVSPost2010PropOp40
 70
     0
102
RTVSPost2010Prop41ColorIndex
 90
       18
102
RTVSPost2010Prop41ColorRGB
 90
        0
102
RTVSPost2010PropOp41
 70
     0
102
RTVSPost2010Prop42
 90
       50
102
RTVSPost2010PropOp42
 70
     0
102
RTVSPost2010Prop43
 90
        3
102
RTVSPost2010PropOp43
 70
     0
102
RTVSPost2010Prop44ColorIndex
 90
        5
102
RTVSPost2010Prop44ColorRGB
 90
      255
102
RTVSPost2010PropOp44
 70
     0
102
RTVSPost2010Prop45
280
     0
102
RTVSPost2010PropOp45
 70
     1
102
RTVSPost2010Prop46
 90
       50
102
RTVSPost2010PropOp46
 70
     0
102
RTVSPost2010Prop47
 90
       50
102
RTVSPost2010PropOp47
 70
     0
102
RTVSPost2010Prop48
 90
       50
102
RTVSPost2010PropOp48
 70
     0
102
RTVSPost2010Prop49
280
     0
102
RTVSPost2010PropOp49
 70
     1
102
RTVSPost2010Prop50
 90
       50
102
RTVSPost2010PropOp50
 70
     0
102
RTVSPost2010Prop51ColorIndex
 90
      256
102
RTVSPost2010Prop51ColorRGB
 90
-16777216
102
RTVSPost2010PropOp51
 70
     0
102
RTVSPost2010Prop52
140
1.0
102
RTVSPost2010PropOp52
 70
     0
102
RTVSPost2010Prop53
 90
        2
102
RTVSPost2010PropOp53
 70
     0
102
RTVSPost2010Prop54
  1
strokes_ogs.tif
102
RTVSPost2010PropOp54
 70
     0
102
RTVSPost2010Prop55
280
     0
102
RTVSPost2010PropOp55
 70
     1
102
RTVSPost2010Prop56
140
1.0
102
RTVSPost2010PropOp56
 70
     0
102
RTVSPost2010Prop57
140
1.0
102
RTVSPost2010PropOp57
 70
     0
102
RTVSPropertyOp0
 70
     0
102
RTVSPropertyOp1
 70
     0
102
RTVSPropertyOp2
 70
     0
102
RTVSPropertyOp3
 70
     0
102
RTVSPropertyOp4
 70
     0
102
RTVSPropertyOp5
 70
     0
102
RTVSPropertyOp6
 70
     0
102
RTVSPropertyOp7
 70
     0
102
RTVSPropertyOp8
 70
     0
102
RTVSPropertyOp9
 70
     0
102
RTVSPropertyOp10
 70
     0
102
RTVSPropertyOp11
 70
     0
102
RTVSPropertyOp12
 70
     0
102
RTVSPropertyOp13
 70
     0
102
RTVSPropertyOp14
 70
     2
102
RTVSPropertyOp15
 70
     0
102
RTVSPropertyOp16
 70
     0
102
RTVSPropertyOp17
 70
     0
102
RTVSPropertyOp18
 70
     0
102
RTVSPropertyOp19
 70
     0
102
RTVSPropertyOp20
 70
     0
102
RTVSPropertyOp21
 70
     0
102
RTVSPropertyOp22
 70
     0
102
RTVSPropertyOp23
 70
     0
102
RTVSPropertyOp24
 70
     0
102
RTVSPropertyOp25
 70
     0
102
RTVSPropertyOp26
 70
     0
102
RTVSPropertyOp27
 70
     0
102
RTVSPropertyOp28
 70
     1
102
RTVSPropertyOp29
 70
     1
102
RTVSPropertyOp30
 70
     1
102
RTVSPropertyOp31
 70
     1
102
RTVSPropertyOp32
 70
     1
102
RTVSPropertyOp33
 70
     1
102
RTVSPropertyOp34
 70
     1
102
RTVSPropertyOp35
 70
     1
102
RTVSPropertyOp36
 70
     1
102
RTVSPropertyOp37
 70
     0
102
RTVSPropertyOp38
 70
     0
102
RTVSPropertyOp39
 70
     0
102
RTVSPropertyOp40
 70
     0
102
RTVSPropertyOp41
 70
     0
102
RTVSPropertyOp42
 70
     0
102
RTVSPropertyOp43
 70
     0
102
RTVSPropertyOp44
 70
     0
102
RTVSPropertyOp45
 70
     1
102
RTVSPropertyOp46
 70
     0
102
RTVSPropertyOp47
 70
     0
102
RTVSPropertyOp48
 70
     0
102
RTVSPropertyOp49
 70
     1
102
RTVSPropertyOp50
 70
     0
102
RTVSPropertyOp51
 70
     0
102
RTVSPropertyOp52
 70
     0
102
RTVSPropertyOp53
 70
     0
102
RTVSPropertyOp54
 70
     0
102
RTVSPropertyOp55
 70
     1
102
RTVSPropertyOp56
 70
     0
102
RTVSPropertyOp57
 70
     0
102
RTVSPropertyOp58
 70
     0
102
RTVSPropertyOp59
 70
     0
102
RTVSPropertyOp60
 70
     0
102
RTVSPropertyOp61
 70
     0
102
RTVSPropertyOp62
 70
     0
  0
XRECORD
  5
C8FC
102
{ACAD_REACTORS
330
C8FB
102
}
330
C8FB
100
AcDbXrecord
280
     1
102
RTVSPost2010Prop28
280
     0
102
RTVSPost2010PropOp28
 70
     1
102
RTVSPost2010Prop29
280
     1
102
RTVSPost2010PropOp29
 70
     1
102
RTVSPost2010Prop30
280
     1
102
RTVSPost2010PropOp30
 70
     1
102
RTVSPost2010Prop31
280
     0
102
RTVSPost2010PropOp31
 70
     1
102
RTVSPost2010Prop32
280
     0
102
RTVSPost2010PropOp32
 70
     1
102
RTVSPost2010Prop33
280
     0
102
RTVSPost2010PropOp33
 70
     1
102
RTVSPost2010Prop34
280
     0
102
RTVSPost2010PropOp34
 70
     1
102
RTVSPost2010Prop35
280
     0
102
RTVSPost2010PropOp35
 70
     1
102
RTVSPost2010Prop36
280
     0
102
RTVSPost2010PropOp36
 70
     1
102
RTVSPost2010Prop37
 90
       50
102
RTVSPost2010PropOp37
 70
     1
102
RTVSPost2010Prop38
140
0.0
102
RTVSPost2010PropOp38
 70
     1
102
RTVSPost2010Prop39
140
1.0
102
RTVSPost2010PropOp39
 70
     1
102
RTVSPost2010Prop40
 90
        0
102
RTVSPost2010PropOp40
 70
     1
102
RTVSPost2010Prop41ColorIndex
 90
       18
102
RTVSPost2010Prop41ColorRGB
 90
        0
102
RTVSPost2010PropOp41
 70
     1
102
RTVSPost2010Prop42
 90
       50
102
RTVSPost2010PropOp42
 70
     1
102
RTVSPost2010Prop43
 90
        3
102
RTVSPost2010PropOp43
 70
     1
102
RTVSPost2010Prop44ColorIndex
 90
        5
102
RTVSPost2010Prop44ColorRGB
 90
      255
102
RTVSPost2010PropOp44
 70
     1
102
RTVSPost2010Prop45
280
     0
102
RTVSPost2010PropOp45
 70
     1
102
RTVSPost2010Prop46
 90
       50
102
RTVSPost2010PropOp46
 70
     1
102
RTVSPost2010Prop47
 90
       50
102
RTVSPost2010PropOp47
 70
     1
102
RTVSPost2010Prop48
 90
       50
102
RTVSPost2010PropOp48
 70
     1
102
RTVSPost2010Prop49
280
     0
102
RTVSPost2010PropOp49
 70
     1
102
RTVSPost2010Prop50
 90
       50
102
RTVSPost2010PropOp50
 70
     1
102
RTVSPost2010Prop51ColorIndex
 90
      256
102
RTVSPost2010Prop51ColorRGB
 90
-16777216
102
RTVSPost2010PropOp51
 70
     0
102
RTVSPost2010Prop52
140
1.0
102
RTVSPost2010PropOp52
 70
     0
102
RTVSPost2010Prop53
 90
        2
102
RTVSPost2010PropOp53
 70
     1
102
RTVSPost2010Prop54
  1
strokes_ogs.tif
102
RTVSPost2010PropOp54
 70
     1
102
RTVSPost2010Prop55
280
     0
102
RTVSPost2010PropOp55
 70
     1
102
RTVSPost2010Prop56
140
1.0
102
RTVSPost2010PropOp56
 70
     1
102
RTVSPost2010Prop57
140
1.0
102
RTVSPost2010PropOp57
 70
     1
102
RTVSPropertyOp0
 70
     1
102
RTVSPropertyOp1
 70
     1
102
RTVSPropertyOp2
 70
     1
102
RTVSPropertyOp3
 70
     1
102
RTVSPropertyOp4
 70
     1
102
RTVSPropertyOp5
 70
     1
102
RTVSPropertyOp6
 70
     1
102
RTVSPropertyOp7
 70
     1
102
RTVSPropertyOp8
 70
     1
102
RTVSPropertyOp9
 70
     1
102
RTVSPropertyOp10
 70
     1
102
RTVSPropertyOp11
 70
     1
102
RTVSPropertyOp12
 70
     1
102
RTVSPropertyOp13
 70
     1
102
RTVSPropertyOp14
 70
     1
102
RTVSPropertyOp15
 70
     1
102
RTVSPropertyOp16
 70
     1
102
RTVSPropertyOp17
 70
     1
102
RTVSPropertyOp18
 70
     1
102
RTVSPropertyOp19
 70
     1
102
RTVSPropertyOp20
 70
     1
102
RTVSPropertyOp21
 70
     1
102
RTVSPropertyOp22
 70
     1
102
RTVSPropertyOp23
 70
     1
102
RTVSPropertyOp24
 70
     1
102
RTVSPropertyOp25
 70
     1
102
RTVSPropertyOp26
 70
     1
102
RTVSPropertyOp27
 70
     1
102
RTVSPropertyOp28
 70
     1
102
RTVSPropertyOp29
 70
     1
102
RTVSPropertyOp30
 70
     1
102
RTVSPropertyOp31
 70
     1
102
RTVSPropertyOp32
 70
     1
102
RTVSPropertyOp33
 70
     1
102
RTVSPropertyOp34
 70
     1
102
RTVSPropertyOp35
 70
     1
102
RTVSPropertyOp36
 70
     1
102
RTVSPropertyOp37
 70
     1
102
RTVSPropertyOp38
 70
     1
102
RTVSPropertyOp39
 70
     1
102
RTVSPropertyOp40
 70
     1
102
RTVSPropertyOp41
 70
     1
102
RTVSPropertyOp42
 70
     1
102
RTVSPropertyOp43
 70
     1
102
RTVSPropertyOp44
 70
     1
102
RTVSPropertyOp45
 70
     1
102
RTVSPropertyOp46
 70
     1
102
RTVSPropertyOp47
 70
     1
102
RTVSPropertyOp48
 70
     1
102
RTVSPropertyOp49
 70
     1
102
RTVSPropertyOp50
 70
     1
102
RTVSPropertyOp51
 70
     0
102
RTVSPropertyOp52
 70
     0
102
RTVSPropertyOp53
 70
     1
102
RTVSPropertyOp54
 70
     1
102
RTVSPropertyOp55
 70
     1
102
RTVSPropertyOp56
 70
     1
102
RTVSPropertyOp57
 70
     1
102
RTVSPropertyOp58
 70
     1
102
RTVSPropertyOp59
 70
     1
102
RTVSPropertyOp60
 70
     1
102
RTVSPropertyOp61
 70
     1
102
RTVSPropertyOp62
 70
     1
  0
XRECORD
  5
C90E
102
{ACAD_REACTORS
330
C90D
102
}
330
C90D
100
AcDbXrecord
280
     1
102
RTVSPost2010Prop28
280
     0
102
RTVSPost2010PropOp28
 70
     1
102
RTVSPost2010Prop29
280
     1
102
RTVSPost2010PropOp29
 70
     1
102
RTVSPost2010Prop30
280
     1
102
RTVSPost2010PropOp30
 70
     1
102
RTVSPost2010Prop31
280
     0
102
RTVSPost2010PropOp31
 70
     1
102
RTVSPost2010Prop32
280
     0
102
RTVSPost2010PropOp32
 70
     1
102
RTVSPost2010Prop33
280
     0
102
RTVSPost2010PropOp33
 70
     1
102
RTVSPost2010Prop34
280
     0
102
RTVSPost2010PropOp34
 70
     1
102
RTVSPost2010Prop35
280
     0
102
RTVSPost2010PropOp35
 70
     1
102
RTVSPost2010Prop36
280
     0
102
RTVSPost2010PropOp36
 70
     1
102
RTVSPost2010Prop37
 90
       50
102
RTVSPost2010PropOp37
 70
     0
102
RTVSPost2010Prop38
140
0.0
102
RTVSPost2010PropOp38
 70
     0
102
RTVSPost2010Prop39
140
1.0
102
RTVSPost2010PropOp39
 70
     0
102
RTVSPost2010Prop40
 90
        0
102
RTVSPost2010PropOp40
 70
     0
102
RTVSPost2010Prop41ColorIndex
 90
       18
102
RTVSPost2010Prop41ColorRGB
 90
        0
102
RTVSPost2010PropOp41
 70
     0
102
RTVSPost2010Prop42
 90
       50
102
RTVSPost2010PropOp42
 70
     0
102
RTVSPost2010Prop43
 90
        3
102
RTVSPost2010PropOp43
 70
     0
102
RTVSPost2010Prop44ColorIndex
 90
        5
102
RTVSPost2010Prop44ColorRGB
 90
      255
102
RTVSPost2010PropOp44
 70
     0
102
RTVSPost2010Prop45
280
     0
102
RTVSPost2010PropOp45
 70
     1
102
RTVSPost2010Prop46
 90
       50
102
RTVSPost2010PropOp46
 70
     0
102
RTVSPost2010Prop47
 90
       50
102
RTVSPost2010PropOp47
 70
     0
102
RTVSPost2010Prop48
 90
       50
102
RTVSPost2010PropOp48
 70
     0
102
RTVSPost2010Prop49
280
     0
102
RTVSPost2010PropOp49
 70
     1
102
RTVSPost2010Prop50
 90
       50
102
RTVSPost2010PropOp50
 70
     0
102
RTVSPost2010Prop51ColorIndex
 90
      256
102
RTVSPost2010Prop51ColorRGB
 90
-16777216
102
RTVSPost2010PropOp51
 70
     0
102
RTVSPost2010Prop52
140
1.0
102
RTVSPost2010PropOp52
 70
     0
102
RTVSPost2010Prop53
 90
        2
102
RTVSPost2010PropOp53
 70
     0
102
RTVSPost2010Prop54
  1
strokes_ogs.tif
102
RTVSPost2010PropOp54
 70
     0
102
RTVSPost2010Prop55
280
     0
102
RTVSPost2010PropOp55
 70
     1
102
RTVSPost2010Prop56
140
1.0
102
RTVSPost2010PropOp56
 70
     0
102
RTVSPost2010Prop57
140
1.0
102
RTVSPost2010PropOp57
 70
     0
102
RTVSPropertyOp0
 70
     0
102
RTVSPropertyOp1
 70
     0
102
RTVSPropertyOp2
 70
     0
102
RTVSPropertyOp3
 70
     0
102
RTVSPropertyOp4
 70
     0
102
RTVSPropertyOp5
 70
     0
102
RTVSPropertyOp6
 70
     0
102
RTVSPropertyOp7
 70
     0
102
RTVSPropertyOp8
 70
     0
102
RTVSPropertyOp9
 70
     0
102
RTVSPropertyOp10
 70
     0
102
RTVSPropertyOp11
 70
     0
102
RTVSPropertyOp12
 70
     0
102
RTVSPropertyOp13
 70
     0
102
RTVSPropertyOp14
 70
     2
102
RTVSPropertyOp15
 70
     0
102
RTVSPropertyOp16
 70
     0
102
RTVSPropertyOp17
 70
     0
102
RTVSPropertyOp18
 70
     0
102
RTVSPropertyOp19
 70
     0
102
RTVSPropertyOp20
 70
     0
102
RTVSPropertyOp21
 70
     0
102
RTVSPropertyOp22
 70
     0
102
RTVSPropertyOp23
 70
     0
102
RTVSPropertyOp24
 70
     0
102
RTVSPropertyOp25
 70
     0
102
RTVSPropertyOp26
 70
     0
102
RTVSPropertyOp27
 70
     0
102
RTVSPropertyOp28
 70
     1
102
RTVSPropertyOp29
 70
     1
102
RTVSPropertyOp30
 70
     1
102
RTVSPropertyOp31
 70
     1
102
RTVSPropertyOp32
 70
     1
102
RTVSPropertyOp33
 70
     1
102
RTVSPropertyOp34
 70
     1
102
RTVSPropertyOp35
 70
     1
102
RTVSPropertyOp36
 70
     1
102
RTVSPropertyOp37
 70
     0
102
RTVSPropertyOp38
 70
     0
102
RTVSPropertyOp39
 70
     0
102
RTVSPropertyOp40
 70
     0
102
RTVSPropertyOp41
 70
     0
102
RTVSPropertyOp42
 70
     0
102
RTVSPropertyOp43
 70
     0
102
RTVSPropertyOp44
 70
     0
102
RTVSPropertyOp45
 70
     1
102
RTVSPropertyOp46
 70
     0
102
RTVSPropertyOp47
 70
     0
102
RTVSPropertyOp48
 70
     0
102
RTVSPropertyOp49
 70
     1
102
RTVSPropertyOp50
 70
     0
102
RTVSPropertyOp51
 70
     0
102
RTVSPropertyOp52
 70
     0
102
RTVSPropertyOp53
 70
     0
102
RTVSPropertyOp54
 70
     0
102
RTVSPropertyOp55
 70
     1
102
RTVSPropertyOp56
 70
     0
102
RTVSPropertyOp57
 70
     0
102
RTVSPropertyOp58
 70
     0
102
RTVSPropertyOp59
 70
     0
102
RTVSPropertyOp60
 70
     0
102
RTVSPropertyOp61
 70
     0
102
RTVSPropertyOp62
 70
     0
  0
XRECORD
  5
C8F4
102
{ACAD_REACTORS
330
C8F3
102
}
330
C8F3
100
AcDbXrecord
280
     1
102
RTVSPost2010Prop28
280
     0
102
RTVSPost2010PropOp28
 70
     1
102
RTVSPost2010Prop29
280
     1
102
RTVSPost2010PropOp29
 70
     1
102
RTVSPost2010Prop30
280
     1
102
RTVSPost2010PropOp30
 70
     1
102
RTVSPost2010Prop31
280
     0
102
RTVSPost2010PropOp31
 70
     1
102
RTVSPost2010Prop32
280
     0
102
RTVSPost2010PropOp32
 70
     1
102
RTVSPost2010Prop33
280
     0
102
RTVSPost2010PropOp33
 70
     1
102
RTVSPost2010Prop34
280
     0
102
RTVSPost2010PropOp34
 70
     1
102
RTVSPost2010Prop35
280
     0
102
RTVSPost2010PropOp35
 70
     1
102
RTVSPost2010Prop36
280
     0
102
RTVSPost2010PropOp36
 70
     1
102
RTVSPost2010Prop37
 90
       50
102
RTVSPost2010PropOp37
 70
     1
102
RTVSPost2010Prop38
140
0.0
102
RTVSPost2010PropOp38
 70
     1
102
RTVSPost2010Prop39
140
1.0
102
RTVSPost2010PropOp39
 70
     1
102
RTVSPost2010Prop40
 90
        0
102
RTVSPost2010PropOp40
 70
     1
102
RTVSPost2010Prop41ColorIndex
 90
       18
102
RTVSPost2010Prop41ColorRGB
 90
        0
102
RTVSPost2010PropOp41
 70
     1
102
RTVSPost2010Prop42
 90
       50
102
RTVSPost2010PropOp42
 70
     1
102
RTVSPost2010Prop43
 90
        3
102
RTVSPost2010PropOp43
 70
     1
102
RTVSPost2010Prop44ColorIndex
 90
        5
102
RTVSPost2010Prop44ColorRGB
 90
      255
102
RTVSPost2010PropOp44
 70
     1
102
RTVSPost2010Prop45
280
     0
102
RTVSPost2010PropOp45
 70
     1
102
RTVSPost2010Prop46
 90
       50
102
RTVSPost2010PropOp46
 70
     1
102
RTVSPost2010Prop47
 90
       50
102
RTVSPost2010PropOp47
 70
     1
102
RTVSPost2010Prop48
 90
       50
102
RTVSPost2010PropOp48
 70
     1
102
RTVSPost2010Prop49
280
     0
102
RTVSPost2010PropOp49
 70
     1
102
RTVSPost2010Prop50
 90
       50
102
RTVSPost2010PropOp50
 70
     1
102
RTVSPost2010Prop51ColorIndex
 90
      256
102
RTVSPost2010Prop51ColorRGB
 90
-16777216
102
RTVSPost2010PropOp51
 70
     0
102
RTVSPost2010Prop52
140
1.0
102
RTVSPost2010PropOp52
 70
     0
102
RTVSPost2010Prop53
 90
        2
102
RTVSPost2010PropOp53
 70
     1
102
RTVSPost2010Prop54
  1
strokes_ogs.tif
102
RTVSPost2010PropOp54
 70
     1
102
RTVSPost2010Prop55
280
     0
102
RTVSPost2010PropOp55
 70
     1
102
RTVSPost2010Prop56
140
1.0
102
RTVSPost2010PropOp56
 70
     1
102
RTVSPost2010Prop57
140
1.0
102
RTVSPost2010PropOp57
 70
     1
102
RTVSPropertyOp0
 70
     1
102
RTVSPropertyOp1
 70
     1
102
RTVSPropertyOp2
 70
     1
102
RTVSPropertyOp3
 70
     1
102
RTVSPropertyOp4
 70
     1
102
RTVSPropertyOp5
 70
     1
102
RTVSPropertyOp6
 70
     1
102
RTVSPropertyOp7
 70
     1
102
RTVSPropertyOp8
 70
     1
102
RTVSPropertyOp9
 70
     1
102
RTVSPropertyOp10
 70
     1
102
RTVSPropertyOp11
 70
     1
102
RTVSPropertyOp12
 70
     1
102
RTVSPropertyOp13
 70
     1
102
RTVSPropertyOp14
 70
     1
102
RTVSPropertyOp15
 70
     1
102
RTVSPropertyOp16
 70
     1
102
RTVSPropertyOp17
 70
     1
102
RTVSPropertyOp18
 70
     1
102
RTVSPropertyOp19
 70
     1
102
RTVSPropertyOp20
 70
     1
102
RTVSPropertyOp21
 70
     1
102
RTVSPropertyOp22
 70
     1
102
RTVSPropertyOp23
 70
     1
102
RTVSPropertyOp24
 70
     1
102
RTVSPropertyOp25
 70
     1
102
RTVSPropertyOp26
 70
     1
102
RTVSPropertyOp27
 70
     1
102
RTVSPropertyOp28
 70
     1
102
RTVSPropertyOp29
 70
     1
102
RTVSPropertyOp30
 70
     1
102
RTVSPropertyOp31
 70
     1
102
RTVSPropertyOp32
 70
     1
102
RTVSPropertyOp33
 70
     1
102
RTVSPropertyOp34
 70
     1
102
RTVSPropertyOp35
 70
     1
102
RTVSPropertyOp36
 70
     1
102
RTVSPropertyOp37
 70
     1
102
RTVSPropertyOp38
 70
     1
102
RTVSPropertyOp39
 70
     1
102
RTVSPropertyOp40
 70
     1
102
RTVSPropertyOp41
 70
     1
102
RTVSPropertyOp42
 70
     1
102
RTVSPropertyOp43
 70
     1
102
RTVSPropertyOp44
 70
     1
102
RTVSPropertyOp45
 70
     1
102
RTVSPropertyOp46
 70
     1
102
RTVSPropertyOp47
 70
     1
102
RTVSPropertyOp48
 70
     1
102
RTVSPropertyOp49
 70
     1
102
RTVSPropertyOp50
 70
     1
102
RTVSPropertyOp51
 70
     0
102
RTVSPropertyOp52
 70
     0
102
RTVSPropertyOp53
 70
     1
102
RTVSPropertyOp54
 70
     1
102
RTVSPropertyOp55
 70
     1
102
RTVSPropertyOp56
 70
     1
102
RTVSPropertyOp57
 70
     1
102
RTVSPropertyOp58
 70
     1
102
RTVSPropertyOp59
 70
     1
102
RTVSPropertyOp60
 70
     1
102
RTVSPropertyOp61
 70
     1
102
RTVSPropertyOp62
 70
     1
  0
XRECORD
  5
C90A
102
{ACAD_REACTORS
330
C909
102
}
330
C909
100
AcDbXrecord
280
     1
102
RTVSPost2010Prop28
280
     0
102
RTVSPost2010PropOp28
 70
     1
102
RTVSPost2010Prop29
280
     1
102
RTVSPost2010PropOp29
 70
     1
102
RTVSPost2010Prop30
280
     1
102
RTVSPost2010PropOp30
 70
     1
102
RTVSPost2010Prop31
280
     0
102
RTVSPost2010PropOp31
 70
     1
102
RTVSPost2010Prop32
280
     0
102
RTVSPost2010PropOp32
 70
     1
102
RTVSPost2010Prop33
280
     0
102
RTVSPost2010PropOp33
 70
     1
102
RTVSPost2010Prop34
280
     0
102
RTVSPost2010PropOp34
 70
     1
102
RTVSPost2010Prop35
280
     0
102
RTVSPost2010PropOp35
 70
     1
102
RTVSPost2010Prop36
280
     0
102
RTVSPost2010PropOp36
 70
     1
102
RTVSPost2010Prop37
 90
       50
102
RTVSPost2010PropOp37
 70
     1
102
RTVSPost2010Prop38
140
0.0
102
RTVSPost2010PropOp38
 70
     1
102
RTVSPost2010Prop39
140
1.0
102
RTVSPost2010PropOp39
 70
     1
102
RTVSPost2010Prop40
 90
        0
102
RTVSPost2010PropOp40
 70
     1
102
RTVSPost2010Prop41ColorIndex
 90
       18
102
RTVSPost2010Prop41ColorRGB
 90
        0
102
RTVSPost2010PropOp41
 70
     1
102
RTVSPost2010Prop42
 90
       50
102
RTVSPost2010PropOp42
 70
     1
102
RTVSPost2010Prop43
 90
        3
102
RTVSPost2010PropOp43
 70
     1
102
RTVSPost2010Prop44ColorIndex
 90
        5
102
RTVSPost2010Prop44ColorRGB
 90
      255
102
RTVSPost2010PropOp44
 70
     1
102
RTVSPost2010Prop45
280
     0
102
RTVSPost2010PropOp45
 70
     1
102
RTVSPost2010Prop46
 90
       50
102
RTVSPost2010PropOp46
 70
     1
102
RTVSPost2010Prop47
 90
       50
102
RTVSPost2010PropOp47
 70
     1
102
RTVSPost2010Prop48
 90
       50
102
RTVSPost2010PropOp48
 70
     1
102
RTVSPost2010Prop49
280
     0
102
RTVSPost2010PropOp49
 70
     1
102
RTVSPost2010Prop50
 90
       50
102
RTVSPost2010PropOp50
 70
     1
102
RTVSPost2010Prop51ColorIndex
 90
      256
102
RTVSPost2010Prop51ColorRGB
 90
-16777216
102
RTVSPost2010PropOp51
 70
     0
102
RTVSPost2010Prop52
140
1.0
102
RTVSPost2010PropOp52
 70
     0
102
RTVSPost2010Prop53
 90
        2
102
RTVSPost2010PropOp53
 70
     1
102
RTVSPost2010Prop54
  1
strokes_ogs.tif
102
RTVSPost2010PropOp54
 70
     1
102
RTVSPost2010Prop55
280
     0
102
RTVSPost2010PropOp55
 70
     1
102
RTVSPost2010Prop56
140
1.0
102
RTVSPost2010PropOp56
 70
     1
102
RTVSPost2010Prop57
140
1.0
102
RTVSPost2010PropOp57
 70
     1
102
RTVSPropertyOp0
 70
     1
102
RTVSPropertyOp1
 70
     1
102
RTVSPropertyOp2
 70
     1
102
RTVSPropertyOp3
 70
     1
102
RTVSPropertyOp4
 70
     1
102
RTVSPropertyOp5
 70
     1
102
RTVSPropertyOp6
 70
     1
102
RTVSPropertyOp7
 70
     1
102
RTVSPropertyOp8
 70
     1
102
RTVSPropertyOp9
 70
     1
102
RTVSPropertyOp10
 70
     1
102
RTVSPropertyOp11
 70
     1
102
RTVSPropertyOp12
 70
     1
102
RTVSPropertyOp13
 70
     1
102
RTVSPropertyOp14
 70
     1
102
RTVSPropertyOp15
 70
     1
102
RTVSPropertyOp16
 70
     1
102
RTVSPropertyOp17
 70
     1
102
RTVSPropertyOp18
 70
     1
102
RTVSPropertyOp19
 70
     1
102
RTVSPropertyOp20
 70
     1
102
RTVSPropertyOp21
 70
     1
102
RTVSPropertyOp22
 70
     1
102
RTVSPropertyOp23
 70
     1
102
RTVSPropertyOp24
 70
     1
102
RTVSPropertyOp25
 70
     1
102
RTVSPropertyOp26
 70
     1
102
RTVSPropertyOp27
 70
     1
102
RTVSPropertyOp28
 70
     1
102
RTVSPropertyOp29
 70
     1
102
RTVSPropertyOp30
 70
     1
102
RTVSPropertyOp31
 70
     1
102
RTVSPropertyOp32
 70
     1
102
RTVSPropertyOp33
 70
     1
102
RTVSPropertyOp34
 70
     1
102
RTVSPropertyOp35
 70
     1
102
RTVSPropertyOp36
 70
     1
102
RTVSPropertyOp37
 70
     1
102
RTVSPropertyOp38
 70
     1
102
RTVSPropertyOp39
 70
     1
102
RTVSPropertyOp40
 70
     1
102
RTVSPropertyOp41
 70
     1
102
RTVSPropertyOp42
 70
     1
102
RTVSPropertyOp43
 70
     1
102
RTVSPropertyOp44
 70
     1
102
RTVSPropertyOp45
 70
     1
102
RTVSPropertyOp46
 70
     1
102
RTVSPropertyOp47
 70
     1
102
RTVSPropertyOp48
 70
     1
102
RTVSPropertyOp49
 70
     1
102
RTVSPropertyOp50
 70
     1
102
RTVSPropertyOp51
 70
     0
102
RTVSPropertyOp52
 70
     0
102
RTVSPropertyOp53
 70
     1
102
RTVSPropertyOp54
 70
     1
102
RTVSPropertyOp55
 70
     1
102
RTVSPropertyOp56
 70
     1
102
RTVSPropertyOp57
 70
     1
102
RTVSPropertyOp58
 70
     1
102
RTVSPropertyOp59
 70
     1
102
RTVSPropertyOp60
 70
     1
102
RTVSPropertyOp61
 70
     1
102
RTVSPropertyOp62
 70
     1
  0
XRECORD
  5
C908
102
{ACAD_REACTORS
330
C907
102
}
330
C907
100
AcDbXrecord
280
     1
102
RTVSPost2010Prop28
280
     0
102
RTVSPost2010PropOp28
 70
     1
102
RTVSPost2010Prop29
280
     1
102
RTVSPost2010PropOp29
 70
     1
102
RTVSPost2010Prop30
280
     1
102
RTVSPost2010PropOp30
 70
     1
102
RTVSPost2010Prop31
280
     0
102
RTVSPost2010PropOp31
 70
     1
102
RTVSPost2010Prop32
280
     0
102
RTVSPost2010PropOp32
 70
     1
102
RTVSPost2010Prop33
280
     0
102
RTVSPost2010PropOp33
 70
     1
102
RTVSPost2010Prop34
280
     0
102
RTVSPost2010PropOp34
 70
     1
102
RTVSPost2010Prop35
280
     0
102
RTVSPost2010PropOp35
 70
     1
102
RTVSPost2010Prop36
280
     0
102
RTVSPost2010PropOp36
 70
     1
102
RTVSPost2010Prop37
 90
       50
102
RTVSPost2010PropOp37
 70
     1
102
RTVSPost2010Prop38
140
0.0
102
RTVSPost2010PropOp38
 70
     1
102
RTVSPost2010Prop39
140
1.0
102
RTVSPost2010PropOp39
 70
     1
102
RTVSPost2010Prop40
 90
        0
102
RTVSPost2010PropOp40
 70
     1
102
RTVSPost2010Prop41ColorIndex
 90
       18
102
RTVSPost2010Prop41ColorRGB
 90
        0
102
RTVSPost2010PropOp41
 70
     1
102
RTVSPost2010Prop42
 90
       50
102
RTVSPost2010PropOp42
 70
     1
102
RTVSPost2010Prop43
 90
        3
102
RTVSPost2010PropOp43
 70
     1
102
RTVSPost2010Prop44ColorIndex
 90
        5
102
RTVSPost2010Prop44ColorRGB
 90
      255
102
RTVSPost2010PropOp44
 70
     1
102
RTVSPost2010Prop45
280
     0
102
RTVSPost2010PropOp45
 70
     1
102
RTVSPost2010Prop46
 90
       50
102
RTVSPost2010PropOp46
 70
     1
102
RTVSPost2010Prop47
 90
       50
102
RTVSPost2010PropOp47
 70
     1
102
RTVSPost2010Prop48
 90
       50
102
RTVSPost2010PropOp48
 70
     1
102
RTVSPost2010Prop49
280
     0
102
RTVSPost2010PropOp49
 70
     1
102
RTVSPost2010Prop50
 90
       50
102
RTVSPost2010PropOp50
 70
     1
102
RTVSPost2010Prop51ColorIndex
 90
      256
102
RTVSPost2010Prop51ColorRGB
 90
-16777216
102
RTVSPost2010PropOp51
 70
     0
102
RTVSPost2010Prop52
140
1.0
102
RTVSPost2010PropOp52
 70
     0
102
RTVSPost2010Prop53
 90
        2
102
RTVSPost2010PropOp53
 70
     1
102
RTVSPost2010Prop54
  1
strokes_ogs.tif
102
RTVSPost2010PropOp54
 70
     1
102
RTVSPost2010Prop55
280
     0
102
RTVSPost2010PropOp55
 70
     1
102
RTVSPost2010Prop56
140
1.0
102
RTVSPost2010PropOp56
 70
     1
102
RTVSPost2010Prop57
140
1.0
102
RTVSPost2010PropOp57
 70
     1
102
RTVSPropertyOp0
 70
     1
102
RTVSPropertyOp1
 70
     1
102
RTVSPropertyOp2
 70
     1
102
RTVSPropertyOp3
 70
     1
102
RTVSPropertyOp4
 70
     1
102
RTVSPropertyOp5
 70
     1
102
RTVSPropertyOp6
 70
     1
102
RTVSPropertyOp7
 70
     1
102
RTVSPropertyOp8
 70
     1
102
RTVSPropertyOp9
 70
     1
102
RTVSPropertyOp10
 70
     1
102
RTVSPropertyOp11
 70
     1
102
RTVSPropertyOp12
 70
     1
102
RTVSPropertyOp13
 70
     1
102
RTVSPropertyOp14
 70
     1
102
RTVSPropertyOp15
 70
     1
102
RTVSPropertyOp16
 70
     1
102
RTVSPropertyOp17
 70
     1
102
RTVSPropertyOp18
 70
     1
102
RTVSPropertyOp19
 70
     1
102
RTVSPropertyOp20
 70
     1
102
RTVSPropertyOp21
 70
     1
102
RTVSPropertyOp22
 70
     1
102
RTVSPropertyOp23
 70
     1
102
RTVSPropertyOp24
 70
     1
102
RTVSPropertyOp25
 70
     1
102
RTVSPropertyOp26
 70
     1
102
RTVSPropertyOp27
 70
     1
102
RTVSPropertyOp28
 70
     1
102
RTVSPropertyOp29
 70
     1
102
RTVSPropertyOp30
 70
     1
102
RTVSPropertyOp31
 70
     1
102
RTVSPropertyOp32
 70
     1
102
RTVSPropertyOp33
 70
     1
102
RTVSPropertyOp34
 70
     1
102
RTVSPropertyOp35
 70
     1
102
RTVSPropertyOp36
 70
     1
102
RTVSPropertyOp37
 70
     1
102
RTVSPropertyOp38
 70
     1
102
RTVSPropertyOp39
 70
     1
102
RTVSPropertyOp40
 70
     1
102
RTVSPropertyOp41
 70
     1
102
RTVSPropertyOp42
 70
     1
102
RTVSPropertyOp43
 70
     1
102
RTVSPropertyOp44
 70
     1
102
RTVSPropertyOp45
 70
     1
102
RTVSPropertyOp46
 70
     1
102
RTVSPropertyOp47
 70
     1
102
RTVSPropertyOp48
 70
     1
102
RTVSPropertyOp49
 70
     1
102
RTVSPropertyOp50
 70
     1
102
RTVSPropertyOp51
 70
     0
102
RTVSPropertyOp52
 70
     0
102
RTVSPropertyOp53
 70
     1
102
RTVSPropertyOp54
 70
     1
102
RTVSPropertyOp55
 70
     1
102
RTVSPropertyOp56
 70
     1
102
RTVSPropertyOp57
 70
     1
102
RTVSPropertyOp58
 70
     1
102
RTVSPropertyOp59
 70
     1
102
RTVSPropertyOp60
 70
     1
102
RTVSPropertyOp61
 70
     1
102
RTVSPropertyOp62
 70
     1
  0
XRECORD
  5
C902
102
{ACAD_REACTORS
330
C901
102
}
330
C901
100
AcDbXrecord
280
     1
102
RTVSPost2010Prop28
280
     0
102
RTVSPost2010PropOp28
 70
     1
102
RTVSPost2010Prop29
280
     1
102
RTVSPost2010PropOp29
 70
     1
102
RTVSPost2010Prop30
280
     1
102
RTVSPost2010PropOp30
 70
     1
102
RTVSPost2010Prop31
280
     0
102
RTVSPost2010PropOp31
 70
     1
102
RTVSPost2010Prop32
280
     0
102
RTVSPost2010PropOp32
 70
     1
102
RTVSPost2010Prop33
280
     0
102
RTVSPost2010PropOp33
 70
     1
102
RTVSPost2010Prop34
280
     0
102
RTVSPost2010PropOp34
 70
     1
102
RTVSPost2010Prop35
280
     0
102
RTVSPost2010PropOp35
 70
     1
102
RTVSPost2010Prop36
280
     0
102
RTVSPost2010PropOp36
 70
     1
102
RTVSPost2010Prop37
 90
       50
102
RTVSPost2010PropOp37
 70
     1
102
RTVSPost2010Prop38
140
0.0
102
RTVSPost2010PropOp38
 70
     1
102
RTVSPost2010Prop39
140
1.0
102
RTVSPost2010PropOp39
 70
     1
102
RTVSPost2010Prop40
 90
        0
102
RTVSPost2010PropOp40
 70
     1
102
RTVSPost2010Prop41ColorIndex
 90
       18
102
RTVSPost2010Prop41ColorRGB
 90
        0
102
RTVSPost2010PropOp41
 70
     1
102
RTVSPost2010Prop42
 90
       50
102
RTVSPost2010PropOp42
 70
     1
102
RTVSPost2010Prop43
 90
        3
102
RTVSPost2010PropOp43
 70
     1
102
RTVSPost2010Prop44ColorIndex
 90
        5
102
RTVSPost2010Prop44ColorRGB
 90
      255
102
RTVSPost2010PropOp44
 70
     1
102
RTVSPost2010Prop45
280
     0
102
RTVSPost2010PropOp45
 70
     1
102
RTVSPost2010Prop46
 90
       50
102
RTVSPost2010PropOp46
 70
     1
102
RTVSPost2010Prop47
 90
       50
102
RTVSPost2010PropOp47
 70
     1
102
RTVSPost2010Prop48
 90
       50
102
RTVSPost2010PropOp48
 70
     1
102
RTVSPost2010Prop49
280
     0
102
RTVSPost2010PropOp49
 70
     1
102
RTVSPost2010Prop50
 90
       50
102
RTVSPost2010PropOp50
 70
     1
102
RTVSPost2010Prop51ColorIndex
 90
      256
102
RTVSPost2010Prop51ColorRGB
 90
-16777216
102
RTVSPost2010PropOp51
 70
     0
102
RTVSPost2010Prop52
140
1.0
102
RTVSPost2010PropOp52
 70
     0
102
RTVSPost2010Prop53
 90
        2
102
RTVSPost2010PropOp53
 70
     1
102
RTVSPost2010Prop54
  1
strokes_ogs.tif
102
RTVSPost2010PropOp54
 70
     1
102
RTVSPost2010Prop55
280
     0
102
RTVSPost2010PropOp55
 70
     1
102
RTVSPost2010Prop56
140
1.0
102
RTVSPost2010PropOp56
 70
     1
102
RTVSPost2010Prop57
140
1.0
102
RTVSPost2010PropOp57
 70
     1
102
RTVSPropertyOp0
 70
     1
102
RTVSPropertyOp1
 70
     1
102
RTVSPropertyOp2
 70
     1
102
RTVSPropertyOp3
 70
     1
102
RTVSPropertyOp4
 70
     1
102
RTVSPropertyOp5
 70
     1
102
RTVSPropertyOp6
 70
     1
102
RTVSPropertyOp7
 70
     1
102
RTVSPropertyOp8
 70
     1
102
RTVSPropertyOp9
 70
     1
102
RTVSPropertyOp10
 70
     1
102
RTVSPropertyOp11
 70
     1
102
RTVSPropertyOp12
 70
     1
102
RTVSPropertyOp13
 70
     1
102
RTVSPropertyOp14
 70
     1
102
RTVSPropertyOp15
 70
     1
102
RTVSPropertyOp16
 70
     1
102
RTVSPropertyOp17
 70
     1
102
RTVSPropertyOp18
 70
     1
102
RTVSPropertyOp19
 70
     1
102
RTVSPropertyOp20
 70
     1
102
RTVSPropertyOp21
 70
     1
102
RTVSPropertyOp22
 70
     1
102
RTVSPropertyOp23
 70
     1
102
RTVSPropertyOp24
 70
     1
102
RTVSPropertyOp25
 70
     1
102
RTVSPropertyOp26
 70
     1
102
RTVSPropertyOp27
 70
     1
102
RTVSPropertyOp28
 70
     1
102
RTVSPropertyOp29
 70
     1
102
RTVSPropertyOp30
 70
     1
102
RTVSPropertyOp31
 70
     1
102
RTVSPropertyOp32
 70
     1
102
RTVSPropertyOp33
 70
     1
102
RTVSPropertyOp34
 70
     1
102
RTVSPropertyOp35
 70
     1
102
RTVSPropertyOp36
 70
     1
102
RTVSPropertyOp37
 70
     1
102
RTVSPropertyOp38
 70
     1
102
RTVSPropertyOp39
 70
     1
102
RTVSPropertyOp40
 70
     1
102
RTVSPropertyOp41
 70
     1
102
RTVSPropertyOp42
 70
     1
102
RTVSPropertyOp43
 70
     1
102
RTVSPropertyOp44
 70
     1
102
RTVSPropertyOp45
 70
     1
102
RTVSPropertyOp46
 70
     1
102
RTVSPropertyOp47
 70
     1
102
RTVSPropertyOp48
 70
     1
102
RTVSPropertyOp49
 70
     1
102
RTVSPropertyOp50
 70
     1
102
RTVSPropertyOp51
 70
     0
102
RTVSPropertyOp52
 70
     0
102
RTVSPropertyOp53
 70
     1
102
RTVSPropertyOp54
 70
     1
102
RTVSPropertyOp55
 70
     1
102
RTVSPropertyOp56
 70
     1
102
RTVSPropertyOp57
 70
     1
102
RTVSPropertyOp58
 70
     1
102
RTVSPropertyOp59
 70
     1
102
RTVSPropertyOp60
 70
     1
102
RTVSPropertyOp61
 70
     1
102
RTVSPropertyOp62
 70
     1
  0
XRECORD
  5
C904
102
{ACAD_REACTORS
330
C903
102
}
330
C903
100
AcDbXrecord
280
     1
102
RTVSPost2010Prop28
280
     0
102
RTVSPost2010PropOp28
 70
     1
102
RTVSPost2010Prop29
280
     1
102
RTVSPost2010PropOp29
 70
     1
102
RTVSPost2010Prop30
280
     1
102
RTVSPost2010PropOp30
 70
     1
102
RTVSPost2010Prop31
280
     0
102
RTVSPost2010PropOp31
 70
     1
102
RTVSPost2010Prop32
280
     0
102
RTVSPost2010PropOp32
 70
     1
102
RTVSPost2010Prop33
280
     0
102
RTVSPost2010PropOp33
 70
     1
102
RTVSPost2010Prop34
280
     0
102
RTVSPost2010PropOp34
 70
     1
102
RTVSPost2010Prop35
280
     0
102
RTVSPost2010PropOp35
 70
     1
102
RTVSPost2010Prop36
280
     0
102
RTVSPost2010PropOp36
 70
     1
102
RTVSPost2010Prop37
 90
       50
102
RTVSPost2010PropOp37
 70
     1
102
RTVSPost2010Prop38
140
0.0
102
RTVSPost2010PropOp38
 70
     1
102
RTVSPost2010Prop39
140
1.0
102
RTVSPost2010PropOp39
 70
     1
102
RTVSPost2010Prop40
 90
        0
102
RTVSPost2010PropOp40
 70
     1
102
RTVSPost2010Prop41ColorIndex
 90
       18
102
RTVSPost2010Prop41ColorRGB
 90
        0
102
RTVSPost2010PropOp41
 70
     1
102
RTVSPost2010Prop42
 90
       50
102
RTVSPost2010PropOp42
 70
     1
102
RTVSPost2010Prop43
 90
        3
102
RTVSPost2010PropOp43
 70
     1
102
RTVSPost2010Prop44ColorIndex
 90
        5
102
RTVSPost2010Prop44ColorRGB
 90
      255
102
RTVSPost2010PropOp44
 70
     1
102
RTVSPost2010Prop45
280
     0
102
RTVSPost2010PropOp45
 70
     1
102
RTVSPost2010Prop46
 90
       50
102
RTVSPost2010PropOp46
 70
     1
102
RTVSPost2010Prop47
 90
       50
102
RTVSPost2010PropOp47
 70
     1
102
RTVSPost2010Prop48
 90
       50
102
RTVSPost2010PropOp48
 70
     1
102
RTVSPost2010Prop49
280
     0
102
RTVSPost2010PropOp49
 70
     1
102
RTVSPost2010Prop50
 90
       50
102
RTVSPost2010PropOp50
 70
     1
102
RTVSPost2010Prop51ColorIndex
 90
      256
102
RTVSPost2010Prop51ColorRGB
 90
-16777216
102
RTVSPost2010PropOp51
 70
     0
102
RTVSPost2010Prop52
140
1.0
102
RTVSPost2010PropOp52
 70
     0
102
RTVSPost2010Prop53
 90
        2
102
RTVSPost2010PropOp53
 70
     1
102
RTVSPost2010Prop54
  1
strokes_ogs.tif
102
RTVSPost2010PropOp54
 70
     1
102
RTVSPost2010Prop55
280
     0
102
RTVSPost2010PropOp55
 70
     1
102
RTVSPost2010Prop56
140
1.0
102
RTVSPost2010PropOp56
 70
     1
102
RTVSPost2010Prop57
140
1.0
102
RTVSPost2010PropOp57
 70
     1
102
RTVSPropertyOp0
 70
     1
102
RTVSPropertyOp1
 70
     1
102
RTVSPropertyOp2
 70
     1
102
RTVSPropertyOp3
 70
     1
102
RTVSPropertyOp4
 70
     1
102
RTVSPropertyOp5
 70
     1
102
RTVSPropertyOp6
 70
     1
102
RTVSPropertyOp7
 70
     1
102
RTVSPropertyOp8
 70
     1
102
RTVSPropertyOp9
 70
     1
102
RTVSPropertyOp10
 70
     1
102
RTVSPropertyOp11
 70
     1
102
RTVSPropertyOp12
 70
     1
102
RTVSPropertyOp13
 70
     1
102
RTVSPropertyOp14
 70
     1
102
RTVSPropertyOp15
 70
     1
102
RTVSPropertyOp16
 70
     1
102
RTVSPropertyOp17
 70
     1
102
RTVSPropertyOp18
 70
     1
102
RTVSPropertyOp19
 70
     1
102
RTVSPropertyOp20
 70
     1
102
RTVSPropertyOp21
 70
     1
102
RTVSPropertyOp22
 70
     1
102
RTVSPropertyOp23
 70
     1
102
RTVSPropertyOp24
 70
     1
102
RTVSPropertyOp25
 70
     1
102
RTVSPropertyOp26
 70
     1
102
RTVSPropertyOp27
 70
     1
102
RTVSPropertyOp28
 70
     1
102
RTVSPropertyOp29
 70
     1
102
RTVSPropertyOp30
 70
     1
102
RTVSPropertyOp31
 70
     1
102
RTVSPropertyOp32
 70
     1
102
RTVSPropertyOp33
 70
     1
102
RTVSPropertyOp34
 70
     1
102
RTVSPropertyOp35
 70
     1
102
RTVSPropertyOp36
 70
     1
102
RTVSPropertyOp37
 70
     1
102
RTVSPropertyOp38
 70
     1
102
RTVSPropertyOp39
 70
     1
102
RTVSPropertyOp40
 70
     1
102
RTVSPropertyOp41
 70
     1
102
RTVSPropertyOp42
 70
     1
102
RTVSPropertyOp43
 70
     1
102
RTVSPropertyOp44
 70
     1
102
RTVSPropertyOp45
 70
     1
102
RTVSPropertyOp46
 70
     1
102
RTVSPropertyOp47
 70
     1
102
RTVSPropertyOp48
 70
     1
102
RTVSPropertyOp49
 70
     1
102
RTVSPropertyOp50
 70
     1
102
RTVSPropertyOp51
 70
     0
102
RTVSPropertyOp52
 70
     0
102
RTVSPropertyOp53
 70
     1
102
RTVSPropertyOp54
 70
     1
102
RTVSPropertyOp55
 70
     1
102
RTVSPropertyOp56
 70
     1
102
RTVSPropertyOp57
 70
     1
102
RTVSPropertyOp58
 70
     1
102
RTVSPropertyOp59
 70
     1
102
RTVSPropertyOp60
 70
     1
102
RTVSPropertyOp61
 70
     1
102
RTVSPropertyOp62
 70
     1
  0
XRECORD
  5
C8FA
102
{ACAD_REACTORS
330
C8F9
102
}
330
C8F9
100
AcDbXrecord
280
     1
102
RTVSPost2010Prop28
280
     0
102
RTVSPost2010PropOp28
 70
     1
102
RTVSPost2010Prop29
280
     1
102
RTVSPost2010PropOp29
 70
     1
102
RTVSPost2010Prop30
280
     1
102
RTVSPost2010PropOp30
 70
     1
102
RTVSPost2010Prop31
280
     0
102
RTVSPost2010PropOp31
 70
     1
102
RTVSPost2010Prop32
280
     0
102
RTVSPost2010PropOp32
 70
     1
102
RTVSPost2010Prop33
280
     0
102
RTVSPost2010PropOp33
 70
     1
102
RTVSPost2010Prop34
280
     0
102
RTVSPost2010PropOp34
 70
     1
102
RTVSPost2010Prop35
280
     0
102
RTVSPost2010PropOp35
 70
     1
102
RTVSPost2010Prop36
280
     0
102
RTVSPost2010PropOp36
 70
     1
102
RTVSPost2010Prop37
 90
       50
102
RTVSPost2010PropOp37
 70
     1
102
RTVSPost2010Prop38
140
0.0
102
RTVSPost2010PropOp38
 70
     1
102
RTVSPost2010Prop39
140
1.0
102
RTVSPost2010PropOp39
 70
     1
102
RTVSPost2010Prop40
 90
        0
102
RTVSPost2010PropOp40
 70
     1
102
RTVSPost2010Prop41ColorIndex
 90
       18
102
RTVSPost2010Prop41ColorRGB
 90
        0
102
RTVSPost2010PropOp41
 70
     1
102
RTVSPost2010Prop42
 90
       50
102
RTVSPost2010PropOp42
 70
     1
102
RTVSPost2010Prop43
 90
        3
102
RTVSPost2010PropOp43
 70
     1
102
RTVSPost2010Prop44ColorIndex
 90
        5
102
RTVSPost2010Prop44ColorRGB
 90
      255
102
RTVSPost2010PropOp44
 70
     1
102
RTVSPost2010Prop45
280
     0
102
RTVSPost2010PropOp45
 70
     1
102
RTVSPost2010Prop46
 90
       50
102
RTVSPost2010PropOp46
 70
     1
102
RTVSPost2010Prop47
 90
       50
102
RTVSPost2010PropOp47
 70
     1
102
RTVSPost2010Prop48
 90
       50
102
RTVSPost2010PropOp48
 70
     1
102
RTVSPost2010Prop49
280
     0
102
RTVSPost2010PropOp49
 70
     1
102
RTVSPost2010Prop50
 90
       50
102
RTVSPost2010PropOp50
 70
     1
102
RTVSPost2010Prop51ColorIndex
 90
      256
102
RTVSPost2010Prop51ColorRGB
 90
-16777216
102
RTVSPost2010PropOp51
 70
     0
102
RTVSPost2010Prop52
140
1.0
102
RTVSPost2010PropOp52
 70
     0
102
RTVSPost2010Prop53
 90
        2
102
RTVSPost2010PropOp53
 70
     1
102
RTVSPost2010Prop54
  1
strokes_ogs.tif
102
RTVSPost2010PropOp54
 70
     1
102
RTVSPost2010Prop55
280
     0
102
RTVSPost2010PropOp55
 70
     1
102
RTVSPost2010Prop56
140
1.0
102
RTVSPost2010PropOp56
 70
     1
102
RTVSPost2010Prop57
140
1.0
102
RTVSPost2010PropOp57
 70
     1
102
RTVSPropertyOp0
 70
     1
102
RTVSPropertyOp1
 70
     1
102
RTVSPropertyOp2
 70
     1
102
RTVSPropertyOp3
 70
     1
102
RTVSPropertyOp4
 70
     1
102
RTVSPropertyOp5
 70
     1
102
RTVSPropertyOp6
 70
     1
102
RTVSPropertyOp7
 70
     1
102
RTVSPropertyOp8
 70
     1
102
RTVSPropertyOp9
 70
     1
102
RTVSPropertyOp10
 70
     1
102
RTVSPropertyOp11
 70
     1
102
RTVSPropertyOp12
 70
     1
102
RTVSPropertyOp13
 70
     1
102
RTVSPropertyOp14
 70
     1
102
RTVSPropertyOp15
 70
     1
102
RTVSPropertyOp16
 70
     1
102
RTVSPropertyOp17
 70
     1
102
RTVSPropertyOp18
 70
     1
102
RTVSPropertyOp19
 70
     1
102
RTVSPropertyOp20
 70
     1
102
RTVSPropertyOp21
 70
     1
102
RTVSPropertyOp22
 70
     1
102
RTVSPropertyOp23
 70
     1
102
RTVSPropertyOp24
 70
     1
102
RTVSPropertyOp25
 70
     1
102
RTVSPropertyOp26
 70
     1
102
RTVSPropertyOp27
 70
     1
102
RTVSPropertyOp28
 70
     1
102
RTVSPropertyOp29
 70
     1
102
RTVSPropertyOp30
 70
     1
102
RTVSPropertyOp31
 70
     1
102
RTVSPropertyOp32
 70
     1
102
RTVSPropertyOp33
 70
     1
102
RTVSPropertyOp34
 70
     1
102
RTVSPropertyOp35
 70
     1
102
RTVSPropertyOp36
 70
     1
102
RTVSPropertyOp37
 70
     1
102
RTVSPropertyOp38
 70
     1
102
RTVSPropertyOp39
 70
     1
102
RTVSPropertyOp40
 70
     1
102
RTVSPropertyOp41
 70
     1
102
RTVSPropertyOp42
 70
     1
102
RTVSPropertyOp43
 70
     1
102
RTVSPropertyOp44
 70
     1
102
RTVSPropertyOp45
 70
     1
102
RTVSPropertyOp46
 70
     1
102
RTVSPropertyOp47
 70
     1
102
RTVSPropertyOp48
 70
     1
102
RTVSPropertyOp49
 70
     1
102
RTVSPropertyOp50
 70
     1
102
RTVSPropertyOp51
 70
     0
102
RTVSPropertyOp52
 70
     0
102
RTVSPropertyOp53
 70
     1
102
RTVSPropertyOp54
 70
     1
102
RTVSPropertyOp55
 70
     1
102
RTVSPropertyOp56
 70
     1
102
RTVSPropertyOp57
 70
     1
102
RTVSPropertyOp58
 70
     1
102
RTVSPropertyOp59
 70
     1
102
RTVSPropertyOp60
 70
     1
102
RTVSPropertyOp61
 70
     1
102
RTVSPropertyOp62
 70
     1
  0
XRECORD
  5
C8EE
102
{ACAD_REACTORS
330
C8ED
102
}
330
C8ED
100
AcDbXrecord
280
     1
102
RTVSPost2010Prop28
280
     0
102
RTVSPost2010PropOp28
 70
     1
102
RTVSPost2010Prop29
280
     1
102
RTVSPost2010PropOp29
 70
     1
102
RTVSPost2010Prop30
280
     1
102
RTVSPost2010PropOp30
 70
     1
102
RTVSPost2010Prop31
280
     0
102
RTVSPost2010PropOp31
 70
     1
102
RTVSPost2010Prop32
280
     0
102
RTVSPost2010PropOp32
 70
     1
102
RTVSPost2010Prop33
280
     0
102
RTVSPost2010PropOp33
 70
     1
102
RTVSPost2010Prop34
280
     0
102
RTVSPost2010PropOp34
 70
     1
102
RTVSPost2010Prop35
280
     0
102
RTVSPost2010PropOp35
 70
     1
102
RTVSPost2010Prop36
280
     0
102
RTVSPost2010PropOp36
 70
     1
102
RTVSPost2010Prop37
 90
       50
102
RTVSPost2010PropOp37
 70
     1
102
RTVSPost2010Prop38
140
0.0
102
RTVSPost2010PropOp38
 70
     1
102
RTVSPost2010Prop39
140
1.0
102
RTVSPost2010PropOp39
 70
     1
102
RTVSPost2010Prop40
 90
        0
102
RTVSPost2010PropOp40
 70
     1
102
RTVSPost2010Prop41ColorIndex
 90
       18
102
RTVSPost2010Prop41ColorRGB
 90
        0
102
RTVSPost2010PropOp41
 70
     1
102
RTVSPost2010Prop42
 90
       50
102
RTVSPost2010PropOp42
 70
     1
102
RTVSPost2010Prop43
 90
        3
102
RTVSPost2010PropOp43
 70
     1
102
RTVSPost2010Prop44ColorIndex
 90
        5
102
RTVSPost2010Prop44ColorRGB
 90
      255
102
RTVSPost2010PropOp44
 70
     1
102
RTVSPost2010Prop45
280
     0
102
RTVSPost2010PropOp45
 70
     1
102
RTVSPost2010Prop46
 90
       50
102
RTVSPost2010PropOp46
 70
     1
102
RTVSPost2010Prop47
 90
       50
102
RTVSPost2010PropOp47
 70
     1
102
RTVSPost2010Prop48
 90
       50
102
RTVSPost2010PropOp48
 70
     1
102
RTVSPost2010Prop49
280
     0
102
RTVSPost2010PropOp49
 70
     1
102
RTVSPost2010Prop50
 90
       50
102
RTVSPost2010PropOp50
 70
     1
102
RTVSPost2010Prop51ColorIndex
 90
      256
102
RTVSPost2010Prop51ColorRGB
 90
-16777216
102
RTVSPost2010PropOp51
 70
     0
102
RTVSPost2010Prop52
140
1.0
102
RTVSPost2010PropOp52
 70
     0
102
RTVSPost2010Prop53
 90
        2
102
RTVSPost2010PropOp53
 70
     1
102
RTVSPost2010Prop54
  1
strokes_ogs.tif
102
RTVSPost2010PropOp54
 70
     1
102
RTVSPost2010Prop55
280
     0
102
RTVSPost2010PropOp55
 70
     1
102
RTVSPost2010Prop56
140
1.0
102
RTVSPost2010PropOp56
 70
     1
102
RTVSPost2010Prop57
140
1.0
102
RTVSPost2010PropOp57
 70
     1
102
RTVSPropertyOp0
 70
     1
102
RTVSPropertyOp1
 70
     1
102
RTVSPropertyOp2
 70
     1
102
RTVSPropertyOp3
 70
     1
102
RTVSPropertyOp4
 70
     1
102
RTVSPropertyOp5
 70
     1
102
RTVSPropertyOp6
 70
     1
102
RTVSPropertyOp7
 70
     1
102
RTVSPropertyOp8
 70
     1
102
RTVSPropertyOp9
 70
     1
102
RTVSPropertyOp10
 70
     1
102
RTVSPropertyOp11
 70
     1
102
RTVSPropertyOp12
 70
     1
102
RTVSPropertyOp13
 70
     1
102
RTVSPropertyOp14
 70
     1
102
RTVSPropertyOp15
 70
     1
102
RTVSPropertyOp16
 70
     1
102
RTVSPropertyOp17
 70
     1
102
RTVSPropertyOp18
 70
     1
102
RTVSPropertyOp19
 70
     1
102
RTVSPropertyOp20
 70
     1
102
RTVSPropertyOp21
 70
     1
102
RTVSPropertyOp22
 70
     1
102
RTVSPropertyOp23
 70
     1
102
RTVSPropertyOp24
 70
     1
102
RTVSPropertyOp25
 70
     1
102
RTVSPropertyOp26
 70
     1
102
RTVSPropertyOp27
 70
     1
102
RTVSPropertyOp28
 70
     1
102
RTVSPropertyOp29
 70
     1
102
RTVSPropertyOp30
 70
     1
102
RTVSPropertyOp31
 70
     1
102
RTVSPropertyOp32
 70
     1
102
RTVSPropertyOp33
 70
     1
102
RTVSPropertyOp34
 70
     1
102
RTVSPropertyOp35
 70
     1
102
RTVSPropertyOp36
 70
     1
102
RTVSPropertyOp37
 70
     1
102
RTVSPropertyOp38
 70
     1
102
RTVSPropertyOp39
 70
     1
102
RTVSPropertyOp40
 70
     1
102
RTVSPropertyOp41
 70
     1
102
RTVSPropertyOp42
 70
     1
102
RTVSPropertyOp43
 70
     1
102
RTVSPropertyOp44
 70
     1
102
RTVSPropertyOp45
 70
     1
102
RTVSPropertyOp46
 70
     1
102
RTVSPropertyOp47
 70
     1
102
RTVSPropertyOp48
 70
     1
102
RTVSPropertyOp49
 70
     1
102
RTVSPropertyOp50
 70
     1
102
RTVSPropertyOp51
 70
     0
102
RTVSPropertyOp52
 70
     0
102
RTVSPropertyOp53
 70
     1
102
RTVSPropertyOp54
 70
     1
102
RTVSPropertyOp55
 70
     1
102
RTVSPropertyOp56
 70
     1
102
RTVSPropertyOp57
 70
     1
102
RTVSPropertyOp58
 70
     1
102
RTVSPropertyOp59
 70
     1
102
RTVSPropertyOp60
 70
     1
102
RTVSPropertyOp61
 70
     1
102
RTVSPropertyOp62
 70
     1
  0
XRECORD
  5
C906
102
{ACAD_REACTORS
330
C905
102
}
330
C905
100
AcDbXrecord
280
     1
102
RTVSPost2010Prop28
280
     0
102
RTVSPost2010PropOp28
 70
     1
102
RTVSPost2010Prop29
280
     1
102
RTVSPost2010PropOp29
 70
     1
102
RTVSPost2010Prop30
280
     1
102
RTVSPost2010PropOp30
 70
     1
102
RTVSPost2010Prop31
280
     0
102
RTVSPost2010PropOp31
 70
     1
102
RTVSPost2010Prop32
280
     0
102
RTVSPost2010PropOp32
 70
     1
102
RTVSPost2010Prop33
280
     0
102
RTVSPost2010PropOp33
 70
     1
102
RTVSPost2010Prop34
280
     0
102
RTVSPost2010PropOp34
 70
     1
102
RTVSPost2010Prop35
280
     0
102
RTVSPost2010PropOp35
 70
     1
102
RTVSPost2010Prop36
280
     0
102
RTVSPost2010PropOp36
 70
     1
102
RTVSPost2010Prop37
 90
       50
102
RTVSPost2010PropOp37
 70
     1
102
RTVSPost2010Prop38
140
0.0
102
RTVSPost2010PropOp38
 70
     1
102
RTVSPost2010Prop39
140
1.0
102
RTVSPost2010PropOp39
 70
     1
102
RTVSPost2010Prop40
 90
        0
102
RTVSPost2010PropOp40
 70
     1
102
RTVSPost2010Prop41ColorIndex
 90
       18
102
RTVSPost2010Prop41ColorRGB
 90
        0
102
RTVSPost2010PropOp41
 70
     1
102
RTVSPost2010Prop42
 90
       50
102
RTVSPost2010PropOp42
 70
     1
102
RTVSPost2010Prop43
 90
        3
102
RTVSPost2010PropOp43
 70
     1
102
RTVSPost2010Prop44ColorIndex
 90
        5
102
RTVSPost2010Prop44ColorRGB
 90
      255
102
RTVSPost2010PropOp44
 70
     1
102
RTVSPost2010Prop45
280
     0
102
RTVSPost2010PropOp45
 70
     1
102
RTVSPost2010Prop46
 90
       50
102
RTVSPost2010PropOp46
 70
     1
102
RTVSPost2010Prop47
 90
       50
102
RTVSPost2010PropOp47
 70
     1
102
RTVSPost2010Prop48
 90
       50
102
RTVSPost2010PropOp48
 70
     1
102
RTVSPost2010Prop49
280
     0
102
RTVSPost2010PropOp49
 70
     1
102
RTVSPost2010Prop50
 90
       50
102
RTVSPost2010PropOp50
 70
     1
102
RTVSPost2010Prop51ColorIndex
 90
      256
102
RTVSPost2010Prop51ColorRGB
 90
-16777216
102
RTVSPost2010PropOp51
 70
     0
102
RTVSPost2010Prop52
140
1.0
102
RTVSPost2010PropOp52
 70
     0
102
RTVSPost2010Prop53
 90
        2
102
RTVSPost2010PropOp53
 70
     1
102
RTVSPost2010Prop54
  1
strokes_ogs.tif
102
RTVSPost2010PropOp54
 70
     1
102
RTVSPost2010Prop55
280
     0
102
RTVSPost2010PropOp55
 70
     1
102
RTVSPost2010Prop56
140
1.0
102
RTVSPost2010PropOp56
 70
     1
102
RTVSPost2010Prop57
140
1.0
102
RTVSPost2010PropOp57
 70
     1
102
RTVSPropertyOp0
 70
     1
102
RTVSPropertyOp1
 70
     1
102
RTVSPropertyOp2
 70
     1
102
RTVSPropertyOp3
 70
     1
102
RTVSPropertyOp4
 70
     1
102
RTVSPropertyOp5
 70
     1
102
RTVSPropertyOp6
 70
     1
102
RTVSPropertyOp7
 70
     1
102
RTVSPropertyOp8
 70
     1
102
RTVSPropertyOp9
 70
     1
102
RTVSPropertyOp10
 70
     1
102
RTVSPropertyOp11
 70
     1
102
RTVSPropertyOp12
 70
     1
102
RTVSPropertyOp13
 70
     1
102
RTVSPropertyOp14
 70
     1
102
RTVSPropertyOp15
 70
     1
102
RTVSPropertyOp16
 70
     1
102
RTVSPropertyOp17
 70
     1
102
RTVSPropertyOp18
 70
     1
102
RTVSPropertyOp19
 70
     1
102
RTVSPropertyOp20
 70
     1
102
RTVSPropertyOp21
 70
     1
102
RTVSPropertyOp22
 70
     1
102
RTVSPropertyOp23
 70
     1
102
RTVSPropertyOp24
 70
     1
102
RTVSPropertyOp25
 70
     1
102
RTVSPropertyOp26
 70
     1
102
RTVSPropertyOp27
 70
     1
102
RTVSPropertyOp28
 70
     1
102
RTVSPropertyOp29
 70
     1
102
RTVSPropertyOp30
 70
     1
102
RTVSPropertyOp31
 70
     1
102
RTVSPropertyOp32
 70
     1
102
RTVSPropertyOp33
 70
     1
102
RTVSPropertyOp34
 70
     1
102
RTVSPropertyOp35
 70
     1
102
RTVSPropertyOp36
 70
     1
102
RTVSPropertyOp37
 70
     1
102
RTVSPropertyOp38
 70
     1
102
RTVSPropertyOp39
 70
     1
102
RTVSPropertyOp40
 70
     1
102
RTVSPropertyOp41
 70
     1
102
RTVSPropertyOp42
 70
     1
102
RTVSPropertyOp43
 70
     1
102
RTVSPropertyOp44
 70
     1
102
RTVSPropertyOp45
 70
     1
102
RTVSPropertyOp46
 70
     1
102
RTVSPropertyOp47
 70
     1
102
RTVSPropertyOp48
 70
     1
102
RTVSPropertyOp49
 70
     1
102
RTVSPropertyOp50
 70
     1
102
RTVSPropertyOp51
 70
     0
102
RTVSPropertyOp52
 70
     0
102
RTVSPropertyOp53
 70
     1
102
RTVSPropertyOp54
 70
     1
102
RTVSPropertyOp55
 70
     1
102
RTVSPropertyOp56
 70
     1
102
RTVSPropertyOp57
 70
     1
102
RTVSPropertyOp58
 70
     1
102
RTVSPropertyOp59
 70
     1
102
RTVSPropertyOp60
 70
     1
102
RTVSPropertyOp61
 70
     1
102
RTVSPropertyOp62
 70
     1
  0
ENDSEC
  0
EOF
