  0
SECTION
  2
HEADER
  9
$ACADVER
  1
AC1015
  9
$ACADMAINTVER
 70
    20
  9
$DWGCODEPAGE
  3
ANSI_932
  9
$INSBASE
 10
0.0
 20
0.0
 30
0.0
  9
$EXTMIN
 10
10.0
 20
9.999999999999998
 30
0.0
  9
$EXTMAX
 10
460.1499999999998
 20
317.7867439999999
 30
0.0
  9
$LIMMIN
 10
0.0
 20
0.0
  9
$LIMMAX
 10
495.0
 20
341.25
  9
$ORTHOMODE
 70
     1
  9
$REGENMODE
 70
     1
  9
$FILLMODE
 70
     1
  9
$QTEXTMODE
 70
     0
  9
$MIRRTEXT
 70
     1
  9
$LTSCALE
 40
20.0
  9
$ATTMODE
 70
     1
  9
$TEXTSIZE
 40
5.0
  9
$TRACEWID
 40
1.0
  9
$TEXTSTYLE
  7
STANDARD
  9
$CLAYER
  8
0
  9
$CELTYPE
  6
BYLAYER
  9
$CECOLOR
 62
   256
  9
$CELTSCALE
 40
1.0
  9
$DISPSILH
 70
     0
  9
$DIMSCALE
 40
1.0
  9
$DIMASZ
 40
3.0
  9
$DIMEXO
 40
1.0
  9
$DIMDLI
 40
10.0
  9
$DIMRND
 40
0.0
  9
$DIMDLE
 40
0.0
  9
$DIMEXE
 40
1.0
  9
$DIMTP
 40
0.0
  9
$DIMTM
 40
0.0
  9
$DIMTXT
 40
3.2
  9
$DIMCEN
 40
0.0
  9
$DIMTSZ
 40
0.0
  9
$DIMTOL
 70
     0
  9
$DIMLIM
 70
     0
  9
$DIMTIH
 70
     0
  9
$DIMTOH
 70
     0
  9
$DIMSE1
 70
     0
  9
$DIMSE2
 70
     0
  9
$DIMTAD
 70
     3
  9
$DIMZIN
 70
     8
  9
$DIMBLK
  1

  9
$DIMASO
 70
     1
  9
$DIMSHO
 70
     1
  9
$DIMPOST
  1

  9
$DIMAPOST
  1

  9
$DIMALT
 70
     0
  9
$DIMALTD
 70
     2
  9
$DIMALTF
 40
25.4
  9
$DIMLFAC
 40
1.0
  9
$DIMTOFL
 70
     1
  9
$DIMTVP
 40
0.0
  9
$DIMTIX
 70
     0
  9
$DIMSOXD
 70
     0
  9
$DIMSAH
 70
     1
  9
$DIMBLK1
  1
OPEN
  9
$DIMBLK2
  1
OPEN
  9
$DIMSTYLE
  2
STANDARD
  9
$DIMCLRD
 70
     0
  9
$DIMCLRE
 70
     0
  9
$DIMCLRT
 70
     0
  9
$DIMTFAC
 40
1.0
  9
$DIMGAP
 40
1.0
  9
$DIMJUST
 70
     0
  9
$DIMSD1
 70
     0
  9
$DIMSD2
 70
     0
  9
$DIMTOLJ
 70
     1
  9
$DIMTZIN
 70
     0
  9
$DIMALTZ
 70
     0
  9
$DIMALTTZ
 70
     0
  9
$DIMUPT
 70
     0
  9
$DIMDEC
 70
     4
  9
$DIMTDEC
 70
     4
  9
$DIMALTU
 70
     2
  9
$DIMALTTD
 70
     2
  9
$DIMTXSTY
  7
STANDARD
  9
$DIMAUNIT
 70
     0
  9
$DIMADEC
 70
     0
  9
$DIMALTRND
 40
0.0
  9
$DIMAZIN
 70
     0
  9
$DIMDSEP
 70
    46
  9
$DIMATFIT
 70
     3
  9
$DIMFRAC
 70
     0
  9
$DIMLDRBLK
  1
OPEN
  9
$DIMLUNIT
 70
     2
  9
$DIMLWD
 70
    -2
  9
$DIMLWE
 70
    -2
  9
$DIMTMOVE
 70
     0
  9
$LUNITS
 70
     2
  9
$LUPREC
 70
     4
  9
$SKETCHINC
 40
1.0
  9
$FILLETRAD
 40
0.0
  9
$AUNITS
 70
     0
  9
$AUPREC
 70
     2
  9
$MENU
  1
.
  9
$ELEVATION
 40
0.0
  9
$PELEVATION
 40
0.0
  9
$THICKNESS
 40
0.0
  9
$LIMCHECK
 70
     0
  9
$CHAMFERA
 40
0.6
  9
$CHAMFERB
 40
0.6
  9
$CHAMFERC
 40
0.0
  9
$CHAMFERD
 40
0.0
  9
$SKPOLY
 70
     0
  9
$TDCREATE
 40
2451301.421884954
  9
$TDUCREATE
 40
2451301.046884954
  9
$TDUPDATE
 40
2457192.688308102
  9
$TDUUPDATE
 40
2457192.313308102
  9
$TDINDWG
 40
0.0004010880
  9
$TDUSRTIMER
 40
0.0004007870
  9
$USRTIMER
 70
     1
  9
$ANGBASE
 50
0.0
  9
$ANGDIR
 70
     0
  9
$PDMODE
 70
     0
  9
$PDSIZE
 40
0.0
  9
$PLINEWID
 40
0.0
  9
$SPLFRAME
 70
     0
  9
$SPLINETYPE
 70
     6
  9
$SPLINESEGS
 70
     8
  9
$HANDSEED
  5
CC0D
  9
$SURFTAB1
 70
     6
  9
$SURFTAB2
 70
     6
  9
$SURFTYPE
 70
     6
  9
$SURFU
 70
     6
  9
$SURFV
 70
     6
  9
$UCSBASE
  2

  9
$UCSNAME
  2

  9
$UCSORG
 10
0.0
 20
0.0
 30
0.0
  9
$UCSXDIR
 10
1.0
 20
0.0
 30
0.0
  9
$UCSYDIR
 10
0.0
 20
1.0
 30
0.0
  9
$UCSORTHOREF
  2

  9
$UCSORTHOVIEW
 70
     0
  9
$UCSORGTOP
 10
0.0
 20
0.0
 30
0.0
  9
$UCSORGBOTTOM
 10
0.0
 20
0.0
 30
0.0
  9
$UCSORGLEFT
 10
0.0
 20
0.0
 30
0.0
  9
$UCSORGRIGHT
 10
0.0
 20
0.0
 30
0.0
  9
$UCSORGFRONT
 10
0.0
 20
0.0
 30
0.0
  9
$UCSORGBACK
 10
0.0
 20
0.0
 30
0.0
  9
$PUCSBASE
  2

  9
$PUCSNAME
  2

  9
$PUCSORG
 10
0.0
 20
0.0
 30
0.0
  9
$PUCSXDIR
 10
1.0
 20
0.0
 30
0.0
  9
$PUCSYDIR
 10
0.0
 20
1.0
 30
0.0
  9
$PUCSORTHOREF
  2

  9
$PUCSORTHOVIEW
 70
     0
  9
$PUCSORGTOP
 10
0.0
 20
0.0
 30
0.0
  9
$PUCSORGBOTTOM
 10
0.0
 20
0.0
 30
0.0
  9
$PUCSORGLEFT
 10
0.0
 20
0.0
 30
0.0
  9
$PUCSORGRIGHT
 10
0.0
 20
0.0
 30
0.0
  9
$PUCSORGFRONT
 10
0.0
 20
0.0
 30
0.0
  9
$PUCSORGBACK
 10
0.0
 20
0.0
 30
0.0
  9
$USERI1
 70
     0
  9
$USERI2
 70
     0
  9
$USERI3
 70
     0
  9
$USERI4
 70
     0
  9
$USERI5
 70
     0
  9
$USERR1
 40
0.0
  9
$USERR2
 40
0.0
  9
$USERR3
 40
0.0
  9
$USERR4
 40
0.0
  9
$USERR5
 40
0.0
  9
$WORLDVIEW
 70
     1
  9
$SHADEDGE
 70
     3
  9
$SHADEDIF
 70
    70
  9
$TILEMODE
 70
     1
  9
$MAXACTVP
 70
    16
  9
$PINSBASE
 10
0.0
 20
0.0
 30
0.0
  9
$PLIMCHECK
 70
     0
  9
$PEXTMIN
 10
1.000000000000000E+20
 20
1.000000000000000E+20
 30
1.000000000000000E+20
  9
$PEXTMAX
 10
-1.000000000000000E+20
 20
-1.000000000000000E+20
 30
-1.000000000000000E+20
  9
$PLIMMIN
 10
0.0
 20
0.0
  9
$PLIMMAX
 10
420.0
 20
297.0
  9
$UNITMODE
 70
     0
  9
$VISRETAIN
 70
     0
  9
$PLINEGEN
 70
     0
  9
$PSLTSCALE
 70
     0
  9
$TREEDEPTH
 70
  3020
  9
$CMLSTYLE
  2
STANDARD
  9
$CMLJUST
 70
     0
  9
$CMLSCALE
 40
1.0
  9
$PROXYGRAPHICS
 70
     1
  9
$MEASUREMENT
 70
     0
  9
$CELWEIGHT
370
    -1
  9
$ENDCAPS
280
     0
  9
$JOINSTYLE
280
     0
  9
$LWDISPLAY
290
     0
  9
$INSUNITS
 70
     0
  9
$HYPERLINKBASE
  1

  9
$STYLESHEET
  1

  9
$XEDIT
290
     1
  9
$CEPSNTYPE
380
     0
  9
$PSTYLEMODE
290
     1
  9
$FINGERPRINTGUID
  2
{E71835B9-D03F-4334-BED3-D08FEFC103A9}
  9
$VERSIONGUID
  2
{23EF4E3B-7EC2-4A69-95CB-253544325052}
  9
$EXTNAMES
290
     1
  9
$PSVPSCALE
 40
0.0
  9
$OLESTARTUP
290
     0
  0
ENDSEC
  0
SECTION
  2
CLASSES
  0
CLASS
  1
ACDBDICTIONARYWDFLT
  2
AcDbDictionaryWithDefault
  3
ObjectDBX Classes
 90
        0
280
     0
281
     0
  0
CLASS
  1
ACDBPLACEHOLDER
  2
AcDbPlaceHolder
  3
ObjectDBX Classes
 90
        0
280
     0
281
     0
  0
CLASS
  1
LAYOUT
  2
AcDbLayout
  3
ObjectDBX Classes
 90
        0
280
     0
281
     0
  0
CLASS
  1
DICTIONARYVAR
  2
AcDbDictionaryVar
  3
ObjectDBX Classes
 90
        0
280
     0
281
     0
  0
CLASS
  1
MATERIAL
  2
AcDbMaterial
  3
ObjectDBX Classes
 90
     1153
280
     0
281
     0
  0
CLASS
  1
VISUALSTYLE
  2
AcDbVisualStyle
  3
ObjectDBX Classes
 90
     4095
280
     0
281
     0
  0
CLASS
  1
TABLESTYLE
  2
AcDbTableStyle
  3
ObjectDBX Classes
 90
     4095
280
     0
281
     0
  0
CLASS
  1
SCALE
  2
AcDbScale
  3
ObjectDBX Classes
 90
     1153
280
     0
281
     0
  0
CLASS
  1
MLEADERSTYLE
  2
AcDbMLeaderStyle
  3
ACDB_MLEADERSTYLE_CLASS
 90
     4095
280
     0
281
     0
  0
CLASS
  1
ACDBSECTIONVIEWSTYLE
  2
AcDbSectionViewStyle
  3
ObjectDBX Classes
 90
     1025
280
     0
281
     0
  0
CLASS
  1
ACDBDETAILVIEWSTYLE
  2
AcDbDetailViewStyle
  3
ObjectDBX Classes
 90
     1025
280
     0
281
     0
  0
CLASS
  1
CELLSTYLEMAP
  2
AcDbCellStyleMap
  3
ObjectDBX Classes
 90
     1152
280
     0
281
     0
  0
ENDSEC
  0
SECTION
  2
TABLES
  0
TABLE
  2
VPORT
  5
C962
330
0
100
AcDbSymbolTable
 70
     1
  0
VPORT
  5
CB56
330
C962
100
AcDbSymbolTableRecord
100
AcDbViewportTableRecord
  2
*ACTIVE
 70
     0
 10
0.0
 20
0.0
 11
1.0
 21
1.0
 12
328.3068981180779
 22
163.8948734521049
 13
0.0
 23
0.0
 14
10.0
 24
10.0
 15
10.0
 25
10.0
 16
0.0
 26
0.0
 36
1.0
 17
0.0
 27
0.0
 37
0.0
 40
311.2167321122475
 41
2.35006605019815
 42
50.0
 43
0.0
 44
0.0
 50
0.0
 51
0.0
 71
     0
 72
   100
 73
     1
 74
     0
 75
     0
 76
     0
 77
     0
 78
     0
281
     0
 65
     1
110
0.0
120
0.0
130
0.0
111
1.0
121
0.0
131
0.0
112
0.0
122
1.0
132
0.0
 79
     0
146
0.0
1001
ACAD_NAV_VCDISPLAY
1070
     3
  0
ENDTAB
  0
TABLE
  2
LTYPE
  5
C95F
330
0
100
AcDbSymbolTable
 70
     4
  0
LTYPE
  5
C96D
330
C95F
100
AcDbSymbolTableRecord
100
AcDbLinetypeTableRecord
  2
BYBLOCK
 70
     0
  3

 72
    65
 73
     0
 40
0.0
  0
LTYPE
  5
C96E
330
C95F
100
AcDbSymbolTableRecord
100
AcDbLinetypeTableRecord
  2
BYLAYER
 70
     0
  3

 72
    65
 73
     0
 40
0.0
  0
LTYPE
  5
C96F
330
C95F
100
AcDbSymbolTableRecord
100
AcDbLinetypeTableRecord
  2
CONTINUOUS
 70
     0
  3
Solid line
 72
    65
 73
     0
 40
0.0
  0
LTYPE
  5
C97D
330
C95F
100
AcDbSymbolTableRecord
100
AcDbLinetypeTableRecord
  2
DASHED
 70
     0
  3
__ __ __ __ __ __ __ __ __ __ __ __ __ __ __ __
 72
    65
 73
     2
 40
0.75
 49
0.5
 74
     0
 49
-0.25
 74
     0
  0
LTYPE
  5
C97E
330
C95F
100
AcDbSymbolTableRecord
100
AcDbLinetypeTableRecord
  2
CENTER
 70
     0
  3
____ _ ____ _ ____ _ ____ _ ____ _ ____ _ ____ 
 72
    65
 73
     4
 40
2.0
 49
1.25
 74
     0
 49
-0.25
 74
     0
 49
0.25
 74
     0
 49
-0.25
 74
     0
  0
LTYPE
  5
C97F
330
C95F
100
AcDbSymbolTableRecord
100
AcDbLinetypeTableRecord
  2
PHANTOM
 70
     0
  3
______  __  __  ______  __  __  ______  __  __ 
 72
    65
 73
     6
 40
2.5
 49
1.25
 74
     0
 49
-0.25
 74
     0
 49
0.25
 74
     0
 49
-0.25
 74
     0
 49
0.25
 74
     0
 49
-0.25
 74
     0
  0
ENDTAB
  0
TABLE
  2
LAYER
  5
C95C
330
0
100
AcDbSymbolTable
 70
     8
  0
LAYER
  5
C96A
102
{ACAD_XDICTIONARY
360
CBB1
102
}
330
C95C
100
AcDbSymbolTableRecord
100
AcDbLayerTableRecord
  2
0
 70
     0
 62
     7
  6
CONTINUOUS
370
    -3
390
CB5F
  0
LAYER
  5
C980
102
{ACAD_XDICTIONARY
360
CBB3
102
}
330
C95C
100
AcDbSymbolTableRecord
100
AcDbLayerTableRecord
  2
4
 70
     0
 62
     1
  6
CENTER
370
    -3
390
CB5F
  0
LAYER
  5
C981
102
{ACAD_XDICTIONARY
360
CBB5
102
}
330
C95C
100
AcDbSymbolTableRecord
100
AcDbLayerTableRecord
  2
5
 70
     0
 62
     6
  6
PHANTOM
370
    -3
390
CB5F
  0
LAYER
  5
C982
102
{ACAD_XDICTIONARY
360
CBB7
102
}
330
C95C
100
AcDbSymbolTableRecord
100
AcDbLayerTableRecord
  2
1
 70
     0
 62
     7
  6
CONTINUOUS
370
    -3
390
CB5F
  0
LAYER
  5
C983
102
{ACAD_XDICTIONARY
360
CBB9
102
}
330
C95C
100
AcDbSymbolTableRecord
100
AcDbLayerTableRecord
  2
2
 70
     0
 62
     4
  6
CONTINUOUS
370
    -3
390
CB5F
  0
LAYER
  5
C984
102
{ACAD_XDICTIONARY
360
CBBB
102
}
330
C95C
100
AcDbSymbolTableRecord
100
AcDbLayerTableRecord
  2
3
 70
     0
 62
     2
  6
DASHED
370
    -3
390
CB5F
  0
LAYER
  5
C985
102
{ACAD_XDICTIONARY
360
CBBD
102
}
330
C95C
100
AcDbSymbolTableRecord
100
AcDbLayerTableRecord
  2
6
 70
     0
 62
     5
  6
CONTINUOUS
370
    -3
390
CB5F
  0
LAYER
  5
C986
102
{ACAD_XDICTIONARY
360
CBBF
102
}
330
C95C
100
AcDbSymbolTableRecord
100
AcDbLayerTableRecord
  2
7
 70
     0
 62
     3
  6
CONTINUOUS
370
    -3
390
CB5F
  0
ENDTAB
  0
TABLE
  2
STYLE
  5
C95D
330
0
100
AcDbSymbolTable
 70
     1
  0
STYLE
  5
C96B
330
C95D
100
AcDbSymbolTableRecord
100
AcDbTextStyleTableRecord
  2
STANDARD
 70
     0
 40
0.0
 41
1.0
 50
0.0
 71
     0
 42
5.0
  3
txt
  4

  0
ENDTAB
  0
TABLE
  2
VIEW
  5
C960
330
0
100
AcDbSymbolTable
 70
     0
  0
ENDTAB
  0
TABLE
  2
UCS
  5
C961
330
0
100
AcDbSymbolTable
 70
     0
  0
ENDTAB
  0
TABLE
  2
APPID
  5
C963
330
0
100
AcDbSymbolTable
 70
     3
  0
APPID
  5
C96C
330
C963
100
AcDbSymbolTableRecord
100
AcDbRegAppTableRecord
  2
ACAD
 70
     0
  0
APPID
  5
CBCB
330
C963
100
AcDbSymbolTableRecord
100
AcDbRegAppTableRecord
  2
ACAD_NAV_VCDISPLAY
 70
     0
  0
APPID
  5
CC04
330
C963
100
AcDbSymbolTableRecord
100
AcDbRegAppTableRecord
  2
ACAD_MLEADERVER
 70
     0
  0
ENDTAB
  0
TABLE
  2
DIMSTYLE
  5
C964
330
0
100
AcDbSymbolTable
 70
     1
100
AcDbDimStyleTable
 71
     0
  0
DIMSTYLE
105
C988
330
C964
100
AcDbSymbolTableRecord
100
AcDbDimStyleTableRecord
  2
STANDARD
 70
     0
 41
3.0
 42
1.0
 43
10.0
 44
1.0
 73
     0
 74
     0
 77
     3
 78
     8
140
3.2
141
0.0
147
1.0
172
     1
173
     1
284
     8
285
     8
286
     8
340
C96B
  0
ENDTAB
  0
TABLE
  2
BLOCK_RECORD
  5
C95B
330
0
100
AcDbSymbolTable
 70
     1
  0
BLOCK_RECORD
  5
C978
102
{ACAD_XDICTIONARY
360
CB59
102
}
330
C95B
100
AcDbSymbolTableRecord
100
AcDbBlockTableRecord
  2
*MODEL_SPACE
340
CBAD
  0
BLOCK_RECORD
  5
C974
102
{ACAD_XDICTIONARY
360
CB57
102
}
330
C95B
100
AcDbSymbolTableRecord
100
AcDbBlockTableRecord
  2
*PAPER_SPACE
340
CBAE
  0
BLOCK_RECORD
  5
C990
330
C95B
100
AcDbSymbolTableRecord
100
AcDbBlockTableRecord
  2
_OPEN
340
0
  0
ENDTAB
  0
ENDSEC
  0
SECTION
  2
BLOCKS
  0
BLOCK
  5
C979
330
C978
100
AcDbEntity
  8
0
100
AcDbBlockBegin
  2
*MODEL_SPACE
 70
     0
 10
0.0
 20
0.0
 30
0.0
  3
*MODEL_SPACE
  1

  0
ENDBLK
  5
C97A
330
C978
100
AcDbEntity
  8
0
100
AcDbBlockEnd
  0
BLOCK
  5
C975
330
C974
100
AcDbEntity
 67
     1
  8
0
100
AcDbBlockBegin
  2
*PAPER_SPACE
 70
     0
 10
0.0
 20
0.0
 30
0.0
  3
*PAPER_SPACE
  1

  0
ENDBLK
  5
C976
330
C974
100
AcDbEntity
 67
     1
  8
0
100
AcDbBlockEnd
  0
BLOCK
  5
C991
330
C990
100
AcDbEntity
  8
0
100
AcDbBlockBegin
  2
_OPEN
 70
     0
 10
0.0
 20
0.0
 30
0.0
  3
_OPEN
  1

  0
LINE
  5
C992
330
C990
100
AcDbEntity
  8
0
  6
ByBlock
 62
     0
100
AcDbLine
 10
-1.0
 20
0.166667
 30
0.0
 11
0.0
 21
0.0
 31
0.0
  0
LINE
  5
C993
330
C990
100
AcDbEntity
  8
0
  6
ByBlock
 62
     0
100
AcDbLine
 10
0.0
 20
0.0
 30
0.0
 11
-1.0
 21
-0.166667
 31
0.0
  0
LINE
  5
C994
330
C990
100
AcDbEntity
  8
0
  6
ByBlock
 62
     0
100
AcDbLine
 10
0.0
 20
0.0
 30
0.0
 11
-1.0
 21
0.0
 31
0.0
  0
ENDBLK
  5
C995
330
C990
100
AcDbEntity
  8
0
100
AcDbBlockEnd
  0
ENDSEC
  0
SECTION
  2
ENTITIES
  0
TEXT
  5
C996
330
C978
100
AcDbEntity
  8
7
  6
Continuous
100
AcDbText
 10
10.0
 20
18.0
 30
0.0
 40
3.0
  1
TYPE No.604HB2-PA
100
AcDbText
  0
TEXT
  5
C997
330
C978
100
AcDbEntity
  8
7
  6
Continuous
100
AcDbText
 10
10.0
 20
26.0
 30
0.0
 40
3.0
  1
CODE No.19079
100
AcDbText
  0
TEXT
  5
C998
330
C978
100
AcDbEntity
  8
1
  6
Continuous
100
AcDbText
 10
10.0
 20
10.0
 30
0.0
 40
1.399999999999999
  1
LAYER
100
AcDbText
  0
TEXT
  5
C999
330
C978
100
AcDbEntity
  8
1
  6
Continuous
100
AcDbText
 10
17.97951099999998
 20
10.04873699999998
 30
0.0
 40
1.399999999999999
  1
1
100
AcDbText
  0
TEXT
  5
C99A
330
C978
100
AcDbEntity
  8
7
  6
Continuous
100
AcDbText
 10
29.97951099999999
 20
10.04873699999998
 30
0.0
 40
1.399999999999999
  1
7
100
AcDbText
  0
TEXT
  5
C99B
330
C978
100
AcDbEntity
  8
4
  6
CENTER
100
AcDbText
 10
23.97951099999999
 20
10.04873699999998
 30
0.0
 40
1.399999999999999
  1
4
100
AcDbText
  0
TEXT
  5
C99C
330
C978
100
AcDbEntity
  8
3
  6
DASHED
100
AcDbText
 10
21.979511
 20
10.04873699999998
 30
0.0
 40
1.399999999999999
  1
3
100
AcDbText
  0
TEXT
  5
C99D
330
C978
100
AcDbEntity
  8
2
  6
Continuous
100
AcDbText
 10
19.97951099999999
 20
10.04873699999998
 30
0.0
 40
1.399999999999999
  1
2
100
AcDbText
  0
TEXT
  5
C99E
330
C978
100
AcDbEntity
  8
6
  6
Continuous
100
AcDbText
 10
27.979511
 20
10.04873699999998
 30
0.0
 40
1.399999999999999
  1
6
100
AcDbText
  0
TEXT
  5
C99F
330
C978
100
AcDbEntity
  8
5
  6
PHANTOM
100
AcDbText
 10
25.97951099999999
 20
10.04873699999998
 30
0.0
 40
1.399999999999999
  1
5
100
AcDbText
  0
ARC
  5
C9A0
330
C978
100
AcDbEntity
  8
1
  6
Continuous
100
AcDbCircle
 10
174.15
 20
167.1499999999998
 30
0.0
 40
10.34999999999999
100
AcDbArc
 50
197.113317
 51
342.886683
  0
LINE
  5
C9A1
330
C978
100
AcDbEntity
  8
1
  6
Continuous
100
AcDbLine
 10
134.15
 20
214.15
 30
0.0
 11
214.15
 21
214.15
 31
0.0
  0
CIRCLE
  5
C9A2
330
C978
100
AcDbEntity
  8
1
  6
Continuous
100
AcDbCircle
 10
174.15
 20
167.1499999999998
 30
0.0
 40
7.0
  0
LINE
  5
C9A3
330
C978
100
AcDbEntity
  8
1
  6
Continuous
100
AcDbLine
 10
134.15
 20
211.5499999999999
 30
0.0
 11
149.65
 21
211.5499999999999
 31
0.0
  0
LINE
  5
C9A4
330
C978
100
AcDbEntity
  8
1
  6
Continuous
100
AcDbLine
 10
198.65
 20
211.5499999999999
 30
0.0
 11
214.15
 21
211.5499999999999
 31
0.0
  0
LINE
  5
C9A5
330
C978
100
AcDbEntity
  8
1
  6
Continuous
100
AcDbLine
 10
181.774871
 20
270.8
 30
0.0
 11
166.5251299999999
 21
270.8
 31
0.0
  0
LINE
  5
C9A6
330
C978
100
AcDbEntity
  8
1
  6
Continuous
100
AcDbLine
 10
214.15
 20
307.1499999999999
 30
0.0
 11
214.15
 21
271.15
 31
0.0
  0
LINE
  5
C9A7
330
C978
100
AcDbEntity
  8
1
  6
Continuous
100
AcDbLine
 10
134.15
 20
307.1499999999999
 30
0.0
 11
134.15
 21
271.15
 31
0.0
  0
ARC
  5
C9A8
330
C978
100
AcDbEntity
  8
1
  6
Continuous
100
AcDbCircle
 10
181.774871
 20
263.8999999999999
 30
0.0
 40
6.9
100
AcDbArc
 50
52.977647
 51
90.0
  0
LINE
  5
C9A9
330
C978
100
AcDbEntity
  8
1
  6
Continuous
100
AcDbLine
 10
198.65
 20
265.1499999999999
 30
0.0
 11
198.65
 21
267.75
 31
0.0
  0
ARC
  5
C9AA
330
C978
100
AcDbEntity
  8
1
  6
Continuous
100
AcDbCircle
 10
166.5251299999999
 20
263.8999999999999
 30
0.0
 40
6.9
100
AcDbArc
 50
90.0
 51
127.022353
  0
LINE
  5
C9AB
330
C978
100
AcDbEntity
  8
1
  6
Continuous
100
AcDbLine
 10
149.65
 20
265.1499999999999
 30
0.0
 11
149.65
 21
267.75
 31
0.0
  0
LINE
  5
C9AC
330
C978
100
AcDbEntity
  8
1
  6
Continuous
100
AcDbLine
 10
181.774871
 20
307.5
 30
0.0
 11
166.5251299999999
 21
307.5
 31
0.0
  0
ARC
  5
C9AD
330
C978
100
AcDbEntity
  8
1
  6
Continuous
100
AcDbCircle
 10
181.774871
 20
314.3999999999999
 30
0.0
 40
6.9
100
AcDbArc
 50
270.0
 51
307.0223529999998
  0
LINE
  5
C9AE
330
C978
100
AcDbEntity
  8
1
  6
Continuous
100
AcDbLine
 10
198.65
 20
313.1499999999999
 30
0.0
 11
198.65
 21
310.55
 31
0.0
  0
ARC
  5
C9AF
330
C978
100
AcDbEntity
  8
1
  6
Continuous
100
AcDbCircle
 10
166.5251299999999
 20
314.3999999999999
 30
0.0
 40
6.9
100
AcDbArc
 50
232.977647
 51
270.0
  0
LINE
  5
C9B0
330
C978
100
AcDbEntity
  8
1
  6
Continuous
100
AcDbLine
 10
149.65
 20
313.1499999999999
 30
0.0
 11
149.65
 21
310.55
 31
0.0
  0
ARC
  5
C9B1
330
C978
100
AcDbEntity
  8
1
  6
Continuous
100
AcDbCircle
 10
207.1499999999999
 20
271.15
 30
0.0
 40
7.0
100
AcDbArc
 50
210.5754569999998
 51
0.0
  0
ARC
  5
C9B2
330
C978
100
AcDbEntity
  8
1
  6
Continuous
100
AcDbCircle
 10
207.1499999999999
 20
307.1499999999999
 30
0.0
 40
7.0
100
AcDbArc
 50
0.0
 51
149.424543
  0
ARC
  5
C9B3
330
C978
100
AcDbEntity
  8
1
  6
Continuous
100
AcDbCircle
 10
141.15
 20
271.15
 30
0.0
 40
7.0
100
AcDbArc
 50
180.0
 51
329.4245430000001
  0
ARC
  5
C9B4
330
C978
100
AcDbEntity
  8
1
  6
Continuous
100
AcDbCircle
 10
141.15
 20
307.1499999999999
 30
0.0
 40
7.0
100
AcDbArc
 50
30.575457
 51
180.0
  0
ARC
  5
C9B5
330
C978
100
AcDbEntity
  8
1
  6
Continuous
100
AcDbCircle
 10
199.83184
 20
266.8262829999998
 30
0.0
 40
1.5
100
AcDbArc
 50
30.575457
 51
141.9890729999999
  0
ARC
  5
C9B6
330
C978
100
AcDbEntity
  8
1
  6
Continuous
100
AcDbCircle
 10
199.83184
 20
311.473718
 30
0.0
 40
1.5
100
AcDbArc
 50
218.0109269999999
 51
329.4245430000001
  0
ARC
  5
C9B7
330
C978
100
AcDbEntity
  8
1
  6
Continuous
100
AcDbCircle
 10
148.46816
 20
311.473718
 30
0.0
 40
1.5
100
AcDbArc
 50
210.5754569999998
 51
321.989073
  0
ARC
  5
C9B8
330
C978
100
AcDbEntity
  8
1
  6
Continuous
100
AcDbCircle
 10
148.46816
 20
266.8262829999998
 30
0.0
 40
1.5
100
AcDbArc
 50
38.010927
 51
149.424543
  0
LINE
  5
C9B9
330
C978
100
AcDbEntity
  8
1
  6
Continuous
100
AcDbLine
 10
164.25825
 20
164.104384
 30
0.0
 11
148.8494739999999
 21
214.15
 31
0.0
  0
LINE
  5
C9BA
330
C978
100
AcDbEntity
  8
1
  6
Continuous
100
AcDbLine
 10
184.04175
 20
164.104384
 30
0.0
 11
199.450526
 21
214.15
 31
0.0
  0
LINE
  5
C9BB
330
C978
100
AcDbEntity
  8
1
  6
Continuous
100
AcDbLine
 10
272.1499999999999
 20
214.15
 30
0.0
 11
272.1499999999999
 21
211.5499999999999
 31
0.0
  0
LINE
  5
C9BC
330
C978
100
AcDbEntity
  8
1
  6
Continuous
100
AcDbLine
 10
322.1499999999999
 20
214.15
 30
0.0
 11
322.1499999999999
 21
211.5499999999999
 31
0.0
  0
LINE
  5
C9BD
330
C978
100
AcDbEntity
  8
1
  6
Continuous
100
AcDbLine
 10
272.1499999999999
 20
214.15
 30
0.0
 11
322.1499999999999
 21
214.15
 31
0.0
  0
LINE
  5
C9BE
330
C978
100
AcDbEntity
  8
1
  6
Continuous
100
AcDbLine
 10
272.1499999999999
 20
211.5499999999999
 30
0.0
 11
322.1499999999999
 21
211.5499999999999
 31
0.0
  0
LINE
  5
C9BF
330
C978
100
AcDbEntity
  8
1
  6
Continuous
100
AcDbLine
 10
321.15
 20
200.15
 30
0.0
 11
321.15
 21
210.55
 31
0.0
  0
LINE
  5
C9C0
330
C978
100
AcDbEntity
  8
1
  6
Continuous
100
AcDbLine
 10
318.55
 20
200.15
 30
0.0
 11
318.55
 21
210.55
 31
0.0
  0
ARC
  5
C9C1
330
C978
100
AcDbEntity
  8
1
  6
Continuous
100
AcDbCircle
 10
174.15
 20
167.1499999999998
 30
0.0
 40
25.0
100
AcDbArc
 50
131.5696749999998
 51
48.430325
  0
CIRCLE
  5
C9C2
330
C978
100
AcDbEntity
  8
1
  6
Continuous
100
AcDbCircle
 10
207.1499999999999
 20
271.15
 30
0.0
 40
3.25
  0
CIRCLE
  5
C9C3
330
C978
100
AcDbEntity
  8
1
  6
Continuous
100
AcDbCircle
 10
207.1499999999999
 20
307.1499999999999
 30
0.0
 40
3.25
  0
CIRCLE
  5
C9C4
330
C978
100
AcDbEntity
  8
1
  6
Continuous
100
AcDbCircle
 10
141.15
 20
307.1499999999999
 30
0.0
 40
3.25
  0
CIRCLE
  5
C9C5
330
C978
100
AcDbEntity
  8
1
  6
Continuous
100
AcDbCircle
 10
141.15
 20
271.15
 30
0.0
 40
3.25
  0
LINE
  5
C9C6
330
C978
100
AcDbEntity
  8
1
  6
Continuous
100
AcDbLine
 10
315.5
 20
156.8
 30
0.0
 11
312.9
 21
156.8
 31
0.0
  0
ARC
  5
C9C7
330
C978
100
AcDbEntity
  8
1
  6
Continuous
100
AcDbCircle
 10
183.2124999999998
 20
289.1499999999999
 30
0.0
 40
20.6875
100
AcDbArc
 50
312.0750220000001
 51
47.924978
  0
ARC
  5
C9C8
330
C978
100
AcDbEntity
  8
1
  6
Continuous
100
AcDbCircle
 10
195.4
 20
275.6499999999999
 30
0.0
 40
2.5
100
AcDbArc
 50
132.0750219999998
 51
312.0750220000001
  0
ARC
  5
C9C9
330
C978
100
AcDbEntity
  8
1
  6
Continuous
100
AcDbCircle
 10
183.2124999999998
 20
289.1499999999999
 30
0.0
 40
15.6875
100
AcDbArc
 50
312.0750220000001
 51
47.924978
  0
ARC
  5
C9CA
330
C978
100
AcDbEntity
  8
1
  6
Continuous
100
AcDbCircle
 10
195.4
 20
302.6499999999999
 30
0.0
 40
2.5
100
AcDbArc
 50
47.924978
 51
227.9249779999998
  0
ARC
  5
C9CB
330
C978
100
AcDbEntity
  8
1
  6
Continuous
100
AcDbCircle
 10
152.9
 20
302.6499999999999
 30
0.0
 40
2.5
100
AcDbArc
 50
312.0750220000001
 51
132.0750219999998
  0
ARC
  5
C9CC
330
C978
100
AcDbEntity
  8
1
  6
Continuous
100
AcDbCircle
 10
165.0875
 20
289.1499999999999
 30
0.0
 40
15.6875
100
AcDbArc
 50
132.0750219999998
 51
227.9249779999998
  0
ARC
  5
C9CD
330
C978
100
AcDbEntity
  8
1
  6
Continuous
100
AcDbCircle
 10
152.9
 20
275.6499999999999
 30
0.0
 40
2.5
100
AcDbArc
 50
227.9249779999998
 51
47.924978
  0
ARC
  5
C9CE
330
C978
100
AcDbEntity
  8
1
  6
Continuous
100
AcDbCircle
 10
165.0875
 20
289.1499999999999
 30
0.0
 40
20.6875
100
AcDbArc
 50
132.0750219999998
 51
227.9249779999998
  0
LINE
  5
C9CF
330
C978
100
AcDbEntity
  8
1
  6
Continuous
100
AcDbLine
 10
143.9
 20
211.05
 30
0.0
 11
143.9
 21
211.5499999999999
 31
0.0
  0
ARC
  5
C9D0
330
C978
100
AcDbEntity
  8
1
  6
Continuous
100
AcDbCircle
 10
198.65
 20
292.0241149999998
 30
0.0
 40
21.125885
100
AcDbArc
 50
90.0
 51
127.022353
  0
ARC
  5
C9D1
330
C978
100
AcDbEntity
  8
1
  6
Continuous
100
AcDbCircle
 10
149.65
 20
292.0241149999998
 30
0.0
 40
21.125885
100
AcDbArc
 50
52.977647
 51
90.0
  0
ARC
  5
C9D2
330
C978
100
AcDbEntity
  8
1
  6
Continuous
100
AcDbCircle
 10
198.65
 20
286.275885
 30
0.0
 40
21.125885
100
AcDbArc
 50
232.977647
 51
270.0
  0
ARC
  5
C9D3
330
C978
100
AcDbEntity
  8
1
  6
Continuous
100
AcDbCircle
 10
149.65
 20
286.275885
 30
0.0
 40
21.125885
100
AcDbArc
 50
270.0
 51
307.0223529999998
  0
LINE
  5
C9D4
330
C978
100
AcDbEntity
  8
1
  6
Continuous
100
AcDbLine
 10
280.6499999999999
 20
211.05
 30
0.0
 11
280.6499999999999
 21
211.5499999999999
 31
0.0
  0
LINE
  5
C9D5
330
C978
100
AcDbEntity
  8
1
  6
Continuous
100
AcDbLine
 10
313.6499999999998
 20
211.05
 30
0.0
 11
313.6499999999998
 21
211.5499999999999
 31
0.0
  0
LINE
  5
C9D6
330
C978
100
AcDbEntity
  8
1
  6
Continuous
100
AcDbLine
 10
283.65
 20
210.55
 30
0.0
 11
310.65
 21
210.55
 31
0.0
  0
LINE
  5
C9D7
330
C978
100
AcDbEntity
  8
1
  6
Continuous
100
AcDbLine
 10
146.9
 20
210.55
 30
0.0
 11
149.957895
 21
210.55
 31
0.0
  0
LINE
  5
C9D8
330
C978
100
AcDbEntity
  8
1
  6
Continuous
100
AcDbLine
 10
143.9
 20
211.05
 30
0.0
 11
149.8347369999999
 21
211.05
 31
0.0
  0
ARC
  5
C9D9
330
C978
100
AcDbEntity
  8
1
  6
Continuous
100
AcDbCircle
 10
146.9
 20
219.7999999999999
 30
0.0
 40
9.25
100
AcDbArc
 50
251.075356
 51
270.0
  0
LINE
  5
C9DA
330
C978
100
AcDbEntity
  8
1
  6
Continuous
100
AcDbLine
 10
204.4
 20
211.05
 30
0.0
 11
204.4
 21
211.5499999999999
 31
0.0
  0
LINE
  5
C9DB
330
C978
100
AcDbEntity
  8
1
  6
Continuous
100
AcDbLine
 10
201.4
 20
210.55
 30
0.0
 11
198.3421059999998
 21
210.55
 31
0.0
  0
LINE
  5
C9DC
330
C978
100
AcDbEntity
  8
1
  6
Continuous
100
AcDbLine
 10
204.4
 20
211.05
 30
0.0
 11
198.465263
 21
211.05
 31
0.0
  0
ARC
  5
C9DD
330
C978
100
AcDbEntity
  8
1
  6
Continuous
100
AcDbCircle
 10
201.4
 20
219.7999999999999
 30
0.0
 40
9.25
100
AcDbArc
 50
270.0
 51
288.9246439999999
  0
LINE
  5
C9DE
330
C978
100
AcDbEntity
  8
1
  6
Continuous
100
AcDbLine
 10
280.6499999999999
 20
211.05
 30
0.0
 11
313.6499999999998
 21
211.05
 31
0.0
  0
ARC
  5
C9DF
330
C978
100
AcDbEntity
  8
1
  6
Continuous
100
AcDbCircle
 10
283.65
 20
219.7999999999999
 30
0.0
 40
9.25
100
AcDbArc
 50
251.075356
 51
270.0
  0
ARC
  5
C9E0
330
C978
100
AcDbEntity
  8
1
  6
Continuous
100
AcDbCircle
 10
310.65
 20
219.7999999999999
 30
0.0
 40
9.25
100
AcDbArc
 50
270.0
 51
288.9246439999999
  0
LINE
  5
C9E1
330
C978
100
AcDbEntity
  8
1
  6
Continuous
100
AcDbLine
 10
166.544206
 20
163.7040749999999
 30
0.0
 11
166.544206
 21
209.65
 31
0.0
  0
LINE
  5
C9E2
330
C978
100
AcDbEntity
  8
1
  6
Continuous
100
AcDbLine
 10
181.755794
 20
163.7040749999999
 30
0.0
 11
181.755794
 21
209.65
 31
0.0
  0
LINE
  5
C9E3
330
C978
100
AcDbEntity
  8
4
  6
CENTER
100
AcDbLine
 10
217.1499999999999
 20
289.1499999999999
 30
0.0
 11
131.15
 21
289.1499999999999
 31
0.0
  0
LINE
  5
C9E4
330
C978
100
AcDbEntity
  8
4
  6
CENTER
100
AcDbLine
 10
297.1499999999998
 20
139.15
 30
0.0
 11
297.1499999999998
 21
217.1499999999999
 31
0.0
  0
LINE
  5
C9E5
330
C978
100
AcDbEntity
  8
4
  6
CENTER
100
AcDbLine
 10
271.038377
 20
167.1499999999998
 30
0.0
 11
326.5383770000001
 21
167.1499999999998
 31
0.0
  0
LINE
  5
C9E6
330
C978
100
AcDbEntity
  8
4
  6
CENTER
100
AcDbLine
 10
213.3999999999999
 20
271.15
 30
0.0
 11
200.8999999999999
 21
271.15
 31
0.0
  0
LINE
  5
C9E7
330
C978
100
AcDbEntity
  8
4
  6
CENTER
100
AcDbLine
 10
207.1499999999999
 20
277.4
 30
0.0
 11
207.1499999999999
 21
264.9
 31
0.0
  0
LINE
  5
C9E8
330
C978
100
AcDbEntity
  8
4
  6
CENTER
100
AcDbLine
 10
213.3999999999999
 20
307.1499999999999
 30
0.0
 11
200.8999999999999
 21
307.1499999999999
 31
0.0
  0
LINE
  5
C9E9
330
C978
100
AcDbEntity
  8
4
  6
CENTER
100
AcDbLine
 10
207.1499999999999
 20
313.3999999999999
 30
0.0
 11
207.1499999999999
 21
300.8999999999999
 31
0.0
  0
LINE
  5
C9EA
330
C978
100
AcDbEntity
  8
4
  6
CENTER
100
AcDbLine
 10
147.4
 20
307.1499999999999
 30
0.0
 11
134.8999999999997
 21
307.1499999999999
 31
0.0
  0
LINE
  5
C9EB
330
C978
100
AcDbEntity
  8
4
  6
CENTER
100
AcDbLine
 10
141.15
 20
313.3999999999999
 30
0.0
 11
141.15
 21
300.8999999999999
 31
0.0
  0
LINE
  5
C9EC
330
C978
100
AcDbEntity
  8
4
  6
CENTER
100
AcDbLine
 10
147.4
 20
271.15
 30
0.0
 11
134.8999999999997
 21
271.15
 31
0.0
  0
LINE
  5
C9ED
330
C978
100
AcDbEntity
  8
4
  6
CENTER
100
AcDbLine
 10
141.15
 20
277.4
 30
0.0
 11
141.15
 21
264.9
 31
0.0
  0
LINE
  5
C9EE
330
C978
100
AcDbEntity
  8
4
  6
CENTER
100
AcDbLine
 10
174.15
 20
263.038338
 30
0.0
 11
174.15
 21
317.7867439999999
 31
0.0
  0
LINE
  5
C9EF
330
C978
100
AcDbEntity
  8
4
  6
CENTER
100
AcDbLine
 10
141.15
 20
216.355136
 30
0.0
 11
141.15
 21
209.228359
 31
0.0
  0
LINE
  5
C9F0
330
C978
100
AcDbEntity
  8
4
  6
CENTER
100
AcDbLine
 10
207.1499999999999
 20
216.355136
 30
0.0
 11
207.1499999999999
 21
209.228359
 31
0.0
  0
LINE
  5
C9F1
330
C978
100
AcDbEntity
  8
4
  6
CENTER
100
AcDbLine
 10
279.1499999999999
 20
216.348162
 30
0.0
 11
279.1499999999999
 21
209.4426129999999
 31
0.0
  0
LINE
  5
C9F2
330
C978
100
AcDbEntity
  8
4
  6
CENTER
100
AcDbLine
 10
315.1499999999999
 20
216.348162
 30
0.0
 11
315.1499999999999
 21
209.4426129999999
 31
0.0
  0
LINE
  5
C9F3
330
C978
100
AcDbEntity
  8
4
  6
CENTER
100
AcDbLine
 10
146.15
 20
167.1499999999998
 30
0.0
 11
202.15
 21
167.1499999999998
 31
0.0
  0
LINE
  5
C9F4
330
C978
100
AcDbEntity
  8
4
  6
CENTER
100
AcDbLine
 10
174.15
 20
139.15
 30
0.0
 11
174.15
 21
218.134341
 31
0.0
  0
LINE
  5
C9F5
330
C978
100
AcDbEntity
  8
1
  6
Continuous
100
AcDbLine
 10
166.65
 20
309.5
 30
0.0
 11
181.6499999999998
 21
309.5
 31
0.0
  0
LINE
  5
C9F6
330
C978
100
AcDbEntity
  8
1
  6
Continuous
100
AcDbLine
 10
166.65
 20
307.5
 30
0.0
 11
166.65
 21
309.5
 31
0.0
  0
LINE
  5
C9F7
330
C978
100
AcDbEntity
  8
1
  6
Continuous
100
AcDbLine
 10
181.6499999999998
 20
307.5
 30
0.0
 11
181.6499999999998
 21
309.5
 31
0.0
  0
LINE
  5
C9F8
330
C978
100
AcDbEntity
  8
1
  6
Continuous
100
AcDbLine
 10
167.1499999999998
 20
268.473762
 30
0.0
 11
167.1499999999998
 21
270.8
 31
0.0
  0
LINE
  5
C9F9
330
C978
100
AcDbEntity
  8
1
  6
Continuous
100
AcDbLine
 10
181.15
 20
268.473762
 30
0.0
 11
181.15
 21
270.8
 31
0.0
  0
ARC
  5
C9FA
330
C978
100
AcDbEntity
  8
1
  6
Continuous
100
AcDbCircle
 10
174.15
 20
276.3
 30
0.0
 40
10.5
100
AcDbArc
 50
228.1896849999998
 51
311.810315
  0
LINE
  5
C9FB
330
C978
100
AcDbEntity
  8
1
  6
Continuous
100
AcDbLine
 10
167.1499999999998
 20
268.473762
 30
0.0
 11
181.15
 21
268.473762
 31
0.0
  0
LINE
  5
C9FC
330
C978
100
AcDbEntity
  8
1
  6
Continuous
100
AcDbLine
 10
170.75
 20
315.3
 30
0.0
 11
177.55
 21
315.3
 31
0.0
  0
LINE
  5
C9FD
330
C978
100
AcDbEntity
  8
1
  6
Continuous
100
AcDbLine
 10
170.15
 20
314.6999999999998
 30
0.0
 11
170.15
 21
314.5
 31
0.0
  0
LINE
  5
C9FE
330
C978
100
AcDbEntity
  8
1
  6
Continuous
100
AcDbLine
 10
178.15
 20
314.6999999999998
 30
0.0
 11
178.15
 21
314.5
 31
0.0
  0
LINE
  5
C9FF
330
C978
100
AcDbEntity
  8
1
  6
Continuous
100
AcDbLine
 10
170.15
 20
314.6999999999998
 30
0.0
 11
178.15
 21
314.6999999999998
 31
0.0
  0
LINE
  5
CA00
330
C978
100
AcDbEntity
  8
1
  6
Continuous
100
AcDbLine
 10
172.1499999999998
 20
309.5
 30
0.0
 11
174.15
 21
307.5
 31
0.0
  0
LINE
  5
CA01
330
C978
100
AcDbEntity
  8
1
  6
Continuous
100
AcDbLine
 10
174.15
 20
309.5
 30
0.0
 11
176.15
 21
307.5
 31
0.0
  0
ARC
  5
CA02
330
C978
100
AcDbEntity
  8
1
  6
Continuous
100
AcDbCircle
 10
171.15
 20
305.8349359999999
 30
0.0
 40
8.665063999999999
100
AcDbArc
 50
69.743842
 51
110.256158
  0
ARC
  5
CA03
330
C978
100
AcDbEntity
  8
1
  6
Continuous
100
AcDbCircle
 10
171.15
 20
318.1650639999999
 30
0.0
 40
8.665063999999999
100
AcDbArc
 50
249.7438419999999
 51
290.256158
  0
LINE
  5
CA04
330
C978
100
AcDbEntity
  8
1
  6
Continuous
100
AcDbLine
 10
180.15
 20
314.5
 30
0.0
 11
168.1499999999998
 21
314.5
 31
0.0
  0
LINE
  5
CA05
330
C978
100
AcDbEntity
  8
1
  6
Continuous
100
AcDbLine
 10
168.1499999999998
 20
309.5
 30
0.0
 11
168.1499999999998
 21
314.5
 31
0.0
  0
ARC
  5
CA06
330
C978
100
AcDbEntity
  8
1
  6
Continuous
100
AcDbCircle
 10
177.15
 20
305.8349359999999
 30
0.0
 40
8.665063999999999
100
AcDbArc
 50
69.743842
 51
110.256158
  0
ARC
  5
CA07
330
C978
100
AcDbEntity
  8
1
  6
Continuous
100
AcDbCircle
 10
177.15
 20
318.1650639999999
 30
0.0
 40
8.665063999999999
100
AcDbArc
 50
249.7438419999999
 51
290.256158
  0
LINE
  5
CA08
330
C978
100
AcDbEntity
  8
1
  6
Continuous
100
AcDbLine
 10
174.15
 20
313.964102
 30
0.0
 11
174.15
 21
310.0358979999999
 31
0.0
  0
LINE
  5
CA09
330
C978
100
AcDbEntity
  8
1
  6
Continuous
100
AcDbLine
 10
180.15
 20
309.5
 30
0.0
 11
180.15
 21
314.5
 31
0.0
  0
LINE
  5
CA0A
330
C978
100
AcDbEntity
  8
2
  6
Continuous
100
AcDbLine
 10
177.4734999999998
 20
314.5
 30
0.0
 11
177.4734999999998
 21
315.3
 31
0.0
  0
LINE
  5
CA0B
330
C978
100
AcDbEntity
  8
2
  6
Continuous
100
AcDbLine
 10
170.8265
 20
314.5
 30
0.0
 11
170.8265
 21
315.3
 31
0.0
  0
ARC
  5
CA0C
330
C978
100
AcDbEntity
  8
1
  6
Continuous
100
AcDbCircle
 10
328.964102
 20
167.1499999999998
 30
0.0
 40
11.464102
100
AcDbArc
 50
162.412046
 51
197.5879539999999
  0
ARC
  5
CA0D
330
C978
100
AcDbEntity
  8
1
  6
Continuous
100
AcDbCircle
 10
311.0358979999999
 20
167.1499999999998
 30
0.0
 40
11.464102
100
AcDbArc
 50
342.4120459999999
 51
17.587954
  0
LINE
  5
CA0E
330
C978
100
AcDbEntity
  8
1
  6
Continuous
100
AcDbLine
 10
322.5
 20
161.15
 30
0.0
 11
322.5
 21
173.15
 31
0.0
  0
LINE
  5
CA0F
330
C978
100
AcDbEntity
  8
1
  6
Continuous
100
AcDbLine
 10
321.964102
 20
174.078203
 30
0.0
 11
322.5
 21
173.15
 31
0.0
  0
LINE
  5
CA10
330
C978
100
AcDbEntity
  8
1
  6
Continuous
100
AcDbLine
 10
321.964102
 20
174.078203
 30
0.0
 11
318.2362470000001
 21
174.078203
 31
0.0
  0
LINE
  5
CA11
330
C978
100
AcDbEntity
  8
1
  6
Continuous
100
AcDbLine
 10
321.964102
 20
170.614102
 30
0.0
 11
318.0358979999998
 21
170.614102
 31
0.0
  0
ARC
  5
CA12
330
C978
100
AcDbEntity
  8
1
  6
Continuous
100
AcDbCircle
 10
319.433013
 20
172.3461519999999
 30
0.0
 40
3.066986999999998
100
AcDbArc
 50
325.6157529999999
 51
25.615753
  0
ARC
  5
CA13
330
C978
100
AcDbEntity
  8
1
  6
Continuous
100
AcDbCircle
 10
320.5669869999999
 20
172.3461519999999
 30
0.0
 40
3.066986999999998
100
AcDbArc
 50
196.1292639999998
 51
214.384247
  0
ARC
  5
CA14
330
C978
100
AcDbEntity
  8
1
  6
Continuous
100
AcDbCircle
 10
320.5669869999999
 20
161.9538479999999
 30
0.0
 40
3.066986999999998
100
AcDbArc
 50
145.615753
 51
205.615753
  0
ARC
  5
CA15
330
C978
100
AcDbEntity
  8
1
  6
Continuous
100
AcDbCircle
 10
319.433013
 20
161.9538479999999
 30
0.0
 40
3.066986999999998
100
AcDbArc
 50
334.384247
 51
34.38424699999998
  0
LINE
  5
CA16
330
C978
100
AcDbEntity
  8
1
  6
Continuous
100
AcDbLine
 10
321.964102
 20
163.685898
 30
0.0
 11
318.0358979999998
 21
163.685898
 31
0.0
  0
LINE
  5
CA17
330
C978
100
AcDbEntity
  8
1
  6
Continuous
100
AcDbLine
 10
321.964102
 20
160.221797
 30
0.0
 11
318.0358979999998
 21
160.221797
 31
0.0
  0
LINE
  5
CA18
330
C978
100
AcDbEntity
  8
1
  6
Continuous
100
AcDbLine
 10
321.964102
 20
160.221797
 30
0.0
 11
322.5
 21
161.15
 31
0.0
  0
LINE
  5
CA19
330
C978
100
AcDbEntity
  8
1
  6
Continuous
100
AcDbLine
 10
318.0358979999998
 20
160.221797
 30
0.0
 11
317.5
 21
161.15
 31
0.0
  0
CIRCLE
  5
CA1A
330
C978
100
AcDbEntity
  8
1
  6
Continuous
100
AcDbCircle
 10
420.15
 20
167.1499999999998
 30
0.0
 40
7.5
  0
CIRCLE
  5
CA1B
330
C978
100
AcDbEntity
  8
1
  6
Continuous
100
AcDbCircle
 10
420.15
 20
167.1499999999998
 30
0.0
 40
4.0
  0
CIRCLE
  5
CA1C
330
C978
100
AcDbEntity
  8
2
  6
Continuous
100
AcDbCircle
 10
420.15
 20
167.1499999999998
 30
0.0
 40
3.3235
  0
LINE
  5
CA1D
330
C978
100
AcDbEntity
  8
1
  6
Continuous
100
AcDbLine
 10
414.1499999999998
 20
170.614102
 30
0.0
 11
414.1499999999998
 21
163.685898
 31
0.0
  0
LINE
  5
CA1E
330
C978
100
AcDbEntity
  8
1
  6
Continuous
100
AcDbLine
 10
426.1499999999998
 20
170.614102
 30
0.0
 11
426.1499999999998
 21
163.685898
 31
0.0
  0
CIRCLE
  5
CA1F
330
C978
100
AcDbEntity
  8
1
  6
Continuous
100
AcDbCircle
 10
420.15
 20
167.1499999999998
 30
0.0
 40
6.0
  0
LINE
  5
CA20
330
C978
100
AcDbEntity
  8
1
  6
Continuous
100
AcDbLine
 10
420.15
 20
160.221797
 30
0.0
 11
426.1499999999998
 21
163.685898
 31
0.0
  0
LINE
  5
CA21
330
C978
100
AcDbEntity
  8
1
  6
Continuous
100
AcDbLine
 10
420.15
 20
160.221797
 30
0.0
 11
414.1499999999998
 21
163.685898
 31
0.0
  0
LINE
  5
CA22
330
C978
100
AcDbEntity
  8
1
  6
Continuous
100
AcDbLine
 10
426.1499999999998
 20
170.614102
 30
0.0
 11
420.15
 21
174.078203
 31
0.0
  0
LINE
  5
CA23
330
C978
100
AcDbEntity
  8
1
  6
Continuous
100
AcDbLine
 10
414.1499999999998
 20
170.614102
 30
0.0
 11
420.15
 21
174.078203
 31
0.0
  0
LINE
  5
CA24
330
C978
100
AcDbEntity
  8
1
  6
Continuous
100
AcDbLine
 10
170.15
 20
314.6999999999998
 30
0.0
 11
170.75
 21
315.3
 31
0.0
  0
LINE
  5
CA25
330
C978
100
AcDbEntity
  8
1
  6
Continuous
100
AcDbLine
 10
177.55
 20
315.3
 30
0.0
 11
178.15
 21
314.6999999999998
 31
0.0
  0
LINE
  5
CA26
330
C978
100
AcDbEntity
  8
1
  6
Continuous
100
AcDbLine
 10
214.15
 20
214.15
 30
0.0
 11
214.15
 21
211.5499999999999
 31
0.0
  0
LINE
  5
CA27
330
C978
100
AcDbEntity
  8
1
  6
Continuous
100
AcDbLine
 10
134.15
 20
214.15
 30
0.0
 11
134.15
 21
211.5499999999999
 31
0.0
  0
LINE
  5
CA28
330
C978
100
AcDbEntity
  8
1
  6
Continuous
100
AcDbLine
 10
412.544206
 20
163.7040749999999
 30
0.0
 11
412.544206
 21
209.65
 31
0.0
  0
LINE
  5
CA29
330
C978
100
AcDbEntity
  8
1
  6
Continuous
100
AcDbLine
 10
410.2582499999998
 20
164.104384
 30
0.0
 11
394.8494740000001
 21
214.15
 31
0.0
  0
LINE
  5
CA2A
330
C978
100
AcDbEntity
  8
1
  6
Continuous
100
AcDbLine
 10
427.755794
 20
163.7040749999999
 30
0.0
 11
427.755794
 21
209.65
 31
0.0
  0
LINE
  5
CA2B
330
C978
100
AcDbEntity
  8
1
  6
Continuous
100
AcDbLine
 10
430.04175
 20
164.104384
 30
0.0
 11
445.4505259999998
 21
214.15
 31
0.0
  0
LINE
  5
CA2C
330
C978
100
AcDbEntity
  8
4
  6
CENTER
100
AcDbLine
 10
420.15
 20
139.15
 30
0.0
 11
420.15
 21
218.134341
 31
0.0
  0
LINE
  5
CA2D
330
C978
100
AcDbEntity
  8
4
  6
CENTER
100
AcDbLine
 10
448.1499999999998
 20
167.1499999999998
 30
0.0
 11
392.1499999999999
 21
167.1499999999998
 31
0.0
  0
ARC
  5
CA2E
330
C978
100
AcDbEntity
  8
1
  6
Continuous
100
AcDbCircle
 10
420.15
 20
167.1499999999998
 30
0.0
 40
25.0
100
AcDbArc
 50
131.5696749999998
 51
48.430325
  0
ARC
  5
CA2F
330
C978
100
AcDbEntity
  8
1
  6
Continuous
100
AcDbCircle
 10
420.15
 20
167.1499999999998
 30
0.0
 40
10.34999999999999
100
AcDbArc
 50
197.113317
 51
342.886683
  0
LINE
  5
CA30
330
C978
100
AcDbEntity
  8
1
  6
Continuous
100
AcDbLine
 10
460.1499999999998
 20
214.15
 30
0.0
 11
380.1499999999998
 21
214.15
 31
0.0
  0
LINE
  5
CA31
330
C978
100
AcDbEntity
  8
1
  6
Continuous
100
AcDbLine
 10
460.1499999999998
 20
211.5499999999999
 30
0.0
 11
444.6499999999998
 21
211.5499999999999
 31
0.0
  0
LINE
  5
CA32
330
C978
100
AcDbEntity
  8
1
  6
Continuous
100
AcDbLine
 10
460.1499999999998
 20
214.15
 30
0.0
 11
460.1499999999998
 21
211.5499999999999
 31
0.0
  0
LINE
  5
CA33
330
C978
100
AcDbEntity
  8
1
  6
Continuous
100
AcDbLine
 10
447.4
 20
210.55
 30
0.0
 11
444.342105
 21
210.55
 31
0.0
  0
LINE
  5
CA34
330
C978
100
AcDbEntity
  8
4
  6
CENTER
100
AcDbLine
 10
453.15
 20
216.355136
 30
0.0
 11
453.15
 21
209.228359
 31
0.0
  0
LINE
  5
CA35
330
C978
100
AcDbEntity
  8
1
  6
Continuous
100
AcDbLine
 10
450.3999999999998
 20
211.05
 30
0.0
 11
450.3999999999998
 21
211.5499999999999
 31
0.0
  0
ARC
  5
CA36
330
C978
100
AcDbEntity
  8
1
  6
Continuous
100
AcDbCircle
 10
447.4
 20
219.7999999999999
 30
0.0
 40
9.25
100
AcDbArc
 50
270.0
 51
288.9246439999999
  0
LINE
  5
CA37
330
C978
100
AcDbEntity
  8
1
  6
Continuous
100
AcDbLine
 10
450.3999999999998
 20
211.05
 30
0.0
 11
444.465263
 21
211.05
 31
0.0
  0
LINE
  5
CA38
330
C978
100
AcDbEntity
  8
1
  6
Continuous
100
AcDbLine
 10
395.6499999999999
 20
211.5499999999999
 30
0.0
 11
380.1499999999998
 21
211.5499999999999
 31
0.0
  0
LINE
  5
CA39
330
C978
100
AcDbEntity
  8
1
  6
Continuous
100
AcDbLine
 10
389.9
 20
211.05
 30
0.0
 11
395.834737
 21
211.05
 31
0.0
  0
LINE
  5
CA3A
330
C978
100
AcDbEntity
  8
1
  6
Continuous
100
AcDbLine
 10
392.8999999999999
 20
210.55
 30
0.0
 11
395.957894
 21
210.55
 31
0.0
  0
LINE
  5
CA3B
330
C978
100
AcDbEntity
  8
1
  6
Continuous
100
AcDbLine
 10
380.1499999999998
 20
214.15
 30
0.0
 11
380.1499999999998
 21
211.5499999999999
 31
0.0
  0
LINE
  5
CA3C
330
C978
100
AcDbEntity
  8
4
  6
CENTER
100
AcDbLine
 10
387.1499999999999
 20
216.355136
 30
0.0
 11
387.1499999999999
 21
209.228359
 31
0.0
  0
ARC
  5
CA3D
330
C978
100
AcDbEntity
  8
1
  6
Continuous
100
AcDbCircle
 10
392.8999999999999
 20
219.7999999999999
 30
0.0
 40
9.25
100
AcDbArc
 50
251.075356
 51
270.0
  0
LINE
  5
CA3E
330
C978
100
AcDbEntity
  8
1
  6
Continuous
100
AcDbLine
 10
389.9
 20
211.05
 30
0.0
 11
389.9
 21
211.5499999999999
 31
0.0
  0
LINE
  5
CA3F
330
C978
100
AcDbEntity
  8
1
  6
Continuous
100
AcDbLine
 10
312.9
 20
156.8
 30
0.0
 11
312.9
 21
210.8278209999999
 31
0.0
  0
LINE
  5
CA40
330
C978
100
AcDbEntity
  8
1
  6
Continuous
100
AcDbLine
 10
315.5
 20
156.8
 30
0.0
 11
315.5
 21
160.279867
 31
0.0
  0
LINE
  5
CA41
330
C978
100
AcDbEntity
  8
1
  6
Continuous
100
AcDbLine
 10
312.65
 20
171.15
 30
0.0
 11
312.9
 21
171.15
 31
0.0
  0
LINE
  5
CA42
330
C978
100
AcDbEntity
  8
1
  6
Continuous
100
AcDbLine
 10
312.65
 20
163.15
 30
0.0
 11
312.9
 21
163.15
 31
0.0
  0
ARC
  5
CA43
330
C978
100
AcDbEntity
  8
1
  6
Continuous
100
AcDbCircle
 10
317.5499999999999
 20
210.55
 30
0.0
 40
1.0
100
AcDbArc
 50
0.0
 51
90.0
  0
ARC
  5
CA44
330
C978
100
AcDbEntity
  8
1
  6
Continuous
100
AcDbCircle
 10
317.5499999999999
 20
210.55
 30
0.0
 40
3.6
100
AcDbArc
 50
0.0
 51
16.12762
  0
ARC
  5
CA45
330
C978
100
AcDbEntity
  8
1
  6
Continuous
100
AcDbCircle
 10
203.0499999999999
 20
200.15
 30
0.0
 40
115.5
100
AcDbArc
 50
343.86863
 51
0.0
  0
ARC
  5
CA46
330
C978
100
AcDbEntity
  8
1
  6
Continuous
100
AcDbCircle
 10
340.8999999999999
 20
160.279867
 30
0.0
 40
28.0
100
AcDbArc
 50
163.8686299999999
 51
180.0
  0
ARC
  5
CA47
330
C978
100
AcDbEntity
  8
1
  6
Continuous
100
AcDbCircle
 10
203.0499999999999
 20
200.15
 30
0.0
 40
118.1
100
AcDbArc
 50
343.86863
 51
0.0
  0
ARC
  5
CA48
330
C978
100
AcDbEntity
  8
1
  6
Continuous
100
AcDbCircle
 10
340.8999999999999
 20
160.279867
 30
0.0
 40
25.4
100
AcDbArc
 50
163.8686299999999
 51
180.0
  0
ARC
  5
CA49
330
C978
100
AcDbEntity
  8
1
  6
Continuous
100
AcDbCircle
 10
276.75
 20
210.55
 30
0.0
 40
3.6
100
AcDbArc
 50
163.8723799999999
 51
180.0
  0
ARC
  5
CA4A
330
C978
100
AcDbEntity
  8
1
  6
Continuous
100
AcDbCircle
 10
276.75
 20
210.55
 30
0.0
 40
1.0
100
AcDbArc
 50
90.0
 51
180.0
  0
LINE
  5
CA4B
330
C978
100
AcDbEntity
  8
1
  6
Continuous
100
AcDbLine
 10
273.15
 20
200.15
 30
0.0
 11
273.15
 21
210.55
 31
0.0
  0
LINE
  5
CA4C
330
C978
100
AcDbEntity
  8
1
  6
Continuous
100
AcDbLine
 10
275.7499999999998
 20
200.15
 30
0.0
 11
275.7499999999998
 21
210.55
 31
0.0
  0
LINE
  5
CA4D
330
C978
100
AcDbEntity
  8
1
  6
Continuous
100
AcDbLine
 10
281.3999999999999
 20
156.8
 30
0.0
 11
281.3999999999999
 21
210.8278209999999
 31
0.0
  0
ARC
  5
CA4E
330
C978
100
AcDbEntity
  8
1
  6
Continuous
100
AcDbCircle
 10
391.25
 20
200.15
 30
0.0
 40
118.1
100
AcDbArc
 50
180.0
 51
196.13137
  0
ARC
  5
CA4F
330
C978
100
AcDbEntity
  8
1
  6
Continuous
100
AcDbCircle
 10
391.25
 20
200.15
 30
0.0
 40
115.5
100
AcDbArc
 50
180.0
 51
196.13137
  0
ARC
  5
CA50
330
C978
100
AcDbEntity
  8
1
  6
Continuous
100
AcDbCircle
 10
253.4
 20
160.279867
 30
0.0
 40
25.4
100
AcDbArc
 50
0.0
 51
16.13137
  0
ARC
  5
CA51
330
C978
100
AcDbEntity
  8
1
  6
Continuous
100
AcDbCircle
 10
253.4
 20
160.279867
 30
0.0
 40
28.0
100
AcDbArc
 50
0.0
 51
16.13137
  0
LINE
  5
CA52
330
C978
100
AcDbEntity
  8
1
  6
Continuous
100
AcDbLine
 10
278.8
 20
156.8
 30
0.0
 11
278.8
 21
160.279867
 31
0.0
  0
LINE
  5
CA53
330
C978
100
AcDbEntity
  8
1
  6
Continuous
100
AcDbLine
 10
278.8
 20
156.8
 30
0.0
 11
281.3999999999999
 21
156.8
 31
0.0
  0
LINE
  5
CA54
330
C978
100
AcDbEntity
  8
1
  6
Continuous
100
AcDbLine
 10
281.6499999999999
 20
171.15
 30
0.0
 11
281.3999999999999
 21
171.15
 31
0.0
  0
LINE
  5
CA55
330
C978
100
AcDbEntity
  8
1
  6
Continuous
100
AcDbLine
 10
281.6499999999999
 20
163.15
 30
0.0
 11
281.3999999999999
 21
163.15
 31
0.0
  0
LINE
  5
CA56
330
C978
100
AcDbEntity
  8
1
  6
Continuous
100
AcDbLine
 10
317.5
 20
171.015699
 30
0.0
 11
317.5
 21
159.6499999999998
 31
0.0
  0
LINE
  5
CA57
330
C978
100
AcDbEntity
  8
1
  6
Continuous
100
AcDbLine
 10
323.3
 20
163.75
 30
0.0
 11
322.6999999999998
 21
163.15
 31
0.0
  0
LINE
  5
CA58
330
C978
100
AcDbEntity
  8
1
  6
Continuous
100
AcDbLine
 10
322.6999999999998
 20
171.15
 30
0.0
 11
323.3
 21
170.55
 31
0.0
  0
LINE
  5
CA59
330
C978
100
AcDbEntity
  8
2
  6
Continuous
100
AcDbLine
 10
322.5
 20
170.4735
 30
0.0
 11
323.3
 21
170.4735
 31
0.0
  0
LINE
  5
CA5A
330
C978
100
AcDbEntity
  8
2
  6
Continuous
100
AcDbLine
 10
322.5
 20
163.8265
 30
0.0
 11
323.3
 21
163.8265
 31
0.0
  0
LINE
  5
CA5B
330
C978
100
AcDbEntity
  8
1
  6
Continuous
100
AcDbLine
 10
317.5
 20
167.1499999999998
 30
0.0
 11
316.094889
 21
165.7448889999998
 31
0.0
  0
LINE
  5
CA5C
330
C978
100
AcDbEntity
  8
1
  6
Continuous
100
AcDbLine
 10
317.5
 20
169.15
 30
0.0
 11
316.8222819999999
 21
168.472282
 31
0.0
  0
LINE
  5
CA5D
330
C978
100
AcDbEntity
  8
1
  6
Continuous
100
AcDbLine
 10
322.6999999999998
 20
171.15
 30
0.0
 11
322.6999999999998
 21
163.15
 31
0.0
  0
LINE
  5
CA5E
330
C978
100
AcDbEntity
  8
1
  6
Continuous
100
AcDbLine
 10
322.6999999999998
 20
163.15
 30
0.0
 11
322.5
 21
163.15
 31
0.0
  0
LINE
  5
CA5F
330
C978
100
AcDbEntity
  8
1
  6
Continuous
100
AcDbLine
 10
322.6999999999998
 20
171.15
 30
0.0
 11
322.5
 21
171.15
 31
0.0
  0
LINE
  5
CA60
330
C978
100
AcDbEntity
  8
1
  6
Continuous
100
AcDbLine
 10
323.3
 20
170.55
 30
0.0
 11
323.3
 21
163.75
 31
0.0
  0
LINE
  5
CA61
330
C978
100
AcDbEntity
  8
1
  6
Continuous
100
AcDbLine
 10
315.5
 20
159.6499999999998
 30
0.0
 11
317.5
 21
159.6499999999998
 31
0.0
  0
LINE
  5
CA62
330
C978
100
AcDbEntity
  8
1
  6
Continuous
100
AcDbLine
 10
276.473762
 20
172.3286919999999
 30
0.0
 11
276.473762
 21
160.15
 31
0.0
  0
ARC
  5
CA63
330
C978
100
AcDbEntity
  8
1
  6
Continuous
100
AcDbCircle
 10
284.2999999999999
 20
167.1499999999998
 30
0.0
 40
10.5
100
AcDbArc
 50
141.021887
 51
221.810315
  0
LINE
  5
CA64
330
C978
100
AcDbEntity
  8
1
  6
Continuous
100
AcDbLine
 10
276.473762
 20
160.15
 30
0.0
 11
278.8
 21
160.15
 31
0.0
  0
ARC
  5
CA65
330
C978
100
AcDbEntity
  8
1
  6
Continuous
100
AcDbCircle
 10
-42.95
 20
200.15
 30
0.0
 40
115.5
100
AcDbArc
 50
343.86863
 51
0.0
  0
ARC
  5
CA66
330
C978
100
AcDbEntity
  8
1
  6
Continuous
100
AcDbCircle
 10
-42.95
 20
200.15
 30
0.0
 40
118.1
100
AcDbArc
 50
343.86863
 51
0.0
  0
LINE
  5
CA67
330
C978
100
AcDbEntity
  8
1
  6
Continuous
100
AcDbLine
 10
66.90000000000001
 20
156.8
 30
0.0
 11
66.90000000000001
 21
210.8278209999999
 31
0.0
  0
ARC
  5
CA68
330
C978
100
AcDbEntity
  8
1
  6
Continuous
100
AcDbCircle
 10
145.25
 20
200.15
 30
0.0
 40
118.1
100
AcDbArc
 50
180.0
 51
196.13137
  0
ARC
  5
CA69
330
C978
100
AcDbEntity
  8
1
  6
Continuous
100
AcDbCircle
 10
145.25
 20
200.15
 30
0.0
 40
115.5
100
AcDbArc
 50
180.0
 51
196.13137
  0
LINE
  5
CA6A
330
C978
100
AcDbEntity
  8
1
  6
Continuous
100
AcDbLine
 10
35.4
 20
156.8
 30
0.0
 11
35.4
 21
210.8278209999999
 31
0.0
  0
LINE
  5
CA6B
330
C978
100
AcDbEntity
  8
4
  6
CENTER
100
AcDbLine
 10
51.15
 20
139.15
 30
0.0
 11
51.15
 21
217.1499999999999
 31
0.0
  0
LINE
  5
CA6C
330
C978
100
AcDbEntity
  8
4
  6
CENTER
100
AcDbLine
 10
77.261623
 20
167.1499999999998
 30
0.0
 11
21.761623
 21
167.1499999999998
 31
0.0
  0
LINE
  5
CA6D
330
C978
100
AcDbEntity
  8
1
  6
Continuous
100
AcDbLine
 10
71.826238
 20
172.3286919999999
 30
0.0
 11
71.826238
 21
160.15
 31
0.0
  0
ARC
  5
CA6E
330
C978
100
AcDbEntity
  8
1
  6
Continuous
100
AcDbCircle
 10
64.0
 20
167.1499999999998
 30
0.0
 40
10.5
100
AcDbArc
 50
318.189685
 51
38.978113
  0
LINE
  5
CA6F
330
C978
100
AcDbEntity
  8
1
  6
Continuous
100
AcDbLine
 10
71.826238
 20
160.15
 30
0.0
 11
69.5
 21
160.15
 31
0.0
  0
LINE
  5
CA70
330
C978
100
AcDbEntity
  8
1
  6
Continuous
100
AcDbLine
 10
66.65
 20
163.15
 30
0.0
 11
66.90000000000001
 21
163.15
 31
0.0
  0
LINE
  5
CA71
330
C978
100
AcDbEntity
  8
1
  6
Continuous
100
AcDbLine
 10
66.65
 20
171.15
 30
0.0
 11
66.90000000000001
 21
171.15
 31
0.0
  0
LINE
  5
CA72
330
C978
100
AcDbEntity
  8
1
  6
Continuous
100
AcDbLine
 10
69.5
 20
156.8
 30
0.0
 11
66.90000000000001
 21
156.8
 31
0.0
  0
LINE
  5
CA73
330
C978
100
AcDbEntity
  8
1
  6
Continuous
100
AcDbLine
 10
69.5
 20
156.8
 30
0.0
 11
69.5
 21
160.279867
 31
0.0
  0
ARC
  5
CA74
330
C978
100
AcDbEntity
  8
1
  6
Continuous
100
AcDbCircle
 10
94.9
 20
160.279867
 30
0.0
 40
28.0
100
AcDbArc
 50
163.8686299999999
 51
180.0
  0
ARC
  5
CA75
330
C978
100
AcDbEntity
  8
1
  6
Continuous
100
AcDbCircle
 10
94.9
 20
160.279867
 30
0.0
 40
25.4
100
AcDbArc
 50
163.8686299999999
 51
180.0
  0
LINE
  5
CA76
330
C978
100
AcDbEntity
  8
1
  6
Continuous
100
AcDbLine
 10
30.8
 20
167.1499999999998
 30
0.0
 11
31.61903699999999
 21
167.9690369999999
 31
0.0
  0
LINE
  5
CA77
330
C978
100
AcDbEntity
  8
1
  6
Continuous
100
AcDbLine
 10
32.79999999999999
 20
159.6499999999998
 30
0.0
 11
30.8
 21
159.6499999999998
 31
0.0
  0
ARC
  5
CA78
330
C978
100
AcDbEntity
  8
1
  6
Continuous
100
AcDbCircle
 10
7.4
 20
160.279867
 30
0.0
 40
25.4
100
AcDbArc
 50
0.0
 51
16.13137
  0
LINE
  5
CA79
330
C978
100
AcDbEntity
  8
1
  6
Continuous
100
AcDbLine
 10
32.79999999999999
 20
156.8
 30
0.0
 11
32.79999999999999
 21
160.279867
 31
0.0
  0
ARC
  5
CA7A
330
C978
100
AcDbEntity
  8
1
  6
Continuous
100
AcDbCircle
 10
7.4
 20
160.279867
 30
0.0
 40
28.0
100
AcDbArc
 50
0.0
 51
16.13137
  0
LINE
  5
CA7B
330
C978
100
AcDbEntity
  8
1
  6
Continuous
100
AcDbLine
 10
35.64999999999999
 20
171.15
 30
0.0
 11
35.4
 21
171.15
 31
0.0
  0
LINE
  5
CA7C
330
C978
100
AcDbEntity
  8
1
  6
Continuous
100
AcDbLine
 10
35.64999999999999
 20
163.15
 30
0.0
 11
35.4
 21
163.15
 31
0.0
  0
LINE
  5
CA7D
330
C978
100
AcDbEntity
  8
1
  6
Continuous
100
AcDbLine
 10
32.79999999999999
 20
156.8
 30
0.0
 11
35.4
 21
156.8
 31
0.0
  0
ARC
  5
CA7E
330
C978
100
AcDbEntity
  8
1
  6
Continuous
100
AcDbCircle
 10
27.73301299999999
 20
172.3461519999999
 30
0.0
 40
3.066986999999998
100
AcDbArc
 50
325.6157529999999
 51
343.8707359999999
  0
LINE
  5
CA7F
330
C978
100
AcDbEntity
  8
1
  6
Continuous
100
AcDbLine
 10
26.33589799999999
 20
174.078203
 30
0.0
 11
30.063753
 21
174.078203
 31
0.0
  0
LINE
  5
CA80
330
C978
100
AcDbEntity
  8
1
  6
Continuous
100
AcDbLine
 10
26.33589799999999
 20
174.078203
 30
0.0
 11
25.8
 21
173.15
 31
0.0
  0
ARC
  5
CA81
330
C978
100
AcDbEntity
  8
1
  6
Continuous
100
AcDbCircle
 10
37.264102
 20
167.1499999999998
 30
0.0
 40
11.464102
100
AcDbArc
 50
162.412046
 51
197.5879539999999
  0
LINE
  5
CA82
330
C978
100
AcDbEntity
  8
1
  6
Continuous
100
AcDbLine
 10
26.33589799999999
 20
170.614102
 30
0.0
 11
30.264102
 21
170.614102
 31
0.0
  0
ARC
  5
CA83
330
C978
100
AcDbEntity
  8
1
  6
Continuous
100
AcDbCircle
 10
28.866987
 20
172.3461519999999
 30
0.0
 40
3.066986999999998
100
AcDbArc
 50
154.3842469999999
 51
214.384247
  0
ARC
  5
CA84
330
C978
100
AcDbEntity
  8
1
  6
Continuous
100
AcDbCircle
 10
19.335898
 20
167.1499999999998
 30
0.0
 40
11.464102
100
AcDbArc
 50
342.4120459999999
 51
17.587954
  0
LINE
  5
CA85
330
C978
100
AcDbEntity
  8
1
  6
Continuous
100
AcDbLine
 10
26.33589799999999
 20
163.685898
 30
0.0
 11
30.264102
 21
163.685898
 31
0.0
  0
ARC
  5
CA86
330
C978
100
AcDbEntity
  8
1
  6
Continuous
100
AcDbCircle
 10
27.73301299999999
 20
161.9538479999999
 30
0.0
 40
3.066986999999998
100
AcDbArc
 50
334.384247
 51
34.38424699999998
  0
LINE
  5
CA87
330
C978
100
AcDbEntity
  8
1
  6
Continuous
100
AcDbLine
 10
30.264102
 20
160.221797
 30
0.0
 11
30.8
 21
161.15
 31
0.0
  0
LINE
  5
CA88
330
C978
100
AcDbEntity
  8
1
  6
Continuous
100
AcDbLine
 10
26.33589799999999
 20
160.221797
 30
0.0
 11
30.264102
 21
160.221797
 31
0.0
  0
LINE
  5
CA89
330
C978
100
AcDbEntity
  8
1
  6
Continuous
100
AcDbLine
 10
25.8
 20
161.15
 30
0.0
 11
25.8
 21
173.15
 31
0.0
  0
ARC
  5
CA8A
330
C978
100
AcDbEntity
  8
1
  6
Continuous
100
AcDbCircle
 10
28.866987
 20
161.9538479999999
 30
0.0
 40
3.066986999999998
100
AcDbArc
 50
145.615753
 51
205.615753
  0
LINE
  5
CA8B
330
C978
100
AcDbEntity
  8
1
  6
Continuous
100
AcDbLine
 10
26.33589799999999
 20
160.221797
 30
0.0
 11
25.8
 21
161.15
 31
0.0
  0
LINE
  5
CA8C
330
C978
100
AcDbEntity
  8
1
  6
Continuous
100
AcDbLine
 10
30.8
 20
165.15
 30
0.0
 11
32.051324
 21
166.4013239999999
 31
0.0
  0
LINE
  5
CA8D
330
C978
100
AcDbEntity
  8
1
  6
Continuous
100
AcDbLine
 10
30.8
 20
171.015699
 30
0.0
 11
30.8
 21
159.6499999999998
 31
0.0
  0
LINE
  5
CA8E
330
C978
100
AcDbEntity
  8
1
  6
Continuous
100
AcDbLine
 10
25.6
 20
171.15
 30
0.0
 11
25.0
 21
170.55
 31
0.0
  0
LINE
  5
CA8F
330
C978
100
AcDbEntity
  8
2
  6
Continuous
100
AcDbLine
 10
25.8
 20
170.4735
 30
0.0
 11
25.0
 21
170.4735
 31
0.0
  0
LINE
  5
CA90
330
C978
100
AcDbEntity
  8
1
  6
Continuous
100
AcDbLine
 10
25.6
 20
171.15
 30
0.0
 11
25.8
 21
171.15
 31
0.0
  0
LINE
  5
CA91
330
C978
100
AcDbEntity
  8
1
  6
Continuous
100
AcDbLine
 10
25.0
 20
163.75
 30
0.0
 11
25.6
 21
163.15
 31
0.0
  0
LINE
  5
CA92
330
C978
100
AcDbEntity
  8
2
  6
Continuous
100
AcDbLine
 10
25.8
 20
163.8265
 30
0.0
 11
25.0
 21
163.8265
 31
0.0
  0
LINE
  5
CA93
330
C978
100
AcDbEntity
  8
1
  6
Continuous
100
AcDbLine
 10
25.6
 20
163.15
 30
0.0
 11
25.8
 21
163.15
 31
0.0
  0
LINE
  5
CA94
330
C978
100
AcDbEntity
  8
1
  6
Continuous
100
AcDbLine
 10
25.6
 20
171.15
 30
0.0
 11
25.6
 21
163.15
 31
0.0
  0
LINE
  5
CA95
330
C978
100
AcDbEntity
  8
1
  6
Continuous
100
AcDbLine
 10
25.0
 20
170.55
 30
0.0
 11
25.0
 21
163.75
 31
0.0
  0
LINE
  5
CA96
330
C978
100
AcDbEntity
  8
1
  6
Continuous
100
AcDbLine
 10
76.15000000000001
 20
211.5499999999999
 30
0.0
 11
26.15
 21
211.5499999999999
 31
0.0
  0
LINE
  5
CA97
330
C978
100
AcDbEntity
  8
1
  6
Continuous
100
AcDbLine
 10
67.65
 20
211.05
 30
0.0
 11
34.64999999999999
 21
211.05
 31
0.0
  0
LINE
  5
CA98
330
C978
100
AcDbEntity
  8
1
  6
Continuous
100
AcDbLine
 10
64.65
 20
210.55
 30
0.0
 11
37.65
 21
210.55
 31
0.0
  0
LINE
  5
CA99
330
C978
100
AcDbEntity
  8
1
  6
Continuous
100
AcDbLine
 10
76.15000000000001
 20
214.15
 30
0.0
 11
26.15
 21
214.15
 31
0.0
  0
LINE
  5
CA9A
330
C978
100
AcDbEntity
  8
1
  6
Continuous
100
AcDbLine
 10
72.54999999999999
 20
200.15
 30
0.0
 11
72.54999999999999
 21
210.55
 31
0.0
  0
LINE
  5
CA9B
330
C978
100
AcDbEntity
  8
1
  6
Continuous
100
AcDbLine
 10
75.15
 20
200.15
 30
0.0
 11
75.15
 21
210.55
 31
0.0
  0
ARC
  5
CA9C
330
C978
100
AcDbEntity
  8
1
  6
Continuous
100
AcDbCircle
 10
71.55
 20
210.55
 30
0.0
 40
1.0
100
AcDbArc
 50
0.0
 51
90.0
  0
ARC
  5
CA9D
330
C978
100
AcDbEntity
  8
1
  6
Continuous
100
AcDbCircle
 10
71.55
 20
210.55
 30
0.0
 40
3.6
100
AcDbArc
 50
0.0
 51
16.12762
  0
LINE
  5
CA9E
330
C978
100
AcDbEntity
  8
4
  6
CENTER
100
AcDbLine
 10
69.15
 20
216.348162
 30
0.0
 11
69.15
 21
209.4426129999999
 31
0.0
  0
ARC
  5
CA9F
330
C978
100
AcDbEntity
  8
1
  6
Continuous
100
AcDbCircle
 10
64.65
 20
219.7999999999999
 30
0.0
 40
9.25
100
AcDbArc
 50
270.0
 51
288.9246439999999
  0
LINE
  5
CAA0
330
C978
100
AcDbEntity
  8
1
  6
Continuous
100
AcDbLine
 10
67.65
 20
211.05
 30
0.0
 11
67.65
 21
211.5499999999999
 31
0.0
  0
LINE
  5
CAA1
330
C978
100
AcDbEntity
  8
1
  6
Continuous
100
AcDbLine
 10
76.15000000000001
 20
214.15
 30
0.0
 11
76.15000000000001
 21
211.5499999999999
 31
0.0
  0
LINE
  5
CAA2
330
C978
100
AcDbEntity
  8
4
  6
CENTER
100
AcDbLine
 10
33.14999999999999
 20
216.348162
 30
0.0
 11
33.14999999999999
 21
209.4426129999999
 31
0.0
  0
ARC
  5
CAA3
330
C978
100
AcDbEntity
  8
1
  6
Continuous
100
AcDbCircle
 10
37.65
 20
219.7999999999999
 30
0.0
 40
9.25
100
AcDbArc
 50
251.075356
 51
270.0
  0
LINE
  5
CAA4
330
C978
100
AcDbEntity
  8
1
  6
Continuous
100
AcDbLine
 10
34.64999999999999
 20
211.05
 30
0.0
 11
34.64999999999999
 21
211.5499999999999
 31
0.0
  0
LINE
  5
CAA5
330
C978
100
AcDbEntity
  8
1
  6
Continuous
100
AcDbLine
 10
27.14999999999999
 20
200.15
 30
0.0
 11
27.14999999999999
 21
210.55
 31
0.0
  0
LINE
  5
CAA6
330
C978
100
AcDbEntity
  8
1
  6
Continuous
100
AcDbLine
 10
29.75
 20
200.15
 30
0.0
 11
29.75
 21
210.55
 31
0.0
  0
ARC
  5
CAA7
330
C978
100
AcDbEntity
  8
1
  6
Continuous
100
AcDbCircle
 10
30.75
 20
210.55
 30
0.0
 40
3.6
100
AcDbArc
 50
163.8723799999999
 51
180.0
  0
LINE
  5
CAA8
330
C978
100
AcDbEntity
  8
1
  6
Continuous
100
AcDbLine
 10
26.15
 20
214.15
 30
0.0
 11
26.15
 21
211.5499999999999
 31
0.0
  0
ARC
  5
CAA9
330
C978
100
AcDbEntity
  8
1
  6
Continuous
100
AcDbCircle
 10
30.75
 20
210.55
 30
0.0
 40
1.0
100
AcDbArc
 50
90.0
 51
180.0
  0
LINE
  5
CAAA
330
C978
100
AcDbEntity
  8
4
  6
CENTER
100
AcDbLine
 10
174.15
 20
93.26166200000001
 30
0.0
 11
174.15
 21
38.513256
 31
0.0
  0
LINE
  5
CAAB
330
C978
100
AcDbEntity
  8
1
  6
Continuous
100
AcDbLine
 10
134.15
 20
49.15
 30
0.0
 11
134.15
 21
85.15
 31
0.0
  0
LINE
  5
CAAC
330
C978
100
AcDbEntity
  8
1
  6
Continuous
100
AcDbLine
 10
214.15
 20
49.15
 30
0.0
 11
214.15
 21
85.15
 31
0.0
  0
LINE
  5
CAAD
330
C978
100
AcDbEntity
  8
1
  6
Continuous
100
AcDbLine
 10
167.1499999999998
 20
87.82623800000001
 30
0.0
 11
181.15
 21
87.82623800000001
 31
0.0
  0
ARC
  5
CAAE
330
C978
100
AcDbEntity
  8
1
  6
Continuous
100
AcDbCircle
 10
174.15
 20
80.0
 30
0.0
 40
10.5
100
AcDbArc
 50
48.189685
 51
131.810315
  0
LINE
  5
CAAF
330
C978
100
AcDbEntity
  8
1
  6
Continuous
100
AcDbLine
 10
181.774871
 20
85.5
 30
0.0
 11
166.5251299999999
 21
85.5
 31
0.0
  0
LINE
  5
CAB0
330
C978
100
AcDbEntity
  8
4
  6
CENTER
100
AcDbLine
 10
147.4
 20
85.15
 30
0.0
 11
134.8999999999997
 21
85.15
 31
0.0
  0
ARC
  5
CAB1
330
C978
100
AcDbEntity
  8
1
  6
Continuous
100
AcDbCircle
 10
141.15
 20
85.15
 30
0.0
 40
7.0
100
AcDbArc
 50
30.575457
 51
180.0
  0
LINE
  5
CAB2
330
C978
100
AcDbEntity
  8
4
  6
CENTER
100
AcDbLine
 10
141.15
 20
78.9
 30
0.0
 11
141.15
 21
91.4
 31
0.0
  0
CIRCLE
  5
CAB3
330
C978
100
AcDbEntity
  8
1
  6
Continuous
100
AcDbCircle
 10
141.15
 20
85.15
 30
0.0
 40
3.25
  0
ARC
  5
CAB4
330
C978
100
AcDbEntity
  8
1
  6
Continuous
100
AcDbCircle
 10
149.65
 20
70.024115
 30
0.0
 40
21.125885
100
AcDbArc
 50
52.977647
 51
90.0
  0
ARC
  5
CAB5
330
C978
100
AcDbEntity
  8
1
  6
Continuous
100
AcDbCircle
 10
148.46816
 20
89.47371699999997
 30
0.0
 40
1.5
100
AcDbArc
 50
210.5754569999998
 51
321.989073
  0
LINE
  5
CAB6
330
C978
100
AcDbEntity
  8
1
  6
Continuous
100
AcDbLine
 10
149.65
 20
91.15
 30
0.0
 11
149.65
 21
88.54999999999998
 31
0.0
  0
LINE
  5
CAB7
330
C978
100
AcDbEntity
  8
1
  6
Continuous
100
AcDbLine
 10
167.1499999999998
 20
87.82623800000001
 30
0.0
 11
167.1499999999998
 21
85.5
 31
0.0
  0
ARC
  5
CAB8
330
C978
100
AcDbEntity
  8
1
  6
Continuous
100
AcDbCircle
 10
166.5251299999999
 20
92.4
 30
0.0
 40
6.9
100
AcDbArc
 50
232.977647
 51
270.0
  0
LINE
  5
CAB9
330
C978
100
AcDbEntity
  8
4
  6
CENTER
100
AcDbLine
 10
213.3999999999999
 20
85.15
 30
0.0
 11
200.8999999999999
 21
85.15
 31
0.0
  0
CIRCLE
  5
CABA
330
C978
100
AcDbEntity
  8
1
  6
Continuous
100
AcDbCircle
 10
207.1499999999999
 20
85.15
 30
0.0
 40
3.25
  0
ARC
  5
CABB
330
C978
100
AcDbEntity
  8
1
  6
Continuous
100
AcDbCircle
 10
207.1499999999999
 20
85.15
 30
0.0
 40
7.0
100
AcDbArc
 50
0.0
 51
149.424543
  0
ARC
  5
CABC
330
C978
100
AcDbEntity
  8
1
  6
Continuous
100
AcDbCircle
 10
198.65
 20
70.024115
 30
0.0
 40
21.125885
100
AcDbArc
 50
90.0
 51
127.022353
  0
LINE
  5
CABD
330
C978
100
AcDbEntity
  8
1
  6
Continuous
100
AcDbLine
 10
181.15
 20
87.82623800000001
 30
0.0
 11
181.15
 21
85.5
 31
0.0
  0
ARC
  5
CABE
330
C978
100
AcDbEntity
  8
1
  6
Continuous
100
AcDbCircle
 10
181.774871
 20
92.4
 30
0.0
 40
6.9
100
AcDbArc
 50
270.0
 51
307.0223529999998
  0
LINE
  5
CABF
330
C978
100
AcDbEntity
  8
4
  6
CENTER
100
AcDbLine
 10
207.1499999999999
 20
78.9
 30
0.0
 11
207.1499999999999
 21
91.4
 31
0.0
  0
LINE
  5
CAC0
330
C978
100
AcDbEntity
  8
1
  6
Continuous
100
AcDbLine
 10
198.65
 20
91.15
 30
0.0
 11
198.65
 21
88.54999999999998
 31
0.0
  0
ARC
  5
CAC1
330
C978
100
AcDbEntity
  8
1
  6
Continuous
100
AcDbCircle
 10
199.83184
 20
89.47371699999997
 30
0.0
 40
1.5
100
AcDbArc
 50
218.0109269999999
 51
329.4245430000001
  0
ARC
  5
CAC2
330
C978
100
AcDbEntity
  8
1
  6
Continuous
100
AcDbCircle
 10
177.15
 20
38.13493599999999
 30
0.0
 40
8.665063999999999
100
AcDbArc
 50
69.743842
 51
110.256158
  0
ARC
  5
CAC3
330
C978
100
AcDbEntity
  8
1
  6
Continuous
100
AcDbCircle
 10
177.15
 20
50.465064
 30
0.0
 40
8.665063999999999
100
AcDbArc
 50
249.7438419999999
 51
290.256158
  0
LINE
  5
CAC4
330
C978
100
AcDbEntity
  8
1
  6
Continuous
100
AcDbLine
 10
180.15
 20
41.79999999999997
 30
0.0
 11
168.1499999999998
 21
41.79999999999997
 31
0.0
  0
LINE
  5
CAC5
330
C978
100
AcDbEntity
  8
1
  6
Continuous
100
AcDbLine
 10
170.15
 20
41.6
 30
0.0
 11
178.15
 21
41.6
 31
0.0
  0
LINE
  5
CAC6
330
C978
100
AcDbEntity
  8
1
  6
Continuous
100
AcDbLine
 10
170.75
 20
41.0
 30
0.0
 11
177.55
 21
41.0
 31
0.0
  0
LINE
  5
CAC7
330
C978
100
AcDbEntity
  8
1
  6
Continuous
100
AcDbLine
 10
166.65
 20
46.79999999999998
 30
0.0
 11
181.6499999999998
 21
46.79999999999998
 31
0.0
  0
LINE
  5
CAC8
330
C978
100
AcDbEntity
  8
4
  6
CENTER
100
AcDbLine
 10
217.1499999999999
 20
67.15
 30
0.0
 11
131.15
 21
67.15
 31
0.0
  0
LINE
  5
CAC9
330
C978
100
AcDbEntity
  8
1
  6
Continuous
100
AcDbLine
 10
181.774871
 20
48.79999999999999
 30
0.0
 11
166.5251299999999
 21
48.79999999999999
 31
0.0
  0
LINE
  5
CACA
330
C978
100
AcDbEntity
  8
4
  6
CENTER
100
AcDbLine
 10
147.4
 20
49.15
 30
0.0
 11
134.8999999999997
 21
49.15
 31
0.0
  0
ARC
  5
CACB
330
C978
100
AcDbEntity
  8
1
  6
Continuous
100
AcDbCircle
 10
141.15
 20
49.15
 30
0.0
 40
7.0
100
AcDbArc
 50
180.0
 51
329.4245430000001
  0
LINE
  5
CACC
330
C978
100
AcDbEntity
  8
4
  6
CENTER
100
AcDbLine
 10
141.15
 20
42.9
 30
0.0
 11
141.15
 21
55.4
 31
0.0
  0
CIRCLE
  5
CACD
330
C978
100
AcDbEntity
  8
1
  6
Continuous
100
AcDbCircle
 10
141.15
 20
49.15
 30
0.0
 40
3.25
  0
ARC
  5
CACE
330
C978
100
AcDbEntity
  8
1
  6
Continuous
100
AcDbCircle
 10
149.65
 20
64.275885
 30
0.0
 40
21.125885
100
AcDbArc
 50
270.0
 51
307.0223529999998
  0
ARC
  5
CACF
330
C978
100
AcDbEntity
  8
1
  6
Continuous
100
AcDbCircle
 10
148.46816
 20
44.82628199999999
 30
0.0
 40
1.5
100
AcDbArc
 50
38.010927
 51
149.424543
  0
LINE
  5
CAD0
330
C978
100
AcDbEntity
  8
1
  6
Continuous
100
AcDbLine
 10
149.65
 20
43.15
 30
0.0
 11
149.65
 21
45.75
 31
0.0
  0
LINE
  5
CAD1
330
C978
100
AcDbEntity
  8
1
  6
Continuous
100
AcDbLine
 10
170.15
 20
41.6
 30
0.0
 11
170.75
 21
41.0
 31
0.0
  0
LINE
  5
CAD2
330
C978
100
AcDbEntity
  8
2
  6
Continuous
100
AcDbLine
 10
170.8265
 20
41.79999999999997
 30
0.0
 11
170.8265
 21
41.0
 31
0.0
  0
LINE
  5
CAD3
330
C978
100
AcDbEntity
  8
1
  6
Continuous
100
AcDbLine
 10
174.15
 20
42.33589799999999
 30
0.0
 11
174.15
 21
46.264102
 31
0.0
  0
LINE
  5
CAD4
330
C978
100
AcDbEntity
  8
1
  6
Continuous
100
AcDbLine
 10
168.1499999999998
 20
46.79999999999998
 30
0.0
 11
168.1499999999998
 21
41.79999999999997
 31
0.0
  0
ARC
  5
CAD5
330
C978
100
AcDbEntity
  8
1
  6
Continuous
100
AcDbCircle
 10
171.15
 20
38.13493599999999
 30
0.0
 40
8.665063999999999
100
AcDbArc
 50
69.743842
 51
110.256158
  0
ARC
  5
CAD6
330
C978
100
AcDbEntity
  8
1
  6
Continuous
100
AcDbCircle
 10
171.15
 20
50.465064
 30
0.0
 40
8.665063999999999
100
AcDbArc
 50
249.7438419999999
 51
290.256158
  0
LINE
  5
CAD7
330
C978
100
AcDbEntity
  8
1
  6
Continuous
100
AcDbLine
 10
174.15
 20
46.79999999999998
 30
0.0
 11
172.1499999999998
 21
48.79999999999999
 31
0.0
  0
LINE
  5
CAD8
330
C978
100
AcDbEntity
  8
1
  6
Continuous
100
AcDbLine
 10
176.15
 20
46.79999999999998
 30
0.0
 11
174.15
 21
48.79999999999999
 31
0.0
  0
LINE
  5
CAD9
330
C978
100
AcDbEntity
  8
1
  6
Continuous
100
AcDbLine
 10
170.15
 20
41.6
 30
0.0
 11
170.15
 21
41.79999999999997
 31
0.0
  0
LINE
  5
CADA
330
C978
100
AcDbEntity
  8
1
  6
Continuous
100
AcDbLine
 10
166.65
 20
48.79999999999999
 30
0.0
 11
166.65
 21
46.79999999999998
 31
0.0
  0
ARC
  5
CADB
330
C978
100
AcDbEntity
  8
1
  6
Continuous
100
AcDbCircle
 10
166.5251299999999
 20
41.9
 30
0.0
 40
6.9
100
AcDbArc
 50
90.0
 51
127.022353
  0
LINE
  5
CADC
330
C978
100
AcDbEntity
  8
4
  6
CENTER
100
AcDbLine
 10
213.3999999999999
 20
49.15
 30
0.0
 11
200.8999999999999
 21
49.15
 31
0.0
  0
ARC
  5
CADD
330
C978
100
AcDbEntity
  8
1
  6
Continuous
100
AcDbCircle
 10
207.1499999999999
 20
49.15
 30
0.0
 40
7.0
100
AcDbArc
 50
210.5754569999998
 51
0.0
  0
CIRCLE
  5
CADE
330
C978
100
AcDbEntity
  8
1
  6
Continuous
100
AcDbCircle
 10
207.1499999999999
 20
49.15
 30
0.0
 40
3.25
  0
LINE
  5
CADF
330
C978
100
AcDbEntity
  8
4
  6
CENTER
100
AcDbLine
 10
207.1499999999999
 20
42.9
 30
0.0
 11
207.1499999999999
 21
55.4
 31
0.0
  0
ARC
  5
CAE0
330
C978
100
AcDbEntity
  8
1
  6
Continuous
100
AcDbCircle
 10
198.65
 20
64.275885
 30
0.0
 40
21.125885
100
AcDbArc
 50
232.977647
 51
270.0
  0
LINE
  5
CAE1
330
C978
100
AcDbEntity
  8
1
  6
Continuous
100
AcDbLine
 10
177.55
 20
41.0
 30
0.0
 11
178.15
 21
41.6
 31
0.0
  0
LINE
  5
CAE2
330
C978
100
AcDbEntity
  8
2
  6
Continuous
100
AcDbLine
 10
177.4734999999998
 20
41.79999999999997
 30
0.0
 11
177.4734999999998
 21
41.0
 31
0.0
  0
LINE
  5
CAE3
330
C978
100
AcDbEntity
  8
1
  6
Continuous
100
AcDbLine
 10
180.15
 20
46.79999999999998
 30
0.0
 11
180.15
 21
41.79999999999997
 31
0.0
  0
LINE
  5
CAE4
330
C978
100
AcDbEntity
  8
1
  6
Continuous
100
AcDbLine
 10
178.15
 20
41.6
 30
0.0
 11
178.15
 21
41.79999999999997
 31
0.0
  0
LINE
  5
CAE5
330
C978
100
AcDbEntity
  8
1
  6
Continuous
100
AcDbLine
 10
181.6499999999998
 20
48.79999999999999
 30
0.0
 11
181.6499999999998
 21
46.79999999999998
 31
0.0
  0
ARC
  5
CAE6
330
C978
100
AcDbEntity
  8
1
  6
Continuous
100
AcDbCircle
 10
181.774871
 20
41.9
 30
0.0
 40
6.9
100
AcDbArc
 50
52.977647
 51
90.0
  0
LINE
  5
CAE7
330
C978
100
AcDbEntity
  8
1
  6
Continuous
100
AcDbLine
 10
198.65
 20
43.15
 30
0.0
 11
198.65
 21
45.75
 31
0.0
  0
ARC
  5
CAE8
330
C978
100
AcDbEntity
  8
1
  6
Continuous
100
AcDbCircle
 10
199.83184
 20
44.82628199999999
 30
0.0
 40
1.5
100
AcDbArc
 50
30.575457
 51
141.9890729999999
  0
LINE
  5
CAE9
330
C978
100
AcDbEntity
  8
1
  6
Continuous
100
AcDbLine
 10
170.15
 20
51.65
 30
0.0
 11
170.15
 21
51.4
 31
0.0
  0
LINE
  5
CAEA
330
C978
100
AcDbEntity
  8
1
  6
Continuous
100
AcDbLine
 10
178.15
 20
51.65
 30
0.0
 11
178.15
 21
51.4
 31
0.0
  0
LINE
  5
CAEB
330
C978
100
AcDbEntity
  8
1
  6
Continuous
100
AcDbLine
 10
170.15
 20
82.65
 30
0.0
 11
170.15
 21
82.9
 31
0.0
  0
LINE
  5
CAEC
330
C978
100
AcDbEntity
  8
1
  6
Continuous
100
AcDbLine
 10
178.15
 20
82.65
 30
0.0
 11
178.15
 21
82.9
 31
0.0
  0
ARC
  5
CAED
330
C978
100
AcDbEntity
  8
1
  6
Continuous
100
AcDbCircle
 10
183.2124999999998
 20
67.15
 30
0.0
 40
21.18749999999999
100
AcDbArc
 50
312.0750220000001
 51
47.924978
  0
ARC
  5
CAEE
330
C978
100
AcDbEntity
  8
1
  6
Continuous
100
AcDbCircle
 10
195.4
 20
80.65000000000003
 30
0.0
 40
3.0
100
AcDbArc
 50
47.924978
 51
170.4059319999998
  0
ARC
  5
CAEF
330
C978
100
AcDbEntity
  8
1
  6
Continuous
100
AcDbCircle
 10
195.4
 20
53.65
 30
0.0
 40
3.0
100
AcDbArc
 50
189.5940679999999
 51
312.0750220000001
  0
ARC
  5
CAF0
330
C978
100
AcDbEntity
  8
1
  6
Continuous
100
AcDbCircle
 10
152.9
 20
53.65
 30
0.0
 40
3.0
100
AcDbArc
 50
227.9249779999998
 51
350.405932
  0
ARC
  5
CAF1
330
C978
100
AcDbEntity
  8
1
  6
Continuous
100
AcDbCircle
 10
152.9
 20
80.65000000000003
 30
0.0
 40
3.0
100
AcDbArc
 50
9.594068
 51
132.0750219999998
  0
ARC
  5
CAF2
330
C978
100
AcDbEntity
  8
1
  6
Continuous
100
AcDbCircle
 10
165.0875
 20
67.15
 30
0.0
 40
21.18749999999999
100
AcDbArc
 50
132.0750219999998
 51
227.9249779999998
  0
LINE
  5
CAF3
330
C978
100
AcDbEntity
  8
1
  6
Continuous
100
AcDbLine
 10
181.774871
 20
82.9
 30
0.0
 11
166.5251299999999
 21
82.9
 31
0.0
  0
ARC
  5
CAF4
330
C978
100
AcDbEntity
  8
1
  6
Continuous
100
AcDbCircle
 10
181.774871
 20
92.4
 30
0.0
 40
9.5
100
AcDbArc
 50
270.0
 51
307.0223529999998
  0
ARC
  5
CAF5
330
C978
100
AcDbEntity
  8
1
  6
Continuous
100
AcDbCircle
 10
198.65
 20
70.024115
 30
0.0
 40
18.52588499999999
100
AcDbArc
 50
90.0
 51
127.022353
  0
ARC
  5
CAF6
330
C978
100
AcDbEntity
  8
1
  6
Continuous
100
AcDbCircle
 10
166.5251299999999
 20
92.4
 30
0.0
 40
9.5
100
AcDbArc
 50
232.977647
 51
270.0
  0
ARC
  5
CAF7
330
C978
100
AcDbEntity
  8
1
  6
Continuous
100
AcDbCircle
 10
149.65
 20
70.024115
 30
0.0
 40
18.52588499999999
100
AcDbArc
 50
52.977647
 51
90.0
  0
ARC
  5
CAF8
330
C978
100
AcDbEntity
  8
1
  6
Continuous
100
AcDbCircle
 10
166.5251299999999
 20
41.9
 30
0.0
 40
9.5
100
AcDbArc
 50
90.0
 51
127.022353
  0
ARC
  5
CAF9
330
C978
100
AcDbEntity
  8
1
  6
Continuous
100
AcDbCircle
 10
149.65
 20
64.275885
 30
0.0
 40
18.52588499999999
100
AcDbArc
 50
270.0
 51
307.0223529999998
  0
LINE
  5
CAFA
330
C978
100
AcDbEntity
  8
1
  6
Continuous
100
AcDbLine
 10
181.774871
 20
51.4
 30
0.0
 11
166.5251299999999
 21
51.4
 31
0.0
  0
ARC
  5
CAFB
330
C978
100
AcDbEntity
  8
1
  6
Continuous
100
AcDbCircle
 10
181.774871
 20
41.9
 30
0.0
 40
9.5
100
AcDbArc
 50
52.977647
 51
90.0
  0
ARC
  5
CAFC
330
C978
100
AcDbEntity
  8
1
  6
Continuous
100
AcDbCircle
 10
198.65
 20
64.275885
 30
0.0
 40
18.52588499999999
100
AcDbArc
 50
232.977647
 51
270.0
  0
LINE
  5
CAFD
330
C978
100
AcDbEntity
  8
1
  6
Continuous
100
AcDbLine
 10
194.1499999999998
 20
53.15
 30
0.0
 11
154.15
 21
53.15
 31
0.0
  0
LINE
  5
CAFE
330
C978
100
AcDbEntity
  8
1
  6
Continuous
100
AcDbLine
 10
194.1499999999998
 20
81.15
 30
0.0
 11
154.15
 21
81.15
 31
0.0
  0
ARC
  5
CAFF
330
C978
100
AcDbEntity
  8
1
  6
Continuous
100
AcDbCircle
 10
182.53975
 20
72.64068799999998
 30
0.0
 40
20.0
100
AcDbArc
 50
271.748509
 51
282.9580809999999
  0
ARC
  5
CB00
330
C978
100
AcDbEntity
  8
1
  6
Continuous
100
AcDbCircle
 10
182.53975
 20
61.659312
 30
0.0
 40
20.0
100
AcDbArc
 50
77.04191899999996
 51
88.251491
  0
ARC
  5
CB01
330
C978
100
AcDbEntity
  8
1
  6
Continuous
100
AcDbCircle
 10
165.76025
 20
72.64068799999998
 30
0.0
 40
20.0
100
AcDbArc
 50
257.0419189999999
 51
268.251491
  0
ARC
  5
CB02
330
C978
100
AcDbEntity
  8
1
  6
Continuous
100
AcDbCircle
 10
165.76025
 20
61.659312
 30
0.0
 40
20.0
100
AcDbArc
 50
91.748509
 51
102.958081
  0
ARC
  5
CB03
330
C978
100
AcDbEntity
  8
1
  6
Continuous
100
AcDbCircle
 10
229.15
 20
67.15
 30
0.0
 40
80.0
100
AcDbArc
 50
171.8645289999998
 51
188.135471
  0
ARC
  5
CB04
330
C978
100
AcDbEntity
  8
1
  6
Continuous
100
AcDbCircle
 10
151.9349729999998
 20
78.188101
 30
0.0
 40
2.0
100
AcDbArc
 50
110.474401
 51
171.8645289999998
  0
LINE
  5
CB05
330
C978
100
AcDbEntity
  8
1
  6
Continuous
100
AcDbLine
 10
154.15
 20
81.15
 30
0.0
 11
151.2353949999998
 21
80.06175799999999
 31
0.0
  0
ARC
  5
CB06
330
C978
100
AcDbEntity
  8
1
  6
Continuous
100
AcDbCircle
 10
151.9349729999998
 20
56.111899
 30
0.0
 40
2.0
100
AcDbArc
 50
188.135471
 51
249.525599
  0
LINE
  5
CB07
330
C978
100
AcDbEntity
  8
1
  6
Continuous
100
AcDbLine
 10
154.15
 20
53.15
 30
0.0
 11
151.2353949999998
 21
54.23824200000001
 31
0.0
  0
LINE
  5
CB08
330
C978
100
AcDbEntity
  8
1
  6
Continuous
100
AcDbLine
 10
183.15
 20
81.65
 30
0.0
 11
165.15
 21
81.65
 31
0.0
  0
ARC
  5
CB09
330
C978
100
AcDbEntity
  8
1
  6
Continuous
100
AcDbCircle
 10
166.15
 20
81.65
 30
0.0
 40
1.0
100
AcDbArc
 50
90.0
 51
180.0
  0
ARC
  5
CB0A
330
C978
100
AcDbEntity
  8
1
  6
Continuous
100
AcDbCircle
 10
182.15
 20
81.65
 30
0.0
 40
1.0
100
AcDbArc
 50
0.0
 51
90.0
  0
LINE
  5
CB0B
330
C978
100
AcDbEntity
  8
1
  6
Continuous
100
AcDbLine
 10
183.15
 20
52.65
 30
0.0
 11
165.15
 21
52.65
 31
0.0
  0
ARC
  5
CB0C
330
C978
100
AcDbEntity
  8
1
  6
Continuous
100
AcDbCircle
 10
166.15
 20
52.65
 30
0.0
 40
1.0
100
AcDbArc
 50
180.0
 51
270.0
  0
ARC
  5
CB0D
330
C978
100
AcDbEntity
  8
1
  6
Continuous
100
AcDbCircle
 10
182.15
 20
52.65
 30
0.0
 40
1.0
100
AcDbArc
 50
270.0
 51
0.0
  0
ARC
  5
CB0E
330
C978
100
AcDbEntity
  8
1
  6
Continuous
100
AcDbCircle
 10
420.15
 20
167.15005
 30
0.0
 40
20.0
100
AcDbArc
 50
138.2780709999998
 51
41.72192899999997
  0
ARC
  5
CB0F
330
C978
100
AcDbEntity
  8
1
  6
Continuous
100
AcDbCircle
 10
420.15
 20
167.15005
 30
0.0
 40
17.0
100
AcDbArc
 50
144.617864
 51
35.38213599999999
  0
ARC
  5
CB10
330
C978
100
AcDbEntity
  8
1
  6
Continuous
100
AcDbCircle
 10
420.15
 20
167.15005
 30
0.0
 40
17.5
100
AcDbArc
 50
143.371826
 51
36.62817400000001
  0
ARC
  5
CB11
330
C978
100
AcDbEntity
  8
1
  6
Continuous
100
AcDbCircle
 10
174.15
 20
167.15005
 30
0.0
 40
20.0
100
AcDbArc
 50
138.2780709999998
 51
41.72192899999997
  0
ARC
  5
CB12
330
C978
100
AcDbEntity
  8
1
  6
Continuous
100
AcDbCircle
 10
174.15
 20
167.15005
 30
0.0
 40
17.5
100
AcDbArc
 50
143.371826
 51
36.62817400000001
  0
ARC
  5
CB13
330
C978
100
AcDbEntity
  8
1
  6
Continuous
100
AcDbCircle
 10
174.15
 20
167.15005
 30
0.0
 40
17.0
100
AcDbArc
 50
144.617864
 51
35.38213599999999
  0
LINE
  5
CB14
330
C978
100
AcDbEntity
  8
1
  6
Continuous
100
AcDbLine
 10
182.15
 20
51.65
 30
0.0
 11
166.15
 21
51.65
 31
0.0
  0
LINE
  5
CB15
330
C978
100
AcDbEntity
  8
1
  6
Continuous
100
AcDbLine
 10
182.15
 20
82.65
 30
0.0
 11
166.15
 21
82.65
 31
0.0
  0
ARC
  5
CB16
330
C978
100
AcDbEntity
  8
1
  6
Continuous
100
AcDbCircle
 10
196.365027
 20
56.111899
 30
0.0
 40
2.0
100
AcDbArc
 50
290.4744009999999
 51
351.864529
  0
ARC
  5
CB17
330
C978
100
AcDbEntity
  8
1
  6
Continuous
100
AcDbCircle
 10
119.15
 20
67.15
 30
0.0
 40
80.0
100
AcDbArc
 50
351.864529
 51
8.135471
  0
ARC
  5
CB18
330
C978
100
AcDbEntity
  8
1
  6
Continuous
100
AcDbCircle
 10
196.365027
 20
78.188101
 30
0.0
 40
2.0
100
AcDbArc
 50
8.135471
 51
69.525599
  0
LINE
  5
CB19
330
C978
100
AcDbEntity
  8
1
  6
Continuous
100
AcDbLine
 10
194.1499999999998
 20
81.15
 30
0.0
 11
197.064605
 21
80.06175799999999
 31
0.0
  0
LINE
  5
CB1A
330
C978
100
AcDbEntity
  8
1
  6
Continuous
100
AcDbLine
 10
194.1499999999998
 20
53.15
 30
0.0
 11
197.064605
 21
54.23824200000001
 31
0.0
  0
LINE
  5
CB1B
330
C978
100
AcDbEntity
  8
1
  6
Continuous
100
AcDbLine
 10
283.1499999999999
 20
187.15
 30
0.0
 11
283.1499999999999
 21
147.1499999999998
 31
0.0
  0
LINE
  5
CB1C
330
C978
100
AcDbEntity
  8
1
  6
Continuous
100
AcDbLine
 10
311.1499999999999
 20
187.15
 30
0.0
 11
311.1499999999999
 21
147.1499999999998
 31
0.0
  0
LINE
  5
CB1D
330
C978
100
AcDbEntity
  8
1
  6
Continuous
100
AcDbLine
 10
281.6499999999999
 20
175.15
 30
0.0
 11
281.6499999999999
 21
159.15
 31
0.0
  0
LINE
  5
CB1E
330
C978
100
AcDbEntity
  8
1
  6
Continuous
100
AcDbLine
 10
312.65
 20
175.15
 30
0.0
 11
312.65
 21
159.15
 31
0.0
  0
LINE
  5
CB1F
330
C978
100
AcDbEntity
  8
1
  6
Continuous
100
AcDbLine
 10
282.6499999999999
 20
176.15
 30
0.0
 11
282.6499999999999
 21
158.15
 31
0.0
  0
LINE
  5
CB20
330
C978
100
AcDbEntity
  8
1
  6
Continuous
100
AcDbLine
 10
311.6499999999998
 20
176.15
 30
0.0
 11
311.6499999999998
 21
158.15
 31
0.0
  0
ARC
  5
CB21
330
C978
100
AcDbEntity
  8
1
  6
Continuous
100
AcDbCircle
 10
308.1881009999999
 20
144.9349729999999
 30
0.0
 40
2.0
100
AcDbArc
 50
278.135471
 51
339.5255989999999
  0
ARC
  5
CB22
330
C978
100
AcDbEntity
  8
1
  6
Continuous
100
AcDbCircle
 10
297.1499999999998
 20
222.15
 30
0.0
 40
80.0
100
AcDbArc
 50
261.8645289999999
 51
278.135471
  0
ARC
  5
CB23
330
C978
100
AcDbEntity
  8
1
  6
Continuous
100
AcDbCircle
 10
302.640688
 20
158.76025
 30
0.0
 40
20.0
100
AcDbArc
 50
181.748509
 51
192.9580809999999
  0
ARC
  5
CB24
330
C978
100
AcDbEntity
  8
1
  6
Continuous
100
AcDbCircle
 10
286.1118989999998
 20
144.9349729999999
 30
0.0
 40
2.0
100
AcDbArc
 50
200.474401
 51
261.8645289999999
  0
LINE
  5
CB25
330
C978
100
AcDbEntity
  8
1
  6
Continuous
100
AcDbLine
 10
283.1499999999999
 20
147.1499999999998
 30
0.0
 11
284.238242
 21
144.2353949999999
 31
0.0
  0
ARC
  5
CB26
330
C978
100
AcDbEntity
  8
1
  6
Continuous
100
AcDbCircle
 10
282.6499999999999
 20
159.15
 30
0.0
 40
1.0
100
AcDbArc
 50
180.0
 51
270.0
  0
ARC
  5
CB27
330
C978
100
AcDbEntity
  8
1
  6
Continuous
100
AcDbCircle
 10
291.6593119999999
 20
158.76025
 30
0.0
 40
20.0
100
AcDbArc
 50
347.041919
 51
358.2514909999999
  0
LINE
  5
CB28
330
C978
100
AcDbEntity
  8
1
  6
Continuous
100
AcDbLine
 10
311.1499999999999
 20
147.1499999999998
 30
0.0
 11
310.061758
 21
144.2353949999999
 31
0.0
  0
ARC
  5
CB29
330
C978
100
AcDbEntity
  8
1
  6
Continuous
100
AcDbCircle
 10
311.6499999999998
 20
159.15
 30
0.0
 40
1.0
100
AcDbArc
 50
270.0
 51
0.0
  0
ARC
  5
CB2A
330
C978
100
AcDbEntity
  8
1
  6
Continuous
100
AcDbCircle
 10
308.1881009999999
 20
189.365027
 30
0.0
 40
2.0
100
AcDbArc
 50
20.474401
 51
81.864529
  0
ARC
  5
CB2B
330
C978
100
AcDbEntity
  8
1
  6
Continuous
100
AcDbCircle
 10
302.640688
 20
175.5397499999999
 30
0.0
 40
20.0
100
AcDbArc
 50
167.041919
 51
178.2514909999999
  0
ARC
  5
CB2C
330
C978
100
AcDbEntity
  8
1
  6
Continuous
100
AcDbCircle
 10
282.6499999999999
 20
175.15
 30
0.0
 40
1.0
100
AcDbArc
 50
90.0
 51
180.0
  0
ARC
  5
CB2D
330
C978
100
AcDbEntity
  8
1
  6
Continuous
100
AcDbCircle
 10
297.1499999999998
 20
112.15
 30
0.0
 40
80.0
100
AcDbArc
 50
81.864529
 51
98.135471
  0
LINE
  5
CB2E
330
C978
100
AcDbEntity
  8
1
  6
Continuous
100
AcDbLine
 10
283.1499999999999
 20
187.15
 30
0.0
 11
284.238242
 21
190.0646049999998
 31
0.0
  0
ARC
  5
CB2F
330
C978
100
AcDbEntity
  8
1
  6
Continuous
100
AcDbCircle
 10
286.1118989999998
 20
189.365027
 30
0.0
 40
2.0
100
AcDbArc
 50
98.135471
 51
159.525599
  0
ARC
  5
CB30
330
C978
100
AcDbEntity
  8
1
  6
Continuous
100
AcDbCircle
 10
291.6593119999999
 20
175.5397499999999
 30
0.0
 40
20.0
100
AcDbArc
 50
1.748509
 51
12.958081
  0
ARC
  5
CB31
330
C978
100
AcDbEntity
  8
1
  6
Continuous
100
AcDbCircle
 10
311.6499999999998
 20
175.15
 30
0.0
 40
1.0
100
AcDbArc
 50
0.0
 51
90.0
  0
LINE
  5
CB32
330
C978
100
AcDbEntity
  8
1
  6
Continuous
100
AcDbLine
 10
311.1499999999999
 20
187.15
 30
0.0
 11
310.061758
 21
190.0646049999998
 31
0.0
  0
LINE
  5
CB33
330
C978
100
AcDbEntity
  8
1
  6
Continuous
100
AcDbLine
 10
37.14999999999999
 20
187.15
 30
0.0
 11
37.14999999999999
 21
147.1499999999998
 31
0.0
  0
LINE
  5
CB34
330
C978
100
AcDbEntity
  8
1
  6
Continuous
100
AcDbLine
 10
65.15
 20
187.15
 30
0.0
 11
65.15
 21
147.1499999999998
 31
0.0
  0
LINE
  5
CB35
330
C978
100
AcDbEntity
  8
1
  6
Continuous
100
AcDbLine
 10
35.64999999999999
 20
175.15
 30
0.0
 11
35.64999999999999
 21
159.15
 31
0.0
  0
LINE
  5
CB36
330
C978
100
AcDbEntity
  8
1
  6
Continuous
100
AcDbLine
 10
66.65
 20
175.15
 30
0.0
 11
66.65
 21
159.15
 31
0.0
  0
LINE
  5
CB37
330
C978
100
AcDbEntity
  8
1
  6
Continuous
100
AcDbLine
 10
36.65
 20
176.15
 30
0.0
 11
36.65
 21
158.15
 31
0.0
  0
LINE
  5
CB38
330
C978
100
AcDbEntity
  8
1
  6
Continuous
100
AcDbLine
 10
65.65000000000001
 20
176.15
 30
0.0
 11
65.65000000000001
 21
158.15
 31
0.0
  0
ARC
  5
CB39
330
C978
100
AcDbEntity
  8
1
  6
Continuous
100
AcDbCircle
 10
62.188101
 20
144.9349729999999
 30
0.0
 40
2.0
100
AcDbArc
 50
278.135471
 51
339.5255989999999
  0
ARC
  5
CB3A
330
C978
100
AcDbEntity
  8
1
  6
Continuous
100
AcDbCircle
 10
51.15
 20
222.15
 30
0.0
 40
80.0
100
AcDbArc
 50
261.8645289999999
 51
278.135471
  0
ARC
  5
CB3B
330
C978
100
AcDbEntity
  8
1
  6
Continuous
100
AcDbCircle
 10
56.64068799999999
 20
158.76025
 30
0.0
 40
20.0
100
AcDbArc
 50
181.748509
 51
192.9580809999999
  0
ARC
  5
CB3C
330
C978
100
AcDbEntity
  8
1
  6
Continuous
100
AcDbCircle
 10
40.111899
 20
144.9349729999999
 30
0.0
 40
2.0
100
AcDbArc
 50
200.474401
 51
261.8645289999999
  0
LINE
  5
CB3D
330
C978
100
AcDbEntity
  8
1
  6
Continuous
100
AcDbLine
 10
37.14999999999999
 20
147.1499999999998
 30
0.0
 11
38.238242
 21
144.2353949999999
 31
0.0
  0
ARC
  5
CB3E
330
C978
100
AcDbEntity
  8
1
  6
Continuous
100
AcDbCircle
 10
36.65
 20
159.15
 30
0.0
 40
1.0
100
AcDbArc
 50
180.0
 51
270.0
  0
ARC
  5
CB3F
330
C978
100
AcDbEntity
  8
1
  6
Continuous
100
AcDbCircle
 10
45.659312
 20
158.76025
 30
0.0
 40
20.0
100
AcDbArc
 50
347.041919
 51
358.2514909999999
  0
LINE
  5
CB40
330
C978
100
AcDbEntity
  8
1
  6
Continuous
100
AcDbLine
 10
65.15
 20
147.1499999999998
 30
0.0
 11
64.06175799999998
 21
144.2353949999999
 31
0.0
  0
ARC
  5
CB41
330
C978
100
AcDbEntity
  8
1
  6
Continuous
100
AcDbCircle
 10
65.65000000000001
 20
159.15
 30
0.0
 40
1.0
100
AcDbArc
 50
270.0
 51
0.0
  0
ARC
  5
CB42
330
C978
100
AcDbEntity
  8
1
  6
Continuous
100
AcDbCircle
 10
62.188101
 20
189.365027
 30
0.0
 40
2.0
100
AcDbArc
 50
20.474401
 51
81.864529
  0
ARC
  5
CB43
330
C978
100
AcDbEntity
  8
1
  6
Continuous
100
AcDbCircle
 10
56.64068799999999
 20
175.5397499999999
 30
0.0
 40
20.0
100
AcDbArc
 50
167.041919
 51
178.2514909999999
  0
ARC
  5
CB44
330
C978
100
AcDbEntity
  8
1
  6
Continuous
100
AcDbCircle
 10
36.65
 20
175.15
 30
0.0
 40
1.0
100
AcDbArc
 50
90.0
 51
180.0
  0
ARC
  5
CB45
330
C978
100
AcDbEntity
  8
1
  6
Continuous
100
AcDbCircle
 10
51.15
 20
112.15
 30
0.0
 40
80.0
100
AcDbArc
 50
81.864529
 51
98.135471
  0
LINE
  5
CB46
330
C978
100
AcDbEntity
  8
1
  6
Continuous
100
AcDbLine
 10
37.14999999999999
 20
187.15
 30
0.0
 11
38.238242
 21
190.0646049999998
 31
0.0
  0
ARC
  5
CB47
330
C978
100
AcDbEntity
  8
1
  6
Continuous
100
AcDbCircle
 10
40.111899
 20
189.365027
 30
0.0
 40
2.0
100
AcDbArc
 50
98.135471
 51
159.525599
  0
ARC
  5
CB48
330
C978
100
AcDbEntity
  8
1
  6
Continuous
100
AcDbCircle
 10
45.659312
 20
175.5397499999999
 30
0.0
 40
20.0
100
AcDbArc
 50
1.748509
 51
12.958081
  0
ARC
  5
CB49
330
C978
100
AcDbEntity
  8
1
  6
Continuous
100
AcDbCircle
 10
65.65000000000001
 20
175.15
 30
0.0
 40
1.0
100
AcDbArc
 50
0.0
 51
90.0
  0
LINE
  5
CB4A
330
C978
100
AcDbEntity
  8
1
  6
Continuous
100
AcDbLine
 10
65.15
 20
187.15
 30
0.0
 11
64.06175799999998
 21
190.0646049999998
 31
0.0
  0
ENDSEC
  0
SECTION
  2
OBJECTS
  0
DICTIONARY
  5
C966
330
0
100
AcDbDictionary
281
     1
  3
ACAD_CIP_PREVIOUS_PRODUCT_INFO
350
CBB0
  3
ACAD_COLOR
350
CB92
  3
ACAD_DETAILVIEWSTYLE
350
CBAB
  3
ACAD_GROUP
350
C967
  3
ACAD_LAYOUT
350
C973
  3
ACAD_MATERIAL
350
CB60
  3
ACAD_MLEADERSTYLE
350
CBA7
  3
ACAD_MLINESTYLE
350
C970
  3
ACAD_PLOTSETTINGS
350
C972
  3
ACAD_PLOTSTYLENAME
350
CB5E
  3
ACAD_SCALELIST
350
CB95
  3
ACAD_SECTIONVIEWSTYLE
350
CBA9
  3
ACAD_TABLESTYLE
350
CB93
  3
ACAD_VISUALSTYLE
350
CB79
  3
ACDB_RECOMPOSE_DATA
350
CBCE
  3
AcDbVariableDictionary
350
CBC1
  3
DWGPROPS
350
CBCF
  0
DICTIONARY
  5
CBB1
330
C96A
100
AcDbDictionary
280
     1
281
     1
  3
ADSK_XREC_LAYER_RECONCILED
360
CBB2
  0
DICTIONARY
  5
CBB3
330
C980
100
AcDbDictionary
280
     1
281
     1
  3
ADSK_XREC_LAYER_RECONCILED
360
CBB4
  0
DICTIONARY
  5
CBB5
330
C981
100
AcDbDictionary
280
     1
281
     1
  3
ADSK_XREC_LAYER_RECONCILED
360
CBB6
  0
DICTIONARY
  5
CBB7
330
C982
100
AcDbDictionary
280
     1
281
     1
  3
ADSK_XREC_LAYER_RECONCILED
360
CBB8
  0
DICTIONARY
  5
CBB9
330
C983
100
AcDbDictionary
280
     1
281
     1
  3
ADSK_XREC_LAYER_RECONCILED
360
CBBA
  0
DICTIONARY
  5
CBBB
330
C984
100
AcDbDictionary
280
     1
281
     1
  3
ADSK_XREC_LAYER_RECONCILED
360
CBBC
  0
DICTIONARY
  5
CBBD
330
C985
100
AcDbDictionary
280
     1
281
     1
  3
ADSK_XREC_LAYER_RECONCILED
360
CBBE
  0
DICTIONARY
  5
CBBF
330
C986
100
AcDbDictionary
280
     1
281
     1
  3
ADSK_XREC_LAYER_RECONCILED
360
CBC0
  0
DICTIONARY
  5
CB59
330
C978
100
AcDbDictionary
281
     1
  3
ACAD_LAYOUTSELFREF
350
CB5A
  0
DICTIONARY
  5
CB57
330
C974
100
AcDbDictionary
281
     1
  3
ACAD_LAYOUTSELFREF
350
CB58
  0
XRECORD
  5
CBB0
102
{ACAD_REACTORS
330
C966
102
}
330
C966
100
AcDbXrecord
280
     1
300
ACDLT
300
2014
300
ACDLT_F_S
  0
DICTIONARY
  5
CB92
102
{ACAD_REACTORS
330
C966
102
}
330
C966
100
AcDbDictionary
281
     1
  0
DICTIONARY
  5
CBAB
102
{ACAD_REACTORS
330
C966
102
}
330
C966
100
AcDbDictionary
281
     1
  3
Imperial24
350
CBAC
  0
DICTIONARY
  5
C967
102
{ACAD_REACTORS
330
C966
102
}
330
C966
100
AcDbDictionary
281
     1
  0
DICTIONARY
  5
C973
102
{ACAD_REACTORS
330
C966
102
}
330
C966
100
AcDbDictionary
281
     1
  3
Model
350
CBAD
  3
レイアウト1
350
CBAE
  0
DICTIONARY
  5
CB60
102
{ACAD_REACTORS
330
C966
102
}
330
C966
100
AcDbDictionary
281
     1
  3
ByBlock
350
CB69
  3
ByLayer
350
CB61
  3
Global
350
CB71
  0
DICTIONARY
  5
CBA7
102
{ACAD_REACTORS
330
C966
102
}
330
C966
100
AcDbDictionary
281
     1
  3
Standard
350
CBA8
  0
DICTIONARY
  5
C970
102
{ACAD_REACTORS
330
C966
102
}
330
C966
100
AcDbDictionary
281
     1
  3
STANDARD
350
C971
  0
DICTIONARY
  5
C972
102
{ACAD_REACTORS
330
C966
102
}
330
C966
100
AcDbDictionary
281
     1
  0
ACDBDICTIONARYWDFLT
  5
CB5E
102
{ACAD_REACTORS
330
C966
102
}
330
C966
100
AcDbDictionary
281
     1
  3
Normal
350
CB5F
100
AcDbDictionaryWithDefault
340
CB5F
  0
DICTIONARY
  5
CB95
102
{ACAD_REACTORS
330
C966
102
}
330
C966
100
AcDbDictionary
281
     1
  3
A0
350
CB96
  3
A1
350
CB97
  3
A2
350
CB98
  3
A3
350
CB99
  3
A4
350
CB9A
  3
A5
350
CB9B
  3
A6
350
CB9C
  3
A7
350
CB9D
  3
A8
350
CB9E
  3
A9
350
CB9F
  3
B0
350
CBA0
  3
B1
350
CBA1
  3
B2
350
CBA2
  3
B3
350
CBA3
  3
B4
350
CBA4
  3
B5
350
CBA5
  3
B6
350
CBA6
  0
DICTIONARY
  5
CBA9
102
{ACAD_REACTORS
330
C966
102
}
330
C966
100
AcDbDictionary
281
     1
  3
Imperial24
350
CBAA
  0
DICTIONARY
  5
CB93
102
{ACAD_REACTORS
330
C966
102
}
330
C966
100
AcDbDictionary
281
     1
  3
Standard
350
CB94
  0
DICTIONARY
  5
CB79
102
{ACAD_REACTORS
330
C966
102
}
330
C966
100
AcDbDictionary
281
     1
  3
2dWireframe
350
CB7F
  3
Basic
350
CB7E
  3
Brighten
350
CB85
  3
ColorChange
350
CB89
  3
Conceptual
350
CB82
  3
Dim
350
CB84
  3
EdgeColorOff
350
CB91
  3
Facepattern
350
CB88
  3
Flat
350
CB7A
  3
FlatWithEdges
350
CB7B
  3
Gouraud
350
CB7C
  3
GouraudWithEdges
350
CB7D
  3
Hidden
350
CB81
  3
JitterOff
350
CB8F
  3
Linepattern
350
CB87
  3
OverhangOff
350
CB90
  3
Realistic
350
CB83
  3
Shaded
350
CB8E
  3
Shaded with edges
350
CB8D
  3
Shades of Gray
350
CB8A
  3
Sketchy
350
CB8B
  3
Thicken
350
CB86
  3
Wireframe
350
CB80
  3
X-Ray
350
CB8C
  0
XRECORD
  5
CBCE
102
{ACAD_REACTORS
330
C966
102
}
330
C966
100
AcDbXrecord
280
     1
 90
        1
330
CB94
  0
DICTIONARY
  5
CBC1
102
{ACAD_REACTORS
330
C966
102
}
330
C966
100
AcDbDictionary
281
     1
  3
CANNOSCALE
350
CBC6
  3
CMLEADERSTYLE
350
CBC3
  3
CTABLESTYLE
350
CBC2
  3
CVIEWDETAILSTYLE
350
CBC4
  3
CVIEWSECTIONSTYLE
350
CBC5
  3
DIMASSOC
350
CBC9
  3
INDEXCTL
350
CBC8
  3
SORTENTS
350
CBC7
  3
XCLIPFRAME
350
CBCA
  0
XRECORD
  5
CBCF
102
{ACAD_REACTORS
330
C966
102
}
330
C966
100
AcDbXrecord
280
     1
  1
DWGPROPS COOKIE
  2

  3

  4

  6

  7

  8
Yoshitsune
  9

300
=
301
=
302
=
303
=
304
=
305
=
306
=
307
=
308
=
309
=
 40
0.0004004282407407
 41
2451301.421884954
 42
2457192.688308102
  1

 90
        0
  0
XRECORD
  5
CBB2
102
{ACAD_REACTORS
330
CBB1
102
}
330
CBB1
100
AcDbXrecord
280
     1
290
     1
  0
XRECORD
  5
CBB4
102
{ACAD_REACTORS
330
CBB3
102
}
330
CBB3
100
AcDbXrecord
280
     1
290
     1
  0
XRECORD
  5
CBB6
102
{ACAD_REACTORS
330
CBB5
102
}
330
CBB5
100
AcDbXrecord
280
     1
290
     1
  0
XRECORD
  5
CBB8
102
{ACAD_REACTORS
330
CBB7
102
}
330
CBB7
100
AcDbXrecord
280
     1
290
     1
  0
XRECORD
  5
CBBA
102
{ACAD_REACTORS
330
CBB9
102
}
330
CBB9
100
AcDbXrecord
280
     1
290
     1
  0
XRECORD
  5
CBBC
102
{ACAD_REACTORS
330
CBBB
102
}
330
CBBB
100
AcDbXrecord
280
     1
290
     1
  0
XRECORD
  5
CBBE
102
{ACAD_REACTORS
330
CBBD
102
}
330
CBBD
100
AcDbXrecord
280
     1
290
     1
  0
XRECORD
  5
CBC0
102
{ACAD_REACTORS
330
CBBF
102
}
330
CBBF
100
AcDbXrecord
280
     1
290
     1
  0
XRECORD
  5
CB5A
102
{ACAD_REACTORS
330
CB59
102
}
330
CB59
100
AcDbXrecord
280
     1
340
C978
  0
XRECORD
  5
CB58
102
{ACAD_REACTORS
330
CB57
102
}
330
CB57
100
AcDbXrecord
280
     1
340
C974
  0
ACDBDETAILVIEWSTYLE
  5
CBAC
102
{ACAD_XDICTIONARY
360
CC07
102
}
102
{ACAD_REACTORS
330
CBAB
102
}
330
CBAB
100
AcDbModelDocViewStyle
 70
     0
  3
Imperial24
290
     0
100
AcDbDetailViewStyle
 70
     0
 71
     0
 90
        3
 71
     1
340
C96B
 40
0.24
340
0
 40
0.24
300

 40
0.36
280
     3
 71
     2
340
C96F
 90
       25
 71
     3
340
C96B
 40
0.24
 90
        1
 40
0.75
 90
        1
300
%<\AcVar ViewType \f "%tc1">% %<\AcVar ViewDetailId>%\PSCALE %<\AcVar ViewScale \f "%sn">%
 71
     4
340
C96F
 90
       25
340
C96F
 90
       25
280
     0
  0
LAYOUT
  5
CBAD
102
{ACAD_XDICTIONARY
360
CC09
102
}
102
{ACAD_REACTORS
330
C973
102
}
330
C973
100
AcDbPlotSettings
  1

  2
Canon LBP9100C
  4

  6

 40
0.0
 41
0.0
 42
0.0
 43
0.0
 44
0.0
 45
0.0
 46
0.0
 47
0.0
 48
0.0
 49
0.0
140
0.0
141
0.0
142
1.0
143
1.0
 70
  1712
 72
     0
 73
     0
 74
     0
  7

 75
     0
147
1.0
148
0.0
149
0.0
100
AcDbLayout
  1
Model
 70
     1
 71
     0
 10
0.0
 20
0.0
 11
12.0
 21
9.0
 12
0.0
 22
0.0
 32
0.0
 14
0.0
 24
0.0
 34
0.0
 15
0.0
 25
0.0
 35
0.0
146
0.0
 13
0.0
 23
0.0
 33
0.0
 16
1.0
 26
0.0
 36
0.0
 17
0.0
 27
1.0
 37
0.0
 76
     0
330
C978
331
CB56
  0
LAYOUT
  5
CBAE
102
{ACAD_XDICTIONARY
360
CC0B
102
}
102
{ACAD_REACTORS
330
C973
102
}
330
C973
100
AcDbPlotSettings
  1

  2
Canon LBP9100C
  4

  6

 40
0.0
 41
0.0
 42
0.0
 43
0.0
 44
0.0
 45
0.0
 46
0.0
 47
0.0
 48
0.0
 49
0.0
140
0.0
141
0.0
142
1.0
143
1.0
 70
   688
 72
     0
 73
     0
 74
     5
  7

 75
    16
147
1.0
148
0.0
149
0.0
100
AcDbLayout
  1
レイアウト1
 70
     0
 71
     1
 10
0.0
 20
0.0
 11
420.0
 21
297.0
 12
0.0
 22
0.0
 32
0.0
 14
1.000000000000000E+20
 24
1.000000000000000E+20
 34
1.000000000000000E+20
 15
-1.000000000000000E+20
 25
-1.000000000000000E+20
 35
-1.000000000000000E+20
146
0.0
 13
0.0
 23
0.0
 33
0.0
 16
1.0
 26
0.0
 36
0.0
 17
0.0
 27
1.0
 37
0.0
 76
     0
330
C974
  0
MATERIAL
  5
CB69
102
{ACAD_XDICTIONARY
360
CB6A
102
}
102
{ACAD_REACTORS
330
CB60
102
}
330
CB60
100
AcDbMaterial
  1
ByBlock
 72
     0
 43
0.0208333333333333
 43
0.0
 43
0.0
 43
0.0
 43
0.0
 43
0.0208333333333333
 43
0.0
 43
0.0
 43
0.0
 43
0.0
 43
1.0
 43
0.0
 43
0.0
 43
0.0
 43
0.0
 43
1.0
 77
     0
 47
0.0208333333333333
 47
0.0
 47
0.0
 47
0.0
 47
0.0
 47
0.0208333333333333
 47
0.0
 47
0.0
 47
0.0
 47
0.0
 47
1.0
 47
0.0
 47
0.0
 47
0.0
 47
0.0
 47
1.0
171
     0
 49
0.0208333333333333
 49
0.0
 49
0.0
 49
0.0
 49
0.0
 49
0.0208333333333333
 49
0.0
 49
0.0
 49
0.0
 49
0.0
 49
1.0
 49
0.0
 49
0.0
 49
0.0
 49
0.0
 49
1.0
175
     0
142
0.0208333333333333
142
0.0
142
0.0
142
0.0
142
0.0
142
0.0208333333333333
142
0.0
142
0.0
142
0.0
142
0.0
142
1.0
142
0.0
142
0.0
142
0.0
142
0.0
142
1.0
179
     0
144
0.0208333333333333
144
0.0
144
0.0
144
0.0
144
0.0
144
0.0208333333333333
144
0.0
144
0.0
144
0.0
144
0.0
144
1.0
144
0.0
144
0.0
144
0.0
144
0.0
144
1.0
147
0.0208333333333333
147
0.0
147
0.0
147
0.0
147
0.0
147
0.0208333333333333
147
0.0
147
0.0
147
0.0
147
0.0
147
1.0
147
0.0
147
0.0
147
0.0
147
0.0
147
1.0
  0
MATERIAL
  5
CB61
102
{ACAD_XDICTIONARY
360
CB62
102
}
102
{ACAD_REACTORS
330
CB60
102
}
330
CB60
100
AcDbMaterial
  1
ByLayer
 72
     0
 43
0.0208333333333333
 43
0.0
 43
0.0
 43
0.0
 43
0.0
 43
0.0208333333333333
 43
0.0
 43
0.0
 43
0.0
 43
0.0
 43
1.0
 43
0.0
 43
0.0
 43
0.0
 43
0.0
 43
1.0
 77
     0
 47
0.0208333333333333
 47
0.0
 47
0.0
 47
0.0
 47
0.0
 47
0.0208333333333333
 47
0.0
 47
0.0
 47
0.0
 47
0.0
 47
1.0
 47
0.0
 47
0.0
 47
0.0
 47
0.0
 47
1.0
171
     0
 49
0.0208333333333333
 49
0.0
 49
0.0
 49
0.0
 49
0.0
 49
0.0208333333333333
 49
0.0
 49
0.0
 49
0.0
 49
0.0
 49
1.0
 49
0.0
 49
0.0
 49
0.0
 49
0.0
 49
1.0
175
     0
142
0.0208333333333333
142
0.0
142
0.0
142
0.0
142
0.0
142
0.0208333333333333
142
0.0
142
0.0
142
0.0
142
0.0
142
1.0
142
0.0
142
0.0
142
0.0
142
0.0
142
1.0
179
     0
144
0.0208333333333333
144
0.0
144
0.0
144
0.0
144
0.0
144
0.0208333333333333
144
0.0
144
0.0
144
0.0
144
0.0
144
1.0
144
0.0
144
0.0
144
0.0
144
0.0
144
1.0
147
0.0208333333333333
147
0.0
147
0.0
147
0.0
147
0.0
147
0.0208333333333333
147
0.0
147
0.0
147
0.0
147
0.0
147
1.0
147
0.0
147
0.0
147
0.0
147
0.0
147
1.0
  0
MATERIAL
  5
CB71
102
{ACAD_XDICTIONARY
360
CB72
102
}
102
{ACAD_REACTORS
330
CB60
102
}
330
CB60
100
AcDbMaterial
  1
Global
 72
     0
 43
0.0208333333333333
 43
0.0
 43
0.0
 43
0.0
 43
0.0
 43
0.0208333333333333
 43
0.0
 43
0.0
 43
0.0
 43
0.0
 43
1.0
 43
0.0
 43
0.0
 43
0.0
 43
0.0
 43
1.0
 77
     0
 47
0.0208333333333333
 47
0.0
 47
0.0
 47
0.0
 47
0.0
 47
0.0208333333333333
 47
0.0
 47
0.0
 47
0.0
 47
0.0
 47
1.0
 47
0.0
 47
0.0
 47
0.0
 47
0.0
 47
1.0
171
     0
 49
0.0208333333333333
 49
0.0
 49
0.0
 49
0.0
 49
0.0
 49
0.0208333333333333
 49
0.0
 49
0.0
 49
0.0
 49
0.0
 49
1.0
 49
0.0
 49
0.0
 49
0.0
 49
0.0
 49
1.0
175
     0
142
0.0208333333333333
142
0.0
142
0.0
142
0.0
142
0.0
142
0.0208333333333333
142
0.0
142
0.0
142
0.0
142
0.0
142
1.0
142
0.0
142
0.0
142
0.0
142
0.0
142
1.0
179
     0
144
0.0208333333333333
144
0.0
144
0.0
144
0.0
144
0.0
144
0.0208333333333333
144
0.0
144
0.0
144
0.0
144
0.0
144
1.0
144
0.0
144
0.0
144
0.0
144
0.0
144
1.0
147
0.0208333333333333
147
0.0
147
0.0
147
0.0
147
0.0
147
0.0208333333333333
147
0.0
147
0.0
147
0.0
147
0.0
147
1.0
147
0.0
147
0.0
147
0.0
147
0.0
147
1.0
  0
MLEADERSTYLE
  5
CBA8
102
{ACAD_REACTORS
330
CBA7
102
}
330
CBA7
100
AcDbMLeaderStyle
170
     2
171
     1
172
     0
 90
        2
 40
0.0
 41
0.0
173
     1
 91
-1056964608
340
C96D
 92
       -2
290
     1
 42
0.09
291
     1
 43
0.36
  3
Standard
 44
0.18
300

342
C96B
174
     1
178
     6
175
     1
176
     0
 93
-1056964608
 45
0.18
292
     0
297
     0
 46
0.18
 94
-1056964608
 47
1.0
 49
1.0
140
1.0
293
     1
141
0.0
294
     1
177
     0
142
1.0
295
     0
296
     0
143
0.125
1001
ACAD_MLEADERVER
1070
     2
  0
MLINESTYLE
  5
C971
102
{ACAD_REACTORS
330
C970
102
}
330
C970
100
AcDbMlineStyle
  2
STANDARD
 70
     0
  3

 62
   256
 51
90.0
 52
90.0
 71
     2
 49
0.5
 62
   256
  6
BYLAYER
 49
-0.5
 62
   256
  6
BYLAYER
  0
ACDBPLACEHOLDER
  5
CB5F
102
{ACAD_REACTORS
330
CB5E
102
}
330
CB5E
  0
SCALE
  5
CB96
102
{ACAD_REACTORS
330
CB95
102
}
330
CB95
100
AcDbScale
 70
     0
300
1:1
140
1.0
141
1.0
290
     1
  0
SCALE
  5
CB97
102
{ACAD_REACTORS
330
CB95
102
}
330
CB95
100
AcDbScale
 70
     0
300
1/128" = 1'-0"
140
0.0078125
141
12.0
290
     0
  0
SCALE
  5
CB98
102
{ACAD_REACTORS
330
CB95
102
}
330
CB95
100
AcDbScale
 70
     0
300
1/64" = 1'-0"
140
0.015625
141
12.0
290
     0
  0
SCALE
  5
CB99
102
{ACAD_REACTORS
330
CB95
102
}
330
CB95
100
AcDbScale
 70
     0
300
1/32" = 1'-0"
140
0.03125
141
12.0
290
     0
  0
SCALE
  5
CB9A
102
{ACAD_REACTORS
330
CB95
102
}
330
CB95
100
AcDbScale
 70
     0
300
1/16" = 1'-0"
140
0.0625
141
12.0
290
     0
  0
SCALE
  5
CB9B
102
{ACAD_REACTORS
330
CB95
102
}
330
CB95
100
AcDbScale
 70
     0
300
3/32" = 1'-0"
140
0.09375
141
12.0
290
     0
  0
SCALE
  5
CB9C
102
{ACAD_REACTORS
330
CB95
102
}
330
CB95
100
AcDbScale
 70
     0
300
1/8" = 1'-0"
140
0.125
141
12.0
290
     0
  0
SCALE
  5
CB9D
102
{ACAD_REACTORS
330
CB95
102
}
330
CB95
100
AcDbScale
 70
     0
300
3/16" = 1'-0"
140
0.1875
141
12.0
290
     0
  0
SCALE
  5
CB9E
102
{ACAD_REACTORS
330
CB95
102
}
330
CB95
100
AcDbScale
 70
     0
300
1/4" = 1'-0"
140
0.25
141
12.0
290
     0
  0
SCALE
  5
CB9F
102
{ACAD_REACTORS
330
CB95
102
}
330
CB95
100
AcDbScale
 70
     0
300
3/8" = 1'-0"
140
0.375
141
12.0
290
     0
  0
SCALE
  5
CBA0
102
{ACAD_REACTORS
330
CB95
102
}
330
CB95
100
AcDbScale
 70
     0
300
1/2" = 1'-0"
140
0.5
141
12.0
290
     0
  0
SCALE
  5
CBA1
102
{ACAD_REACTORS
330
CB95
102
}
330
CB95
100
AcDbScale
 70
     0
300
3/4" = 1'-0"
140
0.75
141
12.0
290
     0
  0
SCALE
  5
CBA2
102
{ACAD_REACTORS
330
CB95
102
}
330
CB95
100
AcDbScale
 70
     0
300
1" = 1'-0"
140
1.0
141
12.0
290
     0
  0
SCALE
  5
CBA3
102
{ACAD_REACTORS
330
CB95
102
}
330
CB95
100
AcDbScale
 70
     0
300
1-1/2" = 1'-0"
140
1.5
141
12.0
290
     0
  0
SCALE
  5
CBA4
102
{ACAD_REACTORS
330
CB95
102
}
330
CB95
100
AcDbScale
 70
     0
300
3" = 1'-0"
140
3.0
141
12.0
290
     0
  0
SCALE
  5
CBA5
102
{ACAD_REACTORS
330
CB95
102
}
330
CB95
100
AcDbScale
 70
     0
300
6" = 1'-0"
140
6.0
141
12.0
290
     0
  0
SCALE
  5
CBA6
102
{ACAD_REACTORS
330
CB95
102
}
330
CB95
100
AcDbScale
 70
     0
300
1'-0" = 1'-0"
140
12.0
141
12.0
290
     0
  0
ACDBSECTIONVIEWSTYLE
  5
CBAA
102
{ACAD_XDICTIONARY
360
CC05
102
}
102
{ACAD_REACTORS
330
CBA9
102
}
330
CBA9
100
AcDbModelDocViewStyle
 70
     0
  3
Imperial24
290
     0
100
AcDbSectionViewStyle
 70
     0
 71
     0
 90
       78
 71
     1
340
C96B
 40
0.24
340
0
340
0
 40
0.24
300
I, O, Q, S, X, Z
 40
0.48
 90
        3
 40
0.18
 90
        1
 71
     2
340
C96F
 90
       25
340
C96F
 90
       50
 40
0.24
 40
0.0
 40
0.24
 71
     3
340
C96B
 40
0.24
 90
        1
 40
0.75
 90
        1
300
%<\AcVar ViewType \f "%tc1">% %<\AcVar ViewSectionStartId>%-%<\AcVar ViewSectionEndId>%\PSCALE %<\AcVar ViewScale \f "%sn">%
 71
     4
300
ANSI31
 40
1.0
 90
        0
290
     0
290
     0
 90
        6
 40
0.0
 40
1.570796326794896
 40
0.2617993877991494
 40
1.308996938995747
 40
-0.2617993877991494
 40
1.832595714594046
  0
TABLESTYLE
  5
CB94
102
{ACAD_XDICTIONARY
360
CBCC
102
}
102
{ACAD_REACTORS
330
CB93
102
}
330
CB93
100
AcDbTableStyle
  3
Standard
 70
     0
 71
     0
 40
0.06
 41
0.06
280
     0
281
     0
  7
STANDARD
140
0.18
170
     2
 62
     0
 63
     7
283
     0
274
    -2
284
     1
 64
     0
275
    -2
285
     1
 65
     0
276
    -2
286
     1
 66
     0
277
    -2
287
     1
 67
     0
278
    -2
288
     1
 68
     0
279
    -2
289
     1
 69
     0
  7
STANDARD
140
0.25
170
     5
 62
     0
 63
     7
283
     0
274
    -2
284
     1
 64
     0
275
    -2
285
     1
 65
     0
276
    -2
286
     1
 66
     0
277
    -2
287
     1
 67
     0
278
    -2
288
     1
 68
     0
279
    -2
289
     1
 69
     0
  7
STANDARD
140
0.18
170
     5
 62
     0
 63
     7
283
     0
274
    -2
284
     1
 64
     0
275
    -2
285
     1
 65
     0
276
    -2
286
     1
 66
     0
277
    -2
287
     1
 67
     0
278
    -2
288
     1
 68
     0
279
    -2
289
     1
 69
     0
  0
VISUALSTYLE
  5
CB7F
102
{ACAD_XDICTIONARY
360
CBDD
102
}
102
{ACAD_REACTORS
330
CB79
102
}
330
CB79
100
AcDbVisualStyle
  2
2dWireframe
 70
     4
 71
     0
 72
     2
 73
     0
 90
        0
 40
-0.6
 41
-30.0
 62
     5
 63
     7
 74
     1
 91
        4
 64
     7
 65
   257
 75
     1
175
     1
 42
1.0
 92
        0
 66
   257
 43
1.0
 76
     1
 77
     6
 78
     2
 67
     7
 79
     5
170
     0
171
     0
290
     0
174
     0
 93
        1
 44
0.0
173
     0
291
     0
 45
0.0
1001
ACAD
1000
AcDbSavedByObjectVersion
1070
     0
  0
VISUALSTYLE
  5
CB7E
102
{ACAD_XDICTIONARY
360
CBDB
102
}
102
{ACAD_REACTORS
330
CB79
102
}
330
CB79
100
AcDbVisualStyle
  2
Basic
 70
     7
 71
     1
 72
     0
 73
     1
 90
        0
 40
-0.6
 41
-30.0
 62
     5
 63
     7
 74
     0
 91
        4
 64
     7
 65
   257
 75
     1
175
     1
 42
1.0
 92
        8
 66
     7
 43
1.0
 76
     1
 77
     6
 78
     2
 67
     7
 79
     5
170
     0
171
     0
290
     0
174
     0
 93
        1
 44
0.0
173
     0
291
     1
 45
0.0
1001
ACAD
1000
AcDbSavedByObjectVersion
1070
     0
  0
VISUALSTYLE
  5
CB85
102
{ACAD_XDICTIONARY
360
CBE9
102
}
102
{ACAD_REACTORS
330
CB79
102
}
330
CB79
100
AcDbVisualStyle
  2
Brighten
 70
    12
 71
     2
 72
     2
 73
     0
 90
        0
 40
-0.6
 41
-30.0
 62
     5
 63
     7
 74
     1
 91
        4
 64
     7
 65
   257
 75
     1
175
     1
 42
1.0
 92
        8
 66
     7
 43
1.0
 76
     1
 77
     6
 78
     2
 67
     7
 79
     5
170
     0
171
     0
290
     0
174
     0
 93
        1
 44
50.0
173
     0
291
     1
 45
0.0
1001
ACAD
1000
AcDbSavedByObjectVersion
1070
     0
  0
VISUALSTYLE
  5
CB89
102
{ACAD_XDICTIONARY
360
CBF1
102
}
102
{ACAD_REACTORS
330
CB79
102
}
330
CB79
100
AcDbVisualStyle
  2
ColorChange
 70
    16
 71
     2
 72
     2
 73
     3
 90
        0
 40
-0.6
 41
-30.0
 62
     5
 63
     8
 74
     1
 91
        4
 64
     7
 65
   257
 75
     1
175
     1
 42
1.0
 92
        8
 66
     8
 43
1.0
 76
     1
 77
     6
 78
     2
 67
     7
 79
     5
170
     0
171
     0
290
     0
174
     0
 93
        1
 44
0.0
173
     0
291
     1
 45
0.0
1001
ACAD
1000
AcDbSavedByObjectVersion
1070
     0
  0
VISUALSTYLE
  5
CB82
102
{ACAD_XDICTIONARY
360
CBE3
102
}
102
{ACAD_REACTORS
330
CB79
102
}
330
CB79
100
AcDbVisualStyle
  2
Conceptual
 70
     9
 71
     3
 72
     2
 73
     0
 90
        0
 40
-0.6
 41
-30.0
 62
     5
 63
     7
 74
     2
 91
        2
 64
     7
 65
   257
 75
     1
175
     1
 42
179.0
 92
        8
 66
     7
 43
1.0
 76
     1
 77
     6
 78
     2
 67
     7
 79
     3
170
     0
171
     0
290
     0
174
     0
 93
        1
 44
0.0
173
     0
291
     0
 45
0.0
1001
ACAD
1000
AcDbSavedByObjectVersion
1070
     0
  0
VISUALSTYLE
  5
CB84
102
{ACAD_XDICTIONARY
360
CBE7
102
}
102
{ACAD_REACTORS
330
CB79
102
}
330
CB79
100
AcDbVisualStyle
  2
Dim
 70
    11
 71
     2
 72
     2
 73
     0
 90
        0
 40
-0.6
 41
-30.0
 62
     5
 63
     7
 74
     1
 91
        4
 64
     7
 65
   257
 75
     1
175
     1
 42
1.0
 92
        8
 66
     7
 43
1.0
 76
     1
 77
     6
 78
     2
 67
     7
 79
     5
170
     0
171
     0
290
     0
174
     0
 93
        1
 44
-50.0
173
     0
291
     1
 45
0.0
1001
ACAD
1000
AcDbSavedByObjectVersion
1070
     0
  0
VISUALSTYLE
  5
CB91
102
{ACAD_XDICTIONARY
360
CC01
102
}
102
{ACAD_REACTORS
330
CB79
102
}
330
CB79
100
AcDbVisualStyle
  2
EdgeColorOff
 70
    22
 71
     2
 72
     2
 73
     0
 90
        0
 40
-0.6
 41
-30.0
 62
     5
 63
     7
 74
     1
 91
        4
 64
     7
 65
   257
 75
     1
175
     1
 42
1.0
 92
        8
 66
     7
 43
1.0
 76
     1
 77
     6
 78
     2
 67
     7
 79
     5
170
     0
171
     0
290
     0
174
     0
 93
        1
 44
0.0
173
     0
291
     1
 45
0.0
1001
ACAD
1000
AcDbSavedByObjectVersion
1070
     0
  0
VISUALSTYLE
  5
CB88
102
{ACAD_XDICTIONARY
360
CBEF
102
}
102
{ACAD_REACTORS
330
CB79
102
}
330
CB79
100
AcDbVisualStyle
  2
Facepattern
 70
    15
 71
     2
 72
     2
 73
     0
 90
        0
 40
-0.6
 41
-30.0
 62
     5
 63
     7
 74
     1
 91
        4
 64
     7
 65
   257
 75
     1
175
     1
 42
1.0
 92
        8
 66
     7
 43
1.0
 76
     1
 77
     6
 78
     2
 67
     7
 79
     5
170
     0
171
     0
290
     0
174
     0
 93
        1
 44
0.0
173
     0
291
     1
 45
0.0
1001
ACAD
1000
AcDbSavedByObjectVersion
1070
     0
  0
VISUALSTYLE
  5
CB7A
102
{ACAD_XDICTIONARY
360
CBD3
102
}
102
{ACAD_REACTORS
330
CB79
102
}
330
CB79
100
AcDbVisualStyle
  2
Flat
 70
     0
 71
     2
 72
     1
 73
     1
 90
        2
 40
-0.6
 41
30.0
 62
     5
 63
     7
 74
     0
 91
        0
 64
     7
 65
   257
 75
     1
175
     1
 42
1.0
 92
        8
 66
     7
 43
1.0
 76
     1
 77
     6
 78
     2
 67
     7
 79
     5
170
     0
171
     0
290
     0
174
     0
 93
       13
 44
0.0
173
     0
291
     1
 45
0.0
1001
ACAD
1000
AcDbSavedByObjectVersion
1070
     0
  0
VISUALSTYLE
  5
CB7B
102
{ACAD_XDICTIONARY
360
CBD5
102
}
102
{ACAD_REACTORS
330
CB79
102
}
330
CB79
100
AcDbVisualStyle
  2
FlatWithEdges
 70
     1
 71
     2
 72
     1
 73
     1
 90
        2
 40
-0.6
 41
30.0
 62
     5
 63
     7
 74
     1
 91
        0
 64
     7
 65
   257
 75
     1
175
     1
 42
1.0
 92
        0
 66
   257
 43
1.0
 76
     1
 77
     6
 78
     2
 67
     7
 79
     5
170
     0
171
     0
290
     0
174
     0
 93
       13
 44
0.0
173
     0
291
     1
 45
0.0
1001
ACAD
1000
AcDbSavedByObjectVersion
1070
     0
  0
VISUALSTYLE
  5
CB7C
102
{ACAD_XDICTIONARY
360
CBD7
102
}
102
{ACAD_REACTORS
330
CB79
102
}
330
CB79
100
AcDbVisualStyle
  2
Gouraud
 70
     2
 71
     2
 72
     2
 73
     1
 90
        2
 40
-0.6
 41
30.0
 62
     5
 63
     7
 74
     0
 91
        0
 64
     7
 65
   257
 75
     1
175
     1
 42
1.0
 92
        0
 66
     7
 43
1.0
 76
     1
 77
     6
 78
     2
 67
     7
 79
     5
170
     0
171
     0
290
     0
174
     0
 93
       13
 44
0.0
173
     0
291
     1
 45
0.0
1001
ACAD
1000
AcDbSavedByObjectVersion
1070
     0
  0
VISUALSTYLE
  5
CB7D
102
{ACAD_XDICTIONARY
360
CBD9
102
}
102
{ACAD_REACTORS
330
CB79
102
}
330
CB79
100
AcDbVisualStyle
  2
GouraudWithEdges
 70
     3
 71
     2
 72
     2
 73
     1
 90
        2
 40
-0.6
 41
30.0
 62
     5
 63
     7
 74
     1
 91
        0
 64
     7
 65
   257
 75
     1
175
     1
 42
1.0
 92
        0
 66
   257
 43
1.0
 76
     1
 77
     6
 78
     2
 67
     7
 79
     5
170
     0
171
     0
290
     0
174
     0
 93
       13
 44
0.0
173
     0
291
     1
 45
0.0
1001
ACAD
1000
AcDbSavedByObjectVersion
1070
     0
  0
VISUALSTYLE
  5
CB81
102
{ACAD_XDICTIONARY
360
CBE1
102
}
102
{ACAD_REACTORS
330
CB79
102
}
330
CB79
100
AcDbVisualStyle
  2
Hidden
 70
     6
 71
     1
 72
     2
 73
     2
 90
        0
 40
-0.6
 41
-30.0
 62
     5
 63
     7
 74
     2
 91
        2
 64
     7
 65
   257
 75
     2
175
     1
 42
40.0
 92
        0
 66
   257
 43
1.0
 76
     1
 77
     6
 78
     2
 67
     7
 79
     3
170
     0
171
     0
290
     0
174
     0
 93
        1
 44
0.0
173
     0
291
     0
 45
0.0
1001
ACAD
1000
AcDbSavedByObjectVersion
1070
     0
  0
VISUALSTYLE
  5
CB8F
102
{ACAD_XDICTIONARY
360
CBFD
102
}
102
{ACAD_REACTORS
330
CB79
102
}
330
CB79
100
AcDbVisualStyle
  2
JitterOff
 70
    20
 71
     2
 72
     2
 73
     0
 90
        0
 40
-0.6
 41
-30.0
 62
     5
 63
     7
 74
     1
 91
        4
 64
     7
 65
   257
 75
     1
175
     1
 42
1.0
 92
       10
 66
     7
 43
1.0
 76
     1
 77
     6
 78
     2
 67
     7
 79
     5
170
     0
171
     0
290
     0
174
     0
 93
        1
 44
0.0
173
     0
291
     1
 45
0.0
1001
ACAD
1000
AcDbSavedByObjectVersion
1070
     0
  0
VISUALSTYLE
  5
CB87
102
{ACAD_XDICTIONARY
360
CBED
102
}
102
{ACAD_REACTORS
330
CB79
102
}
330
CB79
100
AcDbVisualStyle
  2
Linepattern
 70
    14
 71
     2
 72
     2
 73
     0
 90
        0
 40
-0.6
 41
-30.0
 62
     5
 63
     7
 74
     1
 91
        4
 64
     7
 65
   257
 75
     7
175
     7
 42
1.0
 92
        8
 66
     7
 43
1.0
 76
     1
 77
     6
 78
     2
 67
     7
 79
     5
170
     0
171
     0
290
     0
174
     0
 93
        1
 44
0.0
173
     0
291
     1
 45
0.0
1001
ACAD
1000
AcDbSavedByObjectVersion
1070
     0
  0
VISUALSTYLE
  5
CB90
102
{ACAD_XDICTIONARY
360
CBFF
102
}
102
{ACAD_REACTORS
330
CB79
102
}
330
CB79
100
AcDbVisualStyle
  2
OverhangOff
 70
    21
 71
     2
 72
     2
 73
     0
 90
        0
 40
-0.6
 41
-30.0
 62
     5
 63
     7
 74
     1
 91
        4
 64
     7
 65
   257
 75
     1
175
     1
 42
1.0
 92
        9
 66
     7
 43
1.0
 76
     1
 77
     6
 78
     2
 67
     7
 79
     5
170
     0
171
     0
290
     0
174
     0
 93
        1
 44
0.0
173
     0
291
     1
 45
0.0
1001
ACAD
1000
AcDbSavedByObjectVersion
1070
     0
  0
VISUALSTYLE
  5
CB83
102
{ACAD_XDICTIONARY
360
CBE5
102
}
102
{ACAD_REACTORS
330
CB79
102
}
330
CB79
100
AcDbVisualStyle
  2
Realistic
 70
     8
 71
     2
 72
     3
 73
     0
 90
        2
 40
-0.6
 41
30.0
 62
     5
 63
     7
 74
     0
 91
        0
 64
     7
 65
   257
 75
     1
175
     1
 42
1.0
 92
        8
 66
   257
 43
1.0
 76
     1
 77
     6
 78
     2
 67
     7
 79
     3
170
     0
171
     0
290
     0
174
     0
 93
       13
 44
0.0
173
     0
291
     0
 45
0.0
1001
ACAD
1000
AcDbSavedByObjectVersion
1070
     0
  0
VISUALSTYLE
  5
CB8E
102
{ACAD_XDICTIONARY
360
CBFB
102
}
102
{ACAD_REACTORS
330
CB79
102
}
330
CB79
100
AcDbVisualStyle
  2
Shaded
 70
    27
 71
     2
 72
     2
 73
     1
 90
        2
 40
-0.6
 41
30.0
 62
     5
 63
     7
 74
     0
 91
        4
 64
     7
 65
   257
 75
     1
175
     1
 42
1.0
 92
        8
 66
   257
 43
1.0
 76
     1
 77
     6
 78
     2
 67
     8
 79
     3
170
     0
171
     0
290
     0
174
     0
 93
        5
 44
0.0
173
     0
291
     0
 45
0.0
1001
ACAD
1000
AcDbSavedByObjectVersion
1070
     0
  0
VISUALSTYLE
  5
CB8D
102
{ACAD_XDICTIONARY
360
CBF9
102
}
102
{ACAD_REACTORS
330
CB79
102
}
330
CB79
100
AcDbVisualStyle
  2
Shaded with edges
 70
    26
 71
     2
 72
     2
 73
     1
 90
        2
 40
-0.6
 41
30.0
 62
     5
 63
     7
 74
     1
 91
       10
 64
     7
 65
   257
 75
     2
175
     1
 42
1.0
 92
        8
 66
   257
 43
1.0
 76
     1
 77
     6
 78
     2
 67
     7
 79
     3
170
     0
171
     0
290
     0
174
     0
 93
        5
 44
0.0
173
     0
291
     0
 45
0.0
1001
ACAD
1000
AcDbSavedByObjectVersion
1070
     0
  0
VISUALSTYLE
  5
CB8A
102
{ACAD_XDICTIONARY
360
CBF3
102
}
102
{ACAD_REACTORS
330
CB79
102
}
330
CB79
100
AcDbVisualStyle
  2
Shades of Gray
 70
    23
 71
     2
 72
     2
 73
     3
 90
        0
 40
-0.6
 41
-30.0
 62
     5
 63
     7
 74
     2
 91
        2
 64
     7
 65
     7
 75
     1
175
     1
 42
40.0
 92
        8
 66
     7
 43
1.0
 76
     1
 77
     6
 78
     2
 67
     7
 79
     3
170
     0
171
     0
290
     0
174
     0
 93
        1
 44
0.0
173
     0
291
     0
 45
0.0
1001
ACAD
1000
AcDbSavedByObjectVersion
1070
     0
  0
VISUALSTYLE
  5
CB8B
102
{ACAD_XDICTIONARY
360
CBF5
102
}
102
{ACAD_REACTORS
330
CB79
102
}
330
CB79
100
AcDbVisualStyle
  2
Sketchy
 70
    24
 71
     1
 72
     2
 73
     2
 90
        0
 40
-0.6
 41
-30.0
 62
     5
 63
     7
 74
     2
 91
        2
 64
     7
 65
     7
 75
     1
175
     1
 42
40.0
 92
       11
 66
     7
 43
1.0
 76
     1
 77
     6
 78
     2
 67
     7
 79
     6
170
     0
171
     0
290
     0
174
     0
 93
        1
 44
0.0
173
     0
291
     0
 45
0.0
1001
ACAD
1000
AcDbSavedByObjectVersion
1070
     0
  0
VISUALSTYLE
  5
CB86
102
{ACAD_XDICTIONARY
360
CBEB
102
}
102
{ACAD_REACTORS
330
CB79
102
}
330
CB79
100
AcDbVisualStyle
  2
Thicken
 70
    13
 71
     2
 72
     2
 73
     0
 90
        0
 40
-0.6
 41
-30.0
 62
     5
 63
     7
 74
     1
 91
        4
 64
     7
 65
   257
 75
     1
175
     1
 42
1.0
 92
       12
 66
     7
 43
1.0
 76
     1
 77
     6
 78
     2
 67
     7
 79
     5
170
     0
171
     0
290
     0
174
     0
 93
        1
 44
0.0
173
     0
291
     1
 45
0.0
1001
ACAD
1000
AcDbSavedByObjectVersion
1070
     0
  0
VISUALSTYLE
  5
CB80
102
{ACAD_XDICTIONARY
360
CBDF
102
}
102
{ACAD_REACTORS
330
CB79
102
}
330
CB79
100
AcDbVisualStyle
  2
Wireframe
 70
     5
 71
     0
 72
     2
 73
     0
 90
        0
 40
-0.6
 41
-30.0
 62
     5
 63
     7
 74
     1
 91
        4
 64
     7
 65
   257
 75
     1
175
     1
 42
1.0
 92
        0
 66
   257
 43
1.0
 76
     1
 77
     6
 78
     2
 67
     7
 79
     3
170
     0
171
     0
290
     0
174
     0
 93
        1
 44
0.0
173
     0
291
     0
 45
0.0
1001
ACAD
1000
AcDbSavedByObjectVersion
1070
     0
  0
VISUALSTYLE
  5
CB8C
102
{ACAD_XDICTIONARY
360
CBF7
102
}
102
{ACAD_REACTORS
330
CB79
102
}
330
CB79
100
AcDbVisualStyle
  2
X-Ray
 70
    25
 71
     2
 72
     2
 73
     1
 90
        1
 40
0.5
 41
-30.0
 62
     5
 63
     7
 74
     1
 91
        0
 64
     7
 65
   257
 75
     1
175
     1
 42
1.0
 92
        8
 66
     7
 43
1.0
 76
     1
 77
     6
 78
     2
 67
     7
 79
     3
170
     0
171
     0
290
     0
174
     0
 93
       13
 44
0.0
173
     0
291
     0
 45
0.0
1001
ACAD
1000
AcDbSavedByObjectVersion
1070
     0
  0
DICTIONARYVAR
  5
CBC6
102
{ACAD_REACTORS
330
CBC1
102
}
330
CBC1
100
DictionaryVariables
280
     0
  1
1:1
  0
DICTIONARYVAR
  5
CBC3
102
{ACAD_REACTORS
330
CBC1
102
}
330
CBC1
100
DictionaryVariables
280
     0
  1
STANDARD
  0
DICTIONARYVAR
  5
CBC2
102
{ACAD_REACTORS
330
CBC1
102
}
330
CBC1
100
DictionaryVariables
280
     0
  1
STANDARD
  0
DICTIONARYVAR
  5
CBC4
102
{ACAD_REACTORS
330
CBC1
102
}
330
CBC1
100
DictionaryVariables
280
     0
  1
Imperial24
  0
DICTIONARYVAR
  5
CBC5
102
{ACAD_REACTORS
330
CBC1
102
}
330
CBC1
100
DictionaryVariables
280
     0
  1
Imperial24
  0
DICTIONARYVAR
  5
CBC9
102
{ACAD_REACTORS
330
CBC1
102
}
330
CBC1
100
DictionaryVariables
280
     0
  1
1
  0
DICTIONARYVAR
  5
CBC8
102
{ACAD_REACTORS
330
CBC1
102
}
330
CBC1
100
DictionaryVariables
280
     0
  1
0
  0
DICTIONARYVAR
  5
CBC7
102
{ACAD_REACTORS
330
CBC1
102
}
330
CBC1
100
DictionaryVariables
280
     0
  1
127
  0
DICTIONARYVAR
  5
CBCA
102
{ACAD_REACTORS
330
CBC1
102
}
330
CBC1
100
DictionaryVariables
280
     0
  1
2
  0
DICTIONARY
  5
CC07
330
CBAC
100
AcDbDictionary
280
     1
281
     1
  3
ACAD_XREC_ROUNDTRIP
360
CC08
  0
DICTIONARY
  5
CC09
330
CBAD
100
AcDbDictionary
280
     1
281
     1
  3
ACAD_XREC_ROUNDTRIP
360
CC0A
  0
DICTIONARY
  5
CC0B
330
CBAE
100
AcDbDictionary
280
     1
281
     1
  3
ACAD_XREC_ROUNDTRIP
360
CC0C
  0
DICTIONARY
  5
CB6A
330
CB69
100
AcDbDictionary
280
     1
281
     1
  3
ACAD_XREC_ROUNDTRIP
360
CBD1
  3
BUMPTILE
360
CB6C
  3
DIFFUSETILE
360
CB6B
  3
OPACITYTILE
360
CB6F
  3
REFLECTIONTILE
360
CB6E
  3
REFRACTIONTILE
360
CB70
  3
SPECULARTILE
360
CB6D
  0
DICTIONARY
  5
CB62
330
CB61
100
AcDbDictionary
280
     1
281
     1
  3
ACAD_XREC_ROUNDTRIP
360
CBD0
  3
BUMPTILE
360
CB64
  3
DIFFUSETILE
360
CB63
  3
OPACITYTILE
360
CB67
  3
REFLECTIONTILE
360
CB66
  3
REFRACTIONTILE
360
CB68
  3
SPECULARTILE
360
CB65
  0
DICTIONARY
  5
CB72
330
CB71
100
AcDbDictionary
280
     1
281
     1
  3
ACAD_XREC_ROUNDTRIP
360
CBD2
  3
BUMPTILE
360
CB74
  3
DIFFUSETILE
360
CB73
  3
OPACITYTILE
360
CB77
  3
REFLECTIONTILE
360
CB76
  3
REFRACTIONTILE
360
CB78
  3
SPECULARTILE
360
CB75
  0
DICTIONARY
  5
CC05
330
CBAA
100
AcDbDictionary
280
     1
281
     1
  3
ACAD_XREC_ROUNDTRIP
360
CC06
  0
DICTIONARY
  5
CBCC
330
CB94
100
AcDbDictionary
280
     1
281
     1
  3
ACAD_ROUNDTRIP_2008_TABLESTYLE_CELLSTYLEMAP
360
CBCD
  3
ACAD_XREC_ROUNDTRIP
360
CC03
  0
DICTIONARY
  5
CBDD
330
CB7F
100
AcDbDictionary
280
     1
281
     1
  3
ACAD_XREC_ROUNDTRIP
360
CBDE
  0
DICTIONARY
  5
CBDB
330
CB7E
100
AcDbDictionary
280
     1
281
     1
  3
ACAD_XREC_ROUNDTRIP
360
CBDC
  0
DICTIONARY
  5
CBE9
330
CB85
100
AcDbDictionary
280
     1
281
     1
  3
ACAD_XREC_ROUNDTRIP
360
CBEA
  0
DICTIONARY
  5
CBF1
330
CB89
100
AcDbDictionary
280
     1
281
     1
  3
ACAD_XREC_ROUNDTRIP
360
CBF2
  0
DICTIONARY
  5
CBE3
330
CB82
100
AcDbDictionary
280
     1
281
     1
  3
ACAD_XREC_ROUNDTRIP
360
CBE4
  0
DICTIONARY
  5
CBE7
330
CB84
100
AcDbDictionary
280
     1
281
     1
  3
ACAD_XREC_ROUNDTRIP
360
CBE8
  0
DICTIONARY
  5
CC01
330
CB91
100
AcDbDictionary
280
     1
281
     1
  3
ACAD_XREC_ROUNDTRIP
360
CC02
  0
DICTIONARY
  5
CBEF
330
CB88
100
AcDbDictionary
280
     1
281
     1
  3
ACAD_XREC_ROUNDTRIP
360
CBF0
  0
DICTIONARY
  5
CBD3
330
CB7A
100
AcDbDictionary
280
     1
281
     1
  3
ACAD_XREC_ROUNDTRIP
360
CBD4
  0
DICTIONARY
  5
CBD5
330
CB7B
100
AcDbDictionary
280
     1
281
     1
  3
ACAD_XREC_ROUNDTRIP
360
CBD6
  0
DICTIONARY
  5
CBD7
330
CB7C
100
AcDbDictionary
280
     1
281
     1
  3
ACAD_XREC_ROUNDTRIP
360
CBD8
  0
DICTIONARY
  5
CBD9
330
CB7D
100
AcDbDictionary
280
     1
281
     1
  3
ACAD_XREC_ROUNDTRIP
360
CBDA
  0
DICTIONARY
  5
CBE1
330
CB81
100
AcDbDictionary
280
     1
281
     1
  3
ACAD_XREC_ROUNDTRIP
360
CBE2
  0
DICTIONARY
  5
CBFD
330
CB8F
100
AcDbDictionary
280
     1
281
     1
  3
ACAD_XREC_ROUNDTRIP
360
CBFE
  0
DICTIONARY
  5
CBED
330
CB87
100
AcDbDictionary
280
     1
281
     1
  3
ACAD_XREC_ROUNDTRIP
360
CBEE
  0
DICTIONARY
  5
CBFF
330
CB90
100
AcDbDictionary
280
     1
281
     1
  3
ACAD_XREC_ROUNDTRIP
360
CC00
  0
DICTIONARY
  5
CBE5
330
CB83
100
AcDbDictionary
280
     1
281
     1
  3
ACAD_XREC_ROUNDTRIP
360
CBE6
  0
DICTIONARY
  5
CBFB
330
CB8E
100
AcDbDictionary
280
     1
281
     1
  3
ACAD_XREC_ROUNDTRIP
360
CBFC
  0
DICTIONARY
  5
CBF9
330
CB8D
100
AcDbDictionary
280
     1
281
     1
  3
ACAD_XREC_ROUNDTRIP
360
CBFA
  0
DICTIONARY
  5
CBF3
330
CB8A
100
AcDbDictionary
280
     1
281
     1
  3
ACAD_XREC_ROUNDTRIP
360
CBF4
  0
DICTIONARY
  5
CBF5
330
CB8B
100
AcDbDictionary
280
     1
281
     1
  3
ACAD_XREC_ROUNDTRIP
360
CBF6
  0
DICTIONARY
  5
CBEB
330
CB86
100
AcDbDictionary
280
     1
281
     1
  3
ACAD_XREC_ROUNDTRIP
360
CBEC
  0
DICTIONARY
  5
CBDF
330
CB80
100
AcDbDictionary
280
     1
281
     1
  3
ACAD_XREC_ROUNDTRIP
360
CBE0
  0
DICTIONARY
  5
CBF7
330
CB8C
100
AcDbDictionary
280
     1
281
     1
  3
ACAD_XREC_ROUNDTRIP
360
CBF8
  0
XRECORD
  5
CC08
102
{ACAD_REACTORS
330
CC07
102
}
330
CC07
100
AcDbXrecord
280
     1
102
DISPLAYNAME
  1
Imperial24
102
FLAGS
 90
        0
  0
XRECORD
  5
CC0A
102
{ACAD_REACTORS
330
CC09
102
}
330
CC09
100
AcDbXrecord
280
     1
102
SHADEPLOT
 70
     0
102
SHADEPLOTRESLEVEL
 70
     2
102
SHADEPLOTCUSTOMDPI
 70
   300
  0
XRECORD
  5
CC0C
102
{ACAD_REACTORS
330
CC0B
102
}
330
CC0B
100
AcDbXrecord
280
     1
102
SHADEPLOT
 70
     0
102
SHADEPLOTRESLEVEL
 70
     2
102
SHADEPLOTCUSTOMDPI
 70
   300
  0
XRECORD
  5
CBD1
102
{ACAD_REACTORS
330
CB6A
102
}
330
CB6A
100
AcDbXrecord
280
     1
102
MATERIAL
148
0.0
149
0.0
149
0.0
 93
        0
 94
      127
282
     0
 72
     0
 77
     0
171
     0
175
     0
179
     0
273
     0
  0
XRECORD
  5
CB6C
102
{ACAD_REACTORS
330
CB6A
102
}
330
CB6A
100
AcDbXrecord
280
     1
270
     1
271
     1
  0
XRECORD
  5
CB6B
102
{ACAD_REACTORS
330
CB6A
102
}
330
CB6A
100
AcDbXrecord
280
     1
270
     1
271
     1
  0
XRECORD
  5
CB6F
102
{ACAD_REACTORS
330
CB6A
102
}
330
CB6A
100
AcDbXrecord
280
     1
270
     1
271
     1
  0
XRECORD
  5
CB6E
102
{ACAD_REACTORS
330
CB6A
102
}
330
CB6A
100
AcDbXrecord
280
     1
270
     1
271
     1
  0
XRECORD
  5
CB70
102
{ACAD_REACTORS
330
CB6A
102
}
330
CB6A
100
AcDbXrecord
280
     1
270
     1
271
     1
  0
XRECORD
  5
CB6D
102
{ACAD_REACTORS
330
CB6A
102
}
330
CB6A
100
AcDbXrecord
280
     1
270
     1
271
     1
  0
XRECORD
  5
CBD0
102
{ACAD_REACTORS
330
CB62
102
}
330
CB62
100
AcDbXrecord
280
     1
102
MATERIAL
148
0.0
149
0.0
149
0.0
 93
        0
 94
      127
282
     0
 72
     0
 77
     0
171
     0
175
     0
179
     0
273
     0
  0
XRECORD
  5
CB64
102
{ACAD_REACTORS
330
CB62
102
}
330
CB62
100
AcDbXrecord
280
     1
270
     1
271
     1
  0
XRECORD
  5
CB63
102
{ACAD_REACTORS
330
CB62
102
}
330
CB62
100
AcDbXrecord
280
     1
270
     1
271
     1
  0
XRECORD
  5
CB67
102
{ACAD_REACTORS
330
CB62
102
}
330
CB62
100
AcDbXrecord
280
     1
270
     1
271
     1
  0
XRECORD
  5
CB66
102
{ACAD_REACTORS
330
CB62
102
}
330
CB62
100
AcDbXrecord
280
     1
270
     1
271
     1
  0
XRECORD
  5
CB68
102
{ACAD_REACTORS
330
CB62
102
}
330
CB62
100
AcDbXrecord
280
     1
270
     1
271
     1
  0
XRECORD
  5
CB65
102
{ACAD_REACTORS
330
CB62
102
}
330
CB62
100
AcDbXrecord
280
     1
270
     1
271
     1
  0
XRECORD
  5
CBD2
102
{ACAD_REACTORS
330
CB72
102
}
330
CB72
100
AcDbXrecord
280
     1
102
MATERIAL
148
0.0
149
0.0
149
0.0
 93
        0
 94
      127
282
     0
 72
     0
 77
     0
171
     0
175
     0
179
     0
273
     0
  0
XRECORD
  5
CB74
102
{ACAD_REACTORS
330
CB72
102
}
330
CB72
100
AcDbXrecord
280
     1
270
     1
271
     1
  0
XRECORD
  5
CB73
102
{ACAD_REACTORS
330
CB72
102
}
330
CB72
100
AcDbXrecord
280
     1
270
     1
271
     1
  0
XRECORD
  5
CB77
102
{ACAD_REACTORS
330
CB72
102
}
330
CB72
100
AcDbXrecord
280
     1
270
     1
271
     1
  0
XRECORD
  5
CB76
102
{ACAD_REACTORS
330
CB72
102
}
330
CB72
100
AcDbXrecord
280
     1
270
     1
271
     1
  0
XRECORD
  5
CB78
102
{ACAD_REACTORS
330
CB72
102
}
330
CB72
100
AcDbXrecord
280
     1
270
     1
271
     1
  0
XRECORD
  5
CB75
102
{ACAD_REACTORS
330
CB72
102
}
330
CB72
100
AcDbXrecord
280
     1
270
     1
271
     1
  0
XRECORD
  5
CC06
102
{ACAD_REACTORS
330
CC05
102
}
330
CC05
100
AcDbXrecord
280
     1
102
DISPLAYNAME
  1
Imperial24
102
FLAGS
 90
        0
  0
CELLSTYLEMAP
  5
CBCD
102
{ACAD_REACTORS
330
CBCC
102
}
330
CBCC
100
AcDbCellStyleMap
 90
        3
300
CELLSTYLE
  1
TABLEFORMAT_BEGIN
 90
        5
170
     1
 91
        0
 92
    32768
 62
   257
 93
        1
300
CONTENTFORMAT
  1
CONTENTFORMAT_BEGIN
 90
        0
 91
        0
 92
      512
 93
        0
300

 40
0.0
140
1.0
 94
        5
 62
     0
340
C96B
144
0.25
309
CONTENTFORMAT_END
171
     0
 94
        0
309
TABLEFORMAT_END
  1
CELLSTYLE_BEGIN
 90
        1
 91
        1
300
_TITLE
309
CELLSTYLE_END
300
CELLSTYLE
  1
TABLEFORMAT_BEGIN
 90
        5
170
     1
 91
        0
 92
        0
 62
   257
 93
        1
300
CONTENTFORMAT
  1
CONTENTFORMAT_BEGIN
 90
        0
 91
        0
 92
      512
 93
        0
300

 40
0.0
140
1.0
 94
        5
 62
     0
340
C96B
144
0.18
309
CONTENTFORMAT_END
171
     0
 94
        0
309
TABLEFORMAT_END
  1
CELLSTYLE_BEGIN
 90
        2
 91
        1
300
_HEADER
309
CELLSTYLE_END
300
CELLSTYLE
  1
TABLEFORMAT_BEGIN
 90
        5
170
     1
 91
        0
 92
        0
 62
   257
 93
        1
300
CONTENTFORMAT
  1
CONTENTFORMAT_BEGIN
 90
        0
 91
        0
 92
      512
 93
        0
300

 40
0.0
140
1.0
 94
        2
 62
     0
340
C96B
144
0.18
309
CONTENTFORMAT_END
171
     0
 94
        0
309
TABLEFORMAT_END
  1
CELLSTYLE_BEGIN
 90
        3
 91
        2
300
_DATA
309
CELLSTYLE_END
  0
XRECORD
  5
CC03
102
{ACAD_REACTORS
330
CBCC
102
}
330
CBCC
100
AcDbXrecord
280
     1
102
ACAD_ROUNDTRIP_PRE2007_TABLESTYLE
 90
      512
 91
        0
  1

 92
      512
 93
        0
  2

 94
      512
 95
        0
  3

  0
XRECORD
  5
CBDE
102
{ACAD_REACTORS
330
CBDD
102
}
330
CBDD
100
AcDbXrecord
280
     1
102
RTVSPost2010Prop28
280
     1
102
RTVSPost2010PropOp28
 70
     1
102
RTVSPost2010Prop29
280
     1
102
RTVSPost2010PropOp29
 70
     1
102
RTVSPost2010Prop30
280
     0
102
RTVSPost2010PropOp30
 70
     1
102
RTVSPost2010Prop31
280
     0
102
RTVSPost2010PropOp31
 70
     1
102
RTVSPost2010Prop32
280
     0
102
RTVSPost2010PropOp32
 70
     1
102
RTVSPost2010Prop33
280
     0
102
RTVSPost2010PropOp33
 70
     1
102
RTVSPost2010Prop34
280
     0
102
RTVSPost2010PropOp34
 70
     1
102
RTVSPost2010Prop35
280
     0
102
RTVSPost2010PropOp35
 70
     1
102
RTVSPost2010Prop36
280
     0
102
RTVSPost2010PropOp36
 70
     1
102
RTVSPost2010Prop37
 90
       50
102
RTVSPost2010PropOp37
 70
     1
102
RTVSPost2010Prop38
140
0.0
102
RTVSPost2010PropOp38
 70
     1
102
RTVSPost2010Prop39
140
1.0
102
RTVSPost2010PropOp39
 70
     1
102
RTVSPost2010Prop40
 90
        0
102
RTVSPost2010PropOp40
 70
     1
102
RTVSPost2010Prop41ColorIndex
 90
       18
102
RTVSPost2010Prop41ColorRGB
 90
        0
102
RTVSPost2010PropOp41
 70
     1
102
RTVSPost2010Prop42
 90
       50
102
RTVSPost2010PropOp42
 70
     1
102
RTVSPost2010Prop43
 90
        3
102
RTVSPost2010PropOp43
 70
     1
102
RTVSPost2010Prop44ColorIndex
 90
        5
102
RTVSPost2010Prop44ColorRGB
 90
      255
102
RTVSPost2010PropOp44
 70
     1
102
RTVSPost2010Prop45
280
     0
102
RTVSPost2010PropOp45
 70
     1
102
RTVSPost2010Prop46
 90
       50
102
RTVSPost2010PropOp46
 70
     1
102
RTVSPost2010Prop47
 90
       50
102
RTVSPost2010PropOp47
 70
     1
102
RTVSPost2010Prop48
 90
       50
102
RTVSPost2010PropOp48
 70
     1
102
RTVSPost2010Prop49
280
     0
102
RTVSPost2010PropOp49
 70
     1
102
RTVSPost2010Prop50
 90
       50
102
RTVSPost2010PropOp50
 70
     1
102
RTVSPost2010Prop51ColorIndex
 90
      256
102
RTVSPost2010Prop51ColorRGB
 90
-16777216
102
RTVSPost2010PropOp51
 70
     0
102
RTVSPost2010Prop52
140
1.0
102
RTVSPost2010PropOp52
 70
     0
102
RTVSPost2010Prop53
 90
        2
102
RTVSPost2010PropOp53
 70
     1
102
RTVSPost2010Prop54
  1
strokes_ogs.tif
102
RTVSPost2010PropOp54
 70
     1
102
RTVSPost2010Prop55
280
     0
102
RTVSPost2010PropOp55
 70
     1
102
RTVSPost2010Prop56
140
1.0
102
RTVSPost2010PropOp56
 70
     1
102
RTVSPost2010Prop57
140
1.0
102
RTVSPost2010PropOp57
 70
     1
102
RTVSPropertyOp0
 70
     1
102
RTVSPropertyOp1
 70
     1
102
RTVSPropertyOp2
 70
     1
102
RTVSPropertyOp3
 70
     1
102
RTVSPropertyOp4
 70
     1
102
RTVSPropertyOp5
 70
     1
102
RTVSPropertyOp6
 70
     1
102
RTVSPropertyOp7
 70
     1
102
RTVSPropertyOp8
 70
     1
102
RTVSPropertyOp9
 70
     1
102
RTVSPropertyOp10
 70
     1
102
RTVSPropertyOp11
 70
     1
102
RTVSPropertyOp12
 70
     1
102
RTVSPropertyOp13
 70
     1
102
RTVSPropertyOp14
 70
     1
102
RTVSPropertyOp15
 70
     1
102
RTVSPropertyOp16
 70
     1
102
RTVSPropertyOp17
 70
     1
102
RTVSPropertyOp18
 70
     1
102
RTVSPropertyOp19
 70
     1
102
RTVSPropertyOp20
 70
     1
102
RTVSPropertyOp21
 70
     1
102
RTVSPropertyOp22
 70
     1
102
RTVSPropertyOp23
 70
     1
102
RTVSPropertyOp24
 70
     1
102
RTVSPropertyOp25
 70
     1
102
RTVSPropertyOp26
 70
     1
102
RTVSPropertyOp27
 70
     1
102
RTVSPropertyOp28
 70
     1
102
RTVSPropertyOp29
 70
     1
102
RTVSPropertyOp30
 70
     1
102
RTVSPropertyOp31
 70
     1
102
RTVSPropertyOp32
 70
     1
102
RTVSPropertyOp33
 70
     1
102
RTVSPropertyOp34
 70
     1
102
RTVSPropertyOp35
 70
     1
102
RTVSPropertyOp36
 70
     1
102
RTVSPropertyOp37
 70
     1
102
RTVSPropertyOp38
 70
     1
102
RTVSPropertyOp39
 70
     1
102
RTVSPropertyOp40
 70
     1
102
RTVSPropertyOp41
 70
     1
102
RTVSPropertyOp42
 70
     1
102
RTVSPropertyOp43
 70
     1
102
RTVSPropertyOp44
 70
     1
102
RTVSPropertyOp45
 70
     1
102
RTVSPropertyOp46
 70
     1
102
RTVSPropertyOp47
 70
     1
102
RTVSPropertyOp48
 70
     1
102
RTVSPropertyOp49
 70
     1
102
RTVSPropertyOp50
 70
     1
102
RTVSPropertyOp51
 70
     0
102
RTVSPropertyOp52
 70
     0
102
RTVSPropertyOp53
 70
     1
102
RTVSPropertyOp54
 70
     1
102
RTVSPropertyOp55
 70
     1
102
RTVSPropertyOp56
 70
     1
102
RTVSPropertyOp57
 70
     1
102
RTVSPropertyOp58
 70
     1
102
RTVSPropertyOp59
 70
     1
102
RTVSPropertyOp60
 70
     1
102
RTVSPropertyOp61
 70
     1
102
RTVSPropertyOp62
 70
     1
  0
XRECORD
  5
CBDC
102
{ACAD_REACTORS
330
CBDB
102
}
330
CBDB
100
AcDbXrecord
280
     1
102
RTVSPost2010Prop28
280
     0
102
RTVSPost2010PropOp28
 70
     1
102
RTVSPost2010Prop29
280
     1
102
RTVSPost2010PropOp29
 70
     1
102
RTVSPost2010Prop30
280
     1
102
RTVSPost2010PropOp30
 70
     1
102
RTVSPost2010Prop31
280
     0
102
RTVSPost2010PropOp31
 70
     1
102
RTVSPost2010Prop32
280
     0
102
RTVSPost2010PropOp32
 70
     1
102
RTVSPost2010Prop33
280
     0
102
RTVSPost2010PropOp33
 70
     1
102
RTVSPost2010Prop34
280
     0
102
RTVSPost2010PropOp34
 70
     1
102
RTVSPost2010Prop35
280
     0
102
RTVSPost2010PropOp35
 70
     1
102
RTVSPost2010Prop36
280
     0
102
RTVSPost2010PropOp36
 70
     1
102
RTVSPost2010Prop37
 90
       50
102
RTVSPost2010PropOp37
 70
     1
102
RTVSPost2010Prop38
140
0.0
102
RTVSPost2010PropOp38
 70
     1
102
RTVSPost2010Prop39
140
1.0
102
RTVSPost2010PropOp39
 70
     1
102
RTVSPost2010Prop40
 90
        0
102
RTVSPost2010PropOp40
 70
     1
102
RTVSPost2010Prop41ColorIndex
 90
       18
102
RTVSPost2010Prop41ColorRGB
 90
        0
102
RTVSPost2010PropOp41
 70
     1
102
RTVSPost2010Prop42
 90
       50
102
RTVSPost2010PropOp42
 70
     1
102
RTVSPost2010Prop43
 90
        3
102
RTVSPost2010PropOp43
 70
     1
102
RTVSPost2010Prop44ColorIndex
 90
        5
102
RTVSPost2010Prop44ColorRGB
 90
      255
102
RTVSPost2010PropOp44
 70
     1
102
RTVSPost2010Prop45
280
     0
102
RTVSPost2010PropOp45
 70
     1
102
RTVSPost2010Prop46
 90
       50
102
RTVSPost2010PropOp46
 70
     1
102
RTVSPost2010Prop47
 90
       50
102
RTVSPost2010PropOp47
 70
     1
102
RTVSPost2010Prop48
 90
       50
102
RTVSPost2010PropOp48
 70
     1
102
RTVSPost2010Prop49
280
     0
102
RTVSPost2010PropOp49
 70
     1
102
RTVSPost2010Prop50
 90
       50
102
RTVSPost2010PropOp50
 70
     1
102
RTVSPost2010Prop51ColorIndex
 90
      256
102
RTVSPost2010Prop51ColorRGB
 90
-16777216
102
RTVSPost2010PropOp51
 70
     0
102
RTVSPost2010Prop52
140
1.0
102
RTVSPost2010PropOp52
 70
     0
102
RTVSPost2010Prop53
 90
        2
102
RTVSPost2010PropOp53
 70
     1
102
RTVSPost2010Prop54
  1
strokes_ogs.tif
102
RTVSPost2010PropOp54
 70
     1
102
RTVSPost2010Prop55
280
     0
102
RTVSPost2010PropOp55
 70
     1
102
RTVSPost2010Prop56
140
1.0
102
RTVSPost2010PropOp56
 70
     1
102
RTVSPost2010Prop57
140
1.0
102
RTVSPost2010PropOp57
 70
     1
102
RTVSPropertyOp0
 70
     1
102
RTVSPropertyOp1
 70
     1
102
RTVSPropertyOp2
 70
     1
102
RTVSPropertyOp3
 70
     1
102
RTVSPropertyOp4
 70
     1
102
RTVSPropertyOp5
 70
     1
102
RTVSPropertyOp6
 70
     1
102
RTVSPropertyOp7
 70
     1
102
RTVSPropertyOp8
 70
     1
102
RTVSPropertyOp9
 70
     1
102
RTVSPropertyOp10
 70
     1
102
RTVSPropertyOp11
 70
     1
102
RTVSPropertyOp12
 70
     1
102
RTVSPropertyOp13
 70
     1
102
RTVSPropertyOp14
 70
     1
102
RTVSPropertyOp15
 70
     1
102
RTVSPropertyOp16
 70
     1
102
RTVSPropertyOp17
 70
     1
102
RTVSPropertyOp18
 70
     1
102
RTVSPropertyOp19
 70
     1
102
RTVSPropertyOp20
 70
     1
102
RTVSPropertyOp21
 70
     1
102
RTVSPropertyOp22
 70
     1
102
RTVSPropertyOp23
 70
     1
102
RTVSPropertyOp24
 70
     1
102
RTVSPropertyOp25
 70
     1
102
RTVSPropertyOp26
 70
     1
102
RTVSPropertyOp27
 70
     1
102
RTVSPropertyOp28
 70
     1
102
RTVSPropertyOp29
 70
     1
102
RTVSPropertyOp30
 70
     1
102
RTVSPropertyOp31
 70
     1
102
RTVSPropertyOp32
 70
     1
102
RTVSPropertyOp33
 70
     1
102
RTVSPropertyOp34
 70
     1
102
RTVSPropertyOp35
 70
     1
102
RTVSPropertyOp36
 70
     1
102
RTVSPropertyOp37
 70
     1
102
RTVSPropertyOp38
 70
     1
102
RTVSPropertyOp39
 70
     1
102
RTVSPropertyOp40
 70
     1
102
RTVSPropertyOp41
 70
     1
102
RTVSPropertyOp42
 70
     1
102
RTVSPropertyOp43
 70
     1
102
RTVSPropertyOp44
 70
     1
102
RTVSPropertyOp45
 70
     1
102
RTVSPropertyOp46
 70
     1
102
RTVSPropertyOp47
 70
     1
102
RTVSPropertyOp48
 70
     1
102
RTVSPropertyOp49
 70
     1
102
RTVSPropertyOp50
 70
     1
102
RTVSPropertyOp51
 70
     0
102
RTVSPropertyOp52
 70
     0
102
RTVSPropertyOp53
 70
     1
102
RTVSPropertyOp54
 70
     1
102
RTVSPropertyOp55
 70
     1
102
RTVSPropertyOp56
 70
     1
102
RTVSPropertyOp57
 70
     1
102
RTVSPropertyOp58
 70
     1
102
RTVSPropertyOp59
 70
     1
102
RTVSPropertyOp60
 70
     1
102
RTVSPropertyOp61
 70
     1
102
RTVSPropertyOp62
 70
     1
  0
XRECORD
  5
CBEA
102
{ACAD_REACTORS
330
CBE9
102
}
330
CBE9
100
AcDbXrecord
280
     1
102
RTVSPost2010Prop28
280
     0
102
RTVSPost2010PropOp28
 70
     1
102
RTVSPost2010Prop29
280
     1
102
RTVSPost2010PropOp29
 70
     1
102
RTVSPost2010Prop30
280
     1
102
RTVSPost2010PropOp30
 70
     1
102
RTVSPost2010Prop31
280
     0
102
RTVSPost2010PropOp31
 70
     1
102
RTVSPost2010Prop32
280
     0
102
RTVSPost2010PropOp32
 70
     1
102
RTVSPost2010Prop33
280
     0
102
RTVSPost2010PropOp33
 70
     1
102
RTVSPost2010Prop34
280
     0
102
RTVSPost2010PropOp34
 70
     1
102
RTVSPost2010Prop35
280
     0
102
RTVSPost2010PropOp35
 70
     1
102
RTVSPost2010Prop36
280
     0
102
RTVSPost2010PropOp36
 70
     1
102
RTVSPost2010Prop37
 90
       50
102
RTVSPost2010PropOp37
 70
     1
102
RTVSPost2010Prop38
140
0.0
102
RTVSPost2010PropOp38
 70
     1
102
RTVSPost2010Prop39
140
1.0
102
RTVSPost2010PropOp39
 70
     1
102
RTVSPost2010Prop40
 90
        0
102
RTVSPost2010PropOp40
 70
     1
102
RTVSPost2010Prop41ColorIndex
 90
       18
102
RTVSPost2010Prop41ColorRGB
 90
        0
102
RTVSPost2010PropOp41
 70
     1
102
RTVSPost2010Prop42
 90
       50
102
RTVSPost2010PropOp42
 70
     1
102
RTVSPost2010Prop43
 90
        3
102
RTVSPost2010PropOp43
 70
     1
102
RTVSPost2010Prop44ColorIndex
 90
        5
102
RTVSPost2010Prop44ColorRGB
 90
      255
102
RTVSPost2010PropOp44
 70
     1
102
RTVSPost2010Prop45
280
     0
102
RTVSPost2010PropOp45
 70
     1
102
RTVSPost2010Prop46
 90
       50
102
RTVSPost2010PropOp46
 70
     1
102
RTVSPost2010Prop47
 90
       50
102
RTVSPost2010PropOp47
 70
     1
102
RTVSPost2010Prop48
 90
       50
102
RTVSPost2010PropOp48
 70
     1
102
RTVSPost2010Prop49
280
     0
102
RTVSPost2010PropOp49
 70
     1
102
RTVSPost2010Prop50
 90
       50
102
RTVSPost2010PropOp50
 70
     1
102
RTVSPost2010Prop51ColorIndex
 90
      256
102
RTVSPost2010Prop51ColorRGB
 90
-16777216
102
RTVSPost2010PropOp51
 70
     0
102
RTVSPost2010Prop52
140
1.0
102
RTVSPost2010PropOp52
 70
     0
102
RTVSPost2010Prop53
 90
        2
102
RTVSPost2010PropOp53
 70
     1
102
RTVSPost2010Prop54
  1
strokes_ogs.tif
102
RTVSPost2010PropOp54
 70
     1
102
RTVSPost2010Prop55
280
     0
102
RTVSPost2010PropOp55
 70
     1
102
RTVSPost2010Prop56
140
1.0
102
RTVSPost2010PropOp56
 70
     1
102
RTVSPost2010Prop57
140
1.0
102
RTVSPost2010PropOp57
 70
     1
102
RTVSPropertyOp0
 70
     1
102
RTVSPropertyOp1
 70
     1
102
RTVSPropertyOp2
 70
     1
102
RTVSPropertyOp3
 70
     1
102
RTVSPropertyOp4
 70
     1
102
RTVSPropertyOp5
 70
     1
102
RTVSPropertyOp6
 70
     1
102
RTVSPropertyOp7
 70
     1
102
RTVSPropertyOp8
 70
     1
102
RTVSPropertyOp9
 70
     1
102
RTVSPropertyOp10
 70
     1
102
RTVSPropertyOp11
 70
     1
102
RTVSPropertyOp12
 70
     1
102
RTVSPropertyOp13
 70
     1
102
RTVSPropertyOp14
 70
     1
102
RTVSPropertyOp15
 70
     1
102
RTVSPropertyOp16
 70
     1
102
RTVSPropertyOp17
 70
     1
102
RTVSPropertyOp18
 70
     1
102
RTVSPropertyOp19
 70
     1
102
RTVSPropertyOp20
 70
     1
102
RTVSPropertyOp21
 70
     1
102
RTVSPropertyOp22
 70
     1
102
RTVSPropertyOp23
 70
     1
102
RTVSPropertyOp24
 70
     1
102
RTVSPropertyOp25
 70
     1
102
RTVSPropertyOp26
 70
     1
102
RTVSPropertyOp27
 70
     1
102
RTVSPropertyOp28
 70
     1
102
RTVSPropertyOp29
 70
     1
102
RTVSPropertyOp30
 70
     1
102
RTVSPropertyOp31
 70
     1
102
RTVSPropertyOp32
 70
     1
102
RTVSPropertyOp33
 70
     1
102
RTVSPropertyOp34
 70
     1
102
RTVSPropertyOp35
 70
     1
102
RTVSPropertyOp36
 70
     1
102
RTVSPropertyOp37
 70
     1
102
RTVSPropertyOp38
 70
     1
102
RTVSPropertyOp39
 70
     1
102
RTVSPropertyOp40
 70
     1
102
RTVSPropertyOp41
 70
     1
102
RTVSPropertyOp42
 70
     1
102
RTVSPropertyOp43
 70
     1
102
RTVSPropertyOp44
 70
     1
102
RTVSPropertyOp45
 70
     1
102
RTVSPropertyOp46
 70
     1
102
RTVSPropertyOp47
 70
     1
102
RTVSPropertyOp48
 70
     1
102
RTVSPropertyOp49
 70
     1
102
RTVSPropertyOp50
 70
     1
102
RTVSPropertyOp51
 70
     0
102
RTVSPropertyOp52
 70
     0
102
RTVSPropertyOp53
 70
     1
102
RTVSPropertyOp54
 70
     1
102
RTVSPropertyOp55
 70
     1
102
RTVSPropertyOp56
 70
     1
102
RTVSPropertyOp57
 70
     1
102
RTVSPropertyOp58
 70
     1
102
RTVSPropertyOp59
 70
     1
102
RTVSPropertyOp60
 70
     1
102
RTVSPropertyOp61
 70
     1
102
RTVSPropertyOp62
 70
     1
  0
XRECORD
  5
CBF2
102
{ACAD_REACTORS
330
CBF1
102
}
330
CBF1
100
AcDbXrecord
280
     1
102
RTVSPost2010Prop28
280
     0
102
RTVSPost2010PropOp28
 70
     1
102
RTVSPost2010Prop29
280
     1
102
RTVSPost2010PropOp29
 70
     1
102
RTVSPost2010Prop30
280
     1
102
RTVSPost2010PropOp30
 70
     1
102
RTVSPost2010Prop31
280
     0
102
RTVSPost2010PropOp31
 70
     1
102
RTVSPost2010Prop32
280
     0
102
RTVSPost2010PropOp32
 70
     1
102
RTVSPost2010Prop33
280
     0
102
RTVSPost2010PropOp33
 70
     1
102
RTVSPost2010Prop34
280
     0
102
RTVSPost2010PropOp34
 70
     1
102
RTVSPost2010Prop35
280
     0
102
RTVSPost2010PropOp35
 70
     1
102
RTVSPost2010Prop36
280
     0
102
RTVSPost2010PropOp36
 70
     1
102
RTVSPost2010Prop37
 90
       50
102
RTVSPost2010PropOp37
 70
     1
102
RTVSPost2010Prop38
140
0.0
102
RTVSPost2010PropOp38
 70
     1
102
RTVSPost2010Prop39
140
1.0
102
RTVSPost2010PropOp39
 70
     1
102
RTVSPost2010Prop40
 90
        0
102
RTVSPost2010PropOp40
 70
     1
102
RTVSPost2010Prop41ColorIndex
 90
       18
102
RTVSPost2010Prop41ColorRGB
 90
        0
102
RTVSPost2010PropOp41
 70
     1
102
RTVSPost2010Prop42
 90
       50
102
RTVSPost2010PropOp42
 70
     1
102
RTVSPost2010Prop43
 90
        3
102
RTVSPost2010PropOp43
 70
     1
102
RTVSPost2010Prop44ColorIndex
 90
        5
102
RTVSPost2010Prop44ColorRGB
 90
      255
102
RTVSPost2010PropOp44
 70
     1
102
RTVSPost2010Prop45
280
     0
102
RTVSPost2010PropOp45
 70
     1
102
RTVSPost2010Prop46
 90
       50
102
RTVSPost2010PropOp46
 70
     1
102
RTVSPost2010Prop47
 90
       50
102
RTVSPost2010PropOp47
 70
     1
102
RTVSPost2010Prop48
 90
       50
102
RTVSPost2010PropOp48
 70
     1
102
RTVSPost2010Prop49
280
     0
102
RTVSPost2010PropOp49
 70
     1
102
RTVSPost2010Prop50
 90
       50
102
RTVSPost2010PropOp50
 70
     1
102
RTVSPost2010Prop51ColorIndex
 90
      256
102
RTVSPost2010Prop51ColorRGB
 90
-16777216
102
RTVSPost2010PropOp51
 70
     0
102
RTVSPost2010Prop52
140
1.0
102
RTVSPost2010PropOp52
 70
     0
102
RTVSPost2010Prop53
 90
        2
102
RTVSPost2010PropOp53
 70
     1
102
RTVSPost2010Prop54
  1
strokes_ogs.tif
102
RTVSPost2010PropOp54
 70
     1
102
RTVSPost2010Prop55
280
     0
102
RTVSPost2010PropOp55
 70
     1
102
RTVSPost2010Prop56
140
1.0
102
RTVSPost2010PropOp56
 70
     1
102
RTVSPost2010Prop57
140
1.0
102
RTVSPost2010PropOp57
 70
     1
102
RTVSPropertyOp0
 70
     1
102
RTVSPropertyOp1
 70
     1
102
RTVSPropertyOp2
 70
     1
102
RTVSPropertyOp3
 70
     1
102
RTVSPropertyOp4
 70
     1
102
RTVSPropertyOp5
 70
     1
102
RTVSPropertyOp6
 70
     1
102
RTVSPropertyOp7
 70
     1
102
RTVSPropertyOp8
 70
     1
102
RTVSPropertyOp9
 70
     1
102
RTVSPropertyOp10
 70
     1
102
RTVSPropertyOp11
 70
     1
102
RTVSPropertyOp12
 70
     1
102
RTVSPropertyOp13
 70
     1
102
RTVSPropertyOp14
 70
     1
102
RTVSPropertyOp15
 70
     1
102
RTVSPropertyOp16
 70
     1
102
RTVSPropertyOp17
 70
     1
102
RTVSPropertyOp18
 70
     1
102
RTVSPropertyOp19
 70
     1
102
RTVSPropertyOp20
 70
     1
102
RTVSPropertyOp21
 70
     1
102
RTVSPropertyOp22
 70
     1
102
RTVSPropertyOp23
 70
     1
102
RTVSPropertyOp24
 70
     1
102
RTVSPropertyOp25
 70
     1
102
RTVSPropertyOp26
 70
     1
102
RTVSPropertyOp27
 70
     1
102
RTVSPropertyOp28
 70
     1
102
RTVSPropertyOp29
 70
     1
102
RTVSPropertyOp30
 70
     1
102
RTVSPropertyOp31
 70
     1
102
RTVSPropertyOp32
 70
     1
102
RTVSPropertyOp33
 70
     1
102
RTVSPropertyOp34
 70
     1
102
RTVSPropertyOp35
 70
     1
102
RTVSPropertyOp36
 70
     1
102
RTVSPropertyOp37
 70
     1
102
RTVSPropertyOp38
 70
     1
102
RTVSPropertyOp39
 70
     1
102
RTVSPropertyOp40
 70
     1
102
RTVSPropertyOp41
 70
     1
102
RTVSPropertyOp42
 70
     1
102
RTVSPropertyOp43
 70
     1
102
RTVSPropertyOp44
 70
     1
102
RTVSPropertyOp45
 70
     1
102
RTVSPropertyOp46
 70
     1
102
RTVSPropertyOp47
 70
     1
102
RTVSPropertyOp48
 70
     1
102
RTVSPropertyOp49
 70
     1
102
RTVSPropertyOp50
 70
     1
102
RTVSPropertyOp51
 70
     0
102
RTVSPropertyOp52
 70
     0
102
RTVSPropertyOp53
 70
     1
102
RTVSPropertyOp54
 70
     1
102
RTVSPropertyOp55
 70
     1
102
RTVSPropertyOp56
 70
     1
102
RTVSPropertyOp57
 70
     1
102
RTVSPropertyOp58
 70
     1
102
RTVSPropertyOp59
 70
     1
102
RTVSPropertyOp60
 70
     1
102
RTVSPropertyOp61
 70
     1
102
RTVSPropertyOp62
 70
     1
  0
XRECORD
  5
CBE4
102
{ACAD_REACTORS
330
CBE3
102
}
330
CBE3
100
AcDbXrecord
280
     1
102
RTVSPost2010Prop28
280
     0
102
RTVSPost2010PropOp28
 70
     1
102
RTVSPost2010Prop29
280
     1
102
RTVSPost2010PropOp29
 70
     1
102
RTVSPost2010Prop30
280
     1
102
RTVSPost2010PropOp30
 70
     1
102
RTVSPost2010Prop31
280
     0
102
RTVSPost2010PropOp31
 70
     1
102
RTVSPost2010Prop32
280
     0
102
RTVSPost2010PropOp32
 70
     1
102
RTVSPost2010Prop33
280
     0
102
RTVSPost2010PropOp33
 70
     1
102
RTVSPost2010Prop34
280
     0
102
RTVSPost2010PropOp34
 70
     1
102
RTVSPost2010Prop35
280
     0
102
RTVSPost2010PropOp35
 70
     1
102
RTVSPost2010Prop36
280
     0
102
RTVSPost2010PropOp36
 70
     1
102
RTVSPost2010Prop37
 90
       50
102
RTVSPost2010PropOp37
 70
     1
102
RTVSPost2010Prop38
140
0.0
102
RTVSPost2010PropOp38
 70
     1
102
RTVSPost2010Prop39
140
1.0
102
RTVSPost2010PropOp39
 70
     1
102
RTVSPost2010Prop40
 90
        0
102
RTVSPost2010PropOp40
 70
     1
102
RTVSPost2010Prop41ColorIndex
 90
       18
102
RTVSPost2010Prop41ColorRGB
 90
        0
102
RTVSPost2010PropOp41
 70
     1
102
RTVSPost2010Prop42
 90
       50
102
RTVSPost2010PropOp42
 70
     1
102
RTVSPost2010Prop43
 90
        3
102
RTVSPost2010PropOp43
 70
     1
102
RTVSPost2010Prop44ColorIndex
 90
        5
102
RTVSPost2010Prop44ColorRGB
 90
      255
102
RTVSPost2010PropOp44
 70
     1
102
RTVSPost2010Prop45
280
     0
102
RTVSPost2010PropOp45
 70
     1
102
RTVSPost2010Prop46
 90
       50
102
RTVSPost2010PropOp46
 70
     1
102
RTVSPost2010Prop47
 90
       50
102
RTVSPost2010PropOp47
 70
     1
102
RTVSPost2010Prop48
 90
       50
102
RTVSPost2010PropOp48
 70
     1
102
RTVSPost2010Prop49
280
     0
102
RTVSPost2010PropOp49
 70
     1
102
RTVSPost2010Prop50
 90
       50
102
RTVSPost2010PropOp50
 70
     1
102
RTVSPost2010Prop51ColorIndex
 90
      256
102
RTVSPost2010Prop51ColorRGB
 90
-16777216
102
RTVSPost2010PropOp51
 70
     0
102
RTVSPost2010Prop52
140
1.0
102
RTVSPost2010PropOp52
 70
     0
102
RTVSPost2010Prop53
 90
        2
102
RTVSPost2010PropOp53
 70
     1
102
RTVSPost2010Prop54
  1
strokes_ogs.tif
102
RTVSPost2010PropOp54
 70
     1
102
RTVSPost2010Prop55
280
     0
102
RTVSPost2010PropOp55
 70
     1
102
RTVSPost2010Prop56
140
1.0
102
RTVSPost2010PropOp56
 70
     1
102
RTVSPost2010Prop57
140
1.0
102
RTVSPost2010PropOp57
 70
     1
102
RTVSPropertyOp0
 70
     1
102
RTVSPropertyOp1
 70
     1
102
RTVSPropertyOp2
 70
     1
102
RTVSPropertyOp3
 70
     1
102
RTVSPropertyOp4
 70
     1
102
RTVSPropertyOp5
 70
     1
102
RTVSPropertyOp6
 70
     1
102
RTVSPropertyOp7
 70
     1
102
RTVSPropertyOp8
 70
     1
102
RTVSPropertyOp9
 70
     1
102
RTVSPropertyOp10
 70
     1
102
RTVSPropertyOp11
 70
     1
102
RTVSPropertyOp12
 70
     1
102
RTVSPropertyOp13
 70
     1
102
RTVSPropertyOp14
 70
     1
102
RTVSPropertyOp15
 70
     1
102
RTVSPropertyOp16
 70
     1
102
RTVSPropertyOp17
 70
     1
102
RTVSPropertyOp18
 70
     1
102
RTVSPropertyOp19
 70
     1
102
RTVSPropertyOp20
 70
     1
102
RTVSPropertyOp21
 70
     1
102
RTVSPropertyOp22
 70
     1
102
RTVSPropertyOp23
 70
     1
102
RTVSPropertyOp24
 70
     1
102
RTVSPropertyOp25
 70
     1
102
RTVSPropertyOp26
 70
     1
102
RTVSPropertyOp27
 70
     1
102
RTVSPropertyOp28
 70
     1
102
RTVSPropertyOp29
 70
     1
102
RTVSPropertyOp30
 70
     1
102
RTVSPropertyOp31
 70
     1
102
RTVSPropertyOp32
 70
     1
102
RTVSPropertyOp33
 70
     1
102
RTVSPropertyOp34
 70
     1
102
RTVSPropertyOp35
 70
     1
102
RTVSPropertyOp36
 70
     1
102
RTVSPropertyOp37
 70
     1
102
RTVSPropertyOp38
 70
     1
102
RTVSPropertyOp39
 70
     1
102
RTVSPropertyOp40
 70
     1
102
RTVSPropertyOp41
 70
     1
102
RTVSPropertyOp42
 70
     1
102
RTVSPropertyOp43
 70
     1
102
RTVSPropertyOp44
 70
     1
102
RTVSPropertyOp45
 70
     1
102
RTVSPropertyOp46
 70
     1
102
RTVSPropertyOp47
 70
     1
102
RTVSPropertyOp48
 70
     1
102
RTVSPropertyOp49
 70
     1
102
RTVSPropertyOp50
 70
     1
102
RTVSPropertyOp51
 70
     0
102
RTVSPropertyOp52
 70
     0
102
RTVSPropertyOp53
 70
     1
102
RTVSPropertyOp54
 70
     1
102
RTVSPropertyOp55
 70
     1
102
RTVSPropertyOp56
 70
     1
102
RTVSPropertyOp57
 70
     1
102
RTVSPropertyOp58
 70
     1
102
RTVSPropertyOp59
 70
     1
102
RTVSPropertyOp60
 70
     1
102
RTVSPropertyOp61
 70
     1
102
RTVSPropertyOp62
 70
     1
  0
XRECORD
  5
CBE8
102
{ACAD_REACTORS
330
CBE7
102
}
330
CBE7
100
AcDbXrecord
280
     1
102
RTVSPost2010Prop28
280
     0
102
RTVSPost2010PropOp28
 70
     1
102
RTVSPost2010Prop29
280
     1
102
RTVSPost2010PropOp29
 70
     1
102
RTVSPost2010Prop30
280
     1
102
RTVSPost2010PropOp30
 70
     1
102
RTVSPost2010Prop31
280
     0
102
RTVSPost2010PropOp31
 70
     1
102
RTVSPost2010Prop32
280
     0
102
RTVSPost2010PropOp32
 70
     1
102
RTVSPost2010Prop33
280
     0
102
RTVSPost2010PropOp33
 70
     1
102
RTVSPost2010Prop34
280
     0
102
RTVSPost2010PropOp34
 70
     1
102
RTVSPost2010Prop35
280
     0
102
RTVSPost2010PropOp35
 70
     1
102
RTVSPost2010Prop36
280
     0
102
RTVSPost2010PropOp36
 70
     1
102
RTVSPost2010Prop37
 90
       50
102
RTVSPost2010PropOp37
 70
     1
102
RTVSPost2010Prop38
140
0.0
102
RTVSPost2010PropOp38
 70
     1
102
RTVSPost2010Prop39
140
1.0
102
RTVSPost2010PropOp39
 70
     1
102
RTVSPost2010Prop40
 90
        0
102
RTVSPost2010PropOp40
 70
     1
102
RTVSPost2010Prop41ColorIndex
 90
       18
102
RTVSPost2010Prop41ColorRGB
 90
        0
102
RTVSPost2010PropOp41
 70
     1
102
RTVSPost2010Prop42
 90
       50
102
RTVSPost2010PropOp42
 70
     1
102
RTVSPost2010Prop43
 90
        3
102
RTVSPost2010PropOp43
 70
     1
102
RTVSPost2010Prop44ColorIndex
 90
        5
102
RTVSPost2010Prop44ColorRGB
 90
      255
102
RTVSPost2010PropOp44
 70
     1
102
RTVSPost2010Prop45
280
     0
102
RTVSPost2010PropOp45
 70
     1
102
RTVSPost2010Prop46
 90
       50
102
RTVSPost2010PropOp46
 70
     1
102
RTVSPost2010Prop47
 90
       50
102
RTVSPost2010PropOp47
 70
     1
102
RTVSPost2010Prop48
 90
       50
102
RTVSPost2010PropOp48
 70
     1
102
RTVSPost2010Prop49
280
     0
102
RTVSPost2010PropOp49
 70
     1
102
RTVSPost2010Prop50
 90
       50
102
RTVSPost2010PropOp50
 70
     1
102
RTVSPost2010Prop51ColorIndex
 90
      256
102
RTVSPost2010Prop51ColorRGB
 90
-16777216
102
RTVSPost2010PropOp51
 70
     0
102
RTVSPost2010Prop52
140
1.0
102
RTVSPost2010PropOp52
 70
     0
102
RTVSPost2010Prop53
 90
        2
102
RTVSPost2010PropOp53
 70
     1
102
RTVSPost2010Prop54
  1
strokes_ogs.tif
102
RTVSPost2010PropOp54
 70
     1
102
RTVSPost2010Prop55
280
     0
102
RTVSPost2010PropOp55
 70
     1
102
RTVSPost2010Prop56
140
1.0
102
RTVSPost2010PropOp56
 70
     1
102
RTVSPost2010Prop57
140
1.0
102
RTVSPost2010PropOp57
 70
     1
102
RTVSPropertyOp0
 70
     1
102
RTVSPropertyOp1
 70
     1
102
RTVSPropertyOp2
 70
     1
102
RTVSPropertyOp3
 70
     1
102
RTVSPropertyOp4
 70
     1
102
RTVSPropertyOp5
 70
     1
102
RTVSPropertyOp6
 70
     1
102
RTVSPropertyOp7
 70
     1
102
RTVSPropertyOp8
 70
     1
102
RTVSPropertyOp9
 70
     1
102
RTVSPropertyOp10
 70
     1
102
RTVSPropertyOp11
 70
     1
102
RTVSPropertyOp12
 70
     1
102
RTVSPropertyOp13
 70
     1
102
RTVSPropertyOp14
 70
     1
102
RTVSPropertyOp15
 70
     1
102
RTVSPropertyOp16
 70
     1
102
RTVSPropertyOp17
 70
     1
102
RTVSPropertyOp18
 70
     1
102
RTVSPropertyOp19
 70
     1
102
RTVSPropertyOp20
 70
     1
102
RTVSPropertyOp21
 70
     1
102
RTVSPropertyOp22
 70
     1
102
RTVSPropertyOp23
 70
     1
102
RTVSPropertyOp24
 70
     1
102
RTVSPropertyOp25
 70
     1
102
RTVSPropertyOp26
 70
     1
102
RTVSPropertyOp27
 70
     1
102
RTVSPropertyOp28
 70
     1
102
RTVSPropertyOp29
 70
     1
102
RTVSPropertyOp30
 70
     1
102
RTVSPropertyOp31
 70
     1
102
RTVSPropertyOp32
 70
     1
102
RTVSPropertyOp33
 70
     1
102
RTVSPropertyOp34
 70
     1
102
RTVSPropertyOp35
 70
     1
102
RTVSPropertyOp36
 70
     1
102
RTVSPropertyOp37
 70
     1
102
RTVSPropertyOp38
 70
     1
102
RTVSPropertyOp39
 70
     1
102
RTVSPropertyOp40
 70
     1
102
RTVSPropertyOp41
 70
     1
102
RTVSPropertyOp42
 70
     1
102
RTVSPropertyOp43
 70
     1
102
RTVSPropertyOp44
 70
     1
102
RTVSPropertyOp45
 70
     1
102
RTVSPropertyOp46
 70
     1
102
RTVSPropertyOp47
 70
     1
102
RTVSPropertyOp48
 70
     1
102
RTVSPropertyOp49
 70
     1
102
RTVSPropertyOp50
 70
     1
102
RTVSPropertyOp51
 70
     0
102
RTVSPropertyOp52
 70
     0
102
RTVSPropertyOp53
 70
     1
102
RTVSPropertyOp54
 70
     1
102
RTVSPropertyOp55
 70
     1
102
RTVSPropertyOp56
 70
     1
102
RTVSPropertyOp57
 70
     1
102
RTVSPropertyOp58
 70
     1
102
RTVSPropertyOp59
 70
     1
102
RTVSPropertyOp60
 70
     1
102
RTVSPropertyOp61
 70
     1
102
RTVSPropertyOp62
 70
     1
  0
XRECORD
  5
CC02
102
{ACAD_REACTORS
330
CC01
102
}
330
CC01
100
AcDbXrecord
280
     1
102
RTVSPost2010Prop28
280
     0
102
RTVSPost2010PropOp28
 70
     1
102
RTVSPost2010Prop29
280
     1
102
RTVSPost2010PropOp29
 70
     1
102
RTVSPost2010Prop30
280
     1
102
RTVSPost2010PropOp30
 70
     1
102
RTVSPost2010Prop31
280
     0
102
RTVSPost2010PropOp31
 70
     1
102
RTVSPost2010Prop32
280
     0
102
RTVSPost2010PropOp32
 70
     1
102
RTVSPost2010Prop33
280
     0
102
RTVSPost2010PropOp33
 70
     1
102
RTVSPost2010Prop34
280
     0
102
RTVSPost2010PropOp34
 70
     1
102
RTVSPost2010Prop35
280
     0
102
RTVSPost2010PropOp35
 70
     1
102
RTVSPost2010Prop36
280
     0
102
RTVSPost2010PropOp36
 70
     1
102
RTVSPost2010Prop37
 90
       50
102
RTVSPost2010PropOp37
 70
     0
102
RTVSPost2010Prop38
140
0.0
102
RTVSPost2010PropOp38
 70
     0
102
RTVSPost2010Prop39
140
1.0
102
RTVSPost2010PropOp39
 70
     0
102
RTVSPost2010Prop40
 90
        0
102
RTVSPost2010PropOp40
 70
     0
102
RTVSPost2010Prop41ColorIndex
 90
       18
102
RTVSPost2010Prop41ColorRGB
 90
        0
102
RTVSPost2010PropOp41
 70
     0
102
RTVSPost2010Prop42
 90
       50
102
RTVSPost2010PropOp42
 70
     0
102
RTVSPost2010Prop43
 90
        3
102
RTVSPost2010PropOp43
 70
     0
102
RTVSPost2010Prop44ColorIndex
 90
        5
102
RTVSPost2010Prop44ColorRGB
 90
      255
102
RTVSPost2010PropOp44
 70
     0
102
RTVSPost2010Prop45
280
     0
102
RTVSPost2010PropOp45
 70
     1
102
RTVSPost2010Prop46
 90
       50
102
RTVSPost2010PropOp46
 70
     0
102
RTVSPost2010Prop47
 90
       50
102
RTVSPost2010PropOp47
 70
     0
102
RTVSPost2010Prop48
 90
       50
102
RTVSPost2010PropOp48
 70
     0
102
RTVSPost2010Prop49
280
     0
102
RTVSPost2010PropOp49
 70
     1
102
RTVSPost2010Prop50
 90
       50
102
RTVSPost2010PropOp50
 70
     0
102
RTVSPost2010Prop51ColorIndex
 90
      256
102
RTVSPost2010Prop51ColorRGB
 90
-16777216
102
RTVSPost2010PropOp51
 70
     0
102
RTVSPost2010Prop52
140
1.0
102
RTVSPost2010PropOp52
 70
     0
102
RTVSPost2010Prop53
 90
        2
102
RTVSPost2010PropOp53
 70
     0
102
RTVSPost2010Prop54
  1
strokes_ogs.tif
102
RTVSPost2010PropOp54
 70
     0
102
RTVSPost2010Prop55
280
     0
102
RTVSPost2010PropOp55
 70
     1
102
RTVSPost2010Prop56
140
1.0
102
RTVSPost2010PropOp56
 70
     0
102
RTVSPost2010Prop57
140
1.0
102
RTVSPost2010PropOp57
 70
     0
102
RTVSPropertyOp0
 70
     0
102
RTVSPropertyOp1
 70
     0
102
RTVSPropertyOp2
 70
     0
102
RTVSPropertyOp3
 70
     0
102
RTVSPropertyOp4
 70
     0
102
RTVSPropertyOp5
 70
     0
102
RTVSPropertyOp6
 70
     0
102
RTVSPropertyOp7
 70
     0
102
RTVSPropertyOp8
 70
     0
102
RTVSPropertyOp9
 70
     0
102
RTVSPropertyOp10
 70
     0
102
RTVSPropertyOp11
 70
     0
102
RTVSPropertyOp12
 70
     0
102
RTVSPropertyOp13
 70
     0
102
RTVSPropertyOp14
 70
     2
102
RTVSPropertyOp15
 70
     0
102
RTVSPropertyOp16
 70
     0
102
RTVSPropertyOp17
 70
     0
102
RTVSPropertyOp18
 70
     0
102
RTVSPropertyOp19
 70
     0
102
RTVSPropertyOp20
 70
     0
102
RTVSPropertyOp21
 70
     0
102
RTVSPropertyOp22
 70
     0
102
RTVSPropertyOp23
 70
     0
102
RTVSPropertyOp24
 70
     0
102
RTVSPropertyOp25
 70
     0
102
RTVSPropertyOp26
 70
     0
102
RTVSPropertyOp27
 70
     0
102
RTVSPropertyOp28
 70
     1
102
RTVSPropertyOp29
 70
     1
102
RTVSPropertyOp30
 70
     1
102
RTVSPropertyOp31
 70
     1
102
RTVSPropertyOp32
 70
     1
102
RTVSPropertyOp33
 70
     1
102
RTVSPropertyOp34
 70
     1
102
RTVSPropertyOp35
 70
     1
102
RTVSPropertyOp36
 70
     1
102
RTVSPropertyOp37
 70
     0
102
RTVSPropertyOp38
 70
     0
102
RTVSPropertyOp39
 70
     0
102
RTVSPropertyOp40
 70
     0
102
RTVSPropertyOp41
 70
     0
102
RTVSPropertyOp42
 70
     0
102
RTVSPropertyOp43
 70
     0
102
RTVSPropertyOp44
 70
     0
102
RTVSPropertyOp45
 70
     1
102
RTVSPropertyOp46
 70
     0
102
RTVSPropertyOp47
 70
     0
102
RTVSPropertyOp48
 70
     0
102
RTVSPropertyOp49
 70
     1
102
RTVSPropertyOp50
 70
     0
102
RTVSPropertyOp51
 70
     0
102
RTVSPropertyOp52
 70
     0
102
RTVSPropertyOp53
 70
     0
102
RTVSPropertyOp54
 70
     0
102
RTVSPropertyOp55
 70
     1
102
RTVSPropertyOp56
 70
     0
102
RTVSPropertyOp57
 70
     0
102
RTVSPropertyOp58
 70
     0
102
RTVSPropertyOp59
 70
     0
102
RTVSPropertyOp60
 70
     0
102
RTVSPropertyOp61
 70
     0
102
RTVSPropertyOp62
 70
     0
  0
XRECORD
  5
CBF0
102
{ACAD_REACTORS
330
CBEF
102
}
330
CBEF
100
AcDbXrecord
280
     1
102
RTVSPost2010Prop28
280
     0
102
RTVSPost2010PropOp28
 70
     1
102
RTVSPost2010Prop29
280
     1
102
RTVSPost2010PropOp29
 70
     1
102
RTVSPost2010Prop30
280
     1
102
RTVSPost2010PropOp30
 70
     1
102
RTVSPost2010Prop31
280
     0
102
RTVSPost2010PropOp31
 70
     1
102
RTVSPost2010Prop32
280
     0
102
RTVSPost2010PropOp32
 70
     1
102
RTVSPost2010Prop33
280
     0
102
RTVSPost2010PropOp33
 70
     1
102
RTVSPost2010Prop34
280
     0
102
RTVSPost2010PropOp34
 70
     1
102
RTVSPost2010Prop35
280
     0
102
RTVSPost2010PropOp35
 70
     1
102
RTVSPost2010Prop36
280
     0
102
RTVSPost2010PropOp36
 70
     1
102
RTVSPost2010Prop37
 90
       50
102
RTVSPost2010PropOp37
 70
     1
102
RTVSPost2010Prop38
140
0.0
102
RTVSPost2010PropOp38
 70
     1
102
RTVSPost2010Prop39
140
1.0
102
RTVSPost2010PropOp39
 70
     1
102
RTVSPost2010Prop40
 90
        0
102
RTVSPost2010PropOp40
 70
     1
102
RTVSPost2010Prop41ColorIndex
 90
       18
102
RTVSPost2010Prop41ColorRGB
 90
        0
102
RTVSPost2010PropOp41
 70
     1
102
RTVSPost2010Prop42
 90
       50
102
RTVSPost2010PropOp42
 70
     1
102
RTVSPost2010Prop43
 90
        3
102
RTVSPost2010PropOp43
 70
     1
102
RTVSPost2010Prop44ColorIndex
 90
        5
102
RTVSPost2010Prop44ColorRGB
 90
      255
102
RTVSPost2010PropOp44
 70
     1
102
RTVSPost2010Prop45
280
     0
102
RTVSPost2010PropOp45
 70
     1
102
RTVSPost2010Prop46
 90
       50
102
RTVSPost2010PropOp46
 70
     1
102
RTVSPost2010Prop47
 90
       50
102
RTVSPost2010PropOp47
 70
     1
102
RTVSPost2010Prop48
 90
       50
102
RTVSPost2010PropOp48
 70
     1
102
RTVSPost2010Prop49
280
     0
102
RTVSPost2010PropOp49
 70
     1
102
RTVSPost2010Prop50
 90
       50
102
RTVSPost2010PropOp50
 70
     1
102
RTVSPost2010Prop51ColorIndex
 90
      256
102
RTVSPost2010Prop51ColorRGB
 90
-16777216
102
RTVSPost2010PropOp51
 70
     0
102
RTVSPost2010Prop52
140
1.0
102
RTVSPost2010PropOp52
 70
     0
102
RTVSPost2010Prop53
 90
        2
102
RTVSPost2010PropOp53
 70
     1
102
RTVSPost2010Prop54
  1
strokes_ogs.tif
102
RTVSPost2010PropOp54
 70
     1
102
RTVSPost2010Prop55
280
     0
102
RTVSPost2010PropOp55
 70
     1
102
RTVSPost2010Prop56
140
1.0
102
RTVSPost2010PropOp56
 70
     1
102
RTVSPost2010Prop57
140
1.0
102
RTVSPost2010PropOp57
 70
     1
102
RTVSPropertyOp0
 70
     1
102
RTVSPropertyOp1
 70
     1
102
RTVSPropertyOp2
 70
     1
102
RTVSPropertyOp3
 70
     1
102
RTVSPropertyOp4
 70
     1
102
RTVSPropertyOp5
 70
     1
102
RTVSPropertyOp6
 70
     1
102
RTVSPropertyOp7
 70
     1
102
RTVSPropertyOp8
 70
     1
102
RTVSPropertyOp9
 70
     1
102
RTVSPropertyOp10
 70
     1
102
RTVSPropertyOp11
 70
     1
102
RTVSPropertyOp12
 70
     1
102
RTVSPropertyOp13
 70
     1
102
RTVSPropertyOp14
 70
     1
102
RTVSPropertyOp15
 70
     1
102
RTVSPropertyOp16
 70
     1
102
RTVSPropertyOp17
 70
     1
102
RTVSPropertyOp18
 70
     1
102
RTVSPropertyOp19
 70
     1
102
RTVSPropertyOp20
 70
     1
102
RTVSPropertyOp21
 70
     1
102
RTVSPropertyOp22
 70
     1
102
RTVSPropertyOp23
 70
     1
102
RTVSPropertyOp24
 70
     1
102
RTVSPropertyOp25
 70
     1
102
RTVSPropertyOp26
 70
     1
102
RTVSPropertyOp27
 70
     1
102
RTVSPropertyOp28
 70
     1
102
RTVSPropertyOp29
 70
     1
102
RTVSPropertyOp30
 70
     1
102
RTVSPropertyOp31
 70
     1
102
RTVSPropertyOp32
 70
     1
102
RTVSPropertyOp33
 70
     1
102
RTVSPropertyOp34
 70
     1
102
RTVSPropertyOp35
 70
     1
102
RTVSPropertyOp36
 70
     1
102
RTVSPropertyOp37
 70
     1
102
RTVSPropertyOp38
 70
     1
102
RTVSPropertyOp39
 70
     1
102
RTVSPropertyOp40
 70
     1
102
RTVSPropertyOp41
 70
     1
102
RTVSPropertyOp42
 70
     1
102
RTVSPropertyOp43
 70
     1
102
RTVSPropertyOp44
 70
     1
102
RTVSPropertyOp45
 70
     1
102
RTVSPropertyOp46
 70
     1
102
RTVSPropertyOp47
 70
     1
102
RTVSPropertyOp48
 70
     1
102
RTVSPropertyOp49
 70
     1
102
RTVSPropertyOp50
 70
     1
102
RTVSPropertyOp51
 70
     0
102
RTVSPropertyOp52
 70
     0
102
RTVSPropertyOp53
 70
     1
102
RTVSPropertyOp54
 70
     1
102
RTVSPropertyOp55
 70
     1
102
RTVSPropertyOp56
 70
     1
102
RTVSPropertyOp57
 70
     1
102
RTVSPropertyOp58
 70
     1
102
RTVSPropertyOp59
 70
     1
102
RTVSPropertyOp60
 70
     1
102
RTVSPropertyOp61
 70
     1
102
RTVSPropertyOp62
 70
     1
  0
XRECORD
  5
CBD4
102
{ACAD_REACTORS
330
CBD3
102
}
330
CBD3
100
AcDbXrecord
280
     1
102
RTVSPost2010Prop28
280
     0
102
RTVSPost2010PropOp28
 70
     1
102
RTVSPost2010Prop29
280
     1
102
RTVSPost2010PropOp29
 70
     1
102
RTVSPost2010Prop30
280
     1
102
RTVSPost2010PropOp30
 70
     1
102
RTVSPost2010Prop31
280
     0
102
RTVSPost2010PropOp31
 70
     1
102
RTVSPost2010Prop32
280
     0
102
RTVSPost2010PropOp32
 70
     1
102
RTVSPost2010Prop33
280
     0
102
RTVSPost2010PropOp33
 70
     1
102
RTVSPost2010Prop34
280
     0
102
RTVSPost2010PropOp34
 70
     1
102
RTVSPost2010Prop35
280
     0
102
RTVSPost2010PropOp35
 70
     1
102
RTVSPost2010Prop36
280
     0
102
RTVSPost2010PropOp36
 70
     1
102
RTVSPost2010Prop37
 90
       50
102
RTVSPost2010PropOp37
 70
     1
102
RTVSPost2010Prop38
140
0.0
102
RTVSPost2010PropOp38
 70
     1
102
RTVSPost2010Prop39
140
1.0
102
RTVSPost2010PropOp39
 70
     1
102
RTVSPost2010Prop40
 90
        0
102
RTVSPost2010PropOp40
 70
     1
102
RTVSPost2010Prop41ColorIndex
 90
       18
102
RTVSPost2010Prop41ColorRGB
 90
        0
102
RTVSPost2010PropOp41
 70
     1
102
RTVSPost2010Prop42
 90
       50
102
RTVSPost2010PropOp42
 70
     1
102
RTVSPost2010Prop43
 90
        3
102
RTVSPost2010PropOp43
 70
     1
102
RTVSPost2010Prop44ColorIndex
 90
        5
102
RTVSPost2010Prop44ColorRGB
 90
      255
102
RTVSPost2010PropOp44
 70
     1
102
RTVSPost2010Prop45
280
     0
102
RTVSPost2010PropOp45
 70
     1
102
RTVSPost2010Prop46
 90
       50
102
RTVSPost2010PropOp46
 70
     1
102
RTVSPost2010Prop47
 90
       50
102
RTVSPost2010PropOp47
 70
     1
102
RTVSPost2010Prop48
 90
       50
102
RTVSPost2010PropOp48
 70
     1
102
RTVSPost2010Prop49
280
     0
102
RTVSPost2010PropOp49
 70
     1
102
RTVSPost2010Prop50
 90
       50
102
RTVSPost2010PropOp50
 70
     1
102
RTVSPost2010Prop51ColorIndex
 90
      256
102
RTVSPost2010Prop51ColorRGB
 90
-16777216
102
RTVSPost2010PropOp51
 70
     0
102
RTVSPost2010Prop52
140
1.0
102
RTVSPost2010PropOp52
 70
     0
102
RTVSPost2010Prop53
 90
        2
102
RTVSPost2010PropOp53
 70
     1
102
RTVSPost2010Prop54
  1
strokes_ogs.tif
102
RTVSPost2010PropOp54
 70
     1
102
RTVSPost2010Prop55
280
     0
102
RTVSPost2010PropOp55
 70
     1
102
RTVSPost2010Prop56
140
1.0
102
RTVSPost2010PropOp56
 70
     1
102
RTVSPost2010Prop57
140
1.0
102
RTVSPost2010PropOp57
 70
     1
102
RTVSPropertyOp0
 70
     1
102
RTVSPropertyOp1
 70
     1
102
RTVSPropertyOp2
 70
     1
102
RTVSPropertyOp3
 70
     1
102
RTVSPropertyOp4
 70
     1
102
RTVSPropertyOp5
 70
     1
102
RTVSPropertyOp6
 70
     1
102
RTVSPropertyOp7
 70
     1
102
RTVSPropertyOp8
 70
     1
102
RTVSPropertyOp9
 70
     1
102
RTVSPropertyOp10
 70
     1
102
RTVSPropertyOp11
 70
     1
102
RTVSPropertyOp12
 70
     1
102
RTVSPropertyOp13
 70
     1
102
RTVSPropertyOp14
 70
     1
102
RTVSPropertyOp15
 70
     1
102
RTVSPropertyOp16
 70
     1
102
RTVSPropertyOp17
 70
     1
102
RTVSPropertyOp18
 70
     1
102
RTVSPropertyOp19
 70
     1
102
RTVSPropertyOp20
 70
     1
102
RTVSPropertyOp21
 70
     1
102
RTVSPropertyOp22
 70
     1
102
RTVSPropertyOp23
 70
     1
102
RTVSPropertyOp24
 70
     1
102
RTVSPropertyOp25
 70
     1
102
RTVSPropertyOp26
 70
     1
102
RTVSPropertyOp27
 70
     1
102
RTVSPropertyOp28
 70
     1
102
RTVSPropertyOp29
 70
     1
102
RTVSPropertyOp30
 70
     1
102
RTVSPropertyOp31
 70
     1
102
RTVSPropertyOp32
 70
     1
102
RTVSPropertyOp33
 70
     1
102
RTVSPropertyOp34
 70
     1
102
RTVSPropertyOp35
 70
     1
102
RTVSPropertyOp36
 70
     1
102
RTVSPropertyOp37
 70
     1
102
RTVSPropertyOp38
 70
     1
102
RTVSPropertyOp39
 70
     1
102
RTVSPropertyOp40
 70
     1
102
RTVSPropertyOp41
 70
     1
102
RTVSPropertyOp42
 70
     1
102
RTVSPropertyOp43
 70
     1
102
RTVSPropertyOp44
 70
     1
102
RTVSPropertyOp45
 70
     1
102
RTVSPropertyOp46
 70
     1
102
RTVSPropertyOp47
 70
     1
102
RTVSPropertyOp48
 70
     1
102
RTVSPropertyOp49
 70
     1
102
RTVSPropertyOp50
 70
     1
102
RTVSPropertyOp51
 70
     0
102
RTVSPropertyOp52
 70
     0
102
RTVSPropertyOp53
 70
     1
102
RTVSPropertyOp54
 70
     1
102
RTVSPropertyOp55
 70
     1
102
RTVSPropertyOp56
 70
     1
102
RTVSPropertyOp57
 70
     1
102
RTVSPropertyOp58
 70
     1
102
RTVSPropertyOp59
 70
     1
102
RTVSPropertyOp60
 70
     1
102
RTVSPropertyOp61
 70
     1
102
RTVSPropertyOp62
 70
     1
  0
XRECORD
  5
CBD6
102
{ACAD_REACTORS
330
CBD5
102
}
330
CBD5
100
AcDbXrecord
280
     1
102
RTVSPost2010Prop28
280
     0
102
RTVSPost2010PropOp28
 70
     1
102
RTVSPost2010Prop29
280
     1
102
RTVSPost2010PropOp29
 70
     1
102
RTVSPost2010Prop30
280
     1
102
RTVSPost2010PropOp30
 70
     1
102
RTVSPost2010Prop31
280
     0
102
RTVSPost2010PropOp31
 70
     1
102
RTVSPost2010Prop32
280
     0
102
RTVSPost2010PropOp32
 70
     1
102
RTVSPost2010Prop33
280
     0
102
RTVSPost2010PropOp33
 70
     1
102
RTVSPost2010Prop34
280
     0
102
RTVSPost2010PropOp34
 70
     1
102
RTVSPost2010Prop35
280
     0
102
RTVSPost2010PropOp35
 70
     1
102
RTVSPost2010Prop36
280
     0
102
RTVSPost2010PropOp36
 70
     1
102
RTVSPost2010Prop37
 90
       50
102
RTVSPost2010PropOp37
 70
     1
102
RTVSPost2010Prop38
140
0.0
102
RTVSPost2010PropOp38
 70
     1
102
RTVSPost2010Prop39
140
1.0
102
RTVSPost2010PropOp39
 70
     1
102
RTVSPost2010Prop40
 90
        0
102
RTVSPost2010PropOp40
 70
     1
102
RTVSPost2010Prop41ColorIndex
 90
       18
102
RTVSPost2010Prop41ColorRGB
 90
        0
102
RTVSPost2010PropOp41
 70
     1
102
RTVSPost2010Prop42
 90
       50
102
RTVSPost2010PropOp42
 70
     1
102
RTVSPost2010Prop43
 90
        3
102
RTVSPost2010PropOp43
 70
     1
102
RTVSPost2010Prop44ColorIndex
 90
        5
102
RTVSPost2010Prop44ColorRGB
 90
      255
102
RTVSPost2010PropOp44
 70
     1
102
RTVSPost2010Prop45
280
     0
102
RTVSPost2010PropOp45
 70
     1
102
RTVSPost2010Prop46
 90
       50
102
RTVSPost2010PropOp46
 70
     1
102
RTVSPost2010Prop47
 90
       50
102
RTVSPost2010PropOp47
 70
     1
102
RTVSPost2010Prop48
 90
       50
102
RTVSPost2010PropOp48
 70
     1
102
RTVSPost2010Prop49
280
     0
102
RTVSPost2010PropOp49
 70
     1
102
RTVSPost2010Prop50
 90
       50
102
RTVSPost2010PropOp50
 70
     1
102
RTVSPost2010Prop51ColorIndex
 90
      256
102
RTVSPost2010Prop51ColorRGB
 90
-16777216
102
RTVSPost2010PropOp51
 70
     0
102
RTVSPost2010Prop52
140
1.0
102
RTVSPost2010PropOp52
 70
     0
102
RTVSPost2010Prop53
 90
        2
102
RTVSPost2010PropOp53
 70
     1
102
RTVSPost2010Prop54
  1
strokes_ogs.tif
102
RTVSPost2010PropOp54
 70
     1
102
RTVSPost2010Prop55
280
     0
102
RTVSPost2010PropOp55
 70
     1
102
RTVSPost2010Prop56
140
1.0
102
RTVSPost2010PropOp56
 70
     1
102
RTVSPost2010Prop57
140
1.0
102
RTVSPost2010PropOp57
 70
     1
102
RTVSPropertyOp0
 70
     1
102
RTVSPropertyOp1
 70
     1
102
RTVSPropertyOp2
 70
     1
102
RTVSPropertyOp3
 70
     1
102
RTVSPropertyOp4
 70
     1
102
RTVSPropertyOp5
 70
     1
102
RTVSPropertyOp6
 70
     1
102
RTVSPropertyOp7
 70
     1
102
RTVSPropertyOp8
 70
     1
102
RTVSPropertyOp9
 70
     1
102
RTVSPropertyOp10
 70
     1
102
RTVSPropertyOp11
 70
     1
102
RTVSPropertyOp12
 70
     1
102
RTVSPropertyOp13
 70
     1
102
RTVSPropertyOp14
 70
     1
102
RTVSPropertyOp15
 70
     1
102
RTVSPropertyOp16
 70
     1
102
RTVSPropertyOp17
 70
     1
102
RTVSPropertyOp18
 70
     1
102
RTVSPropertyOp19
 70
     1
102
RTVSPropertyOp20
 70
     1
102
RTVSPropertyOp21
 70
     1
102
RTVSPropertyOp22
 70
     1
102
RTVSPropertyOp23
 70
     1
102
RTVSPropertyOp24
 70
     1
102
RTVSPropertyOp25
 70
     1
102
RTVSPropertyOp26
 70
     1
102
RTVSPropertyOp27
 70
     1
102
RTVSPropertyOp28
 70
     1
102
RTVSPropertyOp29
 70
     1
102
RTVSPropertyOp30
 70
     1
102
RTVSPropertyOp31
 70
     1
102
RTVSPropertyOp32
 70
     1
102
RTVSPropertyOp33
 70
     1
102
RTVSPropertyOp34
 70
     1
102
RTVSPropertyOp35
 70
     1
102
RTVSPropertyOp36
 70
     1
102
RTVSPropertyOp37
 70
     1
102
RTVSPropertyOp38
 70
     1
102
RTVSPropertyOp39
 70
     1
102
RTVSPropertyOp40
 70
     1
102
RTVSPropertyOp41
 70
     1
102
RTVSPropertyOp42
 70
     1
102
RTVSPropertyOp43
 70
     1
102
RTVSPropertyOp44
 70
     1
102
RTVSPropertyOp45
 70
     1
102
RTVSPropertyOp46
 70
     1
102
RTVSPropertyOp47
 70
     1
102
RTVSPropertyOp48
 70
     1
102
RTVSPropertyOp49
 70
     1
102
RTVSPropertyOp50
 70
     1
102
RTVSPropertyOp51
 70
     0
102
RTVSPropertyOp52
 70
     0
102
RTVSPropertyOp53
 70
     1
102
RTVSPropertyOp54
 70
     1
102
RTVSPropertyOp55
 70
     1
102
RTVSPropertyOp56
 70
     1
102
RTVSPropertyOp57
 70
     1
102
RTVSPropertyOp58
 70
     1
102
RTVSPropertyOp59
 70
     1
102
RTVSPropertyOp60
 70
     1
102
RTVSPropertyOp61
 70
     1
102
RTVSPropertyOp62
 70
     1
  0
XRECORD
  5
CBD8
102
{ACAD_REACTORS
330
CBD7
102
}
330
CBD7
100
AcDbXrecord
280
     1
102
RTVSPost2010Prop28
280
     0
102
RTVSPost2010PropOp28
 70
     1
102
RTVSPost2010Prop29
280
     1
102
RTVSPost2010PropOp29
 70
     1
102
RTVSPost2010Prop30
280
     1
102
RTVSPost2010PropOp30
 70
     1
102
RTVSPost2010Prop31
280
     0
102
RTVSPost2010PropOp31
 70
     1
102
RTVSPost2010Prop32
280
     0
102
RTVSPost2010PropOp32
 70
     1
102
RTVSPost2010Prop33
280
     0
102
RTVSPost2010PropOp33
 70
     1
102
RTVSPost2010Prop34
280
     0
102
RTVSPost2010PropOp34
 70
     1
102
RTVSPost2010Prop35
280
     0
102
RTVSPost2010PropOp35
 70
     1
102
RTVSPost2010Prop36
280
     0
102
RTVSPost2010PropOp36
 70
     1
102
RTVSPost2010Prop37
 90
       50
102
RTVSPost2010PropOp37
 70
     1
102
RTVSPost2010Prop38
140
0.0
102
RTVSPost2010PropOp38
 70
     1
102
RTVSPost2010Prop39
140
1.0
102
RTVSPost2010PropOp39
 70
     1
102
RTVSPost2010Prop40
 90
        0
102
RTVSPost2010PropOp40
 70
     1
102
RTVSPost2010Prop41ColorIndex
 90
       18
102
RTVSPost2010Prop41ColorRGB
 90
        0
102
RTVSPost2010PropOp41
 70
     1
102
RTVSPost2010Prop42
 90
       50
102
RTVSPost2010PropOp42
 70
     1
102
RTVSPost2010Prop43
 90
        3
102
RTVSPost2010PropOp43
 70
     1
102
RTVSPost2010Prop44ColorIndex
 90
        5
102
RTVSPost2010Prop44ColorRGB
 90
      255
102
RTVSPost2010PropOp44
 70
     1
102
RTVSPost2010Prop45
280
     0
102
RTVSPost2010PropOp45
 70
     1
102
RTVSPost2010Prop46
 90
       50
102
RTVSPost2010PropOp46
 70
     1
102
RTVSPost2010Prop47
 90
       50
102
RTVSPost2010PropOp47
 70
     1
102
RTVSPost2010Prop48
 90
       50
102
RTVSPost2010PropOp48
 70
     1
102
RTVSPost2010Prop49
280
     0
102
RTVSPost2010PropOp49
 70
     1
102
RTVSPost2010Prop50
 90
       50
102
RTVSPost2010PropOp50
 70
     1
102
RTVSPost2010Prop51ColorIndex
 90
      256
102
RTVSPost2010Prop51ColorRGB
 90
-16777216
102
RTVSPost2010PropOp51
 70
     0
102
RTVSPost2010Prop52
140
1.0
102
RTVSPost2010PropOp52
 70
     0
102
RTVSPost2010Prop53
 90
        2
102
RTVSPost2010PropOp53
 70
     1
102
RTVSPost2010Prop54
  1
strokes_ogs.tif
102
RTVSPost2010PropOp54
 70
     1
102
RTVSPost2010Prop55
280
     0
102
RTVSPost2010PropOp55
 70
     1
102
RTVSPost2010Prop56
140
1.0
102
RTVSPost2010PropOp56
 70
     1
102
RTVSPost2010Prop57
140
1.0
102
RTVSPost2010PropOp57
 70
     1
102
RTVSPropertyOp0
 70
     1
102
RTVSPropertyOp1
 70
     1
102
RTVSPropertyOp2
 70
     1
102
RTVSPropertyOp3
 70
     1
102
RTVSPropertyOp4
 70
     1
102
RTVSPropertyOp5
 70
     1
102
RTVSPropertyOp6
 70
     1
102
RTVSPropertyOp7
 70
     1
102
RTVSPropertyOp8
 70
     1
102
RTVSPropertyOp9
 70
     1
102
RTVSPropertyOp10
 70
     1
102
RTVSPropertyOp11
 70
     1
102
RTVSPropertyOp12
 70
     1
102
RTVSPropertyOp13
 70
     1
102
RTVSPropertyOp14
 70
     1
102
RTVSPropertyOp15
 70
     1
102
RTVSPropertyOp16
 70
     1
102
RTVSPropertyOp17
 70
     1
102
RTVSPropertyOp18
 70
     1
102
RTVSPropertyOp19
 70
     1
102
RTVSPropertyOp20
 70
     1
102
RTVSPropertyOp21
 70
     1
102
RTVSPropertyOp22
 70
     1
102
RTVSPropertyOp23
 70
     1
102
RTVSPropertyOp24
 70
     1
102
RTVSPropertyOp25
 70
     1
102
RTVSPropertyOp26
 70
     1
102
RTVSPropertyOp27
 70
     1
102
RTVSPropertyOp28
 70
     1
102
RTVSPropertyOp29
 70
     1
102
RTVSPropertyOp30
 70
     1
102
RTVSPropertyOp31
 70
     1
102
RTVSPropertyOp32
 70
     1
102
RTVSPropertyOp33
 70
     1
102
RTVSPropertyOp34
 70
     1
102
RTVSPropertyOp35
 70
     1
102
RTVSPropertyOp36
 70
     1
102
RTVSPropertyOp37
 70
     1
102
RTVSPropertyOp38
 70
     1
102
RTVSPropertyOp39
 70
     1
102
RTVSPropertyOp40
 70
     1
102
RTVSPropertyOp41
 70
     1
102
RTVSPropertyOp42
 70
     1
102
RTVSPropertyOp43
 70
     1
102
RTVSPropertyOp44
 70
     1
102
RTVSPropertyOp45
 70
     1
102
RTVSPropertyOp46
 70
     1
102
RTVSPropertyOp47
 70
     1
102
RTVSPropertyOp48
 70
     1
102
RTVSPropertyOp49
 70
     1
102
RTVSPropertyOp50
 70
     1
102
RTVSPropertyOp51
 70
     0
102
RTVSPropertyOp52
 70
     0
102
RTVSPropertyOp53
 70
     1
102
RTVSPropertyOp54
 70
     1
102
RTVSPropertyOp55
 70
     1
102
RTVSPropertyOp56
 70
     1
102
RTVSPropertyOp57
 70
     1
102
RTVSPropertyOp58
 70
     1
102
RTVSPropertyOp59
 70
     1
102
RTVSPropertyOp60
 70
     1
102
RTVSPropertyOp61
 70
     1
102
RTVSPropertyOp62
 70
     1
  0
XRECORD
  5
CBDA
102
{ACAD_REACTORS
330
CBD9
102
}
330
CBD9
100
AcDbXrecord
280
     1
102
RTVSPost2010Prop28
280
     0
102
RTVSPost2010PropOp28
 70
     1
102
RTVSPost2010Prop29
280
     1
102
RTVSPost2010PropOp29
 70
     1
102
RTVSPost2010Prop30
280
     1
102
RTVSPost2010PropOp30
 70
     1
102
RTVSPost2010Prop31
280
     0
102
RTVSPost2010PropOp31
 70
     1
102
RTVSPost2010Prop32
280
     0
102
RTVSPost2010PropOp32
 70
     1
102
RTVSPost2010Prop33
280
     0
102
RTVSPost2010PropOp33
 70
     1
102
RTVSPost2010Prop34
280
     0
102
RTVSPost2010PropOp34
 70
     1
102
RTVSPost2010Prop35
280
     0
102
RTVSPost2010PropOp35
 70
     1
102
RTVSPost2010Prop36
280
     0
102
RTVSPost2010PropOp36
 70
     1
102
RTVSPost2010Prop37
 90
       50
102
RTVSPost2010PropOp37
 70
     1
102
RTVSPost2010Prop38
140
0.0
102
RTVSPost2010PropOp38
 70
     1
102
RTVSPost2010Prop39
140
1.0
102
RTVSPost2010PropOp39
 70
     1
102
RTVSPost2010Prop40
 90
        0
102
RTVSPost2010PropOp40
 70
     1
102
RTVSPost2010Prop41ColorIndex
 90
       18
102
RTVSPost2010Prop41ColorRGB
 90
        0
102
RTVSPost2010PropOp41
 70
     1
102
RTVSPost2010Prop42
 90
       50
102
RTVSPost2010PropOp42
 70
     1
102
RTVSPost2010Prop43
 90
        3
102
RTVSPost2010PropOp43
 70
     1
102
RTVSPost2010Prop44ColorIndex
 90
        5
102
RTVSPost2010Prop44ColorRGB
 90
      255
102
RTVSPost2010PropOp44
 70
     1
102
RTVSPost2010Prop45
280
     0
102
RTVSPost2010PropOp45
 70
     1
102
RTVSPost2010Prop46
 90
       50
102
RTVSPost2010PropOp46
 70
     1
102
RTVSPost2010Prop47
 90
       50
102
RTVSPost2010PropOp47
 70
     1
102
RTVSPost2010Prop48
 90
       50
102
RTVSPost2010PropOp48
 70
     1
102
RTVSPost2010Prop49
280
     0
102
RTVSPost2010PropOp49
 70
     1
102
RTVSPost2010Prop50
 90
       50
102
RTVSPost2010PropOp50
 70
     1
102
RTVSPost2010Prop51ColorIndex
 90
      256
102
RTVSPost2010Prop51ColorRGB
 90
-16777216
102
RTVSPost2010PropOp51
 70
     0
102
RTVSPost2010Prop52
140
1.0
102
RTVSPost2010PropOp52
 70
     0
102
RTVSPost2010Prop53
 90
        2
102
RTVSPost2010PropOp53
 70
     1
102
RTVSPost2010Prop54
  1
strokes_ogs.tif
102
RTVSPost2010PropOp54
 70
     1
102
RTVSPost2010Prop55
280
     0
102
RTVSPost2010PropOp55
 70
     1
102
RTVSPost2010Prop56
140
1.0
102
RTVSPost2010PropOp56
 70
     1
102
RTVSPost2010Prop57
140
1.0
102
RTVSPost2010PropOp57
 70
     1
102
RTVSPropertyOp0
 70
     1
102
RTVSPropertyOp1
 70
     1
102
RTVSPropertyOp2
 70
     1
102
RTVSPropertyOp3
 70
     1
102
RTVSPropertyOp4
 70
     1
102
RTVSPropertyOp5
 70
     1
102
RTVSPropertyOp6
 70
     1
102
RTVSPropertyOp7
 70
     1
102
RTVSPropertyOp8
 70
     1
102
RTVSPropertyOp9
 70
     1
102
RTVSPropertyOp10
 70
     1
102
RTVSPropertyOp11
 70
     1
102
RTVSPropertyOp12
 70
     1
102
RTVSPropertyOp13
 70
     1
102
RTVSPropertyOp14
 70
     1
102
RTVSPropertyOp15
 70
     1
102
RTVSPropertyOp16
 70
     1
102
RTVSPropertyOp17
 70
     1
102
RTVSPropertyOp18
 70
     1
102
RTVSPropertyOp19
 70
     1
102
RTVSPropertyOp20
 70
     1
102
RTVSPropertyOp21
 70
     1
102
RTVSPropertyOp22
 70
     1
102
RTVSPropertyOp23
 70
     1
102
RTVSPropertyOp24
 70
     1
102
RTVSPropertyOp25
 70
     1
102
RTVSPropertyOp26
 70
     1
102
RTVSPropertyOp27
 70
     1
102
RTVSPropertyOp28
 70
     1
102
RTVSPropertyOp29
 70
     1
102
RTVSPropertyOp30
 70
     1
102
RTVSPropertyOp31
 70
     1
102
RTVSPropertyOp32
 70
     1
102
RTVSPropertyOp33
 70
     1
102
RTVSPropertyOp34
 70
     1
102
RTVSPropertyOp35
 70
     1
102
RTVSPropertyOp36
 70
     1
102
RTVSPropertyOp37
 70
     1
102
RTVSPropertyOp38
 70
     1
102
RTVSPropertyOp39
 70
     1
102
RTVSPropertyOp40
 70
     1
102
RTVSPropertyOp41
 70
     1
102
RTVSPropertyOp42
 70
     1
102
RTVSPropertyOp43
 70
     1
102
RTVSPropertyOp44
 70
     1
102
RTVSPropertyOp45
 70
     1
102
RTVSPropertyOp46
 70
     1
102
RTVSPropertyOp47
 70
     1
102
RTVSPropertyOp48
 70
     1
102
RTVSPropertyOp49
 70
     1
102
RTVSPropertyOp50
 70
     1
102
RTVSPropertyOp51
 70
     0
102
RTVSPropertyOp52
 70
     0
102
RTVSPropertyOp53
 70
     1
102
RTVSPropertyOp54
 70
     1
102
RTVSPropertyOp55
 70
     1
102
RTVSPropertyOp56
 70
     1
102
RTVSPropertyOp57
 70
     1
102
RTVSPropertyOp58
 70
     1
102
RTVSPropertyOp59
 70
     1
102
RTVSPropertyOp60
 70
     1
102
RTVSPropertyOp61
 70
     1
102
RTVSPropertyOp62
 70
     1
  0
XRECORD
  5
CBE2
102
{ACAD_REACTORS
330
CBE1
102
}
330
CBE1
100
AcDbXrecord
280
     1
102
RTVSPost2010Prop28
280
     0
102
RTVSPost2010PropOp28
 70
     1
102
RTVSPost2010Prop29
280
     1
102
RTVSPost2010PropOp29
 70
     1
102
RTVSPost2010Prop30
280
     1
102
RTVSPost2010PropOp30
 70
     1
102
RTVSPost2010Prop31
280
     0
102
RTVSPost2010PropOp31
 70
     1
102
RTVSPost2010Prop32
280
     0
102
RTVSPost2010PropOp32
 70
     1
102
RTVSPost2010Prop33
280
     0
102
RTVSPost2010PropOp33
 70
     1
102
RTVSPost2010Prop34
280
     0
102
RTVSPost2010PropOp34
 70
     1
102
RTVSPost2010Prop35
280
     0
102
RTVSPost2010PropOp35
 70
     1
102
RTVSPost2010Prop36
280
     0
102
RTVSPost2010PropOp36
 70
     1
102
RTVSPost2010Prop37
 90
       50
102
RTVSPost2010PropOp37
 70
     1
102
RTVSPost2010Prop38
140
0.0
102
RTVSPost2010PropOp38
 70
     1
102
RTVSPost2010Prop39
140
1.0
102
RTVSPost2010PropOp39
 70
     1
102
RTVSPost2010Prop40
 90
        0
102
RTVSPost2010PropOp40
 70
     1
102
RTVSPost2010Prop41ColorIndex
 90
       18
102
RTVSPost2010Prop41ColorRGB
 90
        0
102
RTVSPost2010PropOp41
 70
     1
102
RTVSPost2010Prop42
 90
       50
102
RTVSPost2010PropOp42
 70
     1
102
RTVSPost2010Prop43
 90
        3
102
RTVSPost2010PropOp43
 70
     1
102
RTVSPost2010Prop44ColorIndex
 90
        5
102
RTVSPost2010Prop44ColorRGB
 90
      255
102
RTVSPost2010PropOp44
 70
     1
102
RTVSPost2010Prop45
280
     0
102
RTVSPost2010PropOp45
 70
     1
102
RTVSPost2010Prop46
 90
       50
102
RTVSPost2010PropOp46
 70
     1
102
RTVSPost2010Prop47
 90
       50
102
RTVSPost2010PropOp47
 70
     1
102
RTVSPost2010Prop48
 90
       50
102
RTVSPost2010PropOp48
 70
     1
102
RTVSPost2010Prop49
280
     0
102
RTVSPost2010PropOp49
 70
     1
102
RTVSPost2010Prop50
 90
       50
102
RTVSPost2010PropOp50
 70
     1
102
RTVSPost2010Prop51ColorIndex
 90
      256
102
RTVSPost2010Prop51ColorRGB
 90
-16777216
102
RTVSPost2010PropOp51
 70
     0
102
RTVSPost2010Prop52
140
1.0
102
RTVSPost2010PropOp52
 70
     0
102
RTVSPost2010Prop53
 90
        2
102
RTVSPost2010PropOp53
 70
     1
102
RTVSPost2010Prop54
  1
strokes_ogs.tif
102
RTVSPost2010PropOp54
 70
     1
102
RTVSPost2010Prop55
280
     0
102
RTVSPost2010PropOp55
 70
     1
102
RTVSPost2010Prop56
140
1.0
102
RTVSPost2010PropOp56
 70
     1
102
RTVSPost2010Prop57
140
1.0
102
RTVSPost2010PropOp57
 70
     1
102
RTVSPropertyOp0
 70
     1
102
RTVSPropertyOp1
 70
     1
102
RTVSPropertyOp2
 70
     1
102
RTVSPropertyOp3
 70
     1
102
RTVSPropertyOp4
 70
     1
102
RTVSPropertyOp5
 70
     1
102
RTVSPropertyOp6
 70
     1
102
RTVSPropertyOp7
 70
     1
102
RTVSPropertyOp8
 70
     1
102
RTVSPropertyOp9
 70
     1
102
RTVSPropertyOp10
 70
     1
102
RTVSPropertyOp11
 70
     1
102
RTVSPropertyOp12
 70
     1
102
RTVSPropertyOp13
 70
     1
102
RTVSPropertyOp14
 70
     1
102
RTVSPropertyOp15
 70
     1
102
RTVSPropertyOp16
 70
     1
102
RTVSPropertyOp17
 70
     1
102
RTVSPropertyOp18
 70
     1
102
RTVSPropertyOp19
 70
     1
102
RTVSPropertyOp20
 70
     1
102
RTVSPropertyOp21
 70
     1
102
RTVSPropertyOp22
 70
     1
102
RTVSPropertyOp23
 70
     1
102
RTVSPropertyOp24
 70
     1
102
RTVSPropertyOp25
 70
     1
102
RTVSPropertyOp26
 70
     1
102
RTVSPropertyOp27
 70
     1
102
RTVSPropertyOp28
 70
     1
102
RTVSPropertyOp29
 70
     1
102
RTVSPropertyOp30
 70
     1
102
RTVSPropertyOp31
 70
     1
102
RTVSPropertyOp32
 70
     1
102
RTVSPropertyOp33
 70
     1
102
RTVSPropertyOp34
 70
     1
102
RTVSPropertyOp35
 70
     1
102
RTVSPropertyOp36
 70
     1
102
RTVSPropertyOp37
 70
     1
102
RTVSPropertyOp38
 70
     1
102
RTVSPropertyOp39
 70
     1
102
RTVSPropertyOp40
 70
     1
102
RTVSPropertyOp41
 70
     1
102
RTVSPropertyOp42
 70
     1
102
RTVSPropertyOp43
 70
     1
102
RTVSPropertyOp44
 70
     1
102
RTVSPropertyOp45
 70
     1
102
RTVSPropertyOp46
 70
     1
102
RTVSPropertyOp47
 70
     1
102
RTVSPropertyOp48
 70
     1
102
RTVSPropertyOp49
 70
     1
102
RTVSPropertyOp50
 70
     1
102
RTVSPropertyOp51
 70
     0
102
RTVSPropertyOp52
 70
     0
102
RTVSPropertyOp53
 70
     1
102
RTVSPropertyOp54
 70
     1
102
RTVSPropertyOp55
 70
     1
102
RTVSPropertyOp56
 70
     1
102
RTVSPropertyOp57
 70
     1
102
RTVSPropertyOp58
 70
     1
102
RTVSPropertyOp59
 70
     1
102
RTVSPropertyOp60
 70
     1
102
RTVSPropertyOp61
 70
     1
102
RTVSPropertyOp62
 70
     1
  0
XRECORD
  5
CBFE
102
{ACAD_REACTORS
330
CBFD
102
}
330
CBFD
100
AcDbXrecord
280
     1
102
RTVSPost2010Prop28
280
     0
102
RTVSPost2010PropOp28
 70
     1
102
RTVSPost2010Prop29
280
     1
102
RTVSPost2010PropOp29
 70
     1
102
RTVSPost2010Prop30
280
     1
102
RTVSPost2010PropOp30
 70
     1
102
RTVSPost2010Prop31
280
     0
102
RTVSPost2010PropOp31
 70
     1
102
RTVSPost2010Prop32
280
     0
102
RTVSPost2010PropOp32
 70
     1
102
RTVSPost2010Prop33
280
     0
102
RTVSPost2010PropOp33
 70
     1
102
RTVSPost2010Prop34
280
     0
102
RTVSPost2010PropOp34
 70
     1
102
RTVSPost2010Prop35
280
     0
102
RTVSPost2010PropOp35
 70
     1
102
RTVSPost2010Prop36
280
     0
102
RTVSPost2010PropOp36
 70
     1
102
RTVSPost2010Prop37
 90
       50
102
RTVSPost2010PropOp37
 70
     0
102
RTVSPost2010Prop38
140
0.0
102
RTVSPost2010PropOp38
 70
     0
102
RTVSPost2010Prop39
140
1.0
102
RTVSPost2010PropOp39
 70
     0
102
RTVSPost2010Prop40
 90
        0
102
RTVSPost2010PropOp40
 70
     0
102
RTVSPost2010Prop41ColorIndex
 90
       18
102
RTVSPost2010Prop41ColorRGB
 90
        0
102
RTVSPost2010PropOp41
 70
     0
102
RTVSPost2010Prop42
 90
       50
102
RTVSPost2010PropOp42
 70
     0
102
RTVSPost2010Prop43
 90
        3
102
RTVSPost2010PropOp43
 70
     0
102
RTVSPost2010Prop44ColorIndex
 90
        5
102
RTVSPost2010Prop44ColorRGB
 90
      255
102
RTVSPost2010PropOp44
 70
     0
102
RTVSPost2010Prop45
280
     0
102
RTVSPost2010PropOp45
 70
     1
102
RTVSPost2010Prop46
 90
       50
102
RTVSPost2010PropOp46
 70
     0
102
RTVSPost2010Prop47
 90
       50
102
RTVSPost2010PropOp47
 70
     0
102
RTVSPost2010Prop48
 90
       50
102
RTVSPost2010PropOp48
 70
     0
102
RTVSPost2010Prop49
280
     0
102
RTVSPost2010PropOp49
 70
     1
102
RTVSPost2010Prop50
 90
       50
102
RTVSPost2010PropOp50
 70
     0
102
RTVSPost2010Prop51ColorIndex
 90
      256
102
RTVSPost2010Prop51ColorRGB
 90
-16777216
102
RTVSPost2010PropOp51
 70
     0
102
RTVSPost2010Prop52
140
1.0
102
RTVSPost2010PropOp52
 70
     0
102
RTVSPost2010Prop53
 90
        2
102
RTVSPost2010PropOp53
 70
     0
102
RTVSPost2010Prop54
  1
strokes_ogs.tif
102
RTVSPost2010PropOp54
 70
     0
102
RTVSPost2010Prop55
280
     0
102
RTVSPost2010PropOp55
 70
     1
102
RTVSPost2010Prop56
140
1.0
102
RTVSPost2010PropOp56
 70
     0
102
RTVSPost2010Prop57
140
1.0
102
RTVSPost2010PropOp57
 70
     0
102
RTVSPropertyOp0
 70
     0
102
RTVSPropertyOp1
 70
     0
102
RTVSPropertyOp2
 70
     0
102
RTVSPropertyOp3
 70
     0
102
RTVSPropertyOp4
 70
     0
102
RTVSPropertyOp5
 70
     0
102
RTVSPropertyOp6
 70
     0
102
RTVSPropertyOp7
 70
     0
102
RTVSPropertyOp8
 70
     0
102
RTVSPropertyOp9
 70
     0
102
RTVSPropertyOp10
 70
     0
102
RTVSPropertyOp11
 70
     0
102
RTVSPropertyOp12
 70
     0
102
RTVSPropertyOp13
 70
     0
102
RTVSPropertyOp14
 70
     2
102
RTVSPropertyOp15
 70
     0
102
RTVSPropertyOp16
 70
     0
102
RTVSPropertyOp17
 70
     0
102
RTVSPropertyOp18
 70
     0
102
RTVSPropertyOp19
 70
     0
102
RTVSPropertyOp20
 70
     0
102
RTVSPropertyOp21
 70
     0
102
RTVSPropertyOp22
 70
     0
102
RTVSPropertyOp23
 70
     0
102
RTVSPropertyOp24
 70
     0
102
RTVSPropertyOp25
 70
     0
102
RTVSPropertyOp26
 70
     0
102
RTVSPropertyOp27
 70
     0
102
RTVSPropertyOp28
 70
     1
102
RTVSPropertyOp29
 70
     1
102
RTVSPropertyOp30
 70
     1
102
RTVSPropertyOp31
 70
     1
102
RTVSPropertyOp32
 70
     1
102
RTVSPropertyOp33
 70
     1
102
RTVSPropertyOp34
 70
     1
102
RTVSPropertyOp35
 70
     1
102
RTVSPropertyOp36
 70
     1
102
RTVSPropertyOp37
 70
     0
102
RTVSPropertyOp38
 70
     0
102
RTVSPropertyOp39
 70
     0
102
RTVSPropertyOp40
 70
     0
102
RTVSPropertyOp41
 70
     0
102
RTVSPropertyOp42
 70
     0
102
RTVSPropertyOp43
 70
     0
102
RTVSPropertyOp44
 70
     0
102
RTVSPropertyOp45
 70
     1
102
RTVSPropertyOp46
 70
     0
102
RTVSPropertyOp47
 70
     0
102
RTVSPropertyOp48
 70
     0
102
RTVSPropertyOp49
 70
     1
102
RTVSPropertyOp50
 70
     0
102
RTVSPropertyOp51
 70
     0
102
RTVSPropertyOp52
 70
     0
102
RTVSPropertyOp53
 70
     0
102
RTVSPropertyOp54
 70
     0
102
RTVSPropertyOp55
 70
     1
102
RTVSPropertyOp56
 70
     0
102
RTVSPropertyOp57
 70
     0
102
RTVSPropertyOp58
 70
     0
102
RTVSPropertyOp59
 70
     0
102
RTVSPropertyOp60
 70
     0
102
RTVSPropertyOp61
 70
     0
102
RTVSPropertyOp62
 70
     0
  0
XRECORD
  5
CBEE
102
{ACAD_REACTORS
330
CBED
102
}
330
CBED
100
AcDbXrecord
280
     1
102
RTVSPost2010Prop28
280
     0
102
RTVSPost2010PropOp28
 70
     1
102
RTVSPost2010Prop29
280
     1
102
RTVSPost2010PropOp29
 70
     1
102
RTVSPost2010Prop30
280
     1
102
RTVSPost2010PropOp30
 70
     1
102
RTVSPost2010Prop31
280
     0
102
RTVSPost2010PropOp31
 70
     1
102
RTVSPost2010Prop32
280
     0
102
RTVSPost2010PropOp32
 70
     1
102
RTVSPost2010Prop33
280
     0
102
RTVSPost2010PropOp33
 70
     1
102
RTVSPost2010Prop34
280
     0
102
RTVSPost2010PropOp34
 70
     1
102
RTVSPost2010Prop35
280
     0
102
RTVSPost2010PropOp35
 70
     1
102
RTVSPost2010Prop36
280
     0
102
RTVSPost2010PropOp36
 70
     1
102
RTVSPost2010Prop37
 90
       50
102
RTVSPost2010PropOp37
 70
     1
102
RTVSPost2010Prop38
140
0.0
102
RTVSPost2010PropOp38
 70
     1
102
RTVSPost2010Prop39
140
1.0
102
RTVSPost2010PropOp39
 70
     1
102
RTVSPost2010Prop40
 90
        0
102
RTVSPost2010PropOp40
 70
     1
102
RTVSPost2010Prop41ColorIndex
 90
       18
102
RTVSPost2010Prop41ColorRGB
 90
        0
102
RTVSPost2010PropOp41
 70
     1
102
RTVSPost2010Prop42
 90
       50
102
RTVSPost2010PropOp42
 70
     1
102
RTVSPost2010Prop43
 90
        3
102
RTVSPost2010PropOp43
 70
     1
102
RTVSPost2010Prop44ColorIndex
 90
        5
102
RTVSPost2010Prop44ColorRGB
 90
      255
102
RTVSPost2010PropOp44
 70
     1
102
RTVSPost2010Prop45
280
     0
102
RTVSPost2010PropOp45
 70
     1
102
RTVSPost2010Prop46
 90
       50
102
RTVSPost2010PropOp46
 70
     1
102
RTVSPost2010Prop47
 90
       50
102
RTVSPost2010PropOp47
 70
     1
102
RTVSPost2010Prop48
 90
       50
102
RTVSPost2010PropOp48
 70
     1
102
RTVSPost2010Prop49
280
     0
102
RTVSPost2010PropOp49
 70
     1
102
RTVSPost2010Prop50
 90
       50
102
RTVSPost2010PropOp50
 70
     1
102
RTVSPost2010Prop51ColorIndex
 90
      256
102
RTVSPost2010Prop51ColorRGB
 90
-16777216
102
RTVSPost2010PropOp51
 70
     0
102
RTVSPost2010Prop52
140
1.0
102
RTVSPost2010PropOp52
 70
     0
102
RTVSPost2010Prop53
 90
        2
102
RTVSPost2010PropOp53
 70
     1
102
RTVSPost2010Prop54
  1
strokes_ogs.tif
102
RTVSPost2010PropOp54
 70
     1
102
RTVSPost2010Prop55
280
     0
102
RTVSPost2010PropOp55
 70
     1
102
RTVSPost2010Prop56
140
1.0
102
RTVSPost2010PropOp56
 70
     1
102
RTVSPost2010Prop57
140
1.0
102
RTVSPost2010PropOp57
 70
     1
102
RTVSPropertyOp0
 70
     1
102
RTVSPropertyOp1
 70
     1
102
RTVSPropertyOp2
 70
     1
102
RTVSPropertyOp3
 70
     1
102
RTVSPropertyOp4
 70
     1
102
RTVSPropertyOp5
 70
     1
102
RTVSPropertyOp6
 70
     1
102
RTVSPropertyOp7
 70
     1
102
RTVSPropertyOp8
 70
     1
102
RTVSPropertyOp9
 70
     1
102
RTVSPropertyOp10
 70
     1
102
RTVSPropertyOp11
 70
     1
102
RTVSPropertyOp12
 70
     1
102
RTVSPropertyOp13
 70
     1
102
RTVSPropertyOp14
 70
     1
102
RTVSPropertyOp15
 70
     1
102
RTVSPropertyOp16
 70
     1
102
RTVSPropertyOp17
 70
     1
102
RTVSPropertyOp18
 70
     1
102
RTVSPropertyOp19
 70
     1
102
RTVSPropertyOp20
 70
     1
102
RTVSPropertyOp21
 70
     1
102
RTVSPropertyOp22
 70
     1
102
RTVSPropertyOp23
 70
     1
102
RTVSPropertyOp24
 70
     1
102
RTVSPropertyOp25
 70
     1
102
RTVSPropertyOp26
 70
     1
102
RTVSPropertyOp27
 70
     1
102
RTVSPropertyOp28
 70
     1
102
RTVSPropertyOp29
 70
     1
102
RTVSPropertyOp30
 70
     1
102
RTVSPropertyOp31
 70
     1
102
RTVSPropertyOp32
 70
     1
102
RTVSPropertyOp33
 70
     1
102
RTVSPropertyOp34
 70
     1
102
RTVSPropertyOp35
 70
     1
102
RTVSPropertyOp36
 70
     1
102
RTVSPropertyOp37
 70
     1
102
RTVSPropertyOp38
 70
     1
102
RTVSPropertyOp39
 70
     1
102
RTVSPropertyOp40
 70
     1
102
RTVSPropertyOp41
 70
     1
102
RTVSPropertyOp42
 70
     1
102
RTVSPropertyOp43
 70
     1
102
RTVSPropertyOp44
 70
     1
102
RTVSPropertyOp45
 70
     1
102
RTVSPropertyOp46
 70
     1
102
RTVSPropertyOp47
 70
     1
102
RTVSPropertyOp48
 70
     1
102
RTVSPropertyOp49
 70
     1
102
RTVSPropertyOp50
 70
     1
102
RTVSPropertyOp51
 70
     0
102
RTVSPropertyOp52
 70
     0
102
RTVSPropertyOp53
 70
     1
102
RTVSPropertyOp54
 70
     1
102
RTVSPropertyOp55
 70
     1
102
RTVSPropertyOp56
 70
     1
102
RTVSPropertyOp57
 70
     1
102
RTVSPropertyOp58
 70
     1
102
RTVSPropertyOp59
 70
     1
102
RTVSPropertyOp60
 70
     1
102
RTVSPropertyOp61
 70
     1
102
RTVSPropertyOp62
 70
     1
  0
XRECORD
  5
CC00
102
{ACAD_REACTORS
330
CBFF
102
}
330
CBFF
100
AcDbXrecord
280
     1
102
RTVSPost2010Prop28
280
     0
102
RTVSPost2010PropOp28
 70
     1
102
RTVSPost2010Prop29
280
     1
102
RTVSPost2010PropOp29
 70
     1
102
RTVSPost2010Prop30
280
     1
102
RTVSPost2010PropOp30
 70
     1
102
RTVSPost2010Prop31
280
     0
102
RTVSPost2010PropOp31
 70
     1
102
RTVSPost2010Prop32
280
     0
102
RTVSPost2010PropOp32
 70
     1
102
RTVSPost2010Prop33
280
     0
102
RTVSPost2010PropOp33
 70
     1
102
RTVSPost2010Prop34
280
     0
102
RTVSPost2010PropOp34
 70
     1
102
RTVSPost2010Prop35
280
     0
102
RTVSPost2010PropOp35
 70
     1
102
RTVSPost2010Prop36
280
     0
102
RTVSPost2010PropOp36
 70
     1
102
RTVSPost2010Prop37
 90
       50
102
RTVSPost2010PropOp37
 70
     0
102
RTVSPost2010Prop38
140
0.0
102
RTVSPost2010PropOp38
 70
     0
102
RTVSPost2010Prop39
140
1.0
102
RTVSPost2010PropOp39
 70
     0
102
RTVSPost2010Prop40
 90
        0
102
RTVSPost2010PropOp40
 70
     0
102
RTVSPost2010Prop41ColorIndex
 90
       18
102
RTVSPost2010Prop41ColorRGB
 90
        0
102
RTVSPost2010PropOp41
 70
     0
102
RTVSPost2010Prop42
 90
       50
102
RTVSPost2010PropOp42
 70
     0
102
RTVSPost2010Prop43
 90
        3
102
RTVSPost2010PropOp43
 70
     0
102
RTVSPost2010Prop44ColorIndex
 90
        5
102
RTVSPost2010Prop44ColorRGB
 90
      255
102
RTVSPost2010PropOp44
 70
     0
102
RTVSPost2010Prop45
280
     0
102
RTVSPost2010PropOp45
 70
     1
102
RTVSPost2010Prop46
 90
       50
102
RTVSPost2010PropOp46
 70
     0
102
RTVSPost2010Prop47
 90
       50
102
RTVSPost2010PropOp47
 70
     0
102
RTVSPost2010Prop48
 90
       50
102
RTVSPost2010PropOp48
 70
     0
102
RTVSPost2010Prop49
280
     0
102
RTVSPost2010PropOp49
 70
     1
102
RTVSPost2010Prop50
 90
       50
102
RTVSPost2010PropOp50
 70
     0
102
RTVSPost2010Prop51ColorIndex
 90
      256
102
RTVSPost2010Prop51ColorRGB
 90
-16777216
102
RTVSPost2010PropOp51
 70
     0
102
RTVSPost2010Prop52
140
1.0
102
RTVSPost2010PropOp52
 70
     0
102
RTVSPost2010Prop53
 90
        2
102
RTVSPost2010PropOp53
 70
     0
102
RTVSPost2010Prop54
  1
strokes_ogs.tif
102
RTVSPost2010PropOp54
 70
     0
102
RTVSPost2010Prop55
280
     0
102
RTVSPost2010PropOp55
 70
     1
102
RTVSPost2010Prop56
140
1.0
102
RTVSPost2010PropOp56
 70
     0
102
RTVSPost2010Prop57
140
1.0
102
RTVSPost2010PropOp57
 70
     0
102
RTVSPropertyOp0
 70
     0
102
RTVSPropertyOp1
 70
     0
102
RTVSPropertyOp2
 70
     0
102
RTVSPropertyOp3
 70
     0
102
RTVSPropertyOp4
 70
     0
102
RTVSPropertyOp5
 70
     0
102
RTVSPropertyOp6
 70
     0
102
RTVSPropertyOp7
 70
     0
102
RTVSPropertyOp8
 70
     0
102
RTVSPropertyOp9
 70
     0
102
RTVSPropertyOp10
 70
     0
102
RTVSPropertyOp11
 70
     0
102
RTVSPropertyOp12
 70
     0
102
RTVSPropertyOp13
 70
     0
102
RTVSPropertyOp14
 70
     2
102
RTVSPropertyOp15
 70
     0
102
RTVSPropertyOp16
 70
     0
102
RTVSPropertyOp17
 70
     0
102
RTVSPropertyOp18
 70
     0
102
RTVSPropertyOp19
 70
     0
102
RTVSPropertyOp20
 70
     0
102
RTVSPropertyOp21
 70
     0
102
RTVSPropertyOp22
 70
     0
102
RTVSPropertyOp23
 70
     0
102
RTVSPropertyOp24
 70
     0
102
RTVSPropertyOp25
 70
     0
102
RTVSPropertyOp26
 70
     0
102
RTVSPropertyOp27
 70
     0
102
RTVSPropertyOp28
 70
     1
102
RTVSPropertyOp29
 70
     1
102
RTVSPropertyOp30
 70
     1
102
RTVSPropertyOp31
 70
     1
102
RTVSPropertyOp32
 70
     1
102
RTVSPropertyOp33
 70
     1
102
RTVSPropertyOp34
 70
     1
102
RTVSPropertyOp35
 70
     1
102
RTVSPropertyOp36
 70
     1
102
RTVSPropertyOp37
 70
     0
102
RTVSPropertyOp38
 70
     0
102
RTVSPropertyOp39
 70
     0
102
RTVSPropertyOp40
 70
     0
102
RTVSPropertyOp41
 70
     0
102
RTVSPropertyOp42
 70
     0
102
RTVSPropertyOp43
 70
     0
102
RTVSPropertyOp44
 70
     0
102
RTVSPropertyOp45
 70
     1
102
RTVSPropertyOp46
 70
     0
102
RTVSPropertyOp47
 70
     0
102
RTVSPropertyOp48
 70
     0
102
RTVSPropertyOp49
 70
     1
102
RTVSPropertyOp50
 70
     0
102
RTVSPropertyOp51
 70
     0
102
RTVSPropertyOp52
 70
     0
102
RTVSPropertyOp53
 70
     0
102
RTVSPropertyOp54
 70
     0
102
RTVSPropertyOp55
 70
     1
102
RTVSPropertyOp56
 70
     0
102
RTVSPropertyOp57
 70
     0
102
RTVSPropertyOp58
 70
     0
102
RTVSPropertyOp59
 70
     0
102
RTVSPropertyOp60
 70
     0
102
RTVSPropertyOp61
 70
     0
102
RTVSPropertyOp62
 70
     0
  0
XRECORD
  5
CBE6
102
{ACAD_REACTORS
330
CBE5
102
}
330
CBE5
100
AcDbXrecord
280
     1
102
RTVSPost2010Prop28
280
     0
102
RTVSPost2010PropOp28
 70
     1
102
RTVSPost2010Prop29
280
     1
102
RTVSPost2010PropOp29
 70
     1
102
RTVSPost2010Prop30
280
     1
102
RTVSPost2010PropOp30
 70
     1
102
RTVSPost2010Prop31
280
     0
102
RTVSPost2010PropOp31
 70
     1
102
RTVSPost2010Prop32
280
     0
102
RTVSPost2010PropOp32
 70
     1
102
RTVSPost2010Prop33
280
     0
102
RTVSPost2010PropOp33
 70
     1
102
RTVSPost2010Prop34
280
     0
102
RTVSPost2010PropOp34
 70
     1
102
RTVSPost2010Prop35
280
     0
102
RTVSPost2010PropOp35
 70
     1
102
RTVSPost2010Prop36
280
     0
102
RTVSPost2010PropOp36
 70
     1
102
RTVSPost2010Prop37
 90
       50
102
RTVSPost2010PropOp37
 70
     1
102
RTVSPost2010Prop38
140
0.0
102
RTVSPost2010PropOp38
 70
     1
102
RTVSPost2010Prop39
140
1.0
102
RTVSPost2010PropOp39
 70
     1
102
RTVSPost2010Prop40
 90
        0
102
RTVSPost2010PropOp40
 70
     1
102
RTVSPost2010Prop41ColorIndex
 90
       18
102
RTVSPost2010Prop41ColorRGB
 90
        0
102
RTVSPost2010PropOp41
 70
     1
102
RTVSPost2010Prop42
 90
       50
102
RTVSPost2010PropOp42
 70
     1
102
RTVSPost2010Prop43
 90
        3
102
RTVSPost2010PropOp43
 70
     1
102
RTVSPost2010Prop44ColorIndex
 90
        5
102
RTVSPost2010Prop44ColorRGB
 90
      255
102
RTVSPost2010PropOp44
 70
     1
102
RTVSPost2010Prop45
280
     0
102
RTVSPost2010PropOp45
 70
     1
102
RTVSPost2010Prop46
 90
       50
102
RTVSPost2010PropOp46
 70
     1
102
RTVSPost2010Prop47
 90
       50
102
RTVSPost2010PropOp47
 70
     1
102
RTVSPost2010Prop48
 90
       50
102
RTVSPost2010PropOp48
 70
     1
102
RTVSPost2010Prop49
280
     0
102
RTVSPost2010PropOp49
 70
     1
102
RTVSPost2010Prop50
 90
       50
102
RTVSPost2010PropOp50
 70
     1
102
RTVSPost2010Prop51ColorIndex
 90
      256
102
RTVSPost2010Prop51ColorRGB
 90
-16777216
102
RTVSPost2010PropOp51
 70
     0
102
RTVSPost2010Prop52
140
1.0
102
RTVSPost2010PropOp52
 70
     0
102
RTVSPost2010Prop53
 90
        2
102
RTVSPost2010PropOp53
 70
     1
102
RTVSPost2010Prop54
  1
strokes_ogs.tif
102
RTVSPost2010PropOp54
 70
     1
102
RTVSPost2010Prop55
280
     0
102
RTVSPost2010PropOp55
 70
     1
102
RTVSPost2010Prop56
140
1.0
102
RTVSPost2010PropOp56
 70
     1
102
RTVSPost2010Prop57
140
1.0
102
RTVSPost2010PropOp57
 70
     1
102
RTVSPropertyOp0
 70
     1
102
RTVSPropertyOp1
 70
     1
102
RTVSPropertyOp2
 70
     1
102
RTVSPropertyOp3
 70
     1
102
RTVSPropertyOp4
 70
     1
102
RTVSPropertyOp5
 70
     1
102
RTVSPropertyOp6
 70
     1
102
RTVSPropertyOp7
 70
     1
102
RTVSPropertyOp8
 70
     1
102
RTVSPropertyOp9
 70
     1
102
RTVSPropertyOp10
 70
     1
102
RTVSPropertyOp11
 70
     1
102
RTVSPropertyOp12
 70
     1
102
RTVSPropertyOp13
 70
     1
102
RTVSPropertyOp14
 70
     1
102
RTVSPropertyOp15
 70
     1
102
RTVSPropertyOp16
 70
     1
102
RTVSPropertyOp17
 70
     1
102
RTVSPropertyOp18
 70
     1
102
RTVSPropertyOp19
 70
     1
102
RTVSPropertyOp20
 70
     1
102
RTVSPropertyOp21
 70
     1
102
RTVSPropertyOp22
 70
     1
102
RTVSPropertyOp23
 70
     1
102
RTVSPropertyOp24
 70
     1
102
RTVSPropertyOp25
 70
     1
102
RTVSPropertyOp26
 70
     1
102
RTVSPropertyOp27
 70
     1
102
RTVSPropertyOp28
 70
     1
102
RTVSPropertyOp29
 70
     1
102
RTVSPropertyOp30
 70
     1
102
RTVSPropertyOp31
 70
     1
102
RTVSPropertyOp32
 70
     1
102
RTVSPropertyOp33
 70
     1
102
RTVSPropertyOp34
 70
     1
102
RTVSPropertyOp35
 70
     1
102
RTVSPropertyOp36
 70
     1
102
RTVSPropertyOp37
 70
     1
102
RTVSPropertyOp38
 70
     1
102
RTVSPropertyOp39
 70
     1
102
RTVSPropertyOp40
 70
     1
102
RTVSPropertyOp41
 70
     1
102
RTVSPropertyOp42
 70
     1
102
RTVSPropertyOp43
 70
     1
102
RTVSPropertyOp44
 70
     1
102
RTVSPropertyOp45
 70
     1
102
RTVSPropertyOp46
 70
     1
102
RTVSPropertyOp47
 70
     1
102
RTVSPropertyOp48
 70
     1
102
RTVSPropertyOp49
 70
     1
102
RTVSPropertyOp50
 70
     1
102
RTVSPropertyOp51
 70
     0
102
RTVSPropertyOp52
 70
     0
102
RTVSPropertyOp53
 70
     1
102
RTVSPropertyOp54
 70
     1
102
RTVSPropertyOp55
 70
     1
102
RTVSPropertyOp56
 70
     1
102
RTVSPropertyOp57
 70
     1
102
RTVSPropertyOp58
 70
     1
102
RTVSPropertyOp59
 70
     1
102
RTVSPropertyOp60
 70
     1
102
RTVSPropertyOp61
 70
     1
102
RTVSPropertyOp62
 70
     1
  0
XRECORD
  5
CBFC
102
{ACAD_REACTORS
330
CBFB
102
}
330
CBFB
100
AcDbXrecord
280
     1
102
RTVSPost2010Prop28
280
     0
102
RTVSPost2010PropOp28
 70
     1
102
RTVSPost2010Prop29
280
     1
102
RTVSPost2010PropOp29
 70
     1
102
RTVSPost2010Prop30
280
     1
102
RTVSPost2010PropOp30
 70
     1
102
RTVSPost2010Prop31
280
     0
102
RTVSPost2010PropOp31
 70
     1
102
RTVSPost2010Prop32
280
     0
102
RTVSPost2010PropOp32
 70
     1
102
RTVSPost2010Prop33
280
     0
102
RTVSPost2010PropOp33
 70
     1
102
RTVSPost2010Prop34
280
     0
102
RTVSPost2010PropOp34
 70
     1
102
RTVSPost2010Prop35
280
     0
102
RTVSPost2010PropOp35
 70
     1
102
RTVSPost2010Prop36
280
     0
102
RTVSPost2010PropOp36
 70
     1
102
RTVSPost2010Prop37
 90
       50
102
RTVSPost2010PropOp37
 70
     1
102
RTVSPost2010Prop38
140
0.0
102
RTVSPost2010PropOp38
 70
     1
102
RTVSPost2010Prop39
140
1.0
102
RTVSPost2010PropOp39
 70
     1
102
RTVSPost2010Prop40
 90
        0
102
RTVSPost2010PropOp40
 70
     1
102
RTVSPost2010Prop41ColorIndex
 90
       18
102
RTVSPost2010Prop41ColorRGB
 90
        0
102
RTVSPost2010PropOp41
 70
     1
102
RTVSPost2010Prop42
 90
       50
102
RTVSPost2010PropOp42
 70
     1
102
RTVSPost2010Prop43
 90
        3
102
RTVSPost2010PropOp43
 70
     1
102
RTVSPost2010Prop44ColorIndex
 90
        5
102
RTVSPost2010Prop44ColorRGB
 90
      255
102
RTVSPost2010PropOp44
 70
     1
102
RTVSPost2010Prop45
280
     0
102
RTVSPost2010PropOp45
 70
     1
102
RTVSPost2010Prop46
 90
       50
102
RTVSPost2010PropOp46
 70
     1
102
RTVSPost2010Prop47
 90
       50
102
RTVSPost2010PropOp47
 70
     1
102
RTVSPost2010Prop48
 90
       50
102
RTVSPost2010PropOp48
 70
     1
102
RTVSPost2010Prop49
280
     0
102
RTVSPost2010PropOp49
 70
     1
102
RTVSPost2010Prop50
 90
       50
102
RTVSPost2010PropOp50
 70
     1
102
RTVSPost2010Prop51ColorIndex
 90
      256
102
RTVSPost2010Prop51ColorRGB
 90
-16777216
102
RTVSPost2010PropOp51
 70
     0
102
RTVSPost2010Prop52
140
1.0
102
RTVSPost2010PropOp52
 70
     0
102
RTVSPost2010Prop53
 90
        2
102
RTVSPost2010PropOp53
 70
     1
102
RTVSPost2010Prop54
  1
strokes_ogs.tif
102
RTVSPost2010PropOp54
 70
     1
102
RTVSPost2010Prop55
280
     0
102
RTVSPost2010PropOp55
 70
     1
102
RTVSPost2010Prop56
140
1.0
102
RTVSPost2010PropOp56
 70
     1
102
RTVSPost2010Prop57
140
1.0
102
RTVSPost2010PropOp57
 70
     1
102
RTVSPropertyOp0
 70
     1
102
RTVSPropertyOp1
 70
     1
102
RTVSPropertyOp2
 70
     1
102
RTVSPropertyOp3
 70
     1
102
RTVSPropertyOp4
 70
     1
102
RTVSPropertyOp5
 70
     1
102
RTVSPropertyOp6
 70
     1
102
RTVSPropertyOp7
 70
     1
102
RTVSPropertyOp8
 70
     1
102
RTVSPropertyOp9
 70
     1
102
RTVSPropertyOp10
 70
     1
102
RTVSPropertyOp11
 70
     1
102
RTVSPropertyOp12
 70
     1
102
RTVSPropertyOp13
 70
     1
102
RTVSPropertyOp14
 70
     1
102
RTVSPropertyOp15
 70
     1
102
RTVSPropertyOp16
 70
     1
102
RTVSPropertyOp17
 70
     1
102
RTVSPropertyOp18
 70
     1
102
RTVSPropertyOp19
 70
     1
102
RTVSPropertyOp20
 70
     1
102
RTVSPropertyOp21
 70
     1
102
RTVSPropertyOp22
 70
     1
102
RTVSPropertyOp23
 70
     1
102
RTVSPropertyOp24
 70
     1
102
RTVSPropertyOp25
 70
     1
102
RTVSPropertyOp26
 70
     1
102
RTVSPropertyOp27
 70
     1
102
RTVSPropertyOp28
 70
     1
102
RTVSPropertyOp29
 70
     1
102
RTVSPropertyOp30
 70
     1
102
RTVSPropertyOp31
 70
     1
102
RTVSPropertyOp32
 70
     1
102
RTVSPropertyOp33
 70
     1
102
RTVSPropertyOp34
 70
     1
102
RTVSPropertyOp35
 70
     1
102
RTVSPropertyOp36
 70
     1
102
RTVSPropertyOp37
 70
     1
102
RTVSPropertyOp38
 70
     1
102
RTVSPropertyOp39
 70
     1
102
RTVSPropertyOp40
 70
     1
102
RTVSPropertyOp41
 70
     1
102
RTVSPropertyOp42
 70
     1
102
RTVSPropertyOp43
 70
     1
102
RTVSPropertyOp44
 70
     1
102
RTVSPropertyOp45
 70
     1
102
RTVSPropertyOp46
 70
     1
102
RTVSPropertyOp47
 70
     1
102
RTVSPropertyOp48
 70
     1
102
RTVSPropertyOp49
 70
     1
102
RTVSPropertyOp50
 70
     1
102
RTVSPropertyOp51
 70
     0
102
RTVSPropertyOp52
 70
     0
102
RTVSPropertyOp53
 70
     1
102
RTVSPropertyOp54
 70
     1
102
RTVSPropertyOp55
 70
     1
102
RTVSPropertyOp56
 70
     1
102
RTVSPropertyOp57
 70
     1
102
RTVSPropertyOp58
 70
     1
102
RTVSPropertyOp59
 70
     1
102
RTVSPropertyOp60
 70
     1
102
RTVSPropertyOp61
 70
     1
102
RTVSPropertyOp62
 70
     1
  0
XRECORD
  5
CBFA
102
{ACAD_REACTORS
330
CBF9
102
}
330
CBF9
100
AcDbXrecord
280
     1
102
RTVSPost2010Prop28
280
     0
102
RTVSPost2010PropOp28
 70
     1
102
RTVSPost2010Prop29
280
     1
102
RTVSPost2010PropOp29
 70
     1
102
RTVSPost2010Prop30
280
     1
102
RTVSPost2010PropOp30
 70
     1
102
RTVSPost2010Prop31
280
     0
102
RTVSPost2010PropOp31
 70
     1
102
RTVSPost2010Prop32
280
     0
102
RTVSPost2010PropOp32
 70
     1
102
RTVSPost2010Prop33
280
     0
102
RTVSPost2010PropOp33
 70
     1
102
RTVSPost2010Prop34
280
     0
102
RTVSPost2010PropOp34
 70
     1
102
RTVSPost2010Prop35
280
     0
102
RTVSPost2010PropOp35
 70
     1
102
RTVSPost2010Prop36
280
     0
102
RTVSPost2010PropOp36
 70
     1
102
RTVSPost2010Prop37
 90
       50
102
RTVSPost2010PropOp37
 70
     1
102
RTVSPost2010Prop38
140
0.0
102
RTVSPost2010PropOp38
 70
     1
102
RTVSPost2010Prop39
140
1.0
102
RTVSPost2010PropOp39
 70
     1
102
RTVSPost2010Prop40
 90
        0
102
RTVSPost2010PropOp40
 70
     1
102
RTVSPost2010Prop41ColorIndex
 90
       18
102
RTVSPost2010Prop41ColorRGB
 90
        0
102
RTVSPost2010PropOp41
 70
     1
102
RTVSPost2010Prop42
 90
       50
102
RTVSPost2010PropOp42
 70
     1
102
RTVSPost2010Prop43
 90
        3
102
RTVSPost2010PropOp43
 70
     1
102
RTVSPost2010Prop44ColorIndex
 90
        5
102
RTVSPost2010Prop44ColorRGB
 90
      255
102
RTVSPost2010PropOp44
 70
     1
102
RTVSPost2010Prop45
280
     0
102
RTVSPost2010PropOp45
 70
     1
102
RTVSPost2010Prop46
 90
       50
102
RTVSPost2010PropOp46
 70
     1
102
RTVSPost2010Prop47
 90
       50
102
RTVSPost2010PropOp47
 70
     1
102
RTVSPost2010Prop48
 90
       50
102
RTVSPost2010PropOp48
 70
     1
102
RTVSPost2010Prop49
280
     0
102
RTVSPost2010PropOp49
 70
     1
102
RTVSPost2010Prop50
 90
       50
102
RTVSPost2010PropOp50
 70
     1
102
RTVSPost2010Prop51ColorIndex
 90
      256
102
RTVSPost2010Prop51ColorRGB
 90
-16777216
102
RTVSPost2010PropOp51
 70
     0
102
RTVSPost2010Prop52
140
1.0
102
RTVSPost2010PropOp52
 70
     0
102
RTVSPost2010Prop53
 90
        2
102
RTVSPost2010PropOp53
 70
     1
102
RTVSPost2010Prop54
  1
strokes_ogs.tif
102
RTVSPost2010PropOp54
 70
     1
102
RTVSPost2010Prop55
280
     0
102
RTVSPost2010PropOp55
 70
     1
102
RTVSPost2010Prop56
140
1.0
102
RTVSPost2010PropOp56
 70
     1
102
RTVSPost2010Prop57
140
1.0
102
RTVSPost2010PropOp57
 70
     1
102
RTVSPropertyOp0
 70
     1
102
RTVSPropertyOp1
 70
     1
102
RTVSPropertyOp2
 70
     1
102
RTVSPropertyOp3
 70
     1
102
RTVSPropertyOp4
 70
     1
102
RTVSPropertyOp5
 70
     1
102
RTVSPropertyOp6
 70
     1
102
RTVSPropertyOp7
 70
     1
102
RTVSPropertyOp8
 70
     1
102
RTVSPropertyOp9
 70
     1
102
RTVSPropertyOp10
 70
     1
102
RTVSPropertyOp11
 70
     1
102
RTVSPropertyOp12
 70
     1
102
RTVSPropertyOp13
 70
     1
102
RTVSPropertyOp14
 70
     1
102
RTVSPropertyOp15
 70
     1
102
RTVSPropertyOp16
 70
     1
102
RTVSPropertyOp17
 70
     1
102
RTVSPropertyOp18
 70
     1
102
RTVSPropertyOp19
 70
     1
102
RTVSPropertyOp20
 70
     1
102
RTVSPropertyOp21
 70
     1
102
RTVSPropertyOp22
 70
     1
102
RTVSPropertyOp23
 70
     1
102
RTVSPropertyOp24
 70
     1
102
RTVSPropertyOp25
 70
     1
102
RTVSPropertyOp26
 70
     1
102
RTVSPropertyOp27
 70
     1
102
RTVSPropertyOp28
 70
     1
102
RTVSPropertyOp29
 70
     1
102
RTVSPropertyOp30
 70
     1
102
RTVSPropertyOp31
 70
     1
102
RTVSPropertyOp32
 70
     1
102
RTVSPropertyOp33
 70
     1
102
RTVSPropertyOp34
 70
     1
102
RTVSPropertyOp35
 70
     1
102
RTVSPropertyOp36
 70
     1
102
RTVSPropertyOp37
 70
     1
102
RTVSPropertyOp38
 70
     1
102
RTVSPropertyOp39
 70
     1
102
RTVSPropertyOp40
 70
     1
102
RTVSPropertyOp41
 70
     1
102
RTVSPropertyOp42
 70
     1
102
RTVSPropertyOp43
 70
     1
102
RTVSPropertyOp44
 70
     1
102
RTVSPropertyOp45
 70
     1
102
RTVSPropertyOp46
 70
     1
102
RTVSPropertyOp47
 70
     1
102
RTVSPropertyOp48
 70
     1
102
RTVSPropertyOp49
 70
     1
102
RTVSPropertyOp50
 70
     1
102
RTVSPropertyOp51
 70
     0
102
RTVSPropertyOp52
 70
     0
102
RTVSPropertyOp53
 70
     1
102
RTVSPropertyOp54
 70
     1
102
RTVSPropertyOp55
 70
     1
102
RTVSPropertyOp56
 70
     1
102
RTVSPropertyOp57
 70
     1
102
RTVSPropertyOp58
 70
     1
102
RTVSPropertyOp59
 70
     1
102
RTVSPropertyOp60
 70
     1
102
RTVSPropertyOp61
 70
     1
102
RTVSPropertyOp62
 70
     1
  0
XRECORD
  5
CBF4
102
{ACAD_REACTORS
330
CBF3
102
}
330
CBF3
100
AcDbXrecord
280
     1
102
RTVSPost2010Prop28
280
     0
102
RTVSPost2010PropOp28
 70
     1
102
RTVSPost2010Prop29
280
     1
102
RTVSPost2010PropOp29
 70
     1
102
RTVSPost2010Prop30
280
     1
102
RTVSPost2010PropOp30
 70
     1
102
RTVSPost2010Prop31
280
     0
102
RTVSPost2010PropOp31
 70
     1
102
RTVSPost2010Prop32
280
     0
102
RTVSPost2010PropOp32
 70
     1
102
RTVSPost2010Prop33
280
     0
102
RTVSPost2010PropOp33
 70
     1
102
RTVSPost2010Prop34
280
     0
102
RTVSPost2010PropOp34
 70
     1
102
RTVSPost2010Prop35
280
     0
102
RTVSPost2010PropOp35
 70
     1
102
RTVSPost2010Prop36
280
     0
102
RTVSPost2010PropOp36
 70
     1
102
RTVSPost2010Prop37
 90
       50
102
RTVSPost2010PropOp37
 70
     1
102
RTVSPost2010Prop38
140
0.0
102
RTVSPost2010PropOp38
 70
     1
102
RTVSPost2010Prop39
140
1.0
102
RTVSPost2010PropOp39
 70
     1
102
RTVSPost2010Prop40
 90
        0
102
RTVSPost2010PropOp40
 70
     1
102
RTVSPost2010Prop41ColorIndex
 90
       18
102
RTVSPost2010Prop41ColorRGB
 90
        0
102
RTVSPost2010PropOp41
 70
     1
102
RTVSPost2010Prop42
 90
       50
102
RTVSPost2010PropOp42
 70
     1
102
RTVSPost2010Prop43
 90
        3
102
RTVSPost2010PropOp43
 70
     1
102
RTVSPost2010Prop44ColorIndex
 90
        5
102
RTVSPost2010Prop44ColorRGB
 90
      255
102
RTVSPost2010PropOp44
 70
     1
102
RTVSPost2010Prop45
280
     0
102
RTVSPost2010PropOp45
 70
     1
102
RTVSPost2010Prop46
 90
       50
102
RTVSPost2010PropOp46
 70
     1
102
RTVSPost2010Prop47
 90
       50
102
RTVSPost2010PropOp47
 70
     1
102
RTVSPost2010Prop48
 90
       50
102
RTVSPost2010PropOp48
 70
     1
102
RTVSPost2010Prop49
280
     0
102
RTVSPost2010PropOp49
 70
     1
102
RTVSPost2010Prop50
 90
       50
102
RTVSPost2010PropOp50
 70
     1
102
RTVSPost2010Prop51ColorIndex
 90
      256
102
RTVSPost2010Prop51ColorRGB
 90
-16777216
102
RTVSPost2010PropOp51
 70
     0
102
RTVSPost2010Prop52
140
1.0
102
RTVSPost2010PropOp52
 70
     0
102
RTVSPost2010Prop53
 90
        2
102
RTVSPost2010PropOp53
 70
     1
102
RTVSPost2010Prop54
  1
strokes_ogs.tif
102
RTVSPost2010PropOp54
 70
     1
102
RTVSPost2010Prop55
280
     0
102
RTVSPost2010PropOp55
 70
     1
102
RTVSPost2010Prop56
140
1.0
102
RTVSPost2010PropOp56
 70
     1
102
RTVSPost2010Prop57
140
1.0
102
RTVSPost2010PropOp57
 70
     1
102
RTVSPropertyOp0
 70
     1
102
RTVSPropertyOp1
 70
     1
102
RTVSPropertyOp2
 70
     1
102
RTVSPropertyOp3
 70
     1
102
RTVSPropertyOp4
 70
     1
102
RTVSPropertyOp5
 70
     1
102
RTVSPropertyOp6
 70
     1
102
RTVSPropertyOp7
 70
     1
102
RTVSPropertyOp8
 70
     1
102
RTVSPropertyOp9
 70
     1
102
RTVSPropertyOp10
 70
     1
102
RTVSPropertyOp11
 70
     1
102
RTVSPropertyOp12
 70
     1
102
RTVSPropertyOp13
 70
     1
102
RTVSPropertyOp14
 70
     1
102
RTVSPropertyOp15
 70
     1
102
RTVSPropertyOp16
 70
     1
102
RTVSPropertyOp17
 70
     1
102
RTVSPropertyOp18
 70
     1
102
RTVSPropertyOp19
 70
     1
102
RTVSPropertyOp20
 70
     1
102
RTVSPropertyOp21
 70
     1
102
RTVSPropertyOp22
 70
     1
102
RTVSPropertyOp23
 70
     1
102
RTVSPropertyOp24
 70
     1
102
RTVSPropertyOp25
 70
     1
102
RTVSPropertyOp26
 70
     1
102
RTVSPropertyOp27
 70
     1
102
RTVSPropertyOp28
 70
     1
102
RTVSPropertyOp29
 70
     1
102
RTVSPropertyOp30
 70
     1
102
RTVSPropertyOp31
 70
     1
102
RTVSPropertyOp32
 70
     1
102
RTVSPropertyOp33
 70
     1
102
RTVSPropertyOp34
 70
     1
102
RTVSPropertyOp35
 70
     1
102
RTVSPropertyOp36
 70
     1
102
RTVSPropertyOp37
 70
     1
102
RTVSPropertyOp38
 70
     1
102
RTVSPropertyOp39
 70
     1
102
RTVSPropertyOp40
 70
     1
102
RTVSPropertyOp41
 70
     1
102
RTVSPropertyOp42
 70
     1
102
RTVSPropertyOp43
 70
     1
102
RTVSPropertyOp44
 70
     1
102
RTVSPropertyOp45
 70
     1
102
RTVSPropertyOp46
 70
     1
102
RTVSPropertyOp47
 70
     1
102
RTVSPropertyOp48
 70
     1
102
RTVSPropertyOp49
 70
     1
102
RTVSPropertyOp50
 70
     1
102
RTVSPropertyOp51
 70
     0
102
RTVSPropertyOp52
 70
     0
102
RTVSPropertyOp53
 70
     1
102
RTVSPropertyOp54
 70
     1
102
RTVSPropertyOp55
 70
     1
102
RTVSPropertyOp56
 70
     1
102
RTVSPropertyOp57
 70
     1
102
RTVSPropertyOp58
 70
     1
102
RTVSPropertyOp59
 70
     1
102
RTVSPropertyOp60
 70
     1
102
RTVSPropertyOp61
 70
     1
102
RTVSPropertyOp62
 70
     1
  0
XRECORD
  5
CBF6
102
{ACAD_REACTORS
330
CBF5
102
}
330
CBF5
100
AcDbXrecord
280
     1
102
RTVSPost2010Prop28
280
     0
102
RTVSPost2010PropOp28
 70
     1
102
RTVSPost2010Prop29
280
     1
102
RTVSPost2010PropOp29
 70
     1
102
RTVSPost2010Prop30
280
     1
102
RTVSPost2010PropOp30
 70
     1
102
RTVSPost2010Prop31
280
     0
102
RTVSPost2010PropOp31
 70
     1
102
RTVSPost2010Prop32
280
     0
102
RTVSPost2010PropOp32
 70
     1
102
RTVSPost2010Prop33
280
     0
102
RTVSPost2010PropOp33
 70
     1
102
RTVSPost2010Prop34
280
     0
102
RTVSPost2010PropOp34
 70
     1
102
RTVSPost2010Prop35
280
     0
102
RTVSPost2010PropOp35
 70
     1
102
RTVSPost2010Prop36
280
     0
102
RTVSPost2010PropOp36
 70
     1
102
RTVSPost2010Prop37
 90
       50
102
RTVSPost2010PropOp37
 70
     1
102
RTVSPost2010Prop38
140
0.0
102
RTVSPost2010PropOp38
 70
     1
102
RTVSPost2010Prop39
140
1.0
102
RTVSPost2010PropOp39
 70
     1
102
RTVSPost2010Prop40
 90
        0
102
RTVSPost2010PropOp40
 70
     1
102
RTVSPost2010Prop41ColorIndex
 90
       18
102
RTVSPost2010Prop41ColorRGB
 90
        0
102
RTVSPost2010PropOp41
 70
     1
102
RTVSPost2010Prop42
 90
       50
102
RTVSPost2010PropOp42
 70
     1
102
RTVSPost2010Prop43
 90
        3
102
RTVSPost2010PropOp43
 70
     1
102
RTVSPost2010Prop44ColorIndex
 90
        5
102
RTVSPost2010Prop44ColorRGB
 90
      255
102
RTVSPost2010PropOp44
 70
     1
102
RTVSPost2010Prop45
280
     0
102
RTVSPost2010PropOp45
 70
     1
102
RTVSPost2010Prop46
 90
       50
102
RTVSPost2010PropOp46
 70
     1
102
RTVSPost2010Prop47
 90
       50
102
RTVSPost2010PropOp47
 70
     1
102
RTVSPost2010Prop48
 90
       50
102
RTVSPost2010PropOp48
 70
     1
102
RTVSPost2010Prop49
280
     0
102
RTVSPost2010PropOp49
 70
     1
102
RTVSPost2010Prop50
 90
       50
102
RTVSPost2010PropOp50
 70
     1
102
RTVSPost2010Prop51ColorIndex
 90
      256
102
RTVSPost2010Prop51ColorRGB
 90
-16777216
102
RTVSPost2010PropOp51
 70
     0
102
RTVSPost2010Prop52
140
1.0
102
RTVSPost2010PropOp52
 70
     0
102
RTVSPost2010Prop53
 90
        2
102
RTVSPost2010PropOp53
 70
     1
102
RTVSPost2010Prop54
  1
strokes_ogs.tif
102
RTVSPost2010PropOp54
 70
     1
102
RTVSPost2010Prop55
280
     0
102
RTVSPost2010PropOp55
 70
     1
102
RTVSPost2010Prop56
140
1.0
102
RTVSPost2010PropOp56
 70
     1
102
RTVSPost2010Prop57
140
1.0
102
RTVSPost2010PropOp57
 70
     1
102
RTVSPropertyOp0
 70
     1
102
RTVSPropertyOp1
 70
     1
102
RTVSPropertyOp2
 70
     1
102
RTVSPropertyOp3
 70
     1
102
RTVSPropertyOp4
 70
     1
102
RTVSPropertyOp5
 70
     1
102
RTVSPropertyOp6
 70
     1
102
RTVSPropertyOp7
 70
     1
102
RTVSPropertyOp8
 70
     1
102
RTVSPropertyOp9
 70
     1
102
RTVSPropertyOp10
 70
     1
102
RTVSPropertyOp11
 70
     1
102
RTVSPropertyOp12
 70
     1
102
RTVSPropertyOp13
 70
     1
102
RTVSPropertyOp14
 70
     1
102
RTVSPropertyOp15
 70
     1
102
RTVSPropertyOp16
 70
     1
102
RTVSPropertyOp17
 70
     1
102
RTVSPropertyOp18
 70
     1
102
RTVSPropertyOp19
 70
     1
102
RTVSPropertyOp20
 70
     1
102
RTVSPropertyOp21
 70
     1
102
RTVSPropertyOp22
 70
     1
102
RTVSPropertyOp23
 70
     1
102
RTVSPropertyOp24
 70
     1
102
RTVSPropertyOp25
 70
     1
102
RTVSPropertyOp26
 70
     1
102
RTVSPropertyOp27
 70
     1
102
RTVSPropertyOp28
 70
     1
102
RTVSPropertyOp29
 70
     1
102
RTVSPropertyOp30
 70
     1
102
RTVSPropertyOp31
 70
     1
102
RTVSPropertyOp32
 70
     1
102
RTVSPropertyOp33
 70
     1
102
RTVSPropertyOp34
 70
     1
102
RTVSPropertyOp35
 70
     1
102
RTVSPropertyOp36
 70
     1
102
RTVSPropertyOp37
 70
     1
102
RTVSPropertyOp38
 70
     1
102
RTVSPropertyOp39
 70
     1
102
RTVSPropertyOp40
 70
     1
102
RTVSPropertyOp41
 70
     1
102
RTVSPropertyOp42
 70
     1
102
RTVSPropertyOp43
 70
     1
102
RTVSPropertyOp44
 70
     1
102
RTVSPropertyOp45
 70
     1
102
RTVSPropertyOp46
 70
     1
102
RTVSPropertyOp47
 70
     1
102
RTVSPropertyOp48
 70
     1
102
RTVSPropertyOp49
 70
     1
102
RTVSPropertyOp50
 70
     1
102
RTVSPropertyOp51
 70
     0
102
RTVSPropertyOp52
 70
     0
102
RTVSPropertyOp53
 70
     1
102
RTVSPropertyOp54
 70
     1
102
RTVSPropertyOp55
 70
     1
102
RTVSPropertyOp56
 70
     1
102
RTVSPropertyOp57
 70
     1
102
RTVSPropertyOp58
 70
     1
102
RTVSPropertyOp59
 70
     1
102
RTVSPropertyOp60
 70
     1
102
RTVSPropertyOp61
 70
     1
102
RTVSPropertyOp62
 70
     1
  0
XRECORD
  5
CBEC
102
{ACAD_REACTORS
330
CBEB
102
}
330
CBEB
100
AcDbXrecord
280
     1
102
RTVSPost2010Prop28
280
     0
102
RTVSPost2010PropOp28
 70
     1
102
RTVSPost2010Prop29
280
     1
102
RTVSPost2010PropOp29
 70
     1
102
RTVSPost2010Prop30
280
     1
102
RTVSPost2010PropOp30
 70
     1
102
RTVSPost2010Prop31
280
     0
102
RTVSPost2010PropOp31
 70
     1
102
RTVSPost2010Prop32
280
     0
102
RTVSPost2010PropOp32
 70
     1
102
RTVSPost2010Prop33
280
     0
102
RTVSPost2010PropOp33
 70
     1
102
RTVSPost2010Prop34
280
     0
102
RTVSPost2010PropOp34
 70
     1
102
RTVSPost2010Prop35
280
     0
102
RTVSPost2010PropOp35
 70
     1
102
RTVSPost2010Prop36
280
     0
102
RTVSPost2010PropOp36
 70
     1
102
RTVSPost2010Prop37
 90
       50
102
RTVSPost2010PropOp37
 70
     1
102
RTVSPost2010Prop38
140
0.0
102
RTVSPost2010PropOp38
 70
     1
102
RTVSPost2010Prop39
140
1.0
102
RTVSPost2010PropOp39
 70
     1
102
RTVSPost2010Prop40
 90
        0
102
RTVSPost2010PropOp40
 70
     1
102
RTVSPost2010Prop41ColorIndex
 90
       18
102
RTVSPost2010Prop41ColorRGB
 90
        0
102
RTVSPost2010PropOp41
 70
     1
102
RTVSPost2010Prop42
 90
       50
102
RTVSPost2010PropOp42
 70
     1
102
RTVSPost2010Prop43
 90
        3
102
RTVSPost2010PropOp43
 70
     1
102
RTVSPost2010Prop44ColorIndex
 90
        5
102
RTVSPost2010Prop44ColorRGB
 90
      255
102
RTVSPost2010PropOp44
 70
     1
102
RTVSPost2010Prop45
280
     0
102
RTVSPost2010PropOp45
 70
     1
102
RTVSPost2010Prop46
 90
       50
102
RTVSPost2010PropOp46
 70
     1
102
RTVSPost2010Prop47
 90
       50
102
RTVSPost2010PropOp47
 70
     1
102
RTVSPost2010Prop48
 90
       50
102
RTVSPost2010PropOp48
 70
     1
102
RTVSPost2010Prop49
280
     0
102
RTVSPost2010PropOp49
 70
     1
102
RTVSPost2010Prop50
 90
       50
102
RTVSPost2010PropOp50
 70
     1
102
RTVSPost2010Prop51ColorIndex
 90
      256
102
RTVSPost2010Prop51ColorRGB
 90
-16777216
102
RTVSPost2010PropOp51
 70
     0
102
RTVSPost2010Prop52
140
1.0
102
RTVSPost2010PropOp52
 70
     0
102
RTVSPost2010Prop53
 90
        2
102
RTVSPost2010PropOp53
 70
     1
102
RTVSPost2010Prop54
  1
strokes_ogs.tif
102
RTVSPost2010PropOp54
 70
     1
102
RTVSPost2010Prop55
280
     0
102
RTVSPost2010PropOp55
 70
     1
102
RTVSPost2010Prop56
140
1.0
102
RTVSPost2010PropOp56
 70
     1
102
RTVSPost2010Prop57
140
1.0
102
RTVSPost2010PropOp57
 70
     1
102
RTVSPropertyOp0
 70
     1
102
RTVSPropertyOp1
 70
     1
102
RTVSPropertyOp2
 70
     1
102
RTVSPropertyOp3
 70
     1
102
RTVSPropertyOp4
 70
     1
102
RTVSPropertyOp5
 70
     1
102
RTVSPropertyOp6
 70
     1
102
RTVSPropertyOp7
 70
     1
102
RTVSPropertyOp8
 70
     1
102
RTVSPropertyOp9
 70
     1
102
RTVSPropertyOp10
 70
     1
102
RTVSPropertyOp11
 70
     1
102
RTVSPropertyOp12
 70
     1
102
RTVSPropertyOp13
 70
     1
102
RTVSPropertyOp14
 70
     1
102
RTVSPropertyOp15
 70
     1
102
RTVSPropertyOp16
 70
     1
102
RTVSPropertyOp17
 70
     1
102
RTVSPropertyOp18
 70
     1
102
RTVSPropertyOp19
 70
     1
102
RTVSPropertyOp20
 70
     1
102
RTVSPropertyOp21
 70
     1
102
RTVSPropertyOp22
 70
     1
102
RTVSPropertyOp23
 70
     1
102
RTVSPropertyOp24
 70
     1
102
RTVSPropertyOp25
 70
     1
102
RTVSPropertyOp26
 70
     1
102
RTVSPropertyOp27
 70
     1
102
RTVSPropertyOp28
 70
     1
102
RTVSPropertyOp29
 70
     1
102
RTVSPropertyOp30
 70
     1
102
RTVSPropertyOp31
 70
     1
102
RTVSPropertyOp32
 70
     1
102
RTVSPropertyOp33
 70
     1
102
RTVSPropertyOp34
 70
     1
102
RTVSPropertyOp35
 70
     1
102
RTVSPropertyOp36
 70
     1
102
RTVSPropertyOp37
 70
     1
102
RTVSPropertyOp38
 70
     1
102
RTVSPropertyOp39
 70
     1
102
RTVSPropertyOp40
 70
     1
102
RTVSPropertyOp41
 70
     1
102
RTVSPropertyOp42
 70
     1
102
RTVSPropertyOp43
 70
     1
102
RTVSPropertyOp44
 70
     1
102
RTVSPropertyOp45
 70
     1
102
RTVSPropertyOp46
 70
     1
102
RTVSPropertyOp47
 70
     1
102
RTVSPropertyOp48
 70
     1
102
RTVSPropertyOp49
 70
     1
102
RTVSPropertyOp50
 70
     1
102
RTVSPropertyOp51
 70
     0
102
RTVSPropertyOp52
 70
     0
102
RTVSPropertyOp53
 70
     1
102
RTVSPropertyOp54
 70
     1
102
RTVSPropertyOp55
 70
     1
102
RTVSPropertyOp56
 70
     1
102
RTVSPropertyOp57
 70
     1
102
RTVSPropertyOp58
 70
     1
102
RTVSPropertyOp59
 70
     1
102
RTVSPropertyOp60
 70
     1
102
RTVSPropertyOp61
 70
     1
102
RTVSPropertyOp62
 70
     1
  0
XRECORD
  5
CBE0
102
{ACAD_REACTORS
330
CBDF
102
}
330
CBDF
100
AcDbXrecord
280
     1
102
RTVSPost2010Prop28
280
     0
102
RTVSPost2010PropOp28
 70
     1
102
RTVSPost2010Prop29
280
     1
102
RTVSPost2010PropOp29
 70
     1
102
RTVSPost2010Prop30
280
     1
102
RTVSPost2010PropOp30
 70
     1
102
RTVSPost2010Prop31
280
     0
102
RTVSPost2010PropOp31
 70
     1
102
RTVSPost2010Prop32
280
     0
102
RTVSPost2010PropOp32
 70
     1
102
RTVSPost2010Prop33
280
     0
102
RTVSPost2010PropOp33
 70
     1
102
RTVSPost2010Prop34
280
     0
102
RTVSPost2010PropOp34
 70
     1
102
RTVSPost2010Prop35
280
     0
102
RTVSPost2010PropOp35
 70
     1
102
RTVSPost2010Prop36
280
     0
102
RTVSPost2010PropOp36
 70
     1
102
RTVSPost2010Prop37
 90
       50
102
RTVSPost2010PropOp37
 70
     1
102
RTVSPost2010Prop38
140
0.0
102
RTVSPost2010PropOp38
 70
     1
102
RTVSPost2010Prop39
140
1.0
102
RTVSPost2010PropOp39
 70
     1
102
RTVSPost2010Prop40
 90
        0
102
RTVSPost2010PropOp40
 70
     1
102
RTVSPost2010Prop41ColorIndex
 90
       18
102
RTVSPost2010Prop41ColorRGB
 90
        0
102
RTVSPost2010PropOp41
 70
     1
102
RTVSPost2010Prop42
 90
       50
102
RTVSPost2010PropOp42
 70
     1
102
RTVSPost2010Prop43
 90
        3
102
RTVSPost2010PropOp43
 70
     1
102
RTVSPost2010Prop44ColorIndex
 90
        5
102
RTVSPost2010Prop44ColorRGB
 90
      255
102
RTVSPost2010PropOp44
 70
     1
102
RTVSPost2010Prop45
280
     0
102
RTVSPost2010PropOp45
 70
     1
102
RTVSPost2010Prop46
 90
       50
102
RTVSPost2010PropOp46
 70
     1
102
RTVSPost2010Prop47
 90
       50
102
RTVSPost2010PropOp47
 70
     1
102
RTVSPost2010Prop48
 90
       50
102
RTVSPost2010PropOp48
 70
     1
102
RTVSPost2010Prop49
280
     0
102
RTVSPost2010PropOp49
 70
     1
102
RTVSPost2010Prop50
 90
       50
102
RTVSPost2010PropOp50
 70
     1
102
RTVSPost2010Prop51ColorIndex
 90
      256
102
RTVSPost2010Prop51ColorRGB
 90
-16777216
102
RTVSPost2010PropOp51
 70
     0
102
RTVSPost2010Prop52
140
1.0
102
RTVSPost2010PropOp52
 70
     0
102
RTVSPost2010Prop53
 90
        2
102
RTVSPost2010PropOp53
 70
     1
102
RTVSPost2010Prop54
  1
strokes_ogs.tif
102
RTVSPost2010PropOp54
 70
     1
102
RTVSPost2010Prop55
280
     0
102
RTVSPost2010PropOp55
 70
     1
102
RTVSPost2010Prop56
140
1.0
102
RTVSPost2010PropOp56
 70
     1
102
RTVSPost2010Prop57
140
1.0
102
RTVSPost2010PropOp57
 70
     1
102
RTVSPropertyOp0
 70
     1
102
RTVSPropertyOp1
 70
     1
102
RTVSPropertyOp2
 70
     1
102
RTVSPropertyOp3
 70
     1
102
RTVSPropertyOp4
 70
     1
102
RTVSPropertyOp5
 70
     1
102
RTVSPropertyOp6
 70
     1
102
RTVSPropertyOp7
 70
     1
102
RTVSPropertyOp8
 70
     1
102
RTVSPropertyOp9
 70
     1
102
RTVSPropertyOp10
 70
     1
102
RTVSPropertyOp11
 70
     1
102
RTVSPropertyOp12
 70
     1
102
RTVSPropertyOp13
 70
     1
102
RTVSPropertyOp14
 70
     1
102
RTVSPropertyOp15
 70
     1
102
RTVSPropertyOp16
 70
     1
102
RTVSPropertyOp17
 70
     1
102
RTVSPropertyOp18
 70
     1
102
RTVSPropertyOp19
 70
     1
102
RTVSPropertyOp20
 70
     1
102
RTVSPropertyOp21
 70
     1
102
RTVSPropertyOp22
 70
     1
102
RTVSPropertyOp23
 70
     1
102
RTVSPropertyOp24
 70
     1
102
RTVSPropertyOp25
 70
     1
102
RTVSPropertyOp26
 70
     1
102
RTVSPropertyOp27
 70
     1
102
RTVSPropertyOp28
 70
     1
102
RTVSPropertyOp29
 70
     1
102
RTVSPropertyOp30
 70
     1
102
RTVSPropertyOp31
 70
     1
102
RTVSPropertyOp32
 70
     1
102
RTVSPropertyOp33
 70
     1
102
RTVSPropertyOp34
 70
     1
102
RTVSPropertyOp35
 70
     1
102
RTVSPropertyOp36
 70
     1
102
RTVSPropertyOp37
 70
     1
102
RTVSPropertyOp38
 70
     1
102
RTVSPropertyOp39
 70
     1
102
RTVSPropertyOp40
 70
     1
102
RTVSPropertyOp41
 70
     1
102
RTVSPropertyOp42
 70
     1
102
RTVSPropertyOp43
 70
     1
102
RTVSPropertyOp44
 70
     1
102
RTVSPropertyOp45
 70
     1
102
RTVSPropertyOp46
 70
     1
102
RTVSPropertyOp47
 70
     1
102
RTVSPropertyOp48
 70
     1
102
RTVSPropertyOp49
 70
     1
102
RTVSPropertyOp50
 70
     1
102
RTVSPropertyOp51
 70
     0
102
RTVSPropertyOp52
 70
     0
102
RTVSPropertyOp53
 70
     1
102
RTVSPropertyOp54
 70
     1
102
RTVSPropertyOp55
 70
     1
102
RTVSPropertyOp56
 70
     1
102
RTVSPropertyOp57
 70
     1
102
RTVSPropertyOp58
 70
     1
102
RTVSPropertyOp59
 70
     1
102
RTVSPropertyOp60
 70
     1
102
RTVSPropertyOp61
 70
     1
102
RTVSPropertyOp62
 70
     1
  0
XRECORD
  5
CBF8
102
{ACAD_REACTORS
330
CBF7
102
}
330
CBF7
100
AcDbXrecord
280
     1
102
RTVSPost2010Prop28
280
     0
102
RTVSPost2010PropOp28
 70
     1
102
RTVSPost2010Prop29
280
     1
102
RTVSPost2010PropOp29
 70
     1
102
RTVSPost2010Prop30
280
     1
102
RTVSPost2010PropOp30
 70
     1
102
RTVSPost2010Prop31
280
     0
102
RTVSPost2010PropOp31
 70
     1
102
RTVSPost2010Prop32
280
     0
102
RTVSPost2010PropOp32
 70
     1
102
RTVSPost2010Prop33
280
     0
102
RTVSPost2010PropOp33
 70
     1
102
RTVSPost2010Prop34
280
     0
102
RTVSPost2010PropOp34
 70
     1
102
RTVSPost2010Prop35
280
     0
102
RTVSPost2010PropOp35
 70
     1
102
RTVSPost2010Prop36
280
     0
102
RTVSPost2010PropOp36
 70
     1
102
RTVSPost2010Prop37
 90
       50
102
RTVSPost2010PropOp37
 70
     1
102
RTVSPost2010Prop38
140
0.0
102
RTVSPost2010PropOp38
 70
     1
102
RTVSPost2010Prop39
140
1.0
102
RTVSPost2010PropOp39
 70
     1
102
RTVSPost2010Prop40
 90
        0
102
RTVSPost2010PropOp40
 70
     1
102
RTVSPost2010Prop41ColorIndex
 90
       18
102
RTVSPost2010Prop41ColorRGB
 90
        0
102
RTVSPost2010PropOp41
 70
     1
102
RTVSPost2010Prop42
 90
       50
102
RTVSPost2010PropOp42
 70
     1
102
RTVSPost2010Prop43
 90
        3
102
RTVSPost2010PropOp43
 70
     1
102
RTVSPost2010Prop44ColorIndex
 90
        5
102
RTVSPost2010Prop44ColorRGB
 90
      255
102
RTVSPost2010PropOp44
 70
     1
102
RTVSPost2010Prop45
280
     0
102
RTVSPost2010PropOp45
 70
     1
102
RTVSPost2010Prop46
 90
       50
102
RTVSPost2010PropOp46
 70
     1
102
RTVSPost2010Prop47
 90
       50
102
RTVSPost2010PropOp47
 70
     1
102
RTVSPost2010Prop48
 90
       50
102
RTVSPost2010PropOp48
 70
     1
102
RTVSPost2010Prop49
280
     0
102
RTVSPost2010PropOp49
 70
     1
102
RTVSPost2010Prop50
 90
       50
102
RTVSPost2010PropOp50
 70
     1
102
RTVSPost2010Prop51ColorIndex
 90
      256
102
RTVSPost2010Prop51ColorRGB
 90
-16777216
102
RTVSPost2010PropOp51
 70
     0
102
RTVSPost2010Prop52
140
1.0
102
RTVSPost2010PropOp52
 70
     0
102
RTVSPost2010Prop53
 90
        2
102
RTVSPost2010PropOp53
 70
     1
102
RTVSPost2010Prop54
  1
strokes_ogs.tif
102
RTVSPost2010PropOp54
 70
     1
102
RTVSPost2010Prop55
280
     0
102
RTVSPost2010PropOp55
 70
     1
102
RTVSPost2010Prop56
140
1.0
102
RTVSPost2010PropOp56
 70
     1
102
RTVSPost2010Prop57
140
1.0
102
RTVSPost2010PropOp57
 70
     1
102
RTVSPropertyOp0
 70
     1
102
RTVSPropertyOp1
 70
     1
102
RTVSPropertyOp2
 70
     1
102
RTVSPropertyOp3
 70
     1
102
RTVSPropertyOp4
 70
     1
102
RTVSPropertyOp5
 70
     1
102
RTVSPropertyOp6
 70
     1
102
RTVSPropertyOp7
 70
     1
102
RTVSPropertyOp8
 70
     1
102
RTVSPropertyOp9
 70
     1
102
RTVSPropertyOp10
 70
     1
102
RTVSPropertyOp11
 70
     1
102
RTVSPropertyOp12
 70
     1
102
RTVSPropertyOp13
 70
     1
102
RTVSPropertyOp14
 70
     1
102
RTVSPropertyOp15
 70
     1
102
RTVSPropertyOp16
 70
     1
102
RTVSPropertyOp17
 70
     1
102
RTVSPropertyOp18
 70
     1
102
RTVSPropertyOp19
 70
     1
102
RTVSPropertyOp20
 70
     1
102
RTVSPropertyOp21
 70
     1
102
RTVSPropertyOp22
 70
     1
102
RTVSPropertyOp23
 70
     1
102
RTVSPropertyOp24
 70
     1
102
RTVSPropertyOp25
 70
     1
102
RTVSPropertyOp26
 70
     1
102
RTVSPropertyOp27
 70
     1
102
RTVSPropertyOp28
 70
     1
102
RTVSPropertyOp29
 70
     1
102
RTVSPropertyOp30
 70
     1
102
RTVSPropertyOp31
 70
     1
102
RTVSPropertyOp32
 70
     1
102
RTVSPropertyOp33
 70
     1
102
RTVSPropertyOp34
 70
     1
102
RTVSPropertyOp35
 70
     1
102
RTVSPropertyOp36
 70
     1
102
RTVSPropertyOp37
 70
     1
102
RTVSPropertyOp38
 70
     1
102
RTVSPropertyOp39
 70
     1
102
RTVSPropertyOp40
 70
     1
102
RTVSPropertyOp41
 70
     1
102
RTVSPropertyOp42
 70
     1
102
RTVSPropertyOp43
 70
     1
102
RTVSPropertyOp44
 70
     1
102
RTVSPropertyOp45
 70
     1
102
RTVSPropertyOp46
 70
     1
102
RTVSPropertyOp47
 70
     1
102
RTVSPropertyOp48
 70
     1
102
RTVSPropertyOp49
 70
     1
102
RTVSPropertyOp50
 70
     1
102
RTVSPropertyOp51
 70
     0
102
RTVSPropertyOp52
 70
     0
102
RTVSPropertyOp53
 70
     1
102
RTVSPropertyOp54
 70
     1
102
RTVSPropertyOp55
 70
     1
102
RTVSPropertyOp56
 70
     1
102
RTVSPropertyOp57
 70
     1
102
RTVSPropertyOp58
 70
     1
102
RTVSPropertyOp59
 70
     1
102
RTVSPropertyOp60
 70
     1
102
RTVSPropertyOp61
 70
     1
102
RTVSPropertyOp62
 70
     1
  0
ENDSEC
  0
EOF
