  0
SECTION
  2
HEADER
  9
$ACADVER
  1
AC1015
  9
$ACADMAINTVER
 70
    20
  9
$DWGCODEPAGE
  3
ANSI_932
  9
$INSBASE
 10
0.0
 20
0.0
 30
0.0
  9
$EXTMIN
 10
10.0
 20
9.999999999999998
 30
0.0
  9
$EXTMAX
 10
568.1669859999998
 20
369.7388739999998
 30
0.0
  9
$LIMMIN
 10
0.0
 20
0.0
  9
$LIMMAX
 10
660.0
 20
455.0
  9
$ORTHOMODE
 70
     1
  9
$REGENMODE
 70
     1
  9
$FILLMODE
 70
     1
  9
$QTEXTMODE
 70
     0
  9
$MIRRTEXT
 70
     1
  9
$LTSCALE
 40
20.0
  9
$ATTMODE
 70
     1
  9
$TEXTSIZE
 40
5.0
  9
$TRACEWID
 40
1.0
  9
$TEXTSTYLE
  7
STANDARD
  9
$CLAYER
  8
0
  9
$CELTYPE
  6
BYLAYER
  9
$CECOLOR
 62
   256
  9
$CELTSCALE
 40
1.0
  9
$DISPSILH
 70
     0
  9
$DIMSCALE
 40
1.0
  9
$DIMASZ
 40
3.0
  9
$DIMEXO
 40
1.0
  9
$DIMDLI
 40
10.0
  9
$DIMRND
 40
0.0
  9
$DIMDLE
 40
0.0
  9
$DIMEXE
 40
1.0
  9
$DIMTP
 40
0.0
  9
$DIMTM
 40
0.0
  9
$DIMTXT
 40
3.2
  9
$DIMCEN
 40
0.0
  9
$DIMTSZ
 40
0.0
  9
$DIMTOL
 70
     0
  9
$DIMLIM
 70
     0
  9
$DIMTIH
 70
     0
  9
$DIMTOH
 70
     0
  9
$DIMSE1
 70
     0
  9
$DIMSE2
 70
     0
  9
$DIMTAD
 70
     3
  9
$DIMZIN
 70
     8
  9
$DIMBLK
  1

  9
$DIMASO
 70
     1
  9
$DIMSHO
 70
     1
  9
$DIMPOST
  1

  9
$DIMAPOST
  1

  9
$DIMALT
 70
     0
  9
$DIMALTD
 70
     2
  9
$DIMALTF
 40
25.4
  9
$DIMLFAC
 40
1.0
  9
$DIMTOFL
 70
     1
  9
$DIMTVP
 40
0.0
  9
$DIMTIX
 70
     0
  9
$DIMSOXD
 70
     0
  9
$DIMSAH
 70
     1
  9
$DIMBLK1
  1
OPEN
  9
$DIMBLK2
  1
OPEN
  9
$DIMSTYLE
  2
STANDARD
  9
$DIMCLRD
 70
     0
  9
$DIMCLRE
 70
     0
  9
$DIMCLRT
 70
     0
  9
$DIMTFAC
 40
1.0
  9
$DIMGAP
 40
1.0
  9
$DIMJUST
 70
     0
  9
$DIMSD1
 70
     0
  9
$DIMSD2
 70
     0
  9
$DIMTOLJ
 70
     1
  9
$DIMTZIN
 70
     0
  9
$DIMALTZ
 70
     0
  9
$DIMALTTZ
 70
     0
  9
$DIMUPT
 70
     0
  9
$DIMDEC
 70
     4
  9
$DIMTDEC
 70
     4
  9
$DIMALTU
 70
     2
  9
$DIMALTTD
 70
     2
  9
$DIMTXSTY
  7
STANDARD
  9
$DIMAUNIT
 70
     0
  9
$DIMADEC
 70
     0
  9
$DIMALTRND
 40
0.0
  9
$DIMAZIN
 70
     0
  9
$DIMDSEP
 70
    46
  9
$DIMATFIT
 70
     3
  9
$DIMFRAC
 70
     0
  9
$DIMLDRBLK
  1
OPEN
  9
$DIMLUNIT
 70
     2
  9
$DIMLWD
 70
    -2
  9
$DIMLWE
 70
    -2
  9
$DIMTMOVE
 70
     0
  9
$LUNITS
 70
     2
  9
$LUPREC
 70
     4
  9
$SKETCHINC
 40
1.0
  9
$FILLETRAD
 40
0.0
  9
$AUNITS
 70
     0
  9
$AUPREC
 70
     2
  9
$MENU
  1
.
  9
$ELEVATION
 40
0.0
  9
$PELEVATION
 40
0.0
  9
$THICKNESS
 40
0.0
  9
$LIMCHECK
 70
     0
  9
$CHAMFERA
 40
10.0
  9
$CHAMFERB
 40
10.0
  9
$CHAMFERC
 40
0.0
  9
$CHAMFERD
 40
0.0
  9
$SKPOLY
 70
     0
  9
$TDCREATE
 40
2451301.605068403
  9
$TDUCREATE
 40
2451301.230068403
  9
$TDUPDATE
 40
2457192.688399618
  9
$TDUUPDATE
 40
2457192.313399618
  9
$TDINDWG
 40
0.0000101389
  9
$TDUSRTIMER
 40
0.0000100231
  9
$USRTIMER
 70
     1
  9
$ANGBASE
 50
0.0
  9
$ANGDIR
 70
     0
  9
$PDMODE
 70
     0
  9
$PDSIZE
 40
0.0
  9
$PLINEWID
 40
0.0
  9
$SPLFRAME
 70
     0
  9
$SPLINETYPE
 70
     6
  9
$SPLINESEGS
 70
     8
  9
$HANDSEED
  5
ACF4
  9
$SURFTAB1
 70
     6
  9
$SURFTAB2
 70
     6
  9
$SURFTYPE
 70
     6
  9
$SURFU
 70
     6
  9
$SURFV
 70
     6
  9
$UCSBASE
  2

  9
$UCSNAME
  2

  9
$UCSORG
 10
0.0
 20
0.0
 30
0.0
  9
$UCSXDIR
 10
1.0
 20
0.0
 30
0.0
  9
$UCSYDIR
 10
0.0
 20
1.0
 30
0.0
  9
$UCSORTHOREF
  2

  9
$UCSORTHOVIEW
 70
     0
  9
$UCSORGTOP
 10
0.0
 20
0.0
 30
0.0
  9
$UCSORGBOTTOM
 10
0.0
 20
0.0
 30
0.0
  9
$UCSORGLEFT
 10
0.0
 20
0.0
 30
0.0
  9
$UCSORGRIGHT
 10
0.0
 20
0.0
 30
0.0
  9
$UCSORGFRONT
 10
0.0
 20
0.0
 30
0.0
  9
$UCSORGBACK
 10
0.0
 20
0.0
 30
0.0
  9
$PUCSBASE
  2

  9
$PUCSNAME
  2

  9
$PUCSORG
 10
0.0
 20
0.0
 30
0.0
  9
$PUCSXDIR
 10
1.0
 20
0.0
 30
0.0
  9
$PUCSYDIR
 10
0.0
 20
1.0
 30
0.0
  9
$PUCSORTHOREF
  2

  9
$PUCSORTHOVIEW
 70
     0
  9
$PUCSORGTOP
 10
0.0
 20
0.0
 30
0.0
  9
$PUCSORGBOTTOM
 10
0.0
 20
0.0
 30
0.0
  9
$PUCSORGLEFT
 10
0.0
 20
0.0
 30
0.0
  9
$PUCSORGRIGHT
 10
0.0
 20
0.0
 30
0.0
  9
$PUCSORGFRONT
 10
0.0
 20
0.0
 30
0.0
  9
$PUCSORGBACK
 10
0.0
 20
0.0
 30
0.0
  9
$USERI1
 70
     0
  9
$USERI2
 70
     0
  9
$USERI3
 70
     0
  9
$USERI4
 70
     0
  9
$USERI5
 70
     0
  9
$USERR1
 40
0.0
  9
$USERR2
 40
0.0
  9
$USERR3
 40
0.0
  9
$USERR4
 40
0.0
  9
$USERR5
 40
0.0
  9
$WORLDVIEW
 70
     1
  9
$SHADEDGE
 70
     3
  9
$SHADEDIF
 70
    70
  9
$TILEMODE
 70
     1
  9
$MAXACTVP
 70
    16
  9
$PINSBASE
 10
0.0
 20
0.0
 30
0.0
  9
$PLIMCHECK
 70
     0
  9
$PEXTMIN
 10
1.000000000000000E+20
 20
1.000000000000000E+20
 30
1.000000000000000E+20
  9
$PEXTMAX
 10
-1.000000000000000E+20
 20
-1.000000000000000E+20
 30
-1.000000000000000E+20
  9
$PLIMMIN
 10
0.0
 20
0.0
  9
$PLIMMAX
 10
420.0
 20
297.0
  9
$UNITMODE
 70
     0
  9
$VISRETAIN
 70
     0
  9
$PLINEGEN
 70
     0
  9
$PSLTSCALE
 70
     0
  9
$TREEDEPTH
 70
  3020
  9
$CMLSTYLE
  2
STANDARD
  9
$CMLJUST
 70
     0
  9
$CMLSCALE
 40
1.0
  9
$PROXYGRAPHICS
 70
     1
  9
$MEASUREMENT
 70
     0
  9
$CELWEIGHT
370
    -1
  9
$ENDCAPS
280
     0
  9
$JOINSTYLE
280
     0
  9
$LWDISPLAY
290
     0
  9
$INSUNITS
 70
     0
  9
$HYPERLINKBASE
  1

  9
$STYLESHEET
  1

  9
$XEDIT
290
     1
  9
$CEPSNTYPE
380
     0
  9
$PSTYLEMODE
290
     1
  9
$FINGERPRINTGUID
  2
{970BC4B2-42B0-4448-9EBE-E67C2C0F66C4}
  9
$VERSIONGUID
  2
{A7A4A8B0-861C-449E-B3C7-E70AC44CFA3C}
  9
$EXTNAMES
290
     1
  9
$PSVPSCALE
 40
0.0
  9
$OLESTARTUP
290
     0
  0
ENDSEC
  0
SECTION
  2
CLASSES
  0
CLASS
  1
ACDBDICTIONARYWDFLT
  2
AcDbDictionaryWithDefault
  3
ObjectDBX Classes
 90
        0
280
     0
281
     0
  0
CLASS
  1
ACDBPLACEHOLDER
  2
AcDbPlaceHolder
  3
ObjectDBX Classes
 90
        0
280
     0
281
     0
  0
CLASS
  1
LAYOUT
  2
AcDbLayout
  3
ObjectDBX Classes
 90
        0
280
     0
281
     0
  0
CLASS
  1
DICTIONARYVAR
  2
AcDbDictionaryVar
  3
ObjectDBX Classes
 90
        0
280
     0
281
     0
  0
CLASS
  1
MATERIAL
  2
AcDbMaterial
  3
ObjectDBX Classes
 90
     1153
280
     0
281
     0
  0
CLASS
  1
VISUALSTYLE
  2
AcDbVisualStyle
  3
ObjectDBX Classes
 90
     4095
280
     0
281
     0
  0
CLASS
  1
TABLESTYLE
  2
AcDbTableStyle
  3
ObjectDBX Classes
 90
     4095
280
     0
281
     0
  0
CLASS
  1
SCALE
  2
AcDbScale
  3
ObjectDBX Classes
 90
     1153
280
     0
281
     0
  0
CLASS
  1
MLEADERSTYLE
  2
AcDbMLeaderStyle
  3
ACDB_MLEADERSTYLE_CLASS
 90
     4095
280
     0
281
     0
  0
CLASS
  1
ACDBSECTIONVIEWSTYLE
  2
AcDbSectionViewStyle
  3
ObjectDBX Classes
 90
     1025
280
     0
281
     0
  0
CLASS
  1
ACDBDETAILVIEWSTYLE
  2
AcDbDetailViewStyle
  3
ObjectDBX Classes
 90
     1025
280
     0
281
     0
  0
CLASS
  1
CELLSTYLEMAP
  2
AcDbCellStyleMap
  3
ObjectDBX Classes
 90
     1152
280
     0
281
     0
  0
ENDSEC
  0
SECTION
  2
TABLES
  0
TABLE
  2
VPORT
  5
AA04
330
0
100
AcDbSymbolTable
 70
     1
  0
VPORT
  5
AC3D
330
AA04
100
AcDbSymbolTableRecord
100
AcDbViewportTableRecord
  2
*ACTIVE
 70
     0
 10
0.0
 20
0.0
 11
1.0
 21
1.0
 12
398.0310232136918
 22
189.8703013085414
 13
0.0
 23
0.0
 14
10.0
 24
10.0
 15
10.0
 25
10.0
 16
0.0
 26
0.0
 36
1.0
 17
0.0
 27
0.0
 37
0.0
 40
363.7486493586306
 41
2.35006605019815
 42
50.0
 43
0.0
 44
0.0
 50
0.0
 51
0.0
 71
     0
 72
   100
 73
     1
 74
     0
 75
     0
 76
     0
 77
     0
 78
     0
281
     0
 65
     1
110
0.0
120
0.0
130
0.0
111
1.0
121
0.0
131
0.0
112
0.0
122
1.0
132
0.0
 79
     0
146
0.0
1001
ACAD_NAV_VCDISPLAY
1070
     3
  0
ENDTAB
  0
TABLE
  2
LTYPE
  5
AA01
330
0
100
AcDbSymbolTable
 70
     4
  0
LTYPE
  5
AA0F
330
AA01
100
AcDbSymbolTableRecord
100
AcDbLinetypeTableRecord
  2
BYBLOCK
 70
     0
  3

 72
    65
 73
     0
 40
0.0
  0
LTYPE
  5
AA10
330
AA01
100
AcDbSymbolTableRecord
100
AcDbLinetypeTableRecord
  2
BYLAYER
 70
     0
  3

 72
    65
 73
     0
 40
0.0
  0
LTYPE
  5
AA11
330
AA01
100
AcDbSymbolTableRecord
100
AcDbLinetypeTableRecord
  2
CONTINUOUS
 70
     0
  3
Solid line
 72
    65
 73
     0
 40
0.0
  0
LTYPE
  5
AA1F
330
AA01
100
AcDbSymbolTableRecord
100
AcDbLinetypeTableRecord
  2
DASHED
 70
     0
  3
__ __ __ __ __ __ __ __ __ __ __ __ __ __ __ __
 72
    65
 73
     2
 40
0.75
 49
0.5
 74
     0
 49
-0.25
 74
     0
  0
LTYPE
  5
AA20
330
AA01
100
AcDbSymbolTableRecord
100
AcDbLinetypeTableRecord
  2
CENTER
 70
     0
  3
____ _ ____ _ ____ _ ____ _ ____ _ ____ _ ____ 
 72
    65
 73
     4
 40
2.0
 49
1.25
 74
     0
 49
-0.25
 74
     0
 49
0.25
 74
     0
 49
-0.25
 74
     0
  0
LTYPE
  5
AA21
330
AA01
100
AcDbSymbolTableRecord
100
AcDbLinetypeTableRecord
  2
PHANTOM
 70
     0
  3
______  __  __  ______  __  __  ______  __  __ 
 72
    65
 73
     6
 40
2.5
 49
1.25
 74
     0
 49
-0.25
 74
     0
 49
0.25
 74
     0
 49
-0.25
 74
     0
 49
0.25
 74
     0
 49
-0.25
 74
     0
  0
ENDTAB
  0
TABLE
  2
LAYER
  5
A9FE
330
0
100
AcDbSymbolTable
 70
     8
  0
LAYER
  5
AA0C
102
{ACAD_XDICTIONARY
360
AC98
102
}
330
A9FE
100
AcDbSymbolTableRecord
100
AcDbLayerTableRecord
  2
0
 70
     0
 62
     7
  6
CONTINUOUS
370
    -3
390
AC46
  0
LAYER
  5
AA22
102
{ACAD_XDICTIONARY
360
AC9A
102
}
330
A9FE
100
AcDbSymbolTableRecord
100
AcDbLayerTableRecord
  2
4
 70
     0
 62
     1
  6
CENTER
370
    -3
390
AC46
  0
LAYER
  5
AA23
102
{ACAD_XDICTIONARY
360
AC9C
102
}
330
A9FE
100
AcDbSymbolTableRecord
100
AcDbLayerTableRecord
  2
5
 70
     0
 62
     6
  6
PHANTOM
370
    -3
390
AC46
  0
LAYER
  5
AA24
102
{ACAD_XDICTIONARY
360
AC9E
102
}
330
A9FE
100
AcDbSymbolTableRecord
100
AcDbLayerTableRecord
  2
1
 70
     0
 62
     7
  6
CONTINUOUS
370
    -3
390
AC46
  0
LAYER
  5
AA25
102
{ACAD_XDICTIONARY
360
ACA0
102
}
330
A9FE
100
AcDbSymbolTableRecord
100
AcDbLayerTableRecord
  2
2
 70
     0
 62
     4
  6
CONTINUOUS
370
    -3
390
AC46
  0
LAYER
  5
AA26
102
{ACAD_XDICTIONARY
360
ACA2
102
}
330
A9FE
100
AcDbSymbolTableRecord
100
AcDbLayerTableRecord
  2
3
 70
     0
 62
     2
  6
DASHED
370
    -3
390
AC46
  0
LAYER
  5
AA27
102
{ACAD_XDICTIONARY
360
ACA4
102
}
330
A9FE
100
AcDbSymbolTableRecord
100
AcDbLayerTableRecord
  2
6
 70
     0
 62
     5
  6
CONTINUOUS
370
    -3
390
AC46
  0
LAYER
  5
AA28
102
{ACAD_XDICTIONARY
360
ACA6
102
}
330
A9FE
100
AcDbSymbolTableRecord
100
AcDbLayerTableRecord
  2
7
 70
     0
 62
     3
  6
CONTINUOUS
370
    -3
390
AC46
  0
ENDTAB
  0
TABLE
  2
STYLE
  5
A9FF
330
0
100
AcDbSymbolTable
 70
     1
  0
STYLE
  5
AA0D
330
A9FF
100
AcDbSymbolTableRecord
100
AcDbTextStyleTableRecord
  2
STANDARD
 70
     0
 40
0.0
 41
1.0
 50
0.0
 71
     0
 42
5.0
  3
txt
  4

  0
ENDTAB
  0
TABLE
  2
VIEW
  5
AA02
330
0
100
AcDbSymbolTable
 70
     0
  0
ENDTAB
  0
TABLE
  2
UCS
  5
AA03
330
0
100
AcDbSymbolTable
 70
     0
  0
ENDTAB
  0
TABLE
  2
APPID
  5
AA05
330
0
100
AcDbSymbolTable
 70
     3
  0
APPID
  5
AA0E
330
AA05
100
AcDbSymbolTableRecord
100
AcDbRegAppTableRecord
  2
ACAD
 70
     0
  0
APPID
  5
ACB2
330
AA05
100
AcDbSymbolTableRecord
100
AcDbRegAppTableRecord
  2
ACAD_NAV_VCDISPLAY
 70
     0
  0
APPID
  5
ACEB
330
AA05
100
AcDbSymbolTableRecord
100
AcDbRegAppTableRecord
  2
ACAD_MLEADERVER
 70
     0
  0
ENDTAB
  0
TABLE
  2
DIMSTYLE
  5
AA06
330
0
100
AcDbSymbolTable
 70
     1
100
AcDbDimStyleTable
 71
     0
  0
DIMSTYLE
105
AA2A
330
AA06
100
AcDbSymbolTableRecord
100
AcDbDimStyleTableRecord
  2
STANDARD
 70
     0
 41
3.0
 42
1.0
 43
10.0
 44
1.0
 73
     0
 74
     0
 77
     3
 78
     8
140
3.2
141
0.0
147
1.0
172
     1
173
     1
284
     8
285
     8
286
     8
340
AA0D
  0
ENDTAB
  0
TABLE
  2
BLOCK_RECORD
  5
A9FD
330
0
100
AcDbSymbolTable
 70
     1
  0
BLOCK_RECORD
  5
AA1A
102
{ACAD_XDICTIONARY
360
AC40
102
}
330
A9FD
100
AcDbSymbolTableRecord
100
AcDbBlockTableRecord
  2
*MODEL_SPACE
340
AC94
  0
BLOCK_RECORD
  5
AA16
102
{ACAD_XDICTIONARY
360
AC3E
102
}
330
A9FD
100
AcDbSymbolTableRecord
100
AcDbBlockTableRecord
  2
*PAPER_SPACE
340
AC95
  0
BLOCK_RECORD
  5
AA32
330
A9FD
100
AcDbSymbolTableRecord
100
AcDbBlockTableRecord
  2
_OPEN
340
0
  0
ENDTAB
  0
ENDSEC
  0
SECTION
  2
BLOCKS
  0
BLOCK
  5
AA1B
330
AA1A
100
AcDbEntity
  8
0
100
AcDbBlockBegin
  2
*MODEL_SPACE
 70
     0
 10
0.0
 20
0.0
 30
0.0
  3
*MODEL_SPACE
  1

  0
ENDBLK
  5
AA1C
330
AA1A
100
AcDbEntity
  8
0
100
AcDbBlockEnd
  0
BLOCK
  5
AA17
330
AA16
100
AcDbEntity
 67
     1
  8
0
100
AcDbBlockBegin
  2
*PAPER_SPACE
 70
     0
 10
0.0
 20
0.0
 30
0.0
  3
*PAPER_SPACE
  1

  0
ENDBLK
  5
AA18
330
AA16
100
AcDbEntity
 67
     1
  8
0
100
AcDbBlockEnd
  0
BLOCK
  5
AA33
330
AA32
100
AcDbEntity
  8
0
100
AcDbBlockBegin
  2
_OPEN
 70
     0
 10
0.0
 20
0.0
 30
0.0
  3
_OPEN
  1

  0
LINE
  5
AA34
330
AA32
100
AcDbEntity
  8
0
  6
ByBlock
 62
     0
100
AcDbLine
 10
-1.0
 20
0.166667
 30
0.0
 11
0.0
 21
0.0
 31
0.0
  0
LINE
  5
AA35
330
AA32
100
AcDbEntity
  8
0
  6
ByBlock
 62
     0
100
AcDbLine
 10
0.0
 20
0.0
 30
0.0
 11
-1.0
 21
-0.166667
 31
0.0
  0
LINE
  5
AA36
330
AA32
100
AcDbEntity
  8
0
  6
ByBlock
 62
     0
100
AcDbLine
 10
0.0
 20
0.0
 30
0.0
 11
-1.0
 21
0.0
 31
0.0
  0
ENDBLK
  5
AA37
330
AA32
100
AcDbEntity
  8
0
100
AcDbBlockEnd
  0
ENDSEC
  0
SECTION
  2
ENTITIES
  0
TEXT
  5
AA38
330
AA1A
100
AcDbEntity
  8
7
  6
Continuous
100
AcDbText
 10
10.0
 20
18.0
 30
0.0
 40
3.0
  1
TYPE No.605A.F-N
100
AcDbText
  0
TEXT
  5
AA39
330
AA1A
100
AcDbEntity
  8
7
  6
Continuous
100
AcDbText
 10
10.0
 20
26.0
 30
0.0
 40
3.0
  1
CODE No.9479
100
AcDbText
  0
TEXT
  5
AA3A
330
AA1A
100
AcDbEntity
  8
1
  6
Continuous
100
AcDbText
 10
10.0
 20
10.0
 30
0.0
 40
1.399999999999999
  1
LAYER
100
AcDbText
  0
TEXT
  5
AA3B
330
AA1A
100
AcDbEntity
  8
1
  6
Continuous
100
AcDbText
 10
17.97951099999998
 20
10.04873699999998
 30
0.0
 40
1.399999999999999
  1
1
100
AcDbText
  0
TEXT
  5
AA3C
330
AA1A
100
AcDbEntity
  8
7
  6
Continuous
100
AcDbText
 10
29.97951099999999
 20
10.04873699999998
 30
0.0
 40
1.399999999999999
  1
7
100
AcDbText
  0
TEXT
  5
AA3D
330
AA1A
100
AcDbEntity
  8
4
  6
CENTER
100
AcDbText
 10
23.97951099999999
 20
10.04873699999998
 30
0.0
 40
1.399999999999999
  1
4
100
AcDbText
  0
TEXT
  5
AA3E
330
AA1A
100
AcDbEntity
  8
3
  6
DASHED
100
AcDbText
 10
21.979511
 20
10.04873699999998
 30
0.0
 40
1.399999999999999
  1
3
100
AcDbText
  0
TEXT
  5
AA3F
330
AA1A
100
AcDbEntity
  8
2
  6
Continuous
100
AcDbText
 10
19.97951099999999
 20
10.04873699999998
 30
0.0
 40
1.399999999999999
  1
2
100
AcDbText
  0
TEXT
  5
AA40
330
AA1A
100
AcDbEntity
  8
6
  6
Continuous
100
AcDbText
 10
27.979511
 20
10.04873699999998
 30
0.0
 40
1.399999999999999
  1
6
100
AcDbText
  0
TEXT
  5
AA41
330
AA1A
100
AcDbEntity
  8
5
  6
PHANTOM
100
AcDbText
 10
25.97951099999999
 20
10.04873699999998
 30
0.0
 40
1.399999999999999
  1
5
100
AcDbText
  0
LINE
  5
AA42
330
AA1A
100
AcDbEntity
  8
4
  6
CENTER
100
AcDbLine
 10
167.9721219999999
 20
361.7388739999999
 30
0.0
 11
153.4721219999999
 21
361.7388739999999
 31
0.0
  0
LINE
  5
AA43
330
AA1A
100
AcDbEntity
  8
4
  6
CENTER
100
AcDbLine
 10
167.9721219999999
 20
313.73887
 30
0.0
 11
153.4721219999999
 21
313.73887
 31
0.0
  0
LINE
  5
AA44
330
AA1A
100
AcDbEntity
  8
4
  6
CENTER
100
AcDbLine
 10
267.722122
 20
337.73887
 30
0.0
 11
149.7221219999999
 21
337.73887
 31
0.0
  0
LINE
  5
AA45
330
AA1A
100
AcDbEntity
  8
1
  6
Continuous
100
AcDbLine
 10
264.722122
 20
245.3836649999999
 30
0.0
 11
152.7221219999999
 21
245.3836649999999
 31
0.0
  0
LINE
  5
AA46
330
AA1A
100
AcDbEntity
  8
1
  6
Continuous
100
AcDbLine
 10
171.099636
 20
243.0836649999999
 30
0.0
 11
152.7221219999999
 21
243.0836649999999
 31
0.0
  0
ARC
  5
AA47
330
AA1A
100
AcDbEntity
  8
1
  6
Continuous
100
AcDbCircle
 10
160.7221219999999
 20
361.7388739999999
 30
0.0
 40
8.0
100
AcDbArc
 50
0.0
 51
180.0
  0
ARC
  5
AA48
330
AA1A
100
AcDbEntity
  8
1
  6
Continuous
100
AcDbCircle
 10
160.7221219999999
 20
313.73887
 30
0.0
 40
8.0
100
AcDbArc
 50
180.0
 51
0.0
  0
LINE
  5
AA49
330
AA1A
100
AcDbEntity
  8
4
  6
CENTER
100
AcDbLine
 10
160.7221219999999
 20
248.622538
 30
0.0
 11
160.7221219999999
 21
239.192923
 31
0.0
  0
LINE
  5
AA4A
330
AA1A
100
AcDbEntity
  8
4
  6
CENTER
100
AcDbLine
 10
256.7221219999999
 20
249.199347
 30
0.0
 11
256.7221219999999
 21
239.5920219999999
 31
0.0
  0
LINE
  5
AA4B
330
AA1A
100
AcDbEntity
  8
4
  6
CENTER
100
AcDbLine
 10
246.7216339999999
 20
147.3098919999999
 30
0.0
 11
246.7216339999999
 21
249.227027
 31
0.0
  0
LINE
  5
AA4C
330
AA1A
100
AcDbEntity
  8
4
  6
CENTER
100
AcDbLine
 10
229.222122
 20
195.8836609999999
 30
0.0
 11
160.2221219999998
 21
195.8836609999999
 31
0.0
  0
ARC
  5
AA4D
330
AA1A
100
AcDbEntity
  8
1
  6
Continuous
100
AcDbCircle
 10
194.7221219999999
 20
195.8836609999999
 30
0.0
 40
31.5
100
AcDbArc
 50
123.34848
 51
35.06012
  0
LINE
  5
AA4E
330
AA1A
100
AcDbEntity
  8
1
  6
Continuous
100
AcDbLine
 10
229.2414249999999
 20
242.2136169999999
 30
0.0
 11
213.0297239999999
 21
189.810396
 31
0.0
  0
LINE
  5
AA4F
330
AA1A
100
AcDbEntity
  8
1
  6
Continuous
100
AcDbLine
 10
256.7216339999998
 20
239.083789
 30
0.0
 11
236.721634
 21
239.083789
 31
0.0
  0
LINE
  5
AA50
330
AA1A
100
AcDbEntity
  8
1
  6
Continuous
100
AcDbLine
 10
253.721634
 20
203.083795
 30
0.0
 11
239.7216339999999
 21
203.083795
 31
0.0
  0
LINE
  5
AA51
330
AA1A
100
AcDbEntity
  8
1
  6
Continuous
100
AcDbLine
 10
256.7216339999998
 20
213.0837909999999
 30
0.0
 11
236.721634
 21
213.0837909999999
 31
0.0
  0
LINE
  5
AA52
330
AA1A
100
AcDbEntity
  8
1
  6
Continuous
100
AcDbLine
 10
258.222122
 20
240.083665
 30
0.0
 11
235.222122
 21
240.083665
 31
0.0
  0
LINE
  5
AA53
330
AA1A
100
AcDbEntity
  8
1
  6
Continuous
100
AcDbLine
 10
264.722122
 20
243.0836649999999
 30
0.0
 11
232.0914689999999
 21
243.0836649999999
 31
0.0
  0
LINE
  5
AA54
330
AA1A
100
AcDbEntity
  8
1
  6
Continuous
100
AcDbLine
 10
256.7216339999998
 20
239.083789
 30
0.0
 11
256.7216339999998
 21
213.0837909999999
 31
0.0
  0
LINE
  5
AA55
330
AA1A
100
AcDbEntity
  8
1
  6
Continuous
100
AcDbLine
 10
256.7216339999998
 20
213.0837909999999
 30
0.0
 11
253.721634
 21
203.083795
 31
0.0
  0
ARC
  5
AA56
330
AA1A
100
AcDbEntity
  8
1
  6
Continuous
100
AcDbCircle
 10
258.222122
 20
243.583665
 30
0.0
 40
3.5
100
AcDbArc
 50
270.0
 51
351.786789
  0
LINE
  5
AA57
330
AA1A
100
AcDbEntity
  8
1
  6
Continuous
100
AcDbLine
 10
236.721634
 20
239.083789
 30
0.0
 11
236.721634
 21
213.0837909999999
 31
0.0
  0
LINE
  5
AA58
330
AA1A
100
AcDbEntity
  8
1
  6
Continuous
100
AcDbLine
 10
236.721634
 20
213.0837909999999
 30
0.0
 11
239.7216339999999
 21
203.083795
 31
0.0
  0
LINE
  5
AA59
330
AA1A
100
AcDbEntity
  8
1
  6
Continuous
100
AcDbLine
 10
253.221634
 20
240.083789
 30
0.0
 11
253.221634
 21
239.083789
 31
0.0
  0
LINE
  5
AA5A
330
AA1A
100
AcDbEntity
  8
1
  6
Continuous
100
AcDbLine
 10
240.2216339999999
 20
240.083789
 30
0.0
 11
240.2216339999999
 21
239.083789
 31
0.0
  0
ARC
  5
AA5B
330
AA1A
100
AcDbEntity
  8
1
  6
Continuous
100
AcDbCircle
 10
232.0914689999999
 20
239.583665
 30
0.0
 40
3.5
100
AcDbArc
 50
90.0
 51
162.8097919999999
  0
ARC
  5
AA5C
330
AA1A
100
AcDbEntity
  8
1
  6
Continuous
100
AcDbCircle
 10
233.540406
 20
240.883665
 30
0.0
 40
4.5
100
AcDbArc
 50
90.0
 51
162.809786
  0
ARC
  5
AA5D
330
AA1A
100
AcDbEntity
  8
1
  6
Continuous
100
AcDbCircle
 10
235.222122
 20
243.583665
 30
0.0
 40
3.5
100
AcDbArc
 50
188.472992
 51
270.0
  0
LINE
  5
AA5E
330
AA1A
100
AcDbEntity
  8
4
  6
CENTER
100
AcDbLine
 10
194.7221219999999
 20
161.3836609999999
 30
0.0
 11
194.7221219999999
 21
230.3836609999999
 31
0.0
  0
CIRCLE
  5
AA5F
330
AA1A
100
AcDbEntity
  8
1
  6
Continuous
100
AcDbCircle
 10
194.7221219999999
 20
195.8836609999999
 30
0.0
 40
5.75
  0
LINE
  5
AA60
330
AA1A
100
AcDbEntity
  8
1
  6
Continuous
100
AcDbLine
 10
174.3248449999999
 20
241.589694
 30
0.0
 11
182.418495
 21
190.64229
 31
0.0
  0
ARC
  5
AA61
330
AA1A
100
AcDbEntity
  8
1
  6
Continuous
100
AcDbCircle
 10
188.344185
 20
191.5836649999999
 30
0.0
 40
6.0
100
AcDbArc
 50
189.026733
 51
270.0
  0
LINE
  5
AA62
330
AA1A
100
AcDbEntity
  8
1
  6
Continuous
100
AcDbLine
 10
207.297753
 20
185.583665
 30
0.0
 11
188.344185
 21
185.583665
 31
0.0
  0
ARC
  5
AA63
330
AA1A
100
AcDbEntity
  8
1
  6
Continuous
100
AcDbCircle
 10
207.297753
 20
191.5836649999999
 30
0.0
 40
6.0
100
AcDbArc
 50
270.0
 51
342.809784
  0
LINE
  5
AA64
330
AA1A
100
AcDbEntity
  8
1
  6
Continuous
100
AcDbLine
 10
201.7221219999999
 20
239.0141669999999
 30
0.0
 11
201.7221219999999
 21
202.1447919999999
 31
0.0
  0
LINE
  5
AA65
330
AA1A
100
AcDbEntity
  8
1
  6
Continuous
100
AcDbLine
 10
187.7221219999999
 20
238.4927859999999
 30
0.0
 11
187.7221219999999
 21
202.1447919999999
 31
0.0
  0
ARC
  5
AA66
330
AA1A
100
AcDbEntity
  8
1
  6
Continuous
100
AcDbCircle
 10
171.099636
 20
239.583665
 30
0.0
 40
3.5
100
AcDbArc
 50
9.026733
 51
90.0
  0
ARC
  5
AA67
330
AA1A
100
AcDbEntity
  8
1
  6
Continuous
100
AcDbCircle
 10
169.880574
 20
240.883665
 30
0.0
 40
4.5
100
AcDbArc
 50
9.026733
 51
90.0
  0
LINE
  5
AA68
330
AA1A
100
AcDbEntity
  8
4
  6
CENTER
100
AcDbLine
 10
256.7221219999999
 20
320.98887
 30
0.0
 11
256.7221219999999
 21
306.48887
 31
0.0
  0
LINE
  5
AA69
330
AA1A
100
AcDbEntity
  8
4
  6
CENTER
100
AcDbLine
 10
160.7221219999999
 20
320.98887
 30
0.0
 11
160.7221219999999
 21
306.48887
 31
0.0
  0
LINE
  5
AA6A
330
AA1A
100
AcDbEntity
  8
4
  6
CENTER
100
AcDbLine
 10
194.7221219999999
 20
362.490659
 30
0.0
 11
194.7221219999999
 21
315.1706479999999
 31
0.0
  0
ARC
  5
AA6B
330
AA1A
100
AcDbEntity
  8
1
  6
Continuous
100
AcDbCircle
 10
214.8660889999999
 20
324.286683
 30
0.0
 40
10.0
100
AcDbArc
 50
223.095135
 51
260.783989
  0
ARC
  5
AA6C
330
AA1A
100
AcDbEntity
  8
1
  6
Continuous
100
AcDbCircle
 10
173.510735
 20
326.341264
 30
0.0
 40
12.5
100
AcDbArc
 50
282.527664
 51
316.7849729999999
  0
LINE
  5
AA6D
330
AA1A
100
AcDbEntity
  8
1
  6
Continuous
100
AcDbLine
 10
176.2221219999999
 20
314.138871
 30
0.0
 11
173.5582389999999
 21
321.1291289999999
 31
0.0
  0
LINE
  5
AA6E
330
AA1A
100
AcDbEntity
  8
1
  6
Continuous
100
AcDbLine
 10
168.7221219999998
 20
320.23887
 30
0.0
 11
168.7221219999998
 21
313.73887
 31
0.0
  0
CIRCLE
  5
AA6F
330
AA1A
100
AcDbEntity
  8
1
  6
Continuous
100
AcDbCircle
 10
160.7221219999999
 20
313.73887
 30
0.0
 40
4.25
  0
CIRCLE
  5
AA70
330
AA1A
100
AcDbEntity
  8
1
  6
Continuous
100
AcDbCircle
 10
256.7221219999999
 20
313.73887
 30
0.0
 40
4.25
  0
LINE
  5
AA71
330
AA1A
100
AcDbEntity
  8
1
  6
Continuous
100
AcDbLine
 10
264.722122
 20
313.73887
 30
0.0
 11
264.722122
 21
361.7388739999999
 31
0.0
  0
LINE
  5
AA72
330
AA1A
100
AcDbEntity
  8
1
  6
Continuous
100
AcDbLine
 10
228.222122
 20
363.488874
 30
0.0
 11
213.264519
 21
361.061975
 31
0.0
  0
LINE
  5
AA73
330
AA1A
100
AcDbEntity
  8
4
  6
CENTER
100
AcDbLine
 10
256.7221219999999
 20
368.988874
 30
0.0
 11
256.7221219999999
 21
354.488874
 31
0.0
  0
ARC
  5
AA74
330
AA1A
100
AcDbEntity
  8
1
  6
Continuous
100
AcDbCircle
 10
230.6069719999999
 20
364.23887
 30
0.0
 40
2.5
100
AcDbArc
 50
197.457512
 51
291.214439
  0
CIRCLE
  5
AA75
330
AA1A
100
AcDbEntity
  8
1
  6
Continuous
100
AcDbCircle
 10
256.7221219999999
 20
361.7388739999999
 30
0.0
 40
4.25
  0
ARC
  5
AA76
330
AA1A
100
AcDbEntity
  8
1
  6
Continuous
100
AcDbCircle
 10
256.7221219999999
 20
361.7388739999999
 30
0.0
 40
8.0
100
AcDbArc
 50
0.0
 51
159.8945009999999
  0
ARC
  5
AA77
330
AA1A
100
AcDbEntity
  8
1
  6
Continuous
100
AcDbCircle
 10
245.9860079999999
 20
324.6189819999999
 30
0.0
 40
40.0
100
AcDbArc
 50
85.37747199999998
 51
111.2144469999998
  0
LINE
  5
AA78
330
AA1A
100
AcDbEntity
  8
4
  6
CENTER
100
AcDbLine
 10
263.972122
 20
361.7388739999999
 30
0.0
 11
249.472122
 21
361.7388739999999
 31
0.0
  0
CIRCLE
  5
AA79
330
AA1A
100
AcDbEntity
  8
1
  6
Continuous
100
AcDbCircle
 10
246.7216339999999
 20
337.738694
 30
0.0
 40
8.8
  0
CIRCLE
  5
AA7A
330
AA1A
100
AcDbEntity
  8
1
  6
Continuous
100
AcDbCircle
 10
246.722122
 20
337.73887
 30
0.0
 40
12.0
  0
ARC
  5
AA7B
330
AA1A
100
AcDbEntity
  8
1
  6
Continuous
100
AcDbCircle
 10
246.722122
 20
337.73887
 30
0.0
 40
18.85
100
AcDbArc
 50
342.7282099999998
 51
17.27179
  0
LINE
  5
AA7C
330
AA1A
100
AcDbEntity
  8
4
  6
CENTER
100
AcDbLine
 10
246.722122
 20
353.738874
 30
0.0
 11
246.722122
 21
321.73887
 31
0.0
  0
CIRCLE
  5
AA7D
330
AA1A
100
AcDbEntity
  8
1
  6
Continuous
100
AcDbCircle
 10
246.7216339999999
 20
337.738694
 30
0.0
 40
4.4
  0
CIRCLE
  5
AA7E
330
AA1A
100
AcDbEntity
  8
1
  6
Continuous
100
AcDbCircle
 10
246.7216339999999
 20
337.738694
 30
0.0
 40
5.0
  0
LINE
  5
AA7F
330
AA1A
100
AcDbEntity
  8
1
  6
Continuous
100
AcDbLine
 10
251.9320529999999
 20
342.029855
 30
0.0
 11
251.012818
 21
342.949098
 31
0.0
  0
LINE
  5
AA80
330
AA1A
100
AcDbEntity
  8
1
  6
Continuous
100
AcDbLine
 10
251.012818
 20
342.949098
 30
0.0
 11
249.7675629999999
 21
341.703843
 31
0.0
  0
LINE
  5
AA81
330
AA1A
100
AcDbEntity
  8
1
  6
Continuous
100
AcDbLine
 10
251.9320529999999
 20
342.029855
 30
0.0
 11
250.6867979999999
 21
340.7846
 31
0.0
  0
LINE
  5
AA82
330
AA1A
100
AcDbEntity
  8
1
  6
Continuous
100
AcDbLine
 10
242.430474
 20
342.949113
 30
0.0
 11
241.511238
 21
342.0298779999999
 31
0.0
  0
LINE
  5
AA83
330
AA1A
100
AcDbEntity
  8
1
  6
Continuous
100
AcDbLine
 10
242.7564929999999
 20
340.784623
 30
0.0
 11
241.511238
 21
342.0298779999999
 31
0.0
  0
LINE
  5
AA84
330
AA1A
100
AcDbEntity
  8
1
  6
Continuous
100
AcDbLine
 10
243.675736
 20
341.7038589999999
 30
0.0
 11
242.430474
 21
342.949113
 31
0.0
  0
LINE
  5
AA85
330
AA1A
100
AcDbEntity
  8
1
  6
Continuous
100
AcDbLine
 10
251.9320379999999
 20
333.447519
 30
0.0
 11
251.0128019999999
 21
332.5282829999999
 31
0.0
  0
LINE
  5
AA86
330
AA1A
100
AcDbEntity
  8
1
  6
Continuous
100
AcDbLine
 10
251.0128019999999
 20
332.5282829999999
 30
0.0
 11
249.767548
 21
333.773545
 31
0.0
  0
LINE
  5
AA87
330
AA1A
100
AcDbEntity
  8
1
  6
Continuous
100
AcDbLine
 10
251.9320379999999
 20
333.447519
 30
0.0
 11
250.686783
 21
334.692781
 31
0.0
  0
LINE
  5
AA88
330
AA1A
100
AcDbEntity
  8
1
  6
Continuous
100
AcDbLine
 10
242.4304579999999
 20
332.528299
 30
0.0
 11
241.511215
 21
333.447541
 31
0.0
  0
LINE
  5
AA89
330
AA1A
100
AcDbEntity
  8
1
  6
Continuous
100
AcDbLine
 10
243.675705
 20
333.7735529999998
 30
0.0
 11
242.4304579999999
 21
332.528299
 31
0.0
  0
LINE
  5
AA8A
330
AA1A
100
AcDbEntity
  8
1
  6
Continuous
100
AcDbLine
 10
242.7564779999999
 20
334.6927959999998
 30
0.0
 11
241.511215
 21
333.447541
 31
0.0
  0
LINE
  5
AA8B
330
AA1A
100
AcDbEntity
  8
4
  6
CENTER
100
AcDbLine
 10
160.7221219999999
 20
368.988874
 30
0.0
 11
160.7221219999999
 21
354.488874
 31
0.0
  0
CIRCLE
  5
AA8C
330
AA1A
100
AcDbEntity
  8
1
  6
Continuous
100
AcDbCircle
 10
160.7221219999999
 20
361.7388739999999
 30
0.0
 40
4.25
  0
LINE
  5
AA8D
330
AA1A
100
AcDbEntity
  8
1
  6
Continuous
100
AcDbLine
 10
201.7221219999999
 20
355.48887
 30
0.0
 11
187.7221219999999
 21
355.48887
 31
0.0
  0
LINE
  5
AA8E
330
AA1A
100
AcDbEntity
  8
1
  6
Continuous
100
AcDbLine
 10
201.7221219999999
 20
319.98887
 30
0.0
 11
187.7221219999999
 21
319.98887
 31
0.0
  0
ARC
  5
AA8F
330
AA1A
100
AcDbEntity
  8
1
  6
Continuous
100
AcDbCircle
 10
201.7221219999999
 20
363.48887
 30
0.0
 40
8.0
100
AcDbArc
 50
270.0
 51
316.9048769999998
  0
ARC
  5
AA90
330
AA1A
100
AcDbEntity
  8
1
  6
Continuous
100
AcDbCircle
 10
214.8660889999999
 20
351.1910639999999
 30
0.0
 40
10.0
100
AcDbArc
 50
99.21600300000001
 51
136.904877
  0
LINE
  5
AA91
330
AA1A
100
AcDbEntity
  8
1
  6
Continuous
100
AcDbLine
 10
200.4721219999999
 20
357.774514
 30
0.0
 11
188.972122
 21
357.774514
 31
0.0
  0
ARC
  5
AA92
330
AA1A
100
AcDbEntity
  8
1
  6
Continuous
100
AcDbCircle
 10
194.7221219999999
 20
348.98887
 30
0.0
 40
10.5
100
AcDbArc
 50
56.79617299999999
 51
123.203827
  0
LINE
  5
AA93
330
AA1A
100
AcDbEntity
  8
1
  6
Continuous
100
AcDbLine
 10
200.4721219999999
 20
357.774514
 30
0.0
 11
200.4721219999999
 21
355.48887
 31
0.0
  0
LINE
  5
AA94
330
AA1A
100
AcDbEntity
  8
1
  6
Continuous
100
AcDbLine
 10
188.972122
 20
357.774514
 30
0.0
 11
188.972122
 21
355.48887
 31
0.0
  0
ARC
  5
AA95
330
AA1A
100
AcDbEntity
  8
1
  6
Continuous
100
AcDbCircle
 10
201.7221219999999
 20
311.98887
 30
0.0
 40
8.0
100
AcDbArc
 50
43.095139
 51
90.0
  0
ARC
  5
AA96
330
AA1A
100
AcDbEntity
  8
1
  6
Continuous
100
AcDbCircle
 10
171.2221219999999
 20
355.23887
 30
0.0
 40
2.5
100
AcDbArc
 50
180.0
 51
339.138916
  0
ARC
  5
AA97
330
AA1A
100
AcDbEntity
  8
1
  6
Continuous
100
AcDbCircle
 10
173.510727
 20
349.1364799999999
 30
0.0
 40
12.5
100
AcDbArc
 50
43.215012
 51
77.47229
  0
ARC
  5
AA98
330
AA1A
100
AcDbEntity
  8
1
  6
Continuous
100
AcDbCircle
 10
187.7221219999999
 20
362.48887
 30
0.0
 40
7.0
100
AcDbArc
 50
223.214996
 51
270.0
  0
LINE
  5
AA99
330
AA1A
100
AcDbEntity
  8
1
  6
Continuous
100
AcDbLine
 10
176.2221219999999
 20
361.3388719999999
 30
0.0
 11
173.5582389999999
 21
354.3486109999999
 31
0.0
  0
LINE
  5
AA9A
330
AA1A
100
AcDbEntity
  8
1
  6
Continuous
100
AcDbLine
 10
168.7221219999998
 20
361.7388739999999
 30
0.0
 11
168.7221219999998
 21
355.23887
 31
0.0
  0
ARC
  5
AA9B
330
AA1A
100
AcDbEntity
  8
1
  6
Continuous
100
AcDbCircle
 10
171.2221219999999
 20
320.23887
 30
0.0
 40
2.5
100
AcDbArc
 50
20.86109899999998
 51
180.0
  0
ARC
  5
AA9C
330
AA1A
100
AcDbEntity
  8
1
  6
Continuous
100
AcDbCircle
 10
187.7221219999999
 20
312.98887
 30
0.0
 40
7.0
100
AcDbArc
 50
90.0
 51
136.784973
  0
LINE
  5
AA9D
330
AA1A
100
AcDbEntity
  8
1
  6
Continuous
100
AcDbLine
 10
228.222122
 20
311.98887
 30
0.0
 11
213.264519
 21
314.4157649999999
 31
0.0
  0
LINE
  5
AA9E
330
AA1A
100
AcDbEntity
  8
4
  6
CENTER
100
AcDbLine
 10
263.972122
 20
313.73887
 30
0.0
 11
249.472122
 21
313.73887
 31
0.0
  0
ARC
  5
AA9F
330
AA1A
100
AcDbEntity
  8
1
  6
Continuous
100
AcDbCircle
 10
256.7221219999999
 20
313.73887
 30
0.0
 40
8.0
100
AcDbArc
 50
200.1054949999998
 51
0.0
  0
ARC
  5
AAA0
330
AA1A
100
AcDbEntity
  8
1
  6
Continuous
100
AcDbCircle
 10
245.9859929999999
 20
350.858762
 30
0.0
 40
40.0
100
AcDbArc
 50
248.785576
 51
274.6225279999998
  0
ARC
  5
AAA1
330
AA1A
100
AcDbEntity
  8
1
  6
Continuous
100
AcDbCircle
 10
230.6069719999999
 20
311.23887
 30
0.0
 40
2.5
100
AcDbArc
 50
68.78556800000001
 51
162.5423889999999
  0
LINE
  5
AAA2
330
AA1A
100
AcDbEntity
  8
4
  6
CENTER
100
AcDbLine
 10
32.999996
 20
240.573322
 30
0.0
 11
32.999996
 21
248.4252339999999
 31
0.0
  0
LINE
  5
AAA3
330
AA1A
100
AcDbEntity
  8
4
  6
CENTER
100
AcDbLine
 10
80.99999599999998
 20
240.573322
 30
0.0
 11
80.99999599999998
 21
248.4252339999999
 31
0.0
  0
LINE
  5
AAA4
330
AA1A
100
AcDbEntity
  8
4
  6
CENTER
100
AcDbLine
 10
56.99999599999999
 20
249.143932
 30
0.0
 11
56.99999599999999
 21
161.5949419999998
 31
0.0
  0
LINE
  5
AAA5
330
AA1A
100
AcDbEntity
  8
4
  6
CENTER
100
AcDbLine
 10
83.10800399999997
 20
195.8836609999999
 30
0.0
 11
30.599259
 21
195.8836609999999
 31
0.0
  0
ARC
  5
AAA6
330
AA1A
100
AcDbEntity
  8
1
  6
Continuous
100
AcDbCircle
 10
55.799997
 20
228.504911
 30
0.0
 40
22.5
100
AcDbArc
 50
358.211337
 51
40.38680999999999
  0
LINE
  5
AAA7
330
AA1A
100
AcDbEntity
  8
1
  6
Continuous
100
AcDbLine
 10
76.395999
 20
185.583665
 30
0.0
 11
72.44999599999998
 21
185.583665
 31
0.0
  0
LINE
  5
AAA8
330
AA1A
100
AcDbEntity
  8
1
  6
Continuous
100
AcDbLine
 10
88.99999599999999
 20
243.0836639999998
 30
0.0
 11
25.0
 21
243.0836639999998
 31
0.0
  0
LINE
  5
AAA9
330
AA1A
100
AcDbEntity
  8
1
  6
Continuous
100
AcDbLine
 10
88.99999599999999
 20
245.3836649999999
 30
0.0
 11
25.0
 21
245.3836649999999
 31
0.0
  0
ARC
  5
AAAA
330
AA1A
100
AcDbEntity
  8
1
  6
Continuous
100
AcDbCircle
 10
75.89089199999998
 20
189.0836649999999
 30
0.0
 40
3.5
100
AcDbArc
 50
270.0
 51
358.2284200000001
  0
ARC
  5
AAAB
330
AA1A
100
AcDbEntity
  8
1
  6
Continuous
100
AcDbCircle
 10
55.799997
 20
228.504911
 30
0.0
 40
24.799999
100
AcDbArc
 50
358.2284200000001
 51
36.00479099999999
  0
LINE
  5
AAAC
330
AA1A
100
AcDbEntity
  8
1
  6
Continuous
100
AcDbLine
 10
88.99999599999999
 20
245.3836649999999
 30
0.0
 11
88.99999599999999
 21
243.0836639999998
 31
0.0
  0
LINE
  5
AAAD
330
AA1A
100
AcDbEntity
  8
1
  6
Continuous
100
AcDbLine
 10
41.549996
 20
243.0836639999998
 30
0.0
 11
41.549996
 21
185.583665
 31
0.0
  0
LINE
  5
AAAE
330
AA1A
100
AcDbEntity
  8
1
  6
Continuous
100
AcDbLine
 10
72.44999599999998
 20
243.0836639999998
 30
0.0
 11
72.44999599999998
 21
185.583665
 31
0.0
  0
LINE
  5
AAAF
330
AA1A
100
AcDbEntity
  8
1
  6
Continuous
100
AcDbLine
 10
37.603993
 20
185.583665
 30
0.0
 11
41.549996
 21
185.583665
 31
0.0
  0
ARC
  5
AAB0
330
AA1A
100
AcDbEntity
  8
1
  6
Continuous
100
AcDbCircle
 10
45.500122
 20
243.583665
 30
0.0
 40
3.5
100
AcDbArc
 50
188.472992
 51
270.0
  0
LINE
  5
AAB1
330
AA1A
100
AcDbEntity
  8
1
  6
Continuous
100
AcDbLine
 10
66.999634
 20
239.083789
 30
0.0
 11
46.999634
 21
239.083789
 31
0.0
  0
LINE
  5
AAB2
330
AA1A
100
AcDbEntity
  8
1
  6
Continuous
100
AcDbLine
 10
68.50012199999999
 20
240.083665
 30
0.0
 11
45.500122
 21
240.083665
 31
0.0
  0
LINE
  5
AAB3
330
AA1A
100
AcDbEntity
  8
1
  6
Continuous
100
AcDbLine
 10
66.999634
 20
239.083789
 30
0.0
 11
66.999634
 21
226.756246
 31
0.0
  0
ARC
  5
AAB4
330
AA1A
100
AcDbEntity
  8
1
  6
Continuous
100
AcDbCircle
 10
68.50012199999999
 20
243.583665
 30
0.0
 40
3.5
100
AcDbArc
 50
270.0
 51
351.786789
  0
LINE
  5
AAB5
330
AA1A
100
AcDbEntity
  8
1
  6
Continuous
100
AcDbLine
 10
63.499634
 20
240.083789
 30
0.0
 11
63.499634
 21
239.083789
 31
0.0
  0
LINE
  5
AAB6
330
AA1A
100
AcDbEntity
  8
1
  6
Continuous
100
AcDbLine
 10
46.999634
 20
239.083789
 30
0.0
 11
46.999634
 21
226.7561549999999
 31
0.0
  0
LINE
  5
AAB7
330
AA1A
100
AcDbEntity
  8
1
  6
Continuous
100
AcDbLine
 10
50.499634
 20
240.083789
 30
0.0
 11
50.499634
 21
239.083789
 31
0.0
  0
LINE
  5
AAB8
330
AA1A
100
AcDbEntity
  8
1
  6
Continuous
100
AcDbLine
 10
25.0
 20
245.3836649999999
 30
0.0
 11
25.0
 21
243.0836639999998
 31
0.0
  0
LINE
  5
AAB9
330
AA1A
100
AcDbEntity
  8
1
  6
Continuous
100
AcDbLine
 10
152.7221219999999
 20
361.7388739999999
 30
0.0
 11
152.7221219999999
 21
313.73887
 31
0.0
  0
LINE
  5
AABA
330
AA1A
100
AcDbEntity
  8
1
  6
Continuous
100
AcDbLine
 10
263.0714659999998
 20
176.883882
 30
0.0
 11
230.3716339999998
 21
176.883882
 31
0.0
  0
LINE
  5
AABB
330
AA1A
100
AcDbEntity
  8
1
  6
Continuous
100
AcDbLine
 10
263.9716279999999
 20
164.383882
 30
0.0
 11
229.471625
 21
164.383882
 31
0.0
  0
LINE
  5
AABC
330
AA1A
100
AcDbEntity
  8
1
  6
Continuous
100
AcDbLine
 10
265.5716339999999
 20
168.383882
 30
0.0
 11
227.8716339999999
 21
168.383882
 31
0.0
  0
LINE
  5
AABD
330
AA1A
100
AcDbEntity
  8
1
  6
Continuous
100
AcDbLine
 10
227.8716339999999
 20
168.383882
 30
0.0
 11
227.8716339999999
 21
174.383882
 31
0.0
  0
LINE
  5
AABE
330
AA1A
100
AcDbEntity
  8
1
  6
Continuous
100
AcDbLine
 10
229.471625
 20
168.383882
 30
0.0
 11
229.471625
 21
164.383882
 31
0.0
  0
ARC
  5
AABF
330
AA1A
100
AcDbEntity
  8
1
  6
Continuous
100
AcDbCircle
 10
230.3716339999998
 20
174.383882
 30
0.0
 40
2.5
100
AcDbArc
 50
90.0
 51
180.0
  0
LINE
  5
AAC0
330
AA1A
100
AcDbEntity
  8
1
  6
Continuous
100
AcDbLine
 10
257.221634
 20
177.8838819999998
 30
0.0
 11
236.2216339999999
 21
177.8838819999998
 31
0.0
  0
ARC
  5
AAC1
330
AA1A
100
AcDbEntity
  8
1
  6
Continuous
100
AcDbCircle
 10
246.721352
 20
191.1616229999999
 30
0.0
 40
13.277742
100
AcDbArc
 50
248.3089689999999
 51
291.6910659999999
  0
ARC
  5
AAC2
330
AA1A
100
AcDbEntity
  8
1
  6
Continuous
100
AcDbCircle
 10
239.3601379999998
 20
181.5556959999999
 30
0.0
 40
3.671864999999998
100
AcDbArc
 50
228.0675349999999
 51
311.9324649999999
  0
LINE
  5
AAC3
330
AA1A
100
AcDbEntity
  8
1
  6
Continuous
100
AcDbLine
 10
236.2216339999999
 20
176.883882
 30
0.0
 11
236.2216339999999
 21
177.8838819999998
 31
0.0
  0
ARC
  5
AAC4
330
AA1A
100
AcDbEntity
  8
1
  6
Continuous
100
AcDbCircle
 10
254.0825649999999
 20
181.5556959999999
 30
0.0
 40
3.671864999999998
100
AcDbArc
 50
228.0675349999999
 51
311.9324649999999
  0
LINE
  5
AAC5
330
AA1A
100
AcDbEntity
  8
1
  6
Continuous
100
AcDbLine
 10
257.221634
 20
176.883882
 30
0.0
 11
257.221634
 21
177.8838819999998
 31
0.0
  0
LINE
  5
AAC6
330
AA1A
100
AcDbEntity
  8
1
  6
Continuous
100
AcDbLine
 10
265.5716339999999
 20
168.383882
 30
0.0
 11
265.5716339999999
 21
174.383882
 31
0.0
  0
LINE
  5
AAC7
330
AA1A
100
AcDbEntity
  8
1
  6
Continuous
100
AcDbLine
 10
263.9716279999999
 20
168.383882
 30
0.0
 11
263.9716279999999
 21
164.383882
 31
0.0
  0
ARC
  5
AAC8
330
AA1A
100
AcDbEntity
  8
1
  6
Continuous
100
AcDbCircle
 10
263.0716339999998
 20
174.383882
 30
0.0
 40
2.5
100
AcDbArc
 50
0.0
 51
90.0
  0
LINE
  5
AAC9
330
AA1A
100
AcDbEntity
  8
1
  6
Continuous
100
AcDbLine
 10
256.5363159999999
 20
184.883882
 30
0.0
 11
236.906403
 21
184.883882
 31
0.0
  0
LINE
  5
AACA
330
AA1A
100
AcDbEntity
  8
1
  6
Continuous
100
AcDbLine
 10
251.721634
 20
187.883882
 30
0.0
 11
241.7216339999999
 21
187.883882
 31
0.0
  0
LINE
  5
AACB
330
AA1A
100
AcDbEntity
  8
2
  6
Continuous
100
AcDbLine
 10
241.7216339999999
 20
186.4774569999999
 30
0.0
 11
242.5336339999998
 21
187.883882
 31
0.0
  0
LINE
  5
AACC
330
AA1A
100
AcDbEntity
  8
1
  6
Continuous
100
AcDbLine
 10
236.906403
 20
184.883882
 30
0.0
 11
236.906403
 21
178.8240669999999
 31
0.0
  0
LINE
  5
AACD
330
AA1A
100
AcDbEntity
  8
1
  6
Continuous
100
AcDbLine
 10
241.813881
 20
178.8240669999999
 30
0.0
 11
241.813881
 21
184.883882
 31
0.0
  0
LINE
  5
AACE
330
AA1A
100
AcDbEntity
  8
2
  6
Continuous
100
AcDbLine
 10
251.721634
 20
186.4774569999999
 30
0.0
 11
250.9096339999999
 21
187.883882
 31
0.0
  0
LINE
  5
AACF
330
AA1A
100
AcDbEntity
  8
1
  6
Continuous
100
AcDbLine
 10
256.5363159999999
 20
184.883882
 30
0.0
 11
256.5363159999999
 21
178.8240669999999
 31
0.0
  0
LINE
  5
AAD0
330
AA1A
100
AcDbEntity
  8
1
  6
Continuous
100
AcDbLine
 10
251.6288299999999
 20
178.8240669999999
 30
0.0
 11
251.6288299999999
 21
184.883882
 31
0.0
  0
LINE
  5
AAD1
330
AA1A
100
AcDbEntity
  8
2
  6
Continuous
100
AcDbLine
 10
242.5336339999998
 20
187.883882
 30
0.0
 11
242.5336339999998
 21
203.083795
 31
0.0
  0
LINE
  5
AAD2
330
AA1A
100
AcDbEntity
  8
1
  6
Continuous
100
AcDbLine
 10
241.7216339999999
 20
203.083795
 30
0.0
 11
241.7216339999999
 21
184.883882
 31
0.0
  0
LINE
  5
AAD3
330
AA1A
100
AcDbEntity
  8
2
  6
Continuous
100
AcDbLine
 10
250.9096339999999
 20
187.883882
 30
0.0
 11
250.9096339999999
 21
203.083795
 31
0.0
  0
LINE
  5
AAD4
330
AA1A
100
AcDbEntity
  8
1
  6
Continuous
100
AcDbLine
 10
251.721634
 20
203.083795
 30
0.0
 11
251.721634
 21
184.883882
 31
0.0
  0
LINE
  5
AAD5
330
AA1A
100
AcDbEntity
  8
1
  6
Continuous
100
AcDbLine
 10
75.84999599999997
 20
168.383661
 30
0.0
 11
75.84999599999997
 21
174.3836609999999
 31
0.0
  0
LINE
  5
AAD6
330
AA1A
100
AcDbEntity
  8
1
  6
Continuous
100
AcDbLine
 10
75.84999599999997
 20
168.383661
 30
0.0
 11
69.49999599999999
 21
168.383661
 31
0.0
  0
LINE
  5
AAD7
330
AA1A
100
AcDbEntity
  8
1
  6
Continuous
100
AcDbLine
 10
74.24998999999998
 20
164.3836609999999
 30
0.0
 11
39.749987
 21
164.3836609999999
 31
0.0
  0
LINE
  5
AAD8
330
AA1A
100
AcDbEntity
  8
1
  6
Continuous
100
AcDbLine
 10
74.24998999999998
 20
168.383661
 30
0.0
 11
74.24998999999998
 21
164.3836609999999
 31
0.0
  0
LINE
  5
AAD9
330
AA1A
100
AcDbEntity
  8
1
  6
Continuous
100
AcDbLine
 10
73.349828
 20
176.8836609999999
 30
0.0
 11
69.49999599999999
 21
176.8836609999999
 31
0.0
  0
ARC
  5
AADA
330
AA1A
100
AcDbEntity
  8
1
  6
Continuous
100
AcDbCircle
 10
73.34999599999997
 20
174.3836609999999
 30
0.0
 40
2.5
100
AcDbArc
 50
0.0
 51
90.0
  0
LINE
  5
AADB
330
AA1A
100
AcDbEntity
  8
1
  6
Continuous
100
AcDbLine
 10
38.149996
 20
168.383661
 30
0.0
 11
38.149996
 21
174.3836609999999
 31
0.0
  0
LINE
  5
AADC
330
AA1A
100
AcDbEntity
  8
1
  6
Continuous
100
AcDbLine
 10
39.749987
 20
168.383661
 30
0.0
 11
39.749987
 21
164.3836609999999
 31
0.0
  0
ARC
  5
AADD
330
AA1A
100
AcDbEntity
  8
1
  6
Continuous
100
AcDbCircle
 10
40.649996
 20
174.3836609999999
 30
0.0
 40
2.5
100
AcDbArc
 50
90.0
 51
180.0
  0
LINE
  5
AADE
330
AA1A
100
AcDbEntity
  8
1
  6
Continuous
100
AcDbLine
 10
44.499996
 20
176.8836609999999
 30
0.0
 11
40.649996
 21
176.8836609999999
 31
0.0
  0
LINE
  5
AADF
330
AA1A
100
AcDbEntity
  8
1
  6
Continuous
100
AcDbLine
 10
44.499996
 20
168.383661
 30
0.0
 11
38.149996
 21
168.383661
 31
0.0
  0
LINE
  5
AAE0
330
AA1A
100
AcDbEntity
  8
5
  6
PHANTOM
100
AcDbLine
 10
265.5716339999999
 20
153.3838819999998
 30
0.0
 11
265.5716339999999
 21
159.383882
 31
0.0
  0
LINE
  5
AAE1
330
AA1A
100
AcDbEntity
  8
5
  6
PHANTOM
100
AcDbLine
 10
265.5716339999999
 20
153.3838819999998
 30
0.0
 11
227.8716339999999
 21
153.3838819999998
 31
0.0
  0
LINE
  5
AAE2
330
AA1A
100
AcDbEntity
  8
5
  6
PHANTOM
100
AcDbLine
 10
263.9716279999999
 20
149.383882
 30
0.0
 11
229.471625
 21
149.383882
 31
0.0
  0
LINE
  5
AAE3
330
AA1A
100
AcDbEntity
  8
5
  6
PHANTOM
100
AcDbLine
 10
263.9716279999999
 20
153.3838819999998
 30
0.0
 11
263.9716279999999
 21
149.383882
 31
0.0
  0
LINE
  5
AAE4
330
AA1A
100
AcDbEntity
  8
5
  6
PHANTOM
100
AcDbLine
 10
263.0714659999998
 20
161.883882
 30
0.0
 11
230.3716339999998
 21
161.883882
 31
0.0
  0
ARC
  5
AAE5
330
AA1A
100
AcDbEntity
  8
5
  6
PHANTOM
100
AcDbCircle
 10
263.0716339999998
 20
159.383882
 30
0.0
 40
2.5
100
AcDbArc
 50
0.0
 51
90.0
  0
LINE
  5
AAE6
330
AA1A
100
AcDbEntity
  8
5
  6
PHANTOM
100
AcDbLine
 10
227.8716339999999
 20
153.3838819999998
 30
0.0
 11
227.8716339999999
 21
159.383882
 31
0.0
  0
LINE
  5
AAE7
330
AA1A
100
AcDbEntity
  8
5
  6
PHANTOM
100
AcDbLine
 10
229.471625
 20
153.3838819999998
 30
0.0
 11
229.471625
 21
149.383882
 31
0.0
  0
ARC
  5
AAE8
330
AA1A
100
AcDbEntity
  8
5
  6
PHANTOM
100
AcDbCircle
 10
230.3716339999998
 20
159.383882
 30
0.0
 40
2.5
100
AcDbArc
 50
90.0
 51
180.0
  0
LINE
  5
AAE9
330
AA1A
100
AcDbEntity
  8
5
  6
PHANTOM
100
AcDbLine
 10
265.5716339999999
 20
183.383882
 30
0.0
 11
227.8716339999999
 21
183.383882
 31
0.0
  0
LINE
  5
AAEA
330
AA1A
100
AcDbEntity
  8
5
  6
PHANTOM
100
AcDbLine
 10
263.9716279999999
 20
179.3838819999998
 30
0.0
 11
229.471625
 21
179.3838819999998
 31
0.0
  0
LINE
  5
AAEB
330
AA1A
100
AcDbEntity
  8
5
  6
PHANTOM
100
AcDbLine
 10
263.0714659999998
 20
191.8838819999998
 30
0.0
 11
230.3716339999998
 21
191.8838819999998
 31
0.0
  0
LINE
  5
AAEC
330
AA1A
100
AcDbEntity
  8
5
  6
PHANTOM
100
AcDbLine
 10
265.5716339999999
 20
183.383882
 30
0.0
 11
265.5716339999999
 21
189.383882
 31
0.0
  0
LINE
  5
AAED
330
AA1A
100
AcDbEntity
  8
5
  6
PHANTOM
100
AcDbLine
 10
263.9716279999999
 20
183.383882
 30
0.0
 11
263.9716279999999
 21
179.3838819999998
 31
0.0
  0
ARC
  5
AAEE
330
AA1A
100
AcDbEntity
  8
5
  6
PHANTOM
100
AcDbCircle
 10
263.0716339999998
 20
189.383882
 30
0.0
 40
2.5
100
AcDbArc
 50
0.0
 51
90.0
  0
ARC
  5
AAEF
330
AA1A
100
AcDbEntity
  8
5
  6
PHANTOM
100
AcDbCircle
 10
230.3716339999998
 20
189.383882
 30
0.0
 40
2.5
100
AcDbArc
 50
90.0
 51
180.0
  0
LINE
  5
AAF0
330
AA1A
100
AcDbEntity
  8
5
  6
PHANTOM
100
AcDbLine
 10
227.8716339999999
 20
183.383882
 30
0.0
 11
227.8716339999999
 21
189.383882
 31
0.0
  0
LINE
  5
AAF1
330
AA1A
100
AcDbEntity
  8
5
  6
PHANTOM
100
AcDbLine
 10
229.471625
 20
183.383882
 30
0.0
 11
229.471625
 21
179.3838819999998
 31
0.0
  0
LINE
  5
AAF2
330
AA1A
100
AcDbEntity
  8
1
  6
Continuous
100
AcDbLine
 10
379.294554
 20
168.383661
 30
0.0
 11
379.294554
 21
174.3836609999999
 31
0.0
  0
LINE
  5
AAF3
330
AA1A
100
AcDbEntity
  8
1
  6
Continuous
100
AcDbLine
 10
341.594554
 20
168.383661
 30
0.0
 11
341.594554
 21
174.3836609999999
 31
0.0
  0
LINE
  5
AAF4
330
AA1A
100
AcDbEntity
  8
1
  6
Continuous
100
AcDbLine
 10
349.9445539999999
 20
177.8838819999998
 30
0.0
 11
349.9445539999999
 21
176.8836609999999
 31
0.0
  0
LINE
  5
AAF5
330
AA1A
100
AcDbEntity
  8
4
  6
CENTER
100
AcDbLine
 10
360.4445539999999
 20
249.143932
 30
0.0
 11
360.4445539999999
 21
161.5949419999998
 31
0.0
  0
LINE
  5
AAF6
330
AA1A
100
AcDbEntity
  8
1
  6
Continuous
100
AcDbLine
 10
343.19456
 20
164.3836609999999
 30
0.0
 11
377.694563
 21
164.3836609999999
 31
0.0
  0
LINE
  5
AAF7
330
AA1A
100
AcDbEntity
  8
1
  6
Continuous
100
AcDbLine
 10
377.694563
 20
168.383661
 30
0.0
 11
377.694563
 21
164.3836609999999
 31
0.0
  0
LINE
  5
AAF8
330
AA1A
100
AcDbEntity
  8
1
  6
Continuous
100
AcDbLine
 10
343.19456
 20
168.383661
 30
0.0
 11
343.19456
 21
164.3836609999999
 31
0.0
  0
LINE
  5
AAF9
330
AA1A
100
AcDbEntity
  8
1
  6
Continuous
100
AcDbLine
 10
341.594554
 20
168.383661
 30
0.0
 11
379.294554
 21
168.383661
 31
0.0
  0
LINE
  5
AAFA
330
AA1A
100
AcDbEntity
  8
1
  6
Continuous
100
AcDbLine
 10
348.9444279999998
 20
240.083665
 30
0.0
 11
371.9444279999998
 21
240.083665
 31
0.0
  0
LINE
  5
AAFB
330
AA1A
100
AcDbEntity
  8
1
  6
Continuous
100
AcDbLine
 10
328.444554
 20
245.3836649999999
 30
0.0
 11
392.44455
 21
245.3836649999999
 31
0.0
  0
LINE
  5
AAFC
330
AA1A
100
AcDbEntity
  8
1
  6
Continuous
100
AcDbLine
 10
328.444554
 20
243.0836639999998
 30
0.0
 11
392.44455
 21
243.0836639999998
 31
0.0
  0
LINE
  5
AAFD
330
AA1A
100
AcDbEntity
  8
4
  6
CENTER
100
AcDbLine
 10
334.336546
 20
195.8836609999999
 30
0.0
 11
386.8452909999999
 21
195.8836609999999
 31
0.0
  0
LINE
  5
AAFE
330
AA1A
100
AcDbEntity
  8
1
  6
Continuous
100
AcDbLine
 10
375.894554
 20
243.0836639999998
 30
0.0
 11
375.894554
 21
185.583665
 31
0.0
  0
LINE
  5
AAFF
330
AA1A
100
AcDbEntity
  8
1
  6
Continuous
100
AcDbLine
 10
386.194558
 20
240.7836649999999
 30
0.0
 11
384.836563
 21
190.3838249999998
 31
0.0
  0
ARC
  5
AB00
330
AA1A
100
AcDbEntity
  8
1
  6
Continuous
100
AcDbCircle
 10
379.8405569999998
 20
190.5836649999999
 30
0.0
 40
5.0
100
AcDbArc
 50
270.0
 51
357.7094119999999
  0
ARC
  5
AB01
330
AA1A
100
AcDbEntity
  8
1
  6
Continuous
100
AcDbCircle
 10
376.7945539999999
 20
174.3836609999999
 30
0.0
 40
2.5
100
AcDbArc
 50
0.0
 51
90.0
  0
LINE
  5
AB02
330
AA1A
100
AcDbEntity
  8
1
  6
Continuous
100
AcDbLine
 10
379.8405569999998
 20
185.583665
 30
0.0
 11
375.894554
 21
185.583665
 31
0.0
  0
LINE
  5
AB03
330
AA1A
100
AcDbEntity
  8
1
  6
Continuous
100
AcDbLine
 10
392.44455
 20
245.3836649999999
 30
0.0
 11
392.44455
 21
243.0836639999998
 31
0.0
  0
LINE
  5
AB04
330
AA1A
100
AcDbEntity
  8
4
  6
CENTER
100
AcDbLine
 10
384.4445539999999
 20
240.573322
 30
0.0
 11
384.4445539999999
 21
248.4252339999999
 31
0.0
  0
LINE
  5
AB05
330
AA1A
100
AcDbEntity
  8
1
  6
Continuous
100
AcDbLine
 10
370.4449159999999
 20
239.083789
 30
0.0
 11
370.4449159999999
 21
213.0837909999999
 31
0.0
  0
LINE
  5
AB06
330
AA1A
100
AcDbEntity
  8
1
  6
Continuous
100
AcDbLine
 10
350.444916
 20
239.083789
 30
0.0
 11
350.444916
 21
213.0837909999999
 31
0.0
  0
LINE
  5
AB07
330
AA1A
100
AcDbEntity
  8
1
  6
Continuous
100
AcDbLine
 10
350.444916
 20
239.083789
 30
0.0
 11
370.4449159999999
 21
239.083789
 31
0.0
  0
LINE
  5
AB08
330
AA1A
100
AcDbEntity
  8
1
  6
Continuous
100
AcDbLine
 10
366.9449159999999
 20
240.083789
 30
0.0
 11
366.9449159999999
 21
239.083789
 31
0.0
  0
ARC
  5
AB09
330
AA1A
100
AcDbEntity
  8
1
  6
Continuous
100
AcDbCircle
 10
371.9444279999998
 20
243.583665
 30
0.0
 40
3.5
100
AcDbArc
 50
270.0
 51
351.527008
  0
LINE
  5
AB0A
330
AA1A
100
AcDbEntity
  8
1
  6
Continuous
100
AcDbLine
 10
353.9449159999999
 20
240.083789
 30
0.0
 11
353.9449159999999
 21
239.083789
 31
0.0
  0
LINE
  5
AB0B
330
AA1A
100
AcDbEntity
  8
1
  6
Continuous
100
AcDbLine
 10
344.9945539999998
 20
243.0836639999998
 30
0.0
 11
344.9945539999998
 21
185.637324
 31
0.0
  0
ARC
  5
AB0C
330
AA1A
100
AcDbEntity
  8
1
  6
Continuous
100
AcDbCircle
 10
344.094554
 20
174.3836609999999
 30
0.0
 40
2.5
100
AcDbArc
 50
90.0
 51
180.0
  0
LINE
  5
AB0D
330
AA1A
100
AcDbEntity
  8
1
  6
Continuous
100
AcDbLine
 10
344.0947219999998
 20
176.8836609999999
 30
0.0
 11
376.7945539999999
 21
176.8836609999999
 31
0.0
  0
ARC
  5
AB0E
330
AA1A
100
AcDbEntity
  8
1
  6
Continuous
100
AcDbCircle
 10
348.9444279999998
 20
243.583665
 30
0.0
 40
3.5
100
AcDbArc
 50
188.213211
 51
270.0
  0
LINE
  5
AB0F
330
AA1A
100
AcDbEntity
  8
4
  6
CENTER
100
AcDbLine
 10
336.4445539999999
 20
240.573322
 30
0.0
 11
336.4445539999999
 21
248.4252339999999
 31
0.0
  0
LINE
  5
AB10
330
AA1A
100
AcDbEntity
  8
1
  6
Continuous
100
AcDbLine
 10
328.444554
 20
245.3836649999999
 30
0.0
 11
328.444554
 21
243.0836639999998
 31
0.0
  0
ARC
  5
AB11
330
AA1A
100
AcDbEntity
  8
1
  6
Continuous
100
AcDbCircle
 10
513.591355
 20
191.5836649999999
 30
0.0
 40
6.0
100
AcDbArc
 50
197.1902159999999
 51
270.0
  0
ARC
  5
AB12
330
AA1A
100
AcDbEntity
  8
1
  6
Continuous
100
AcDbCircle
 10
526.1669859999998
 20
195.8836609999999
 30
0.0
 40
31.5
100
AcDbArc
 50
144.9398799999999
 51
56.65151999999999
  0
LINE
  5
AB13
330
AA1A
100
AcDbEntity
  8
4
  6
CENTER
100
AcDbLine
 10
491.6669859999998
 20
195.8836609999999
 30
0.0
 11
560.6669860000002
 21
195.8836609999999
 31
0.0
  0
LINE
  5
AB14
330
AA1A
100
AcDbEntity
  8
1
  6
Continuous
100
AcDbLine
 10
456.166986
 20
245.3836649999999
 30
0.0
 11
568.1669859999998
 21
245.3836649999999
 31
0.0
  0
LINE
  5
AB15
330
AA1A
100
AcDbEntity
  8
4
  6
CENTER
100
AcDbLine
 10
526.1669859999998
 20
161.3836609999999
 30
0.0
 11
526.1669859999998
 21
230.3836609999999
 31
0.0
  0
LINE
  5
AB16
330
AA1A
100
AcDbEntity
  8
1
  6
Continuous
100
AcDbLine
 10
533.1669859999998
 20
238.4927859999999
 30
0.0
 11
533.1669859999998
 21
202.1447919999999
 31
0.0
  0
LINE
  5
AB17
330
AA1A
100
AcDbEntity
  8
1
  6
Continuous
100
AcDbLine
 10
519.1669860000001
 20
239.0141669999999
 30
0.0
 11
519.1669860000001
 21
202.1447919999999
 31
0.0
  0
LINE
  5
AB18
330
AA1A
100
AcDbEntity
  8
1
  6
Continuous
100
AcDbLine
 10
546.5642629999998
 20
241.589694
 30
0.0
 11
538.4706129999998
 21
190.64229
 31
0.0
  0
CIRCLE
  5
AB19
330
AA1A
100
AcDbEntity
  8
1
  6
Continuous
100
AcDbCircle
 10
526.1669859999998
 20
195.8836609999999
 30
0.0
 40
5.75
  0
LINE
  5
AB1A
330
AA1A
100
AcDbEntity
  8
1
  6
Continuous
100
AcDbLine
 10
513.591355
 20
185.583665
 30
0.0
 11
532.544923
 21
185.583665
 31
0.0
  0
ARC
  5
AB1B
330
AA1A
100
AcDbEntity
  8
1
  6
Continuous
100
AcDbCircle
 10
532.544923
 20
191.5836649999999
 30
0.0
 40
6.0
100
AcDbArc
 50
270.0
 51
350.9732669999999
  0
LINE
  5
AB1C
330
AA1A
100
AcDbEntity
  8
1
  6
Continuous
100
AcDbLine
 10
549.7894719999997
 20
243.0836649999999
 30
0.0
 11
568.1669859999998
 21
243.0836649999999
 31
0.0
  0
LINE
  5
AB1D
330
AA1A
100
AcDbEntity
  8
4
  6
CENTER
100
AcDbLine
 10
560.1669859999998
 20
248.622538
 30
0.0
 11
560.1669859999998
 21
239.192923
 31
0.0
  0
ARC
  5
AB1E
330
AA1A
100
AcDbEntity
  8
1
  6
Continuous
100
AcDbCircle
 10
551.0085339999999
 20
240.883665
 30
0.0
 40
4.5
100
AcDbArc
 50
90.0
 51
170.9732669999999
  0
ARC
  5
AB1F
330
AA1A
100
AcDbEntity
  8
1
  6
Continuous
100
AcDbCircle
 10
549.7894719999997
 20
239.583665
 30
0.0
 40
3.5
100
AcDbArc
 50
90.0
 51
170.9732669999999
  0
LINE
  5
AB20
330
AA1A
100
AcDbEntity
  8
1
  6
Continuous
100
AcDbLine
 10
455.317474
 20
168.383882
 30
0.0
 11
455.317474
 21
174.383882
 31
0.0
  0
LINE
  5
AB21
330
AA1A
100
AcDbEntity
  8
1
  6
Continuous
100
AcDbLine
 10
493.0174739999998
 20
168.383882
 30
0.0
 11
493.0174739999998
 21
174.383882
 31
0.0
  0
LINE
  5
AB22
330
AA1A
100
AcDbEntity
  8
4
  6
CENTER
100
AcDbLine
 10
474.167474
 20
147.3098919999999
 30
0.0
 11
474.167474
 21
249.227027
 31
0.0
  0
LINE
  5
AB23
330
AA1A
100
AcDbEntity
  8
1
  6
Continuous
100
AcDbLine
 10
455.317474
 20
168.383882
 30
0.0
 11
493.0174739999998
 21
168.383882
 31
0.0
  0
LINE
  5
AB24
330
AA1A
100
AcDbEntity
  8
1
  6
Continuous
100
AcDbLine
 10
491.417483
 20
168.383882
 30
0.0
 11
491.417483
 21
164.383882
 31
0.0
  0
LINE
  5
AB25
330
AA1A
100
AcDbEntity
  8
1
  6
Continuous
100
AcDbLine
 10
456.9174799999998
 20
168.383882
 30
0.0
 11
456.9174799999998
 21
164.383882
 31
0.0
  0
LINE
  5
AB26
330
AA1A
100
AcDbEntity
  8
1
  6
Continuous
100
AcDbLine
 10
484.167474
 20
239.083789
 30
0.0
 11
484.167474
 21
213.0837909999999
 31
0.0
  0
LINE
  5
AB27
330
AA1A
100
AcDbEntity
  8
1
  6
Continuous
100
AcDbLine
 10
464.167474
 20
239.083789
 30
0.0
 11
464.167474
 21
213.0837909999999
 31
0.0
  0
LINE
  5
AB28
330
AA1A
100
AcDbEntity
  8
1
  6
Continuous
100
AcDbLine
 10
491.6476829999998
 20
242.2136169999999
 30
0.0
 11
507.8593839999999
 21
189.810396
 31
0.0
  0
LINE
  5
AB29
330
AA1A
100
AcDbEntity
  8
5
  6
PHANTOM
100
AcDbLine
 10
457.817642
 20
191.8838819999998
 30
0.0
 11
490.5174739999998
 21
191.8838819999998
 31
0.0
  0
LINE
  5
AB2A
330
AA1A
100
AcDbEntity
  8
5
  6
PHANTOM
100
AcDbLine
 10
456.9174799999998
 20
179.3838819999998
 30
0.0
 11
491.417483
 21
179.3838819999998
 31
0.0
  0
LINE
  5
AB2B
330
AA1A
100
AcDbEntity
  8
5
  6
PHANTOM
100
AcDbLine
 10
455.317474
 20
183.383882
 30
0.0
 11
493.0174739999998
 21
183.383882
 31
0.0
  0
LINE
  5
AB2C
330
AA1A
100
AcDbEntity
  8
1
  6
Continuous
100
AcDbLine
 10
464.3527919999998
 20
184.883882
 30
0.0
 11
483.9827049999998
 21
184.883882
 31
0.0
  0
ARC
  5
AB2D
330
AA1A
100
AcDbEntity
  8
1
  6
Continuous
100
AcDbCircle
 10
481.52897
 20
181.5556959999999
 30
0.0
 40
3.671864999999998
100
AcDbArc
 50
228.0675349999999
 51
311.9324649999999
  0
LINE
  5
AB2E
330
AA1A
100
AcDbEntity
  8
1
  6
Continuous
100
AcDbLine
 10
463.667474
 20
177.8838819999998
 30
0.0
 11
484.667474
 21
177.8838819999998
 31
0.0
  0
LINE
  5
AB2F
330
AA1A
100
AcDbEntity
  8
1
  6
Continuous
100
AcDbLine
 10
457.817642
 20
176.883882
 30
0.0
 11
490.5174739999998
 21
176.883882
 31
0.0
  0
LINE
  5
AB30
330
AA1A
100
AcDbEntity
  8
1
  6
Continuous
100
AcDbLine
 10
464.167474
 20
213.0837909999999
 30
0.0
 11
484.167474
 21
213.0837909999999
 31
0.0
  0
LINE
  5
AB31
330
AA1A
100
AcDbEntity
  8
1
  6
Continuous
100
AcDbLine
 10
467.167474
 20
203.083795
 30
0.0
 11
481.1674739999999
 21
203.083795
 31
0.0
  0
ARC
  5
AB32
330
AA1A
100
AcDbEntity
  8
5
  6
PHANTOM
100
AcDbCircle
 10
490.5174739999998
 20
189.383882
 30
0.0
 40
2.5
100
AcDbArc
 50
0.0
 51
90.0
  0
LINE
  5
AB33
330
AA1A
100
AcDbEntity
  8
5
  6
PHANTOM
100
AcDbLine
 10
491.417483
 20
183.383882
 30
0.0
 11
491.417483
 21
179.3838819999998
 31
0.0
  0
LINE
  5
AB34
330
AA1A
100
AcDbEntity
  8
5
  6
PHANTOM
100
AcDbLine
 10
493.0174739999998
 20
183.383882
 30
0.0
 11
493.0174739999998
 21
189.383882
 31
0.0
  0
LINE
  5
AB35
330
AA1A
100
AcDbEntity
  8
1
  6
Continuous
100
AcDbLine
 10
483.9827049999998
 20
184.883882
 30
0.0
 11
483.9827049999998
 21
178.8240669999999
 31
0.0
  0
LINE
  5
AB36
330
AA1A
100
AcDbEntity
  8
1
  6
Continuous
100
AcDbLine
 10
484.667474
 20
176.883882
 30
0.0
 11
484.667474
 21
177.8838819999998
 31
0.0
  0
ARC
  5
AB37
330
AA1A
100
AcDbEntity
  8
1
  6
Continuous
100
AcDbCircle
 10
490.5174739999998
 20
174.383882
 30
0.0
 40
2.5
100
AcDbArc
 50
0.0
 51
90.0
  0
LINE
  5
AB38
330
AA1A
100
AcDbEntity
  8
1
  6
Continuous
100
AcDbLine
 10
484.167474
 20
213.0837909999999
 30
0.0
 11
481.1674739999999
 21
203.083795
 31
0.0
  0
ARC
  5
AB39
330
AA1A
100
AcDbEntity
  8
5
  6
PHANTOM
100
AcDbCircle
 10
457.817474
 20
189.383882
 30
0.0
 40
2.5
100
AcDbArc
 50
90.0
 51
180.0
  0
LINE
  5
AB3A
330
AA1A
100
AcDbEntity
  8
1
  6
Continuous
100
AcDbLine
 10
469.167474
 20
203.083795
 30
0.0
 11
469.167474
 21
184.883882
 31
0.0
  0
LINE
  5
AB3B
330
AA1A
100
AcDbEntity
  8
2
  6
Continuous
100
AcDbLine
 10
469.9794739999998
 20
187.883882
 30
0.0
 11
469.9794739999998
 21
203.083795
 31
0.0
  0
LINE
  5
AB3C
330
AA1A
100
AcDbEntity
  8
1
  6
Continuous
100
AcDbLine
 10
479.167474
 20
203.083795
 30
0.0
 11
479.167474
 21
184.883882
 31
0.0
  0
LINE
  5
AB3D
330
AA1A
100
AcDbEntity
  8
2
  6
Continuous
100
AcDbLine
 10
478.355474
 20
187.883882
 30
0.0
 11
478.355474
 21
203.083795
 31
0.0
  0
LINE
  5
AB3E
330
AA1A
100
AcDbEntity
  8
1
  6
Continuous
100
AcDbLine
 10
469.260278
 20
178.8240669999999
 30
0.0
 11
469.260278
 21
184.883882
 31
0.0
  0
LINE
  5
AB3F
330
AA1A
100
AcDbEntity
  8
1
  6
Continuous
100
AcDbLine
 10
464.3527919999998
 20
184.883882
 30
0.0
 11
464.3527919999998
 21
178.8240669999999
 31
0.0
  0
LINE
  5
AB40
330
AA1A
100
AcDbEntity
  8
2
  6
Continuous
100
AcDbLine
 10
469.167474
 20
186.4774569999999
 30
0.0
 11
469.9794739999998
 21
187.883882
 31
0.0
  0
LINE
  5
AB41
330
AA1A
100
AcDbEntity
  8
1
  6
Continuous
100
AcDbLine
 10
479.0752269999998
 20
178.8240669999999
 30
0.0
 11
479.0752269999998
 21
184.883882
 31
0.0
  0
LINE
  5
AB42
330
AA1A
100
AcDbEntity
  8
2
  6
Continuous
100
AcDbLine
 10
479.167474
 20
186.4774569999999
 30
0.0
 11
478.355474
 21
187.883882
 31
0.0
  0
LINE
  5
AB43
330
AA1A
100
AcDbEntity
  8
1
  6
Continuous
100
AcDbLine
 10
469.167474
 20
187.883882
 30
0.0
 11
479.167474
 21
187.883882
 31
0.0
  0
LINE
  5
AB44
330
AA1A
100
AcDbEntity
  8
1
  6
Continuous
100
AcDbLine
 10
463.667474
 20
176.883882
 30
0.0
 11
463.667474
 21
177.8838819999998
 31
0.0
  0
ARC
  5
AB45
330
AA1A
100
AcDbEntity
  8
1
  6
Continuous
100
AcDbCircle
 10
466.8065429999998
 20
181.5556959999999
 30
0.0
 40
3.671864999999998
100
AcDbArc
 50
228.0675349999999
 51
311.9324649999999
  0
ARC
  5
AB46
330
AA1A
100
AcDbEntity
  8
1
  6
Continuous
100
AcDbCircle
 10
474.1677559999998
 20
191.1616229999999
 30
0.0
 40
13.277742
100
AcDbArc
 50
248.3089339999999
 51
291.691031
  0
LINE
  5
AB47
330
AA1A
100
AcDbEntity
  8
5
  6
PHANTOM
100
AcDbLine
 10
456.9174799999998
 20
183.383882
 30
0.0
 11
456.9174799999998
 21
179.3838819999998
 31
0.0
  0
LINE
  5
AB48
330
AA1A
100
AcDbEntity
  8
5
  6
PHANTOM
100
AcDbLine
 10
455.317474
 20
183.383882
 30
0.0
 11
455.317474
 21
189.383882
 31
0.0
  0
ARC
  5
AB49
330
AA1A
100
AcDbEntity
  8
1
  6
Continuous
100
AcDbCircle
 10
457.817474
 20
174.383882
 30
0.0
 40
2.5
100
AcDbArc
 50
90.0
 51
180.0
  0
LINE
  5
AB4A
330
AA1A
100
AcDbEntity
  8
1
  6
Continuous
100
AcDbLine
 10
464.167474
 20
213.0837909999999
 30
0.0
 11
467.167474
 21
203.083795
 31
0.0
  0
LINE
  5
AB4B
330
AA1A
100
AcDbEntity
  8
1
  6
Continuous
100
AcDbLine
 10
456.166986
 20
243.0836649999999
 30
0.0
 11
488.7976389999998
 21
243.0836649999999
 31
0.0
  0
LINE
  5
AB4C
330
AA1A
100
AcDbEntity
  8
1
  6
Continuous
100
AcDbLine
 10
462.6669859999998
 20
240.083665
 30
0.0
 11
485.666986
 21
240.083665
 31
0.0
  0
LINE
  5
AB4D
330
AA1A
100
AcDbEntity
  8
1
  6
Continuous
100
AcDbLine
 10
464.167474
 20
239.083789
 30
0.0
 11
484.167474
 21
239.083789
 31
0.0
  0
ARC
  5
AB4E
330
AA1A
100
AcDbEntity
  8
1
  6
Continuous
100
AcDbCircle
 10
485.666986
 20
243.583665
 30
0.0
 40
3.5
100
AcDbArc
 50
270.0
 51
351.527008
  0
ARC
  5
AB4F
330
AA1A
100
AcDbEntity
  8
1
  6
Continuous
100
AcDbCircle
 10
487.3487019999998
 20
240.883665
 30
0.0
 40
4.5
100
AcDbArc
 50
17.190214
 51
90.0
  0
ARC
  5
AB50
330
AA1A
100
AcDbEntity
  8
1
  6
Continuous
100
AcDbCircle
 10
488.7976389999998
 20
239.583665
 30
0.0
 40
3.5
100
AcDbArc
 50
17.190208
 51
90.0
  0
LINE
  5
AB51
330
AA1A
100
AcDbEntity
  8
1
  6
Continuous
100
AcDbLine
 10
480.667474
 20
240.083789
 30
0.0
 11
480.667474
 21
239.083789
 31
0.0
  0
LINE
  5
AB52
330
AA1A
100
AcDbEntity
  8
1
  6
Continuous
100
AcDbLine
 10
467.667474
 20
240.083789
 30
0.0
 11
467.667474
 21
239.083789
 31
0.0
  0
LINE
  5
AB53
330
AA1A
100
AcDbEntity
  8
4
  6
CENTER
100
AcDbLine
 10
464.166986
 20
249.199347
 30
0.0
 11
464.166986
 21
239.5920219999999
 31
0.0
  0
ARC
  5
AB54
330
AA1A
100
AcDbEntity
  8
1
  6
Continuous
100
AcDbCircle
 10
462.6669859999998
 20
243.583665
 30
0.0
 40
3.5
100
AcDbArc
 50
188.213211
 51
270.0
  0
LINE
  5
AB55
330
AA1A
100
AcDbEntity
  8
5
  6
PHANTOM
100
AcDbLine
 10
455.317474
 20
153.3838819999998
 30
0.0
 11
493.0174739999998
 21
153.3838819999998
 31
0.0
  0
LINE
  5
AB56
330
AA1A
100
AcDbEntity
  8
5
  6
PHANTOM
100
AcDbLine
 10
456.9174799999998
 20
149.383882
 30
0.0
 11
491.417483
 21
149.383882
 31
0.0
  0
LINE
  5
AB57
330
AA1A
100
AcDbEntity
  8
5
  6
PHANTOM
100
AcDbLine
 10
457.817642
 20
161.883882
 30
0.0
 11
490.5174739999998
 21
161.883882
 31
0.0
  0
LINE
  5
AB58
330
AA1A
100
AcDbEntity
  8
1
  6
Continuous
100
AcDbLine
 10
456.9174799999998
 20
164.383882
 30
0.0
 11
491.417483
 21
164.383882
 31
0.0
  0
LINE
  5
AB59
330
AA1A
100
AcDbEntity
  8
5
  6
PHANTOM
100
AcDbLine
 10
491.417483
 20
153.3838819999998
 30
0.0
 11
491.417483
 21
149.383882
 31
0.0
  0
LINE
  5
AB5A
330
AA1A
100
AcDbEntity
  8
5
  6
PHANTOM
100
AcDbLine
 10
493.0174739999998
 20
153.3838819999998
 30
0.0
 11
493.0174739999998
 21
159.383882
 31
0.0
  0
ARC
  5
AB5B
330
AA1A
100
AcDbEntity
  8
5
  6
PHANTOM
100
AcDbCircle
 10
490.5174739999998
 20
159.383882
 30
0.0
 40
2.5
100
AcDbArc
 50
0.0
 51
90.0
  0
LINE
  5
AB5C
330
AA1A
100
AcDbEntity
  8
5
  6
PHANTOM
100
AcDbLine
 10
455.317474
 20
153.3838819999998
 30
0.0
 11
455.317474
 21
159.383882
 31
0.0
  0
LINE
  5
AB5D
330
AA1A
100
AcDbEntity
  8
5
  6
PHANTOM
100
AcDbLine
 10
456.9174799999998
 20
153.3838819999998
 30
0.0
 11
456.9174799999998
 21
149.383882
 31
0.0
  0
ARC
  5
AB5E
330
AA1A
100
AcDbEntity
  8
5
  6
PHANTOM
100
AcDbCircle
 10
457.817474
 20
159.383882
 30
0.0
 40
2.5
100
AcDbArc
 50
90.0
 51
180.0
  0
LINE
  5
AB5F
330
AA1A
100
AcDbEntity
  8
1
  6
Continuous
100
AcDbLine
 10
370.4449159999999
 20
213.0837909999999
 30
0.0
 11
367.4449159999999
 21
203.083795
 31
0.0
  0
LINE
  5
AB60
330
AA1A
100
AcDbEntity
  8
1
  6
Continuous
100
AcDbLine
 10
350.444916
 20
213.0837909999999
 30
0.0
 11
370.4449159999999
 21
213.0837909999999
 31
0.0
  0
LINE
  5
AB61
330
AA1A
100
AcDbEntity
  8
2
  6
Continuous
100
AcDbLine
 10
364.632916
 20
187.883882
 30
0.0
 11
364.632916
 21
203.083795
 31
0.0
  0
LINE
  5
AB62
330
AA1A
100
AcDbEntity
  8
1
  6
Continuous
100
AcDbLine
 10
350.444916
 20
213.0837909999999
 30
0.0
 11
353.4449159999998
 21
203.083795
 31
0.0
  0
LINE
  5
AB63
330
AA1A
100
AcDbEntity
  8
1
  6
Continuous
100
AcDbLine
 10
365.4449159999999
 20
203.083795
 30
0.0
 11
365.4449159999999
 21
184.883882
 31
0.0
  0
LINE
  5
AB64
330
AA1A
100
AcDbEntity
  8
1
  6
Continuous
100
AcDbLine
 10
353.4449159999998
 20
203.083795
 30
0.0
 11
367.4449159999999
 21
203.083795
 31
0.0
  0
LINE
  5
AB65
330
AA1A
100
AcDbEntity
  8
2
  6
Continuous
100
AcDbLine
 10
356.2569159999998
 20
187.883882
 30
0.0
 11
356.2569159999998
 21
203.083795
 31
0.0
  0
LINE
  5
AB66
330
AA1A
100
AcDbEntity
  8
1
  6
Continuous
100
AcDbLine
 10
355.4449159999998
 20
203.083795
 30
0.0
 11
355.4449159999998
 21
184.883882
 31
0.0
  0
LINE
  5
AB67
330
AA1A
100
AcDbEntity
  8
1
  6
Continuous
100
AcDbLine
 10
349.9445539999999
 20
177.8838819999998
 30
0.0
 11
370.9445539999999
 21
177.8838819999998
 31
0.0
  0
LINE
  5
AB68
330
AA1A
100
AcDbEntity
  8
1
  6
Continuous
100
AcDbLine
 10
351.9445539999999
 20
184.883882
 30
0.0
 11
368.9445539999999
 21
184.883882
 31
0.0
  0
LINE
  5
AB69
330
AA1A
100
AcDbEntity
  8
1
  6
Continuous
100
AcDbLine
 10
355.4449159999998
 20
187.883882
 30
0.0
 11
365.4449159999999
 21
187.883882
 31
0.0
  0
LINE
  5
AB6A
330
AA1A
100
AcDbEntity
  8
2
  6
Continuous
100
AcDbLine
 10
365.4449159999999
 20
186.4774569999999
 30
0.0
 11
364.632916
 21
187.883882
 31
0.0
  0
LINE
  5
AB6B
330
AA1A
100
AcDbEntity
  8
1
  6
Continuous
100
AcDbLine
 10
360.4445539999999
 20
178.8240669999999
 30
0.0
 11
360.4445539999999
 21
184.883882
 31
0.0
  0
LINE
  5
AB6C
330
AA1A
100
AcDbEntity
  8
2
  6
Continuous
100
AcDbLine
 10
355.4449159999998
 20
186.4774569999999
 30
0.0
 11
356.2569159999998
 21
187.883882
 31
0.0
  0
ARC
  5
AB6D
330
AA1A
100
AcDbEntity
  8
1
  6
Continuous
100
AcDbCircle
 10
381.594558
 20
240.7836649999999
 30
0.0
 40
4.599999999999997
100
AcDbArc
 50
356.913143
 51
29.99998599999998
  0
ARC
  5
AB6E
330
AA1A
100
AcDbEntity
  8
1
  6
Continuous
100
AcDbCircle
 10
381.594558
 20
240.7836649999999
 30
0.0
 40
2.299999999999998
100
AcDbArc
 50
356.913143
 51
89.94657099999995
  0
LINE
  5
AB6F
330
AA1A
100
AcDbEntity
  8
1
  6
Continuous
100
AcDbLine
 10
383.895392
 20
240.8456149999999
 30
0.0
 11
382.537484
 21
190.4489919999998
 31
0.0
  0
ARC
  5
AB70
330
AA1A
100
AcDbEntity
  8
1
  6
Continuous
100
AcDbCircle
 10
377.5392979999999
 20
190.5836649999999
 30
0.0
 40
5.0
100
AcDbArc
 50
270.0
 51
358.456571
  0
LINE
  5
AB71
330
AA1A
100
AcDbEntity
  8
1
  6
Continuous
100
AcDbLine
 10
336.993716
 20
240.8456149999999
 30
0.0
 11
338.351624
 21
190.4489919999998
 31
0.0
  0
LINE
  5
AB72
330
AA1A
100
AcDbEntity
  8
1
  6
Continuous
100
AcDbLine
 10
334.6945499999999
 20
240.7836649999999
 30
0.0
 11
336.052545
 21
190.3838249999998
 31
0.0
  0
ARC
  5
AB73
330
AA1A
100
AcDbEntity
  8
1
  6
Continuous
100
AcDbCircle
 10
339.29455
 20
240.7836649999999
 30
0.0
 40
2.299999999999998
100
AcDbArc
 50
90.05342899999996
 51
183.0868569999999
  0
ARC
  5
AB74
330
AA1A
100
AcDbEntity
  8
1
  6
Continuous
100
AcDbCircle
 10
339.29455
 20
240.7836649999999
 30
0.0
 40
4.599999999999997
100
AcDbArc
 50
150.000014
 51
183.0868569999999
  0
ARC
  5
AB75
330
AA1A
100
AcDbEntity
  8
1
  6
Continuous
100
AcDbCircle
 10
341.0485509999999
 20
190.5836649999999
 30
0.0
 40
5.0
100
AcDbArc
 50
182.290588
 51
270.0
  0
ARC
  5
AB76
330
AA1A
100
AcDbEntity
  8
1
  6
Continuous
100
AcDbCircle
 10
343.3498099999998
 20
190.5836649999999
 30
0.0
 40
5.0
100
AcDbArc
 50
181.5434289999998
 51
270.0
  0
LINE
  5
AB77
330
AA1A
100
AcDbEntity
  8
1
  6
Continuous
100
AcDbLine
 10
341.0485509999999
 20
185.583665
 30
0.0
 11
344.9945539999998
 21
185.583665
 31
0.0
  0
ARC
  5
AB78
330
AA1A
100
AcDbEntity
  8
1
  6
Continuous
100
AcDbCircle
 10
78.15000000000002
 20
240.7836649999999
 30
0.0
 40
4.599999999999997
100
AcDbArc
 50
356.913143
 51
29.99998599999998
  0
LINE
  5
AB79
330
AA1A
100
AcDbEntity
  8
1
  6
Continuous
100
AcDbLine
 10
31.24999199999999
 20
240.7836649999999
 30
0.0
 11
32.607987
 21
190.3838249999998
 31
0.0
  0
LINE
  5
AB7A
330
AA1A
100
AcDbEntity
  8
1
  6
Continuous
100
AcDbLine
 10
82.75
 20
240.7836649999999
 30
0.0
 11
81.39200500000002
 21
190.3838249999998
 31
0.0
  0
ARC
  5
AB7B
330
AA1A
100
AcDbEntity
  8
1
  6
Continuous
100
AcDbCircle
 10
37.603993
 20
190.5836649999999
 30
0.0
 40
5.0
100
AcDbArc
 50
182.290588
 51
270.0
  0
ARC
  5
AB7C
330
AA1A
100
AcDbEntity
  8
1
  6
Continuous
100
AcDbCircle
 10
76.395999
 20
190.5836649999999
 30
0.0
 40
5.0
100
AcDbArc
 50
270.0
 51
357.710446
  0
ARC
  5
AB7D
330
AA1A
100
AcDbEntity
  8
1
  6
Continuous
100
AcDbCircle
 10
35.849992
 20
240.7836649999999
 30
0.0
 40
4.599999999999997
100
AcDbArc
 50
150.000014
 51
183.0868569999999
  0
LINE
  5
AB7E
330
AA1A
100
AcDbEntity
  8
1
  6
Continuous
100
AcDbLine
 10
264.722122
 20
97.000004
 30
0.0
 11
264.722122
 21
78.596655
 31
0.0
  0
LINE
  5
AB7F
330
AA1A
100
AcDbEntity
  8
4
  6
CENTER
100
AcDbLine
 10
246.722122
 20
52.000004
 30
0.0
 11
246.722122
 21
94.00000400000001
 31
0.0
  0
LINE
  5
AB80
330
AA1A
100
AcDbEntity
  8
1
  6
Continuous
100
AcDbLine
 10
152.7221219999999
 20
49.0
 30
0.0
 11
152.7221219999999
 21
97.000004
 31
0.0
  0
LINE
  5
AB81
330
AA1A
100
AcDbEntity
  8
4
  6
CENTER
100
AcDbLine
 10
194.7221219999999
 20
48.248215
 30
0.0
 11
194.7221219999999
 21
95.568226
 31
0.0
  0
LINE
  5
AB82
330
AA1A
100
AcDbEntity
  8
4
  6
CENTER
100
AcDbLine
 10
267.722122
 20
73.000004
 30
0.0
 11
149.7221219999999
 21
73.000004
 31
0.0
  0
ARC
  5
AB83
330
AA1A
100
AcDbEntity
  8
1
  6
Continuous
100
AcDbCircle
 10
194.7221219999999
 20
83.98437900000002
 30
0.0
 40
9.265625
100
AcDbArc
 50
51.64198299999998
 51
128.358017
  0
LINE
  5
AB84
330
AA1A
100
AcDbEntity
  8
1
  6
Continuous
100
AcDbLine
 10
200.4721219999999
 20
91.25000400000001
 30
0.0
 11
188.972122
 21
91.25000400000001
 31
0.0
  0
LINE
  5
AB85
330
AA1A
100
AcDbEntity
  8
1
  6
Continuous
100
AcDbLine
 10
201.7221219999999
 20
90.750004
 30
0.0
 11
187.7221219999999
 21
90.750004
 31
0.0
  0
CIRCLE
  5
AB86
330
AA1A
100
AcDbEntity
  8
1
  6
Continuous
100
AcDbCircle
 10
160.7221219999999
 20
97.000004
 30
0.0
 40
4.25
  0
ARC
  5
AB87
330
AA1A
100
AcDbEntity
  8
1
  6
Continuous
100
AcDbCircle
 10
160.7221219999999
 20
97.000004
 30
0.0
 40
8.0
100
AcDbArc
 50
0.0
 51
180.0
  0
LINE
  5
AB88
330
AA1A
100
AcDbEntity
  8
4
  6
CENTER
100
AcDbLine
 10
167.9721219999999
 20
97.000004
 30
0.0
 11
153.4721219999999
 21
97.000004
 31
0.0
  0
LINE
  5
AB89
330
AA1A
100
AcDbEntity
  8
4
  6
CENTER
100
AcDbLine
 10
160.7221219999999
 20
89.750004
 30
0.0
 11
160.7221219999999
 21
104.2500039999999
 31
0.0
  0
ARC
  5
AB8A
330
AA1A
100
AcDbEntity
  8
1
  6
Continuous
100
AcDbCircle
 10
173.510735
 20
84.39761
 30
0.0
 40
12.5
100
AcDbArc
 50
43.21502699999999
 51
77.472336
  0
LINE
  5
AB8B
330
AA1A
100
AcDbEntity
  8
1
  6
Continuous
100
AcDbLine
 10
168.7221219999998
 20
90.500004
 30
0.0
 11
168.7221219999998
 21
97.000004
 31
0.0
  0
LINE
  5
AB8C
330
AA1A
100
AcDbEntity
  8
1
  6
Continuous
100
AcDbLine
 10
176.2221219999999
 20
96.600003
 30
0.0
 11
173.5582389999999
 21
89.60974499999997
 31
0.0
  0
ARC
  5
AB8D
330
AA1A
100
AcDbEntity
  8
1
  6
Continuous
100
AcDbCircle
 10
171.2221219999999
 20
90.500004
 30
0.0
 40
2.5
100
AcDbArc
 50
180.0
 51
339.1389009999999
  0
ARC
  5
AB8E
330
AA1A
100
AcDbEntity
  8
1
  6
Continuous
100
AcDbCircle
 10
187.7221219999999
 20
97.75000400000001
 30
0.0
 40
7.0
100
AcDbArc
 50
223.2150269999999
 51
270.0
  0
LINE
  5
AB8F
330
AA1A
100
AcDbEntity
  8
1
  6
Continuous
100
AcDbLine
 10
188.972122
 20
90.750004
 30
0.0
 11
188.972122
 21
91.25000400000001
 31
0.0
  0
ARC
  5
AB90
330
AA1A
100
AcDbEntity
  8
1
  6
Continuous
100
AcDbCircle
 10
256.7221219999999
 20
97.000004
 30
0.0
 40
8.0
100
AcDbArc
 50
0.0
 51
159.894505
  0
LINE
  5
AB91
330
AA1A
100
AcDbEntity
  8
4
  6
CENTER
100
AcDbLine
 10
263.972122
 20
97.000004
 30
0.0
 11
249.472122
 21
97.000004
 31
0.0
  0
CIRCLE
  5
AB92
330
AA1A
100
AcDbEntity
  8
1
  6
Continuous
100
AcDbCircle
 10
256.7221219999999
 20
97.000004
 30
0.0
 40
4.25
  0
LINE
  5
AB93
330
AA1A
100
AcDbEntity
  8
1
  6
Continuous
100
AcDbLine
 10
228.222122
 20
98.75000400000001
 30
0.0
 11
213.264519
 21
96.323109
 31
0.0
  0
ARC
  5
AB94
330
AA1A
100
AcDbEntity
  8
1
  6
Continuous
100
AcDbCircle
 10
214.8660889999999
 20
86.452191
 30
0.0
 40
10.0
100
AcDbArc
 50
99.216011
 51
136.904865
  0
LINE
  5
AB95
330
AA1A
100
AcDbEntity
  8
1
  6
Continuous
100
AcDbLine
 10
200.4721219999999
 20
91.25000400000001
 30
0.0
 11
200.4721219999999
 21
90.750004
 31
0.0
  0
ARC
  5
AB96
330
AA1A
100
AcDbEntity
  8
1
  6
Continuous
100
AcDbCircle
 10
201.7221219999999
 20
98.75000400000001
 30
0.0
 40
8.0
100
AcDbArc
 50
270.0
 51
316.9048609999999
  0
ARC
  5
AB97
330
AA1A
100
AcDbEntity
  8
1
  6
Continuous
100
AcDbCircle
 10
245.9859929999999
 20
59.88011199999998
 30
0.0
 40
40.0
100
AcDbArc
 50
85.37747199999998
 51
111.214424
  0
ARC
  5
AB98
330
AA1A
100
AcDbEntity
  8
1
  6
Continuous
100
AcDbCircle
 10
230.6069719999999
 20
99.500004
 30
0.0
 40
2.5
100
AcDbArc
 50
197.457611
 51
291.2144319999999
  0
LINE
  5
AB99
330
AA1A
100
AcDbEntity
  8
4
  6
CENTER
100
AcDbLine
 10
256.7221219999999
 20
89.750004
 30
0.0
 11
256.7221219999999
 21
104.2500039999999
 31
0.0
  0
ARC
  5
AB9A
330
AA1A
100
AcDbEntity
  8
1
  6
Continuous
100
AcDbCircle
 10
194.7221219999999
 20
61.750004
 30
0.0
 40
10.5
100
AcDbArc
 50
236.796173
 51
303.203827
  0
LINE
  5
AB9B
330
AA1A
100
AcDbEntity
  8
1
  6
Continuous
100
AcDbLine
 10
200.4721219999999
 20
52.96435999999999
 30
0.0
 11
188.972122
 21
52.96435999999999
 31
0.0
  0
LINE
  5
AB9C
330
AA1A
100
AcDbEntity
  8
1
  6
Continuous
100
AcDbLine
 10
201.7221219999999
 20
55.25000399999999
 30
0.0
 11
187.7221219999999
 21
55.25000399999999
 31
0.0
  0
LINE
  5
AB9D
330
AA1A
100
AcDbEntity
  8
4
  6
CENTER
100
AcDbLine
 10
167.9721219999999
 20
49.0
 30
0.0
 11
153.4721219999999
 21
49.0
 31
0.0
  0
CIRCLE
  5
AB9E
330
AA1A
100
AcDbEntity
  8
1
  6
Continuous
100
AcDbCircle
 10
160.7221219999999
 20
49.0
 30
0.0
 40
4.25
  0
ARC
  5
AB9F
330
AA1A
100
AcDbEntity
  8
1
  6
Continuous
100
AcDbCircle
 10
160.7221219999999
 20
49.0
 30
0.0
 40
8.0
100
AcDbArc
 50
180.0
 51
0.0
  0
LINE
  5
ABA0
330
AA1A
100
AcDbEntity
  8
4
  6
CENTER
100
AcDbLine
 10
160.7221219999999
 20
41.74999999999999
 30
0.0
 11
160.7221219999999
 21
56.25
 31
0.0
  0
ARC
  5
ABA1
330
AA1A
100
AcDbEntity
  8
1
  6
Continuous
100
AcDbCircle
 10
173.510727
 20
61.602394
 30
0.0
 40
12.5
100
AcDbArc
 50
282.52771
 51
316.7849879999999
  0
LINE
  5
ABA2
330
AA1A
100
AcDbEntity
  8
1
  6
Continuous
100
AcDbLine
 10
168.7221219999998
 20
49.0
 30
0.0
 11
168.7221219999998
 21
55.500004
 31
0.0
  0
LINE
  5
ABA3
330
AA1A
100
AcDbEntity
  8
1
  6
Continuous
100
AcDbLine
 10
176.2221219999999
 20
49.400002
 30
0.0
 11
173.5582389999999
 21
56.390263
 31
0.0
  0
ARC
  5
ABA4
330
AA1A
100
AcDbEntity
  8
1
  6
Continuous
100
AcDbCircle
 10
171.2221219999999
 20
55.500004
 30
0.0
 40
2.5
100
AcDbArc
 50
20.861084
 51
180.0
  0
ARC
  5
ABA5
330
AA1A
100
AcDbEntity
  8
1
  6
Continuous
100
AcDbCircle
 10
187.7221219999999
 20
48.250004
 30
0.0
 40
7.0
100
AcDbArc
 50
90.0
 51
136.7850039999999
  0
LINE
  5
ABA6
330
AA1A
100
AcDbEntity
  8
1
  6
Continuous
100
AcDbLine
 10
188.972122
 20
52.96435999999999
 30
0.0
 11
188.972122
 21
55.25000399999999
 31
0.0
  0
LINE
  5
ABA7
330
AA1A
100
AcDbEntity
  8
4
  6
CENTER
100
AcDbLine
 10
263.972122
 20
49.0
 30
0.0
 11
249.472122
 21
49.0
 31
0.0
  0
ARC
  5
ABA8
330
AA1A
100
AcDbEntity
  8
1
  6
Continuous
100
AcDbCircle
 10
256.7221219999999
 20
49.0
 30
0.0
 40
8.0
100
AcDbArc
 50
200.105499
 51
0.0
  0
CIRCLE
  5
ABA9
330
AA1A
100
AcDbEntity
  8
1
  6
Continuous
100
AcDbCircle
 10
256.7221219999999
 20
49.0
 30
0.0
 40
4.25
  0
LINE
  5
ABAA
330
AA1A
100
AcDbEntity
  8
1
  6
Continuous
100
AcDbLine
 10
228.222122
 20
47.25
 30
0.0
 11
213.264519
 21
49.67689899999999
 31
0.0
  0
ARC
  5
ABAB
330
AA1A
100
AcDbEntity
  8
1
  6
Continuous
100
AcDbCircle
 10
214.8660889999999
 20
59.54781
 30
0.0
 40
10.0
100
AcDbArc
 50
223.0951229999998
 51
260.783997
  0
LINE
  5
ABAC
330
AA1A
100
AcDbEntity
  8
1
  6
Continuous
100
AcDbLine
 10
200.4721219999999
 20
52.96435999999999
 30
0.0
 11
200.4721219999999
 21
55.25000399999999
 31
0.0
  0
ARC
  5
ABAD
330
AA1A
100
AcDbEntity
  8
1
  6
Continuous
100
AcDbCircle
 10
201.7221219999999
 20
47.25000399999998
 30
0.0
 40
8.0
100
AcDbArc
 50
43.095123
 51
90.0
  0
LINE
  5
ABAE
330
AA1A
100
AcDbEntity
  8
4
  6
CENTER
100
AcDbLine
 10
256.7221219999999
 20
41.74999999999999
 30
0.0
 11
256.7221219999999
 21
56.25
 31
0.0
  0
ARC
  5
ABAF
330
AA1A
100
AcDbEntity
  8
1
  6
Continuous
100
AcDbCircle
 10
245.9860079999999
 20
86.11989200000001
 30
0.0
 40
40.0
100
AcDbArc
 50
248.785553
 51
274.6225279999998
  0
ARC
  5
ABB0
330
AA1A
100
AcDbEntity
  8
1
  6
Continuous
100
AcDbCircle
 10
230.6069719999999
 20
46.50000399999998
 30
0.0
 40
2.5
100
AcDbArc
 50
68.785561
 51
162.542488
  0
CIRCLE
  5
ABB1
330
AA1A
100
AcDbEntity
  8
1
  6
Continuous
100
AcDbCircle
 10
246.722122
 20
73.000004
 30
0.0
 40
18.85
  0
LINE
  5
ABB2
330
AA1A
100
AcDbEntity
  8
1
  6
Continuous
100
AcDbLine
 10
264.722122
 20
67.40335300000001
 30
0.0
 11
264.722122
 21
49.0
 31
0.0
  0
CIRCLE
  5
ABB3
330
AA1A
100
AcDbEntity
  8
1
  6
Continuous
100
AcDbCircle
 10
246.722122
 20
73.000004
 30
0.0
 40
17.25
  0
LINE
  5
ABB4
330
AA1A
100
AcDbEntity
  8
1
  6
Continuous
100
AcDbLine
 10
245.613783
 20
73.49279
 30
0.0
 11
245.0063169999999
 21
74.12183899999998
 31
0.0
  0
LINE
  5
ABB5
330
AA1A
100
AcDbEntity
  8
1
  6
Continuous
100
AcDbLine
 10
247.8304609999999
 20
73.49279
 30
0.0
 11
248.437927
 21
74.12183899999998
 31
0.0
  0
LINE
  5
ABB6
330
AA1A
100
AcDbEntity
  8
1
  6
Continuous
100
AcDbLine
 10
246.722122
 20
73.92898399999999
 30
0.0
 11
247.214908
 21
74.10834300000002
 31
0.0
  0
LINE
  5
ABB7
330
AA1A
100
AcDbEntity
  8
1
  6
Continuous
100
AcDbLine
 10
246.722122
 20
73.92898399999999
 30
0.0
 11
246.2293359999999
 21
74.10834300000002
 31
0.0
  0
ARC
  5
ABB8
330
AA1A
100
AcDbEntity
  8
1
  6
Continuous
100
AcDbCircle
 10
246.722122
 20
73.000004
 30
0.0
 40
4.5
100
AcDbArc
 50
320.433944
 51
219.565993
  0
CIRCLE
  5
ABB9
330
AA1A
100
AcDbEntity
  8
1
  6
Continuous
100
AcDbCircle
 10
246.722122
 20
73.000004
 30
0.0
 40
3.5
  0
LINE
  5
ABBA
330
AA1A
100
AcDbEntity
  8
1
  6
Continuous
100
AcDbLine
 10
240.722122
 20
79.000004
 30
0.0
 11
240.722122
 21
73.000004
 31
0.0
  0
LINE
  5
ABBB
330
AA1A
100
AcDbEntity
  8
1
  6
Continuous
100
AcDbLine
 10
252.722122
 20
79.000004
 30
0.0
 11
252.722122
 21
73.000004
 31
0.0
  0
LINE
  5
ABBC
330
AA1A
100
AcDbEntity
  8
1
  6
Continuous
100
AcDbLine
 10
246.722122
 20
72.07102399999998
 30
0.0
 11
246.2293359999999
 21
71.891665
 31
0.0
  0
ARC
  5
ABBD
330
AA1A
100
AcDbEntity
  8
1
  6
Continuous
100
AcDbCircle
 10
246.722122
 20
73.000004
 30
0.0
 40
6.0
100
AcDbArc
 50
180.0
 51
0.0
  0
LINE
  5
ABBE
330
AA1A
100
AcDbEntity
  8
1
  6
Continuous
100
AcDbLine
 10
246.2293359999999
 20
71.891665
 30
0.0
 11
245.600287
 21
71.284199
 31
0.0
  0
LINE
  5
ABBF
330
AA1A
100
AcDbEntity
  8
1
  6
Continuous
100
AcDbLine
 10
245.7931419999999
 20
73.000004
 30
0.0
 11
245.613783
 21
73.49279
 31
0.0
  0
LINE
  5
ABC0
330
AA1A
100
AcDbEntity
  8
1
  6
Continuous
100
AcDbLine
 10
245.7931419999999
 20
73.000004
 30
0.0
 11
245.613783
 21
72.50721799999998
 31
0.0
  0
LINE
  5
ABC1
330
AA1A
100
AcDbEntity
  8
1
  6
Continuous
100
AcDbLine
 10
245.613783
 20
72.50721799999998
 30
0.0
 11
245.0063169999999
 21
71.878169
 31
0.0
  0
ARC
  5
ABC2
330
AA1A
100
AcDbEntity
  8
1
  6
Continuous
100
AcDbCircle
 10
246.722122
 20
73.000004
 30
0.0
 40
2.049999999999998
100
AcDbArc
 50
213.17764
 51
236.8223599999998
  0
LINE
  5
ABC3
330
AA1A
100
AcDbEntity
  8
1
  6
Continuous
100
AcDbLine
 10
243.9078819999998
 20
70.188435
 30
0.0
 11
244.1565999999999
 21
70.619227
 31
0.0
  0
ARC
  5
ABC4
330
AA1A
100
AcDbEntity
  8
1
  6
Continuous
100
AcDbCircle
 10
243.561468
 20
70.38843900000002
 30
0.0
 40
0.4
100
AcDbArc
 50
219.5661739999999
 51
330.0000849999999
  0
LINE
  5
ABC5
330
AA1A
100
AcDbEntity
  8
1
  6
Continuous
100
AcDbLine
 10
247.214908
 20
71.891665
 30
0.0
 11
247.8439569999999
 21
71.284199
 31
0.0
  0
LINE
  5
ABC6
330
AA1A
100
AcDbEntity
  8
1
  6
Continuous
100
AcDbLine
 10
246.722122
 20
72.07102399999998
 30
0.0
 11
247.214908
 21
71.891665
 31
0.0
  0
LINE
  5
ABC7
330
AA1A
100
AcDbEntity
  8
1
  6
Continuous
100
AcDbLine
 10
247.651102
 20
73.000004
 30
0.0
 11
247.8304609999999
 21
72.50721799999998
 31
0.0
  0
LINE
  5
ABC8
330
AA1A
100
AcDbEntity
  8
1
  6
Continuous
100
AcDbLine
 10
247.8304609999999
 20
72.50721799999998
 30
0.0
 11
248.437927
 21
71.878169
 31
0.0
  0
LINE
  5
ABC9
330
AA1A
100
AcDbEntity
  8
1
  6
Continuous
100
AcDbLine
 10
247.651102
 20
73.000004
 30
0.0
 11
247.8304609999999
 21
73.49279
 31
0.0
  0
ARC
  5
ABCA
330
AA1A
100
AcDbEntity
  8
1
  6
Continuous
100
AcDbCircle
 10
246.722122
 20
73.000004
 30
0.0
 40
2.049999999999998
100
AcDbArc
 50
303.17764
 51
326.82236
  0
LINE
  5
ABCB
330
AA1A
100
AcDbEntity
  8
1
  6
Continuous
100
AcDbLine
 10
249.287646
 20
70.61923
 30
0.0
 11
249.5363649999999
 21
70.188435
 31
0.0
  0
ARC
  5
ABCC
330
AA1A
100
AcDbEntity
  8
1
  6
Continuous
100
AcDbCircle
 10
249.882774
 20
70.38843900000002
 30
0.0
 40
0.4
100
AcDbArc
 50
210.0001669999998
 51
320.4339739999999
  0
ARC
  5
ABCD
330
AA1A
100
AcDbEntity
  8
1
  6
Continuous
100
AcDbCircle
 10
246.722122
 20
79.000004
 30
0.0
 40
6.0
100
AcDbArc
 50
0.0
 51
180.0
  0
LINE
  5
ABCE
330
AA1A
100
AcDbEntity
  8
1
  6
Continuous
100
AcDbLine
 10
246.2293359999999
 20
74.10834300000002
 30
0.0
 11
245.600287
 21
74.71580899999998
 31
0.0
  0
ARC
  5
ABCF
330
AA1A
100
AcDbEntity
  8
1
  6
Continuous
100
AcDbCircle
 10
246.722122
 20
73.000004
 30
0.0
 40
2.049999999999998
100
AcDbArc
 50
123.1776399999999
 51
146.8223599999998
  0
LINE
  5
ABD0
330
AA1A
100
AcDbEntity
  8
1
  6
Continuous
100
AcDbLine
 10
247.214908
 20
74.10834300000002
 30
0.0
 11
247.8439569999999
 21
74.71580899999998
 31
0.0
  0
ARC
  5
ABD1
330
AA1A
100
AcDbEntity
  8
1
  6
Continuous
100
AcDbCircle
 10
246.722122
 20
73.000004
 30
0.0
 40
2.049999999999998
100
AcDbArc
 50
33.17763999999999
 51
56.82235999999999
  0
LINE
  5
ABD2
330
AA1A
100
AcDbEntity
  8
1
  6
Continuous
100
AcDbLine
 10
201.7221219999999
 20
88.45000400000001
 30
0.0
 11
187.7221219999999
 21
88.45000400000001
 31
0.0
  0
ARC
  5
ABD3
330
AA1A
100
AcDbEntity
  8
1
  6
Continuous
100
AcDbCircle
 10
201.7221219999999
 20
98.75000400000001
 30
0.0
 40
10.3
100
AcDbArc
 50
270.0
 51
316.9048609999999
  0
ARC
  5
ABD4
330
AA1A
100
AcDbEntity
  8
1
  6
Continuous
100
AcDbCircle
 10
214.8660889999999
 20
86.452191
 30
0.0
 40
7.7
100
AcDbArc
 50
99.216011
 51
136.904865
  0
LINE
  5
ABD5
330
AA1A
100
AcDbEntity
  8
1
  6
Continuous
100
AcDbLine
 10
231.1594589999999
 20
97.061816
 30
0.0
 11
213.632881
 21
94.052798
 31
0.0
  0
ARC
  5
ABD6
330
AA1A
100
AcDbEntity
  8
1
  6
Continuous
100
AcDbCircle
 10
187.7221219999999
 20
97.75000400000001
 30
0.0
 40
9.3
100
AcDbArc
 50
223.2150269999999
 51
270.0
  0
ARC
  5
ABD7
330
AA1A
100
AcDbEntity
  8
1
  6
Continuous
100
AcDbCircle
 10
173.510735
 20
84.39761
 30
0.0
 40
10.2
100
AcDbArc
 50
43.21502699999999
 51
79.36975799999998
  0
LINE
  5
ABD8
330
AA1A
100
AcDbEntity
  8
1
  6
Continuous
100
AcDbLine
 10
231.1594589999999
 20
48.938192
 30
0.0
 11
213.632881
 21
51.94721
 31
0.0
  0
ARC
  5
ABD9
330
AA1A
100
AcDbEntity
  8
1
  6
Continuous
100
AcDbCircle
 10
214.8660889999999
 20
59.547817
 30
0.0
 40
7.7
100
AcDbArc
 50
223.095135
 51
260.783989
  0
ARC
  5
ABDA
330
AA1A
100
AcDbEntity
  8
1
  6
Continuous
100
AcDbCircle
 10
201.7221219999999
 20
47.25000399999998
 30
0.0
 40
10.3
100
AcDbArc
 50
43.095139
 51
90.0
  0
LINE
  5
ABDB
330
AA1A
100
AcDbEntity
  8
1
  6
Continuous
100
AcDbLine
 10
201.7221219999999
 20
57.550004
 30
0.0
 11
187.7221219999999
 21
57.550004
 31
0.0
  0
ARC
  5
ABDC
330
AA1A
100
AcDbEntity
  8
1
  6
Continuous
100
AcDbCircle
 10
187.7221219999999
 20
48.250004
 30
0.0
 40
9.3
100
AcDbArc
 50
90.0
 51
136.784973
  0
ARC
  5
ABDD
330
AA1A
100
AcDbEntity
  8
1
  6
Continuous
100
AcDbCircle
 10
173.510735
 20
61.602398
 30
0.0
 40
10.2
100
AcDbArc
 50
280.630242
 51
316.7849729999999
  0
LINE
  5
ABDE
330
AA1A
100
AcDbEntity
  8
1
  6
Continuous
100
AcDbLine
 10
368.9445539999999
 20
177.8838819999998
 30
0.0
 11
368.9445539999999
 21
184.883882
 31
0.0
  0
LINE
  5
ABDF
330
AA1A
100
AcDbEntity
  8
1
  6
Continuous
100
AcDbLine
 10
351.9445539999999
 20
177.8838819999998
 30
0.0
 11
351.9445539999999
 21
184.883882
 31
0.0
  0
ARC
  5
ABE0
330
AA1A
100
AcDbEntity
  8
1
  6
Continuous
100
AcDbCircle
 10
356.1945539999999
 20
187.959797
 30
0.0
 40
10.07591499999999
100
AcDbArc
 50
245.051849
 51
294.948151
  0
ARC
  5
ABE1
330
AA1A
100
AcDbEntity
  8
1
  6
Continuous
100
AcDbCircle
 10
364.6945539999999
 20
187.959797
 30
0.0
 40
10.07591499999999
100
AcDbArc
 50
245.051849
 51
294.948151
  0
LINE
  5
ABE2
330
AA1A
100
AcDbEntity
  8
1
  6
Continuous
100
AcDbLine
 10
200.4721219999999
 20
319.48887
 30
0.0
 11
188.972122
 21
319.48887
 31
0.0
  0
ARC
  5
ABE3
330
AA1A
100
AcDbEntity
  8
1
  6
Continuous
100
AcDbCircle
 10
194.7221219999999
 20
326.754495
 30
0.0
 40
9.265625
100
AcDbArc
 50
231.641983
 51
308.358017
  0
LINE
  5
ABE4
330
AA1A
100
AcDbEntity
  8
1
  6
Continuous
100
AcDbLine
 10
188.972122
 20
319.98887
 30
0.0
 11
188.972122
 21
319.48887
 31
0.0
  0
LINE
  5
ABE5
330
AA1A
100
AcDbEntity
  8
1
  6
Continuous
100
AcDbLine
 10
200.4721219999999
 20
319.48887
 30
0.0
 11
200.4721219999999
 21
319.98887
 31
0.0
  0
LINE
  5
ABE6
330
AA1A
100
AcDbEntity
  8
1
  6
Continuous
100
AcDbLine
 10
80.588142
 20
227.73822
 30
0.0
 11
79.38921899999998
 21
188.9754629999999
 31
0.0
  0
LINE
  5
ABE7
330
AA1A
100
AcDbEntity
  8
1
  6
Continuous
100
AcDbLine
 10
78.289241
 20
227.809324
 30
0.0
 11
77.10310600000003
 21
189.460005
 31
0.0
  0
ARC
  5
ABE8
330
AA1A
100
AcDbEntity
  8
1
  6
Continuous
100
AcDbCircle
 10
73.105018
 20
189.5836649999999
 30
0.0
 40
4.0
100
AcDbArc
 50
270.0
 51
358.2284200000001
  0
ARC
  5
ABE9
330
AA1A
100
AcDbEntity
  8
1
  6
Continuous
100
AcDbCircle
 10
58.19999499999997
 20
228.504911
 30
0.0
 40
22.5
100
AcDbArc
 50
139.61319
 51
181.7886629999998
  0
ARC
  5
ABEA
330
AA1A
100
AcDbEntity
  8
1
  6
Continuous
100
AcDbCircle
 10
58.19999499999997
 20
228.504911
 30
0.0
 40
24.799999
100
AcDbArc
 50
143.995209
 51
181.77158
  0
LINE
  5
ABEB
330
AA1A
100
AcDbEntity
  8
1
  6
Continuous
100
AcDbLine
 10
33.41185
 20
227.73822
 30
0.0
 11
34.61077299999999
 21
188.9754629999999
 31
0.0
  0
LINE
  5
ABEC
330
AA1A
100
AcDbEntity
  8
1
  6
Continuous
100
AcDbLine
 10
35.710751
 20
227.809324
 30
0.0
 11
36.896886
 21
189.460005
 31
0.0
  0
ARC
  5
ABED
330
AA1A
100
AcDbEntity
  8
1
  6
Continuous
100
AcDbCircle
 10
40.89497399999999
 20
189.5836649999999
 30
0.0
 40
4.0
100
AcDbArc
 50
181.77158
 51
270.0
  0
ARC
  5
ABEE
330
AA1A
100
AcDbEntity
  8
1
  6
Continuous
100
AcDbCircle
 10
38.10909999999999
 20
189.0836649999999
 30
0.0
 40
3.5
100
AcDbArc
 50
181.77158
 51
270.0
  0
LINE
  5
ABEF
330
AA1A
100
AcDbEntity
  8
1
  6
Continuous
100
AcDbLine
 10
264.722122
 20
243.0836649999999
 30
0.0
 11
264.722122
 21
245.3836649999999
 31
0.0
  0
LINE
  5
ABF0
330
AA1A
100
AcDbEntity
  8
1
  6
Continuous
100
AcDbLine
 10
152.7221219999999
 20
245.3836649999999
 30
0.0
 11
152.7221219999999
 21
243.0836649999999
 31
0.0
  0
LINE
  5
ABF1
330
AA1A
100
AcDbEntity
  8
1
  6
Continuous
100
AcDbLine
 10
456.166986
 20
243.0836649999999
 30
0.0
 11
456.166986
 21
245.3836649999999
 31
0.0
  0
LINE
  5
ABF2
330
AA1A
100
AcDbEntity
  8
1
  6
Continuous
100
AcDbLine
 10
568.1669859999998
 20
245.3836649999999
 30
0.0
 11
568.1669859999998
 21
243.0836649999999
 31
0.0
  0
LINE
  5
ABF3
330
AA1A
100
AcDbEntity
  8
1
  6
Continuous
100
AcDbLine
 10
375.4445539999999
 20
188.799993
 30
0.0
 11
375.4445539999999
 21
202.967329
 31
0.0
  0
LINE
  5
ABF4
330
AA1A
100
AcDbEntity
  8
1
  6
Continuous
100
AcDbLine
 10
345.444554
 20
188.799993
 30
0.0
 11
345.444554
 21
202.967329
 31
0.0
  0
LINE
  5
ABF5
330
AA1A
100
AcDbEntity
  8
1
  6
Continuous
100
AcDbLine
 10
372.9445539999999
 20
224.673699
 30
0.0
 11
372.9445539999999
 21
176.8836609999999
 31
0.0
  0
LINE
  5
ABF6
330
AA1A
100
AcDbEntity
  8
1
  6
Continuous
100
AcDbLine
 10
347.9445539999999
 20
224.673699
 30
0.0
 11
347.9445539999999
 21
176.8836609999999
 31
0.0
  0
ARC
  5
ABF7
330
AA1A
100
AcDbEntity
  8
1
  6
Continuous
100
AcDbCircle
 10
346.4445539999999
 20
188.799993
 30
0.0
 40
1.0
100
AcDbArc
 50
180.0
 51
264.999969
  0
LINE
  5
ABF8
330
AA1A
100
AcDbEntity
  8
1
  6
Continuous
100
AcDbLine
 10
346.3573970000001
 20
187.803796
 30
0.0
 11
347.9445539999999
 21
187.664937
 31
0.0
  0
LINE
  5
ABF9
330
AA1A
100
AcDbEntity
  8
1
  6
Continuous
100
AcDbLine
 10
344.9945539999998
 20
190.1336609999999
 30
0.0
 11
345.444554
 21
190.1336609999999
 31
0.0
  0
ARC
  5
ABFA
330
AA1A
100
AcDbEntity
  8
1
  6
Continuous
100
AcDbCircle
 10
374.444554
 20
188.799993
 30
0.0
 40
1.0
100
AcDbArc
 50
275.0000309999999
 51
0.0
  0
LINE
  5
ABFB
330
AA1A
100
AcDbEntity
  8
1
  6
Continuous
100
AcDbLine
 10
374.531712
 20
187.803796
 30
0.0
 11
372.9445539999999
 21
187.664937
 31
0.0
  0
LINE
  5
ABFC
330
AA1A
100
AcDbEntity
  8
1
  6
Continuous
100
AcDbLine
 10
375.4445539999999
 20
190.1336609999999
 30
0.0
 11
375.894554
 21
190.1336609999999
 31
0.0
  0
ARC
  5
ABFD
330
AA1A
100
AcDbEntity
  8
1
  6
Continuous
100
AcDbCircle
 10
360.4445539999999
 20
147.383661
 30
0.0
 40
80.0
100
AcDbArc
 50
82.26361999999998
 51
82.81898299999998
  0
ARC
  5
ABFE
330
AA1A
100
AcDbEntity
  8
1
  6
Continuous
100
AcDbCircle
 10
346.4445539999999
 20
202.967329
 30
0.0
 40
1.0
100
AcDbArc
 50
95.00003799999999
 51
180.0
  0
LINE
  5
ABFF
330
AA1A
100
AcDbEntity
  8
1
  6
Continuous
100
AcDbLine
 10
344.9945539999998
 20
201.6336609999999
 30
0.0
 11
345.444554
 21
201.6336609999999
 31
0.0
  0
LINE
  5
AC00
330
AA1A
100
AcDbEntity
  8
1
  6
Continuous
100
AcDbLine
 10
346.3573970000001
 20
203.9635249999999
 30
0.0
 11
347.9445539999999
 21
204.102384
 31
0.0
  0
ARC
  5
AC01
330
AA1A
100
AcDbEntity
  8
1
  6
Continuous
100
AcDbCircle
 10
349.9445539999999
 20
224.673699
 30
0.0
 40
2.0
100
AcDbArc
 50
97.73638000000001
 51
180.0
  0
ARC
  5
AC02
330
AA1A
100
AcDbEntity
  8
1
  6
Continuous
100
AcDbCircle
 10
374.444554
 20
202.967329
 30
0.0
 40
1.0
100
AcDbArc
 50
0.0
 51
84.99996199999998
  0
LINE
  5
AC03
330
AA1A
100
AcDbEntity
  8
1
  6
Continuous
100
AcDbLine
 10
374.531712
 20
203.9635249999999
 30
0.0
 11
372.9445539999999
 21
204.102384
 31
0.0
  0
LINE
  5
AC04
330
AA1A
100
AcDbEntity
  8
1
  6
Continuous
100
AcDbLine
 10
375.4445539999999
 20
201.6336609999999
 30
0.0
 11
375.894554
 21
201.6336609999999
 31
0.0
  0
ARC
  5
AC05
330
AA1A
100
AcDbEntity
  8
1
  6
Continuous
100
AcDbCircle
 10
370.9445539999999
 20
224.673699
 30
0.0
 40
2.0
100
AcDbArc
 50
0.0
 51
82.26361999999998
  0
ARC
  5
AC06
330
AA1A
100
AcDbEntity
  8
1
  6
Continuous
100
AcDbCircle
 10
526.1669859999998
 20
195.8836609999999
 30
0.0
 40
22.5
100
AcDbArc
 50
166.1824969999998
 51
45.761203
  0
ARC
  5
AC07
330
AA1A
100
AcDbEntity
  8
1
  6
Continuous
100
AcDbCircle
 10
194.7221219999999
 20
195.8836609999999
 30
0.0
 40
22.5
100
AcDbArc
 50
134.238797
 51
13.817503
  0
ARC
  5
AC08
330
AA1A
100
AcDbEntity
  8
1
  6
Continuous
100
AcDbCircle
 10
243.222122
 20
73.000004
 30
0.0
 40
80.0
100
AcDbArc
 50
172.26362
 51
187.73638
  0
ARC
  5
AC09
330
AA1A
100
AcDbEntity
  8
1
  6
Continuous
100
AcDbCircle
 10
146.2221219999999
 20
73.000004
 30
0.0
 40
80.0
100
AcDbArc
 50
352.2636199999998
 51
7.736380000000001
  0
LINE
  5
AC0A
330
AA1A
100
AcDbEntity
  8
1
  6
Continuous
100
AcDbLine
 10
223.5121599999999
 20
85.500004
 30
0.0
 11
165.932084
 21
85.500004
 31
0.0
  0
ARC
  5
AC0B
330
AA1A
100
AcDbEntity
  8
1
  6
Continuous
100
AcDbCircle
 10
165.932084
 20
83.500004
 30
0.0
 40
2.0
100
AcDbArc
 50
90.0
 51
172.26362
  0
LINE
  5
AC0C
330
AA1A
100
AcDbEntity
  8
1
  6
Continuous
100
AcDbLine
 10
187.638454
 20
88.000004
 30
0.0
 11
201.80579
 21
88.000004
 31
0.0
  0
LINE
  5
AC0D
330
AA1A
100
AcDbEntity
  8
1
  6
Continuous
100
AcDbLine
 10
200.4721219999999
 20
88.45000400000001
 30
0.0
 11
200.4721219999999
 21
88.000004
 31
0.0
  0
LINE
  5
AC0E
330
AA1A
100
AcDbEntity
  8
1
  6
Continuous
100
AcDbLine
 10
188.972122
 20
88.45000400000001
 30
0.0
 11
188.972122
 21
88.000004
 31
0.0
  0
LINE
  5
AC0F
330
AA1A
100
AcDbEntity
  8
1
  6
Continuous
100
AcDbLine
 10
186.642257
 20
87.08716099999998
 30
0.0
 11
186.5033979999998
 21
85.500004
 31
0.0
  0
ARC
  5
AC10
330
AA1A
100
AcDbEntity
  8
1
  6
Continuous
100
AcDbCircle
 10
187.638454
 20
87.000004
 30
0.0
 40
1.0
100
AcDbArc
 50
90.0
 51
174.9999689999999
  0
LINE
  5
AC11
330
AA1A
100
AcDbEntity
  8
1
  6
Continuous
100
AcDbLine
 10
202.801986
 20
87.08716099999998
 30
0.0
 11
202.940845
 21
85.500004
 31
0.0
  0
ARC
  5
AC12
330
AA1A
100
AcDbEntity
  8
1
  6
Continuous
100
AcDbCircle
 10
201.80579
 20
87.000004
 30
0.0
 40
1.0
100
AcDbArc
 50
5.000037999999999
 51
90.0
  0
ARC
  5
AC13
330
AA1A
100
AcDbEntity
  8
1
  6
Continuous
100
AcDbCircle
 10
223.5121599999999
 20
83.500004
 30
0.0
 40
2.0
100
AcDbArc
 50
7.736380000000001
 51
90.0
  0
LINE
  5
AC14
330
AA1A
100
AcDbEntity
  8
1
  6
Continuous
100
AcDbLine
 10
223.5121599999999
 20
60.500004
 30
0.0
 11
165.932084
 21
60.500004
 31
0.0
  0
ARC
  5
AC15
330
AA1A
100
AcDbEntity
  8
1
  6
Continuous
100
AcDbCircle
 10
165.932084
 20
62.50000400000001
 30
0.0
 40
2.0
100
AcDbArc
 50
187.73638
 51
270.0
  0
LINE
  5
AC16
330
AA1A
100
AcDbEntity
  8
1
  6
Continuous
100
AcDbLine
 10
186.642257
 20
58.91284599999998
 30
0.0
 11
186.5033979999998
 21
60.500004
 31
0.0
  0
LINE
  5
AC17
330
AA1A
100
AcDbEntity
  8
1
  6
Continuous
100
AcDbLine
 10
202.801986
 20
58.91284599999998
 30
0.0
 11
202.940845
 21
60.500004
 31
0.0
  0
LINE
  5
AC18
330
AA1A
100
AcDbEntity
  8
1
  6
Continuous
100
AcDbLine
 10
187.638454
 20
58.000004
 30
0.0
 11
201.80579
 21
58.000004
 31
0.0
  0
ARC
  5
AC19
330
AA1A
100
AcDbEntity
  8
1
  6
Continuous
100
AcDbCircle
 10
187.638454
 20
59.00000399999999
 30
0.0
 40
1.0
100
AcDbArc
 50
185.000031
 51
270.0
  0
LINE
  5
AC1A
330
AA1A
100
AcDbEntity
  8
1
  6
Continuous
100
AcDbLine
 10
200.4721219999999
 20
58.000004
 30
0.0
 11
200.4721219999999
 21
57.550004
 31
0.0
  0
LINE
  5
AC1B
330
AA1A
100
AcDbEntity
  8
1
  6
Continuous
100
AcDbLine
 10
188.972122
 20
58.000004
 30
0.0
 11
188.972122
 21
57.550004
 31
0.0
  0
ARC
  5
AC1C
330
AA1A
100
AcDbEntity
  8
1
  6
Continuous
100
AcDbCircle
 10
201.80579
 20
59.00000399999999
 30
0.0
 40
1.0
100
AcDbArc
 50
270.0
 51
354.9999619999999
  0
ARC
  5
AC1D
330
AA1A
100
AcDbEntity
  8
1
  6
Continuous
100
AcDbCircle
 10
223.5121599999999
 20
62.50000400000001
 30
0.0
 40
2.0
100
AcDbArc
 50
270.0
 51
352.2636199999998
  0
ARC
  5
AC1E
330
AA1A
100
AcDbEntity
  8
1
  6
Continuous
100
AcDbCircle
 10
56.99999599999999
 20
147.383661
 30
0.0
 40
80.0
100
AcDbArc
 50
82.26361999999998
 51
97.73638000000001
  0
ARC
  5
AC1F
330
AA1A
100
AcDbEntity
  8
1
  6
Continuous
100
AcDbCircle
 10
56.99999599999999
 20
244.3836609999999
 30
0.0
 40
80.0
100
AcDbArc
 50
262.26362
 51
277.7363799999998
  0
LINE
  5
AC20
330
AA1A
100
AcDbEntity
  8
1
  6
Continuous
100
AcDbLine
 10
44.499996
 20
224.673699
 30
0.0
 11
44.499996
 21
167.093623
 31
0.0
  0
ARC
  5
AC21
330
AA1A
100
AcDbEntity
  8
1
  6
Continuous
100
AcDbCircle
 10
46.499996
 20
167.093623
 30
0.0
 40
2.0
100
AcDbArc
 50
180.0
 51
262.26362
  0
LINE
  5
AC22
330
AA1A
100
AcDbEntity
  8
1
  6
Continuous
100
AcDbLine
 10
41.999996
 20
188.799993
 30
0.0
 11
41.999996
 21
202.967329
 31
0.0
  0
ARC
  5
AC23
330
AA1A
100
AcDbEntity
  8
1
  6
Continuous
100
AcDbCircle
 10
42.999996
 20
188.799993
 30
0.0
 40
1.0
100
AcDbArc
 50
180.0
 51
264.999969
  0
LINE
  5
AC24
330
AA1A
100
AcDbEntity
  8
1
  6
Continuous
100
AcDbLine
 10
42.91283899999998
 20
187.803796
 30
0.0
 11
44.499996
 21
187.664937
 31
0.0
  0
LINE
  5
AC25
330
AA1A
100
AcDbEntity
  8
1
  6
Continuous
100
AcDbLine
 10
41.549996
 20
190.1336609999999
 30
0.0
 11
41.999996
 21
190.1336609999999
 31
0.0
  0
ARC
  5
AC26
330
AA1A
100
AcDbEntity
  8
1
  6
Continuous
100
AcDbCircle
 10
42.999996
 20
202.967329
 30
0.0
 40
1.0
100
AcDbArc
 50
95.00003799999999
 51
180.0
  0
LINE
  5
AC27
330
AA1A
100
AcDbEntity
  8
1
  6
Continuous
100
AcDbLine
 10
42.91283899999998
 20
203.9635249999999
 30
0.0
 11
44.499996
 21
204.102384
 31
0.0
  0
LINE
  5
AC28
330
AA1A
100
AcDbEntity
  8
1
  6
Continuous
100
AcDbLine
 10
41.549996
 20
201.6336609999999
 30
0.0
 11
41.999996
 21
201.6336609999999
 31
0.0
  0
ARC
  5
AC29
330
AA1A
100
AcDbEntity
  8
1
  6
Continuous
100
AcDbCircle
 10
46.499996
 20
224.673699
 30
0.0
 40
2.0
100
AcDbArc
 50
97.73638000000001
 51
180.0
  0
LINE
  5
AC2A
330
AA1A
100
AcDbEntity
  8
1
  6
Continuous
100
AcDbLine
 10
69.49999599999999
 20
224.673699
 30
0.0
 11
69.49999599999999
 21
167.093623
 31
0.0
  0
ARC
  5
AC2B
330
AA1A
100
AcDbEntity
  8
1
  6
Continuous
100
AcDbCircle
 10
67.49999599999999
 20
167.093623
 30
0.0
 40
2.0
100
AcDbArc
 50
277.7363799999998
 51
0.0
  0
LINE
  5
AC2C
330
AA1A
100
AcDbEntity
  8
1
  6
Continuous
100
AcDbLine
 10
71.99999599999998
 20
188.799993
 30
0.0
 11
71.99999599999998
 21
202.967329
 31
0.0
  0
LINE
  5
AC2D
330
AA1A
100
AcDbEntity
  8
1
  6
Continuous
100
AcDbLine
 10
71.99999599999998
 20
190.1336609999999
 30
0.0
 11
72.44999599999998
 21
190.1336609999999
 31
0.0
  0
ARC
  5
AC2E
330
AA1A
100
AcDbEntity
  8
1
  6
Continuous
100
AcDbCircle
 10
70.999996
 20
188.799993
 30
0.0
 40
1.0
100
AcDbArc
 50
275.0000309999999
 51
0.0
  0
LINE
  5
AC2F
330
AA1A
100
AcDbEntity
  8
1
  6
Continuous
100
AcDbLine
 10
71.087154
 20
187.803796
 30
0.0
 11
69.49999599999999
 21
187.664937
 31
0.0
  0
ARC
  5
AC30
330
AA1A
100
AcDbEntity
  8
1
  6
Continuous
100
AcDbCircle
 10
70.999996
 20
202.967329
 30
0.0
 40
1.0
100
AcDbArc
 50
0.0
 51
84.99996199999998
  0
LINE
  5
AC31
330
AA1A
100
AcDbEntity
  8
1
  6
Continuous
100
AcDbLine
 10
71.99999599999998
 20
201.6336609999999
 30
0.0
 11
72.44999599999998
 21
201.6336609999999
 31
0.0
  0
LINE
  5
AC32
330
AA1A
100
AcDbEntity
  8
1
  6
Continuous
100
AcDbLine
 10
71.087154
 20
203.9635249999999
 30
0.0
 11
69.49999599999999
 21
204.102384
 31
0.0
  0
ARC
  5
AC33
330
AA1A
100
AcDbEntity
  8
1
  6
Continuous
100
AcDbCircle
 10
67.49999599999999
 20
224.673699
 30
0.0
 40
2.0
100
AcDbArc
 50
0.0
 51
82.26361999999998
  0
LINE
  5
AC34
330
AA1A
100
AcDbEntity
  8
1
  6
Continuous
100
AcDbLine
 10
370.9445539999999
 20
177.8838819999998
 30
0.0
 11
370.9445539999999
 21
176.8836609999999
 31
0.0
  0
ARC
  5
AC35
330
AA1A
100
AcDbEntity
  8
1
  6
Continuous
100
AcDbCircle
 10
360.4445539999999
 20
147.383661
 30
0.0
 40
80.0
100
AcDbArc
 50
97.18049399999999
 51
97.73638000000001
  0
ENDSEC
  0
SECTION
  2
OBJECTS
  0
DICTIONARY
  5
AA08
330
0
100
AcDbDictionary
281
     1
  3
ACAD_CIP_PREVIOUS_PRODUCT_INFO
350
AC97
  3
ACAD_COLOR
350
AC79
  3
ACAD_DETAILVIEWSTYLE
350
AC92
  3
ACAD_GROUP
350
AA09
  3
ACAD_LAYOUT
350
AA15
  3
ACAD_MATERIAL
350
AC47
  3
ACAD_MLEADERSTYLE
350
AC8E
  3
ACAD_MLINESTYLE
350
AA12
  3
ACAD_PLOTSETTINGS
350
AA14
  3
ACAD_PLOTSTYLENAME
350
AC45
  3
ACAD_SCALELIST
350
AC7C
  3
ACAD_SECTIONVIEWSTYLE
350
AC90
  3
ACAD_TABLESTYLE
350
AC7A
  3
ACAD_VISUALSTYLE
350
AC60
  3
ACDB_RECOMPOSE_DATA
350
ACB5
  3
AcDbVariableDictionary
350
ACA8
  3
DWGPROPS
350
ACB6
  0
DICTIONARY
  5
AC98
330
AA0C
100
AcDbDictionary
280
     1
281
     1
  3
ADSK_XREC_LAYER_RECONCILED
360
AC99
  0
DICTIONARY
  5
AC9A
330
AA22
100
AcDbDictionary
280
     1
281
     1
  3
ADSK_XREC_LAYER_RECONCILED
360
AC9B
  0
DICTIONARY
  5
AC9C
330
AA23
100
AcDbDictionary
280
     1
281
     1
  3
ADSK_XREC_LAYER_RECONCILED
360
AC9D
  0
DICTIONARY
  5
AC9E
330
AA24
100
AcDbDictionary
280
     1
281
     1
  3
ADSK_XREC_LAYER_RECONCILED
360
AC9F
  0
DICTIONARY
  5
ACA0
330
AA25
100
AcDbDictionary
280
     1
281
     1
  3
ADSK_XREC_LAYER_RECONCILED
360
ACA1
  0
DICTIONARY
  5
ACA2
330
AA26
100
AcDbDictionary
280
     1
281
     1
  3
ADSK_XREC_LAYER_RECONCILED
360
ACA3
  0
DICTIONARY
  5
ACA4
330
AA27
100
AcDbDictionary
280
     1
281
     1
  3
ADSK_XREC_LAYER_RECONCILED
360
ACA5
  0
DICTIONARY
  5
ACA6
330
AA28
100
AcDbDictionary
280
     1
281
     1
  3
ADSK_XREC_LAYER_RECONCILED
360
ACA7
  0
DICTIONARY
  5
AC40
330
AA1A
100
AcDbDictionary
281
     1
  3
ACAD_LAYOUTSELFREF
350
AC41
  0
DICTIONARY
  5
AC3E
330
AA16
100
AcDbDictionary
281
     1
  3
ACAD_LAYOUTSELFREF
350
AC3F
  0
XRECORD
  5
AC97
102
{ACAD_REACTORS
330
AA08
102
}
330
AA08
100
AcDbXrecord
280
     1
300
ACDLT
300
2014
300
ACDLT_F_S
  0
DICTIONARY
  5
AC79
102
{ACAD_REACTORS
330
AA08
102
}
330
AA08
100
AcDbDictionary
281
     1
  0
DICTIONARY
  5
AC92
102
{ACAD_REACTORS
330
AA08
102
}
330
AA08
100
AcDbDictionary
281
     1
  3
Imperial24
350
AC93
  0
DICTIONARY
  5
AA09
102
{ACAD_REACTORS
330
AA08
102
}
330
AA08
100
AcDbDictionary
281
     1
  0
DICTIONARY
  5
AA15
102
{ACAD_REACTORS
330
AA08
102
}
330
AA08
100
AcDbDictionary
281
     1
  3
Model
350
AC94
  3
レイアウト1
350
AC95
  0
DICTIONARY
  5
AC47
102
{ACAD_REACTORS
330
AA08
102
}
330
AA08
100
AcDbDictionary
281
     1
  3
ByBlock
350
AC50
  3
ByLayer
350
AC48
  3
Global
350
AC58
  0
DICTIONARY
  5
AC8E
102
{ACAD_REACTORS
330
AA08
102
}
330
AA08
100
AcDbDictionary
281
     1
  3
Standard
350
AC8F
  0
DICTIONARY
  5
AA12
102
{ACAD_REACTORS
330
AA08
102
}
330
AA08
100
AcDbDictionary
281
     1
  3
STANDARD
350
AA13
  0
DICTIONARY
  5
AA14
102
{ACAD_REACTORS
330
AA08
102
}
330
AA08
100
AcDbDictionary
281
     1
  0
ACDBDICTIONARYWDFLT
  5
AC45
102
{ACAD_REACTORS
330
AA08
102
}
330
AA08
100
AcDbDictionary
281
     1
  3
Normal
350
AC46
100
AcDbDictionaryWithDefault
340
AC46
  0
DICTIONARY
  5
AC7C
102
{ACAD_REACTORS
330
AA08
102
}
330
AA08
100
AcDbDictionary
281
     1
  3
A0
350
AC7D
  3
A1
350
AC7E
  3
A2
350
AC7F
  3
A3
350
AC80
  3
A4
350
AC81
  3
A5
350
AC82
  3
A6
350
AC83
  3
A7
350
AC84
  3
A8
350
AC85
  3
A9
350
AC86
  3
B0
350
AC87
  3
B1
350
AC88
  3
B2
350
AC89
  3
B3
350
AC8A
  3
B4
350
AC8B
  3
B5
350
AC8C
  3
B6
350
AC8D
  0
DICTIONARY
  5
AC90
102
{ACAD_REACTORS
330
AA08
102
}
330
AA08
100
AcDbDictionary
281
     1
  3
Imperial24
350
AC91
  0
DICTIONARY
  5
AC7A
102
{ACAD_REACTORS
330
AA08
102
}
330
AA08
100
AcDbDictionary
281
     1
  3
Standard
350
AC7B
  0
DICTIONARY
  5
AC60
102
{ACAD_REACTORS
330
AA08
102
}
330
AA08
100
AcDbDictionary
281
     1
  3
2dWireframe
350
AC66
  3
Basic
350
AC65
  3
Brighten
350
AC6C
  3
ColorChange
350
AC70
  3
Conceptual
350
AC69
  3
Dim
350
AC6B
  3
EdgeColorOff
350
AC78
  3
Facepattern
350
AC6F
  3
Flat
350
AC61
  3
FlatWithEdges
350
AC62
  3
Gouraud
350
AC63
  3
GouraudWithEdges
350
AC64
  3
Hidden
350
AC68
  3
JitterOff
350
AC76
  3
Linepattern
350
AC6E
  3
OverhangOff
350
AC77
  3
Realistic
350
AC6A
  3
Shaded
350
AC75
  3
Shaded with edges
350
AC74
  3
Shades of Gray
350
AC71
  3
Sketchy
350
AC72
  3
Thicken
350
AC6D
  3
Wireframe
350
AC67
  3
X-Ray
350
AC73
  0
XRECORD
  5
ACB5
102
{ACAD_REACTORS
330
AA08
102
}
330
AA08
100
AcDbXrecord
280
     1
 90
        1
330
AC7B
  0
DICTIONARY
  5
ACA8
102
{ACAD_REACTORS
330
AA08
102
}
330
AA08
100
AcDbDictionary
281
     1
  3
CANNOSCALE
350
ACAD
  3
CMLEADERSTYLE
350
ACAA
  3
CTABLESTYLE
350
ACA9
  3
CVIEWDETAILSTYLE
350
ACAB
  3
CVIEWSECTIONSTYLE
350
ACAC
  3
DIMASSOC
350
ACB0
  3
INDEXCTL
350
ACAF
  3
SORTENTS
350
ACAE
  3
XCLIPFRAME
350
ACB1
  0
XRECORD
  5
ACB6
102
{ACAD_REACTORS
330
AA08
102
}
330
AA08
100
AcDbXrecord
280
     1
  1
DWGPROPS COOKIE
  2

  3

  4

  6

  7

  8
Yoshitsune
  9

300
=
301
=
302
=
303
=
304
=
305
=
306
=
307
=
308
=
309
=
 40
0.0000094791666667
 41
2451301.605068403
 42
2457192.688399618
  1

 90
        0
  0
XRECORD
  5
AC99
102
{ACAD_REACTORS
330
AC98
102
}
330
AC98
100
AcDbXrecord
280
     1
290
     1
  0
XRECORD
  5
AC9B
102
{ACAD_REACTORS
330
AC9A
102
}
330
AC9A
100
AcDbXrecord
280
     1
290
     1
  0
XRECORD
  5
AC9D
102
{ACAD_REACTORS
330
AC9C
102
}
330
AC9C
100
AcDbXrecord
280
     1
290
     1
  0
XRECORD
  5
AC9F
102
{ACAD_REACTORS
330
AC9E
102
}
330
AC9E
100
AcDbXrecord
280
     1
290
     1
  0
XRECORD
  5
ACA1
102
{ACAD_REACTORS
330
ACA0
102
}
330
ACA0
100
AcDbXrecord
280
     1
290
     1
  0
XRECORD
  5
ACA3
102
{ACAD_REACTORS
330
ACA2
102
}
330
ACA2
100
AcDbXrecord
280
     1
290
     1
  0
XRECORD
  5
ACA5
102
{ACAD_REACTORS
330
ACA4
102
}
330
ACA4
100
AcDbXrecord
280
     1
290
     1
  0
XRECORD
  5
ACA7
102
{ACAD_REACTORS
330
ACA6
102
}
330
ACA6
100
AcDbXrecord
280
     1
290
     1
  0
XRECORD
  5
AC41
102
{ACAD_REACTORS
330
AC40
102
}
330
AC40
100
AcDbXrecord
280
     1
340
AA1A
  0
XRECORD
  5
AC3F
102
{ACAD_REACTORS
330
AC3E
102
}
330
AC3E
100
AcDbXrecord
280
     1
340
AA16
  0
ACDBDETAILVIEWSTYLE
  5
AC93
102
{ACAD_XDICTIONARY
360
ACEE
102
}
102
{ACAD_REACTORS
330
AC92
102
}
330
AC92
100
AcDbModelDocViewStyle
 70
     0
  3
Imperial24
290
     0
100
AcDbDetailViewStyle
 70
     0
 71
     0
 90
        3
 71
     1
340
AA0D
 40
0.24
340
0
 40
0.24
300

 40
0.36
280
     3
 71
     2
340
AA11
 90
       25
 71
     3
340
AA0D
 40
0.24
 90
        1
 40
0.75
 90
        1
300
%<\AcVar ViewType \f "%tc1">% %<\AcVar ViewDetailId>%\PSCALE %<\AcVar ViewScale \f "%sn">%
 71
     4
340
AA11
 90
       25
340
AA11
 90
       25
280
     0
  0
LAYOUT
  5
AC94
102
{ACAD_XDICTIONARY
360
ACF0
102
}
102
{ACAD_REACTORS
330
AA15
102
}
330
AA15
100
AcDbPlotSettings
  1

  2
Canon LBP9100C
  4

  6

 40
0.0
 41
0.0
 42
0.0
 43
0.0
 44
0.0
 45
0.0
 46
0.0
 47
0.0
 48
0.0
 49
0.0
140
0.0
141
0.0
142
1.0
143
1.0
 70
  1712
 72
     0
 73
     0
 74
     0
  7

 75
     0
147
1.0
148
0.0
149
0.0
100
AcDbLayout
  1
Model
 70
     1
 71
     0
 10
0.0
 20
0.0
 11
12.0
 21
9.0
 12
0.0
 22
0.0
 32
0.0
 14
0.0
 24
0.0
 34
0.0
 15
0.0
 25
0.0
 35
0.0
146
0.0
 13
0.0
 23
0.0
 33
0.0
 16
1.0
 26
0.0
 36
0.0
 17
0.0
 27
1.0
 37
0.0
 76
     0
330
AA1A
331
AC3D
  0
LAYOUT
  5
AC95
102
{ACAD_XDICTIONARY
360
ACF2
102
}
102
{ACAD_REACTORS
330
AA15
102
}
330
AA15
100
AcDbPlotSettings
  1

  2
Canon LBP9100C
  4

  6

 40
0.0
 41
0.0
 42
0.0
 43
0.0
 44
0.0
 45
0.0
 46
0.0
 47
0.0
 48
0.0
 49
0.0
140
0.0
141
0.0
142
1.0
143
1.0
 70
   688
 72
     0
 73
     0
 74
     5
  7

 75
    16
147
1.0
148
0.0
149
0.0
100
AcDbLayout
  1
レイアウト1
 70
     0
 71
     1
 10
0.0
 20
0.0
 11
420.0
 21
297.0
 12
0.0
 22
0.0
 32
0.0
 14
1.000000000000000E+20
 24
1.000000000000000E+20
 34
1.000000000000000E+20
 15
-1.000000000000000E+20
 25
-1.000000000000000E+20
 35
-1.000000000000000E+20
146
0.0
 13
0.0
 23
0.0
 33
0.0
 16
1.0
 26
0.0
 36
0.0
 17
0.0
 27
1.0
 37
0.0
 76
     0
330
AA16
  0
MATERIAL
  5
AC50
102
{ACAD_XDICTIONARY
360
AC51
102
}
102
{ACAD_REACTORS
330
AC47
102
}
330
AC47
100
AcDbMaterial
  1
ByBlock
 72
     0
 43
0.0208333333333333
 43
0.0
 43
0.0
 43
0.0
 43
0.0
 43
0.0208333333333333
 43
0.0
 43
0.0
 43
0.0
 43
0.0
 43
1.0
 43
0.0
 43
0.0
 43
0.0
 43
0.0
 43
1.0
 77
     0
 47
0.0208333333333333
 47
0.0
 47
0.0
 47
0.0
 47
0.0
 47
0.0208333333333333
 47
0.0
 47
0.0
 47
0.0
 47
0.0
 47
1.0
 47
0.0
 47
0.0
 47
0.0
 47
0.0
 47
1.0
171
     0
 49
0.0208333333333333
 49
0.0
 49
0.0
 49
0.0
 49
0.0
 49
0.0208333333333333
 49
0.0
 49
0.0
 49
0.0
 49
0.0
 49
1.0
 49
0.0
 49
0.0
 49
0.0
 49
0.0
 49
1.0
175
     0
142
0.0208333333333333
142
0.0
142
0.0
142
0.0
142
0.0
142
0.0208333333333333
142
0.0
142
0.0
142
0.0
142
0.0
142
1.0
142
0.0
142
0.0
142
0.0
142
0.0
142
1.0
179
     0
144
0.0208333333333333
144
0.0
144
0.0
144
0.0
144
0.0
144
0.0208333333333333
144
0.0
144
0.0
144
0.0
144
0.0
144
1.0
144
0.0
144
0.0
144
0.0
144
0.0
144
1.0
147
0.0208333333333333
147
0.0
147
0.0
147
0.0
147
0.0
147
0.0208333333333333
147
0.0
147
0.0
147
0.0
147
0.0
147
1.0
147
0.0
147
0.0
147
0.0
147
0.0
147
1.0
  0
MATERIAL
  5
AC48
102
{ACAD_XDICTIONARY
360
AC49
102
}
102
{ACAD_REACTORS
330
AC47
102
}
330
AC47
100
AcDbMaterial
  1
ByLayer
 72
     0
 43
0.0208333333333333
 43
0.0
 43
0.0
 43
0.0
 43
0.0
 43
0.0208333333333333
 43
0.0
 43
0.0
 43
0.0
 43
0.0
 43
1.0
 43
0.0
 43
0.0
 43
0.0
 43
0.0
 43
1.0
 77
     0
 47
0.0208333333333333
 47
0.0
 47
0.0
 47
0.0
 47
0.0
 47
0.0208333333333333
 47
0.0
 47
0.0
 47
0.0
 47
0.0
 47
1.0
 47
0.0
 47
0.0
 47
0.0
 47
0.0
 47
1.0
171
     0
 49
0.0208333333333333
 49
0.0
 49
0.0
 49
0.0
 49
0.0
 49
0.0208333333333333
 49
0.0
 49
0.0
 49
0.0
 49
0.0
 49
1.0
 49
0.0
 49
0.0
 49
0.0
 49
0.0
 49
1.0
175
     0
142
0.0208333333333333
142
0.0
142
0.0
142
0.0
142
0.0
142
0.0208333333333333
142
0.0
142
0.0
142
0.0
142
0.0
142
1.0
142
0.0
142
0.0
142
0.0
142
0.0
142
1.0
179
     0
144
0.0208333333333333
144
0.0
144
0.0
144
0.0
144
0.0
144
0.0208333333333333
144
0.0
144
0.0
144
0.0
144
0.0
144
1.0
144
0.0
144
0.0
144
0.0
144
0.0
144
1.0
147
0.0208333333333333
147
0.0
147
0.0
147
0.0
147
0.0
147
0.0208333333333333
147
0.0
147
0.0
147
0.0
147
0.0
147
1.0
147
0.0
147
0.0
147
0.0
147
0.0
147
1.0
  0
MATERIAL
  5
AC58
102
{ACAD_XDICTIONARY
360
AC59
102
}
102
{ACAD_REACTORS
330
AC47
102
}
330
AC47
100
AcDbMaterial
  1
Global
 72
     0
 43
0.0208333333333333
 43
0.0
 43
0.0
 43
0.0
 43
0.0
 43
0.0208333333333333
 43
0.0
 43
0.0
 43
0.0
 43
0.0
 43
1.0
 43
0.0
 43
0.0
 43
0.0
 43
0.0
 43
1.0
 77
     0
 47
0.0208333333333333
 47
0.0
 47
0.0
 47
0.0
 47
0.0
 47
0.0208333333333333
 47
0.0
 47
0.0
 47
0.0
 47
0.0
 47
1.0
 47
0.0
 47
0.0
 47
0.0
 47
0.0
 47
1.0
171
     0
 49
0.0208333333333333
 49
0.0
 49
0.0
 49
0.0
 49
0.0
 49
0.0208333333333333
 49
0.0
 49
0.0
 49
0.0
 49
0.0
 49
1.0
 49
0.0
 49
0.0
 49
0.0
 49
0.0
 49
1.0
175
     0
142
0.0208333333333333
142
0.0
142
0.0
142
0.0
142
0.0
142
0.0208333333333333
142
0.0
142
0.0
142
0.0
142
0.0
142
1.0
142
0.0
142
0.0
142
0.0
142
0.0
142
1.0
179
     0
144
0.0208333333333333
144
0.0
144
0.0
144
0.0
144
0.0
144
0.0208333333333333
144
0.0
144
0.0
144
0.0
144
0.0
144
1.0
144
0.0
144
0.0
144
0.0
144
0.0
144
1.0
147
0.0208333333333333
147
0.0
147
0.0
147
0.0
147
0.0
147
0.0208333333333333
147
0.0
147
0.0
147
0.0
147
0.0
147
1.0
147
0.0
147
0.0
147
0.0
147
0.0
147
1.0
  0
MLEADERSTYLE
  5
AC8F
102
{ACAD_REACTORS
330
AC8E
102
}
330
AC8E
100
AcDbMLeaderStyle
170
     2
171
     1
172
     0
 90
        2
 40
0.0
 41
0.0
173
     1
 91
-1056964608
340
AA0F
 92
       -2
290
     1
 42
0.09
291
     1
 43
0.36
  3
Standard
 44
0.18
300

342
AA0D
174
     1
178
     6
175
     1
176
     0
 93
-1056964608
 45
0.18
292
     0
297
     0
 46
0.18
 94
-1056964608
 47
1.0
 49
1.0
140
1.0
293
     1
141
0.0
294
     1
177
     0
142
1.0
295
     0
296
     0
143
0.125
1001
ACAD_MLEADERVER
1070
     2
  0
MLINESTYLE
  5
AA13
102
{ACAD_REACTORS
330
AA12
102
}
330
AA12
100
AcDbMlineStyle
  2
STANDARD
 70
     0
  3

 62
   256
 51
90.0
 52
90.0
 71
     2
 49
0.5
 62
   256
  6
BYLAYER
 49
-0.5
 62
   256
  6
BYLAYER
  0
ACDBPLACEHOLDER
  5
AC46
102
{ACAD_REACTORS
330
AC45
102
}
330
AC45
  0
SCALE
  5
AC7D
102
{ACAD_REACTORS
330
AC7C
102
}
330
AC7C
100
AcDbScale
 70
     0
300
1:1
140
1.0
141
1.0
290
     1
  0
SCALE
  5
AC7E
102
{ACAD_REACTORS
330
AC7C
102
}
330
AC7C
100
AcDbScale
 70
     0
300
1/128" = 1'-0"
140
0.0078125
141
12.0
290
     0
  0
SCALE
  5
AC7F
102
{ACAD_REACTORS
330
AC7C
102
}
330
AC7C
100
AcDbScale
 70
     0
300
1/64" = 1'-0"
140
0.015625
141
12.0
290
     0
  0
SCALE
  5
AC80
102
{ACAD_REACTORS
330
AC7C
102
}
330
AC7C
100
AcDbScale
 70
     0
300
1/32" = 1'-0"
140
0.03125
141
12.0
290
     0
  0
SCALE
  5
AC81
102
{ACAD_REACTORS
330
AC7C
102
}
330
AC7C
100
AcDbScale
 70
     0
300
1/16" = 1'-0"
140
0.0625
141
12.0
290
     0
  0
SCALE
  5
AC82
102
{ACAD_REACTORS
330
AC7C
102
}
330
AC7C
100
AcDbScale
 70
     0
300
3/32" = 1'-0"
140
0.09375
141
12.0
290
     0
  0
SCALE
  5
AC83
102
{ACAD_REACTORS
330
AC7C
102
}
330
AC7C
100
AcDbScale
 70
     0
300
1/8" = 1'-0"
140
0.125
141
12.0
290
     0
  0
SCALE
  5
AC84
102
{ACAD_REACTORS
330
AC7C
102
}
330
AC7C
100
AcDbScale
 70
     0
300
3/16" = 1'-0"
140
0.1875
141
12.0
290
     0
  0
SCALE
  5
AC85
102
{ACAD_REACTORS
330
AC7C
102
}
330
AC7C
100
AcDbScale
 70
     0
300
1/4" = 1'-0"
140
0.25
141
12.0
290
     0
  0
SCALE
  5
AC86
102
{ACAD_REACTORS
330
AC7C
102
}
330
AC7C
100
AcDbScale
 70
     0
300
3/8" = 1'-0"
140
0.375
141
12.0
290
     0
  0
SCALE
  5
AC87
102
{ACAD_REACTORS
330
AC7C
102
}
330
AC7C
100
AcDbScale
 70
     0
300
1/2" = 1'-0"
140
0.5
141
12.0
290
     0
  0
SCALE
  5
AC88
102
{ACAD_REACTORS
330
AC7C
102
}
330
AC7C
100
AcDbScale
 70
     0
300
3/4" = 1'-0"
140
0.75
141
12.0
290
     0
  0
SCALE
  5
AC89
102
{ACAD_REACTORS
330
AC7C
102
}
330
AC7C
100
AcDbScale
 70
     0
300
1" = 1'-0"
140
1.0
141
12.0
290
     0
  0
SCALE
  5
AC8A
102
{ACAD_REACTORS
330
AC7C
102
}
330
AC7C
100
AcDbScale
 70
     0
300
1-1/2" = 1'-0"
140
1.5
141
12.0
290
     0
  0
SCALE
  5
AC8B
102
{ACAD_REACTORS
330
AC7C
102
}
330
AC7C
100
AcDbScale
 70
     0
300
3" = 1'-0"
140
3.0
141
12.0
290
     0
  0
SCALE
  5
AC8C
102
{ACAD_REACTORS
330
AC7C
102
}
330
AC7C
100
AcDbScale
 70
     0
300
6" = 1'-0"
140
6.0
141
12.0
290
     0
  0
SCALE
  5
AC8D
102
{ACAD_REACTORS
330
AC7C
102
}
330
AC7C
100
AcDbScale
 70
     0
300
1'-0" = 1'-0"
140
12.0
141
12.0
290
     0
  0
ACDBSECTIONVIEWSTYLE
  5
AC91
102
{ACAD_XDICTIONARY
360
ACEC
102
}
102
{ACAD_REACTORS
330
AC90
102
}
330
AC90
100
AcDbModelDocViewStyle
 70
     0
  3
Imperial24
290
     0
100
AcDbSectionViewStyle
 70
     0
 71
     0
 90
       78
 71
     1
340
AA0D
 40
0.24
340
0
340
0
 40
0.24
300
I, O, Q, S, X, Z
 40
0.48
 90
        3
 40
0.18
 90
        1
 71
     2
340
AA11
 90
       25
340
AA11
 90
       50
 40
0.24
 40
0.0
 40
0.24
 71
     3
340
AA0D
 40
0.24
 90
        1
 40
0.75
 90
        1
300
%<\AcVar ViewType \f "%tc1">% %<\AcVar ViewSectionStartId>%-%<\AcVar ViewSectionEndId>%\PSCALE %<\AcVar ViewScale \f "%sn">%
 71
     4
300
ANSI31
 40
1.0
 90
        0
290
     0
290
     0
 90
        6
 40
0.0
 40
1.570796326794896
 40
0.2617993877991494
 40
1.308996938995747
 40
-0.2617993877991494
 40
1.832595714594046
  0
TABLESTYLE
  5
AC7B
102
{ACAD_XDICTIONARY
360
ACB3
102
}
102
{ACAD_REACTORS
330
AC7A
102
}
330
AC7A
100
AcDbTableStyle
  3
Standard
 70
     0
 71
     0
 40
0.06
 41
0.06
280
     0
281
     0
  7
STANDARD
140
0.18
170
     2
 62
     0
 63
     7
283
     0
274
    -2
284
     1
 64
     0
275
    -2
285
     1
 65
     0
276
    -2
286
     1
 66
     0
277
    -2
287
     1
 67
     0
278
    -2
288
     1
 68
     0
279
    -2
289
     1
 69
     0
  7
STANDARD
140
0.25
170
     5
 62
     0
 63
     7
283
     0
274
    -2
284
     1
 64
     0
275
    -2
285
     1
 65
     0
276
    -2
286
     1
 66
     0
277
    -2
287
     1
 67
     0
278
    -2
288
     1
 68
     0
279
    -2
289
     1
 69
     0
  7
STANDARD
140
0.18
170
     5
 62
     0
 63
     7
283
     0
274
    -2
284
     1
 64
     0
275
    -2
285
     1
 65
     0
276
    -2
286
     1
 66
     0
277
    -2
287
     1
 67
     0
278
    -2
288
     1
 68
     0
279
    -2
289
     1
 69
     0
  0
VISUALSTYLE
  5
AC66
102
{ACAD_XDICTIONARY
360
ACC4
102
}
102
{ACAD_REACTORS
330
AC60
102
}
330
AC60
100
AcDbVisualStyle
  2
2dWireframe
 70
     4
 71
     0
 72
     2
 73
     0
 90
        0
 40
-0.6
 41
-30.0
 62
     5
 63
     7
 74
     1
 91
        4
 64
     7
 65
   257
 75
     1
175
     1
 42
1.0
 92
        0
 66
   257
 43
1.0
 76
     1
 77
     6
 78
     2
 67
     7
 79
     5
170
     0
171
     0
290
     0
174
     0
 93
        1
 44
0.0
173
     0
291
     0
 45
0.0
1001
ACAD
1000
AcDbSavedByObjectVersion
1070
     0
  0
VISUALSTYLE
  5
AC65
102
{ACAD_XDICTIONARY
360
ACC2
102
}
102
{ACAD_REACTORS
330
AC60
102
}
330
AC60
100
AcDbVisualStyle
  2
Basic
 70
     7
 71
     1
 72
     0
 73
     1
 90
        0
 40
-0.6
 41
-30.0
 62
     5
 63
     7
 74
     0
 91
        4
 64
     7
 65
   257
 75
     1
175
     1
 42
1.0
 92
        8
 66
     7
 43
1.0
 76
     1
 77
     6
 78
     2
 67
     7
 79
     5
170
     0
171
     0
290
     0
174
     0
 93
        1
 44
0.0
173
     0
291
     1
 45
0.0
1001
ACAD
1000
AcDbSavedByObjectVersion
1070
     0
  0
VISUALSTYLE
  5
AC6C
102
{ACAD_XDICTIONARY
360
ACD0
102
}
102
{ACAD_REACTORS
330
AC60
102
}
330
AC60
100
AcDbVisualStyle
  2
Brighten
 70
    12
 71
     2
 72
     2
 73
     0
 90
        0
 40
-0.6
 41
-30.0
 62
     5
 63
     7
 74
     1
 91
        4
 64
     7
 65
   257
 75
     1
175
     1
 42
1.0
 92
        8
 66
     7
 43
1.0
 76
     1
 77
     6
 78
     2
 67
     7
 79
     5
170
     0
171
     0
290
     0
174
     0
 93
        1
 44
50.0
173
     0
291
     1
 45
0.0
1001
ACAD
1000
AcDbSavedByObjectVersion
1070
     0
  0
VISUALSTYLE
  5
AC70
102
{ACAD_XDICTIONARY
360
ACD8
102
}
102
{ACAD_REACTORS
330
AC60
102
}
330
AC60
100
AcDbVisualStyle
  2
ColorChange
 70
    16
 71
     2
 72
     2
 73
     3
 90
        0
 40
-0.6
 41
-30.0
 62
     5
 63
     8
 74
     1
 91
        4
 64
     7
 65
   257
 75
     1
175
     1
 42
1.0
 92
        8
 66
     8
 43
1.0
 76
     1
 77
     6
 78
     2
 67
     7
 79
     5
170
     0
171
     0
290
     0
174
     0
 93
        1
 44
0.0
173
     0
291
     1
 45
0.0
1001
ACAD
1000
AcDbSavedByObjectVersion
1070
     0
  0
VISUALSTYLE
  5
AC69
102
{ACAD_XDICTIONARY
360
ACCA
102
}
102
{ACAD_REACTORS
330
AC60
102
}
330
AC60
100
AcDbVisualStyle
  2
Conceptual
 70
     9
 71
     3
 72
     2
 73
     0
 90
        0
 40
-0.6
 41
-30.0
 62
     5
 63
     7
 74
     2
 91
        2
 64
     7
 65
   257
 75
     1
175
     1
 42
179.0
 92
        8
 66
     7
 43
1.0
 76
     1
 77
     6
 78
     2
 67
     7
 79
     3
170
     0
171
     0
290
     0
174
     0
 93
        1
 44
0.0
173
     0
291
     0
 45
0.0
1001
ACAD
1000
AcDbSavedByObjectVersion
1070
     0
  0
VISUALSTYLE
  5
AC6B
102
{ACAD_XDICTIONARY
360
ACCE
102
}
102
{ACAD_REACTORS
330
AC60
102
}
330
AC60
100
AcDbVisualStyle
  2
Dim
 70
    11
 71
     2
 72
     2
 73
     0
 90
        0
 40
-0.6
 41
-30.0
 62
     5
 63
     7
 74
     1
 91
        4
 64
     7
 65
   257
 75
     1
175
     1
 42
1.0
 92
        8
 66
     7
 43
1.0
 76
     1
 77
     6
 78
     2
 67
     7
 79
     5
170
     0
171
     0
290
     0
174
     0
 93
        1
 44
-50.0
173
     0
291
     1
 45
0.0
1001
ACAD
1000
AcDbSavedByObjectVersion
1070
     0
  0
VISUALSTYLE
  5
AC78
102
{ACAD_XDICTIONARY
360
ACE8
102
}
102
{ACAD_REACTORS
330
AC60
102
}
330
AC60
100
AcDbVisualStyle
  2
EdgeColorOff
 70
    22
 71
     2
 72
     2
 73
     0
 90
        0
 40
-0.6
 41
-30.0
 62
     5
 63
     7
 74
     1
 91
        4
 64
     7
 65
   257
 75
     1
175
     1
 42
1.0
 92
        8
 66
     7
 43
1.0
 76
     1
 77
     6
 78
     2
 67
     7
 79
     5
170
     0
171
     0
290
     0
174
     0
 93
        1
 44
0.0
173
     0
291
     1
 45
0.0
1001
ACAD
1000
AcDbSavedByObjectVersion
1070
     0
  0
VISUALSTYLE
  5
AC6F
102
{ACAD_XDICTIONARY
360
ACD6
102
}
102
{ACAD_REACTORS
330
AC60
102
}
330
AC60
100
AcDbVisualStyle
  2
Facepattern
 70
    15
 71
     2
 72
     2
 73
     0
 90
        0
 40
-0.6
 41
-30.0
 62
     5
 63
     7
 74
     1
 91
        4
 64
     7
 65
   257
 75
     1
175
     1
 42
1.0
 92
        8
 66
     7
 43
1.0
 76
     1
 77
     6
 78
     2
 67
     7
 79
     5
170
     0
171
     0
290
     0
174
     0
 93
        1
 44
0.0
173
     0
291
     1
 45
0.0
1001
ACAD
1000
AcDbSavedByObjectVersion
1070
     0
  0
VISUALSTYLE
  5
AC61
102
{ACAD_XDICTIONARY
360
ACBA
102
}
102
{ACAD_REACTORS
330
AC60
102
}
330
AC60
100
AcDbVisualStyle
  2
Flat
 70
     0
 71
     2
 72
     1
 73
     1
 90
        2
 40
-0.6
 41
30.0
 62
     5
 63
     7
 74
     0
 91
        0
 64
     7
 65
   257
 75
     1
175
     1
 42
1.0
 92
        8
 66
     7
 43
1.0
 76
     1
 77
     6
 78
     2
 67
     7
 79
     5
170
     0
171
     0
290
     0
174
     0
 93
       13
 44
0.0
173
     0
291
     1
 45
0.0
1001
ACAD
1000
AcDbSavedByObjectVersion
1070
     0
  0
VISUALSTYLE
  5
AC62
102
{ACAD_XDICTIONARY
360
ACBC
102
}
102
{ACAD_REACTORS
330
AC60
102
}
330
AC60
100
AcDbVisualStyle
  2
FlatWithEdges
 70
     1
 71
     2
 72
     1
 73
     1
 90
        2
 40
-0.6
 41
30.0
 62
     5
 63
     7
 74
     1
 91
        0
 64
     7
 65
   257
 75
     1
175
     1
 42
1.0
 92
        0
 66
   257
 43
1.0
 76
     1
 77
     6
 78
     2
 67
     7
 79
     5
170
     0
171
     0
290
     0
174
     0
 93
       13
 44
0.0
173
     0
291
     1
 45
0.0
1001
ACAD
1000
AcDbSavedByObjectVersion
1070
     0
  0
VISUALSTYLE
  5
AC63
102
{ACAD_XDICTIONARY
360
ACBE
102
}
102
{ACAD_REACTORS
330
AC60
102
}
330
AC60
100
AcDbVisualStyle
  2
Gouraud
 70
     2
 71
     2
 72
     2
 73
     1
 90
        2
 40
-0.6
 41
30.0
 62
     5
 63
     7
 74
     0
 91
        0
 64
     7
 65
   257
 75
     1
175
     1
 42
1.0
 92
        0
 66
     7
 43
1.0
 76
     1
 77
     6
 78
     2
 67
     7
 79
     5
170
     0
171
     0
290
     0
174
     0
 93
       13
 44
0.0
173
     0
291
     1
 45
0.0
1001
ACAD
1000
AcDbSavedByObjectVersion
1070
     0
  0
VISUALSTYLE
  5
AC64
102
{ACAD_XDICTIONARY
360
ACC0
102
}
102
{ACAD_REACTORS
330
AC60
102
}
330
AC60
100
AcDbVisualStyle
  2
GouraudWithEdges
 70
     3
 71
     2
 72
     2
 73
     1
 90
        2
 40
-0.6
 41
30.0
 62
     5
 63
     7
 74
     1
 91
        0
 64
     7
 65
   257
 75
     1
175
     1
 42
1.0
 92
        0
 66
   257
 43
1.0
 76
     1
 77
     6
 78
     2
 67
     7
 79
     5
170
     0
171
     0
290
     0
174
     0
 93
       13
 44
0.0
173
     0
291
     1
 45
0.0
1001
ACAD
1000
AcDbSavedByObjectVersion
1070
     0
  0
VISUALSTYLE
  5
AC68
102
{ACAD_XDICTIONARY
360
ACC8
102
}
102
{ACAD_REACTORS
330
AC60
102
}
330
AC60
100
AcDbVisualStyle
  2
Hidden
 70
     6
 71
     1
 72
     2
 73
     2
 90
        0
 40
-0.6
 41
-30.0
 62
     5
 63
     7
 74
     2
 91
        2
 64
     7
 65
   257
 75
     2
175
     1
 42
40.0
 92
        0
 66
   257
 43
1.0
 76
     1
 77
     6
 78
     2
 67
     7
 79
     3
170
     0
171
     0
290
     0
174
     0
 93
        1
 44
0.0
173
     0
291
     0
 45
0.0
1001
ACAD
1000
AcDbSavedByObjectVersion
1070
     0
  0
VISUALSTYLE
  5
AC76
102
{ACAD_XDICTIONARY
360
ACE4
102
}
102
{ACAD_REACTORS
330
AC60
102
}
330
AC60
100
AcDbVisualStyle
  2
JitterOff
 70
    20
 71
     2
 72
     2
 73
     0
 90
        0
 40
-0.6
 41
-30.0
 62
     5
 63
     7
 74
     1
 91
        4
 64
     7
 65
   257
 75
     1
175
     1
 42
1.0
 92
       10
 66
     7
 43
1.0
 76
     1
 77
     6
 78
     2
 67
     7
 79
     5
170
     0
171
     0
290
     0
174
     0
 93
        1
 44
0.0
173
     0
291
     1
 45
0.0
1001
ACAD
1000
AcDbSavedByObjectVersion
1070
     0
  0
VISUALSTYLE
  5
AC6E
102
{ACAD_XDICTIONARY
360
ACD4
102
}
102
{ACAD_REACTORS
330
AC60
102
}
330
AC60
100
AcDbVisualStyle
  2
Linepattern
 70
    14
 71
     2
 72
     2
 73
     0
 90
        0
 40
-0.6
 41
-30.0
 62
     5
 63
     7
 74
     1
 91
        4
 64
     7
 65
   257
 75
     7
175
     7
 42
1.0
 92
        8
 66
     7
 43
1.0
 76
     1
 77
     6
 78
     2
 67
     7
 79
     5
170
     0
171
     0
290
     0
174
     0
 93
        1
 44
0.0
173
     0
291
     1
 45
0.0
1001
ACAD
1000
AcDbSavedByObjectVersion
1070
     0
  0
VISUALSTYLE
  5
AC77
102
{ACAD_XDICTIONARY
360
ACE6
102
}
102
{ACAD_REACTORS
330
AC60
102
}
330
AC60
100
AcDbVisualStyle
  2
OverhangOff
 70
    21
 71
     2
 72
     2
 73
     0
 90
        0
 40
-0.6
 41
-30.0
 62
     5
 63
     7
 74
     1
 91
        4
 64
     7
 65
   257
 75
     1
175
     1
 42
1.0
 92
        9
 66
     7
 43
1.0
 76
     1
 77
     6
 78
     2
 67
     7
 79
     5
170
     0
171
     0
290
     0
174
     0
 93
        1
 44
0.0
173
     0
291
     1
 45
0.0
1001
ACAD
1000
AcDbSavedByObjectVersion
1070
     0
  0
VISUALSTYLE
  5
AC6A
102
{ACAD_XDICTIONARY
360
ACCC
102
}
102
{ACAD_REACTORS
330
AC60
102
}
330
AC60
100
AcDbVisualStyle
  2
Realistic
 70
     8
 71
     2
 72
     3
 73
     0
 90
        2
 40
-0.6
 41
30.0
 62
     5
 63
     7
 74
     0
 91
        0
 64
     7
 65
   257
 75
     1
175
     1
 42
1.0
 92
        8
 66
   257
 43
1.0
 76
     1
 77
     6
 78
     2
 67
     7
 79
     3
170
     0
171
     0
290
     0
174
     0
 93
       13
 44
0.0
173
     0
291
     0
 45
0.0
1001
ACAD
1000
AcDbSavedByObjectVersion
1070
     0
  0
VISUALSTYLE
  5
AC75
102
{ACAD_XDICTIONARY
360
ACE2
102
}
102
{ACAD_REACTORS
330
AC60
102
}
330
AC60
100
AcDbVisualStyle
  2
Shaded
 70
    27
 71
     2
 72
     2
 73
     1
 90
        2
 40
-0.6
 41
30.0
 62
     5
 63
     7
 74
     0
 91
        4
 64
     7
 65
   257
 75
     1
175
     1
 42
1.0
 92
        8
 66
   257
 43
1.0
 76
     1
 77
     6
 78
     2
 67
     8
 79
     3
170
     0
171
     0
290
     0
174
     0
 93
        5
 44
0.0
173
     0
291
     0
 45
0.0
1001
ACAD
1000
AcDbSavedByObjectVersion
1070
     0
  0
VISUALSTYLE
  5
AC74
102
{ACAD_XDICTIONARY
360
ACE0
102
}
102
{ACAD_REACTORS
330
AC60
102
}
330
AC60
100
AcDbVisualStyle
  2
Shaded with edges
 70
    26
 71
     2
 72
     2
 73
     1
 90
        2
 40
-0.6
 41
30.0
 62
     5
 63
     7
 74
     1
 91
       10
 64
     7
 65
   257
 75
     2
175
     1
 42
1.0
 92
        8
 66
   257
 43
1.0
 76
     1
 77
     6
 78
     2
 67
     7
 79
     3
170
     0
171
     0
290
     0
174
     0
 93
        5
 44
0.0
173
     0
291
     0
 45
0.0
1001
ACAD
1000
AcDbSavedByObjectVersion
1070
     0
  0
VISUALSTYLE
  5
AC71
102
{ACAD_XDICTIONARY
360
ACDA
102
}
102
{ACAD_REACTORS
330
AC60
102
}
330
AC60
100
AcDbVisualStyle
  2
Shades of Gray
 70
    23
 71
     2
 72
     2
 73
     3
 90
        0
 40
-0.6
 41
-30.0
 62
     5
 63
     7
 74
     2
 91
        2
 64
     7
 65
     7
 75
     1
175
     1
 42
40.0
 92
        8
 66
     7
 43
1.0
 76
     1
 77
     6
 78
     2
 67
     7
 79
     3
170
     0
171
     0
290
     0
174
     0
 93
        1
 44
0.0
173
     0
291
     0
 45
0.0
1001
ACAD
1000
AcDbSavedByObjectVersion
1070
     0
  0
VISUALSTYLE
  5
AC72
102
{ACAD_XDICTIONARY
360
ACDC
102
}
102
{ACAD_REACTORS
330
AC60
102
}
330
AC60
100
AcDbVisualStyle
  2
Sketchy
 70
    24
 71
     1
 72
     2
 73
     2
 90
        0
 40
-0.6
 41
-30.0
 62
     5
 63
     7
 74
     2
 91
        2
 64
     7
 65
     7
 75
     1
175
     1
 42
40.0
 92
       11
 66
     7
 43
1.0
 76
     1
 77
     6
 78
     2
 67
     7
 79
     6
170
     0
171
     0
290
     0
174
     0
 93
        1
 44
0.0
173
     0
291
     0
 45
0.0
1001
ACAD
1000
AcDbSavedByObjectVersion
1070
     0
  0
VISUALSTYLE
  5
AC6D
102
{ACAD_XDICTIONARY
360
ACD2
102
}
102
{ACAD_REACTORS
330
AC60
102
}
330
AC60
100
AcDbVisualStyle
  2
Thicken
 70
    13
 71
     2
 72
     2
 73
     0
 90
        0
 40
-0.6
 41
-30.0
 62
     5
 63
     7
 74
     1
 91
        4
 64
     7
 65
   257
 75
     1
175
     1
 42
1.0
 92
       12
 66
     7
 43
1.0
 76
     1
 77
     6
 78
     2
 67
     7
 79
     5
170
     0
171
     0
290
     0
174
     0
 93
        1
 44
0.0
173
     0
291
     1
 45
0.0
1001
ACAD
1000
AcDbSavedByObjectVersion
1070
     0
  0
VISUALSTYLE
  5
AC67
102
{ACAD_XDICTIONARY
360
ACC6
102
}
102
{ACAD_REACTORS
330
AC60
102
}
330
AC60
100
AcDbVisualStyle
  2
Wireframe
 70
     5
 71
     0
 72
     2
 73
     0
 90
        0
 40
-0.6
 41
-30.0
 62
     5
 63
     7
 74
     1
 91
        4
 64
     7
 65
   257
 75
     1
175
     1
 42
1.0
 92
        0
 66
   257
 43
1.0
 76
     1
 77
     6
 78
     2
 67
     7
 79
     3
170
     0
171
     0
290
     0
174
     0
 93
        1
 44
0.0
173
     0
291
     0
 45
0.0
1001
ACAD
1000
AcDbSavedByObjectVersion
1070
     0
  0
VISUALSTYLE
  5
AC73
102
{ACAD_XDICTIONARY
360
ACDE
102
}
102
{ACAD_REACTORS
330
AC60
102
}
330
AC60
100
AcDbVisualStyle
  2
X-Ray
 70
    25
 71
     2
 72
     2
 73
     1
 90
        1
 40
0.5
 41
-30.0
 62
     5
 63
     7
 74
     1
 91
        0
 64
     7
 65
   257
 75
     1
175
     1
 42
1.0
 92
        8
 66
     7
 43
1.0
 76
     1
 77
     6
 78
     2
 67
     7
 79
     3
170
     0
171
     0
290
     0
174
     0
 93
       13
 44
0.0
173
     0
291
     0
 45
0.0
1001
ACAD
1000
AcDbSavedByObjectVersion
1070
     0
  0
DICTIONARYVAR
  5
ACAD
102
{ACAD_REACTORS
330
ACA8
102
}
330
ACA8
100
DictionaryVariables
280
     0
  1
1:1
  0
DICTIONARYVAR
  5
ACAA
102
{ACAD_REACTORS
330
ACA8
102
}
330
ACA8
100
DictionaryVariables
280
     0
  1
STANDARD
  0
DICTIONARYVAR
  5
ACA9
102
{ACAD_REACTORS
330
ACA8
102
}
330
ACA8
100
DictionaryVariables
280
     0
  1
STANDARD
  0
DICTIONARYVAR
  5
ACAB
102
{ACAD_REACTORS
330
ACA8
102
}
330
ACA8
100
DictionaryVariables
280
     0
  1
Imperial24
  0
DICTIONARYVAR
  5
ACAC
102
{ACAD_REACTORS
330
ACA8
102
}
330
ACA8
100
DictionaryVariables
280
     0
  1
Imperial24
  0
DICTIONARYVAR
  5
ACB0
102
{ACAD_REACTORS
330
ACA8
102
}
330
ACA8
100
DictionaryVariables
280
     0
  1
1
  0
DICTIONARYVAR
  5
ACAF
102
{ACAD_REACTORS
330
ACA8
102
}
330
ACA8
100
DictionaryVariables
280
     0
  1
0
  0
DICTIONARYVAR
  5
ACAE
102
{ACAD_REACTORS
330
ACA8
102
}
330
ACA8
100
DictionaryVariables
280
     0
  1
127
  0
DICTIONARYVAR
  5
ACB1
102
{ACAD_REACTORS
330
ACA8
102
}
330
ACA8
100
DictionaryVariables
280
     0
  1
2
  0
DICTIONARY
  5
ACEE
330
AC93
100
AcDbDictionary
280
     1
281
     1
  3
ACAD_XREC_ROUNDTRIP
360
ACEF
  0
DICTIONARY
  5
ACF0
330
AC94
100
AcDbDictionary
280
     1
281
     1
  3
ACAD_XREC_ROUNDTRIP
360
ACF1
  0
DICTIONARY
  5
ACF2
330
AC95
100
AcDbDictionary
280
     1
281
     1
  3
ACAD_XREC_ROUNDTRIP
360
ACF3
  0
DICTIONARY
  5
AC51
330
AC50
100
AcDbDictionary
280
     1
281
     1
  3
ACAD_XREC_ROUNDTRIP
360
ACB8
  3
BUMPTILE
360
AC53
  3
DIFFUSETILE
360
AC52
  3
OPACITYTILE
360
AC56
  3
REFLECTIONTILE
360
AC55
  3
REFRACTIONTILE
360
AC57
  3
SPECULARTILE
360
AC54
  0
DICTIONARY
  5
AC49
330
AC48
100
AcDbDictionary
280
     1
281
     1
  3
ACAD_XREC_ROUNDTRIP
360
ACB7
  3
BUMPTILE
360
AC4B
  3
DIFFUSETILE
360
AC4A
  3
OPACITYTILE
360
AC4E
  3
REFLECTIONTILE
360
AC4D
  3
REFRACTIONTILE
360
AC4F
  3
SPECULARTILE
360
AC4C
  0
DICTIONARY
  5
AC59
330
AC58
100
AcDbDictionary
280
     1
281
     1
  3
ACAD_XREC_ROUNDTRIP
360
ACB9
  3
BUMPTILE
360
AC5B
  3
DIFFUSETILE
360
AC5A
  3
OPACITYTILE
360
AC5E
  3
REFLECTIONTILE
360
AC5D
  3
REFRACTIONTILE
360
AC5F
  3
SPECULARTILE
360
AC5C
  0
DICTIONARY
  5
ACEC
330
AC91
100
AcDbDictionary
280
     1
281
     1
  3
ACAD_XREC_ROUNDTRIP
360
ACED
  0
DICTIONARY
  5
ACB3
330
AC7B
100
AcDbDictionary
280
     1
281
     1
  3
ACAD_ROUNDTRIP_2008_TABLESTYLE_CELLSTYLEMAP
360
ACB4
  3
ACAD_XREC_ROUNDTRIP
360
ACEA
  0
DICTIONARY
  5
ACC4
330
AC66
100
AcDbDictionary
280
     1
281
     1
  3
ACAD_XREC_ROUNDTRIP
360
ACC5
  0
DICTIONARY
  5
ACC2
330
AC65
100
AcDbDictionary
280
     1
281
     1
  3
ACAD_XREC_ROUNDTRIP
360
ACC3
  0
DICTIONARY
  5
ACD0
330
AC6C
100
AcDbDictionary
280
     1
281
     1
  3
ACAD_XREC_ROUNDTRIP
360
ACD1
  0
DICTIONARY
  5
ACD8
330
AC70
100
AcDbDictionary
280
     1
281
     1
  3
ACAD_XREC_ROUNDTRIP
360
ACD9
  0
DICTIONARY
  5
ACCA
330
AC69
100
AcDbDictionary
280
     1
281
     1
  3
ACAD_XREC_ROUNDTRIP
360
ACCB
  0
DICTIONARY
  5
ACCE
330
AC6B
100
AcDbDictionary
280
     1
281
     1
  3
ACAD_XREC_ROUNDTRIP
360
ACCF
  0
DICTIONARY
  5
ACE8
330
AC78
100
AcDbDictionary
280
     1
281
     1
  3
ACAD_XREC_ROUNDTRIP
360
ACE9
  0
DICTIONARY
  5
ACD6
330
AC6F
100
AcDbDictionary
280
     1
281
     1
  3
ACAD_XREC_ROUNDTRIP
360
ACD7
  0
DICTIONARY
  5
ACBA
330
AC61
100
AcDbDictionary
280
     1
281
     1
  3
ACAD_XREC_ROUNDTRIP
360
ACBB
  0
DICTIONARY
  5
ACBC
330
AC62
100
AcDbDictionary
280
     1
281
     1
  3
ACAD_XREC_ROUNDTRIP
360
ACBD
  0
DICTIONARY
  5
ACBE
330
AC63
100
AcDbDictionary
280
     1
281
     1
  3
ACAD_XREC_ROUNDTRIP
360
ACBF
  0
DICTIONARY
  5
ACC0
330
AC64
100
AcDbDictionary
280
     1
281
     1
  3
ACAD_XREC_ROUNDTRIP
360
ACC1
  0
DICTIONARY
  5
ACC8
330
AC68
100
AcDbDictionary
280
     1
281
     1
  3
ACAD_XREC_ROUNDTRIP
360
ACC9
  0
DICTIONARY
  5
ACE4
330
AC76
100
AcDbDictionary
280
     1
281
     1
  3
ACAD_XREC_ROUNDTRIP
360
ACE5
  0
DICTIONARY
  5
ACD4
330
AC6E
100
AcDbDictionary
280
     1
281
     1
  3
ACAD_XREC_ROUNDTRIP
360
ACD5
  0
DICTIONARY
  5
ACE6
330
AC77
100
AcDbDictionary
280
     1
281
     1
  3
ACAD_XREC_ROUNDTRIP
360
ACE7
  0
DICTIONARY
  5
ACCC
330
AC6A
100
AcDbDictionary
280
     1
281
     1
  3
ACAD_XREC_ROUNDTRIP
360
ACCD
  0
DICTIONARY
  5
ACE2
330
AC75
100
AcDbDictionary
280
     1
281
     1
  3
ACAD_XREC_ROUNDTRIP
360
ACE3
  0
DICTIONARY
  5
ACE0
330
AC74
100
AcDbDictionary
280
     1
281
     1
  3
ACAD_XREC_ROUNDTRIP
360
ACE1
  0
DICTIONARY
  5
ACDA
330
AC71
100
AcDbDictionary
280
     1
281
     1
  3
ACAD_XREC_ROUNDTRIP
360
ACDB
  0
DICTIONARY
  5
ACDC
330
AC72
100
AcDbDictionary
280
     1
281
     1
  3
ACAD_XREC_ROUNDTRIP
360
ACDD
  0
DICTIONARY
  5
ACD2
330
AC6D
100
AcDbDictionary
280
     1
281
     1
  3
ACAD_XREC_ROUNDTRIP
360
ACD3
  0
DICTIONARY
  5
ACC6
330
AC67
100
AcDbDictionary
280
     1
281
     1
  3
ACAD_XREC_ROUNDTRIP
360
ACC7
  0
DICTIONARY
  5
ACDE
330
AC73
100
AcDbDictionary
280
     1
281
     1
  3
ACAD_XREC_ROUNDTRIP
360
ACDF
  0
XRECORD
  5
ACEF
102
{ACAD_REACTORS
330
ACEE
102
}
330
ACEE
100
AcDbXrecord
280
     1
102
DISPLAYNAME
  1
Imperial24
102
FLAGS
 90
        0
  0
XRECORD
  5
ACF1
102
{ACAD_REACTORS
330
ACF0
102
}
330
ACF0
100
AcDbXrecord
280
     1
102
SHADEPLOT
 70
     0
102
SHADEPLOTRESLEVEL
 70
     2
102
SHADEPLOTCUSTOMDPI
 70
   300
  0
XRECORD
  5
ACF3
102
{ACAD_REACTORS
330
ACF2
102
}
330
ACF2
100
AcDbXrecord
280
     1
102
SHADEPLOT
 70
     0
102
SHADEPLOTRESLEVEL
 70
     2
102
SHADEPLOTCUSTOMDPI
 70
   300
  0
XRECORD
  5
ACB8
102
{ACAD_REACTORS
330
AC51
102
}
330
AC51
100
AcDbXrecord
280
     1
102
MATERIAL
148
0.0
149
0.0
149
0.0
 93
        0
 94
      127
282
     0
 72
     0
 77
     0
171
     0
175
     0
179
     0
273
     0
  0
XRECORD
  5
AC53
102
{ACAD_REACTORS
330
AC51
102
}
330
AC51
100
AcDbXrecord
280
     1
270
     1
271
     1
  0
XRECORD
  5
AC52
102
{ACAD_REACTORS
330
AC51
102
}
330
AC51
100
AcDbXrecord
280
     1
270
     1
271
     1
  0
XRECORD
  5
AC56
102
{ACAD_REACTORS
330
AC51
102
}
330
AC51
100
AcDbXrecord
280
     1
270
     1
271
     1
  0
XRECORD
  5
AC55
102
{ACAD_REACTORS
330
AC51
102
}
330
AC51
100
AcDbXrecord
280
     1
270
     1
271
     1
  0
XRECORD
  5
AC57
102
{ACAD_REACTORS
330
AC51
102
}
330
AC51
100
AcDbXrecord
280
     1
270
     1
271
     1
  0
XRECORD
  5
AC54
102
{ACAD_REACTORS
330
AC51
102
}
330
AC51
100
AcDbXrecord
280
     1
270
     1
271
     1
  0
XRECORD
  5
ACB7
102
{ACAD_REACTORS
330
AC49
102
}
330
AC49
100
AcDbXrecord
280
     1
102
MATERIAL
148
0.0
149
0.0
149
0.0
 93
        0
 94
      127
282
     0
 72
     0
 77
     0
171
     0
175
     0
179
     0
273
     0
  0
XRECORD
  5
AC4B
102
{ACAD_REACTORS
330
AC49
102
}
330
AC49
100
AcDbXrecord
280
     1
270
     1
271
     1
  0
XRECORD
  5
AC4A
102
{ACAD_REACTORS
330
AC49
102
}
330
AC49
100
AcDbXrecord
280
     1
270
     1
271
     1
  0
XRECORD
  5
AC4E
102
{ACAD_REACTORS
330
AC49
102
}
330
AC49
100
AcDbXrecord
280
     1
270
     1
271
     1
  0
XRECORD
  5
AC4D
102
{ACAD_REACTORS
330
AC49
102
}
330
AC49
100
AcDbXrecord
280
     1
270
     1
271
     1
  0
XRECORD
  5
AC4F
102
{ACAD_REACTORS
330
AC49
102
}
330
AC49
100
AcDbXrecord
280
     1
270
     1
271
     1
  0
XRECORD
  5
AC4C
102
{ACAD_REACTORS
330
AC49
102
}
330
AC49
100
AcDbXrecord
280
     1
270
     1
271
     1
  0
XRECORD
  5
ACB9
102
{ACAD_REACTORS
330
AC59
102
}
330
AC59
100
AcDbXrecord
280
     1
102
MATERIAL
148
0.0
149
0.0
149
0.0
 93
        0
 94
      127
282
     0
 72
     0
 77
     0
171
     0
175
     0
179
     0
273
     0
  0
XRECORD
  5
AC5B
102
{ACAD_REACTORS
330
AC59
102
}
330
AC59
100
AcDbXrecord
280
     1
270
     1
271
     1
  0
XRECORD
  5
AC5A
102
{ACAD_REACTORS
330
AC59
102
}
330
AC59
100
AcDbXrecord
280
     1
270
     1
271
     1
  0
XRECORD
  5
AC5E
102
{ACAD_REACTORS
330
AC59
102
}
330
AC59
100
AcDbXrecord
280
     1
270
     1
271
     1
  0
XRECORD
  5
AC5D
102
{ACAD_REACTORS
330
AC59
102
}
330
AC59
100
AcDbXrecord
280
     1
270
     1
271
     1
  0
XRECORD
  5
AC5F
102
{ACAD_REACTORS
330
AC59
102
}
330
AC59
100
AcDbXrecord
280
     1
270
     1
271
     1
  0
XRECORD
  5
AC5C
102
{ACAD_REACTORS
330
AC59
102
}
330
AC59
100
AcDbXrecord
280
     1
270
     1
271
     1
  0
XRECORD
  5
ACED
102
{ACAD_REACTORS
330
ACEC
102
}
330
ACEC
100
AcDbXrecord
280
     1
102
DISPLAYNAME
  1
Imperial24
102
FLAGS
 90
        0
  0
CELLSTYLEMAP
  5
ACB4
102
{ACAD_REACTORS
330
ACB3
102
}
330
ACB3
100
AcDbCellStyleMap
 90
        3
300
CELLSTYLE
  1
TABLEFORMAT_BEGIN
 90
        5
170
     1
 91
        0
 92
    32768
 62
   257
 93
        1
300
CONTENTFORMAT
  1
CONTENTFORMAT_BEGIN
 90
        0
 91
        0
 92
      512
 93
        0
300

 40
0.0
140
1.0
 94
        5
 62
     0
340
AA0D
144
0.25
309
CONTENTFORMAT_END
171
     0
 94
        0
309
TABLEFORMAT_END
  1
CELLSTYLE_BEGIN
 90
        1
 91
        1
300
_TITLE
309
CELLSTYLE_END
300
CELLSTYLE
  1
TABLEFORMAT_BEGIN
 90
        5
170
     1
 91
        0
 92
        0
 62
   257
 93
        1
300
CONTENTFORMAT
  1
CONTENTFORMAT_BEGIN
 90
        0
 91
        0
 92
      512
 93
        0
300

 40
0.0
140
1.0
 94
        5
 62
     0
340
AA0D
144
0.18
309
CONTENTFORMAT_END
171
     0
 94
        0
309
TABLEFORMAT_END
  1
CELLSTYLE_BEGIN
 90
        2
 91
        1
300
_HEADER
309
CELLSTYLE_END
300
CELLSTYLE
  1
TABLEFORMAT_BEGIN
 90
        5
170
     1
 91
        0
 92
        0
 62
   257
 93
        1
300
CONTENTFORMAT
  1
CONTENTFORMAT_BEGIN
 90
        0
 91
        0
 92
      512
 93
        0
300

 40
0.0
140
1.0
 94
        2
 62
     0
340
AA0D
144
0.18
309
CONTENTFORMAT_END
171
     0
 94
        0
309
TABLEFORMAT_END
  1
CELLSTYLE_BEGIN
 90
        3
 91
        2
300
_DATA
309
CELLSTYLE_END
  0
XRECORD
  5
ACEA
102
{ACAD_REACTORS
330
ACB3
102
}
330
ACB3
100
AcDbXrecord
280
     1
102
ACAD_ROUNDTRIP_PRE2007_TABLESTYLE
 90
      512
 91
        0
  1

 92
      512
 93
        0
  2

 94
      512
 95
        0
  3

  0
XRECORD
  5
ACC5
102
{ACAD_REACTORS
330
ACC4
102
}
330
ACC4
100
AcDbXrecord
280
     1
102
RTVSPost2010Prop28
280
     1
102
RTVSPost2010PropOp28
 70
     1
102
RTVSPost2010Prop29
280
     1
102
RTVSPost2010PropOp29
 70
     1
102
RTVSPost2010Prop30
280
     0
102
RTVSPost2010PropOp30
 70
     1
102
RTVSPost2010Prop31
280
     0
102
RTVSPost2010PropOp31
 70
     1
102
RTVSPost2010Prop32
280
     0
102
RTVSPost2010PropOp32
 70
     1
102
RTVSPost2010Prop33
280
     0
102
RTVSPost2010PropOp33
 70
     1
102
RTVSPost2010Prop34
280
     0
102
RTVSPost2010PropOp34
 70
     1
102
RTVSPost2010Prop35
280
     0
102
RTVSPost2010PropOp35
 70
     1
102
RTVSPost2010Prop36
280
     0
102
RTVSPost2010PropOp36
 70
     1
102
RTVSPost2010Prop37
 90
       50
102
RTVSPost2010PropOp37
 70
     1
102
RTVSPost2010Prop38
140
0.0
102
RTVSPost2010PropOp38
 70
     1
102
RTVSPost2010Prop39
140
1.0
102
RTVSPost2010PropOp39
 70
     1
102
RTVSPost2010Prop40
 90
        0
102
RTVSPost2010PropOp40
 70
     1
102
RTVSPost2010Prop41ColorIndex
 90
       18
102
RTVSPost2010Prop41ColorRGB
 90
        0
102
RTVSPost2010PropOp41
 70
     1
102
RTVSPost2010Prop42
 90
       50
102
RTVSPost2010PropOp42
 70
     1
102
RTVSPost2010Prop43
 90
        3
102
RTVSPost2010PropOp43
 70
     1
102
RTVSPost2010Prop44ColorIndex
 90
        5
102
RTVSPost2010Prop44ColorRGB
 90
      255
102
RTVSPost2010PropOp44
 70
     1
102
RTVSPost2010Prop45
280
     0
102
RTVSPost2010PropOp45
 70
     1
102
RTVSPost2010Prop46
 90
       50
102
RTVSPost2010PropOp46
 70
     1
102
RTVSPost2010Prop47
 90
       50
102
RTVSPost2010PropOp47
 70
     1
102
RTVSPost2010Prop48
 90
       50
102
RTVSPost2010PropOp48
 70
     1
102
RTVSPost2010Prop49
280
     0
102
RTVSPost2010PropOp49
 70
     1
102
RTVSPost2010Prop50
 90
       50
102
RTVSPost2010PropOp50
 70
     1
102
RTVSPost2010Prop51ColorIndex
 90
      256
102
RTVSPost2010Prop51ColorRGB
 90
-16777216
102
RTVSPost2010PropOp51
 70
     0
102
RTVSPost2010Prop52
140
1.0
102
RTVSPost2010PropOp52
 70
     0
102
RTVSPost2010Prop53
 90
        2
102
RTVSPost2010PropOp53
 70
     1
102
RTVSPost2010Prop54
  1
strokes_ogs.tif
102
RTVSPost2010PropOp54
 70
     1
102
RTVSPost2010Prop55
280
     0
102
RTVSPost2010PropOp55
 70
     1
102
RTVSPost2010Prop56
140
1.0
102
RTVSPost2010PropOp56
 70
     1
102
RTVSPost2010Prop57
140
1.0
102
RTVSPost2010PropOp57
 70
     1
102
RTVSPropertyOp0
 70
     1
102
RTVSPropertyOp1
 70
     1
102
RTVSPropertyOp2
 70
     1
102
RTVSPropertyOp3
 70
     1
102
RTVSPropertyOp4
 70
     1
102
RTVSPropertyOp5
 70
     1
102
RTVSPropertyOp6
 70
     1
102
RTVSPropertyOp7
 70
     1
102
RTVSPropertyOp8
 70
     1
102
RTVSPropertyOp9
 70
     1
102
RTVSPropertyOp10
 70
     1
102
RTVSPropertyOp11
 70
     1
102
RTVSPropertyOp12
 70
     1
102
RTVSPropertyOp13
 70
     1
102
RTVSPropertyOp14
 70
     1
102
RTVSPropertyOp15
 70
     1
102
RTVSPropertyOp16
 70
     1
102
RTVSPropertyOp17
 70
     1
102
RTVSPropertyOp18
 70
     1
102
RTVSPropertyOp19
 70
     1
102
RTVSPropertyOp20
 70
     1
102
RTVSPropertyOp21
 70
     1
102
RTVSPropertyOp22
 70
     1
102
RTVSPropertyOp23
 70
     1
102
RTVSPropertyOp24
 70
     1
102
RTVSPropertyOp25
 70
     1
102
RTVSPropertyOp26
 70
     1
102
RTVSPropertyOp27
 70
     1
102
RTVSPropertyOp28
 70
     1
102
RTVSPropertyOp29
 70
     1
102
RTVSPropertyOp30
 70
     1
102
RTVSPropertyOp31
 70
     1
102
RTVSPropertyOp32
 70
     1
102
RTVSPropertyOp33
 70
     1
102
RTVSPropertyOp34
 70
     1
102
RTVSPropertyOp35
 70
     1
102
RTVSPropertyOp36
 70
     1
102
RTVSPropertyOp37
 70
     1
102
RTVSPropertyOp38
 70
     1
102
RTVSPropertyOp39
 70
     1
102
RTVSPropertyOp40
 70
     1
102
RTVSPropertyOp41
 70
     1
102
RTVSPropertyOp42
 70
     1
102
RTVSPropertyOp43
 70
     1
102
RTVSPropertyOp44
 70
     1
102
RTVSPropertyOp45
 70
     1
102
RTVSPropertyOp46
 70
     1
102
RTVSPropertyOp47
 70
     1
102
RTVSPropertyOp48
 70
     1
102
RTVSPropertyOp49
 70
     1
102
RTVSPropertyOp50
 70
     1
102
RTVSPropertyOp51
 70
     0
102
RTVSPropertyOp52
 70
     0
102
RTVSPropertyOp53
 70
     1
102
RTVSPropertyOp54
 70
     1
102
RTVSPropertyOp55
 70
     1
102
RTVSPropertyOp56
 70
     1
102
RTVSPropertyOp57
 70
     1
102
RTVSPropertyOp58
 70
     1
102
RTVSPropertyOp59
 70
     1
102
RTVSPropertyOp60
 70
     1
102
RTVSPropertyOp61
 70
     1
102
RTVSPropertyOp62
 70
     1
  0
XRECORD
  5
ACC3
102
{ACAD_REACTORS
330
ACC2
102
}
330
ACC2
100
AcDbXrecord
280
     1
102
RTVSPost2010Prop28
280
     0
102
RTVSPost2010PropOp28
 70
     1
102
RTVSPost2010Prop29
280
     1
102
RTVSPost2010PropOp29
 70
     1
102
RTVSPost2010Prop30
280
     1
102
RTVSPost2010PropOp30
 70
     1
102
RTVSPost2010Prop31
280
     0
102
RTVSPost2010PropOp31
 70
     1
102
RTVSPost2010Prop32
280
     0
102
RTVSPost2010PropOp32
 70
     1
102
RTVSPost2010Prop33
280
     0
102
RTVSPost2010PropOp33
 70
     1
102
RTVSPost2010Prop34
280
     0
102
RTVSPost2010PropOp34
 70
     1
102
RTVSPost2010Prop35
280
     0
102
RTVSPost2010PropOp35
 70
     1
102
RTVSPost2010Prop36
280
     0
102
RTVSPost2010PropOp36
 70
     1
102
RTVSPost2010Prop37
 90
       50
102
RTVSPost2010PropOp37
 70
     1
102
RTVSPost2010Prop38
140
0.0
102
RTVSPost2010PropOp38
 70
     1
102
RTVSPost2010Prop39
140
1.0
102
RTVSPost2010PropOp39
 70
     1
102
RTVSPost2010Prop40
 90
        0
102
RTVSPost2010PropOp40
 70
     1
102
RTVSPost2010Prop41ColorIndex
 90
       18
102
RTVSPost2010Prop41ColorRGB
 90
        0
102
RTVSPost2010PropOp41
 70
     1
102
RTVSPost2010Prop42
 90
       50
102
RTVSPost2010PropOp42
 70
     1
102
RTVSPost2010Prop43
 90
        3
102
RTVSPost2010PropOp43
 70
     1
102
RTVSPost2010Prop44ColorIndex
 90
        5
102
RTVSPost2010Prop44ColorRGB
 90
      255
102
RTVSPost2010PropOp44
 70
     1
102
RTVSPost2010Prop45
280
     0
102
RTVSPost2010PropOp45
 70
     1
102
RTVSPost2010Prop46
 90
       50
102
RTVSPost2010PropOp46
 70
     1
102
RTVSPost2010Prop47
 90
       50
102
RTVSPost2010PropOp47
 70
     1
102
RTVSPost2010Prop48
 90
       50
102
RTVSPost2010PropOp48
 70
     1
102
RTVSPost2010Prop49
280
     0
102
RTVSPost2010PropOp49
 70
     1
102
RTVSPost2010Prop50
 90
       50
102
RTVSPost2010PropOp50
 70
     1
102
RTVSPost2010Prop51ColorIndex
 90
      256
102
RTVSPost2010Prop51ColorRGB
 90
-16777216
102
RTVSPost2010PropOp51
 70
     0
102
RTVSPost2010Prop52
140
1.0
102
RTVSPost2010PropOp52
 70
     0
102
RTVSPost2010Prop53
 90
        2
102
RTVSPost2010PropOp53
 70
     1
102
RTVSPost2010Prop54
  1
strokes_ogs.tif
102
RTVSPost2010PropOp54
 70
     1
102
RTVSPost2010Prop55
280
     0
102
RTVSPost2010PropOp55
 70
     1
102
RTVSPost2010Prop56
140
1.0
102
RTVSPost2010PropOp56
 70
     1
102
RTVSPost2010Prop57
140
1.0
102
RTVSPost2010PropOp57
 70
     1
102
RTVSPropertyOp0
 70
     1
102
RTVSPropertyOp1
 70
     1
102
RTVSPropertyOp2
 70
     1
102
RTVSPropertyOp3
 70
     1
102
RTVSPropertyOp4
 70
     1
102
RTVSPropertyOp5
 70
     1
102
RTVSPropertyOp6
 70
     1
102
RTVSPropertyOp7
 70
     1
102
RTVSPropertyOp8
 70
     1
102
RTVSPropertyOp9
 70
     1
102
RTVSPropertyOp10
 70
     1
102
RTVSPropertyOp11
 70
     1
102
RTVSPropertyOp12
 70
     1
102
RTVSPropertyOp13
 70
     1
102
RTVSPropertyOp14
 70
     1
102
RTVSPropertyOp15
 70
     1
102
RTVSPropertyOp16
 70
     1
102
RTVSPropertyOp17
 70
     1
102
RTVSPropertyOp18
 70
     1
102
RTVSPropertyOp19
 70
     1
102
RTVSPropertyOp20
 70
     1
102
RTVSPropertyOp21
 70
     1
102
RTVSPropertyOp22
 70
     1
102
RTVSPropertyOp23
 70
     1
102
RTVSPropertyOp24
 70
     1
102
RTVSPropertyOp25
 70
     1
102
RTVSPropertyOp26
 70
     1
102
RTVSPropertyOp27
 70
     1
102
RTVSPropertyOp28
 70
     1
102
RTVSPropertyOp29
 70
     1
102
RTVSPropertyOp30
 70
     1
102
RTVSPropertyOp31
 70
     1
102
RTVSPropertyOp32
 70
     1
102
RTVSPropertyOp33
 70
     1
102
RTVSPropertyOp34
 70
     1
102
RTVSPropertyOp35
 70
     1
102
RTVSPropertyOp36
 70
     1
102
RTVSPropertyOp37
 70
     1
102
RTVSPropertyOp38
 70
     1
102
RTVSPropertyOp39
 70
     1
102
RTVSPropertyOp40
 70
     1
102
RTVSPropertyOp41
 70
     1
102
RTVSPropertyOp42
 70
     1
102
RTVSPropertyOp43
 70
     1
102
RTVSPropertyOp44
 70
     1
102
RTVSPropertyOp45
 70
     1
102
RTVSPropertyOp46
 70
     1
102
RTVSPropertyOp47
 70
     1
102
RTVSPropertyOp48
 70
     1
102
RTVSPropertyOp49
 70
     1
102
RTVSPropertyOp50
 70
     1
102
RTVSPropertyOp51
 70
     0
102
RTVSPropertyOp52
 70
     0
102
RTVSPropertyOp53
 70
     1
102
RTVSPropertyOp54
 70
     1
102
RTVSPropertyOp55
 70
     1
102
RTVSPropertyOp56
 70
     1
102
RTVSPropertyOp57
 70
     1
102
RTVSPropertyOp58
 70
     1
102
RTVSPropertyOp59
 70
     1
102
RTVSPropertyOp60
 70
     1
102
RTVSPropertyOp61
 70
     1
102
RTVSPropertyOp62
 70
     1
  0
XRECORD
  5
ACD1
102
{ACAD_REACTORS
330
ACD0
102
}
330
ACD0
100
AcDbXrecord
280
     1
102
RTVSPost2010Prop28
280
     0
102
RTVSPost2010PropOp28
 70
     1
102
RTVSPost2010Prop29
280
     1
102
RTVSPost2010PropOp29
 70
     1
102
RTVSPost2010Prop30
280
     1
102
RTVSPost2010PropOp30
 70
     1
102
RTVSPost2010Prop31
280
     0
102
RTVSPost2010PropOp31
 70
     1
102
RTVSPost2010Prop32
280
     0
102
RTVSPost2010PropOp32
 70
     1
102
RTVSPost2010Prop33
280
     0
102
RTVSPost2010PropOp33
 70
     1
102
RTVSPost2010Prop34
280
     0
102
RTVSPost2010PropOp34
 70
     1
102
RTVSPost2010Prop35
280
     0
102
RTVSPost2010PropOp35
 70
     1
102
RTVSPost2010Prop36
280
     0
102
RTVSPost2010PropOp36
 70
     1
102
RTVSPost2010Prop37
 90
       50
102
RTVSPost2010PropOp37
 70
     1
102
RTVSPost2010Prop38
140
0.0
102
RTVSPost2010PropOp38
 70
     1
102
RTVSPost2010Prop39
140
1.0
102
RTVSPost2010PropOp39
 70
     1
102
RTVSPost2010Prop40
 90
        0
102
RTVSPost2010PropOp40
 70
     1
102
RTVSPost2010Prop41ColorIndex
 90
       18
102
RTVSPost2010Prop41ColorRGB
 90
        0
102
RTVSPost2010PropOp41
 70
     1
102
RTVSPost2010Prop42
 90
       50
102
RTVSPost2010PropOp42
 70
     1
102
RTVSPost2010Prop43
 90
        3
102
RTVSPost2010PropOp43
 70
     1
102
RTVSPost2010Prop44ColorIndex
 90
        5
102
RTVSPost2010Prop44ColorRGB
 90
      255
102
RTVSPost2010PropOp44
 70
     1
102
RTVSPost2010Prop45
280
     0
102
RTVSPost2010PropOp45
 70
     1
102
RTVSPost2010Prop46
 90
       50
102
RTVSPost2010PropOp46
 70
     1
102
RTVSPost2010Prop47
 90
       50
102
RTVSPost2010PropOp47
 70
     1
102
RTVSPost2010Prop48
 90
       50
102
RTVSPost2010PropOp48
 70
     1
102
RTVSPost2010Prop49
280
     0
102
RTVSPost2010PropOp49
 70
     1
102
RTVSPost2010Prop50
 90
       50
102
RTVSPost2010PropOp50
 70
     1
102
RTVSPost2010Prop51ColorIndex
 90
      256
102
RTVSPost2010Prop51ColorRGB
 90
-16777216
102
RTVSPost2010PropOp51
 70
     0
102
RTVSPost2010Prop52
140
1.0
102
RTVSPost2010PropOp52
 70
     0
102
RTVSPost2010Prop53
 90
        2
102
RTVSPost2010PropOp53
 70
     1
102
RTVSPost2010Prop54
  1
strokes_ogs.tif
102
RTVSPost2010PropOp54
 70
     1
102
RTVSPost2010Prop55
280
     0
102
RTVSPost2010PropOp55
 70
     1
102
RTVSPost2010Prop56
140
1.0
102
RTVSPost2010PropOp56
 70
     1
102
RTVSPost2010Prop57
140
1.0
102
RTVSPost2010PropOp57
 70
     1
102
RTVSPropertyOp0
 70
     1
102
RTVSPropertyOp1
 70
     1
102
RTVSPropertyOp2
 70
     1
102
RTVSPropertyOp3
 70
     1
102
RTVSPropertyOp4
 70
     1
102
RTVSPropertyOp5
 70
     1
102
RTVSPropertyOp6
 70
     1
102
RTVSPropertyOp7
 70
     1
102
RTVSPropertyOp8
 70
     1
102
RTVSPropertyOp9
 70
     1
102
RTVSPropertyOp10
 70
     1
102
RTVSPropertyOp11
 70
     1
102
RTVSPropertyOp12
 70
     1
102
RTVSPropertyOp13
 70
     1
102
RTVSPropertyOp14
 70
     1
102
RTVSPropertyOp15
 70
     1
102
RTVSPropertyOp16
 70
     1
102
RTVSPropertyOp17
 70
     1
102
RTVSPropertyOp18
 70
     1
102
RTVSPropertyOp19
 70
     1
102
RTVSPropertyOp20
 70
     1
102
RTVSPropertyOp21
 70
     1
102
RTVSPropertyOp22
 70
     1
102
RTVSPropertyOp23
 70
     1
102
RTVSPropertyOp24
 70
     1
102
RTVSPropertyOp25
 70
     1
102
RTVSPropertyOp26
 70
     1
102
RTVSPropertyOp27
 70
     1
102
RTVSPropertyOp28
 70
     1
102
RTVSPropertyOp29
 70
     1
102
RTVSPropertyOp30
 70
     1
102
RTVSPropertyOp31
 70
     1
102
RTVSPropertyOp32
 70
     1
102
RTVSPropertyOp33
 70
     1
102
RTVSPropertyOp34
 70
     1
102
RTVSPropertyOp35
 70
     1
102
RTVSPropertyOp36
 70
     1
102
RTVSPropertyOp37
 70
     1
102
RTVSPropertyOp38
 70
     1
102
RTVSPropertyOp39
 70
     1
102
RTVSPropertyOp40
 70
     1
102
RTVSPropertyOp41
 70
     1
102
RTVSPropertyOp42
 70
     1
102
RTVSPropertyOp43
 70
     1
102
RTVSPropertyOp44
 70
     1
102
RTVSPropertyOp45
 70
     1
102
RTVSPropertyOp46
 70
     1
102
RTVSPropertyOp47
 70
     1
102
RTVSPropertyOp48
 70
     1
102
RTVSPropertyOp49
 70
     1
102
RTVSPropertyOp50
 70
     1
102
RTVSPropertyOp51
 70
     0
102
RTVSPropertyOp52
 70
     0
102
RTVSPropertyOp53
 70
     1
102
RTVSPropertyOp54
 70
     1
102
RTVSPropertyOp55
 70
     1
102
RTVSPropertyOp56
 70
     1
102
RTVSPropertyOp57
 70
     1
102
RTVSPropertyOp58
 70
     1
102
RTVSPropertyOp59
 70
     1
102
RTVSPropertyOp60
 70
     1
102
RTVSPropertyOp61
 70
     1
102
RTVSPropertyOp62
 70
     1
  0
XRECORD
  5
ACD9
102
{ACAD_REACTORS
330
ACD8
102
}
330
ACD8
100
AcDbXrecord
280
     1
102
RTVSPost2010Prop28
280
     0
102
RTVSPost2010PropOp28
 70
     1
102
RTVSPost2010Prop29
280
     1
102
RTVSPost2010PropOp29
 70
     1
102
RTVSPost2010Prop30
280
     1
102
RTVSPost2010PropOp30
 70
     1
102
RTVSPost2010Prop31
280
     0
102
RTVSPost2010PropOp31
 70
     1
102
RTVSPost2010Prop32
280
     0
102
RTVSPost2010PropOp32
 70
     1
102
RTVSPost2010Prop33
280
     0
102
RTVSPost2010PropOp33
 70
     1
102
RTVSPost2010Prop34
280
     0
102
RTVSPost2010PropOp34
 70
     1
102
RTVSPost2010Prop35
280
     0
102
RTVSPost2010PropOp35
 70
     1
102
RTVSPost2010Prop36
280
     0
102
RTVSPost2010PropOp36
 70
     1
102
RTVSPost2010Prop37
 90
       50
102
RTVSPost2010PropOp37
 70
     1
102
RTVSPost2010Prop38
140
0.0
102
RTVSPost2010PropOp38
 70
     1
102
RTVSPost2010Prop39
140
1.0
102
RTVSPost2010PropOp39
 70
     1
102
RTVSPost2010Prop40
 90
        0
102
RTVSPost2010PropOp40
 70
     1
102
RTVSPost2010Prop41ColorIndex
 90
       18
102
RTVSPost2010Prop41ColorRGB
 90
        0
102
RTVSPost2010PropOp41
 70
     1
102
RTVSPost2010Prop42
 90
       50
102
RTVSPost2010PropOp42
 70
     1
102
RTVSPost2010Prop43
 90
        3
102
RTVSPost2010PropOp43
 70
     1
102
RTVSPost2010Prop44ColorIndex
 90
        5
102
RTVSPost2010Prop44ColorRGB
 90
      255
102
RTVSPost2010PropOp44
 70
     1
102
RTVSPost2010Prop45
280
     0
102
RTVSPost2010PropOp45
 70
     1
102
RTVSPost2010Prop46
 90
       50
102
RTVSPost2010PropOp46
 70
     1
102
RTVSPost2010Prop47
 90
       50
102
RTVSPost2010PropOp47
 70
     1
102
RTVSPost2010Prop48
 90
       50
102
RTVSPost2010PropOp48
 70
     1
102
RTVSPost2010Prop49
280
     0
102
RTVSPost2010PropOp49
 70
     1
102
RTVSPost2010Prop50
 90
       50
102
RTVSPost2010PropOp50
 70
     1
102
RTVSPost2010Prop51ColorIndex
 90
      256
102
RTVSPost2010Prop51ColorRGB
 90
-16777216
102
RTVSPost2010PropOp51
 70
     0
102
RTVSPost2010Prop52
140
1.0
102
RTVSPost2010PropOp52
 70
     0
102
RTVSPost2010Prop53
 90
        2
102
RTVSPost2010PropOp53
 70
     1
102
RTVSPost2010Prop54
  1
strokes_ogs.tif
102
RTVSPost2010PropOp54
 70
     1
102
RTVSPost2010Prop55
280
     0
102
RTVSPost2010PropOp55
 70
     1
102
RTVSPost2010Prop56
140
1.0
102
RTVSPost2010PropOp56
 70
     1
102
RTVSPost2010Prop57
140
1.0
102
RTVSPost2010PropOp57
 70
     1
102
RTVSPropertyOp0
 70
     1
102
RTVSPropertyOp1
 70
     1
102
RTVSPropertyOp2
 70
     1
102
RTVSPropertyOp3
 70
     1
102
RTVSPropertyOp4
 70
     1
102
RTVSPropertyOp5
 70
     1
102
RTVSPropertyOp6
 70
     1
102
RTVSPropertyOp7
 70
     1
102
RTVSPropertyOp8
 70
     1
102
RTVSPropertyOp9
 70
     1
102
RTVSPropertyOp10
 70
     1
102
RTVSPropertyOp11
 70
     1
102
RTVSPropertyOp12
 70
     1
102
RTVSPropertyOp13
 70
     1
102
RTVSPropertyOp14
 70
     1
102
RTVSPropertyOp15
 70
     1
102
RTVSPropertyOp16
 70
     1
102
RTVSPropertyOp17
 70
     1
102
RTVSPropertyOp18
 70
     1
102
RTVSPropertyOp19
 70
     1
102
RTVSPropertyOp20
 70
     1
102
RTVSPropertyOp21
 70
     1
102
RTVSPropertyOp22
 70
     1
102
RTVSPropertyOp23
 70
     1
102
RTVSPropertyOp24
 70
     1
102
RTVSPropertyOp25
 70
     1
102
RTVSPropertyOp26
 70
     1
102
RTVSPropertyOp27
 70
     1
102
RTVSPropertyOp28
 70
     1
102
RTVSPropertyOp29
 70
     1
102
RTVSPropertyOp30
 70
     1
102
RTVSPropertyOp31
 70
     1
102
RTVSPropertyOp32
 70
     1
102
RTVSPropertyOp33
 70
     1
102
RTVSPropertyOp34
 70
     1
102
RTVSPropertyOp35
 70
     1
102
RTVSPropertyOp36
 70
     1
102
RTVSPropertyOp37
 70
     1
102
RTVSPropertyOp38
 70
     1
102
RTVSPropertyOp39
 70
     1
102
RTVSPropertyOp40
 70
     1
102
RTVSPropertyOp41
 70
     1
102
RTVSPropertyOp42
 70
     1
102
RTVSPropertyOp43
 70
     1
102
RTVSPropertyOp44
 70
     1
102
RTVSPropertyOp45
 70
     1
102
RTVSPropertyOp46
 70
     1
102
RTVSPropertyOp47
 70
     1
102
RTVSPropertyOp48
 70
     1
102
RTVSPropertyOp49
 70
     1
102
RTVSPropertyOp50
 70
     1
102
RTVSPropertyOp51
 70
     0
102
RTVSPropertyOp52
 70
     0
102
RTVSPropertyOp53
 70
     1
102
RTVSPropertyOp54
 70
     1
102
RTVSPropertyOp55
 70
     1
102
RTVSPropertyOp56
 70
     1
102
RTVSPropertyOp57
 70
     1
102
RTVSPropertyOp58
 70
     1
102
RTVSPropertyOp59
 70
     1
102
RTVSPropertyOp60
 70
     1
102
RTVSPropertyOp61
 70
     1
102
RTVSPropertyOp62
 70
     1
  0
XRECORD
  5
ACCB
102
{ACAD_REACTORS
330
ACCA
102
}
330
ACCA
100
AcDbXrecord
280
     1
102
RTVSPost2010Prop28
280
     0
102
RTVSPost2010PropOp28
 70
     1
102
RTVSPost2010Prop29
280
     1
102
RTVSPost2010PropOp29
 70
     1
102
RTVSPost2010Prop30
280
     1
102
RTVSPost2010PropOp30
 70
     1
102
RTVSPost2010Prop31
280
     0
102
RTVSPost2010PropOp31
 70
     1
102
RTVSPost2010Prop32
280
     0
102
RTVSPost2010PropOp32
 70
     1
102
RTVSPost2010Prop33
280
     0
102
RTVSPost2010PropOp33
 70
     1
102
RTVSPost2010Prop34
280
     0
102
RTVSPost2010PropOp34
 70
     1
102
RTVSPost2010Prop35
280
     0
102
RTVSPost2010PropOp35
 70
     1
102
RTVSPost2010Prop36
280
     0
102
RTVSPost2010PropOp36
 70
     1
102
RTVSPost2010Prop37
 90
       50
102
RTVSPost2010PropOp37
 70
     1
102
RTVSPost2010Prop38
140
0.0
102
RTVSPost2010PropOp38
 70
     1
102
RTVSPost2010Prop39
140
1.0
102
RTVSPost2010PropOp39
 70
     1
102
RTVSPost2010Prop40
 90
        0
102
RTVSPost2010PropOp40
 70
     1
102
RTVSPost2010Prop41ColorIndex
 90
       18
102
RTVSPost2010Prop41ColorRGB
 90
        0
102
RTVSPost2010PropOp41
 70
     1
102
RTVSPost2010Prop42
 90
       50
102
RTVSPost2010PropOp42
 70
     1
102
RTVSPost2010Prop43
 90
        3
102
RTVSPost2010PropOp43
 70
     1
102
RTVSPost2010Prop44ColorIndex
 90
        5
102
RTVSPost2010Prop44ColorRGB
 90
      255
102
RTVSPost2010PropOp44
 70
     1
102
RTVSPost2010Prop45
280
     0
102
RTVSPost2010PropOp45
 70
     1
102
RTVSPost2010Prop46
 90
       50
102
RTVSPost2010PropOp46
 70
     1
102
RTVSPost2010Prop47
 90
       50
102
RTVSPost2010PropOp47
 70
     1
102
RTVSPost2010Prop48
 90
       50
102
RTVSPost2010PropOp48
 70
     1
102
RTVSPost2010Prop49
280
     0
102
RTVSPost2010PropOp49
 70
     1
102
RTVSPost2010Prop50
 90
       50
102
RTVSPost2010PropOp50
 70
     1
102
RTVSPost2010Prop51ColorIndex
 90
      256
102
RTVSPost2010Prop51ColorRGB
 90
-16777216
102
RTVSPost2010PropOp51
 70
     0
102
RTVSPost2010Prop52
140
1.0
102
RTVSPost2010PropOp52
 70
     0
102
RTVSPost2010Prop53
 90
        2
102
RTVSPost2010PropOp53
 70
     1
102
RTVSPost2010Prop54
  1
strokes_ogs.tif
102
RTVSPost2010PropOp54
 70
     1
102
RTVSPost2010Prop55
280
     0
102
RTVSPost2010PropOp55
 70
     1
102
RTVSPost2010Prop56
140
1.0
102
RTVSPost2010PropOp56
 70
     1
102
RTVSPost2010Prop57
140
1.0
102
RTVSPost2010PropOp57
 70
     1
102
RTVSPropertyOp0
 70
     1
102
RTVSPropertyOp1
 70
     1
102
RTVSPropertyOp2
 70
     1
102
RTVSPropertyOp3
 70
     1
102
RTVSPropertyOp4
 70
     1
102
RTVSPropertyOp5
 70
     1
102
RTVSPropertyOp6
 70
     1
102
RTVSPropertyOp7
 70
     1
102
RTVSPropertyOp8
 70
     1
102
RTVSPropertyOp9
 70
     1
102
RTVSPropertyOp10
 70
     1
102
RTVSPropertyOp11
 70
     1
102
RTVSPropertyOp12
 70
     1
102
RTVSPropertyOp13
 70
     1
102
RTVSPropertyOp14
 70
     1
102
RTVSPropertyOp15
 70
     1
102
RTVSPropertyOp16
 70
     1
102
RTVSPropertyOp17
 70
     1
102
RTVSPropertyOp18
 70
     1
102
RTVSPropertyOp19
 70
     1
102
RTVSPropertyOp20
 70
     1
102
RTVSPropertyOp21
 70
     1
102
RTVSPropertyOp22
 70
     1
102
RTVSPropertyOp23
 70
     1
102
RTVSPropertyOp24
 70
     1
102
RTVSPropertyOp25
 70
     1
102
RTVSPropertyOp26
 70
     1
102
RTVSPropertyOp27
 70
     1
102
RTVSPropertyOp28
 70
     1
102
RTVSPropertyOp29
 70
     1
102
RTVSPropertyOp30
 70
     1
102
RTVSPropertyOp31
 70
     1
102
RTVSPropertyOp32
 70
     1
102
RTVSPropertyOp33
 70
     1
102
RTVSPropertyOp34
 70
     1
102
RTVSPropertyOp35
 70
     1
102
RTVSPropertyOp36
 70
     1
102
RTVSPropertyOp37
 70
     1
102
RTVSPropertyOp38
 70
     1
102
RTVSPropertyOp39
 70
     1
102
RTVSPropertyOp40
 70
     1
102
RTVSPropertyOp41
 70
     1
102
RTVSPropertyOp42
 70
     1
102
RTVSPropertyOp43
 70
     1
102
RTVSPropertyOp44
 70
     1
102
RTVSPropertyOp45
 70
     1
102
RTVSPropertyOp46
 70
     1
102
RTVSPropertyOp47
 70
     1
102
RTVSPropertyOp48
 70
     1
102
RTVSPropertyOp49
 70
     1
102
RTVSPropertyOp50
 70
     1
102
RTVSPropertyOp51
 70
     0
102
RTVSPropertyOp52
 70
     0
102
RTVSPropertyOp53
 70
     1
102
RTVSPropertyOp54
 70
     1
102
RTVSPropertyOp55
 70
     1
102
RTVSPropertyOp56
 70
     1
102
RTVSPropertyOp57
 70
     1
102
RTVSPropertyOp58
 70
     1
102
RTVSPropertyOp59
 70
     1
102
RTVSPropertyOp60
 70
     1
102
RTVSPropertyOp61
 70
     1
102
RTVSPropertyOp62
 70
     1
  0
XRECORD
  5
ACCF
102
{ACAD_REACTORS
330
ACCE
102
}
330
ACCE
100
AcDbXrecord
280
     1
102
RTVSPost2010Prop28
280
     0
102
RTVSPost2010PropOp28
 70
     1
102
RTVSPost2010Prop29
280
     1
102
RTVSPost2010PropOp29
 70
     1
102
RTVSPost2010Prop30
280
     1
102
RTVSPost2010PropOp30
 70
     1
102
RTVSPost2010Prop31
280
     0
102
RTVSPost2010PropOp31
 70
     1
102
RTVSPost2010Prop32
280
     0
102
RTVSPost2010PropOp32
 70
     1
102
RTVSPost2010Prop33
280
     0
102
RTVSPost2010PropOp33
 70
     1
102
RTVSPost2010Prop34
280
     0
102
RTVSPost2010PropOp34
 70
     1
102
RTVSPost2010Prop35
280
     0
102
RTVSPost2010PropOp35
 70
     1
102
RTVSPost2010Prop36
280
     0
102
RTVSPost2010PropOp36
 70
     1
102
RTVSPost2010Prop37
 90
       50
102
RTVSPost2010PropOp37
 70
     1
102
RTVSPost2010Prop38
140
0.0
102
RTVSPost2010PropOp38
 70
     1
102
RTVSPost2010Prop39
140
1.0
102
RTVSPost2010PropOp39
 70
     1
102
RTVSPost2010Prop40
 90
        0
102
RTVSPost2010PropOp40
 70
     1
102
RTVSPost2010Prop41ColorIndex
 90
       18
102
RTVSPost2010Prop41ColorRGB
 90
        0
102
RTVSPost2010PropOp41
 70
     1
102
RTVSPost2010Prop42
 90
       50
102
RTVSPost2010PropOp42
 70
     1
102
RTVSPost2010Prop43
 90
        3
102
RTVSPost2010PropOp43
 70
     1
102
RTVSPost2010Prop44ColorIndex
 90
        5
102
RTVSPost2010Prop44ColorRGB
 90
      255
102
RTVSPost2010PropOp44
 70
     1
102
RTVSPost2010Prop45
280
     0
102
RTVSPost2010PropOp45
 70
     1
102
RTVSPost2010Prop46
 90
       50
102
RTVSPost2010PropOp46
 70
     1
102
RTVSPost2010Prop47
 90
       50
102
RTVSPost2010PropOp47
 70
     1
102
RTVSPost2010Prop48
 90
       50
102
RTVSPost2010PropOp48
 70
     1
102
RTVSPost2010Prop49
280
     0
102
RTVSPost2010PropOp49
 70
     1
102
RTVSPost2010Prop50
 90
       50
102
RTVSPost2010PropOp50
 70
     1
102
RTVSPost2010Prop51ColorIndex
 90
      256
102
RTVSPost2010Prop51ColorRGB
 90
-16777216
102
RTVSPost2010PropOp51
 70
     0
102
RTVSPost2010Prop52
140
1.0
102
RTVSPost2010PropOp52
 70
     0
102
RTVSPost2010Prop53
 90
        2
102
RTVSPost2010PropOp53
 70
     1
102
RTVSPost2010Prop54
  1
strokes_ogs.tif
102
RTVSPost2010PropOp54
 70
     1
102
RTVSPost2010Prop55
280
     0
102
RTVSPost2010PropOp55
 70
     1
102
RTVSPost2010Prop56
140
1.0
102
RTVSPost2010PropOp56
 70
     1
102
RTVSPost2010Prop57
140
1.0
102
RTVSPost2010PropOp57
 70
     1
102
RTVSPropertyOp0
 70
     1
102
RTVSPropertyOp1
 70
     1
102
RTVSPropertyOp2
 70
     1
102
RTVSPropertyOp3
 70
     1
102
RTVSPropertyOp4
 70
     1
102
RTVSPropertyOp5
 70
     1
102
RTVSPropertyOp6
 70
     1
102
RTVSPropertyOp7
 70
     1
102
RTVSPropertyOp8
 70
     1
102
RTVSPropertyOp9
 70
     1
102
RTVSPropertyOp10
 70
     1
102
RTVSPropertyOp11
 70
     1
102
RTVSPropertyOp12
 70
     1
102
RTVSPropertyOp13
 70
     1
102
RTVSPropertyOp14
 70
     1
102
RTVSPropertyOp15
 70
     1
102
RTVSPropertyOp16
 70
     1
102
RTVSPropertyOp17
 70
     1
102
RTVSPropertyOp18
 70
     1
102
RTVSPropertyOp19
 70
     1
102
RTVSPropertyOp20
 70
     1
102
RTVSPropertyOp21
 70
     1
102
RTVSPropertyOp22
 70
     1
102
RTVSPropertyOp23
 70
     1
102
RTVSPropertyOp24
 70
     1
102
RTVSPropertyOp25
 70
     1
102
RTVSPropertyOp26
 70
     1
102
RTVSPropertyOp27
 70
     1
102
RTVSPropertyOp28
 70
     1
102
RTVSPropertyOp29
 70
     1
102
RTVSPropertyOp30
 70
     1
102
RTVSPropertyOp31
 70
     1
102
RTVSPropertyOp32
 70
     1
102
RTVSPropertyOp33
 70
     1
102
RTVSPropertyOp34
 70
     1
102
RTVSPropertyOp35
 70
     1
102
RTVSPropertyOp36
 70
     1
102
RTVSPropertyOp37
 70
     1
102
RTVSPropertyOp38
 70
     1
102
RTVSPropertyOp39
 70
     1
102
RTVSPropertyOp40
 70
     1
102
RTVSPropertyOp41
 70
     1
102
RTVSPropertyOp42
 70
     1
102
RTVSPropertyOp43
 70
     1
102
RTVSPropertyOp44
 70
     1
102
RTVSPropertyOp45
 70
     1
102
RTVSPropertyOp46
 70
     1
102
RTVSPropertyOp47
 70
     1
102
RTVSPropertyOp48
 70
     1
102
RTVSPropertyOp49
 70
     1
102
RTVSPropertyOp50
 70
     1
102
RTVSPropertyOp51
 70
     0
102
RTVSPropertyOp52
 70
     0
102
RTVSPropertyOp53
 70
     1
102
RTVSPropertyOp54
 70
     1
102
RTVSPropertyOp55
 70
     1
102
RTVSPropertyOp56
 70
     1
102
RTVSPropertyOp57
 70
     1
102
RTVSPropertyOp58
 70
     1
102
RTVSPropertyOp59
 70
     1
102
RTVSPropertyOp60
 70
     1
102
RTVSPropertyOp61
 70
     1
102
RTVSPropertyOp62
 70
     1
  0
XRECORD
  5
ACE9
102
{ACAD_REACTORS
330
ACE8
102
}
330
ACE8
100
AcDbXrecord
280
     1
102
RTVSPost2010Prop28
280
     0
102
RTVSPost2010PropOp28
 70
     1
102
RTVSPost2010Prop29
280
     1
102
RTVSPost2010PropOp29
 70
     1
102
RTVSPost2010Prop30
280
     1
102
RTVSPost2010PropOp30
 70
     1
102
RTVSPost2010Prop31
280
     0
102
RTVSPost2010PropOp31
 70
     1
102
RTVSPost2010Prop32
280
     0
102
RTVSPost2010PropOp32
 70
     1
102
RTVSPost2010Prop33
280
     0
102
RTVSPost2010PropOp33
 70
     1
102
RTVSPost2010Prop34
280
     0
102
RTVSPost2010PropOp34
 70
     1
102
RTVSPost2010Prop35
280
     0
102
RTVSPost2010PropOp35
 70
     1
102
RTVSPost2010Prop36
280
     0
102
RTVSPost2010PropOp36
 70
     1
102
RTVSPost2010Prop37
 90
       50
102
RTVSPost2010PropOp37
 70
     0
102
RTVSPost2010Prop38
140
0.0
102
RTVSPost2010PropOp38
 70
     0
102
RTVSPost2010Prop39
140
1.0
102
RTVSPost2010PropOp39
 70
     0
102
RTVSPost2010Prop40
 90
        0
102
RTVSPost2010PropOp40
 70
     0
102
RTVSPost2010Prop41ColorIndex
 90
       18
102
RTVSPost2010Prop41ColorRGB
 90
        0
102
RTVSPost2010PropOp41
 70
     0
102
RTVSPost2010Prop42
 90
       50
102
RTVSPost2010PropOp42
 70
     0
102
RTVSPost2010Prop43
 90
        3
102
RTVSPost2010PropOp43
 70
     0
102
RTVSPost2010Prop44ColorIndex
 90
        5
102
RTVSPost2010Prop44ColorRGB
 90
      255
102
RTVSPost2010PropOp44
 70
     0
102
RTVSPost2010Prop45
280
     0
102
RTVSPost2010PropOp45
 70
     1
102
RTVSPost2010Prop46
 90
       50
102
RTVSPost2010PropOp46
 70
     0
102
RTVSPost2010Prop47
 90
       50
102
RTVSPost2010PropOp47
 70
     0
102
RTVSPost2010Prop48
 90
       50
102
RTVSPost2010PropOp48
 70
     0
102
RTVSPost2010Prop49
280
     0
102
RTVSPost2010PropOp49
 70
     1
102
RTVSPost2010Prop50
 90
       50
102
RTVSPost2010PropOp50
 70
     0
102
RTVSPost2010Prop51ColorIndex
 90
      256
102
RTVSPost2010Prop51ColorRGB
 90
-16777216
102
RTVSPost2010PropOp51
 70
     0
102
RTVSPost2010Prop52
140
1.0
102
RTVSPost2010PropOp52
 70
     0
102
RTVSPost2010Prop53
 90
        2
102
RTVSPost2010PropOp53
 70
     0
102
RTVSPost2010Prop54
  1
strokes_ogs.tif
102
RTVSPost2010PropOp54
 70
     0
102
RTVSPost2010Prop55
280
     0
102
RTVSPost2010PropOp55
 70
     1
102
RTVSPost2010Prop56
140
1.0
102
RTVSPost2010PropOp56
 70
     0
102
RTVSPost2010Prop57
140
1.0
102
RTVSPost2010PropOp57
 70
     0
102
RTVSPropertyOp0
 70
     0
102
RTVSPropertyOp1
 70
     0
102
RTVSPropertyOp2
 70
     0
102
RTVSPropertyOp3
 70
     0
102
RTVSPropertyOp4
 70
     0
102
RTVSPropertyOp5
 70
     0
102
RTVSPropertyOp6
 70
     0
102
RTVSPropertyOp7
 70
     0
102
RTVSPropertyOp8
 70
     0
102
RTVSPropertyOp9
 70
     0
102
RTVSPropertyOp10
 70
     0
102
RTVSPropertyOp11
 70
     0
102
RTVSPropertyOp12
 70
     0
102
RTVSPropertyOp13
 70
     0
102
RTVSPropertyOp14
 70
     2
102
RTVSPropertyOp15
 70
     0
102
RTVSPropertyOp16
 70
     0
102
RTVSPropertyOp17
 70
     0
102
RTVSPropertyOp18
 70
     0
102
RTVSPropertyOp19
 70
     0
102
RTVSPropertyOp20
 70
     0
102
RTVSPropertyOp21
 70
     0
102
RTVSPropertyOp22
 70
     0
102
RTVSPropertyOp23
 70
     0
102
RTVSPropertyOp24
 70
     0
102
RTVSPropertyOp25
 70
     0
102
RTVSPropertyOp26
 70
     0
102
RTVSPropertyOp27
 70
     0
102
RTVSPropertyOp28
 70
     1
102
RTVSPropertyOp29
 70
     1
102
RTVSPropertyOp30
 70
     1
102
RTVSPropertyOp31
 70
     1
102
RTVSPropertyOp32
 70
     1
102
RTVSPropertyOp33
 70
     1
102
RTVSPropertyOp34
 70
     1
102
RTVSPropertyOp35
 70
     1
102
RTVSPropertyOp36
 70
     1
102
RTVSPropertyOp37
 70
     0
102
RTVSPropertyOp38
 70
     0
102
RTVSPropertyOp39
 70
     0
102
RTVSPropertyOp40
 70
     0
102
RTVSPropertyOp41
 70
     0
102
RTVSPropertyOp42
 70
     0
102
RTVSPropertyOp43
 70
     0
102
RTVSPropertyOp44
 70
     0
102
RTVSPropertyOp45
 70
     1
102
RTVSPropertyOp46
 70
     0
102
RTVSPropertyOp47
 70
     0
102
RTVSPropertyOp48
 70
     0
102
RTVSPropertyOp49
 70
     1
102
RTVSPropertyOp50
 70
     0
102
RTVSPropertyOp51
 70
     0
102
RTVSPropertyOp52
 70
     0
102
RTVSPropertyOp53
 70
     0
102
RTVSPropertyOp54
 70
     0
102
RTVSPropertyOp55
 70
     1
102
RTVSPropertyOp56
 70
     0
102
RTVSPropertyOp57
 70
     0
102
RTVSPropertyOp58
 70
     0
102
RTVSPropertyOp59
 70
     0
102
RTVSPropertyOp60
 70
     0
102
RTVSPropertyOp61
 70
     0
102
RTVSPropertyOp62
 70
     0
  0
XRECORD
  5
ACD7
102
{ACAD_REACTORS
330
ACD6
102
}
330
ACD6
100
AcDbXrecord
280
     1
102
RTVSPost2010Prop28
280
     0
102
RTVSPost2010PropOp28
 70
     1
102
RTVSPost2010Prop29
280
     1
102
RTVSPost2010PropOp29
 70
     1
102
RTVSPost2010Prop30
280
     1
102
RTVSPost2010PropOp30
 70
     1
102
RTVSPost2010Prop31
280
     0
102
RTVSPost2010PropOp31
 70
     1
102
RTVSPost2010Prop32
280
     0
102
RTVSPost2010PropOp32
 70
     1
102
RTVSPost2010Prop33
280
     0
102
RTVSPost2010PropOp33
 70
     1
102
RTVSPost2010Prop34
280
     0
102
RTVSPost2010PropOp34
 70
     1
102
RTVSPost2010Prop35
280
     0
102
RTVSPost2010PropOp35
 70
     1
102
RTVSPost2010Prop36
280
     0
102
RTVSPost2010PropOp36
 70
     1
102
RTVSPost2010Prop37
 90
       50
102
RTVSPost2010PropOp37
 70
     1
102
RTVSPost2010Prop38
140
0.0
102
RTVSPost2010PropOp38
 70
     1
102
RTVSPost2010Prop39
140
1.0
102
RTVSPost2010PropOp39
 70
     1
102
RTVSPost2010Prop40
 90
        0
102
RTVSPost2010PropOp40
 70
     1
102
RTVSPost2010Prop41ColorIndex
 90
       18
102
RTVSPost2010Prop41ColorRGB
 90
        0
102
RTVSPost2010PropOp41
 70
     1
102
RTVSPost2010Prop42
 90
       50
102
RTVSPost2010PropOp42
 70
     1
102
RTVSPost2010Prop43
 90
        3
102
RTVSPost2010PropOp43
 70
     1
102
RTVSPost2010Prop44ColorIndex
 90
        5
102
RTVSPost2010Prop44ColorRGB
 90
      255
102
RTVSPost2010PropOp44
 70
     1
102
RTVSPost2010Prop45
280
     0
102
RTVSPost2010PropOp45
 70
     1
102
RTVSPost2010Prop46
 90
       50
102
RTVSPost2010PropOp46
 70
     1
102
RTVSPost2010Prop47
 90
       50
102
RTVSPost2010PropOp47
 70
     1
102
RTVSPost2010Prop48
 90
       50
102
RTVSPost2010PropOp48
 70
     1
102
RTVSPost2010Prop49
280
     0
102
RTVSPost2010PropOp49
 70
     1
102
RTVSPost2010Prop50
 90
       50
102
RTVSPost2010PropOp50
 70
     1
102
RTVSPost2010Prop51ColorIndex
 90
      256
102
RTVSPost2010Prop51ColorRGB
 90
-16777216
102
RTVSPost2010PropOp51
 70
     0
102
RTVSPost2010Prop52
140
1.0
102
RTVSPost2010PropOp52
 70
     0
102
RTVSPost2010Prop53
 90
        2
102
RTVSPost2010PropOp53
 70
     1
102
RTVSPost2010Prop54
  1
strokes_ogs.tif
102
RTVSPost2010PropOp54
 70
     1
102
RTVSPost2010Prop55
280
     0
102
RTVSPost2010PropOp55
 70
     1
102
RTVSPost2010Prop56
140
1.0
102
RTVSPost2010PropOp56
 70
     1
102
RTVSPost2010Prop57
140
1.0
102
RTVSPost2010PropOp57
 70
     1
102
RTVSPropertyOp0
 70
     1
102
RTVSPropertyOp1
 70
     1
102
RTVSPropertyOp2
 70
     1
102
RTVSPropertyOp3
 70
     1
102
RTVSPropertyOp4
 70
     1
102
RTVSPropertyOp5
 70
     1
102
RTVSPropertyOp6
 70
     1
102
RTVSPropertyOp7
 70
     1
102
RTVSPropertyOp8
 70
     1
102
RTVSPropertyOp9
 70
     1
102
RTVSPropertyOp10
 70
     1
102
RTVSPropertyOp11
 70
     1
102
RTVSPropertyOp12
 70
     1
102
RTVSPropertyOp13
 70
     1
102
RTVSPropertyOp14
 70
     1
102
RTVSPropertyOp15
 70
     1
102
RTVSPropertyOp16
 70
     1
102
RTVSPropertyOp17
 70
     1
102
RTVSPropertyOp18
 70
     1
102
RTVSPropertyOp19
 70
     1
102
RTVSPropertyOp20
 70
     1
102
RTVSPropertyOp21
 70
     1
102
RTVSPropertyOp22
 70
     1
102
RTVSPropertyOp23
 70
     1
102
RTVSPropertyOp24
 70
     1
102
RTVSPropertyOp25
 70
     1
102
RTVSPropertyOp26
 70
     1
102
RTVSPropertyOp27
 70
     1
102
RTVSPropertyOp28
 70
     1
102
RTVSPropertyOp29
 70
     1
102
RTVSPropertyOp30
 70
     1
102
RTVSPropertyOp31
 70
     1
102
RTVSPropertyOp32
 70
     1
102
RTVSPropertyOp33
 70
     1
102
RTVSPropertyOp34
 70
     1
102
RTVSPropertyOp35
 70
     1
102
RTVSPropertyOp36
 70
     1
102
RTVSPropertyOp37
 70
     1
102
RTVSPropertyOp38
 70
     1
102
RTVSPropertyOp39
 70
     1
102
RTVSPropertyOp40
 70
     1
102
RTVSPropertyOp41
 70
     1
102
RTVSPropertyOp42
 70
     1
102
RTVSPropertyOp43
 70
     1
102
RTVSPropertyOp44
 70
     1
102
RTVSPropertyOp45
 70
     1
102
RTVSPropertyOp46
 70
     1
102
RTVSPropertyOp47
 70
     1
102
RTVSPropertyOp48
 70
     1
102
RTVSPropertyOp49
 70
     1
102
RTVSPropertyOp50
 70
     1
102
RTVSPropertyOp51
 70
     0
102
RTVSPropertyOp52
 70
     0
102
RTVSPropertyOp53
 70
     1
102
RTVSPropertyOp54
 70
     1
102
RTVSPropertyOp55
 70
     1
102
RTVSPropertyOp56
 70
     1
102
RTVSPropertyOp57
 70
     1
102
RTVSPropertyOp58
 70
     1
102
RTVSPropertyOp59
 70
     1
102
RTVSPropertyOp60
 70
     1
102
RTVSPropertyOp61
 70
     1
102
RTVSPropertyOp62
 70
     1
  0
XRECORD
  5
ACBB
102
{ACAD_REACTORS
330
ACBA
102
}
330
ACBA
100
AcDbXrecord
280
     1
102
RTVSPost2010Prop28
280
     0
102
RTVSPost2010PropOp28
 70
     1
102
RTVSPost2010Prop29
280
     1
102
RTVSPost2010PropOp29
 70
     1
102
RTVSPost2010Prop30
280
     1
102
RTVSPost2010PropOp30
 70
     1
102
RTVSPost2010Prop31
280
     0
102
RTVSPost2010PropOp31
 70
     1
102
RTVSPost2010Prop32
280
     0
102
RTVSPost2010PropOp32
 70
     1
102
RTVSPost2010Prop33
280
     0
102
RTVSPost2010PropOp33
 70
     1
102
RTVSPost2010Prop34
280
     0
102
RTVSPost2010PropOp34
 70
     1
102
RTVSPost2010Prop35
280
     0
102
RTVSPost2010PropOp35
 70
     1
102
RTVSPost2010Prop36
280
     0
102
RTVSPost2010PropOp36
 70
     1
102
RTVSPost2010Prop37
 90
       50
102
RTVSPost2010PropOp37
 70
     1
102
RTVSPost2010Prop38
140
0.0
102
RTVSPost2010PropOp38
 70
     1
102
RTVSPost2010Prop39
140
1.0
102
RTVSPost2010PropOp39
 70
     1
102
RTVSPost2010Prop40
 90
        0
102
RTVSPost2010PropOp40
 70
     1
102
RTVSPost2010Prop41ColorIndex
 90
       18
102
RTVSPost2010Prop41ColorRGB
 90
        0
102
RTVSPost2010PropOp41
 70
     1
102
RTVSPost2010Prop42
 90
       50
102
RTVSPost2010PropOp42
 70
     1
102
RTVSPost2010Prop43
 90
        3
102
RTVSPost2010PropOp43
 70
     1
102
RTVSPost2010Prop44ColorIndex
 90
        5
102
RTVSPost2010Prop44ColorRGB
 90
      255
102
RTVSPost2010PropOp44
 70
     1
102
RTVSPost2010Prop45
280
     0
102
RTVSPost2010PropOp45
 70
     1
102
RTVSPost2010Prop46
 90
       50
102
RTVSPost2010PropOp46
 70
     1
102
RTVSPost2010Prop47
 90
       50
102
RTVSPost2010PropOp47
 70
     1
102
RTVSPost2010Prop48
 90
       50
102
RTVSPost2010PropOp48
 70
     1
102
RTVSPost2010Prop49
280
     0
102
RTVSPost2010PropOp49
 70
     1
102
RTVSPost2010Prop50
 90
       50
102
RTVSPost2010PropOp50
 70
     1
102
RTVSPost2010Prop51ColorIndex
 90
      256
102
RTVSPost2010Prop51ColorRGB
 90
-16777216
102
RTVSPost2010PropOp51
 70
     0
102
RTVSPost2010Prop52
140
1.0
102
RTVSPost2010PropOp52
 70
     0
102
RTVSPost2010Prop53
 90
        2
102
RTVSPost2010PropOp53
 70
     1
102
RTVSPost2010Prop54
  1
strokes_ogs.tif
102
RTVSPost2010PropOp54
 70
     1
102
RTVSPost2010Prop55
280
     0
102
RTVSPost2010PropOp55
 70
     1
102
RTVSPost2010Prop56
140
1.0
102
RTVSPost2010PropOp56
 70
     1
102
RTVSPost2010Prop57
140
1.0
102
RTVSPost2010PropOp57
 70
     1
102
RTVSPropertyOp0
 70
     1
102
RTVSPropertyOp1
 70
     1
102
RTVSPropertyOp2
 70
     1
102
RTVSPropertyOp3
 70
     1
102
RTVSPropertyOp4
 70
     1
102
RTVSPropertyOp5
 70
     1
102
RTVSPropertyOp6
 70
     1
102
RTVSPropertyOp7
 70
     1
102
RTVSPropertyOp8
 70
     1
102
RTVSPropertyOp9
 70
     1
102
RTVSPropertyOp10
 70
     1
102
RTVSPropertyOp11
 70
     1
102
RTVSPropertyOp12
 70
     1
102
RTVSPropertyOp13
 70
     1
102
RTVSPropertyOp14
 70
     1
102
RTVSPropertyOp15
 70
     1
102
RTVSPropertyOp16
 70
     1
102
RTVSPropertyOp17
 70
     1
102
RTVSPropertyOp18
 70
     1
102
RTVSPropertyOp19
 70
     1
102
RTVSPropertyOp20
 70
     1
102
RTVSPropertyOp21
 70
     1
102
RTVSPropertyOp22
 70
     1
102
RTVSPropertyOp23
 70
     1
102
RTVSPropertyOp24
 70
     1
102
RTVSPropertyOp25
 70
     1
102
RTVSPropertyOp26
 70
     1
102
RTVSPropertyOp27
 70
     1
102
RTVSPropertyOp28
 70
     1
102
RTVSPropertyOp29
 70
     1
102
RTVSPropertyOp30
 70
     1
102
RTVSPropertyOp31
 70
     1
102
RTVSPropertyOp32
 70
     1
102
RTVSPropertyOp33
 70
     1
102
RTVSPropertyOp34
 70
     1
102
RTVSPropertyOp35
 70
     1
102
RTVSPropertyOp36
 70
     1
102
RTVSPropertyOp37
 70
     1
102
RTVSPropertyOp38
 70
     1
102
RTVSPropertyOp39
 70
     1
102
RTVSPropertyOp40
 70
     1
102
RTVSPropertyOp41
 70
     1
102
RTVSPropertyOp42
 70
     1
102
RTVSPropertyOp43
 70
     1
102
RTVSPropertyOp44
 70
     1
102
RTVSPropertyOp45
 70
     1
102
RTVSPropertyOp46
 70
     1
102
RTVSPropertyOp47
 70
     1
102
RTVSPropertyOp48
 70
     1
102
RTVSPropertyOp49
 70
     1
102
RTVSPropertyOp50
 70
     1
102
RTVSPropertyOp51
 70
     0
102
RTVSPropertyOp52
 70
     0
102
RTVSPropertyOp53
 70
     1
102
RTVSPropertyOp54
 70
     1
102
RTVSPropertyOp55
 70
     1
102
RTVSPropertyOp56
 70
     1
102
RTVSPropertyOp57
 70
     1
102
RTVSPropertyOp58
 70
     1
102
RTVSPropertyOp59
 70
     1
102
RTVSPropertyOp60
 70
     1
102
RTVSPropertyOp61
 70
     1
102
RTVSPropertyOp62
 70
     1
  0
XRECORD
  5
ACBD
102
{ACAD_REACTORS
330
ACBC
102
}
330
ACBC
100
AcDbXrecord
280
     1
102
RTVSPost2010Prop28
280
     0
102
RTVSPost2010PropOp28
 70
     1
102
RTVSPost2010Prop29
280
     1
102
RTVSPost2010PropOp29
 70
     1
102
RTVSPost2010Prop30
280
     1
102
RTVSPost2010PropOp30
 70
     1
102
RTVSPost2010Prop31
280
     0
102
RTVSPost2010PropOp31
 70
     1
102
RTVSPost2010Prop32
280
     0
102
RTVSPost2010PropOp32
 70
     1
102
RTVSPost2010Prop33
280
     0
102
RTVSPost2010PropOp33
 70
     1
102
RTVSPost2010Prop34
280
     0
102
RTVSPost2010PropOp34
 70
     1
102
RTVSPost2010Prop35
280
     0
102
RTVSPost2010PropOp35
 70
     1
102
RTVSPost2010Prop36
280
     0
102
RTVSPost2010PropOp36
 70
     1
102
RTVSPost2010Prop37
 90
       50
102
RTVSPost2010PropOp37
 70
     1
102
RTVSPost2010Prop38
140
0.0
102
RTVSPost2010PropOp38
 70
     1
102
RTVSPost2010Prop39
140
1.0
102
RTVSPost2010PropOp39
 70
     1
102
RTVSPost2010Prop40
 90
        0
102
RTVSPost2010PropOp40
 70
     1
102
RTVSPost2010Prop41ColorIndex
 90
       18
102
RTVSPost2010Prop41ColorRGB
 90
        0
102
RTVSPost2010PropOp41
 70
     1
102
RTVSPost2010Prop42
 90
       50
102
RTVSPost2010PropOp42
 70
     1
102
RTVSPost2010Prop43
 90
        3
102
RTVSPost2010PropOp43
 70
     1
102
RTVSPost2010Prop44ColorIndex
 90
        5
102
RTVSPost2010Prop44ColorRGB
 90
      255
102
RTVSPost2010PropOp44
 70
     1
102
RTVSPost2010Prop45
280
     0
102
RTVSPost2010PropOp45
 70
     1
102
RTVSPost2010Prop46
 90
       50
102
RTVSPost2010PropOp46
 70
     1
102
RTVSPost2010Prop47
 90
       50
102
RTVSPost2010PropOp47
 70
     1
102
RTVSPost2010Prop48
 90
       50
102
RTVSPost2010PropOp48
 70
     1
102
RTVSPost2010Prop49
280
     0
102
RTVSPost2010PropOp49
 70
     1
102
RTVSPost2010Prop50
 90
       50
102
RTVSPost2010PropOp50
 70
     1
102
RTVSPost2010Prop51ColorIndex
 90
      256
102
RTVSPost2010Prop51ColorRGB
 90
-16777216
102
RTVSPost2010PropOp51
 70
     0
102
RTVSPost2010Prop52
140
1.0
102
RTVSPost2010PropOp52
 70
     0
102
RTVSPost2010Prop53
 90
        2
102
RTVSPost2010PropOp53
 70
     1
102
RTVSPost2010Prop54
  1
strokes_ogs.tif
102
RTVSPost2010PropOp54
 70
     1
102
RTVSPost2010Prop55
280
     0
102
RTVSPost2010PropOp55
 70
     1
102
RTVSPost2010Prop56
140
1.0
102
RTVSPost2010PropOp56
 70
     1
102
RTVSPost2010Prop57
140
1.0
102
RTVSPost2010PropOp57
 70
     1
102
RTVSPropertyOp0
 70
     1
102
RTVSPropertyOp1
 70
     1
102
RTVSPropertyOp2
 70
     1
102
RTVSPropertyOp3
 70
     1
102
RTVSPropertyOp4
 70
     1
102
RTVSPropertyOp5
 70
     1
102
RTVSPropertyOp6
 70
     1
102
RTVSPropertyOp7
 70
     1
102
RTVSPropertyOp8
 70
     1
102
RTVSPropertyOp9
 70
     1
102
RTVSPropertyOp10
 70
     1
102
RTVSPropertyOp11
 70
     1
102
RTVSPropertyOp12
 70
     1
102
RTVSPropertyOp13
 70
     1
102
RTVSPropertyOp14
 70
     1
102
RTVSPropertyOp15
 70
     1
102
RTVSPropertyOp16
 70
     1
102
RTVSPropertyOp17
 70
     1
102
RTVSPropertyOp18
 70
     1
102
RTVSPropertyOp19
 70
     1
102
RTVSPropertyOp20
 70
     1
102
RTVSPropertyOp21
 70
     1
102
RTVSPropertyOp22
 70
     1
102
RTVSPropertyOp23
 70
     1
102
RTVSPropertyOp24
 70
     1
102
RTVSPropertyOp25
 70
     1
102
RTVSPropertyOp26
 70
     1
102
RTVSPropertyOp27
 70
     1
102
RTVSPropertyOp28
 70
     1
102
RTVSPropertyOp29
 70
     1
102
RTVSPropertyOp30
 70
     1
102
RTVSPropertyOp31
 70
     1
102
RTVSPropertyOp32
 70
     1
102
RTVSPropertyOp33
 70
     1
102
RTVSPropertyOp34
 70
     1
102
RTVSPropertyOp35
 70
     1
102
RTVSPropertyOp36
 70
     1
102
RTVSPropertyOp37
 70
     1
102
RTVSPropertyOp38
 70
     1
102
RTVSPropertyOp39
 70
     1
102
RTVSPropertyOp40
 70
     1
102
RTVSPropertyOp41
 70
     1
102
RTVSPropertyOp42
 70
     1
102
RTVSPropertyOp43
 70
     1
102
RTVSPropertyOp44
 70
     1
102
RTVSPropertyOp45
 70
     1
102
RTVSPropertyOp46
 70
     1
102
RTVSPropertyOp47
 70
     1
102
RTVSPropertyOp48
 70
     1
102
RTVSPropertyOp49
 70
     1
102
RTVSPropertyOp50
 70
     1
102
RTVSPropertyOp51
 70
     0
102
RTVSPropertyOp52
 70
     0
102
RTVSPropertyOp53
 70
     1
102
RTVSPropertyOp54
 70
     1
102
RTVSPropertyOp55
 70
     1
102
RTVSPropertyOp56
 70
     1
102
RTVSPropertyOp57
 70
     1
102
RTVSPropertyOp58
 70
     1
102
RTVSPropertyOp59
 70
     1
102
RTVSPropertyOp60
 70
     1
102
RTVSPropertyOp61
 70
     1
102
RTVSPropertyOp62
 70
     1
  0
XRECORD
  5
ACBF
102
{ACAD_REACTORS
330
ACBE
102
}
330
ACBE
100
AcDbXrecord
280
     1
102
RTVSPost2010Prop28
280
     0
102
RTVSPost2010PropOp28
 70
     1
102
RTVSPost2010Prop29
280
     1
102
RTVSPost2010PropOp29
 70
     1
102
RTVSPost2010Prop30
280
     1
102
RTVSPost2010PropOp30
 70
     1
102
RTVSPost2010Prop31
280
     0
102
RTVSPost2010PropOp31
 70
     1
102
RTVSPost2010Prop32
280
     0
102
RTVSPost2010PropOp32
 70
     1
102
RTVSPost2010Prop33
280
     0
102
RTVSPost2010PropOp33
 70
     1
102
RTVSPost2010Prop34
280
     0
102
RTVSPost2010PropOp34
 70
     1
102
RTVSPost2010Prop35
280
     0
102
RTVSPost2010PropOp35
 70
     1
102
RTVSPost2010Prop36
280
     0
102
RTVSPost2010PropOp36
 70
     1
102
RTVSPost2010Prop37
 90
       50
102
RTVSPost2010PropOp37
 70
     1
102
RTVSPost2010Prop38
140
0.0
102
RTVSPost2010PropOp38
 70
     1
102
RTVSPost2010Prop39
140
1.0
102
RTVSPost2010PropOp39
 70
     1
102
RTVSPost2010Prop40
 90
        0
102
RTVSPost2010PropOp40
 70
     1
102
RTVSPost2010Prop41ColorIndex
 90
       18
102
RTVSPost2010Prop41ColorRGB
 90
        0
102
RTVSPost2010PropOp41
 70
     1
102
RTVSPost2010Prop42
 90
       50
102
RTVSPost2010PropOp42
 70
     1
102
RTVSPost2010Prop43
 90
        3
102
RTVSPost2010PropOp43
 70
     1
102
RTVSPost2010Prop44ColorIndex
 90
        5
102
RTVSPost2010Prop44ColorRGB
 90
      255
102
RTVSPost2010PropOp44
 70
     1
102
RTVSPost2010Prop45
280
     0
102
RTVSPost2010PropOp45
 70
     1
102
RTVSPost2010Prop46
 90
       50
102
RTVSPost2010PropOp46
 70
     1
102
RTVSPost2010Prop47
 90
       50
102
RTVSPost2010PropOp47
 70
     1
102
RTVSPost2010Prop48
 90
       50
102
RTVSPost2010PropOp48
 70
     1
102
RTVSPost2010Prop49
280
     0
102
RTVSPost2010PropOp49
 70
     1
102
RTVSPost2010Prop50
 90
       50
102
RTVSPost2010PropOp50
 70
     1
102
RTVSPost2010Prop51ColorIndex
 90
      256
102
RTVSPost2010Prop51ColorRGB
 90
-16777216
102
RTVSPost2010PropOp51
 70
     0
102
RTVSPost2010Prop52
140
1.0
102
RTVSPost2010PropOp52
 70
     0
102
RTVSPost2010Prop53
 90
        2
102
RTVSPost2010PropOp53
 70
     1
102
RTVSPost2010Prop54
  1
strokes_ogs.tif
102
RTVSPost2010PropOp54
 70
     1
102
RTVSPost2010Prop55
280
     0
102
RTVSPost2010PropOp55
 70
     1
102
RTVSPost2010Prop56
140
1.0
102
RTVSPost2010PropOp56
 70
     1
102
RTVSPost2010Prop57
140
1.0
102
RTVSPost2010PropOp57
 70
     1
102
RTVSPropertyOp0
 70
     1
102
RTVSPropertyOp1
 70
     1
102
RTVSPropertyOp2
 70
     1
102
RTVSPropertyOp3
 70
     1
102
RTVSPropertyOp4
 70
     1
102
RTVSPropertyOp5
 70
     1
102
RTVSPropertyOp6
 70
     1
102
RTVSPropertyOp7
 70
     1
102
RTVSPropertyOp8
 70
     1
102
RTVSPropertyOp9
 70
     1
102
RTVSPropertyOp10
 70
     1
102
RTVSPropertyOp11
 70
     1
102
RTVSPropertyOp12
 70
     1
102
RTVSPropertyOp13
 70
     1
102
RTVSPropertyOp14
 70
     1
102
RTVSPropertyOp15
 70
     1
102
RTVSPropertyOp16
 70
     1
102
RTVSPropertyOp17
 70
     1
102
RTVSPropertyOp18
 70
     1
102
RTVSPropertyOp19
 70
     1
102
RTVSPropertyOp20
 70
     1
102
RTVSPropertyOp21
 70
     1
102
RTVSPropertyOp22
 70
     1
102
RTVSPropertyOp23
 70
     1
102
RTVSPropertyOp24
 70
     1
102
RTVSPropertyOp25
 70
     1
102
RTVSPropertyOp26
 70
     1
102
RTVSPropertyOp27
 70
     1
102
RTVSPropertyOp28
 70
     1
102
RTVSPropertyOp29
 70
     1
102
RTVSPropertyOp30
 70
     1
102
RTVSPropertyOp31
 70
     1
102
RTVSPropertyOp32
 70
     1
102
RTVSPropertyOp33
 70
     1
102
RTVSPropertyOp34
 70
     1
102
RTVSPropertyOp35
 70
     1
102
RTVSPropertyOp36
 70
     1
102
RTVSPropertyOp37
 70
     1
102
RTVSPropertyOp38
 70
     1
102
RTVSPropertyOp39
 70
     1
102
RTVSPropertyOp40
 70
     1
102
RTVSPropertyOp41
 70
     1
102
RTVSPropertyOp42
 70
     1
102
RTVSPropertyOp43
 70
     1
102
RTVSPropertyOp44
 70
     1
102
RTVSPropertyOp45
 70
     1
102
RTVSPropertyOp46
 70
     1
102
RTVSPropertyOp47
 70
     1
102
RTVSPropertyOp48
 70
     1
102
RTVSPropertyOp49
 70
     1
102
RTVSPropertyOp50
 70
     1
102
RTVSPropertyOp51
 70
     0
102
RTVSPropertyOp52
 70
     0
102
RTVSPropertyOp53
 70
     1
102
RTVSPropertyOp54
 70
     1
102
RTVSPropertyOp55
 70
     1
102
RTVSPropertyOp56
 70
     1
102
RTVSPropertyOp57
 70
     1
102
RTVSPropertyOp58
 70
     1
102
RTVSPropertyOp59
 70
     1
102
RTVSPropertyOp60
 70
     1
102
RTVSPropertyOp61
 70
     1
102
RTVSPropertyOp62
 70
     1
  0
XRECORD
  5
ACC1
102
{ACAD_REACTORS
330
ACC0
102
}
330
ACC0
100
AcDbXrecord
280
     1
102
RTVSPost2010Prop28
280
     0
102
RTVSPost2010PropOp28
 70
     1
102
RTVSPost2010Prop29
280
     1
102
RTVSPost2010PropOp29
 70
     1
102
RTVSPost2010Prop30
280
     1
102
RTVSPost2010PropOp30
 70
     1
102
RTVSPost2010Prop31
280
     0
102
RTVSPost2010PropOp31
 70
     1
102
RTVSPost2010Prop32
280
     0
102
RTVSPost2010PropOp32
 70
     1
102
RTVSPost2010Prop33
280
     0
102
RTVSPost2010PropOp33
 70
     1
102
RTVSPost2010Prop34
280
     0
102
RTVSPost2010PropOp34
 70
     1
102
RTVSPost2010Prop35
280
     0
102
RTVSPost2010PropOp35
 70
     1
102
RTVSPost2010Prop36
280
     0
102
RTVSPost2010PropOp36
 70
     1
102
RTVSPost2010Prop37
 90
       50
102
RTVSPost2010PropOp37
 70
     1
102
RTVSPost2010Prop38
140
0.0
102
RTVSPost2010PropOp38
 70
     1
102
RTVSPost2010Prop39
140
1.0
102
RTVSPost2010PropOp39
 70
     1
102
RTVSPost2010Prop40
 90
        0
102
RTVSPost2010PropOp40
 70
     1
102
RTVSPost2010Prop41ColorIndex
 90
       18
102
RTVSPost2010Prop41ColorRGB
 90
        0
102
RTVSPost2010PropOp41
 70
     1
102
RTVSPost2010Prop42
 90
       50
102
RTVSPost2010PropOp42
 70
     1
102
RTVSPost2010Prop43
 90
        3
102
RTVSPost2010PropOp43
 70
     1
102
RTVSPost2010Prop44ColorIndex
 90
        5
102
RTVSPost2010Prop44ColorRGB
 90
      255
102
RTVSPost2010PropOp44
 70
     1
102
RTVSPost2010Prop45
280
     0
102
RTVSPost2010PropOp45
 70
     1
102
RTVSPost2010Prop46
 90
       50
102
RTVSPost2010PropOp46
 70
     1
102
RTVSPost2010Prop47
 90
       50
102
RTVSPost2010PropOp47
 70
     1
102
RTVSPost2010Prop48
 90
       50
102
RTVSPost2010PropOp48
 70
     1
102
RTVSPost2010Prop49
280
     0
102
RTVSPost2010PropOp49
 70
     1
102
RTVSPost2010Prop50
 90
       50
102
RTVSPost2010PropOp50
 70
     1
102
RTVSPost2010Prop51ColorIndex
 90
      256
102
RTVSPost2010Prop51ColorRGB
 90
-16777216
102
RTVSPost2010PropOp51
 70
     0
102
RTVSPost2010Prop52
140
1.0
102
RTVSPost2010PropOp52
 70
     0
102
RTVSPost2010Prop53
 90
        2
102
RTVSPost2010PropOp53
 70
     1
102
RTVSPost2010Prop54
  1
strokes_ogs.tif
102
RTVSPost2010PropOp54
 70
     1
102
RTVSPost2010Prop55
280
     0
102
RTVSPost2010PropOp55
 70
     1
102
RTVSPost2010Prop56
140
1.0
102
RTVSPost2010PropOp56
 70
     1
102
RTVSPost2010Prop57
140
1.0
102
RTVSPost2010PropOp57
 70
     1
102
RTVSPropertyOp0
 70
     1
102
RTVSPropertyOp1
 70
     1
102
RTVSPropertyOp2
 70
     1
102
RTVSPropertyOp3
 70
     1
102
RTVSPropertyOp4
 70
     1
102
RTVSPropertyOp5
 70
     1
102
RTVSPropertyOp6
 70
     1
102
RTVSPropertyOp7
 70
     1
102
RTVSPropertyOp8
 70
     1
102
RTVSPropertyOp9
 70
     1
102
RTVSPropertyOp10
 70
     1
102
RTVSPropertyOp11
 70
     1
102
RTVSPropertyOp12
 70
     1
102
RTVSPropertyOp13
 70
     1
102
RTVSPropertyOp14
 70
     1
102
RTVSPropertyOp15
 70
     1
102
RTVSPropertyOp16
 70
     1
102
RTVSPropertyOp17
 70
     1
102
RTVSPropertyOp18
 70
     1
102
RTVSPropertyOp19
 70
     1
102
RTVSPropertyOp20
 70
     1
102
RTVSPropertyOp21
 70
     1
102
RTVSPropertyOp22
 70
     1
102
RTVSPropertyOp23
 70
     1
102
RTVSPropertyOp24
 70
     1
102
RTVSPropertyOp25
 70
     1
102
RTVSPropertyOp26
 70
     1
102
RTVSPropertyOp27
 70
     1
102
RTVSPropertyOp28
 70
     1
102
RTVSPropertyOp29
 70
     1
102
RTVSPropertyOp30
 70
     1
102
RTVSPropertyOp31
 70
     1
102
RTVSPropertyOp32
 70
     1
102
RTVSPropertyOp33
 70
     1
102
RTVSPropertyOp34
 70
     1
102
RTVSPropertyOp35
 70
     1
102
RTVSPropertyOp36
 70
     1
102
RTVSPropertyOp37
 70
     1
102
RTVSPropertyOp38
 70
     1
102
RTVSPropertyOp39
 70
     1
102
RTVSPropertyOp40
 70
     1
102
RTVSPropertyOp41
 70
     1
102
RTVSPropertyOp42
 70
     1
102
RTVSPropertyOp43
 70
     1
102
RTVSPropertyOp44
 70
     1
102
RTVSPropertyOp45
 70
     1
102
RTVSPropertyOp46
 70
     1
102
RTVSPropertyOp47
 70
     1
102
RTVSPropertyOp48
 70
     1
102
RTVSPropertyOp49
 70
     1
102
RTVSPropertyOp50
 70
     1
102
RTVSPropertyOp51
 70
     0
102
RTVSPropertyOp52
 70
     0
102
RTVSPropertyOp53
 70
     1
102
RTVSPropertyOp54
 70
     1
102
RTVSPropertyOp55
 70
     1
102
RTVSPropertyOp56
 70
     1
102
RTVSPropertyOp57
 70
     1
102
RTVSPropertyOp58
 70
     1
102
RTVSPropertyOp59
 70
     1
102
RTVSPropertyOp60
 70
     1
102
RTVSPropertyOp61
 70
     1
102
RTVSPropertyOp62
 70
     1
  0
XRECORD
  5
ACC9
102
{ACAD_REACTORS
330
ACC8
102
}
330
ACC8
100
AcDbXrecord
280
     1
102
RTVSPost2010Prop28
280
     0
102
RTVSPost2010PropOp28
 70
     1
102
RTVSPost2010Prop29
280
     1
102
RTVSPost2010PropOp29
 70
     1
102
RTVSPost2010Prop30
280
     1
102
RTVSPost2010PropOp30
 70
     1
102
RTVSPost2010Prop31
280
     0
102
RTVSPost2010PropOp31
 70
     1
102
RTVSPost2010Prop32
280
     0
102
RTVSPost2010PropOp32
 70
     1
102
RTVSPost2010Prop33
280
     0
102
RTVSPost2010PropOp33
 70
     1
102
RTVSPost2010Prop34
280
     0
102
RTVSPost2010PropOp34
 70
     1
102
RTVSPost2010Prop35
280
     0
102
RTVSPost2010PropOp35
 70
     1
102
RTVSPost2010Prop36
280
     0
102
RTVSPost2010PropOp36
 70
     1
102
RTVSPost2010Prop37
 90
       50
102
RTVSPost2010PropOp37
 70
     1
102
RTVSPost2010Prop38
140
0.0
102
RTVSPost2010PropOp38
 70
     1
102
RTVSPost2010Prop39
140
1.0
102
RTVSPost2010PropOp39
 70
     1
102
RTVSPost2010Prop40
 90
        0
102
RTVSPost2010PropOp40
 70
     1
102
RTVSPost2010Prop41ColorIndex
 90
       18
102
RTVSPost2010Prop41ColorRGB
 90
        0
102
RTVSPost2010PropOp41
 70
     1
102
RTVSPost2010Prop42
 90
       50
102
RTVSPost2010PropOp42
 70
     1
102
RTVSPost2010Prop43
 90
        3
102
RTVSPost2010PropOp43
 70
     1
102
RTVSPost2010Prop44ColorIndex
 90
        5
102
RTVSPost2010Prop44ColorRGB
 90
      255
102
RTVSPost2010PropOp44
 70
     1
102
RTVSPost2010Prop45
280
     0
102
RTVSPost2010PropOp45
 70
     1
102
RTVSPost2010Prop46
 90
       50
102
RTVSPost2010PropOp46
 70
     1
102
RTVSPost2010Prop47
 90
       50
102
RTVSPost2010PropOp47
 70
     1
102
RTVSPost2010Prop48
 90
       50
102
RTVSPost2010PropOp48
 70
     1
102
RTVSPost2010Prop49
280
     0
102
RTVSPost2010PropOp49
 70
     1
102
RTVSPost2010Prop50
 90
       50
102
RTVSPost2010PropOp50
 70
     1
102
RTVSPost2010Prop51ColorIndex
 90
      256
102
RTVSPost2010Prop51ColorRGB
 90
-16777216
102
RTVSPost2010PropOp51
 70
     0
102
RTVSPost2010Prop52
140
1.0
102
RTVSPost2010PropOp52
 70
     0
102
RTVSPost2010Prop53
 90
        2
102
RTVSPost2010PropOp53
 70
     1
102
RTVSPost2010Prop54
  1
strokes_ogs.tif
102
RTVSPost2010PropOp54
 70
     1
102
RTVSPost2010Prop55
280
     0
102
RTVSPost2010PropOp55
 70
     1
102
RTVSPost2010Prop56
140
1.0
102
RTVSPost2010PropOp56
 70
     1
102
RTVSPost2010Prop57
140
1.0
102
RTVSPost2010PropOp57
 70
     1
102
RTVSPropertyOp0
 70
     1
102
RTVSPropertyOp1
 70
     1
102
RTVSPropertyOp2
 70
     1
102
RTVSPropertyOp3
 70
     1
102
RTVSPropertyOp4
 70
     1
102
RTVSPropertyOp5
 70
     1
102
RTVSPropertyOp6
 70
     1
102
RTVSPropertyOp7
 70
     1
102
RTVSPropertyOp8
 70
     1
102
RTVSPropertyOp9
 70
     1
102
RTVSPropertyOp10
 70
     1
102
RTVSPropertyOp11
 70
     1
102
RTVSPropertyOp12
 70
     1
102
RTVSPropertyOp13
 70
     1
102
RTVSPropertyOp14
 70
     1
102
RTVSPropertyOp15
 70
     1
102
RTVSPropertyOp16
 70
     1
102
RTVSPropertyOp17
 70
     1
102
RTVSPropertyOp18
 70
     1
102
RTVSPropertyOp19
 70
     1
102
RTVSPropertyOp20
 70
     1
102
RTVSPropertyOp21
 70
     1
102
RTVSPropertyOp22
 70
     1
102
RTVSPropertyOp23
 70
     1
102
RTVSPropertyOp24
 70
     1
102
RTVSPropertyOp25
 70
     1
102
RTVSPropertyOp26
 70
     1
102
RTVSPropertyOp27
 70
     1
102
RTVSPropertyOp28
 70
     1
102
RTVSPropertyOp29
 70
     1
102
RTVSPropertyOp30
 70
     1
102
RTVSPropertyOp31
 70
     1
102
RTVSPropertyOp32
 70
     1
102
RTVSPropertyOp33
 70
     1
102
RTVSPropertyOp34
 70
     1
102
RTVSPropertyOp35
 70
     1
102
RTVSPropertyOp36
 70
     1
102
RTVSPropertyOp37
 70
     1
102
RTVSPropertyOp38
 70
     1
102
RTVSPropertyOp39
 70
     1
102
RTVSPropertyOp40
 70
     1
102
RTVSPropertyOp41
 70
     1
102
RTVSPropertyOp42
 70
     1
102
RTVSPropertyOp43
 70
     1
102
RTVSPropertyOp44
 70
     1
102
RTVSPropertyOp45
 70
     1
102
RTVSPropertyOp46
 70
     1
102
RTVSPropertyOp47
 70
     1
102
RTVSPropertyOp48
 70
     1
102
RTVSPropertyOp49
 70
     1
102
RTVSPropertyOp50
 70
     1
102
RTVSPropertyOp51
 70
     0
102
RTVSPropertyOp52
 70
     0
102
RTVSPropertyOp53
 70
     1
102
RTVSPropertyOp54
 70
     1
102
RTVSPropertyOp55
 70
     1
102
RTVSPropertyOp56
 70
     1
102
RTVSPropertyOp57
 70
     1
102
RTVSPropertyOp58
 70
     1
102
RTVSPropertyOp59
 70
     1
102
RTVSPropertyOp60
 70
     1
102
RTVSPropertyOp61
 70
     1
102
RTVSPropertyOp62
 70
     1
  0
XRECORD
  5
ACE5
102
{ACAD_REACTORS
330
ACE4
102
}
330
ACE4
100
AcDbXrecord
280
     1
102
RTVSPost2010Prop28
280
     0
102
RTVSPost2010PropOp28
 70
     1
102
RTVSPost2010Prop29
280
     1
102
RTVSPost2010PropOp29
 70
     1
102
RTVSPost2010Prop30
280
     1
102
RTVSPost2010PropOp30
 70
     1
102
RTVSPost2010Prop31
280
     0
102
RTVSPost2010PropOp31
 70
     1
102
RTVSPost2010Prop32
280
     0
102
RTVSPost2010PropOp32
 70
     1
102
RTVSPost2010Prop33
280
     0
102
RTVSPost2010PropOp33
 70
     1
102
RTVSPost2010Prop34
280
     0
102
RTVSPost2010PropOp34
 70
     1
102
RTVSPost2010Prop35
280
     0
102
RTVSPost2010PropOp35
 70
     1
102
RTVSPost2010Prop36
280
     0
102
RTVSPost2010PropOp36
 70
     1
102
RTVSPost2010Prop37
 90
       50
102
RTVSPost2010PropOp37
 70
     0
102
RTVSPost2010Prop38
140
0.0
102
RTVSPost2010PropOp38
 70
     0
102
RTVSPost2010Prop39
140
1.0
102
RTVSPost2010PropOp39
 70
     0
102
RTVSPost2010Prop40
 90
        0
102
RTVSPost2010PropOp40
 70
     0
102
RTVSPost2010Prop41ColorIndex
 90
       18
102
RTVSPost2010Prop41ColorRGB
 90
        0
102
RTVSPost2010PropOp41
 70
     0
102
RTVSPost2010Prop42
 90
       50
102
RTVSPost2010PropOp42
 70
     0
102
RTVSPost2010Prop43
 90
        3
102
RTVSPost2010PropOp43
 70
     0
102
RTVSPost2010Prop44ColorIndex
 90
        5
102
RTVSPost2010Prop44ColorRGB
 90
      255
102
RTVSPost2010PropOp44
 70
     0
102
RTVSPost2010Prop45
280
     0
102
RTVSPost2010PropOp45
 70
     1
102
RTVSPost2010Prop46
 90
       50
102
RTVSPost2010PropOp46
 70
     0
102
RTVSPost2010Prop47
 90
       50
102
RTVSPost2010PropOp47
 70
     0
102
RTVSPost2010Prop48
 90
       50
102
RTVSPost2010PropOp48
 70
     0
102
RTVSPost2010Prop49
280
     0
102
RTVSPost2010PropOp49
 70
     1
102
RTVSPost2010Prop50
 90
       50
102
RTVSPost2010PropOp50
 70
     0
102
RTVSPost2010Prop51ColorIndex
 90
      256
102
RTVSPost2010Prop51ColorRGB
 90
-16777216
102
RTVSPost2010PropOp51
 70
     0
102
RTVSPost2010Prop52
140
1.0
102
RTVSPost2010PropOp52
 70
     0
102
RTVSPost2010Prop53
 90
        2
102
RTVSPost2010PropOp53
 70
     0
102
RTVSPost2010Prop54
  1
strokes_ogs.tif
102
RTVSPost2010PropOp54
 70
     0
102
RTVSPost2010Prop55
280
     0
102
RTVSPost2010PropOp55
 70
     1
102
RTVSPost2010Prop56
140
1.0
102
RTVSPost2010PropOp56
 70
     0
102
RTVSPost2010Prop57
140
1.0
102
RTVSPost2010PropOp57
 70
     0
102
RTVSPropertyOp0
 70
     0
102
RTVSPropertyOp1
 70
     0
102
RTVSPropertyOp2
 70
     0
102
RTVSPropertyOp3
 70
     0
102
RTVSPropertyOp4
 70
     0
102
RTVSPropertyOp5
 70
     0
102
RTVSPropertyOp6
 70
     0
102
RTVSPropertyOp7
 70
     0
102
RTVSPropertyOp8
 70
     0
102
RTVSPropertyOp9
 70
     0
102
RTVSPropertyOp10
 70
     0
102
RTVSPropertyOp11
 70
     0
102
RTVSPropertyOp12
 70
     0
102
RTVSPropertyOp13
 70
     0
102
RTVSPropertyOp14
 70
     2
102
RTVSPropertyOp15
 70
     0
102
RTVSPropertyOp16
 70
     0
102
RTVSPropertyOp17
 70
     0
102
RTVSPropertyOp18
 70
     0
102
RTVSPropertyOp19
 70
     0
102
RTVSPropertyOp20
 70
     0
102
RTVSPropertyOp21
 70
     0
102
RTVSPropertyOp22
 70
     0
102
RTVSPropertyOp23
 70
     0
102
RTVSPropertyOp24
 70
     0
102
RTVSPropertyOp25
 70
     0
102
RTVSPropertyOp26
 70
     0
102
RTVSPropertyOp27
 70
     0
102
RTVSPropertyOp28
 70
     1
102
RTVSPropertyOp29
 70
     1
102
RTVSPropertyOp30
 70
     1
102
RTVSPropertyOp31
 70
     1
102
RTVSPropertyOp32
 70
     1
102
RTVSPropertyOp33
 70
     1
102
RTVSPropertyOp34
 70
     1
102
RTVSPropertyOp35
 70
     1
102
RTVSPropertyOp36
 70
     1
102
RTVSPropertyOp37
 70
     0
102
RTVSPropertyOp38
 70
     0
102
RTVSPropertyOp39
 70
     0
102
RTVSPropertyOp40
 70
     0
102
RTVSPropertyOp41
 70
     0
102
RTVSPropertyOp42
 70
     0
102
RTVSPropertyOp43
 70
     0
102
RTVSPropertyOp44
 70
     0
102
RTVSPropertyOp45
 70
     1
102
RTVSPropertyOp46
 70
     0
102
RTVSPropertyOp47
 70
     0
102
RTVSPropertyOp48
 70
     0
102
RTVSPropertyOp49
 70
     1
102
RTVSPropertyOp50
 70
     0
102
RTVSPropertyOp51
 70
     0
102
RTVSPropertyOp52
 70
     0
102
RTVSPropertyOp53
 70
     0
102
RTVSPropertyOp54
 70
     0
102
RTVSPropertyOp55
 70
     1
102
RTVSPropertyOp56
 70
     0
102
RTVSPropertyOp57
 70
     0
102
RTVSPropertyOp58
 70
     0
102
RTVSPropertyOp59
 70
     0
102
RTVSPropertyOp60
 70
     0
102
RTVSPropertyOp61
 70
     0
102
RTVSPropertyOp62
 70
     0
  0
XRECORD
  5
ACD5
102
{ACAD_REACTORS
330
ACD4
102
}
330
ACD4
100
AcDbXrecord
280
     1
102
RTVSPost2010Prop28
280
     0
102
RTVSPost2010PropOp28
 70
     1
102
RTVSPost2010Prop29
280
     1
102
RTVSPost2010PropOp29
 70
     1
102
RTVSPost2010Prop30
280
     1
102
RTVSPost2010PropOp30
 70
     1
102
RTVSPost2010Prop31
280
     0
102
RTVSPost2010PropOp31
 70
     1
102
RTVSPost2010Prop32
280
     0
102
RTVSPost2010PropOp32
 70
     1
102
RTVSPost2010Prop33
280
     0
102
RTVSPost2010PropOp33
 70
     1
102
RTVSPost2010Prop34
280
     0
102
RTVSPost2010PropOp34
 70
     1
102
RTVSPost2010Prop35
280
     0
102
RTVSPost2010PropOp35
 70
     1
102
RTVSPost2010Prop36
280
     0
102
RTVSPost2010PropOp36
 70
     1
102
RTVSPost2010Prop37
 90
       50
102
RTVSPost2010PropOp37
 70
     1
102
RTVSPost2010Prop38
140
0.0
102
RTVSPost2010PropOp38
 70
     1
102
RTVSPost2010Prop39
140
1.0
102
RTVSPost2010PropOp39
 70
     1
102
RTVSPost2010Prop40
 90
        0
102
RTVSPost2010PropOp40
 70
     1
102
RTVSPost2010Prop41ColorIndex
 90
       18
102
RTVSPost2010Prop41ColorRGB
 90
        0
102
RTVSPost2010PropOp41
 70
     1
102
RTVSPost2010Prop42
 90
       50
102
RTVSPost2010PropOp42
 70
     1
102
RTVSPost2010Prop43
 90
        3
102
RTVSPost2010PropOp43
 70
     1
102
RTVSPost2010Prop44ColorIndex
 90
        5
102
RTVSPost2010Prop44ColorRGB
 90
      255
102
RTVSPost2010PropOp44
 70
     1
102
RTVSPost2010Prop45
280
     0
102
RTVSPost2010PropOp45
 70
     1
102
RTVSPost2010Prop46
 90
       50
102
RTVSPost2010PropOp46
 70
     1
102
RTVSPost2010Prop47
 90
       50
102
RTVSPost2010PropOp47
 70
     1
102
RTVSPost2010Prop48
 90
       50
102
RTVSPost2010PropOp48
 70
     1
102
RTVSPost2010Prop49
280
     0
102
RTVSPost2010PropOp49
 70
     1
102
RTVSPost2010Prop50
 90
       50
102
RTVSPost2010PropOp50
 70
     1
102
RTVSPost2010Prop51ColorIndex
 90
      256
102
RTVSPost2010Prop51ColorRGB
 90
-16777216
102
RTVSPost2010PropOp51
 70
     0
102
RTVSPost2010Prop52
140
1.0
102
RTVSPost2010PropOp52
 70
     0
102
RTVSPost2010Prop53
 90
        2
102
RTVSPost2010PropOp53
 70
     1
102
RTVSPost2010Prop54
  1
strokes_ogs.tif
102
RTVSPost2010PropOp54
 70
     1
102
RTVSPost2010Prop55
280
     0
102
RTVSPost2010PropOp55
 70
     1
102
RTVSPost2010Prop56
140
1.0
102
RTVSPost2010PropOp56
 70
     1
102
RTVSPost2010Prop57
140
1.0
102
RTVSPost2010PropOp57
 70
     1
102
RTVSPropertyOp0
 70
     1
102
RTVSPropertyOp1
 70
     1
102
RTVSPropertyOp2
 70
     1
102
RTVSPropertyOp3
 70
     1
102
RTVSPropertyOp4
 70
     1
102
RTVSPropertyOp5
 70
     1
102
RTVSPropertyOp6
 70
     1
102
RTVSPropertyOp7
 70
     1
102
RTVSPropertyOp8
 70
     1
102
RTVSPropertyOp9
 70
     1
102
RTVSPropertyOp10
 70
     1
102
RTVSPropertyOp11
 70
     1
102
RTVSPropertyOp12
 70
     1
102
RTVSPropertyOp13
 70
     1
102
RTVSPropertyOp14
 70
     1
102
RTVSPropertyOp15
 70
     1
102
RTVSPropertyOp16
 70
     1
102
RTVSPropertyOp17
 70
     1
102
RTVSPropertyOp18
 70
     1
102
RTVSPropertyOp19
 70
     1
102
RTVSPropertyOp20
 70
     1
102
RTVSPropertyOp21
 70
     1
102
RTVSPropertyOp22
 70
     1
102
RTVSPropertyOp23
 70
     1
102
RTVSPropertyOp24
 70
     1
102
RTVSPropertyOp25
 70
     1
102
RTVSPropertyOp26
 70
     1
102
RTVSPropertyOp27
 70
     1
102
RTVSPropertyOp28
 70
     1
102
RTVSPropertyOp29
 70
     1
102
RTVSPropertyOp30
 70
     1
102
RTVSPropertyOp31
 70
     1
102
RTVSPropertyOp32
 70
     1
102
RTVSPropertyOp33
 70
     1
102
RTVSPropertyOp34
 70
     1
102
RTVSPropertyOp35
 70
     1
102
RTVSPropertyOp36
 70
     1
102
RTVSPropertyOp37
 70
     1
102
RTVSPropertyOp38
 70
     1
102
RTVSPropertyOp39
 70
     1
102
RTVSPropertyOp40
 70
     1
102
RTVSPropertyOp41
 70
     1
102
RTVSPropertyOp42
 70
     1
102
RTVSPropertyOp43
 70
     1
102
RTVSPropertyOp44
 70
     1
102
RTVSPropertyOp45
 70
     1
102
RTVSPropertyOp46
 70
     1
102
RTVSPropertyOp47
 70
     1
102
RTVSPropertyOp48
 70
     1
102
RTVSPropertyOp49
 70
     1
102
RTVSPropertyOp50
 70
     1
102
RTVSPropertyOp51
 70
     0
102
RTVSPropertyOp52
 70
     0
102
RTVSPropertyOp53
 70
     1
102
RTVSPropertyOp54
 70
     1
102
RTVSPropertyOp55
 70
     1
102
RTVSPropertyOp56
 70
     1
102
RTVSPropertyOp57
 70
     1
102
RTVSPropertyOp58
 70
     1
102
RTVSPropertyOp59
 70
     1
102
RTVSPropertyOp60
 70
     1
102
RTVSPropertyOp61
 70
     1
102
RTVSPropertyOp62
 70
     1
  0
XRECORD
  5
ACE7
102
{ACAD_REACTORS
330
ACE6
102
}
330
ACE6
100
AcDbXrecord
280
     1
102
RTVSPost2010Prop28
280
     0
102
RTVSPost2010PropOp28
 70
     1
102
RTVSPost2010Prop29
280
     1
102
RTVSPost2010PropOp29
 70
     1
102
RTVSPost2010Prop30
280
     1
102
RTVSPost2010PropOp30
 70
     1
102
RTVSPost2010Prop31
280
     0
102
RTVSPost2010PropOp31
 70
     1
102
RTVSPost2010Prop32
280
     0
102
RTVSPost2010PropOp32
 70
     1
102
RTVSPost2010Prop33
280
     0
102
RTVSPost2010PropOp33
 70
     1
102
RTVSPost2010Prop34
280
     0
102
RTVSPost2010PropOp34
 70
     1
102
RTVSPost2010Prop35
280
     0
102
RTVSPost2010PropOp35
 70
     1
102
RTVSPost2010Prop36
280
     0
102
RTVSPost2010PropOp36
 70
     1
102
RTVSPost2010Prop37
 90
       50
102
RTVSPost2010PropOp37
 70
     0
102
RTVSPost2010Prop38
140
0.0
102
RTVSPost2010PropOp38
 70
     0
102
RTVSPost2010Prop39
140
1.0
102
RTVSPost2010PropOp39
 70
     0
102
RTVSPost2010Prop40
 90
        0
102
RTVSPost2010PropOp40
 70
     0
102
RTVSPost2010Prop41ColorIndex
 90
       18
102
RTVSPost2010Prop41ColorRGB
 90
        0
102
RTVSPost2010PropOp41
 70
     0
102
RTVSPost2010Prop42
 90
       50
102
RTVSPost2010PropOp42
 70
     0
102
RTVSPost2010Prop43
 90
        3
102
RTVSPost2010PropOp43
 70
     0
102
RTVSPost2010Prop44ColorIndex
 90
        5
102
RTVSPost2010Prop44ColorRGB
 90
      255
102
RTVSPost2010PropOp44
 70
     0
102
RTVSPost2010Prop45
280
     0
102
RTVSPost2010PropOp45
 70
     1
102
RTVSPost2010Prop46
 90
       50
102
RTVSPost2010PropOp46
 70
     0
102
RTVSPost2010Prop47
 90
       50
102
RTVSPost2010PropOp47
 70
     0
102
RTVSPost2010Prop48
 90
       50
102
RTVSPost2010PropOp48
 70
     0
102
RTVSPost2010Prop49
280
     0
102
RTVSPost2010PropOp49
 70
     1
102
RTVSPost2010Prop50
 90
       50
102
RTVSPost2010PropOp50
 70
     0
102
RTVSPost2010Prop51ColorIndex
 90
      256
102
RTVSPost2010Prop51ColorRGB
 90
-16777216
102
RTVSPost2010PropOp51
 70
     0
102
RTVSPost2010Prop52
140
1.0
102
RTVSPost2010PropOp52
 70
     0
102
RTVSPost2010Prop53
 90
        2
102
RTVSPost2010PropOp53
 70
     0
102
RTVSPost2010Prop54
  1
strokes_ogs.tif
102
RTVSPost2010PropOp54
 70
     0
102
RTVSPost2010Prop55
280
     0
102
RTVSPost2010PropOp55
 70
     1
102
RTVSPost2010Prop56
140
1.0
102
RTVSPost2010PropOp56
 70
     0
102
RTVSPost2010Prop57
140
1.0
102
RTVSPost2010PropOp57
 70
     0
102
RTVSPropertyOp0
 70
     0
102
RTVSPropertyOp1
 70
     0
102
RTVSPropertyOp2
 70
     0
102
RTVSPropertyOp3
 70
     0
102
RTVSPropertyOp4
 70
     0
102
RTVSPropertyOp5
 70
     0
102
RTVSPropertyOp6
 70
     0
102
RTVSPropertyOp7
 70
     0
102
RTVSPropertyOp8
 70
     0
102
RTVSPropertyOp9
 70
     0
102
RTVSPropertyOp10
 70
     0
102
RTVSPropertyOp11
 70
     0
102
RTVSPropertyOp12
 70
     0
102
RTVSPropertyOp13
 70
     0
102
RTVSPropertyOp14
 70
     2
102
RTVSPropertyOp15
 70
     0
102
RTVSPropertyOp16
 70
     0
102
RTVSPropertyOp17
 70
     0
102
RTVSPropertyOp18
 70
     0
102
RTVSPropertyOp19
 70
     0
102
RTVSPropertyOp20
 70
     0
102
RTVSPropertyOp21
 70
     0
102
RTVSPropertyOp22
 70
     0
102
RTVSPropertyOp23
 70
     0
102
RTVSPropertyOp24
 70
     0
102
RTVSPropertyOp25
 70
     0
102
RTVSPropertyOp26
 70
     0
102
RTVSPropertyOp27
 70
     0
102
RTVSPropertyOp28
 70
     1
102
RTVSPropertyOp29
 70
     1
102
RTVSPropertyOp30
 70
     1
102
RTVSPropertyOp31
 70
     1
102
RTVSPropertyOp32
 70
     1
102
RTVSPropertyOp33
 70
     1
102
RTVSPropertyOp34
 70
     1
102
RTVSPropertyOp35
 70
     1
102
RTVSPropertyOp36
 70
     1
102
RTVSPropertyOp37
 70
     0
102
RTVSPropertyOp38
 70
     0
102
RTVSPropertyOp39
 70
     0
102
RTVSPropertyOp40
 70
     0
102
RTVSPropertyOp41
 70
     0
102
RTVSPropertyOp42
 70
     0
102
RTVSPropertyOp43
 70
     0
102
RTVSPropertyOp44
 70
     0
102
RTVSPropertyOp45
 70
     1
102
RTVSPropertyOp46
 70
     0
102
RTVSPropertyOp47
 70
     0
102
RTVSPropertyOp48
 70
     0
102
RTVSPropertyOp49
 70
     1
102
RTVSPropertyOp50
 70
     0
102
RTVSPropertyOp51
 70
     0
102
RTVSPropertyOp52
 70
     0
102
RTVSPropertyOp53
 70
     0
102
RTVSPropertyOp54
 70
     0
102
RTVSPropertyOp55
 70
     1
102
RTVSPropertyOp56
 70
     0
102
RTVSPropertyOp57
 70
     0
102
RTVSPropertyOp58
 70
     0
102
RTVSPropertyOp59
 70
     0
102
RTVSPropertyOp60
 70
     0
102
RTVSPropertyOp61
 70
     0
102
RTVSPropertyOp62
 70
     0
  0
XRECORD
  5
ACCD
102
{ACAD_REACTORS
330
ACCC
102
}
330
ACCC
100
AcDbXrecord
280
     1
102
RTVSPost2010Prop28
280
     0
102
RTVSPost2010PropOp28
 70
     1
102
RTVSPost2010Prop29
280
     1
102
RTVSPost2010PropOp29
 70
     1
102
RTVSPost2010Prop30
280
     1
102
RTVSPost2010PropOp30
 70
     1
102
RTVSPost2010Prop31
280
     0
102
RTVSPost2010PropOp31
 70
     1
102
RTVSPost2010Prop32
280
     0
102
RTVSPost2010PropOp32
 70
     1
102
RTVSPost2010Prop33
280
     0
102
RTVSPost2010PropOp33
 70
     1
102
RTVSPost2010Prop34
280
     0
102
RTVSPost2010PropOp34
 70
     1
102
RTVSPost2010Prop35
280
     0
102
RTVSPost2010PropOp35
 70
     1
102
RTVSPost2010Prop36
280
     0
102
RTVSPost2010PropOp36
 70
     1
102
RTVSPost2010Prop37
 90
       50
102
RTVSPost2010PropOp37
 70
     1
102
RTVSPost2010Prop38
140
0.0
102
RTVSPost2010PropOp38
 70
     1
102
RTVSPost2010Prop39
140
1.0
102
RTVSPost2010PropOp39
 70
     1
102
RTVSPost2010Prop40
 90
        0
102
RTVSPost2010PropOp40
 70
     1
102
RTVSPost2010Prop41ColorIndex
 90
       18
102
RTVSPost2010Prop41ColorRGB
 90
        0
102
RTVSPost2010PropOp41
 70
     1
102
RTVSPost2010Prop42
 90
       50
102
RTVSPost2010PropOp42
 70
     1
102
RTVSPost2010Prop43
 90
        3
102
RTVSPost2010PropOp43
 70
     1
102
RTVSPost2010Prop44ColorIndex
 90
        5
102
RTVSPost2010Prop44ColorRGB
 90
      255
102
RTVSPost2010PropOp44
 70
     1
102
RTVSPost2010Prop45
280
     0
102
RTVSPost2010PropOp45
 70
     1
102
RTVSPost2010Prop46
 90
       50
102
RTVSPost2010PropOp46
 70
     1
102
RTVSPost2010Prop47
 90
       50
102
RTVSPost2010PropOp47
 70
     1
102
RTVSPost2010Prop48
 90
       50
102
RTVSPost2010PropOp48
 70
     1
102
RTVSPost2010Prop49
280
     0
102
RTVSPost2010PropOp49
 70
     1
102
RTVSPost2010Prop50
 90
       50
102
RTVSPost2010PropOp50
 70
     1
102
RTVSPost2010Prop51ColorIndex
 90
      256
102
RTVSPost2010Prop51ColorRGB
 90
-16777216
102
RTVSPost2010PropOp51
 70
     0
102
RTVSPost2010Prop52
140
1.0
102
RTVSPost2010PropOp52
 70
     0
102
RTVSPost2010Prop53
 90
        2
102
RTVSPost2010PropOp53
 70
     1
102
RTVSPost2010Prop54
  1
strokes_ogs.tif
102
RTVSPost2010PropOp54
 70
     1
102
RTVSPost2010Prop55
280
     0
102
RTVSPost2010PropOp55
 70
     1
102
RTVSPost2010Prop56
140
1.0
102
RTVSPost2010PropOp56
 70
     1
102
RTVSPost2010Prop57
140
1.0
102
RTVSPost2010PropOp57
 70
     1
102
RTVSPropertyOp0
 70
     1
102
RTVSPropertyOp1
 70
     1
102
RTVSPropertyOp2
 70
     1
102
RTVSPropertyOp3
 70
     1
102
RTVSPropertyOp4
 70
     1
102
RTVSPropertyOp5
 70
     1
102
RTVSPropertyOp6
 70
     1
102
RTVSPropertyOp7
 70
     1
102
RTVSPropertyOp8
 70
     1
102
RTVSPropertyOp9
 70
     1
102
RTVSPropertyOp10
 70
     1
102
RTVSPropertyOp11
 70
     1
102
RTVSPropertyOp12
 70
     1
102
RTVSPropertyOp13
 70
     1
102
RTVSPropertyOp14
 70
     1
102
RTVSPropertyOp15
 70
     1
102
RTVSPropertyOp16
 70
     1
102
RTVSPropertyOp17
 70
     1
102
RTVSPropertyOp18
 70
     1
102
RTVSPropertyOp19
 70
     1
102
RTVSPropertyOp20
 70
     1
102
RTVSPropertyOp21
 70
     1
102
RTVSPropertyOp22
 70
     1
102
RTVSPropertyOp23
 70
     1
102
RTVSPropertyOp24
 70
     1
102
RTVSPropertyOp25
 70
     1
102
RTVSPropertyOp26
 70
     1
102
RTVSPropertyOp27
 70
     1
102
RTVSPropertyOp28
 70
     1
102
RTVSPropertyOp29
 70
     1
102
RTVSPropertyOp30
 70
     1
102
RTVSPropertyOp31
 70
     1
102
RTVSPropertyOp32
 70
     1
102
RTVSPropertyOp33
 70
     1
102
RTVSPropertyOp34
 70
     1
102
RTVSPropertyOp35
 70
     1
102
RTVSPropertyOp36
 70
     1
102
RTVSPropertyOp37
 70
     1
102
RTVSPropertyOp38
 70
     1
102
RTVSPropertyOp39
 70
     1
102
RTVSPropertyOp40
 70
     1
102
RTVSPropertyOp41
 70
     1
102
RTVSPropertyOp42
 70
     1
102
RTVSPropertyOp43
 70
     1
102
RTVSPropertyOp44
 70
     1
102
RTVSPropertyOp45
 70
     1
102
RTVSPropertyOp46
 70
     1
102
RTVSPropertyOp47
 70
     1
102
RTVSPropertyOp48
 70
     1
102
RTVSPropertyOp49
 70
     1
102
RTVSPropertyOp50
 70
     1
102
RTVSPropertyOp51
 70
     0
102
RTVSPropertyOp52
 70
     0
102
RTVSPropertyOp53
 70
     1
102
RTVSPropertyOp54
 70
     1
102
RTVSPropertyOp55
 70
     1
102
RTVSPropertyOp56
 70
     1
102
RTVSPropertyOp57
 70
     1
102
RTVSPropertyOp58
 70
     1
102
RTVSPropertyOp59
 70
     1
102
RTVSPropertyOp60
 70
     1
102
RTVSPropertyOp61
 70
     1
102
RTVSPropertyOp62
 70
     1
  0
XRECORD
  5
ACE3
102
{ACAD_REACTORS
330
ACE2
102
}
330
ACE2
100
AcDbXrecord
280
     1
102
RTVSPost2010Prop28
280
     0
102
RTVSPost2010PropOp28
 70
     1
102
RTVSPost2010Prop29
280
     1
102
RTVSPost2010PropOp29
 70
     1
102
RTVSPost2010Prop30
280
     1
102
RTVSPost2010PropOp30
 70
     1
102
RTVSPost2010Prop31
280
     0
102
RTVSPost2010PropOp31
 70
     1
102
RTVSPost2010Prop32
280
     0
102
RTVSPost2010PropOp32
 70
     1
102
RTVSPost2010Prop33
280
     0
102
RTVSPost2010PropOp33
 70
     1
102
RTVSPost2010Prop34
280
     0
102
RTVSPost2010PropOp34
 70
     1
102
RTVSPost2010Prop35
280
     0
102
RTVSPost2010PropOp35
 70
     1
102
RTVSPost2010Prop36
280
     0
102
RTVSPost2010PropOp36
 70
     1
102
RTVSPost2010Prop37
 90
       50
102
RTVSPost2010PropOp37
 70
     1
102
RTVSPost2010Prop38
140
0.0
102
RTVSPost2010PropOp38
 70
     1
102
RTVSPost2010Prop39
140
1.0
102
RTVSPost2010PropOp39
 70
     1
102
RTVSPost2010Prop40
 90
        0
102
RTVSPost2010PropOp40
 70
     1
102
RTVSPost2010Prop41ColorIndex
 90
       18
102
RTVSPost2010Prop41ColorRGB
 90
        0
102
RTVSPost2010PropOp41
 70
     1
102
RTVSPost2010Prop42
 90
       50
102
RTVSPost2010PropOp42
 70
     1
102
RTVSPost2010Prop43
 90
        3
102
RTVSPost2010PropOp43
 70
     1
102
RTVSPost2010Prop44ColorIndex
 90
        5
102
RTVSPost2010Prop44ColorRGB
 90
      255
102
RTVSPost2010PropOp44
 70
     1
102
RTVSPost2010Prop45
280
     0
102
RTVSPost2010PropOp45
 70
     1
102
RTVSPost2010Prop46
 90
       50
102
RTVSPost2010PropOp46
 70
     1
102
RTVSPost2010Prop47
 90
       50
102
RTVSPost2010PropOp47
 70
     1
102
RTVSPost2010Prop48
 90
       50
102
RTVSPost2010PropOp48
 70
     1
102
RTVSPost2010Prop49
280
     0
102
RTVSPost2010PropOp49
 70
     1
102
RTVSPost2010Prop50
 90
       50
102
RTVSPost2010PropOp50
 70
     1
102
RTVSPost2010Prop51ColorIndex
 90
      256
102
RTVSPost2010Prop51ColorRGB
 90
-16777216
102
RTVSPost2010PropOp51
 70
     0
102
RTVSPost2010Prop52
140
1.0
102
RTVSPost2010PropOp52
 70
     0
102
RTVSPost2010Prop53
 90
        2
102
RTVSPost2010PropOp53
 70
     1
102
RTVSPost2010Prop54
  1
strokes_ogs.tif
102
RTVSPost2010PropOp54
 70
     1
102
RTVSPost2010Prop55
280
     0
102
RTVSPost2010PropOp55
 70
     1
102
RTVSPost2010Prop56
140
1.0
102
RTVSPost2010PropOp56
 70
     1
102
RTVSPost2010Prop57
140
1.0
102
RTVSPost2010PropOp57
 70
     1
102
RTVSPropertyOp0
 70
     1
102
RTVSPropertyOp1
 70
     1
102
RTVSPropertyOp2
 70
     1
102
RTVSPropertyOp3
 70
     1
102
RTVSPropertyOp4
 70
     1
102
RTVSPropertyOp5
 70
     1
102
RTVSPropertyOp6
 70
     1
102
RTVSPropertyOp7
 70
     1
102
RTVSPropertyOp8
 70
     1
102
RTVSPropertyOp9
 70
     1
102
RTVSPropertyOp10
 70
     1
102
RTVSPropertyOp11
 70
     1
102
RTVSPropertyOp12
 70
     1
102
RTVSPropertyOp13
 70
     1
102
RTVSPropertyOp14
 70
     1
102
RTVSPropertyOp15
 70
     1
102
RTVSPropertyOp16
 70
     1
102
RTVSPropertyOp17
 70
     1
102
RTVSPropertyOp18
 70
     1
102
RTVSPropertyOp19
 70
     1
102
RTVSPropertyOp20
 70
     1
102
RTVSPropertyOp21
 70
     1
102
RTVSPropertyOp22
 70
     1
102
RTVSPropertyOp23
 70
     1
102
RTVSPropertyOp24
 70
     1
102
RTVSPropertyOp25
 70
     1
102
RTVSPropertyOp26
 70
     1
102
RTVSPropertyOp27
 70
     1
102
RTVSPropertyOp28
 70
     1
102
RTVSPropertyOp29
 70
     1
102
RTVSPropertyOp30
 70
     1
102
RTVSPropertyOp31
 70
     1
102
RTVSPropertyOp32
 70
     1
102
RTVSPropertyOp33
 70
     1
102
RTVSPropertyOp34
 70
     1
102
RTVSPropertyOp35
 70
     1
102
RTVSPropertyOp36
 70
     1
102
RTVSPropertyOp37
 70
     1
102
RTVSPropertyOp38
 70
     1
102
RTVSPropertyOp39
 70
     1
102
RTVSPropertyOp40
 70
     1
102
RTVSPropertyOp41
 70
     1
102
RTVSPropertyOp42
 70
     1
102
RTVSPropertyOp43
 70
     1
102
RTVSPropertyOp44
 70
     1
102
RTVSPropertyOp45
 70
     1
102
RTVSPropertyOp46
 70
     1
102
RTVSPropertyOp47
 70
     1
102
RTVSPropertyOp48
 70
     1
102
RTVSPropertyOp49
 70
     1
102
RTVSPropertyOp50
 70
     1
102
RTVSPropertyOp51
 70
     0
102
RTVSPropertyOp52
 70
     0
102
RTVSPropertyOp53
 70
     1
102
RTVSPropertyOp54
 70
     1
102
RTVSPropertyOp55
 70
     1
102
RTVSPropertyOp56
 70
     1
102
RTVSPropertyOp57
 70
     1
102
RTVSPropertyOp58
 70
     1
102
RTVSPropertyOp59
 70
     1
102
RTVSPropertyOp60
 70
     1
102
RTVSPropertyOp61
 70
     1
102
RTVSPropertyOp62
 70
     1
  0
XRECORD
  5
ACE1
102
{ACAD_REACTORS
330
ACE0
102
}
330
ACE0
100
AcDbXrecord
280
     1
102
RTVSPost2010Prop28
280
     0
102
RTVSPost2010PropOp28
 70
     1
102
RTVSPost2010Prop29
280
     1
102
RTVSPost2010PropOp29
 70
     1
102
RTVSPost2010Prop30
280
     1
102
RTVSPost2010PropOp30
 70
     1
102
RTVSPost2010Prop31
280
     0
102
RTVSPost2010PropOp31
 70
     1
102
RTVSPost2010Prop32
280
     0
102
RTVSPost2010PropOp32
 70
     1
102
RTVSPost2010Prop33
280
     0
102
RTVSPost2010PropOp33
 70
     1
102
RTVSPost2010Prop34
280
     0
102
RTVSPost2010PropOp34
 70
     1
102
RTVSPost2010Prop35
280
     0
102
RTVSPost2010PropOp35
 70
     1
102
RTVSPost2010Prop36
280
     0
102
RTVSPost2010PropOp36
 70
     1
102
RTVSPost2010Prop37
 90
       50
102
RTVSPost2010PropOp37
 70
     1
102
RTVSPost2010Prop38
140
0.0
102
RTVSPost2010PropOp38
 70
     1
102
RTVSPost2010Prop39
140
1.0
102
RTVSPost2010PropOp39
 70
     1
102
RTVSPost2010Prop40
 90
        0
102
RTVSPost2010PropOp40
 70
     1
102
RTVSPost2010Prop41ColorIndex
 90
       18
102
RTVSPost2010Prop41ColorRGB
 90
        0
102
RTVSPost2010PropOp41
 70
     1
102
RTVSPost2010Prop42
 90
       50
102
RTVSPost2010PropOp42
 70
     1
102
RTVSPost2010Prop43
 90
        3
102
RTVSPost2010PropOp43
 70
     1
102
RTVSPost2010Prop44ColorIndex
 90
        5
102
RTVSPost2010Prop44ColorRGB
 90
      255
102
RTVSPost2010PropOp44
 70
     1
102
RTVSPost2010Prop45
280
     0
102
RTVSPost2010PropOp45
 70
     1
102
RTVSPost2010Prop46
 90
       50
102
RTVSPost2010PropOp46
 70
     1
102
RTVSPost2010Prop47
 90
       50
102
RTVSPost2010PropOp47
 70
     1
102
RTVSPost2010Prop48
 90
       50
102
RTVSPost2010PropOp48
 70
     1
102
RTVSPost2010Prop49
280
     0
102
RTVSPost2010PropOp49
 70
     1
102
RTVSPost2010Prop50
 90
       50
102
RTVSPost2010PropOp50
 70
     1
102
RTVSPost2010Prop51ColorIndex
 90
      256
102
RTVSPost2010Prop51ColorRGB
 90
-16777216
102
RTVSPost2010PropOp51
 70
     0
102
RTVSPost2010Prop52
140
1.0
102
RTVSPost2010PropOp52
 70
     0
102
RTVSPost2010Prop53
 90
        2
102
RTVSPost2010PropOp53
 70
     1
102
RTVSPost2010Prop54
  1
strokes_ogs.tif
102
RTVSPost2010PropOp54
 70
     1
102
RTVSPost2010Prop55
280
     0
102
RTVSPost2010PropOp55
 70
     1
102
RTVSPost2010Prop56
140
1.0
102
RTVSPost2010PropOp56
 70
     1
102
RTVSPost2010Prop57
140
1.0
102
RTVSPost2010PropOp57
 70
     1
102
RTVSPropertyOp0
 70
     1
102
RTVSPropertyOp1
 70
     1
102
RTVSPropertyOp2
 70
     1
102
RTVSPropertyOp3
 70
     1
102
RTVSPropertyOp4
 70
     1
102
RTVSPropertyOp5
 70
     1
102
RTVSPropertyOp6
 70
     1
102
RTVSPropertyOp7
 70
     1
102
RTVSPropertyOp8
 70
     1
102
RTVSPropertyOp9
 70
     1
102
RTVSPropertyOp10
 70
     1
102
RTVSPropertyOp11
 70
     1
102
RTVSPropertyOp12
 70
     1
102
RTVSPropertyOp13
 70
     1
102
RTVSPropertyOp14
 70
     1
102
RTVSPropertyOp15
 70
     1
102
RTVSPropertyOp16
 70
     1
102
RTVSPropertyOp17
 70
     1
102
RTVSPropertyOp18
 70
     1
102
RTVSPropertyOp19
 70
     1
102
RTVSPropertyOp20
 70
     1
102
RTVSPropertyOp21
 70
     1
102
RTVSPropertyOp22
 70
     1
102
RTVSPropertyOp23
 70
     1
102
RTVSPropertyOp24
 70
     1
102
RTVSPropertyOp25
 70
     1
102
RTVSPropertyOp26
 70
     1
102
RTVSPropertyOp27
 70
     1
102
RTVSPropertyOp28
 70
     1
102
RTVSPropertyOp29
 70
     1
102
RTVSPropertyOp30
 70
     1
102
RTVSPropertyOp31
 70
     1
102
RTVSPropertyOp32
 70
     1
102
RTVSPropertyOp33
 70
     1
102
RTVSPropertyOp34
 70
     1
102
RTVSPropertyOp35
 70
     1
102
RTVSPropertyOp36
 70
     1
102
RTVSPropertyOp37
 70
     1
102
RTVSPropertyOp38
 70
     1
102
RTVSPropertyOp39
 70
     1
102
RTVSPropertyOp40
 70
     1
102
RTVSPropertyOp41
 70
     1
102
RTVSPropertyOp42
 70
     1
102
RTVSPropertyOp43
 70
     1
102
RTVSPropertyOp44
 70
     1
102
RTVSPropertyOp45
 70
     1
102
RTVSPropertyOp46
 70
     1
102
RTVSPropertyOp47
 70
     1
102
RTVSPropertyOp48
 70
     1
102
RTVSPropertyOp49
 70
     1
102
RTVSPropertyOp50
 70
     1
102
RTVSPropertyOp51
 70
     0
102
RTVSPropertyOp52
 70
     0
102
RTVSPropertyOp53
 70
     1
102
RTVSPropertyOp54
 70
     1
102
RTVSPropertyOp55
 70
     1
102
RTVSPropertyOp56
 70
     1
102
RTVSPropertyOp57
 70
     1
102
RTVSPropertyOp58
 70
     1
102
RTVSPropertyOp59
 70
     1
102
RTVSPropertyOp60
 70
     1
102
RTVSPropertyOp61
 70
     1
102
RTVSPropertyOp62
 70
     1
  0
XRECORD
  5
ACDB
102
{ACAD_REACTORS
330
ACDA
102
}
330
ACDA
100
AcDbXrecord
280
     1
102
RTVSPost2010Prop28
280
     0
102
RTVSPost2010PropOp28
 70
     1
102
RTVSPost2010Prop29
280
     1
102
RTVSPost2010PropOp29
 70
     1
102
RTVSPost2010Prop30
280
     1
102
RTVSPost2010PropOp30
 70
     1
102
RTVSPost2010Prop31
280
     0
102
RTVSPost2010PropOp31
 70
     1
102
RTVSPost2010Prop32
280
     0
102
RTVSPost2010PropOp32
 70
     1
102
RTVSPost2010Prop33
280
     0
102
RTVSPost2010PropOp33
 70
     1
102
RTVSPost2010Prop34
280
     0
102
RTVSPost2010PropOp34
 70
     1
102
RTVSPost2010Prop35
280
     0
102
RTVSPost2010PropOp35
 70
     1
102
RTVSPost2010Prop36
280
     0
102
RTVSPost2010PropOp36
 70
     1
102
RTVSPost2010Prop37
 90
       50
102
RTVSPost2010PropOp37
 70
     1
102
RTVSPost2010Prop38
140
0.0
102
RTVSPost2010PropOp38
 70
     1
102
RTVSPost2010Prop39
140
1.0
102
RTVSPost2010PropOp39
 70
     1
102
RTVSPost2010Prop40
 90
        0
102
RTVSPost2010PropOp40
 70
     1
102
RTVSPost2010Prop41ColorIndex
 90
       18
102
RTVSPost2010Prop41ColorRGB
 90
        0
102
RTVSPost2010PropOp41
 70
     1
102
RTVSPost2010Prop42
 90
       50
102
RTVSPost2010PropOp42
 70
     1
102
RTVSPost2010Prop43
 90
        3
102
RTVSPost2010PropOp43
 70
     1
102
RTVSPost2010Prop44ColorIndex
 90
        5
102
RTVSPost2010Prop44ColorRGB
 90
      255
102
RTVSPost2010PropOp44
 70
     1
102
RTVSPost2010Prop45
280
     0
102
RTVSPost2010PropOp45
 70
     1
102
RTVSPost2010Prop46
 90
       50
102
RTVSPost2010PropOp46
 70
     1
102
RTVSPost2010Prop47
 90
       50
102
RTVSPost2010PropOp47
 70
     1
102
RTVSPost2010Prop48
 90
       50
102
RTVSPost2010PropOp48
 70
     1
102
RTVSPost2010Prop49
280
     0
102
RTVSPost2010PropOp49
 70
     1
102
RTVSPost2010Prop50
 90
       50
102
RTVSPost2010PropOp50
 70
     1
102
RTVSPost2010Prop51ColorIndex
 90
      256
102
RTVSPost2010Prop51ColorRGB
 90
-16777216
102
RTVSPost2010PropOp51
 70
     0
102
RTVSPost2010Prop52
140
1.0
102
RTVSPost2010PropOp52
 70
     0
102
RTVSPost2010Prop53
 90
        2
102
RTVSPost2010PropOp53
 70
     1
102
RTVSPost2010Prop54
  1
strokes_ogs.tif
102
RTVSPost2010PropOp54
 70
     1
102
RTVSPost2010Prop55
280
     0
102
RTVSPost2010PropOp55
 70
     1
102
RTVSPost2010Prop56
140
1.0
102
RTVSPost2010PropOp56
 70
     1
102
RTVSPost2010Prop57
140
1.0
102
RTVSPost2010PropOp57
 70
     1
102
RTVSPropertyOp0
 70
     1
102
RTVSPropertyOp1
 70
     1
102
RTVSPropertyOp2
 70
     1
102
RTVSPropertyOp3
 70
     1
102
RTVSPropertyOp4
 70
     1
102
RTVSPropertyOp5
 70
     1
102
RTVSPropertyOp6
 70
     1
102
RTVSPropertyOp7
 70
     1
102
RTVSPropertyOp8
 70
     1
102
RTVSPropertyOp9
 70
     1
102
RTVSPropertyOp10
 70
     1
102
RTVSPropertyOp11
 70
     1
102
RTVSPropertyOp12
 70
     1
102
RTVSPropertyOp13
 70
     1
102
RTVSPropertyOp14
 70
     1
102
RTVSPropertyOp15
 70
     1
102
RTVSPropertyOp16
 70
     1
102
RTVSPropertyOp17
 70
     1
102
RTVSPropertyOp18
 70
     1
102
RTVSPropertyOp19
 70
     1
102
RTVSPropertyOp20
 70
     1
102
RTVSPropertyOp21
 70
     1
102
RTVSPropertyOp22
 70
     1
102
RTVSPropertyOp23
 70
     1
102
RTVSPropertyOp24
 70
     1
102
RTVSPropertyOp25
 70
     1
102
RTVSPropertyOp26
 70
     1
102
RTVSPropertyOp27
 70
     1
102
RTVSPropertyOp28
 70
     1
102
RTVSPropertyOp29
 70
     1
102
RTVSPropertyOp30
 70
     1
102
RTVSPropertyOp31
 70
     1
102
RTVSPropertyOp32
 70
     1
102
RTVSPropertyOp33
 70
     1
102
RTVSPropertyOp34
 70
     1
102
RTVSPropertyOp35
 70
     1
102
RTVSPropertyOp36
 70
     1
102
RTVSPropertyOp37
 70
     1
102
RTVSPropertyOp38
 70
     1
102
RTVSPropertyOp39
 70
     1
102
RTVSPropertyOp40
 70
     1
102
RTVSPropertyOp41
 70
     1
102
RTVSPropertyOp42
 70
     1
102
RTVSPropertyOp43
 70
     1
102
RTVSPropertyOp44
 70
     1
102
RTVSPropertyOp45
 70
     1
102
RTVSPropertyOp46
 70
     1
102
RTVSPropertyOp47
 70
     1
102
RTVSPropertyOp48
 70
     1
102
RTVSPropertyOp49
 70
     1
102
RTVSPropertyOp50
 70
     1
102
RTVSPropertyOp51
 70
     0
102
RTVSPropertyOp52
 70
     0
102
RTVSPropertyOp53
 70
     1
102
RTVSPropertyOp54
 70
     1
102
RTVSPropertyOp55
 70
     1
102
RTVSPropertyOp56
 70
     1
102
RTVSPropertyOp57
 70
     1
102
RTVSPropertyOp58
 70
     1
102
RTVSPropertyOp59
 70
     1
102
RTVSPropertyOp60
 70
     1
102
RTVSPropertyOp61
 70
     1
102
RTVSPropertyOp62
 70
     1
  0
XRECORD
  5
ACDD
102
{ACAD_REACTORS
330
ACDC
102
}
330
ACDC
100
AcDbXrecord
280
     1
102
RTVSPost2010Prop28
280
     0
102
RTVSPost2010PropOp28
 70
     1
102
RTVSPost2010Prop29
280
     1
102
RTVSPost2010PropOp29
 70
     1
102
RTVSPost2010Prop30
280
     1
102
RTVSPost2010PropOp30
 70
     1
102
RTVSPost2010Prop31
280
     0
102
RTVSPost2010PropOp31
 70
     1
102
RTVSPost2010Prop32
280
     0
102
RTVSPost2010PropOp32
 70
     1
102
RTVSPost2010Prop33
280
     0
102
RTVSPost2010PropOp33
 70
     1
102
RTVSPost2010Prop34
280
     0
102
RTVSPost2010PropOp34
 70
     1
102
RTVSPost2010Prop35
280
     0
102
RTVSPost2010PropOp35
 70
     1
102
RTVSPost2010Prop36
280
     0
102
RTVSPost2010PropOp36
 70
     1
102
RTVSPost2010Prop37
 90
       50
102
RTVSPost2010PropOp37
 70
     1
102
RTVSPost2010Prop38
140
0.0
102
RTVSPost2010PropOp38
 70
     1
102
RTVSPost2010Prop39
140
1.0
102
RTVSPost2010PropOp39
 70
     1
102
RTVSPost2010Prop40
 90
        0
102
RTVSPost2010PropOp40
 70
     1
102
RTVSPost2010Prop41ColorIndex
 90
       18
102
RTVSPost2010Prop41ColorRGB
 90
        0
102
RTVSPost2010PropOp41
 70
     1
102
RTVSPost2010Prop42
 90
       50
102
RTVSPost2010PropOp42
 70
     1
102
RTVSPost2010Prop43
 90
        3
102
RTVSPost2010PropOp43
 70
     1
102
RTVSPost2010Prop44ColorIndex
 90
        5
102
RTVSPost2010Prop44ColorRGB
 90
      255
102
RTVSPost2010PropOp44
 70
     1
102
RTVSPost2010Prop45
280
     0
102
RTVSPost2010PropOp45
 70
     1
102
RTVSPost2010Prop46
 90
       50
102
RTVSPost2010PropOp46
 70
     1
102
RTVSPost2010Prop47
 90
       50
102
RTVSPost2010PropOp47
 70
     1
102
RTVSPost2010Prop48
 90
       50
102
RTVSPost2010PropOp48
 70
     1
102
RTVSPost2010Prop49
280
     0
102
RTVSPost2010PropOp49
 70
     1
102
RTVSPost2010Prop50
 90
       50
102
RTVSPost2010PropOp50
 70
     1
102
RTVSPost2010Prop51ColorIndex
 90
      256
102
RTVSPost2010Prop51ColorRGB
 90
-16777216
102
RTVSPost2010PropOp51
 70
     0
102
RTVSPost2010Prop52
140
1.0
102
RTVSPost2010PropOp52
 70
     0
102
RTVSPost2010Prop53
 90
        2
102
RTVSPost2010PropOp53
 70
     1
102
RTVSPost2010Prop54
  1
strokes_ogs.tif
102
RTVSPost2010PropOp54
 70
     1
102
RTVSPost2010Prop55
280
     0
102
RTVSPost2010PropOp55
 70
     1
102
RTVSPost2010Prop56
140
1.0
102
RTVSPost2010PropOp56
 70
     1
102
RTVSPost2010Prop57
140
1.0
102
RTVSPost2010PropOp57
 70
     1
102
RTVSPropertyOp0
 70
     1
102
RTVSPropertyOp1
 70
     1
102
RTVSPropertyOp2
 70
     1
102
RTVSPropertyOp3
 70
     1
102
RTVSPropertyOp4
 70
     1
102
RTVSPropertyOp5
 70
     1
102
RTVSPropertyOp6
 70
     1
102
RTVSPropertyOp7
 70
     1
102
RTVSPropertyOp8
 70
     1
102
RTVSPropertyOp9
 70
     1
102
RTVSPropertyOp10
 70
     1
102
RTVSPropertyOp11
 70
     1
102
RTVSPropertyOp12
 70
     1
102
RTVSPropertyOp13
 70
     1
102
RTVSPropertyOp14
 70
     1
102
RTVSPropertyOp15
 70
     1
102
RTVSPropertyOp16
 70
     1
102
RTVSPropertyOp17
 70
     1
102
RTVSPropertyOp18
 70
     1
102
RTVSPropertyOp19
 70
     1
102
RTVSPropertyOp20
 70
     1
102
RTVSPropertyOp21
 70
     1
102
RTVSPropertyOp22
 70
     1
102
RTVSPropertyOp23
 70
     1
102
RTVSPropertyOp24
 70
     1
102
RTVSPropertyOp25
 70
     1
102
RTVSPropertyOp26
 70
     1
102
RTVSPropertyOp27
 70
     1
102
RTVSPropertyOp28
 70
     1
102
RTVSPropertyOp29
 70
     1
102
RTVSPropertyOp30
 70
     1
102
RTVSPropertyOp31
 70
     1
102
RTVSPropertyOp32
 70
     1
102
RTVSPropertyOp33
 70
     1
102
RTVSPropertyOp34
 70
     1
102
RTVSPropertyOp35
 70
     1
102
RTVSPropertyOp36
 70
     1
102
RTVSPropertyOp37
 70
     1
102
RTVSPropertyOp38
 70
     1
102
RTVSPropertyOp39
 70
     1
102
RTVSPropertyOp40
 70
     1
102
RTVSPropertyOp41
 70
     1
102
RTVSPropertyOp42
 70
     1
102
RTVSPropertyOp43
 70
     1
102
RTVSPropertyOp44
 70
     1
102
RTVSPropertyOp45
 70
     1
102
RTVSPropertyOp46
 70
     1
102
RTVSPropertyOp47
 70
     1
102
RTVSPropertyOp48
 70
     1
102
RTVSPropertyOp49
 70
     1
102
RTVSPropertyOp50
 70
     1
102
RTVSPropertyOp51
 70
     0
102
RTVSPropertyOp52
 70
     0
102
RTVSPropertyOp53
 70
     1
102
RTVSPropertyOp54
 70
     1
102
RTVSPropertyOp55
 70
     1
102
RTVSPropertyOp56
 70
     1
102
RTVSPropertyOp57
 70
     1
102
RTVSPropertyOp58
 70
     1
102
RTVSPropertyOp59
 70
     1
102
RTVSPropertyOp60
 70
     1
102
RTVSPropertyOp61
 70
     1
102
RTVSPropertyOp62
 70
     1
  0
XRECORD
  5
ACD3
102
{ACAD_REACTORS
330
ACD2
102
}
330
ACD2
100
AcDbXrecord
280
     1
102
RTVSPost2010Prop28
280
     0
102
RTVSPost2010PropOp28
 70
     1
102
RTVSPost2010Prop29
280
     1
102
RTVSPost2010PropOp29
 70
     1
102
RTVSPost2010Prop30
280
     1
102
RTVSPost2010PropOp30
 70
     1
102
RTVSPost2010Prop31
280
     0
102
RTVSPost2010PropOp31
 70
     1
102
RTVSPost2010Prop32
280
     0
102
RTVSPost2010PropOp32
 70
     1
102
RTVSPost2010Prop33
280
     0
102
RTVSPost2010PropOp33
 70
     1
102
RTVSPost2010Prop34
280
     0
102
RTVSPost2010PropOp34
 70
     1
102
RTVSPost2010Prop35
280
     0
102
RTVSPost2010PropOp35
 70
     1
102
RTVSPost2010Prop36
280
     0
102
RTVSPost2010PropOp36
 70
     1
102
RTVSPost2010Prop37
 90
       50
102
RTVSPost2010PropOp37
 70
     1
102
RTVSPost2010Prop38
140
0.0
102
RTVSPost2010PropOp38
 70
     1
102
RTVSPost2010Prop39
140
1.0
102
RTVSPost2010PropOp39
 70
     1
102
RTVSPost2010Prop40
 90
        0
102
RTVSPost2010PropOp40
 70
     1
102
RTVSPost2010Prop41ColorIndex
 90
       18
102
RTVSPost2010Prop41ColorRGB
 90
        0
102
RTVSPost2010PropOp41
 70
     1
102
RTVSPost2010Prop42
 90
       50
102
RTVSPost2010PropOp42
 70
     1
102
RTVSPost2010Prop43
 90
        3
102
RTVSPost2010PropOp43
 70
     1
102
RTVSPost2010Prop44ColorIndex
 90
        5
102
RTVSPost2010Prop44ColorRGB
 90
      255
102
RTVSPost2010PropOp44
 70
     1
102
RTVSPost2010Prop45
280
     0
102
RTVSPost2010PropOp45
 70
     1
102
RTVSPost2010Prop46
 90
       50
102
RTVSPost2010PropOp46
 70
     1
102
RTVSPost2010Prop47
 90
       50
102
RTVSPost2010PropOp47
 70
     1
102
RTVSPost2010Prop48
 90
       50
102
RTVSPost2010PropOp48
 70
     1
102
RTVSPost2010Prop49
280
     0
102
RTVSPost2010PropOp49
 70
     1
102
RTVSPost2010Prop50
 90
       50
102
RTVSPost2010PropOp50
 70
     1
102
RTVSPost2010Prop51ColorIndex
 90
      256
102
RTVSPost2010Prop51ColorRGB
 90
-16777216
102
RTVSPost2010PropOp51
 70
     0
102
RTVSPost2010Prop52
140
1.0
102
RTVSPost2010PropOp52
 70
     0
102
RTVSPost2010Prop53
 90
        2
102
RTVSPost2010PropOp53
 70
     1
102
RTVSPost2010Prop54
  1
strokes_ogs.tif
102
RTVSPost2010PropOp54
 70
     1
102
RTVSPost2010Prop55
280
     0
102
RTVSPost2010PropOp55
 70
     1
102
RTVSPost2010Prop56
140
1.0
102
RTVSPost2010PropOp56
 70
     1
102
RTVSPost2010Prop57
140
1.0
102
RTVSPost2010PropOp57
 70
     1
102
RTVSPropertyOp0
 70
     1
102
RTVSPropertyOp1
 70
     1
102
RTVSPropertyOp2
 70
     1
102
RTVSPropertyOp3
 70
     1
102
RTVSPropertyOp4
 70
     1
102
RTVSPropertyOp5
 70
     1
102
RTVSPropertyOp6
 70
     1
102
RTVSPropertyOp7
 70
     1
102
RTVSPropertyOp8
 70
     1
102
RTVSPropertyOp9
 70
     1
102
RTVSPropertyOp10
 70
     1
102
RTVSPropertyOp11
 70
     1
102
RTVSPropertyOp12
 70
     1
102
RTVSPropertyOp13
 70
     1
102
RTVSPropertyOp14
 70
     1
102
RTVSPropertyOp15
 70
     1
102
RTVSPropertyOp16
 70
     1
102
RTVSPropertyOp17
 70
     1
102
RTVSPropertyOp18
 70
     1
102
RTVSPropertyOp19
 70
     1
102
RTVSPropertyOp20
 70
     1
102
RTVSPropertyOp21
 70
     1
102
RTVSPropertyOp22
 70
     1
102
RTVSPropertyOp23
 70
     1
102
RTVSPropertyOp24
 70
     1
102
RTVSPropertyOp25
 70
     1
102
RTVSPropertyOp26
 70
     1
102
RTVSPropertyOp27
 70
     1
102
RTVSPropertyOp28
 70
     1
102
RTVSPropertyOp29
 70
     1
102
RTVSPropertyOp30
 70
     1
102
RTVSPropertyOp31
 70
     1
102
RTVSPropertyOp32
 70
     1
102
RTVSPropertyOp33
 70
     1
102
RTVSPropertyOp34
 70
     1
102
RTVSPropertyOp35
 70
     1
102
RTVSPropertyOp36
 70
     1
102
RTVSPropertyOp37
 70
     1
102
RTVSPropertyOp38
 70
     1
102
RTVSPropertyOp39
 70
     1
102
RTVSPropertyOp40
 70
     1
102
RTVSPropertyOp41
 70
     1
102
RTVSPropertyOp42
 70
     1
102
RTVSPropertyOp43
 70
     1
102
RTVSPropertyOp44
 70
     1
102
RTVSPropertyOp45
 70
     1
102
RTVSPropertyOp46
 70
     1
102
RTVSPropertyOp47
 70
     1
102
RTVSPropertyOp48
 70
     1
102
RTVSPropertyOp49
 70
     1
102
RTVSPropertyOp50
 70
     1
102
RTVSPropertyOp51
 70
     0
102
RTVSPropertyOp52
 70
     0
102
RTVSPropertyOp53
 70
     1
102
RTVSPropertyOp54
 70
     1
102
RTVSPropertyOp55
 70
     1
102
RTVSPropertyOp56
 70
     1
102
RTVSPropertyOp57
 70
     1
102
RTVSPropertyOp58
 70
     1
102
RTVSPropertyOp59
 70
     1
102
RTVSPropertyOp60
 70
     1
102
RTVSPropertyOp61
 70
     1
102
RTVSPropertyOp62
 70
     1
  0
XRECORD
  5
ACC7
102
{ACAD_REACTORS
330
ACC6
102
}
330
ACC6
100
AcDbXrecord
280
     1
102
RTVSPost2010Prop28
280
     0
102
RTVSPost2010PropOp28
 70
     1
102
RTVSPost2010Prop29
280
     1
102
RTVSPost2010PropOp29
 70
     1
102
RTVSPost2010Prop30
280
     1
102
RTVSPost2010PropOp30
 70
     1
102
RTVSPost2010Prop31
280
     0
102
RTVSPost2010PropOp31
 70
     1
102
RTVSPost2010Prop32
280
     0
102
RTVSPost2010PropOp32
 70
     1
102
RTVSPost2010Prop33
280
     0
102
RTVSPost2010PropOp33
 70
     1
102
RTVSPost2010Prop34
280
     0
102
RTVSPost2010PropOp34
 70
     1
102
RTVSPost2010Prop35
280
     0
102
RTVSPost2010PropOp35
 70
     1
102
RTVSPost2010Prop36
280
     0
102
RTVSPost2010PropOp36
 70
     1
102
RTVSPost2010Prop37
 90
       50
102
RTVSPost2010PropOp37
 70
     1
102
RTVSPost2010Prop38
140
0.0
102
RTVSPost2010PropOp38
 70
     1
102
RTVSPost2010Prop39
140
1.0
102
RTVSPost2010PropOp39
 70
     1
102
RTVSPost2010Prop40
 90
        0
102
RTVSPost2010PropOp40
 70
     1
102
RTVSPost2010Prop41ColorIndex
 90
       18
102
RTVSPost2010Prop41ColorRGB
 90
        0
102
RTVSPost2010PropOp41
 70
     1
102
RTVSPost2010Prop42
 90
       50
102
RTVSPost2010PropOp42
 70
     1
102
RTVSPost2010Prop43
 90
        3
102
RTVSPost2010PropOp43
 70
     1
102
RTVSPost2010Prop44ColorIndex
 90
        5
102
RTVSPost2010Prop44ColorRGB
 90
      255
102
RTVSPost2010PropOp44
 70
     1
102
RTVSPost2010Prop45
280
     0
102
RTVSPost2010PropOp45
 70
     1
102
RTVSPost2010Prop46
 90
       50
102
RTVSPost2010PropOp46
 70
     1
102
RTVSPost2010Prop47
 90
       50
102
RTVSPost2010PropOp47
 70
     1
102
RTVSPost2010Prop48
 90
       50
102
RTVSPost2010PropOp48
 70
     1
102
RTVSPost2010Prop49
280
     0
102
RTVSPost2010PropOp49
 70
     1
102
RTVSPost2010Prop50
 90
       50
102
RTVSPost2010PropOp50
 70
     1
102
RTVSPost2010Prop51ColorIndex
 90
      256
102
RTVSPost2010Prop51ColorRGB
 90
-16777216
102
RTVSPost2010PropOp51
 70
     0
102
RTVSPost2010Prop52
140
1.0
102
RTVSPost2010PropOp52
 70
     0
102
RTVSPost2010Prop53
 90
        2
102
RTVSPost2010PropOp53
 70
     1
102
RTVSPost2010Prop54
  1
strokes_ogs.tif
102
RTVSPost2010PropOp54
 70
     1
102
RTVSPost2010Prop55
280
     0
102
RTVSPost2010PropOp55
 70
     1
102
RTVSPost2010Prop56
140
1.0
102
RTVSPost2010PropOp56
 70
     1
102
RTVSPost2010Prop57
140
1.0
102
RTVSPost2010PropOp57
 70
     1
102
RTVSPropertyOp0
 70
     1
102
RTVSPropertyOp1
 70
     1
102
RTVSPropertyOp2
 70
     1
102
RTVSPropertyOp3
 70
     1
102
RTVSPropertyOp4
 70
     1
102
RTVSPropertyOp5
 70
     1
102
RTVSPropertyOp6
 70
     1
102
RTVSPropertyOp7
 70
     1
102
RTVSPropertyOp8
 70
     1
102
RTVSPropertyOp9
 70
     1
102
RTVSPropertyOp10
 70
     1
102
RTVSPropertyOp11
 70
     1
102
RTVSPropertyOp12
 70
     1
102
RTVSPropertyOp13
 70
     1
102
RTVSPropertyOp14
 70
     1
102
RTVSPropertyOp15
 70
     1
102
RTVSPropertyOp16
 70
     1
102
RTVSPropertyOp17
 70
     1
102
RTVSPropertyOp18
 70
     1
102
RTVSPropertyOp19
 70
     1
102
RTVSPropertyOp20
 70
     1
102
RTVSPropertyOp21
 70
     1
102
RTVSPropertyOp22
 70
     1
102
RTVSPropertyOp23
 70
     1
102
RTVSPropertyOp24
 70
     1
102
RTVSPropertyOp25
 70
     1
102
RTVSPropertyOp26
 70
     1
102
RTVSPropertyOp27
 70
     1
102
RTVSPropertyOp28
 70
     1
102
RTVSPropertyOp29
 70
     1
102
RTVSPropertyOp30
 70
     1
102
RTVSPropertyOp31
 70
     1
102
RTVSPropertyOp32
 70
     1
102
RTVSPropertyOp33
 70
     1
102
RTVSPropertyOp34
 70
     1
102
RTVSPropertyOp35
 70
     1
102
RTVSPropertyOp36
 70
     1
102
RTVSPropertyOp37
 70
     1
102
RTVSPropertyOp38
 70
     1
102
RTVSPropertyOp39
 70
     1
102
RTVSPropertyOp40
 70
     1
102
RTVSPropertyOp41
 70
     1
102
RTVSPropertyOp42
 70
     1
102
RTVSPropertyOp43
 70
     1
102
RTVSPropertyOp44
 70
     1
102
RTVSPropertyOp45
 70
     1
102
RTVSPropertyOp46
 70
     1
102
RTVSPropertyOp47
 70
     1
102
RTVSPropertyOp48
 70
     1
102
RTVSPropertyOp49
 70
     1
102
RTVSPropertyOp50
 70
     1
102
RTVSPropertyOp51
 70
     0
102
RTVSPropertyOp52
 70
     0
102
RTVSPropertyOp53
 70
     1
102
RTVSPropertyOp54
 70
     1
102
RTVSPropertyOp55
 70
     1
102
RTVSPropertyOp56
 70
     1
102
RTVSPropertyOp57
 70
     1
102
RTVSPropertyOp58
 70
     1
102
RTVSPropertyOp59
 70
     1
102
RTVSPropertyOp60
 70
     1
102
RTVSPropertyOp61
 70
     1
102
RTVSPropertyOp62
 70
     1
  0
XRECORD
  5
ACDF
102
{ACAD_REACTORS
330
ACDE
102
}
330
ACDE
100
AcDbXrecord
280
     1
102
RTVSPost2010Prop28
280
     0
102
RTVSPost2010PropOp28
 70
     1
102
RTVSPost2010Prop29
280
     1
102
RTVSPost2010PropOp29
 70
     1
102
RTVSPost2010Prop30
280
     1
102
RTVSPost2010PropOp30
 70
     1
102
RTVSPost2010Prop31
280
     0
102
RTVSPost2010PropOp31
 70
     1
102
RTVSPost2010Prop32
280
     0
102
RTVSPost2010PropOp32
 70
     1
102
RTVSPost2010Prop33
280
     0
102
RTVSPost2010PropOp33
 70
     1
102
RTVSPost2010Prop34
280
     0
102
RTVSPost2010PropOp34
 70
     1
102
RTVSPost2010Prop35
280
     0
102
RTVSPost2010PropOp35
 70
     1
102
RTVSPost2010Prop36
280
     0
102
RTVSPost2010PropOp36
 70
     1
102
RTVSPost2010Prop37
 90
       50
102
RTVSPost2010PropOp37
 70
     1
102
RTVSPost2010Prop38
140
0.0
102
RTVSPost2010PropOp38
 70
     1
102
RTVSPost2010Prop39
140
1.0
102
RTVSPost2010PropOp39
 70
     1
102
RTVSPost2010Prop40
 90
        0
102
RTVSPost2010PropOp40
 70
     1
102
RTVSPost2010Prop41ColorIndex
 90
       18
102
RTVSPost2010Prop41ColorRGB
 90
        0
102
RTVSPost2010PropOp41
 70
     1
102
RTVSPost2010Prop42
 90
       50
102
RTVSPost2010PropOp42
 70
     1
102
RTVSPost2010Prop43
 90
        3
102
RTVSPost2010PropOp43
 70
     1
102
RTVSPost2010Prop44ColorIndex
 90
        5
102
RTVSPost2010Prop44ColorRGB
 90
      255
102
RTVSPost2010PropOp44
 70
     1
102
RTVSPost2010Prop45
280
     0
102
RTVSPost2010PropOp45
 70
     1
102
RTVSPost2010Prop46
 90
       50
102
RTVSPost2010PropOp46
 70
     1
102
RTVSPost2010Prop47
 90
       50
102
RTVSPost2010PropOp47
 70
     1
102
RTVSPost2010Prop48
 90
       50
102
RTVSPost2010PropOp48
 70
     1
102
RTVSPost2010Prop49
280
     0
102
RTVSPost2010PropOp49
 70
     1
102
RTVSPost2010Prop50
 90
       50
102
RTVSPost2010PropOp50
 70
     1
102
RTVSPost2010Prop51ColorIndex
 90
      256
102
RTVSPost2010Prop51ColorRGB
 90
-16777216
102
RTVSPost2010PropOp51
 70
     0
102
RTVSPost2010Prop52
140
1.0
102
RTVSPost2010PropOp52
 70
     0
102
RTVSPost2010Prop53
 90
        2
102
RTVSPost2010PropOp53
 70
     1
102
RTVSPost2010Prop54
  1
strokes_ogs.tif
102
RTVSPost2010PropOp54
 70
     1
102
RTVSPost2010Prop55
280
     0
102
RTVSPost2010PropOp55
 70
     1
102
RTVSPost2010Prop56
140
1.0
102
RTVSPost2010PropOp56
 70
     1
102
RTVSPost2010Prop57
140
1.0
102
RTVSPost2010PropOp57
 70
     1
102
RTVSPropertyOp0
 70
     1
102
RTVSPropertyOp1
 70
     1
102
RTVSPropertyOp2
 70
     1
102
RTVSPropertyOp3
 70
     1
102
RTVSPropertyOp4
 70
     1
102
RTVSPropertyOp5
 70
     1
102
RTVSPropertyOp6
 70
     1
102
RTVSPropertyOp7
 70
     1
102
RTVSPropertyOp8
 70
     1
102
RTVSPropertyOp9
 70
     1
102
RTVSPropertyOp10
 70
     1
102
RTVSPropertyOp11
 70
     1
102
RTVSPropertyOp12
 70
     1
102
RTVSPropertyOp13
 70
     1
102
RTVSPropertyOp14
 70
     1
102
RTVSPropertyOp15
 70
     1
102
RTVSPropertyOp16
 70
     1
102
RTVSPropertyOp17
 70
     1
102
RTVSPropertyOp18
 70
     1
102
RTVSPropertyOp19
 70
     1
102
RTVSPropertyOp20
 70
     1
102
RTVSPropertyOp21
 70
     1
102
RTVSPropertyOp22
 70
     1
102
RTVSPropertyOp23
 70
     1
102
RTVSPropertyOp24
 70
     1
102
RTVSPropertyOp25
 70
     1
102
RTVSPropertyOp26
 70
     1
102
RTVSPropertyOp27
 70
     1
102
RTVSPropertyOp28
 70
     1
102
RTVSPropertyOp29
 70
     1
102
RTVSPropertyOp30
 70
     1
102
RTVSPropertyOp31
 70
     1
102
RTVSPropertyOp32
 70
     1
102
RTVSPropertyOp33
 70
     1
102
RTVSPropertyOp34
 70
     1
102
RTVSPropertyOp35
 70
     1
102
RTVSPropertyOp36
 70
     1
102
RTVSPropertyOp37
 70
     1
102
RTVSPropertyOp38
 70
     1
102
RTVSPropertyOp39
 70
     1
102
RTVSPropertyOp40
 70
     1
102
RTVSPropertyOp41
 70
     1
102
RTVSPropertyOp42
 70
     1
102
RTVSPropertyOp43
 70
     1
102
RTVSPropertyOp44
 70
     1
102
RTVSPropertyOp45
 70
     1
102
RTVSPropertyOp46
 70
     1
102
RTVSPropertyOp47
 70
     1
102
RTVSPropertyOp48
 70
     1
102
RTVSPropertyOp49
 70
     1
102
RTVSPropertyOp50
 70
     1
102
RTVSPropertyOp51
 70
     0
102
RTVSPropertyOp52
 70
     0
102
RTVSPropertyOp53
 70
     1
102
RTVSPropertyOp54
 70
     1
102
RTVSPropertyOp55
 70
     1
102
RTVSPropertyOp56
 70
     1
102
RTVSPropertyOp57
 70
     1
102
RTVSPropertyOp58
 70
     1
102
RTVSPropertyOp59
 70
     1
102
RTVSPropertyOp60
 70
     1
102
RTVSPropertyOp61
 70
     1
102
RTVSPropertyOp62
 70
     1
  0
ENDSEC
  0
EOF
