  0
SECTION
  2
HEADER
  9
$ACADVER
  1
AC1015
  9
$ACADMAINTVER
 70
    20
  9
$DWGCODEPAGE
  3
ANSI_932
  9
$INSBASE
 10
0.0
 20
0.0
 30
0.0
  9
$EXTMIN
 10
10.0
 20
9.999999999999998
 30
0.0
  9
$EXTMAX
 10
541.507345
 20
363.4206219999999
 30
0.0
  9
$LIMMIN
 10
0.0
 20
0.0
  9
$LIMMAX
 10
594.0
 20
409.4999999999997
  9
$ORTHOMODE
 70
     0
  9
$REGENMODE
 70
     1
  9
$FILLMODE
 70
     1
  9
$QTEXTMODE
 70
     0
  9
$MIRRTEXT
 70
     1
  9
$LTSCALE
 40
20.0
  9
$ATTMODE
 70
     1
  9
$TEXTSIZE
 40
5.0
  9
$TRACEWID
 40
1.0
  9
$TEXTSTYLE
  7
STANDARD
  9
$CLAYER
  8
0
  9
$CELTYPE
  6
BYLAYER
  9
$CECOLOR
 62
   256
  9
$CELTSCALE
 40
1.0
  9
$DISPSILH
 70
     0
  9
$DIMSCALE
 40
1.0
  9
$DIMASZ
 40
3.0
  9
$DIMEXO
 40
1.0
  9
$DIMDLI
 40
10.0
  9
$DIMRND
 40
0.0
  9
$DIMDLE
 40
0.0
  9
$DIMEXE
 40
1.0
  9
$DIMTP
 40
0.0
  9
$DIMTM
 40
0.0
  9
$DIMTXT
 40
3.2
  9
$DIMCEN
 40
0.0
  9
$DIMTSZ
 40
0.0
  9
$DIMTOL
 70
     0
  9
$DIMLIM
 70
     0
  9
$DIMTIH
 70
     0
  9
$DIMTOH
 70
     0
  9
$DIMSE1
 70
     0
  9
$DIMSE2
 70
     0
  9
$DIMTAD
 70
     3
  9
$DIMZIN
 70
     8
  9
$DIMBLK
  1

  9
$DIMASO
 70
     1
  9
$DIMSHO
 70
     1
  9
$DIMPOST
  1

  9
$DIMAPOST
  1

  9
$DIMALT
 70
     0
  9
$DIMALTD
 70
     2
  9
$DIMALTF
 40
25.4
  9
$DIMLFAC
 40
1.0
  9
$DIMTOFL
 70
     1
  9
$DIMTVP
 40
0.0
  9
$DIMTIX
 70
     0
  9
$DIMSOXD
 70
     0
  9
$DIMSAH
 70
     1
  9
$DIMBLK1
  1
OPEN
  9
$DIMBLK2
  1
OPEN
  9
$DIMSTYLE
  2
STANDARD
  9
$DIMCLRD
 70
     0
  9
$DIMCLRE
 70
     0
  9
$DIMCLRT
 70
     0
  9
$DIMTFAC
 40
1.0
  9
$DIMGAP
 40
1.0
  9
$DIMJUST
 70
     0
  9
$DIMSD1
 70
     0
  9
$DIMSD2
 70
     0
  9
$DIMTOLJ
 70
     1
  9
$DIMTZIN
 70
     0
  9
$DIMALTZ
 70
     0
  9
$DIMALTTZ
 70
     0
  9
$DIMUPT
 70
     0
  9
$DIMDEC
 70
     4
  9
$DIMTDEC
 70
     4
  9
$DIMALTU
 70
     2
  9
$DIMALTTD
 70
     2
  9
$DIMTXSTY
  7
STANDARD
  9
$DIMAUNIT
 70
     0
  9
$DIMADEC
 70
     0
  9
$DIMALTRND
 40
0.0
  9
$DIMAZIN
 70
     0
  9
$DIMDSEP
 70
    46
  9
$DIMATFIT
 70
     3
  9
$DIMFRAC
 70
     0
  9
$DIMLDRBLK
  1
OPEN
  9
$DIMLUNIT
 70
     2
  9
$DIMLWD
 70
    -2
  9
$DIMLWE
 70
    -2
  9
$DIMTMOVE
 70
     0
  9
$LUNITS
 70
     2
  9
$LUPREC
 70
     4
  9
$SKETCHINC
 40
1.0
  9
$FILLETRAD
 40
2.6
  9
$AUNITS
 70
     0
  9
$AUPREC
 70
     2
  9
$MENU
  1
.
  9
$ELEVATION
 40
0.0
  9
$PELEVATION
 40
0.0
  9
$THICKNESS
 40
0.0
  9
$LIMCHECK
 70
     0
  9
$CHAMFERA
 40
0.6
  9
$CHAMFERB
 40
0.6
  9
$CHAMFERC
 40
0.0
  9
$CHAMFERD
 40
0.0
  9
$SKPOLY
 70
     0
  9
$TDCREATE
 40
2451301.623382639
  9
$TDUCREATE
 40
2451301.248382639
  9
$TDUPDATE
 40
2457192.688480347
  9
$TDUUPDATE
 40
2457192.313480347
  9
$TDINDWG
 40
0.0000101157
  9
$TDUSRTIMER
 40
0.0000095255
  9
$USRTIMER
 70
     1
  9
$ANGBASE
 50
0.0
  9
$ANGDIR
 70
     0
  9
$PDMODE
 70
     0
  9
$PDSIZE
 40
0.0
  9
$PLINEWID
 40
0.0
  9
$SPLFRAME
 70
     0
  9
$SPLINETYPE
 70
     6
  9
$SPLINESEGS
 70
     8
  9
$HANDSEED
  5
AA45
  9
$SURFTAB1
 70
     6
  9
$SURFTAB2
 70
     6
  9
$SURFTYPE
 70
     6
  9
$SURFU
 70
     6
  9
$SURFV
 70
     6
  9
$UCSBASE
  2

  9
$UCSNAME
  2

  9
$UCSORG
 10
0.0
 20
0.0
 30
0.0
  9
$UCSXDIR
 10
1.0
 20
0.0
 30
0.0
  9
$UCSYDIR
 10
0.0
 20
1.0
 30
0.0
  9
$UCSORTHOREF
  2

  9
$UCSORTHOVIEW
 70
     0
  9
$UCSORGTOP
 10
0.0
 20
0.0
 30
0.0
  9
$UCSORGBOTTOM
 10
0.0
 20
0.0
 30
0.0
  9
$UCSORGLEFT
 10
0.0
 20
0.0
 30
0.0
  9
$UCSORGRIGHT
 10
0.0
 20
0.0
 30
0.0
  9
$UCSORGFRONT
 10
0.0
 20
0.0
 30
0.0
  9
$UCSORGBACK
 10
0.0
 20
0.0
 30
0.0
  9
$PUCSBASE
  2

  9
$PUCSNAME
  2

  9
$PUCSORG
 10
0.0
 20
0.0
 30
0.0
  9
$PUCSXDIR
 10
1.0
 20
0.0
 30
0.0
  9
$PUCSYDIR
 10
0.0
 20
1.0
 30
0.0
  9
$PUCSORTHOREF
  2

  9
$PUCSORTHOVIEW
 70
     0
  9
$PUCSORGTOP
 10
0.0
 20
0.0
 30
0.0
  9
$PUCSORGBOTTOM
 10
0.0
 20
0.0
 30
0.0
  9
$PUCSORGLEFT
 10
0.0
 20
0.0
 30
0.0
  9
$PUCSORGRIGHT
 10
0.0
 20
0.0
 30
0.0
  9
$PUCSORGFRONT
 10
0.0
 20
0.0
 30
0.0
  9
$PUCSORGBACK
 10
0.0
 20
0.0
 30
0.0
  9
$USERI1
 70
     0
  9
$USERI2
 70
     0
  9
$USERI3
 70
     0
  9
$USERI4
 70
     0
  9
$USERI5
 70
     0
  9
$USERR1
 40
0.0
  9
$USERR2
 40
0.0
  9
$USERR3
 40
0.0
  9
$USERR4
 40
0.0
  9
$USERR5
 40
0.0
  9
$WORLDVIEW
 70
     1
  9
$SHADEDGE
 70
     3
  9
$SHADEDIF
 70
    70
  9
$TILEMODE
 70
     1
  9
$MAXACTVP
 70
    16
  9
$PINSBASE
 10
0.0
 20
0.0
 30
0.0
  9
$PLIMCHECK
 70
     0
  9
$PEXTMIN
 10
1.000000000000000E+20
 20
1.000000000000000E+20
 30
1.000000000000000E+20
  9
$PEXTMAX
 10
-1.000000000000000E+20
 20
-1.000000000000000E+20
 30
-1.000000000000000E+20
  9
$PLIMMIN
 10
0.0
 20
0.0
  9
$PLIMMAX
 10
420.0
 20
297.0
  9
$UNITMODE
 70
     0
  9
$VISRETAIN
 70
     0
  9
$PLINEGEN
 70
     0
  9
$PSLTSCALE
 70
     0
  9
$TREEDEPTH
 70
  3020
  9
$CMLSTYLE
  2
STANDARD
  9
$CMLJUST
 70
     0
  9
$CMLSCALE
 40
1.0
  9
$PROXYGRAPHICS
 70
     1
  9
$MEASUREMENT
 70
     0
  9
$CELWEIGHT
370
    -1
  9
$ENDCAPS
280
     0
  9
$JOINSTYLE
280
     0
  9
$LWDISPLAY
290
     0
  9
$INSUNITS
 70
     0
  9
$HYPERLINKBASE
  1

  9
$STYLESHEET
  1

  9
$XEDIT
290
     1
  9
$CEPSNTYPE
380
     0
  9
$PSTYLEMODE
290
     1
  9
$FINGERPRINTGUID
  2
{1AA8533E-5F0D-474E-A773-AF755AF78498}
  9
$VERSIONGUID
  2
{1B359AFD-E4E6-4483-A2D8-6E2C387ACDA2}
  9
$EXTNAMES
290
     1
  9
$PSVPSCALE
 40
0.0
  9
$OLESTARTUP
290
     0
  0
ENDSEC
  0
SECTION
  2
CLASSES
  0
CLASS
  1
ACDBDICTIONARYWDFLT
  2
AcDbDictionaryWithDefault
  3
ObjectDBX Classes
 90
        0
280
     0
281
     0
  0
CLASS
  1
ACDBPLACEHOLDER
  2
AcDbPlaceHolder
  3
ObjectDBX Classes
 90
        0
280
     0
281
     0
  0
CLASS
  1
LAYOUT
  2
AcDbLayout
  3
ObjectDBX Classes
 90
        0
280
     0
281
     0
  0
CLASS
  1
DICTIONARYVAR
  2
AcDbDictionaryVar
  3
ObjectDBX Classes
 90
        0
280
     0
281
     0
  0
CLASS
  1
MATERIAL
  2
AcDbMaterial
  3
ObjectDBX Classes
 90
     1153
280
     0
281
     0
  0
CLASS
  1
VISUALSTYLE
  2
AcDbVisualStyle
  3
ObjectDBX Classes
 90
     4095
280
     0
281
     0
  0
CLASS
  1
TABLESTYLE
  2
AcDbTableStyle
  3
ObjectDBX Classes
 90
     4095
280
     0
281
     0
  0
CLASS
  1
SCALE
  2
AcDbScale
  3
ObjectDBX Classes
 90
     1153
280
     0
281
     0
  0
CLASS
  1
MLEADERSTYLE
  2
AcDbMLeaderStyle
  3
ACDB_MLEADERSTYLE_CLASS
 90
     4095
280
     0
281
     0
  0
CLASS
  1
ACDBSECTIONVIEWSTYLE
  2
AcDbSectionViewStyle
  3
ObjectDBX Classes
 90
     1025
280
     0
281
     0
  0
CLASS
  1
ACDBDETAILVIEWSTYLE
  2
AcDbDetailViewStyle
  3
ObjectDBX Classes
 90
     1025
280
     0
281
     0
  0
CLASS
  1
CELLSTYLEMAP
  2
AcDbCellStyleMap
  3
ObjectDBX Classes
 90
     1152
280
     0
281
     0
  0
ENDSEC
  0
SECTION
  2
TABLES
  0
TABLE
  2
VPORT
  5
A7BC
330
0
100
AcDbSymbolTable
 70
     1
  0
VPORT
  5
A98E
330
A7BC
100
AcDbSymbolTableRecord
100
AcDbViewportTableRecord
  2
*ACTIVE
 70
     0
 10
0.0
 20
0.0
 11
1.0
 21
1.0
 12
382.8203298788187
 22
186.707531907779
 13
0.0
 23
0.0
 14
10.0
 24
10.0
 15
10.0
 25
10.0
 16
0.0
 26
0.0
 36
1.0
 17
0.0
 27
0.0
 37
0.0
 40
357.350407529156
 41
2.35006605019815
 42
50.0
 43
0.0
 44
0.0
 50
0.0
 51
0.0
 71
     0
 72
   100
 73
     1
 74
     0
 75
     0
 76
     0
 77
     0
 78
     0
281
     0
 65
     1
110
0.0
120
0.0
130
0.0
111
1.0
121
0.0
131
0.0
112
0.0
122
1.0
132
0.0
 79
     0
146
0.0
1001
ACAD_NAV_VCDISPLAY
1070
     3
  0
ENDTAB
  0
TABLE
  2
LTYPE
  5
A7B9
330
0
100
AcDbSymbolTable
 70
     4
  0
LTYPE
  5
A7C7
330
A7B9
100
AcDbSymbolTableRecord
100
AcDbLinetypeTableRecord
  2
BYBLOCK
 70
     0
  3

 72
    65
 73
     0
 40
0.0
  0
LTYPE
  5
A7C8
330
A7B9
100
AcDbSymbolTableRecord
100
AcDbLinetypeTableRecord
  2
BYLAYER
 70
     0
  3

 72
    65
 73
     0
 40
0.0
  0
LTYPE
  5
A7C9
330
A7B9
100
AcDbSymbolTableRecord
100
AcDbLinetypeTableRecord
  2
CONTINUOUS
 70
     0
  3
Solid line
 72
    65
 73
     0
 40
0.0
  0
LTYPE
  5
A7D7
330
A7B9
100
AcDbSymbolTableRecord
100
AcDbLinetypeTableRecord
  2
DASHED
 70
     0
  3
__ __ __ __ __ __ __ __ __ __ __ __ __ __ __ __
 72
    65
 73
     2
 40
0.75
 49
0.5
 74
     0
 49
-0.25
 74
     0
  0
LTYPE
  5
A7D8
330
A7B9
100
AcDbSymbolTableRecord
100
AcDbLinetypeTableRecord
  2
CENTER
 70
     0
  3
____ _ ____ _ ____ _ ____ _ ____ _ ____ _ ____ 
 72
    65
 73
     4
 40
2.0
 49
1.25
 74
     0
 49
-0.25
 74
     0
 49
0.25
 74
     0
 49
-0.25
 74
     0
  0
LTYPE
  5
A7D9
330
A7B9
100
AcDbSymbolTableRecord
100
AcDbLinetypeTableRecord
  2
PHANTOM
 70
     0
  3
______  __  __  ______  __  __  ______  __  __ 
 72
    65
 73
     6
 40
2.5
 49
1.25
 74
     0
 49
-0.25
 74
     0
 49
0.25
 74
     0
 49
-0.25
 74
     0
 49
0.25
 74
     0
 49
-0.25
 74
     0
  0
ENDTAB
  0
TABLE
  2
LAYER
  5
A7B6
330
0
100
AcDbSymbolTable
 70
     8
  0
LAYER
  5
A7C4
102
{ACAD_XDICTIONARY
360
A9E9
102
}
330
A7B6
100
AcDbSymbolTableRecord
100
AcDbLayerTableRecord
  2
0
 70
     0
 62
     7
  6
CONTINUOUS
370
    -3
390
A997
  0
LAYER
  5
A7DA
102
{ACAD_XDICTIONARY
360
A9EB
102
}
330
A7B6
100
AcDbSymbolTableRecord
100
AcDbLayerTableRecord
  2
4
 70
     0
 62
     1
  6
CENTER
370
    -3
390
A997
  0
LAYER
  5
A7DB
102
{ACAD_XDICTIONARY
360
A9ED
102
}
330
A7B6
100
AcDbSymbolTableRecord
100
AcDbLayerTableRecord
  2
5
 70
     0
 62
     6
  6
PHANTOM
370
    -3
390
A997
  0
LAYER
  5
A7DC
102
{ACAD_XDICTIONARY
360
A9EF
102
}
330
A7B6
100
AcDbSymbolTableRecord
100
AcDbLayerTableRecord
  2
1
 70
     0
 62
     7
  6
CONTINUOUS
370
    -3
390
A997
  0
LAYER
  5
A7DD
102
{ACAD_XDICTIONARY
360
A9F1
102
}
330
A7B6
100
AcDbSymbolTableRecord
100
AcDbLayerTableRecord
  2
2
 70
     0
 62
     4
  6
CONTINUOUS
370
    -3
390
A997
  0
LAYER
  5
A7DE
102
{ACAD_XDICTIONARY
360
A9F3
102
}
330
A7B6
100
AcDbSymbolTableRecord
100
AcDbLayerTableRecord
  2
3
 70
     0
 62
     2
  6
DASHED
370
    -3
390
A997
  0
LAYER
  5
A7DF
102
{ACAD_XDICTIONARY
360
A9F5
102
}
330
A7B6
100
AcDbSymbolTableRecord
100
AcDbLayerTableRecord
  2
6
 70
     0
 62
     5
  6
CONTINUOUS
370
    -3
390
A997
  0
LAYER
  5
A7E0
102
{ACAD_XDICTIONARY
360
A9F7
102
}
330
A7B6
100
AcDbSymbolTableRecord
100
AcDbLayerTableRecord
  2
7
 70
     0
 62
     3
  6
CONTINUOUS
370
    -3
390
A997
  0
ENDTAB
  0
TABLE
  2
STYLE
  5
A7B7
330
0
100
AcDbSymbolTable
 70
     1
  0
STYLE
  5
A7C5
330
A7B7
100
AcDbSymbolTableRecord
100
AcDbTextStyleTableRecord
  2
STANDARD
 70
     0
 40
0.0
 41
1.0
 50
0.0
 71
     0
 42
5.0
  3
txt
  4

  0
ENDTAB
  0
TABLE
  2
VIEW
  5
A7BA
330
0
100
AcDbSymbolTable
 70
     0
  0
ENDTAB
  0
TABLE
  2
UCS
  5
A7BB
330
0
100
AcDbSymbolTable
 70
     0
  0
ENDTAB
  0
TABLE
  2
APPID
  5
A7BD
330
0
100
AcDbSymbolTable
 70
     3
  0
APPID
  5
A7C6
330
A7BD
100
AcDbSymbolTableRecord
100
AcDbRegAppTableRecord
  2
ACAD
 70
     0
  0
APPID
  5
AA03
330
A7BD
100
AcDbSymbolTableRecord
100
AcDbRegAppTableRecord
  2
ACAD_NAV_VCDISPLAY
 70
     0
  0
APPID
  5
AA3C
330
A7BD
100
AcDbSymbolTableRecord
100
AcDbRegAppTableRecord
  2
ACAD_MLEADERVER
 70
     0
  0
ENDTAB
  0
TABLE
  2
DIMSTYLE
  5
A7BE
330
0
100
AcDbSymbolTable
 70
     1
100
AcDbDimStyleTable
 71
     0
  0
DIMSTYLE
105
A7E2
330
A7BE
100
AcDbSymbolTableRecord
100
AcDbDimStyleTableRecord
  2
STANDARD
 70
     0
 41
3.0
 42
1.0
 43
10.0
 44
1.0
 73
     0
 74
     0
 77
     3
 78
     8
140
3.2
141
0.0
147
1.0
172
     1
173
     1
284
     8
285
     8
286
     8
340
A7C5
  0
ENDTAB
  0
TABLE
  2
BLOCK_RECORD
  5
A7B5
330
0
100
AcDbSymbolTable
 70
     1
  0
BLOCK_RECORD
  5
A7D2
102
{ACAD_XDICTIONARY
360
A991
102
}
330
A7B5
100
AcDbSymbolTableRecord
100
AcDbBlockTableRecord
  2
*MODEL_SPACE
340
A9E5
  0
BLOCK_RECORD
  5
A7CE
102
{ACAD_XDICTIONARY
360
A98F
102
}
330
A7B5
100
AcDbSymbolTableRecord
100
AcDbBlockTableRecord
  2
*PAPER_SPACE
340
A9E6
  0
BLOCK_RECORD
  5
A7EA
330
A7B5
100
AcDbSymbolTableRecord
100
AcDbBlockTableRecord
  2
_OPEN
340
0
  0
ENDTAB
  0
ENDSEC
  0
SECTION
  2
BLOCKS
  0
BLOCK
  5
A7D3
330
A7D2
100
AcDbEntity
  8
0
100
AcDbBlockBegin
  2
*MODEL_SPACE
 70
     0
 10
0.0
 20
0.0
 30
0.0
  3
*MODEL_SPACE
  1

  0
ENDBLK
  5
A7D4
330
A7D2
100
AcDbEntity
  8
0
100
AcDbBlockEnd
  0
BLOCK
  5
A7CF
330
A7CE
100
AcDbEntity
 67
     1
  8
0
100
AcDbBlockBegin
  2
*PAPER_SPACE
 70
     0
 10
0.0
 20
0.0
 30
0.0
  3
*PAPER_SPACE
  1

  0
ENDBLK
  5
A7D0
330
A7CE
100
AcDbEntity
 67
     1
  8
0
100
AcDbBlockEnd
  0
BLOCK
  5
A7EB
330
A7EA
100
AcDbEntity
  8
0
100
AcDbBlockBegin
  2
_OPEN
 70
     0
 10
0.0
 20
0.0
 30
0.0
  3
_OPEN
  1

  0
LINE
  5
A7EC
330
A7EA
100
AcDbEntity
  8
0
  6
ByBlock
 62
     0
100
AcDbLine
 10
-1.0
 20
0.166667
 30
0.0
 11
0.0
 21
0.0
 31
0.0
  0
LINE
  5
A7ED
330
A7EA
100
AcDbEntity
  8
0
  6
ByBlock
 62
     0
100
AcDbLine
 10
0.0
 20
0.0
 30
0.0
 11
-1.0
 21
-0.166667
 31
0.0
  0
LINE
  5
A7EE
330
A7EA
100
AcDbEntity
  8
0
  6
ByBlock
 62
     0
100
AcDbLine
 10
0.0
 20
0.0
 30
0.0
 11
-1.0
 21
0.0
 31
0.0
  0
ENDBLK
  5
A7EF
330
A7EA
100
AcDbEntity
  8
0
100
AcDbBlockEnd
  0
ENDSEC
  0
SECTION
  2
ENTITIES
  0
TEXT
  5
A7F0
330
A7D2
100
AcDbEntity
  8
7
  6
Continuous
100
AcDbText
 10
10.0
 20
18.0
 30
0.0
 40
3.0
  1
TYPE No.605JH-P
100
AcDbText
  0
TEXT
  5
A7F1
330
A7D2
100
AcDbEntity
  8
7
  6
Continuous
100
AcDbText
 10
10.0
 20
26.0
 30
0.0
 40
3.0
  1
CODE No.9450
100
AcDbText
  0
TEXT
  5
A7F2
330
A7D2
100
AcDbEntity
  8
1
  6
Continuous
100
AcDbText
 10
10.0
 20
10.0
 30
0.0
 40
1.399999999999999
  1
LAYER
100
AcDbText
  0
TEXT
  5
A7F3
330
A7D2
100
AcDbEntity
  8
1
  6
Continuous
100
AcDbText
 10
17.97951099999998
 20
10.04873699999998
 30
0.0
 40
1.399999999999999
  1
1
100
AcDbText
  0
TEXT
  5
A7F4
330
A7D2
100
AcDbEntity
  8
7
  6
Continuous
100
AcDbText
 10
29.97951099999999
 20
10.04873699999998
 30
0.0
 40
1.399999999999999
  1
7
100
AcDbText
  0
TEXT
  5
A7F5
330
A7D2
100
AcDbEntity
  8
4
  6
CENTER
100
AcDbText
 10
23.97951099999999
 20
10.04873699999998
 30
0.0
 40
1.399999999999999
  1
4
100
AcDbText
  0
TEXT
  5
A7F6
330
A7D2
100
AcDbEntity
  8
3
  6
DASHED
100
AcDbText
 10
21.979511
 20
10.04873699999998
 30
0.0
 40
1.399999999999999
  1
3
100
AcDbText
  0
TEXT
  5
A7F7
330
A7D2
100
AcDbEntity
  8
2
  6
Continuous
100
AcDbText
 10
19.97951099999999
 20
10.04873699999998
 30
0.0
 40
1.399999999999999
  1
2
100
AcDbText
  0
TEXT
  5
A7F8
330
A7D2
100
AcDbEntity
  8
6
  6
Continuous
100
AcDbText
 10
27.979511
 20
10.04873699999998
 30
0.0
 40
1.399999999999999
  1
6
100
AcDbText
  0
TEXT
  5
A7F9
330
A7D2
100
AcDbEntity
  8
5
  6
PHANTOM
100
AcDbText
 10
25.97951099999999
 20
10.04873699999998
 30
0.0
 40
1.399999999999999
  1
5
100
AcDbText
  0
LINE
  5
A7FA
330
A7D2
100
AcDbEntity
  8
1
  6
Continuous
100
AcDbLine
 10
251.169095
 20
354.4206219999999
 30
0.0
 11
251.169095
 21
308.4206219999999
 31
0.0
  0
LINE
  5
A7FB
330
A7D2
100
AcDbEntity
  8
1
  6
Continuous
100
AcDbLine
 10
153.1690949999999
 20
354.4206219999999
 30
0.0
 11
153.1690949999999
 21
308.4206219999999
 31
0.0
  0
ARC
  5
A7FC
330
A7D2
100
AcDbEntity
  8
1
  6
Continuous
100
AcDbCircle
 10
242.169095
 20
354.4206219999999
 30
0.0
 40
9.0
100
AcDbArc
 50
0.0
 51
147.8949879999999
  0
CIRCLE
  5
A7FD
330
A7D2
100
AcDbEntity
  8
1
  6
Continuous
100
AcDbCircle
 10
242.169095
 20
354.4206219999999
 30
0.0
 40
4.25
  0
CIRCLE
  5
A7FE
330
A7D2
100
AcDbEntity
  8
1
  6
Continuous
100
AcDbCircle
 10
162.169095
 20
354.4206219999999
 30
0.0
 40
4.25
  0
CIRCLE
  5
A7FF
330
A7D2
100
AcDbEntity
  8
1
  6
Continuous
100
AcDbCircle
 10
162.169095
 20
308.4206219999999
 30
0.0
 40
4.25
  0
CIRCLE
  5
A800
330
A7D2
100
AcDbEntity
  8
1
  6
Continuous
100
AcDbCircle
 10
242.169095
 20
308.4206219999999
 30
0.0
 40
4.25
  0
LINE
  5
A801
330
A7D2
100
AcDbEntity
  8
1
  6
Continuous
100
AcDbLine
 10
194.340279
 20
349.820622
 30
0.0
 11
209.997911
 21
349.820622
 31
0.0
  0
ARC
  5
A802
330
A7D2
100
AcDbEntity
  8
1
  6
Continuous
100
AcDbCircle
 10
230.7512079999999
 20
339.621415
 30
0.0
 40
18.99680199999998
100
AcDbArc
 50
90.0
 51
127.521204
  0
ARC
  5
A803
330
A7D2
100
AcDbEntity
  8
1
  6
Continuous
100
AcDbCircle
 10
228.843297
 20
342.105949
 30
0.0
 40
15.864226
100
AcDbArc
 50
127.521204
 51
136.771452
  0
ARC
  5
A804
330
A7D2
100
AcDbEntity
  8
1
  6
Continuous
100
AcDbCircle
 10
209.997911
 20
359.820622
 30
0.0
 40
10.0
100
AcDbArc
 50
270.0
 51
316.771452
  0
LINE
  5
A805
330
A7D2
100
AcDbEntity
  8
1
  6
Continuous
100
AcDbLine
 10
251.1691149999998
 20
245.7103109999999
 30
0.0
 11
251.1691149999998
 21
243.110311
 31
0.0
  0
LINE
  5
A806
330
A7D2
100
AcDbEntity
  8
1
  6
Continuous
100
AcDbLine
 10
153.1691149999998
 20
245.7103109999999
 30
0.0
 11
153.1691149999998
 21
243.110311
 31
0.0
  0
LINE
  5
A807
330
A7D2
100
AcDbEntity
  8
1
  6
Continuous
100
AcDbLine
 10
153.1691149999998
 20
245.7103109999999
 30
0.0
 11
251.1691149999998
 21
245.7103109999999
 31
0.0
  0
ARC
  5
A808
330
A7D2
100
AcDbEntity
  8
1
  6
Continuous
100
AcDbCircle
 10
237.244479
 20
242.710311
 30
0.0
 40
3.0
100
AcDbArc
 50
90.0
 51
161.467462
  0
ARC
  5
A809
330
A7D2
100
AcDbEntity
  8
1
  6
Continuous
100
AcDbCircle
 10
202.1691149999998
 20
194.710311
 30
0.0
 40
15.0
100
AcDbArc
 50
198.5325379999999
 51
341.4674619999999
  0
LINE
  5
A80A
330
A7D2
100
AcDbEntity
  8
1
  6
Continuous
100
AcDbLine
 10
234.214491
 20
243.110311
 30
0.0
 11
251.1691149999998
 21
243.110311
 31
0.0
  0
ARC
  5
A80B
330
A7D2
100
AcDbEntity
  8
1
  6
Continuous
100
AcDbCircle
 10
202.1691149999998
 20
191.2103109999999
 30
0.0
 40
32.5
100
AcDbArc
 50
133.688028
 51
46.31197199999999
  0
LINE
  5
A80C
330
A7D2
100
AcDbEntity
  8
1
  6
Continuous
100
AcDbLine
 10
379.3382299999998
 20
245.7103109999999
 30
0.0
 11
379.3382299999998
 21
243.110311
 31
0.0
  0
LINE
  5
A80D
330
A7D2
100
AcDbEntity
  8
1
  6
Continuous
100
AcDbLine
 10
315.3382299999999
 20
245.7103109999999
 30
0.0
 11
315.3382299999999
 21
243.110311
 31
0.0
  0
LINE
  5
A80E
330
A7D2
100
AcDbEntity
  8
1
  6
Continuous
100
AcDbLine
 10
315.3382299999999
 20
245.7103109999999
 30
0.0
 11
379.3382299999998
 21
245.7103109999999
 31
0.0
  0
LINE
  5
A80F
330
A7D2
100
AcDbEntity
  8
1
  6
Continuous
100
AcDbLine
 10
315.3382299999999
 20
243.110311
 30
0.0
 11
379.3382299999998
 21
243.110311
 31
0.0
  0
LINE
  5
A810
330
A7D2
100
AcDbEntity
  8
1
  6
Continuous
100
AcDbLine
 10
363.1382299999998
 20
179.7103109999999
 30
0.0
 11
365.73823
 21
179.7103109999999
 31
0.0
  0
LINE
  5
A811
330
A7D2
100
AcDbEntity
  8
1
  6
Continuous
100
AcDbLine
 10
362.8382299999998
 20
195.2103109999999
 30
0.0
 11
363.1382299999998
 21
195.2103109999999
 31
0.0
  0
LINE
  5
A812
330
A7D2
100
AcDbEntity
  8
1
  6
Continuous
100
AcDbLine
 10
362.8382299999998
 20
187.2103109999999
 30
0.0
 11
363.1382299999998
 21
187.2103109999999
 31
0.0
  0
CIRCLE
  5
A813
330
A7D2
100
AcDbEntity
  8
1
  6
Continuous
100
AcDbCircle
 10
202.1691149999998
 20
191.2103109999999
 30
0.0
 40
7.0
  0
ARC
  5
A814
330
A7D2
100
AcDbEntity
  8
1
  6
Continuous
100
AcDbCircle
 10
202.1691149999998
 20
191.2103109999999
 30
0.0
 40
23.0
100
AcDbArc
 50
145.544979
 51
34.45502100000001
  0
LINE
  5
A815
330
A7D2
100
AcDbEntity
  8
1
  6
Continuous
100
AcDbLine
 10
192.0191149999999
 20
186.036245
 30
0.0
 11
192.0191149999999
 21
243.518765
 31
0.0
  0
LINE
  5
A816
330
A7D2
100
AcDbEntity
  8
1
  6
Continuous
100
AcDbLine
 10
212.3191149999999
 20
186.036245
 30
0.0
 11
212.3191149999999
 21
243.518765
 31
0.0
  0
LINE
  5
A817
330
A7D2
100
AcDbEntity
  8
4
  6
CENTER
100
AcDbLine
 10
154.919095
 20
354.4206219999999
 30
0.0
 11
169.419095
 21
354.4206219999999
 31
0.0
  0
LINE
  5
A818
330
A7D2
100
AcDbEntity
  8
4
  6
CENTER
100
AcDbLine
 10
162.169095
 20
347.1706219999999
 30
0.0
 11
162.169095
 21
361.6706219999999
 31
0.0
  0
LINE
  5
A819
330
A7D2
100
AcDbEntity
  8
4
  6
CENTER
100
AcDbLine
 10
154.919095
 20
308.4206219999999
 30
0.0
 11
169.419095
 21
308.4206219999999
 31
0.0
  0
LINE
  5
A81A
330
A7D2
100
AcDbEntity
  8
4
  6
CENTER
100
AcDbLine
 10
255.5014879999998
 20
331.4206219999999
 30
0.0
 11
148.358627
 21
331.4206219999999
 31
0.0
  0
LINE
  5
A81B
330
A7D2
100
AcDbEntity
  8
4
  6
CENTER
100
AcDbLine
 10
347.3382299999999
 20
248.851091
 30
0.0
 11
347.3382299999999
 21
154.4769499999999
 31
0.0
  0
LINE
  5
A81C
330
A7D2
100
AcDbEntity
  8
4
  6
CENTER
100
AcDbLine
 10
234.919095
 20
354.4206219999999
 30
0.0
 11
249.419095
 21
354.4206219999999
 31
0.0
  0
LINE
  5
A81D
330
A7D2
100
AcDbEntity
  8
4
  6
CENTER
100
AcDbLine
 10
242.169095
 20
347.1706219999999
 30
0.0
 11
242.169095
 21
361.6706219999999
 31
0.0
  0
LINE
  5
A81E
330
A7D2
100
AcDbEntity
  8
4
  6
CENTER
100
AcDbLine
 10
234.919095
 20
308.4206219999999
 30
0.0
 11
249.419095
 21
308.4206219999999
 31
0.0
  0
LINE
  5
A81F
330
A7D2
100
AcDbEntity
  8
4
  6
CENTER
100
AcDbLine
 10
242.169095
 20
240.614672
 30
0.0
 11
242.169095
 21
249.3384359999998
 31
0.0
  0
LINE
  5
A820
330
A7D2
100
AcDbEntity
  8
4
  6
CENTER
100
AcDbLine
 10
242.169095
 20
300.904825
 30
0.0
 11
242.169095
 21
315.6706219999999
 31
0.0
  0
LINE
  5
A821
330
A7D2
100
AcDbEntity
  8
4
  6
CENTER
100
AcDbLine
 10
162.169095
 20
240.4642659999999
 30
0.0
 11
162.169095
 21
247.8343469999999
 31
0.0
  0
LINE
  5
A822
330
A7D2
100
AcDbEntity
  8
4
  6
CENTER
100
AcDbLine
 10
162.169095
 20
301.5064450000001
 30
0.0
 11
162.169095
 21
315.6706219999999
 31
0.0
  0
LINE
  5
A823
330
A7D2
100
AcDbEntity
  8
4
  6
CENTER
100
AcDbLine
 10
370.3382299999999
 20
247.4582749999999
 30
0.0
 11
370.3382299999999
 21
240.797934
 31
0.0
  0
LINE
  5
A824
330
A7D2
100
AcDbEntity
  8
4
  6
CENTER
100
AcDbLine
 10
324.3382299999999
 20
247.581482
 30
0.0
 11
324.3382299999999
 21
240.6813239999999
 31
0.0
  0
LINE
  5
A825
330
A7D2
100
AcDbEntity
  8
4
  6
CENTER
100
AcDbLine
 10
202.1690949999999
 20
360.569589
 30
0.0
 11
202.1690949999999
 21
304.9958659999999
 31
0.0
  0
LINE
  5
A826
330
A7D2
100
AcDbEntity
  8
4
  6
CENTER
100
AcDbLine
 10
322.0671199999999
 20
191.2103109999999
 30
0.0
 11
377.5167769999998
 21
191.2103109999999
 31
0.0
  0
LINE
  5
A827
330
A7D2
100
AcDbEntity
  8
4
  6
CENTER
100
AcDbLine
 10
166.6691149999998
 20
191.2103109999999
 30
0.0
 11
237.6691149999998
 21
191.2103109999999
 31
0.0
  0
LINE
  5
A828
330
A7D2
100
AcDbEntity
  8
4
  6
CENTER
100
AcDbLine
 10
202.1691149999998
 20
155.7103109999999
 30
0.0
 11
202.1691149999998
 21
249.95159
 31
0.0
  0
LINE
  5
A829
330
A7D2
100
AcDbEntity
  8
1
  6
Continuous
100
AcDbLine
 10
195.1690949999999
 20
310.6943839999999
 30
0.0
 11
209.1690949999999
 21
310.6943839999999
 31
0.0
  0
ARC
  5
A82A
330
A7D2
100
AcDbEntity
  8
1
  6
Continuous
100
AcDbCircle
 10
202.1690949999999
 20
318.5206219999999
 30
0.0
 40
10.5
100
AcDbArc
 50
228.1896849999998
 51
311.810315
  0
LINE
  5
A82B
330
A7D2
100
AcDbEntity
  8
1
  6
Continuous
100
AcDbLine
 10
195.1690949999999
 20
310.6943839999999
 30
0.0
 11
195.1690949999999
 21
313.020622
 31
0.0
  0
LINE
  5
A82C
330
A7D2
100
AcDbEntity
  8
1
  6
Continuous
100
AcDbLine
 10
209.1690949999999
 20
310.6943839999999
 30
0.0
 11
209.1690949999999
 21
313.020622
 31
0.0
  0
ARC
  5
A82D
330
A7D2
100
AcDbEntity
  8
1
  6
Continuous
100
AcDbCircle
 10
205.169095
 20
360.4856859999999
 30
0.0
 40
8.665063999999999
100
AcDbArc
 50
249.7438419999999
 51
290.256158
  0
ARC
  5
A82E
330
A7D2
100
AcDbEntity
  8
1
  6
Continuous
100
AcDbCircle
 10
205.169095
 20
348.1555579999999
 30
0.0
 40
8.665063999999999
100
AcDbArc
 50
69.743842
 51
110.256158
  0
LINE
  5
A82F
330
A7D2
100
AcDbEntity
  8
1
  6
Continuous
100
AcDbLine
 10
208.169095
 20
356.820622
 30
0.0
 11
196.1690949999999
 21
356.820622
 31
0.0
  0
LINE
  5
A830
330
A7D2
100
AcDbEntity
  8
1
  6
Continuous
100
AcDbLine
 10
194.6690949999999
 20
351.820622
 30
0.0
 11
209.669095
 21
351.820622
 31
0.0
  0
LINE
  5
A831
330
A7D2
100
AcDbEntity
  8
2
  6
Continuous
100
AcDbLine
 10
198.845595
 20
356.820622
 30
0.0
 11
198.845595
 21
357.520622
 31
0.0
  0
LINE
  5
A832
330
A7D2
100
AcDbEntity
  8
2
  6
Continuous
100
AcDbLine
 10
205.4925949999999
 20
356.820622
 30
0.0
 11
205.4925949999999
 21
357.520622
 31
0.0
  0
LINE
  5
A833
330
A7D2
100
AcDbEntity
  8
1
  6
Continuous
100
AcDbLine
 10
202.1690949999999
 20
356.2847239999999
 30
0.0
 11
202.1690949999999
 21
352.3565200000001
 31
0.0
  0
LINE
  5
A834
330
A7D2
100
AcDbEntity
  8
1
  6
Continuous
100
AcDbLine
 10
196.1690949999999
 20
351.820622
 30
0.0
 11
196.1690949999999
 21
356.820622
 31
0.0
  0
ARC
  5
A835
330
A7D2
100
AcDbEntity
  8
1
  6
Continuous
100
AcDbCircle
 10
199.1690949999999
 20
360.4856859999999
 30
0.0
 40
8.665063999999999
100
AcDbArc
 50
249.7438419999999
 51
290.256158
  0
ARC
  5
A836
330
A7D2
100
AcDbEntity
  8
1
  6
Continuous
100
AcDbCircle
 10
199.1690949999999
 20
348.1555579999999
 30
0.0
 40
8.665063999999999
100
AcDbArc
 50
69.743842
 51
110.256158
  0
LINE
  5
A837
330
A7D2
100
AcDbEntity
  8
1
  6
Continuous
100
AcDbLine
 10
202.1690949999999
 20
351.820622
 30
0.0
 11
204.169095
 21
349.820622
 31
0.0
  0
LINE
  5
A838
330
A7D2
100
AcDbEntity
  8
1
  6
Continuous
100
AcDbLine
 10
200.1690949999999
 20
351.820622
 30
0.0
 11
202.1690949999999
 21
349.820622
 31
0.0
  0
LINE
  5
A839
330
A7D2
100
AcDbEntity
  8
1
  6
Continuous
100
AcDbLine
 10
198.1690949999999
 20
356.9206219999998
 30
0.0
 11
206.169095
 21
356.9206219999998
 31
0.0
  0
LINE
  5
A83A
330
A7D2
100
AcDbEntity
  8
1
  6
Continuous
100
AcDbLine
 10
206.169095
 20
356.9206219999998
 30
0.0
 11
206.169095
 21
356.820622
 31
0.0
  0
LINE
  5
A83B
330
A7D2
100
AcDbEntity
  8
1
  6
Continuous
100
AcDbLine
 10
198.1690949999999
 20
356.9206219999998
 30
0.0
 11
198.1690949999999
 21
356.820622
 31
0.0
  0
LINE
  5
A83C
330
A7D2
100
AcDbEntity
  8
1
  6
Continuous
100
AcDbLine
 10
198.769095
 20
357.520622
 30
0.0
 11
205.569095
 21
357.520622
 31
0.0
  0
LINE
  5
A83D
330
A7D2
100
AcDbEntity
  8
1
  6
Continuous
100
AcDbLine
 10
194.6690949999999
 20
349.820622
 30
0.0
 11
194.6690949999999
 21
351.820622
 31
0.0
  0
LINE
  5
A83E
330
A7D2
100
AcDbEntity
  8
1
  6
Continuous
100
AcDbLine
 10
208.169095
 20
351.820622
 30
0.0
 11
208.169095
 21
356.820622
 31
0.0
  0
LINE
  5
A83F
330
A7D2
100
AcDbEntity
  8
1
  6
Continuous
100
AcDbLine
 10
209.669095
 20
349.820622
 30
0.0
 11
209.669095
 21
351.820622
 31
0.0
  0
LINE
  5
A840
330
A7D2
100
AcDbEntity
  8
1
  6
Continuous
100
AcDbLine
 10
198.1690949999999
 20
356.9206219999998
 30
0.0
 11
198.769095
 21
357.520622
 31
0.0
  0
LINE
  5
A841
330
A7D2
100
AcDbEntity
  8
1
  6
Continuous
100
AcDbLine
 10
205.569095
 20
357.520622
 30
0.0
 11
206.169095
 21
356.9206219999998
 31
0.0
  0
LINE
  5
A842
330
A7D2
100
AcDbEntity
  8
1
  6
Continuous
100
AcDbLine
 10
234.400049
 20
243.66384
 30
0.0
 11
216.3912649999998
 21
189.9426639999999
 31
0.0
  0
ARC
  5
A843
330
A7D2
100
AcDbEntity
  8
1
  6
Continuous
100
AcDbCircle
 10
167.0937509999999
 20
242.710311
 30
0.0
 40
3.0
100
AcDbArc
 50
18.532538
 51
90.0
  0
LINE
  5
A844
330
A7D2
100
AcDbEntity
  8
1
  6
Continuous
100
AcDbLine
 10
170.123739
 20
243.110311
 30
0.0
 11
153.1691149999998
 21
243.110311
 31
0.0
  0
LINE
  5
A845
330
A7D2
100
AcDbEntity
  8
1
  6
Continuous
100
AcDbLine
 10
169.938181
 20
243.66384
 30
0.0
 11
187.9469649999998
 21
189.9426639999999
 31
0.0
  0
LINE
  5
A846
330
A7D2
100
AcDbEntity
  8
1
  6
Continuous
100
AcDbLine
 10
230.7512079999999
 20
358.618217
 30
0.0
 11
233.486572
 21
358.618217
 31
0.0
  0
ARC
  5
A847
330
A7D2
100
AcDbEntity
  8
1
  6
Continuous
100
AcDbCircle
 10
233.486572
 20
359.868217
 30
0.0
 40
1.25
100
AcDbArc
 50
270.0
 51
327.894988
  0
ARC
  5
A848
330
A7D2
100
AcDbEntity
  8
1
  6
Continuous
100
AcDbCircle
 10
162.169095
 20
354.4206219999999
 30
0.0
 40
9.0
100
AcDbArc
 50
32.105012
 51
180.0
  0
LINE
  5
A849
330
A7D2
100
AcDbEntity
  8
1
  6
Continuous
100
AcDbLine
 10
173.586982
 20
358.618217
 30
0.0
 11
170.851618
 21
358.618217
 31
0.0
  0
ARC
  5
A84A
330
A7D2
100
AcDbEntity
  8
1
  6
Continuous
100
AcDbCircle
 10
173.586982
 20
339.621415
 30
0.0
 40
18.99680199999998
100
AcDbArc
 50
52.47879599999999
 51
90.0
  0
ARC
  5
A84B
330
A7D2
100
AcDbEntity
  8
1
  6
Continuous
100
AcDbCircle
 10
170.851618
 20
359.868217
 30
0.0
 40
1.25
100
AcDbArc
 50
212.1050119999999
 51
270.0
  0
ARC
  5
A84C
330
A7D2
100
AcDbEntity
  8
1
  6
Continuous
100
AcDbCircle
 10
194.340279
 20
359.820622
 30
0.0
 40
10.0
100
AcDbArc
 50
223.2285479999999
 51
270.0
  0
ARC
  5
A84D
330
A7D2
100
AcDbEntity
  8
1
  6
Continuous
100
AcDbCircle
 10
175.4948929999999
 20
342.105949
 30
0.0
 40
15.864226
100
AcDbArc
 50
43.22854799999999
 51
52.47879599999999
  0
ARC
  5
A84E
330
A7D2
100
AcDbEntity
  8
1
  6
Continuous
100
AcDbCircle
 10
242.169095
 20
308.4206219999999
 30
0.0
 40
9.0
100
AcDbArc
 50
212.1050119999999
 51
0.0
  0
LINE
  5
A84F
330
A7D2
100
AcDbEntity
  8
1
  6
Continuous
100
AcDbLine
 10
230.7512079999999
 20
304.223027
 30
0.0
 11
233.486572
 21
304.223027
 31
0.0
  0
ARC
  5
A850
330
A7D2
100
AcDbEntity
  8
1
  6
Continuous
100
AcDbCircle
 10
230.7512079999999
 20
323.2198289999999
 30
0.0
 40
18.99680199999998
100
AcDbArc
 50
232.478796
 51
270.0
  0
ARC
  5
A851
330
A7D2
100
AcDbEntity
  8
1
  6
Continuous
100
AcDbCircle
 10
233.486572
 20
302.9730269999999
 30
0.0
 40
1.25
100
AcDbArc
 50
32.105012
 51
90.0
  0
ARC
  5
A852
330
A7D2
100
AcDbEntity
  8
1
  6
Continuous
100
AcDbCircle
 10
170.851618
 20
302.9730269999999
 30
0.0
 40
1.25
100
AcDbArc
 50
90.0
 51
147.8949879999999
  0
LINE
  5
A853
330
A7D2
100
AcDbEntity
  8
1
  6
Continuous
100
AcDbLine
 10
173.586982
 20
304.223027
 30
0.0
 11
170.851618
 21
304.223027
 31
0.0
  0
ARC
  5
A854
330
A7D2
100
AcDbEntity
  8
1
  6
Continuous
100
AcDbCircle
 10
173.586982
 20
323.2198289999999
 30
0.0
 40
18.99680199999998
100
AcDbArc
 50
270.0
 51
307.521204
  0
ARC
  5
A855
330
A7D2
100
AcDbEntity
  8
1
  6
Continuous
100
AcDbCircle
 10
194.340279
 20
303.020622
 30
0.0
 40
10.0
100
AcDbArc
 50
90.0
 51
136.771452
  0
LINE
  5
A856
330
A7D2
100
AcDbEntity
  8
1
  6
Continuous
100
AcDbLine
 10
194.340279
 20
313.020622
 30
0.0
 11
209.997911
 21
313.020622
 31
0.0
  0
ARC
  5
A857
330
A7D2
100
AcDbEntity
  8
1
  6
Continuous
100
AcDbCircle
 10
209.997911
 20
303.020622
 30
0.0
 40
10.0
100
AcDbArc
 50
43.22854799999999
 51
90.0
  0
ARC
  5
A858
330
A7D2
100
AcDbEntity
  8
1
  6
Continuous
100
AcDbCircle
 10
228.843297
 20
320.735295
 30
0.0
 40
15.864226
100
AcDbArc
 50
223.2285479999999
 51
232.478796
  0
ARC
  5
A859
330
A7D2
100
AcDbEntity
  8
1
  6
Continuous
100
AcDbCircle
 10
175.4948929999999
 20
320.735295
 30
0.0
 40
15.864226
100
AcDbArc
 50
307.521204
 51
316.771452
  0
ARC
  5
A85A
330
A7D2
100
AcDbEntity
  8
1
  6
Continuous
100
AcDbCircle
 10
162.169095
 20
308.4206219999999
 30
0.0
 40
9.0
100
AcDbArc
 50
180.0
 51
327.894988
  0
ARC
  5
A85B
330
A7D2
100
AcDbEntity
  8
1
  6
Continuous
100
AcDbCircle
 10
334.4382299999999
 20
191.2103109999999
 30
0.0
 40
10.5
100
AcDbArc
 50
147.525855
 51
221.810315
  0
LINE
  5
A85C
330
A7D2
100
AcDbEntity
  8
1
  6
Continuous
100
AcDbLine
 10
326.6119919999998
 20
194.6390909999998
 30
0.0
 11
326.6119919999998
 21
184.210311
 31
0.0
  0
LINE
  5
A85D
330
A7D2
100
AcDbEntity
  8
1
  6
Continuous
100
AcDbLine
 10
326.6119919999998
 20
184.210311
 30
0.0
 11
328.916023
 21
184.210311
 31
0.0
  0
LINE
  5
A85E
330
A7D2
100
AcDbEntity
  8
1
  6
Continuous
100
AcDbLine
 10
365.745361
 20
183.7103109999999
 30
0.0
 11
367.73823
 21
183.7103109999999
 31
0.0
  0
LINE
  5
A85F
330
A7D2
100
AcDbEntity
  8
1
  6
Continuous
100
AcDbLine
 10
367.73823
 20
193.2103109999999
 30
0.0
 11
367.3839899999999
 21
192.856071
 31
0.0
  0
LINE
  5
A860
330
A7D2
100
AcDbEntity
  8
1
  6
Continuous
100
AcDbLine
 10
367.73823
 20
191.2103109999999
 30
0.0
 11
366.560715
 21
190.032796
 31
0.0
  0
LINE
  5
A861
330
A7D2
100
AcDbEntity
  8
1
  6
Continuous
100
AcDbLine
 10
373.43823
 20
194.610311
 30
0.0
 11
373.43823
 21
187.8103109999999
 31
0.0
  0
LINE
  5
A862
330
A7D2
100
AcDbEntity
  8
1
  6
Continuous
100
AcDbLine
 10
372.8382299999998
 20
195.2103109999999
 30
0.0
 11
372.8382299999998
 21
187.2103109999999
 31
0.0
  0
LINE
  5
A863
330
A7D2
100
AcDbEntity
  8
1
  6
Continuous
100
AcDbLine
 10
367.73823
 20
193.826549
 30
0.0
 11
367.73823
 21
183.7103109999999
 31
0.0
  0
LINE
  5
A864
330
A7D2
100
AcDbEntity
  8
1
  6
Continuous
100
AcDbLine
 10
372.8382299999998
 20
195.2103109999999
 30
0.0
 11
372.7382299999999
 21
195.2103109999999
 31
0.0
  0
LINE
  5
A865
330
A7D2
100
AcDbEntity
  8
2
  6
Continuous
100
AcDbLine
 10
372.7382299999999
 20
194.5338109999999
 30
0.0
 11
373.43823
 21
194.5338109999999
 31
0.0
  0
LINE
  5
A866
330
A7D2
100
AcDbEntity
  8
1
  6
Continuous
100
AcDbLine
 10
372.8382299999998
 20
195.2103109999999
 30
0.0
 11
373.43823
 21
194.610311
 31
0.0
  0
LINE
  5
A867
330
A7D2
100
AcDbEntity
  8
1
  6
Continuous
100
AcDbLine
 10
372.8382299999998
 20
187.2103109999999
 30
0.0
 11
372.7382299999999
 21
187.2103109999999
 31
0.0
  0
LINE
  5
A868
330
A7D2
100
AcDbEntity
  8
2
  6
Continuous
100
AcDbLine
 10
372.7382299999999
 20
187.8868109999999
 30
0.0
 11
373.43823
 21
187.8868109999999
 31
0.0
  0
LINE
  5
A869
330
A7D2
100
AcDbEntity
  8
1
  6
Continuous
100
AcDbLine
 10
373.43823
 20
187.8103109999999
 30
0.0
 11
372.8382299999998
 21
187.2103109999999
 31
0.0
  0
LINE
  5
A86A
330
A7D2
100
AcDbEntity
  8
1
  6
Continuous
100
AcDbLine
 10
374.5358249999999
 20
242.110311
 30
0.0
 11
374.5358249999999
 21
215.7103109999999
 31
0.0
  0
ARC
  5
A86B
330
A7D2
100
AcDbEntity
  8
1
  6
Continuous
100
AcDbCircle
 10
370.935825
 20
242.110311
 30
0.0
 40
3.6
100
AcDbArc
 50
0.0
 51
16.12762
  0
ARC
  5
A86C
330
A7D2
100
AcDbEntity
  8
1
  6
Continuous
100
AcDbCircle
 10
370.935825
 20
242.110311
 30
0.0
 40
1.0
100
AcDbArc
 50
0.0
 51
90.0
  0
LINE
  5
A86D
330
A7D2
100
AcDbEntity
  8
1
  6
Continuous
100
AcDbLine
 10
371.935825
 20
242.110311
 30
0.0
 11
371.935825
 21
215.7103109999999
 31
0.0
  0
LINE
  5
A86E
330
A7D2
100
AcDbEntity
  8
1
  6
Continuous
100
AcDbLine
 10
365.73823
 20
183.0562199999999
 30
0.0
 11
365.73823
 21
179.7103109999999
 31
0.0
  0
LINE
  5
A86F
330
A7D2
100
AcDbEntity
  8
1
  6
Continuous
100
AcDbLine
 10
363.1382299999998
 20
242.110311
 30
0.0
 11
363.1382299999998
 21
179.7103109999999
 31
0.0
  0
ARC
  5
A870
330
A7D2
100
AcDbEntity
  8
1
  6
Continuous
100
AcDbCircle
 10
362.1382299999999
 20
242.110311
 30
0.0
 40
1.0
100
AcDbArc
 50
0.0
 51
90.0
  0
ARC
  5
A871
330
A7D2
100
AcDbEntity
  8
1
  6
Continuous
100
AcDbCircle
 10
339.535825
 20
215.7103109999999
 30
0.0
 40
35.0
100
AcDbArc
 50
329.8430359999999
 51
0.0
  0
ARC
  5
A872
330
A7D2
100
AcDbEntity
  8
1
  6
Continuous
100
AcDbCircle
 10
395.7382299999999
 20
183.0562199999999
 30
0.0
 40
30.0
100
AcDbArc
 50
149.843036
 51
180.0
  0
ARC
  5
A873
330
A7D2
100
AcDbEntity
  8
1
  6
Continuous
100
AcDbCircle
 10
339.535825
 20
215.7103109999999
 30
0.0
 40
32.4
100
AcDbArc
 50
329.8430359999999
 51
0.0
  0
ARC
  5
A874
330
A7D2
100
AcDbEntity
  8
1
  6
Continuous
100
AcDbCircle
 10
395.7382299999999
 20
183.0562199999999
 30
0.0
 40
32.6
100
AcDbArc
 50
149.843036
 51
180.0
  0
ARC
  5
A875
330
A7D2
100
AcDbEntity
  8
1
  6
Continuous
100
AcDbCircle
 10
332.53823
 20
242.110311
 30
0.0
 40
1.0
100
AcDbArc
 50
90.0
 51
180.0
  0
ARC
  5
A876
330
A7D2
100
AcDbEntity
  8
1
  6
Continuous
100
AcDbCircle
 10
323.740635
 20
242.110311
 30
0.0
 40
3.6
100
AcDbArc
 50
163.8723799999999
 51
180.0
  0
ARC
  5
A877
330
A7D2
100
AcDbEntity
  8
1
  6
Continuous
100
AcDbCircle
 10
323.740635
 20
242.110311
 30
0.0
 40
1.0
100
AcDbArc
 50
90.0
 51
180.0
  0
LINE
  5
A878
330
A7D2
100
AcDbEntity
  8
1
  6
Continuous
100
AcDbLine
 10
331.53823
 20
242.110311
 30
0.0
 11
331.53823
 21
179.7103109999999
 31
0.0
  0
LINE
  5
A879
330
A7D2
100
AcDbEntity
  8
1
  6
Continuous
100
AcDbLine
 10
320.1406349999999
 20
242.110311
 30
0.0
 11
320.1406349999999
 21
215.7103109999999
 31
0.0
  0
LINE
  5
A87A
330
A7D2
100
AcDbEntity
  8
1
  6
Continuous
100
AcDbLine
 10
322.7406349999998
 20
242.110311
 30
0.0
 11
322.7406349999998
 21
215.7103109999999
 31
0.0
  0
ARC
  5
A87B
330
A7D2
100
AcDbEntity
  8
1
  6
Continuous
100
AcDbCircle
 10
355.1406349999999
 20
215.7103109999999
 30
0.0
 40
32.4
100
AcDbArc
 50
180.0
 51
210.156964
  0
ARC
  5
A87C
330
A7D2
100
AcDbEntity
  8
1
  6
Continuous
100
AcDbCircle
 10
355.1406349999999
 20
215.7103109999999
 30
0.0
 40
35.0
100
AcDbArc
 50
180.0
 51
210.156964
  0
ARC
  5
A87D
330
A7D2
100
AcDbEntity
  8
1
  6
Continuous
100
AcDbCircle
 10
298.9382299999999
 20
183.0562199999999
 30
0.0
 40
32.6
100
AcDbArc
 50
0.0
 51
30.15696399999999
  0
ARC
  5
A87E
330
A7D2
100
AcDbEntity
  8
1
  6
Continuous
100
AcDbCircle
 10
298.9382299999999
 20
183.0562199999999
 30
0.0
 40
30.0
100
AcDbArc
 50
0.0
 51
30.15696399999999
  0
LINE
  5
A87F
330
A7D2
100
AcDbEntity
  8
1
  6
Continuous
100
AcDbLine
 10
328.9382299999999
 20
183.0562199999999
 30
0.0
 11
328.9382299999999
 21
179.7103109999999
 31
0.0
  0
LINE
  5
A880
330
A7D2
100
AcDbEntity
  8
1
  6
Continuous
100
AcDbLine
 10
331.53823
 20
179.7103109999999
 30
0.0
 11
328.9382299999999
 21
179.7103109999999
 31
0.0
  0
ARC
  5
A881
330
A7D2
100
AcDbEntity
  8
1
  6
Continuous
100
AcDbCircle
 10
379.2023319999998
 20
191.2103109999999
 30
0.0
 40
11.464102
100
AcDbArc
 50
162.412046
 51
197.5879539999999
  0
ARC
  5
A882
330
A7D2
100
AcDbEntity
  8
1
  6
Continuous
100
AcDbCircle
 10
361.2741279999998
 20
191.2103109999999
 30
0.0
 40
11.464102
100
AcDbArc
 50
342.4120459999999
 51
17.587954
  0
LINE
  5
A883
330
A7D2
100
AcDbEntity
  8
1
  6
Continuous
100
AcDbLine
 10
372.7382299999999
 20
185.2103109999999
 30
0.0
 11
372.7382299999999
 21
197.2103109999999
 31
0.0
  0
LINE
  5
A884
330
A7D2
100
AcDbEntity
  8
1
  6
Continuous
100
AcDbLine
 10
372.2023319999999
 20
198.138514
 30
0.0
 11
372.7382299999999
 21
197.2103109999999
 31
0.0
  0
LINE
  5
A885
330
A7D2
100
AcDbEntity
  8
1
  6
Continuous
100
AcDbLine
 10
372.2023319999999
 20
198.138514
 30
0.0
 11
369.8051489999999
 21
198.138514
 31
0.0
  0
LINE
  5
A886
330
A7D2
100
AcDbEntity
  8
1
  6
Continuous
100
AcDbLine
 10
372.2023319999999
 20
194.6744129999999
 30
0.0
 11
368.2741279999998
 21
194.6744129999999
 31
0.0
  0
ARC
  5
A887
330
A7D2
100
AcDbEntity
  8
1
  6
Continuous
100
AcDbCircle
 10
369.671243
 20
196.406463
 30
0.0
 40
3.066986999999998
100
AcDbArc
 50
325.6157529999999
 51
25.615753
  0
ARC
  5
A888
330
A7D2
100
AcDbEntity
  8
1
  6
Continuous
100
AcDbCircle
 10
370.8052169999998
 20
196.406463
 30
0.0
 40
3.066986999999998
100
AcDbArc
 50
210.308189
 51
214.384247
  0
ARC
  5
A889
330
A7D2
100
AcDbEntity
  8
1
  6
Continuous
100
AcDbCircle
 10
370.8052169999998
 20
186.0141589999998
 30
0.0
 40
3.066986999999998
100
AcDbArc
 50
145.615753
 51
205.615753
  0
ARC
  5
A88A
330
A7D2
100
AcDbEntity
  8
1
  6
Continuous
100
AcDbCircle
 10
369.671243
 20
186.0141589999998
 30
0.0
 40
3.066986999999998
100
AcDbArc
 50
334.384247
 51
34.38424699999998
  0
LINE
  5
A88B
330
A7D2
100
AcDbEntity
  8
1
  6
Continuous
100
AcDbLine
 10
372.2023319999999
 20
187.7462089999999
 30
0.0
 11
368.2741279999998
 21
187.7462089999999
 31
0.0
  0
LINE
  5
A88C
330
A7D2
100
AcDbEntity
  8
1
  6
Continuous
100
AcDbLine
 10
372.2023319999999
 20
184.282108
 30
0.0
 11
368.2741279999998
 21
184.282108
 31
0.0
  0
LINE
  5
A88D
330
A7D2
100
AcDbEntity
  8
1
  6
Continuous
100
AcDbLine
 10
372.2023319999999
 20
184.282108
 30
0.0
 11
372.7382299999999
 21
185.2103109999999
 31
0.0
  0
LINE
  5
A88E
330
A7D2
100
AcDbEntity
  8
1
  6
Continuous
100
AcDbLine
 10
368.2741279999998
 20
184.282108
 30
0.0
 11
367.73823
 21
185.2103109999999
 31
0.0
  0
LINE
  5
A88F
330
A7D2
100
AcDbEntity
  8
1
  6
Continuous
100
AcDbLine
 10
331.8382299999999
 20
185.7103109999999
 30
0.0
 11
331.8382299999999
 21
196.710311
 31
0.0
  0
LINE
  5
A890
330
A7D2
100
AcDbEntity
  8
1
  6
Continuous
100
AcDbLine
 10
332.0882299999999
 20
199.919483
 30
0.0
 11
332.0882299999999
 21
182.501139
 31
0.0
  0
LINE
  5
A891
330
A7D2
100
AcDbEntity
  8
1
  6
Continuous
100
AcDbLine
 10
362.8382299999998
 20
185.7103109999999
 30
0.0
 11
362.8382299999998
 21
196.710311
 31
0.0
  0
LINE
  5
A892
330
A7D2
100
AcDbEntity
  8
1
  6
Continuous
100
AcDbLine
 10
362.5882299999998
 20
199.919483
 30
0.0
 11
362.5882299999998
 21
182.501139
 31
0.0
  0
LINE
  5
A893
330
A7D2
100
AcDbEntity
  8
1
  6
Continuous
100
AcDbLine
 10
333.8382299999999
 20
161.9903319999998
 30
0.0
 11
333.8382299999999
 21
220.43029
 31
0.0
  0
ARC
  5
A894
330
A7D2
100
AcDbEntity
  8
1
  6
Continuous
100
AcDbCircle
 10
336.8382299999999
 20
161.9903319999998
 30
0.0
 40
3.0
100
AcDbArc
 50
180.0
 51
266.944716
  0
ARC
  5
A895
330
A7D2
100
AcDbEntity
  8
1
  6
Continuous
100
AcDbCircle
 10
347.3382299999999
 20
358.710311
 30
0.0
 40
200.0
100
AcDbArc
 50
266.944716
 51
273.055702
  0
ARC
  5
A896
330
A7D2
100
AcDbEntity
  8
1
  6
Continuous
100
AcDbCircle
 10
334.5882299999999
 20
182.501139
 30
0.0
 40
2.5
100
AcDbArc
 50
180.0
 51
252.542397
  0
LINE
  5
A897
330
A7D2
100
AcDbEntity
  8
1
  6
Continuous
100
AcDbLine
 10
332.0882299999999
 20
185.7103109999999
 30
0.0
 11
331.8382299999999
 21
185.7103109999999
 31
0.0
  0
LINE
  5
A898
330
A7D2
100
AcDbEntity
  8
1
  6
Continuous
100
AcDbLine
 10
360.8382299999998
 20
161.9903319999998
 30
0.0
 11
360.8382299999998
 21
220.43029
 31
0.0
  0
ARC
  5
A899
330
A7D2
100
AcDbEntity
  8
1
  6
Continuous
100
AcDbCircle
 10
357.8382299999999
 20
161.9903319999998
 30
0.0
 40
3.0
100
AcDbArc
 50
273.0552839999999
 51
0.0
  0
ARC
  5
A89A
330
A7D2
100
AcDbEntity
  8
1
  6
Continuous
100
AcDbCircle
 10
360.0882299999998
 20
182.501139
 30
0.0
 40
2.5
100
AcDbArc
 50
287.457603
 51
0.0
  0
LINE
  5
A89B
330
A7D2
100
AcDbEntity
  8
1
  6
Continuous
100
AcDbLine
 10
362.5882299999998
 20
185.7103109999999
 30
0.0
 11
362.8382299999998
 21
185.7103109999999
 31
0.0
  0
LINE
  5
A89C
330
A7D2
100
AcDbEntity
  8
1
  6
Continuous
100
AcDbLine
 10
332.0882299999999
 20
196.710311
 30
0.0
 11
331.8382299999999
 21
196.710311
 31
0.0
  0
ARC
  5
A89D
330
A7D2
100
AcDbEntity
  8
1
  6
Continuous
100
AcDbCircle
 10
334.5882299999999
 20
199.919483
 30
0.0
 40
2.5
100
AcDbArc
 50
107.457603
 51
180.0
  0
ARC
  5
A89E
330
A7D2
100
AcDbEntity
  8
1
  6
Continuous
100
AcDbCircle
 10
336.8382299999999
 20
220.43029
 30
0.0
 40
3.0
100
AcDbArc
 50
93.055284
 51
180.0
  0
ARC
  5
A89F
330
A7D2
100
AcDbEntity
  8
1
  6
Continuous
100
AcDbCircle
 10
347.3382299999999
 20
23.71031099999999
 30
0.0
 40
200.0
100
AcDbArc
 50
86.94429799999998
 51
93.055284
  0
ARC
  5
A8A0
330
A7D2
100
AcDbEntity
  8
1
  6
Continuous
100
AcDbCircle
 10
360.0882299999998
 20
199.919483
 30
0.0
 40
2.5
100
AcDbArc
 50
0.0
 51
72.54239699999998
  0
LINE
  5
A8A1
330
A7D2
100
AcDbEntity
  8
1
  6
Continuous
100
AcDbLine
 10
362.5882299999998
 20
196.710311
 30
0.0
 11
362.8382299999998
 21
196.710311
 31
0.0
  0
ARC
  5
A8A2
330
A7D2
100
AcDbEntity
  8
1
  6
Continuous
100
AcDbCircle
 10
357.8382299999999
 20
220.43029
 30
0.0
 40
3.0
100
AcDbArc
 50
0.0
 51
86.94471599999998
  0
LINE
  5
A8A3
330
A7D2
100
AcDbEntity
  8
1
  6
Continuous
100
AcDbLine
 10
331.8382299999999
 20
195.2103109999999
 30
0.0
 11
331.53823
 21
195.2103109999999
 31
0.0
  0
LINE
  5
A8A4
330
A7D2
100
AcDbEntity
  8
1
  6
Continuous
100
AcDbLine
 10
331.8382299999999
 20
187.2103109999999
 30
0.0
 11
331.53823
 21
187.2103109999999
 31
0.0
  0
ARC
  5
A8A5
330
A7D2
100
AcDbEntity
  8
1
  6
Continuous
100
AcDbCircle
 10
64.80240499999999
 20
215.7103109999999
 30
0.0
 40
35.0
100
AcDbArc
 50
180.0
 51
210.156964
  0
ARC
  5
A8A6
330
A7D2
100
AcDbEntity
  8
1
  6
Continuous
100
AcDbCircle
 10
33.402405
 20
242.110311
 30
0.0
 40
3.6
100
AcDbArc
 50
163.8723799999999
 51
180.0
  0
LINE
  5
A8A7
330
A7D2
100
AcDbEntity
  8
4
  6
CENTER
100
AcDbLine
 10
82.27110999999998
 20
191.2103109999999
 30
0.0
 11
26.821453
 21
191.2103109999999
 31
0.0
  0
LINE
  5
A8A8
330
A7D2
100
AcDbEntity
  8
1
  6
Continuous
100
AcDbLine
 10
89.0
 20
243.110311
 30
0.0
 11
25.0
 21
243.110311
 31
0.0
  0
LINE
  5
A8A9
330
A7D2
100
AcDbEntity
  8
1
  6
Continuous
100
AcDbLine
 10
89.0
 20
245.7103109999999
 30
0.0
 11
25.0
 21
245.7103109999999
 31
0.0
  0
LINE
  5
A8AA
330
A7D2
100
AcDbEntity
  8
1
  6
Continuous
100
AcDbLine
 10
70.5
 20
161.9903319999998
 30
0.0
 11
70.5
 21
220.43029
 31
0.0
  0
LINE
  5
A8AB
330
A7D2
100
AcDbEntity
  8
1
  6
Continuous
100
AcDbLine
 10
43.5
 20
161.9903319999998
 30
0.0
 11
43.5
 21
220.43029
 31
0.0
  0
ARC
  5
A8AC
330
A7D2
100
AcDbEntity
  8
1
  6
Continuous
100
AcDbCircle
 10
49.197595
 20
215.7103109999999
 30
0.0
 40
35.0
100
AcDbArc
 50
329.8430359999999
 51
0.0
  0
ARC
  5
A8AD
330
A7D2
100
AcDbEntity
  8
1
  6
Continuous
100
AcDbCircle
 10
49.197595
 20
215.7103109999999
 30
0.0
 40
32.4
100
AcDbArc
 50
329.8430359999999
 51
0.0
  0
LINE
  5
A8AE
330
A7D2
100
AcDbEntity
  8
1
  6
Continuous
100
AcDbLine
 10
72.79999999999998
 20
242.110311
 30
0.0
 11
72.79999999999998
 21
179.7103109999999
 31
0.0
  0
ARC
  5
A8AF
330
A7D2
100
AcDbEntity
  8
1
  6
Continuous
100
AcDbCircle
 10
64.80240499999999
 20
215.7103109999999
 30
0.0
 40
32.4
100
AcDbArc
 50
180.0
 51
210.156964
  0
LINE
  5
A8B0
330
A7D2
100
AcDbEntity
  8
1
  6
Continuous
100
AcDbLine
 10
41.2
 20
242.110311
 30
0.0
 11
41.2
 21
179.7103109999999
 31
0.0
  0
LINE
  5
A8B1
330
A7D2
100
AcDbEntity
  8
4
  6
CENTER
100
AcDbLine
 10
57.0
 20
248.851091
 30
0.0
 11
57.0
 21
154.4769499999999
 31
0.0
  0
ARC
  5
A8B2
330
A7D2
100
AcDbEntity
  8
1
  6
Continuous
100
AcDbCircle
 10
57.0
 20
358.710311
 30
0.0
 40
200.0
100
AcDbArc
 50
266.9442979999999
 51
273.0552839999999
  0
LINE
  5
A8B3
330
A7D2
100
AcDbEntity
  8
1
  6
Continuous
100
AcDbLine
 10
72.5
 20
187.2103109999999
 30
0.0
 11
72.79999999999998
 21
187.2103109999999
 31
0.0
  0
LINE
  5
A8B4
330
A7D2
100
AcDbEntity
  8
1
  6
Continuous
100
AcDbLine
 10
72.5
 20
195.2103109999999
 30
0.0
 11
72.79999999999998
 21
195.2103109999999
 31
0.0
  0
LINE
  5
A8B5
330
A7D2
100
AcDbEntity
  8
1
  6
Continuous
100
AcDbLine
 10
72.5
 20
185.7103109999999
 30
0.0
 11
72.5
 21
196.710311
 31
0.0
  0
LINE
  5
A8B6
330
A7D2
100
AcDbEntity
  8
1
  6
Continuous
100
AcDbLine
 10
72.25
 20
199.919483
 30
0.0
 11
72.25
 21
182.501139
 31
0.0
  0
ARC
  5
A8B7
330
A7D2
100
AcDbEntity
  8
1
  6
Continuous
100
AcDbCircle
 10
67.5
 20
161.9903319999998
 30
0.0
 40
3.0
100
AcDbArc
 50
273.0552839999999
 51
0.0
  0
ARC
  5
A8B8
330
A7D2
100
AcDbEntity
  8
1
  6
Continuous
100
AcDbCircle
 10
69.75
 20
182.501139
 30
0.0
 40
2.5
100
AcDbArc
 50
287.457603
 51
0.0
  0
LINE
  5
A8B9
330
A7D2
100
AcDbEntity
  8
1
  6
Continuous
100
AcDbLine
 10
72.25
 20
185.7103109999999
 30
0.0
 11
72.5
 21
185.7103109999999
 31
0.0
  0
LINE
  5
A8BA
330
A7D2
100
AcDbEntity
  8
1
  6
Continuous
100
AcDbLine
 10
72.25
 20
196.710311
 30
0.0
 11
72.5
 21
196.710311
 31
0.0
  0
ARC
  5
A8BB
330
A7D2
100
AcDbEntity
  8
1
  6
Continuous
100
AcDbCircle
 10
69.75
 20
199.919483
 30
0.0
 40
2.5
100
AcDbArc
 50
0.0
 51
72.54239699999998
  0
LINE
  5
A8BC
330
A7D2
100
AcDbEntity
  8
1
  6
Continuous
100
AcDbLine
 10
72.79999999999998
 20
179.7103109999999
 30
0.0
 11
75.4
 21
179.7103109999999
 31
0.0
  0
LINE
  5
A8BD
330
A7D2
100
AcDbEntity
  8
1
  6
Continuous
100
AcDbLine
 10
75.4
 20
183.0562199999999
 30
0.0
 11
75.4
 21
179.7103109999999
 31
0.0
  0
ARC
  5
A8BE
330
A7D2
100
AcDbEntity
  8
1
  6
Continuous
100
AcDbCircle
 10
105.4
 20
183.0562199999999
 30
0.0
 40
30.0
100
AcDbArc
 50
149.843036
 51
180.0
  0
ARC
  5
A8BF
330
A7D2
100
AcDbEntity
  8
1
  6
Continuous
100
AcDbCircle
 10
105.4
 20
183.0562199999999
 30
0.0
 40
32.6
100
AcDbArc
 50
149.843036
 51
180.0
  0
LINE
  5
A8C0
330
A7D2
100
AcDbEntity
  8
1
  6
Continuous
100
AcDbLine
 10
77.72623799999998
 20
184.210311
 30
0.0
 11
75.422207
 21
184.210311
 31
0.0
  0
LINE
  5
A8C1
330
A7D2
100
AcDbEntity
  8
1
  6
Continuous
100
AcDbLine
 10
77.72623799999998
 20
194.6390909999998
 30
0.0
 11
77.72623799999998
 21
184.210311
 31
0.0
  0
ARC
  5
A8C2
330
A7D2
100
AcDbEntity
  8
1
  6
Continuous
100
AcDbCircle
 10
69.90000000000001
 20
191.2103109999999
 30
0.0
 40
10.5
100
AcDbArc
 50
318.189685
 51
32.474145
  0
LINE
  5
A8C3
330
A7D2
100
AcDbEntity
  8
1
  6
Continuous
100
AcDbLine
 10
41.5
 20
187.2103109999999
 30
0.0
 11
41.2
 21
187.2103109999999
 31
0.0
  0
LINE
  5
A8C4
330
A7D2
100
AcDbEntity
  8
1
  6
Continuous
100
AcDbLine
 10
41.5
 20
195.2103109999999
 30
0.0
 11
41.2
 21
195.2103109999999
 31
0.0
  0
LINE
  5
A8C5
330
A7D2
100
AcDbEntity
  8
1
  6
Continuous
100
AcDbLine
 10
41.5
 20
185.7103109999999
 30
0.0
 11
41.5
 21
196.710311
 31
0.0
  0
LINE
  5
A8C6
330
A7D2
100
AcDbEntity
  8
1
  6
Continuous
100
AcDbLine
 10
41.74999999999999
 20
199.919483
 30
0.0
 11
41.74999999999999
 21
182.501139
 31
0.0
  0
ARC
  5
A8C7
330
A7D2
100
AcDbEntity
  8
1
  6
Continuous
100
AcDbCircle
 10
46.5
 20
161.9903319999998
 30
0.0
 40
3.0
100
AcDbArc
 50
180.0
 51
266.944716
  0
ARC
  5
A8C8
330
A7D2
100
AcDbEntity
  8
1
  6
Continuous
100
AcDbCircle
 10
44.24999999999999
 20
182.501139
 30
0.0
 40
2.5
100
AcDbArc
 50
180.0
 51
252.542397
  0
LINE
  5
A8C9
330
A7D2
100
AcDbEntity
  8
1
  6
Continuous
100
AcDbLine
 10
41.74999999999999
 20
185.7103109999999
 30
0.0
 11
41.5
 21
185.7103109999999
 31
0.0
  0
ARC
  5
A8CA
330
A7D2
100
AcDbEntity
  8
1
  6
Continuous
100
AcDbCircle
 10
44.24999999999999
 20
199.919483
 30
0.0
 40
2.5
100
AcDbArc
 50
107.457603
 51
180.0
  0
LINE
  5
A8CB
330
A7D2
100
AcDbEntity
  8
1
  6
Continuous
100
AcDbLine
 10
41.74999999999999
 20
196.710311
 30
0.0
 11
41.5
 21
196.710311
 31
0.0
  0
LINE
  5
A8CC
330
A7D2
100
AcDbEntity
  8
1
  6
Continuous
100
AcDbLine
 10
36.064102
 20
184.282108
 30
0.0
 11
36.6
 21
185.2103109999999
 31
0.0
  0
LINE
  5
A8CD
330
A7D2
100
AcDbEntity
  8
1
  6
Continuous
100
AcDbLine
 10
32.13589799999999
 20
184.282108
 30
0.0
 11
31.6
 21
185.2103109999999
 31
0.0
  0
LINE
  5
A8CE
330
A7D2
100
AcDbEntity
  8
1
  6
Continuous
100
AcDbLine
 10
32.13589799999999
 20
184.282108
 30
0.0
 11
36.064102
 21
184.282108
 31
0.0
  0
LINE
  5
A8CF
330
A7D2
100
AcDbEntity
  8
1
  6
Continuous
100
AcDbLine
 10
32.13589799999999
 20
187.7462089999999
 30
0.0
 11
36.064102
 21
187.7462089999999
 31
0.0
  0
ARC
  5
A8D0
330
A7D2
100
AcDbEntity
  8
1
  6
Continuous
100
AcDbCircle
 10
34.666987
 20
186.0141589999998
 30
0.0
 40
3.066986999999998
100
AcDbArc
 50
145.615753
 51
205.615753
  0
ARC
  5
A8D1
330
A7D2
100
AcDbEntity
  8
1
  6
Continuous
100
AcDbCircle
 10
33.533013
 20
186.0141589999998
 30
0.0
 40
3.066986999999998
100
AcDbArc
 50
334.384247
 51
34.38424699999998
  0
ARC
  5
A8D2
330
A7D2
100
AcDbEntity
  8
1
  6
Continuous
100
AcDbCircle
 10
33.533013
 20
196.406463
 30
0.0
 40
3.066986999999998
100
AcDbArc
 50
325.6157529999999
 51
329.691811
  0
ARC
  5
A8D3
330
A7D2
100
AcDbEntity
  8
1
  6
Continuous
100
AcDbCircle
 10
34.666987
 20
196.406463
 30
0.0
 40
3.066986999999998
100
AcDbArc
 50
154.3842469999999
 51
214.384247
  0
LINE
  5
A8D4
330
A7D2
100
AcDbEntity
  8
1
  6
Continuous
100
AcDbLine
 10
32.13589799999999
 20
194.6744129999999
 30
0.0
 11
36.064102
 21
194.6744129999999
 31
0.0
  0
LINE
  5
A8D5
330
A7D2
100
AcDbEntity
  8
1
  6
Continuous
100
AcDbLine
 10
32.13589799999999
 20
198.138514
 30
0.0
 11
34.533081
 21
198.138514
 31
0.0
  0
LINE
  5
A8D6
330
A7D2
100
AcDbEntity
  8
1
  6
Continuous
100
AcDbLine
 10
32.13589799999999
 20
198.138514
 30
0.0
 11
31.6
 21
197.2103109999999
 31
0.0
  0
LINE
  5
A8D7
330
A7D2
100
AcDbEntity
  8
1
  6
Continuous
100
AcDbLine
 10
31.6
 20
185.2103109999999
 30
0.0
 11
31.6
 21
197.2103109999999
 31
0.0
  0
ARC
  5
A8D8
330
A7D2
100
AcDbEntity
  8
1
  6
Continuous
100
AcDbCircle
 10
43.064102
 20
191.2103109999999
 30
0.0
 40
11.464102
100
AcDbArc
 50
162.412046
 51
197.5879539999999
  0
ARC
  5
A8D9
330
A7D2
100
AcDbEntity
  8
1
  6
Continuous
100
AcDbCircle
 10
25.135898
 20
191.2103109999999
 30
0.0
 40
11.464102
100
AcDbArc
 50
342.4120459999999
 51
17.587954
  0
ARC
  5
A8DA
330
A7D2
100
AcDbEntity
  8
1
  6
Continuous
100
AcDbCircle
 10
8.599999999999997
 20
183.0562199999999
 30
0.0
 40
32.6
100
AcDbArc
 50
0.0
 51
30.15696399999999
  0
ARC
  5
A8DB
330
A7D2
100
AcDbEntity
  8
1
  6
Continuous
100
AcDbCircle
 10
8.599999999999997
 20
183.0562199999999
 30
0.0
 40
30.0
100
AcDbArc
 50
0.0
 51
30.15696399999999
  0
LINE
  5
A8DC
330
A7D2
100
AcDbEntity
  8
1
  6
Continuous
100
AcDbLine
 10
38.6
 20
183.0562199999999
 30
0.0
 11
38.6
 21
179.7103109999999
 31
0.0
  0
LINE
  5
A8DD
330
A7D2
100
AcDbEntity
  8
1
  6
Continuous
100
AcDbLine
 10
30.89999999999999
 20
187.8103109999999
 30
0.0
 11
31.5
 21
187.2103109999999
 31
0.0
  0
LINE
  5
A8DE
330
A7D2
100
AcDbEntity
  8
2
  6
Continuous
100
AcDbLine
 10
31.6
 20
187.8868109999999
 30
0.0
 11
30.89999999999999
 21
187.8868109999999
 31
0.0
  0
LINE
  5
A8DF
330
A7D2
100
AcDbEntity
  8
1
  6
Continuous
100
AcDbLine
 10
31.5
 20
187.2103109999999
 30
0.0
 11
31.6
 21
187.2103109999999
 31
0.0
  0
LINE
  5
A8E0
330
A7D2
100
AcDbEntity
  8
1
  6
Continuous
100
AcDbLine
 10
31.5
 20
195.2103109999999
 30
0.0
 11
30.89999999999999
 21
194.610311
 31
0.0
  0
LINE
  5
A8E1
330
A7D2
100
AcDbEntity
  8
2
  6
Continuous
100
AcDbLine
 10
31.6
 20
194.5338109999999
 30
0.0
 11
30.89999999999999
 21
194.5338109999999
 31
0.0
  0
LINE
  5
A8E2
330
A7D2
100
AcDbEntity
  8
1
  6
Continuous
100
AcDbLine
 10
31.5
 20
195.2103109999999
 30
0.0
 11
31.6
 21
195.2103109999999
 31
0.0
  0
LINE
  5
A8E3
330
A7D2
100
AcDbEntity
  8
1
  6
Continuous
100
AcDbLine
 10
36.6
 20
193.826549
 30
0.0
 11
36.6
 21
183.7103109999999
 31
0.0
  0
LINE
  5
A8E4
330
A7D2
100
AcDbEntity
  8
1
  6
Continuous
100
AcDbLine
 10
31.5
 20
195.2103109999999
 30
0.0
 11
31.5
 21
187.2103109999999
 31
0.0
  0
LINE
  5
A8E5
330
A7D2
100
AcDbEntity
  8
1
  6
Continuous
100
AcDbLine
 10
30.89999999999999
 20
194.610311
 30
0.0
 11
30.89999999999999
 21
187.8103109999999
 31
0.0
  0
LINE
  5
A8E6
330
A7D2
100
AcDbEntity
  8
1
  6
Continuous
100
AcDbLine
 10
36.6
 20
191.2103109999999
 30
0.0
 11
37.27221999999999
 21
191.882531
 31
0.0
  0
LINE
  5
A8E7
330
A7D2
100
AcDbEntity
  8
1
  6
Continuous
100
AcDbLine
 10
36.6
 20
189.2103109999999
 30
0.0
 11
37.707813
 21
190.318124
 31
0.0
  0
LINE
  5
A8E8
330
A7D2
100
AcDbEntity
  8
1
  6
Continuous
100
AcDbLine
 10
38.592869
 20
183.7103109999999
 30
0.0
 11
36.6
 21
183.7103109999999
 31
0.0
  0
LINE
  5
A8E9
330
A7D2
100
AcDbEntity
  8
1
  6
Continuous
100
AcDbLine
 10
41.2
 20
179.7103109999999
 30
0.0
 11
38.6
 21
179.7103109999999
 31
0.0
  0
ARC
  5
A8EA
330
A7D2
100
AcDbEntity
  8
1
  6
Continuous
100
AcDbCircle
 10
57.0
 20
23.71031099999999
 30
0.0
 40
200.0
100
AcDbArc
 50
86.94471599999998
 51
93.055702
  0
ARC
  5
A8EB
330
A7D2
100
AcDbEntity
  8
1
  6
Continuous
100
AcDbCircle
 10
67.5
 20
220.43029
 30
0.0
 40
3.0
100
AcDbArc
 50
0.0
 51
86.94471599999998
  0
LINE
  5
A8EC
330
A7D2
100
AcDbEntity
  8
1
  6
Continuous
100
AcDbLine
 10
81.59759499999998
 20
242.110311
 30
0.0
 11
81.59759499999998
 21
215.7103109999999
 31
0.0
  0
LINE
  5
A8ED
330
A7D2
100
AcDbEntity
  8
1
  6
Continuous
100
AcDbLine
 10
84.19759499999997
 20
242.110311
 30
0.0
 11
84.19759499999997
 21
215.7103109999999
 31
0.0
  0
ARC
  5
A8EE
330
A7D2
100
AcDbEntity
  8
1
  6
Continuous
100
AcDbCircle
 10
80.597595
 20
242.110311
 30
0.0
 40
1.0
100
AcDbArc
 50
0.0
 51
90.0
  0
ARC
  5
A8EF
330
A7D2
100
AcDbEntity
  8
1
  6
Continuous
100
AcDbCircle
 10
80.597595
 20
242.110311
 30
0.0
 40
3.6
100
AcDbArc
 50
0.0
 51
16.12762
  0
ARC
  5
A8F0
330
A7D2
100
AcDbEntity
  8
1
  6
Continuous
100
AcDbCircle
 10
71.79999999999998
 20
242.110311
 30
0.0
 40
1.0
100
AcDbArc
 50
0.0
 51
90.0
  0
LINE
  5
A8F1
330
A7D2
100
AcDbEntity
  8
4
  6
CENTER
100
AcDbLine
 10
80.0
 20
247.581482
 30
0.0
 11
80.0
 21
240.6813239999999
 31
0.0
  0
LINE
  5
A8F2
330
A7D2
100
AcDbEntity
  8
1
  6
Continuous
100
AcDbLine
 10
89.0
 20
245.7103109999999
 30
0.0
 11
89.0
 21
243.110311
 31
0.0
  0
ARC
  5
A8F3
330
A7D2
100
AcDbEntity
  8
1
  6
Continuous
100
AcDbCircle
 10
46.5
 20
220.43029
 30
0.0
 40
3.0
100
AcDbArc
 50
93.055284
 51
180.0
  0
ARC
  5
A8F4
330
A7D2
100
AcDbEntity
  8
1
  6
Continuous
100
AcDbCircle
 10
42.2
 20
242.110311
 30
0.0
 40
1.0
100
AcDbArc
 50
90.0
 51
180.0
  0
LINE
  5
A8F5
330
A7D2
100
AcDbEntity
  8
1
  6
Continuous
100
AcDbLine
 10
32.402405
 20
242.110311
 30
0.0
 11
32.402405
 21
215.7103109999999
 31
0.0
  0
ARC
  5
A8F6
330
A7D2
100
AcDbEntity
  8
1
  6
Continuous
100
AcDbCircle
 10
33.402405
 20
242.110311
 30
0.0
 40
1.0
100
AcDbArc
 50
90.0
 51
180.0
  0
LINE
  5
A8F7
330
A7D2
100
AcDbEntity
  8
1
  6
Continuous
100
AcDbLine
 10
29.802405
 20
242.110311
 30
0.0
 11
29.802405
 21
215.7103109999999
 31
0.0
  0
LINE
  5
A8F8
330
A7D2
100
AcDbEntity
  8
4
  6
CENTER
100
AcDbLine
 10
34.0
 20
247.4582749999999
 30
0.0
 11
34.0
 21
240.797934
 31
0.0
  0
LINE
  5
A8F9
330
A7D2
100
AcDbEntity
  8
1
  6
Continuous
100
AcDbLine
 10
25.0
 20
245.7103109999999
 30
0.0
 11
25.0
 21
243.110311
 31
0.0
  0
LINE
  5
A8FA
330
A7D2
100
AcDbEntity
  8
1
  6
Continuous
100
AcDbLine
 10
524.738279
 20
243.66384
 30
0.0
 11
506.7294949999999
 21
189.9426639999999
 31
0.0
  0
LINE
  5
A8FB
330
A7D2
100
AcDbEntity
  8
1
  6
Continuous
100
AcDbLine
 10
460.276411
 20
243.66384
 30
0.0
 11
478.285195
 21
189.9426639999999
 31
0.0
  0
LINE
  5
A8FC
330
A7D2
100
AcDbEntity
  8
4
  6
CENTER
100
AcDbLine
 10
492.507345
 20
155.7103109999999
 30
0.0
 11
492.507345
 21
249.95159
 31
0.0
  0
LINE
  5
A8FD
330
A7D2
100
AcDbEntity
  8
1
  6
Continuous
100
AcDbLine
 10
482.357345
 20
186.036245
 30
0.0
 11
482.357345
 21
243.518765
 31
0.0
  0
LINE
  5
A8FE
330
A7D2
100
AcDbEntity
  8
1
  6
Continuous
100
AcDbLine
 10
502.6573449999998
 20
186.036245
 30
0.0
 11
502.6573449999998
 21
243.518765
 31
0.0
  0
ARC
  5
A8FF
330
A7D2
100
AcDbEntity
  8
1
  6
Continuous
100
AcDbCircle
 10
492.507345
 20
191.2103109999999
 30
0.0
 40
23.0
100
AcDbArc
 50
145.544979
 51
34.45502100000001
  0
ARC
  5
A900
330
A7D2
100
AcDbEntity
  8
1
  6
Continuous
100
AcDbCircle
 10
492.507345
 20
191.2103109999999
 30
0.0
 40
32.5
100
AcDbArc
 50
133.688028
 51
46.31197199999999
  0
LINE
  5
A901
330
A7D2
100
AcDbEntity
  8
4
  6
CENTER
100
AcDbLine
 10
528.0073449999998
 20
191.2103109999999
 30
0.0
 11
457.0073449999998
 21
191.2103109999999
 31
0.0
  0
ARC
  5
A902
330
A7D2
100
AcDbEntity
  8
1
  6
Continuous
100
AcDbCircle
 10
492.507345
 20
194.710311
 30
0.0
 40
15.0
100
AcDbArc
 50
198.5325379999999
 51
341.4674619999999
  0
LINE
  5
A903
330
A7D2
100
AcDbEntity
  8
1
  6
Continuous
100
AcDbLine
 10
541.507345
 20
245.7103109999999
 30
0.0
 11
443.5073449999999
 21
245.7103109999999
 31
0.0
  0
LINE
  5
A904
330
A7D2
100
AcDbEntity
  8
1
  6
Continuous
100
AcDbLine
 10
524.552721
 20
243.110311
 30
0.0
 11
541.507345
 21
243.110311
 31
0.0
  0
LINE
  5
A905
330
A7D2
100
AcDbEntity
  8
4
  6
CENTER
100
AcDbLine
 10
532.507365
 20
240.4642659999999
 30
0.0
 11
532.507365
 21
247.8343469999999
 31
0.0
  0
LINE
  5
A906
330
A7D2
100
AcDbEntity
  8
1
  6
Continuous
100
AcDbLine
 10
541.507345
 20
245.7103109999999
 30
0.0
 11
541.507345
 21
243.110311
 31
0.0
  0
ARC
  5
A907
330
A7D2
100
AcDbEntity
  8
1
  6
Continuous
100
AcDbCircle
 10
527.5827089999998
 20
242.710311
 30
0.0
 40
3.0
100
AcDbArc
 50
90.0
 51
161.467462
  0
LINE
  5
A908
330
A7D2
100
AcDbEntity
  8
4
  6
CENTER
100
AcDbLine
 10
452.507365
 20
240.614672
 30
0.0
 11
452.507365
 21
249.3384359999998
 31
0.0
  0
LINE
  5
A909
330
A7D2
100
AcDbEntity
  8
1
  6
Continuous
100
AcDbLine
 10
460.4619689999998
 20
243.110311
 30
0.0
 11
443.5073449999999
 21
243.110311
 31
0.0
  0
ARC
  5
A90A
330
A7D2
100
AcDbEntity
  8
1
  6
Continuous
100
AcDbCircle
 10
457.4319809999998
 20
242.710311
 30
0.0
 40
3.0
100
AcDbArc
 50
18.532538
 51
90.0
  0
LINE
  5
A90B
330
A7D2
100
AcDbEntity
  8
1
  6
Continuous
100
AcDbLine
 10
443.5073449999999
 20
245.7103109999999
 30
0.0
 11
443.5073449999999
 21
243.110311
 31
0.0
  0
LINE
  5
A90C
330
A7D2
100
AcDbEntity
  8
1
  6
Continuous
100
AcDbLine
 10
230.7512079999999
 20
100.1975949999998
 30
0.0
 11
233.486572
 21
100.1975949999998
 31
0.0
  0
LINE
  5
A90D
330
A7D2
100
AcDbEntity
  8
1
  6
Continuous
100
AcDbLine
 10
230.7512079999999
 20
45.802405
 30
0.0
 11
233.486572
 21
45.802405
 31
0.0
  0
LINE
  5
A90E
330
A7D2
100
AcDbEntity
  8
4
  6
CENTER
100
AcDbLine
 10
255.5014879999998
 20
73.0
 30
0.0
 11
148.358627
 21
73.0
 31
0.0
  0
ARC
  5
A90F
330
A7D2
100
AcDbEntity
  8
1
  6
Continuous
100
AcDbCircle
 10
194.340279
 20
44.59999999999999
 30
0.0
 40
10.0
100
AcDbArc
 50
90.0
 51
136.771452
  0
LINE
  5
A910
330
A7D2
100
AcDbEntity
  8
1
  6
Continuous
100
AcDbLine
 10
208.169095
 20
52.6
 30
0.0
 11
208.169095
 21
47.6
 31
0.0
  0
ARC
  5
A911
330
A7D2
100
AcDbEntity
  8
1
  6
Continuous
100
AcDbCircle
 10
199.1690949999999
 20
43.934936
 30
0.0
 40
8.665063999999999
100
AcDbArc
 50
69.743842
 51
110.256158
  0
LINE
  5
A912
330
A7D2
100
AcDbEntity
  8
1
  6
Continuous
100
AcDbLine
 10
196.1690949999999
 20
52.6
 30
0.0
 11
196.1690949999999
 21
47.6
 31
0.0
  0
ARC
  5
A913
330
A7D2
100
AcDbEntity
  8
1
  6
Continuous
100
AcDbCircle
 10
205.169095
 20
43.934936
 30
0.0
 40
8.665063999999999
100
AcDbArc
 50
69.743842
 51
110.256158
  0
LINE
  5
A914
330
A7D2
100
AcDbEntity
  8
4
  6
CENTER
100
AcDbLine
 10
202.1690949999999
 20
43.85103299999999
 30
0.0
 11
202.1690949999999
 21
99.42475600000001
 31
0.0
  0
LINE
  5
A915
330
A7D2
100
AcDbEntity
  8
4
  6
CENTER
100
AcDbLine
 10
162.169095
 20
57.25
 30
0.0
 11
162.169095
 21
42.75
 31
0.0
  0
ARC
  5
A916
330
A7D2
100
AcDbEntity
  8
1
  6
Continuous
100
AcDbCircle
 10
209.997911
 20
44.59999999999999
 30
0.0
 40
10.0
100
AcDbArc
 50
43.22854799999999
 51
90.0
  0
CIRCLE
  5
A917
330
A7D2
100
AcDbEntity
  8
1
  6
Continuous
100
AcDbCircle
 10
162.169095
 20
50.0
 30
0.0
 40
4.25
  0
LINE
  5
A918
330
A7D2
100
AcDbEntity
  8
1
  6
Continuous
100
AcDbLine
 10
153.1690949999999
 20
50.0
 30
0.0
 11
153.1690949999999
 21
96.0
 31
0.0
  0
ARC
  5
A919
330
A7D2
100
AcDbEntity
  8
1
  6
Continuous
100
AcDbCircle
 10
162.169095
 20
96.0
 30
0.0
 40
9.0
100
AcDbArc
 50
21.21456999999999
 51
180.0
  0
LINE
  5
A91A
330
A7D2
100
AcDbEntity
  8
4
  6
CENTER
100
AcDbLine
 10
154.919095
 20
96.0
 30
0.0
 11
169.419095
 21
96.0
 31
0.0
  0
CIRCLE
  5
A91B
330
A7D2
100
AcDbEntity
  8
1
  6
Continuous
100
AcDbCircle
 10
162.169095
 20
96.0
 30
0.0
 40
4.25
  0
LINE
  5
A91C
330
A7D2
100
AcDbEntity
  8
4
  6
CENTER
100
AcDbLine
 10
162.169095
 20
102.914177
 30
0.0
 11
162.169095
 21
88.75
 31
0.0
  0
LINE
  5
A91D
330
A7D2
100
AcDbEntity
  8
1
  6
Continuous
100
AcDbLine
 10
194.340279
 20
91.4
 30
0.0
 11
209.997911
 21
91.4
 31
0.0
  0
LINE
  5
A91E
330
A7D2
100
AcDbEntity
  8
1
  6
Continuous
100
AcDbLine
 10
194.6690949999999
 20
52.6
 30
0.0
 11
209.669095
 21
52.6
 31
0.0
  0
ARC
  5
A91F
330
A7D2
100
AcDbEntity
  8
1
  6
Continuous
100
AcDbCircle
 10
202.1690949999999
 20
85.90000000000001
 30
0.0
 40
10.5
100
AcDbArc
 50
48.189685
 51
131.810315
  0
LINE
  5
A920
330
A7D2
100
AcDbEntity
  8
1
  6
Continuous
100
AcDbLine
 10
195.1690949999999
 20
93.72623799999999
 30
0.0
 11
209.1690949999999
 21
93.72623799999999
 31
0.0
  0
LINE
  5
A921
330
A7D2
100
AcDbEntity
  8
1
  6
Continuous
100
AcDbLine
 10
194.340279
 20
54.6
 30
0.0
 11
209.997911
 21
54.6
 31
0.0
  0
ARC
  5
A922
330
A7D2
100
AcDbEntity
  8
1
  6
Continuous
100
AcDbCircle
 10
175.4948929999999
 20
83.68532700000001
 30
0.0
 40
15.864226
100
AcDbArc
 50
43.22854799999999
 51
52.47879599999999
  0
ARC
  5
A923
330
A7D2
100
AcDbEntity
  8
1
  6
Continuous
100
AcDbCircle
 10
194.340279
 20
101.4
 30
0.0
 40
10.0
100
AcDbArc
 50
223.2285479999999
 51
270.0
  0
ARC
  5
A924
330
A7D2
100
AcDbEntity
  8
1
  6
Continuous
100
AcDbCircle
 10
173.586982
 20
81.200793
 30
0.0
 40
18.99680199999998
100
AcDbArc
 50
52.47879599999999
 51
90.0
  0
LINE
  5
A925
330
A7D2
100
AcDbEntity
  8
1
  6
Continuous
100
AcDbLine
 10
173.586982
 20
100.1975949999998
 30
0.0
 11
170.851618
 21
100.1975949999998
 31
0.0
  0
ARC
  5
A926
330
A7D2
100
AcDbEntity
  8
1
  6
Continuous
100
AcDbCircle
 10
170.851618
 20
101.447595
 30
0.0
 40
1.25
100
AcDbArc
 50
212.1050119999999
 51
270.0
  0
LINE
  5
A927
330
A7D2
100
AcDbEntity
  8
1
  6
Continuous
100
AcDbLine
 10
194.6690949999999
 20
54.6
 30
0.0
 11
194.6690949999999
 21
52.6
 31
0.0
  0
LINE
  5
A928
330
A7D2
100
AcDbEntity
  8
1
  6
Continuous
100
AcDbLine
 10
195.1690949999999
 20
93.72623799999999
 30
0.0
 11
195.1690949999999
 21
91.4
 31
0.0
  0
ARC
  5
A929
330
A7D2
100
AcDbEntity
  8
1
  6
Continuous
100
AcDbCircle
 10
228.843297
 20
83.68532700000001
 30
0.0
 40
15.864226
100
AcDbArc
 50
127.521204
 51
136.771452
  0
ARC
  5
A92A
330
A7D2
100
AcDbEntity
  8
1
  6
Continuous
100
AcDbCircle
 10
209.997911
 20
101.4
 30
0.0
 40
10.0
100
AcDbArc
 50
270.0
 51
316.771452
  0
ARC
  5
A92B
330
A7D2
100
AcDbEntity
  8
1
  6
Continuous
100
AcDbCircle
 10
230.7512079999999
 20
81.200793
 30
0.0
 40
18.99680199999998
100
AcDbArc
 50
90.0
 51
127.521204
  0
LINE
  5
A92C
330
A7D2
100
AcDbEntity
  8
1
  6
Continuous
100
AcDbLine
 10
209.669095
 20
54.6
 30
0.0
 11
209.669095
 21
52.6
 31
0.0
  0
LINE
  5
A92D
330
A7D2
100
AcDbEntity
  8
1
  6
Continuous
100
AcDbLine
 10
204.169095
 20
52.6
 30
0.0
 11
202.1690949999999
 21
54.6
 31
0.0
  0
LINE
  5
A92E
330
A7D2
100
AcDbEntity
  8
1
  6
Continuous
100
AcDbLine
 10
202.1690949999999
 20
52.6
 30
0.0
 11
200.1690949999999
 21
54.6
 31
0.0
  0
LINE
  5
A92F
330
A7D2
100
AcDbEntity
  8
1
  6
Continuous
100
AcDbLine
 10
209.1690949999999
 20
93.72623799999999
 30
0.0
 11
209.1690949999999
 21
91.4
 31
0.0
  0
ARC
  5
A930
330
A7D2
100
AcDbEntity
  8
1
  6
Continuous
100
AcDbCircle
 10
162.169095
 20
50.0
 30
0.0
 40
9.0
100
AcDbArc
 50
180.0
 51
338.7854299999998
  0
LINE
  5
A931
330
A7D2
100
AcDbEntity
  8
4
  6
CENTER
100
AcDbLine
 10
154.919095
 20
50.0
 30
0.0
 11
169.419095
 21
50.0
 31
0.0
  0
ARC
  5
A932
330
A7D2
100
AcDbEntity
  8
1
  6
Continuous
100
AcDbCircle
 10
199.1690949999999
 20
56.265064
 30
0.0
 40
8.665063999999999
100
AcDbArc
 50
249.7438419999999
 51
290.256158
  0
LINE
  5
A933
330
A7D2
100
AcDbEntity
  8
1
  6
Continuous
100
AcDbLine
 10
208.169095
 20
47.6
 30
0.0
 11
196.1690949999999
 21
47.6
 31
0.0
  0
ARC
  5
A934
330
A7D2
100
AcDbEntity
  8
1
  6
Continuous
100
AcDbCircle
 10
175.4948929999999
 20
62.314673
 30
0.0
 40
15.864226
100
AcDbArc
 50
307.521204
 51
316.771452
  0
ARC
  5
A935
330
A7D2
100
AcDbEntity
  8
1
  6
Continuous
100
AcDbCircle
 10
170.851618
 20
44.552405
 30
0.0
 40
1.25
100
AcDbArc
 50
90.0
 51
147.8949879999999
  0
ARC
  5
A936
330
A7D2
100
AcDbEntity
  8
1
  6
Continuous
100
AcDbCircle
 10
173.586982
 20
64.799207
 30
0.0
 40
18.99680199999998
100
AcDbArc
 50
270.0
 51
307.521204
  0
LINE
  5
A937
330
A7D2
100
AcDbEntity
  8
1
  6
Continuous
100
AcDbLine
 10
173.586982
 20
45.802405
 30
0.0
 11
170.851618
 21
45.802405
 31
0.0
  0
LINE
  5
A938
330
A7D2
100
AcDbEntity
  8
1
  6
Continuous
100
AcDbLine
 10
205.569095
 20
46.9
 30
0.0
 11
206.169095
 21
47.5
 31
0.0
  0
LINE
  5
A939
330
A7D2
100
AcDbEntity
  8
1
  6
Continuous
100
AcDbLine
 10
198.1690949999999
 20
47.5
 30
0.0
 11
198.769095
 21
46.9
 31
0.0
  0
LINE
  5
A93A
330
A7D2
100
AcDbEntity
  8
1
  6
Continuous
100
AcDbLine
 10
198.769095
 20
46.9
 30
0.0
 11
205.569095
 21
46.9
 31
0.0
  0
LINE
  5
A93B
330
A7D2
100
AcDbEntity
  8
1
  6
Continuous
100
AcDbLine
 10
198.1690949999999
 20
47.5
 30
0.0
 11
198.1690949999999
 21
47.6
 31
0.0
  0
LINE
  5
A93C
330
A7D2
100
AcDbEntity
  8
1
  6
Continuous
100
AcDbLine
 10
206.169095
 20
47.5
 30
0.0
 11
206.169095
 21
47.6
 31
0.0
  0
LINE
  5
A93D
330
A7D2
100
AcDbEntity
  8
1
  6
Continuous
100
AcDbLine
 10
198.1690949999999
 20
47.5
 30
0.0
 11
206.169095
 21
47.5
 31
0.0
  0
LINE
  5
A93E
330
A7D2
100
AcDbEntity
  8
1
  6
Continuous
100
AcDbLine
 10
202.1690949999999
 20
48.13589799999999
 30
0.0
 11
202.1690949999999
 21
52.064102
 31
0.0
  0
LINE
  5
A93F
330
A7D2
100
AcDbEntity
  8
2
  6
Continuous
100
AcDbLine
 10
205.4925949999999
 20
47.6
 30
0.0
 11
205.4925949999999
 21
46.9
 31
0.0
  0
LINE
  5
A940
330
A7D2
100
AcDbEntity
  8
2
  6
Continuous
100
AcDbLine
 10
198.845595
 20
47.6
 30
0.0
 11
198.845595
 21
46.9
 31
0.0
  0
ARC
  5
A941
330
A7D2
100
AcDbEntity
  8
1
  6
Continuous
100
AcDbCircle
 10
205.169095
 20
56.265064
 30
0.0
 40
8.665063999999999
100
AcDbArc
 50
249.7438419999999
 51
290.256158
  0
ARC
  5
A942
330
A7D2
100
AcDbEntity
  8
1
  6
Continuous
100
AcDbCircle
 10
228.843297
 20
62.314673
 30
0.0
 40
15.864226
100
AcDbArc
 50
223.2285479999999
 51
232.478796
  0
ARC
  5
A943
330
A7D2
100
AcDbEntity
  8
1
  6
Continuous
100
AcDbCircle
 10
230.7512079999999
 20
64.799207
 30
0.0
 40
18.99680199999998
100
AcDbArc
 50
232.478796
 51
270.0
  0
LINE
  5
A944
330
A7D2
100
AcDbEntity
  8
4
  6
CENTER
100
AcDbLine
 10
242.169095
 20
57.25
 30
0.0
 11
242.169095
 21
42.75
 31
0.0
  0
CIRCLE
  5
A945
330
A7D2
100
AcDbEntity
  8
1
  6
Continuous
100
AcDbCircle
 10
242.169095
 20
50.0
 30
0.0
 40
4.25
  0
LINE
  5
A946
330
A7D2
100
AcDbEntity
  8
1
  6
Continuous
100
AcDbLine
 10
251.169095
 20
50.0
 30
0.0
 11
251.169095
 21
96.0
 31
0.0
  0
ARC
  5
A947
330
A7D2
100
AcDbEntity
  8
1
  6
Continuous
100
AcDbCircle
 10
233.486572
 20
101.447595
 30
0.0
 40
1.25
100
AcDbArc
 50
270.0
 51
327.894988
  0
ARC
  5
A948
330
A7D2
100
AcDbEntity
  8
1
  6
Continuous
100
AcDbCircle
 10
242.169095
 20
96.0
 30
0.0
 40
9.0
100
AcDbArc
 50
0.0
 51
158.78543
  0
LINE
  5
A949
330
A7D2
100
AcDbEntity
  8
4
  6
CENTER
100
AcDbLine
 10
242.169095
 20
103.5157969999999
 30
0.0
 11
242.169095
 21
88.75
 31
0.0
  0
LINE
  5
A94A
330
A7D2
100
AcDbEntity
  8
4
  6
CENTER
100
AcDbLine
 10
234.919095
 20
96.0
 30
0.0
 11
249.419095
 21
96.0
 31
0.0
  0
CIRCLE
  5
A94B
330
A7D2
100
AcDbEntity
  8
1
  6
Continuous
100
AcDbCircle
 10
242.169095
 20
96.0
 30
0.0
 40
4.25
  0
ARC
  5
A94C
330
A7D2
100
AcDbEntity
  8
1
  6
Continuous
100
AcDbCircle
 10
233.486572
 20
44.552405
 30
0.0
 40
1.25
100
AcDbArc
 50
32.105012
 51
90.0
  0
LINE
  5
A94D
330
A7D2
100
AcDbEntity
  8
4
  6
CENTER
100
AcDbLine
 10
234.919095
 20
50.0
 30
0.0
 11
249.419095
 21
50.0
 31
0.0
  0
ARC
  5
A94E
330
A7D2
100
AcDbEntity
  8
1
  6
Continuous
100
AcDbCircle
 10
242.169095
 20
50.0
 30
0.0
 40
9.0
100
AcDbArc
 50
201.21457
 51
0.0
  0
CIRCLE
  5
A94F
330
A7D2
100
AcDbEntity
  8
1
  6
Continuous
100
AcDbCircle
 10
492.507345
 20
191.2103109999999
 30
0.0
 40
7.5
  0
CIRCLE
  5
A950
330
A7D2
100
AcDbEntity
  8
1
  6
Continuous
100
AcDbCircle
 10
492.507345
 20
191.2103109999999
 30
0.0
 40
4.0
  0
CIRCLE
  5
A951
330
A7D2
100
AcDbEntity
  8
2
  6
Continuous
100
AcDbCircle
 10
492.507345
 20
191.2103109999999
 30
0.0
 40
3.3235
  0
LINE
  5
A952
330
A7D2
100
AcDbEntity
  8
1
  6
Continuous
100
AcDbLine
 10
486.5073449999998
 20
194.6744129999999
 30
0.0
 11
486.5073449999998
 21
187.7462089999999
 31
0.0
  0
LINE
  5
A953
330
A7D2
100
AcDbEntity
  8
1
  6
Continuous
100
AcDbLine
 10
498.5073449999998
 20
194.6744129999999
 30
0.0
 11
498.5073449999998
 21
187.7462089999999
 31
0.0
  0
CIRCLE
  5
A954
330
A7D2
100
AcDbEntity
  8
1
  6
Continuous
100
AcDbCircle
 10
492.507345
 20
191.2103109999999
 30
0.0
 40
6.0
  0
LINE
  5
A955
330
A7D2
100
AcDbEntity
  8
1
  6
Continuous
100
AcDbLine
 10
492.507345
 20
184.282108
 30
0.0
 11
498.5073449999998
 21
187.7462089999999
 31
0.0
  0
LINE
  5
A956
330
A7D2
100
AcDbEntity
  8
1
  6
Continuous
100
AcDbLine
 10
492.507345
 20
184.282108
 30
0.0
 11
486.5073449999998
 21
187.7462089999999
 31
0.0
  0
LINE
  5
A957
330
A7D2
100
AcDbEntity
  8
1
  6
Continuous
100
AcDbLine
 10
498.5073449999998
 20
194.6744129999999
 30
0.0
 11
492.507345
 21
198.138514
 31
0.0
  0
LINE
  5
A958
330
A7D2
100
AcDbEntity
  8
1
  6
Continuous
100
AcDbLine
 10
486.5073449999998
 20
194.6744129999999
 30
0.0
 11
492.507345
 21
198.138514
 31
0.0
  0
LINE
  5
A959
330
A7D2
100
AcDbEntity
  8
1
  6
Continuous
100
AcDbLine
 10
207.669095
 20
88.49999999999999
 30
0.0
 11
196.669095
 21
88.49999999999999
 31
0.0
  0
LINE
  5
A95A
330
A7D2
100
AcDbEntity
  8
1
  6
Continuous
100
AcDbLine
 10
193.459923
 20
88.25000000000001
 30
0.0
 11
210.878267
 21
88.25000000000001
 31
0.0
  0
LINE
  5
A95B
330
A7D2
100
AcDbEntity
  8
1
  6
Continuous
100
AcDbLine
 10
207.669095
 20
57.5
 30
0.0
 11
196.669095
 21
57.5
 31
0.0
  0
LINE
  5
A95C
330
A7D2
100
AcDbEntity
  8
1
  6
Continuous
100
AcDbLine
 10
193.459923
 20
57.75
 30
0.0
 11
210.878267
 21
57.75
 31
0.0
  0
LINE
  5
A95D
330
A7D2
100
AcDbEntity
  8
1
  6
Continuous
100
AcDbLine
 10
231.389074
 20
86.5
 30
0.0
 11
172.949116
 21
86.5
 31
0.0
  0
LINE
  5
A95E
330
A7D2
100
AcDbEntity
  8
1
  6
Continuous
100
AcDbLine
 10
231.389074
 20
59.5
 30
0.0
 11
172.949116
 21
59.5
 31
0.0
  0
ARC
  5
A95F
330
A7D2
100
AcDbEntity
  8
1
  6
Continuous
100
AcDbCircle
 10
34.66909499999999
 20
73.0
 30
0.0
 40
200.0
100
AcDbArc
 50
356.944298
 51
3.055283999999999
  0
LINE
  5
A960
330
A7D2
100
AcDbEntity
  8
1
  6
Continuous
100
AcDbLine
 10
206.169095
 20
57.5
 30
0.0
 11
206.169095
 21
57.2
 31
0.0
  0
ARC
  5
A961
330
A7D2
100
AcDbEntity
  8
1
  6
Continuous
100
AcDbCircle
 10
231.389074
 20
62.5
 30
0.0
 40
3.0
100
AcDbArc
 50
270.0
 51
356.9447160000001
  0
ARC
  5
A962
330
A7D2
100
AcDbEntity
  8
1
  6
Continuous
100
AcDbCircle
 10
210.878267
 20
60.25
 30
0.0
 40
2.5
100
AcDbArc
 50
270.0
 51
342.542397
  0
LINE
  5
A963
330
A7D2
100
AcDbEntity
  8
1
  6
Continuous
100
AcDbLine
 10
207.669095
 20
57.75
 30
0.0
 11
207.669095
 21
57.5
 31
0.0
  0
LINE
  5
A964
330
A7D2
100
AcDbEntity
  8
1
  6
Continuous
100
AcDbLine
 10
206.169095
 20
88.49999999999999
 30
0.0
 11
206.169095
 21
88.79999999999999
 31
0.0
  0
ARC
  5
A965
330
A7D2
100
AcDbEntity
  8
1
  6
Continuous
100
AcDbCircle
 10
231.389074
 20
83.49999999999999
 30
0.0
 40
3.0
100
AcDbArc
 50
3.055283999999999
 51
90.0
  0
ARC
  5
A966
330
A7D2
100
AcDbEntity
  8
1
  6
Continuous
100
AcDbCircle
 10
210.878267
 20
85.75000000000001
 30
0.0
 40
2.5
100
AcDbArc
 50
17.45760299999999
 51
90.0
  0
LINE
  5
A967
330
A7D2
100
AcDbEntity
  8
1
  6
Continuous
100
AcDbLine
 10
207.669095
 20
88.25000000000001
 30
0.0
 11
207.669095
 21
88.49999999999999
 31
0.0
  0
ARC
  5
A968
330
A7D2
100
AcDbEntity
  8
1
  6
Continuous
100
AcDbCircle
 10
369.669095
 20
73.0
 30
0.0
 40
200.0
100
AcDbArc
 50
176.944716
 51
183.055702
  0
ARC
  5
A969
330
A7D2
100
AcDbEntity
  8
1
  6
Continuous
100
AcDbCircle
 10
172.949116
 20
62.5
 30
0.0
 40
3.0
100
AcDbArc
 50
183.055284
 51
270.0
  0
LINE
  5
A96A
330
A7D2
100
AcDbEntity
  8
1
  6
Continuous
100
AcDbLine
 10
198.1690949999999
 20
57.5
 30
0.0
 11
198.1690949999999
 21
57.2
 31
0.0
  0
ARC
  5
A96B
330
A7D2
100
AcDbEntity
  8
1
  6
Continuous
100
AcDbCircle
 10
193.459923
 20
60.25
 30
0.0
 40
2.5
100
AcDbArc
 50
197.457603
 51
270.0
  0
LINE
  5
A96C
330
A7D2
100
AcDbEntity
  8
1
  6
Continuous
100
AcDbLine
 10
196.669095
 20
57.75
 30
0.0
 11
196.669095
 21
57.5
 31
0.0
  0
ARC
  5
A96D
330
A7D2
100
AcDbEntity
  8
1
  6
Continuous
100
AcDbCircle
 10
172.949116
 20
83.49999999999999
 30
0.0
 40
3.0
100
AcDbArc
 50
90.0
 51
176.944716
  0
LINE
  5
A96E
330
A7D2
100
AcDbEntity
  8
1
  6
Continuous
100
AcDbLine
 10
198.1690949999999
 20
88.49999999999999
 30
0.0
 11
198.1690949999999
 21
88.79999999999999
 31
0.0
  0
LINE
  5
A96F
330
A7D2
100
AcDbEntity
  8
1
  6
Continuous
100
AcDbLine
 10
196.669095
 20
88.25000000000001
 30
0.0
 11
196.669095
 21
88.49999999999999
 31
0.0
  0
ARC
  5
A970
330
A7D2
100
AcDbEntity
  8
1
  6
Continuous
100
AcDbCircle
 10
193.459923
 20
85.75000000000001
 30
0.0
 40
2.5
100
AcDbArc
 50
90.0
 51
162.5423969999999
  0
LINE
  5
A971
330
A7D2
100
AcDbEntity
  8
1
  6
Continuous
100
AcDbLine
 10
194.340279
 20
88.79999999999999
 30
0.0
 11
209.997911
 21
88.79999999999999
 31
0.0
  0
ARC
  5
A972
330
A7D2
100
AcDbEntity
  8
1
  6
Continuous
100
AcDbCircle
 10
194.340279
 20
101.4
 30
0.0
 40
12.6
100
AcDbArc
 50
223.2285479999999
 51
270.0
  0
ARC
  5
A973
330
A7D2
100
AcDbEntity
  8
1
  6
Continuous
100
AcDbCircle
 10
175.4948929999999
 20
83.68532700000001
 30
0.0
 40
13.264226
100
AcDbArc
 50
43.22854799999999
 51
52.47879599999999
  0
ARC
  5
A974
330
A7D2
100
AcDbEntity
  8
1
  6
Continuous
100
AcDbCircle
 10
228.843297
 20
83.68532700000001
 30
0.0
 40
13.264226
100
AcDbArc
 50
127.521204
 51
136.771452
  0
ARC
  5
A975
330
A7D2
100
AcDbEntity
  8
1
  6
Continuous
100
AcDbCircle
 10
209.997911
 20
101.4
 30
0.0
 40
12.6
100
AcDbArc
 50
270.0
 51
316.771452
  0
ARC
  5
A976
330
A7D2
100
AcDbEntity
  8
1
  6
Continuous
100
AcDbCircle
 10
230.7512079999999
 20
64.799207
 30
0.0
 40
16.39680199999999
100
AcDbArc
 50
232.478796
 51
270.0
  0
LINE
  5
A977
330
A7D2
100
AcDbEntity
  8
1
  6
Continuous
100
AcDbLine
 10
230.7512079999999
 20
48.402405
 30
0.0
 11
231.355206
 21
48.402405
 31
0.0
  0
ARC
  5
A978
330
A7D2
100
AcDbEntity
  8
1
  6
Continuous
100
AcDbCircle
 10
209.997911
 20
44.59999999999999
 30
0.0
 40
12.6
100
AcDbArc
 50
43.22854799999999
 51
90.0
  0
ARC
  5
A979
330
A7D2
100
AcDbEntity
  8
1
  6
Continuous
100
AcDbCircle
 10
228.843297
 20
62.314673
 30
0.0
 40
13.264226
100
AcDbArc
 50
223.2285479999999
 51
232.478796
  0
LINE
  5
A97A
330
A7D2
100
AcDbEntity
  8
1
  6
Continuous
100
AcDbLine
 10
194.340279
 20
57.2
 30
0.0
 11
209.997911
 21
57.2
 31
0.0
  0
ARC
  5
A97B
330
A7D2
100
AcDbEntity
  8
1
  6
Continuous
100
AcDbCircle
 10
194.340279
 20
44.59999999999999
 30
0.0
 40
12.6
100
AcDbArc
 50
90.0
 51
136.771452
  0
ARC
  5
A97C
330
A7D2
100
AcDbEntity
  8
1
  6
Continuous
100
AcDbCircle
 10
175.4948929999999
 20
62.314673
 30
0.0
 40
13.264226
100
AcDbArc
 50
307.521204
 51
316.771452
  0
ARC
  5
A97D
330
A7D2
100
AcDbEntity
  8
1
  6
Continuous
100
AcDbCircle
 10
173.586982
 20
64.799207
 30
0.0
 40
16.39680199999999
100
AcDbArc
 50
270.0
 51
307.521204
  0
LINE
  5
A97E
330
A7D2
100
AcDbEntity
  8
1
  6
Continuous
100
AcDbLine
 10
173.586982
 20
48.402405
 30
0.0
 11
172.9829839999999
 21
48.402405
 31
0.0
  0
LINE
  5
A97F
330
A7D2
100
AcDbEntity
  8
1
  6
Continuous
100
AcDbLine
 10
173.586982
 20
97.59759500000001
 30
0.0
 11
172.9829839999999
 21
97.59759500000001
 31
0.0
  0
ARC
  5
A980
330
A7D2
100
AcDbEntity
  8
1
  6
Continuous
100
AcDbCircle
 10
173.586982
 20
81.200793
 30
0.0
 40
16.39680199999999
100
AcDbArc
 50
52.47879599999999
 51
90.0
  0
ARC
  5
A981
330
A7D2
100
AcDbEntity
  8
1
  6
Continuous
100
AcDbCircle
 10
172.9829839999999
 20
100.1975949999998
 30
0.0
 40
2.6
100
AcDbArc
 50
201.21457
 51
270.0
  0
ARC
  5
A982
330
A7D2
100
AcDbEntity
  8
1
  6
Continuous
100
AcDbCircle
 10
230.7512079999999
 20
81.200793
 30
0.0
 40
16.39680199999999
100
AcDbArc
 50
90.0
 51
127.521204
  0
LINE
  5
A983
330
A7D2
100
AcDbEntity
  8
1
  6
Continuous
100
AcDbLine
 10
230.7512079999999
 20
97.59759500000001
 30
0.0
 11
231.355206
 21
97.59759500000001
 31
0.0
  0
ARC
  5
A984
330
A7D2
100
AcDbEntity
  8
1
  6
Continuous
100
AcDbCircle
 10
231.355206
 20
100.1975949999998
 30
0.0
 40
2.6
100
AcDbArc
 50
270.0
 51
338.7854299999998
  0
ARC
  5
A985
330
A7D2
100
AcDbEntity
  8
1
  6
Continuous
100
AcDbCircle
 10
172.9829839999999
 20
45.802405
 30
0.0
 40
2.6
100
AcDbArc
 50
90.0
 51
158.78543
  0
ARC
  5
A986
330
A7D2
100
AcDbEntity
  8
1
  6
Continuous
100
AcDbCircle
 10
231.355206
 20
45.802405
 30
0.0
 40
2.6
100
AcDbArc
 50
21.21456999999999
 51
90.0
  0
ENDSEC
  0
SECTION
  2
OBJECTS
  0
DICTIONARY
  5
A7C0
330
0
100
AcDbDictionary
281
     1
  3
ACAD_CIP_PREVIOUS_PRODUCT_INFO
350
A9E8
  3
ACAD_COLOR
350
A9CA
  3
ACAD_DETAILVIEWSTYLE
350
A9E3
  3
ACAD_GROUP
350
A7C1
  3
ACAD_LAYOUT
350
A7CD
  3
ACAD_MATERIAL
350
A998
  3
ACAD_MLEADERSTYLE
350
A9DF
  3
ACAD_MLINESTYLE
350
A7CA
  3
ACAD_PLOTSETTINGS
350
A7CC
  3
ACAD_PLOTSTYLENAME
350
A996
  3
ACAD_SCALELIST
350
A9CD
  3
ACAD_SECTIONVIEWSTYLE
350
A9E1
  3
ACAD_TABLESTYLE
350
A9CB
  3
ACAD_VISUALSTYLE
350
A9B1
  3
ACDB_RECOMPOSE_DATA
350
AA06
  3
AcDbVariableDictionary
350
A9F9
  3
DWGPROPS
350
AA07
  0
DICTIONARY
  5
A9E9
330
A7C4
100
AcDbDictionary
280
     1
281
     1
  3
ADSK_XREC_LAYER_RECONCILED
360
A9EA
  0
DICTIONARY
  5
A9EB
330
A7DA
100
AcDbDictionary
280
     1
281
     1
  3
ADSK_XREC_LAYER_RECONCILED
360
A9EC
  0
DICTIONARY
  5
A9ED
330
A7DB
100
AcDbDictionary
280
     1
281
     1
  3
ADSK_XREC_LAYER_RECONCILED
360
A9EE
  0
DICTIONARY
  5
A9EF
330
A7DC
100
AcDbDictionary
280
     1
281
     1
  3
ADSK_XREC_LAYER_RECONCILED
360
A9F0
  0
DICTIONARY
  5
A9F1
330
A7DD
100
AcDbDictionary
280
     1
281
     1
  3
ADSK_XREC_LAYER_RECONCILED
360
A9F2
  0
DICTIONARY
  5
A9F3
330
A7DE
100
AcDbDictionary
280
     1
281
     1
  3
ADSK_XREC_LAYER_RECONCILED
360
A9F4
  0
DICTIONARY
  5
A9F5
330
A7DF
100
AcDbDictionary
280
     1
281
     1
  3
ADSK_XREC_LAYER_RECONCILED
360
A9F6
  0
DICTIONARY
  5
A9F7
330
A7E0
100
AcDbDictionary
280
     1
281
     1
  3
ADSK_XREC_LAYER_RECONCILED
360
A9F8
  0
DICTIONARY
  5
A991
330
A7D2
100
AcDbDictionary
281
     1
  3
ACAD_LAYOUTSELFREF
350
A992
  0
DICTIONARY
  5
A98F
330
A7CE
100
AcDbDictionary
281
     1
  3
ACAD_LAYOUTSELFREF
350
A990
  0
XRECORD
  5
A9E8
102
{ACAD_REACTORS
330
A7C0
102
}
330
A7C0
100
AcDbXrecord
280
     1
300
ACDLT
300
2014
300
ACDLT_F_S
  0
DICTIONARY
  5
A9CA
102
{ACAD_REACTORS
330
A7C0
102
}
330
A7C0
100
AcDbDictionary
281
     1
  0
DICTIONARY
  5
A9E3
102
{ACAD_REACTORS
330
A7C0
102
}
330
A7C0
100
AcDbDictionary
281
     1
  3
Imperial24
350
A9E4
  0
DICTIONARY
  5
A7C1
102
{ACAD_REACTORS
330
A7C0
102
}
330
A7C0
100
AcDbDictionary
281
     1
  0
DICTIONARY
  5
A7CD
102
{ACAD_REACTORS
330
A7C0
102
}
330
A7C0
100
AcDbDictionary
281
     1
  3
Model
350
A9E5
  3
レイアウト1
350
A9E6
  0
DICTIONARY
  5
A998
102
{ACAD_REACTORS
330
A7C0
102
}
330
A7C0
100
AcDbDictionary
281
     1
  3
ByBlock
350
A9A1
  3
ByLayer
350
A999
  3
Global
350
A9A9
  0
DICTIONARY
  5
A9DF
102
{ACAD_REACTORS
330
A7C0
102
}
330
A7C0
100
AcDbDictionary
281
     1
  3
Standard
350
A9E0
  0
DICTIONARY
  5
A7CA
102
{ACAD_REACTORS
330
A7C0
102
}
330
A7C0
100
AcDbDictionary
281
     1
  3
STANDARD
350
A7CB
  0
DICTIONARY
  5
A7CC
102
{ACAD_REACTORS
330
A7C0
102
}
330
A7C0
100
AcDbDictionary
281
     1
  0
ACDBDICTIONARYWDFLT
  5
A996
102
{ACAD_REACTORS
330
A7C0
102
}
330
A7C0
100
AcDbDictionary
281
     1
  3
Normal
350
A997
100
AcDbDictionaryWithDefault
340
A997
  0
DICTIONARY
  5
A9CD
102
{ACAD_REACTORS
330
A7C0
102
}
330
A7C0
100
AcDbDictionary
281
     1
  3
A0
350
A9CE
  3
A1
350
A9CF
  3
A2
350
A9D0
  3
A3
350
A9D1
  3
A4
350
A9D2
  3
A5
350
A9D3
  3
A6
350
A9D4
  3
A7
350
A9D5
  3
A8
350
A9D6
  3
A9
350
A9D7
  3
B0
350
A9D8
  3
B1
350
A9D9
  3
B2
350
A9DA
  3
B3
350
A9DB
  3
B4
350
A9DC
  3
B5
350
A9DD
  3
B6
350
A9DE
  0
DICTIONARY
  5
A9E1
102
{ACAD_REACTORS
330
A7C0
102
}
330
A7C0
100
AcDbDictionary
281
     1
  3
Imperial24
350
A9E2
  0
DICTIONARY
  5
A9CB
102
{ACAD_REACTORS
330
A7C0
102
}
330
A7C0
100
AcDbDictionary
281
     1
  3
Standard
350
A9CC
  0
DICTIONARY
  5
A9B1
102
{ACAD_REACTORS
330
A7C0
102
}
330
A7C0
100
AcDbDictionary
281
     1
  3
2dWireframe
350
A9B7
  3
Basic
350
A9B6
  3
Brighten
350
A9BD
  3
ColorChange
350
A9C1
  3
Conceptual
350
A9BA
  3
Dim
350
A9BC
  3
EdgeColorOff
350
A9C9
  3
Facepattern
350
A9C0
  3
Flat
350
A9B2
  3
FlatWithEdges
350
A9B3
  3
Gouraud
350
A9B4
  3
GouraudWithEdges
350
A9B5
  3
Hidden
350
A9B9
  3
JitterOff
350
A9C7
  3
Linepattern
350
A9BF
  3
OverhangOff
350
A9C8
  3
Realistic
350
A9BB
  3
Shaded
350
A9C6
  3
Shaded with edges
350
A9C5
  3
Shades of Gray
350
A9C2
  3
Sketchy
350
A9C3
  3
Thicken
350
A9BE
  3
Wireframe
350
A9B8
  3
X-Ray
350
A9C4
  0
XRECORD
  5
AA06
102
{ACAD_REACTORS
330
A7C0
102
}
330
A7C0
100
AcDbXrecord
280
     1
 90
        1
330
A9CC
  0
DICTIONARY
  5
A9F9
102
{ACAD_REACTORS
330
A7C0
102
}
330
A7C0
100
AcDbDictionary
281
     1
  3
CANNOSCALE
350
A9FE
  3
CMLEADERSTYLE
350
A9FB
  3
CTABLESTYLE
350
A9FA
  3
CVIEWDETAILSTYLE
350
A9FC
  3
CVIEWSECTIONSTYLE
350
A9FD
  3
DIMASSOC
350
AA01
  3
INDEXCTL
350
AA00
  3
SORTENTS
350
A9FF
  3
XCLIPFRAME
350
AA02
  0
XRECORD
  5
AA07
102
{ACAD_REACTORS
330
A7C0
102
}
330
A7C0
100
AcDbXrecord
280
     1
  1
DWGPROPS COOKIE
  2

  3

  4

  6

  7

  8
Yoshitsune
  9

300
=
301
=
302
=
303
=
304
=
305
=
306
=
307
=
308
=
309
=
 40
0.0000094444444444
 41
2451301.623382639
 42
2457192.688480347
  1

 90
        0
  0
XRECORD
  5
A9EA
102
{ACAD_REACTORS
330
A9E9
102
}
330
A9E9
100
AcDbXrecord
280
     1
290
     1
  0
XRECORD
  5
A9EC
102
{ACAD_REACTORS
330
A9EB
102
}
330
A9EB
100
AcDbXrecord
280
     1
290
     1
  0
XRECORD
  5
A9EE
102
{ACAD_REACTORS
330
A9ED
102
}
330
A9ED
100
AcDbXrecord
280
     1
290
     1
  0
XRECORD
  5
A9F0
102
{ACAD_REACTORS
330
A9EF
102
}
330
A9EF
100
AcDbXrecord
280
     1
290
     1
  0
XRECORD
  5
A9F2
102
{ACAD_REACTORS
330
A9F1
102
}
330
A9F1
100
AcDbXrecord
280
     1
290
     1
  0
XRECORD
  5
A9F4
102
{ACAD_REACTORS
330
A9F3
102
}
330
A9F3
100
AcDbXrecord
280
     1
290
     1
  0
XRECORD
  5
A9F6
102
{ACAD_REACTORS
330
A9F5
102
}
330
A9F5
100
AcDbXrecord
280
     1
290
     1
  0
XRECORD
  5
A9F8
102
{ACAD_REACTORS
330
A9F7
102
}
330
A9F7
100
AcDbXrecord
280
     1
290
     1
  0
XRECORD
  5
A992
102
{ACAD_REACTORS
330
A991
102
}
330
A991
100
AcDbXrecord
280
     1
340
A7D2
  0
XRECORD
  5
A990
102
{ACAD_REACTORS
330
A98F
102
}
330
A98F
100
AcDbXrecord
280
     1
340
A7CE
  0
ACDBDETAILVIEWSTYLE
  5
A9E4
102
{ACAD_XDICTIONARY
360
AA3F
102
}
102
{ACAD_REACTORS
330
A9E3
102
}
330
A9E3
100
AcDbModelDocViewStyle
 70
     0
  3
Imperial24
290
     0
100
AcDbDetailViewStyle
 70
     0
 71
     0
 90
        3
 71
     1
340
A7C5
 40
0.24
340
0
 40
0.24
300

 40
0.36
280
     3
 71
     2
340
A7C9
 90
       25
 71
     3
340
A7C5
 40
0.24
 90
        1
 40
0.75
 90
        1
300
%<\AcVar ViewType \f "%tc1">% %<\AcVar ViewDetailId>%\PSCALE %<\AcVar ViewScale \f "%sn">%
 71
     4
340
A7C9
 90
       25
340
A7C9
 90
       25
280
     0
  0
LAYOUT
  5
A9E5
102
{ACAD_XDICTIONARY
360
AA41
102
}
102
{ACAD_REACTORS
330
A7CD
102
}
330
A7CD
100
AcDbPlotSettings
  1

  2
Canon LBP9100C
  4

  6

 40
0.0
 41
0.0
 42
0.0
 43
0.0
 44
0.0
 45
0.0
 46
0.0
 47
0.0
 48
0.0
 49
0.0
140
0.0
141
0.0
142
1.0
143
1.0
 70
  1712
 72
     0
 73
     0
 74
     0
  7

 75
     0
147
1.0
148
0.0
149
0.0
100
AcDbLayout
  1
Model
 70
     1
 71
     0
 10
0.0
 20
0.0
 11
12.0
 21
9.0
 12
0.0
 22
0.0
 32
0.0
 14
0.0
 24
0.0
 34
0.0
 15
0.0
 25
0.0
 35
0.0
146
0.0
 13
0.0
 23
0.0
 33
0.0
 16
1.0
 26
0.0
 36
0.0
 17
0.0
 27
1.0
 37
0.0
 76
     0
330
A7D2
331
A98E
  0
LAYOUT
  5
A9E6
102
{ACAD_XDICTIONARY
360
AA43
102
}
102
{ACAD_REACTORS
330
A7CD
102
}
330
A7CD
100
AcDbPlotSettings
  1

  2
Canon LBP9100C
  4

  6

 40
0.0
 41
0.0
 42
0.0
 43
0.0
 44
0.0
 45
0.0
 46
0.0
 47
0.0
 48
0.0
 49
0.0
140
0.0
141
0.0
142
1.0
143
1.0
 70
   688
 72
     0
 73
     0
 74
     5
  7

 75
    16
147
1.0
148
0.0
149
0.0
100
AcDbLayout
  1
レイアウト1
 70
     0
 71
     1
 10
0.0
 20
0.0
 11
420.0
 21
297.0
 12
0.0
 22
0.0
 32
0.0
 14
1.000000000000000E+20
 24
1.000000000000000E+20
 34
1.000000000000000E+20
 15
-1.000000000000000E+20
 25
-1.000000000000000E+20
 35
-1.000000000000000E+20
146
0.0
 13
0.0
 23
0.0
 33
0.0
 16
1.0
 26
0.0
 36
0.0
 17
0.0
 27
1.0
 37
0.0
 76
     0
330
A7CE
  0
MATERIAL
  5
A9A1
102
{ACAD_XDICTIONARY
360
A9A2
102
}
102
{ACAD_REACTORS
330
A998
102
}
330
A998
100
AcDbMaterial
  1
ByBlock
 72
     0
 43
0.0208333333333333
 43
0.0
 43
0.0
 43
0.0
 43
0.0
 43
0.0208333333333333
 43
0.0
 43
0.0
 43
0.0
 43
0.0
 43
1.0
 43
0.0
 43
0.0
 43
0.0
 43
0.0
 43
1.0
 77
     0
 47
0.0208333333333333
 47
0.0
 47
0.0
 47
0.0
 47
0.0
 47
0.0208333333333333
 47
0.0
 47
0.0
 47
0.0
 47
0.0
 47
1.0
 47
0.0
 47
0.0
 47
0.0
 47
0.0
 47
1.0
171
     0
 49
0.0208333333333333
 49
0.0
 49
0.0
 49
0.0
 49
0.0
 49
0.0208333333333333
 49
0.0
 49
0.0
 49
0.0
 49
0.0
 49
1.0
 49
0.0
 49
0.0
 49
0.0
 49
0.0
 49
1.0
175
     0
142
0.0208333333333333
142
0.0
142
0.0
142
0.0
142
0.0
142
0.0208333333333333
142
0.0
142
0.0
142
0.0
142
0.0
142
1.0
142
0.0
142
0.0
142
0.0
142
0.0
142
1.0
179
     0
144
0.0208333333333333
144
0.0
144
0.0
144
0.0
144
0.0
144
0.0208333333333333
144
0.0
144
0.0
144
0.0
144
0.0
144
1.0
144
0.0
144
0.0
144
0.0
144
0.0
144
1.0
147
0.0208333333333333
147
0.0
147
0.0
147
0.0
147
0.0
147
0.0208333333333333
147
0.0
147
0.0
147
0.0
147
0.0
147
1.0
147
0.0
147
0.0
147
0.0
147
0.0
147
1.0
  0
MATERIAL
  5
A999
102
{ACAD_XDICTIONARY
360
A99A
102
}
102
{ACAD_REACTORS
330
A998
102
}
330
A998
100
AcDbMaterial
  1
ByLayer
 72
     0
 43
0.0208333333333333
 43
0.0
 43
0.0
 43
0.0
 43
0.0
 43
0.0208333333333333
 43
0.0
 43
0.0
 43
0.0
 43
0.0
 43
1.0
 43
0.0
 43
0.0
 43
0.0
 43
0.0
 43
1.0
 77
     0
 47
0.0208333333333333
 47
0.0
 47
0.0
 47
0.0
 47
0.0
 47
0.0208333333333333
 47
0.0
 47
0.0
 47
0.0
 47
0.0
 47
1.0
 47
0.0
 47
0.0
 47
0.0
 47
0.0
 47
1.0
171
     0
 49
0.0208333333333333
 49
0.0
 49
0.0
 49
0.0
 49
0.0
 49
0.0208333333333333
 49
0.0
 49
0.0
 49
0.0
 49
0.0
 49
1.0
 49
0.0
 49
0.0
 49
0.0
 49
0.0
 49
1.0
175
     0
142
0.0208333333333333
142
0.0
142
0.0
142
0.0
142
0.0
142
0.0208333333333333
142
0.0
142
0.0
142
0.0
142
0.0
142
1.0
142
0.0
142
0.0
142
0.0
142
0.0
142
1.0
179
     0
144
0.0208333333333333
144
0.0
144
0.0
144
0.0
144
0.0
144
0.0208333333333333
144
0.0
144
0.0
144
0.0
144
0.0
144
1.0
144
0.0
144
0.0
144
0.0
144
0.0
144
1.0
147
0.0208333333333333
147
0.0
147
0.0
147
0.0
147
0.0
147
0.0208333333333333
147
0.0
147
0.0
147
0.0
147
0.0
147
1.0
147
0.0
147
0.0
147
0.0
147
0.0
147
1.0
  0
MATERIAL
  5
A9A9
102
{ACAD_XDICTIONARY
360
A9AA
102
}
102
{ACAD_REACTORS
330
A998
102
}
330
A998
100
AcDbMaterial
  1
Global
 72
     0
 43
0.0208333333333333
 43
0.0
 43
0.0
 43
0.0
 43
0.0
 43
0.0208333333333333
 43
0.0
 43
0.0
 43
0.0
 43
0.0
 43
1.0
 43
0.0
 43
0.0
 43
0.0
 43
0.0
 43
1.0
 77
     0
 47
0.0208333333333333
 47
0.0
 47
0.0
 47
0.0
 47
0.0
 47
0.0208333333333333
 47
0.0
 47
0.0
 47
0.0
 47
0.0
 47
1.0
 47
0.0
 47
0.0
 47
0.0
 47
0.0
 47
1.0
171
     0
 49
0.0208333333333333
 49
0.0
 49
0.0
 49
0.0
 49
0.0
 49
0.0208333333333333
 49
0.0
 49
0.0
 49
0.0
 49
0.0
 49
1.0
 49
0.0
 49
0.0
 49
0.0
 49
0.0
 49
1.0
175
     0
142
0.0208333333333333
142
0.0
142
0.0
142
0.0
142
0.0
142
0.0208333333333333
142
0.0
142
0.0
142
0.0
142
0.0
142
1.0
142
0.0
142
0.0
142
0.0
142
0.0
142
1.0
179
     0
144
0.0208333333333333
144
0.0
144
0.0
144
0.0
144
0.0
144
0.0208333333333333
144
0.0
144
0.0
144
0.0
144
0.0
144
1.0
144
0.0
144
0.0
144
0.0
144
0.0
144
1.0
147
0.0208333333333333
147
0.0
147
0.0
147
0.0
147
0.0
147
0.0208333333333333
147
0.0
147
0.0
147
0.0
147
0.0
147
1.0
147
0.0
147
0.0
147
0.0
147
0.0
147
1.0
  0
MLEADERSTYLE
  5
A9E0
102
{ACAD_REACTORS
330
A9DF
102
}
330
A9DF
100
AcDbMLeaderStyle
170
     2
171
     1
172
     0
 90
        2
 40
0.0
 41
0.0
173
     1
 91
-1056964608
340
A7C7
 92
       -2
290
     1
 42
0.09
291
     1
 43
0.36
  3
Standard
 44
0.18
300

342
A7C5
174
     1
178
     6
175
     1
176
     0
 93
-1056964608
 45
0.18
292
     0
297
     0
 46
0.18
 94
-1056964608
 47
1.0
 49
1.0
140
1.0
293
     1
141
0.0
294
     1
177
     0
142
1.0
295
     0
296
     0
143
0.125
1001
ACAD_MLEADERVER
1070
     2
  0
MLINESTYLE
  5
A7CB
102
{ACAD_REACTORS
330
A7CA
102
}
330
A7CA
100
AcDbMlineStyle
  2
STANDARD
 70
     0
  3

 62
   256
 51
90.0
 52
90.0
 71
     2
 49
0.5
 62
   256
  6
BYLAYER
 49
-0.5
 62
   256
  6
BYLAYER
  0
ACDBPLACEHOLDER
  5
A997
102
{ACAD_REACTORS
330
A996
102
}
330
A996
  0
SCALE
  5
A9CE
102
{ACAD_REACTORS
330
A9CD
102
}
330
A9CD
100
AcDbScale
 70
     0
300
1:1
140
1.0
141
1.0
290
     1
  0
SCALE
  5
A9CF
102
{ACAD_REACTORS
330
A9CD
102
}
330
A9CD
100
AcDbScale
 70
     0
300
1/128" = 1'-0"
140
0.0078125
141
12.0
290
     0
  0
SCALE
  5
A9D0
102
{ACAD_REACTORS
330
A9CD
102
}
330
A9CD
100
AcDbScale
 70
     0
300
1/64" = 1'-0"
140
0.015625
141
12.0
290
     0
  0
SCALE
  5
A9D1
102
{ACAD_REACTORS
330
A9CD
102
}
330
A9CD
100
AcDbScale
 70
     0
300
1/32" = 1'-0"
140
0.03125
141
12.0
290
     0
  0
SCALE
  5
A9D2
102
{ACAD_REACTORS
330
A9CD
102
}
330
A9CD
100
AcDbScale
 70
     0
300
1/16" = 1'-0"
140
0.0625
141
12.0
290
     0
  0
SCALE
  5
A9D3
102
{ACAD_REACTORS
330
A9CD
102
}
330
A9CD
100
AcDbScale
 70
     0
300
3/32" = 1'-0"
140
0.09375
141
12.0
290
     0
  0
SCALE
  5
A9D4
102
{ACAD_REACTORS
330
A9CD
102
}
330
A9CD
100
AcDbScale
 70
     0
300
1/8" = 1'-0"
140
0.125
141
12.0
290
     0
  0
SCALE
  5
A9D5
102
{ACAD_REACTORS
330
A9CD
102
}
330
A9CD
100
AcDbScale
 70
     0
300
3/16" = 1'-0"
140
0.1875
141
12.0
290
     0
  0
SCALE
  5
A9D6
102
{ACAD_REACTORS
330
A9CD
102
}
330
A9CD
100
AcDbScale
 70
     0
300
1/4" = 1'-0"
140
0.25
141
12.0
290
     0
  0
SCALE
  5
A9D7
102
{ACAD_REACTORS
330
A9CD
102
}
330
A9CD
100
AcDbScale
 70
     0
300
3/8" = 1'-0"
140
0.375
141
12.0
290
     0
  0
SCALE
  5
A9D8
102
{ACAD_REACTORS
330
A9CD
102
}
330
A9CD
100
AcDbScale
 70
     0
300
1/2" = 1'-0"
140
0.5
141
12.0
290
     0
  0
SCALE
  5
A9D9
102
{ACAD_REACTORS
330
A9CD
102
}
330
A9CD
100
AcDbScale
 70
     0
300
3/4" = 1'-0"
140
0.75
141
12.0
290
     0
  0
SCALE
  5
A9DA
102
{ACAD_REACTORS
330
A9CD
102
}
330
A9CD
100
AcDbScale
 70
     0
300
1" = 1'-0"
140
1.0
141
12.0
290
     0
  0
SCALE
  5
A9DB
102
{ACAD_REACTORS
330
A9CD
102
}
330
A9CD
100
AcDbScale
 70
     0
300
1-1/2" = 1'-0"
140
1.5
141
12.0
290
     0
  0
SCALE
  5
A9DC
102
{ACAD_REACTORS
330
A9CD
102
}
330
A9CD
100
AcDbScale
 70
     0
300
3" = 1'-0"
140
3.0
141
12.0
290
     0
  0
SCALE
  5
A9DD
102
{ACAD_REACTORS
330
A9CD
102
}
330
A9CD
100
AcDbScale
 70
     0
300
6" = 1'-0"
140
6.0
141
12.0
290
     0
  0
SCALE
  5
A9DE
102
{ACAD_REACTORS
330
A9CD
102
}
330
A9CD
100
AcDbScale
 70
     0
300
1'-0" = 1'-0"
140
12.0
141
12.0
290
     0
  0
ACDBSECTIONVIEWSTYLE
  5
A9E2
102
{ACAD_XDICTIONARY
360
AA3D
102
}
102
{ACAD_REACTORS
330
A9E1
102
}
330
A9E1
100
AcDbModelDocViewStyle
 70
     0
  3
Imperial24
290
     0
100
AcDbSectionViewStyle
 70
     0
 71
     0
 90
       78
 71
     1
340
A7C5
 40
0.24
340
0
340
0
 40
0.24
300
I, O, Q, S, X, Z
 40
0.48
 90
        3
 40
0.18
 90
        1
 71
     2
340
A7C9
 90
       25
340
A7C9
 90
       50
 40
0.24
 40
0.0
 40
0.24
 71
     3
340
A7C5
 40
0.24
 90
        1
 40
0.75
 90
        1
300
%<\AcVar ViewType \f "%tc1">% %<\AcVar ViewSectionStartId>%-%<\AcVar ViewSectionEndId>%\PSCALE %<\AcVar ViewScale \f "%sn">%
 71
     4
300
ANSI31
 40
1.0
 90
        0
290
     0
290
     0
 90
        6
 40
0.0
 40
1.570796326794896
 40
0.2617993877991494
 40
1.308996938995747
 40
-0.2617993877991494
 40
1.832595714594046
  0
TABLESTYLE
  5
A9CC
102
{ACAD_XDICTIONARY
360
AA04
102
}
102
{ACAD_REACTORS
330
A9CB
102
}
330
A9CB
100
AcDbTableStyle
  3
Standard
 70
     0
 71
     0
 40
0.06
 41
0.06
280
     0
281
     0
  7
STANDARD
140
0.18
170
     2
 62
     0
 63
     7
283
     0
274
    -2
284
     1
 64
     0
275
    -2
285
     1
 65
     0
276
    -2
286
     1
 66
     0
277
    -2
287
     1
 67
     0
278
    -2
288
     1
 68
     0
279
    -2
289
     1
 69
     0
  7
STANDARD
140
0.25
170
     5
 62
     0
 63
     7
283
     0
274
    -2
284
     1
 64
     0
275
    -2
285
     1
 65
     0
276
    -2
286
     1
 66
     0
277
    -2
287
     1
 67
     0
278
    -2
288
     1
 68
     0
279
    -2
289
     1
 69
     0
  7
STANDARD
140
0.18
170
     5
 62
     0
 63
     7
283
     0
274
    -2
284
     1
 64
     0
275
    -2
285
     1
 65
     0
276
    -2
286
     1
 66
     0
277
    -2
287
     1
 67
     0
278
    -2
288
     1
 68
     0
279
    -2
289
     1
 69
     0
  0
VISUALSTYLE
  5
A9B7
102
{ACAD_XDICTIONARY
360
AA15
102
}
102
{ACAD_REACTORS
330
A9B1
102
}
330
A9B1
100
AcDbVisualStyle
  2
2dWireframe
 70
     4
 71
     0
 72
     2
 73
     0
 90
        0
 40
-0.6
 41
-30.0
 62
     5
 63
     7
 74
     1
 91
        4
 64
     7
 65
   257
 75
     1
175
     1
 42
1.0
 92
        0
 66
   257
 43
1.0
 76
     1
 77
     6
 78
     2
 67
     7
 79
     5
170
     0
171
     0
290
     0
174
     0
 93
        1
 44
0.0
173
     0
291
     0
 45
0.0
1001
ACAD
1000
AcDbSavedByObjectVersion
1070
     0
  0
VISUALSTYLE
  5
A9B6
102
{ACAD_XDICTIONARY
360
AA13
102
}
102
{ACAD_REACTORS
330
A9B1
102
}
330
A9B1
100
AcDbVisualStyle
  2
Basic
 70
     7
 71
     1
 72
     0
 73
     1
 90
        0
 40
-0.6
 41
-30.0
 62
     5
 63
     7
 74
     0
 91
        4
 64
     7
 65
   257
 75
     1
175
     1
 42
1.0
 92
        8
 66
     7
 43
1.0
 76
     1
 77
     6
 78
     2
 67
     7
 79
     5
170
     0
171
     0
290
     0
174
     0
 93
        1
 44
0.0
173
     0
291
     1
 45
0.0
1001
ACAD
1000
AcDbSavedByObjectVersion
1070
     0
  0
VISUALSTYLE
  5
A9BD
102
{ACAD_XDICTIONARY
360
AA21
102
}
102
{ACAD_REACTORS
330
A9B1
102
}
330
A9B1
100
AcDbVisualStyle
  2
Brighten
 70
    12
 71
     2
 72
     2
 73
     0
 90
        0
 40
-0.6
 41
-30.0
 62
     5
 63
     7
 74
     1
 91
        4
 64
     7
 65
   257
 75
     1
175
     1
 42
1.0
 92
        8
 66
     7
 43
1.0
 76
     1
 77
     6
 78
     2
 67
     7
 79
     5
170
     0
171
     0
290
     0
174
     0
 93
        1
 44
50.0
173
     0
291
     1
 45
0.0
1001
ACAD
1000
AcDbSavedByObjectVersion
1070
     0
  0
VISUALSTYLE
  5
A9C1
102
{ACAD_XDICTIONARY
360
AA29
102
}
102
{ACAD_REACTORS
330
A9B1
102
}
330
A9B1
100
AcDbVisualStyle
  2
ColorChange
 70
    16
 71
     2
 72
     2
 73
     3
 90
        0
 40
-0.6
 41
-30.0
 62
     5
 63
     8
 74
     1
 91
        4
 64
     7
 65
   257
 75
     1
175
     1
 42
1.0
 92
        8
 66
     8
 43
1.0
 76
     1
 77
     6
 78
     2
 67
     7
 79
     5
170
     0
171
     0
290
     0
174
     0
 93
        1
 44
0.0
173
     0
291
     1
 45
0.0
1001
ACAD
1000
AcDbSavedByObjectVersion
1070
     0
  0
VISUALSTYLE
  5
A9BA
102
{ACAD_XDICTIONARY
360
AA1B
102
}
102
{ACAD_REACTORS
330
A9B1
102
}
330
A9B1
100
AcDbVisualStyle
  2
Conceptual
 70
     9
 71
     3
 72
     2
 73
     0
 90
        0
 40
-0.6
 41
-30.0
 62
     5
 63
     7
 74
     2
 91
        2
 64
     7
 65
   257
 75
     1
175
     1
 42
179.0
 92
        8
 66
     7
 43
1.0
 76
     1
 77
     6
 78
     2
 67
     7
 79
     3
170
     0
171
     0
290
     0
174
     0
 93
        1
 44
0.0
173
     0
291
     0
 45
0.0
1001
ACAD
1000
AcDbSavedByObjectVersion
1070
     0
  0
VISUALSTYLE
  5
A9BC
102
{ACAD_XDICTIONARY
360
AA1F
102
}
102
{ACAD_REACTORS
330
A9B1
102
}
330
A9B1
100
AcDbVisualStyle
  2
Dim
 70
    11
 71
     2
 72
     2
 73
     0
 90
        0
 40
-0.6
 41
-30.0
 62
     5
 63
     7
 74
     1
 91
        4
 64
     7
 65
   257
 75
     1
175
     1
 42
1.0
 92
        8
 66
     7
 43
1.0
 76
     1
 77
     6
 78
     2
 67
     7
 79
     5
170
     0
171
     0
290
     0
174
     0
 93
        1
 44
-50.0
173
     0
291
     1
 45
0.0
1001
ACAD
1000
AcDbSavedByObjectVersion
1070
     0
  0
VISUALSTYLE
  5
A9C9
102
{ACAD_XDICTIONARY
360
AA39
102
}
102
{ACAD_REACTORS
330
A9B1
102
}
330
A9B1
100
AcDbVisualStyle
  2
EdgeColorOff
 70
    22
 71
     2
 72
     2
 73
     0
 90
        0
 40
-0.6
 41
-30.0
 62
     5
 63
     7
 74
     1
 91
        4
 64
     7
 65
   257
 75
     1
175
     1
 42
1.0
 92
        8
 66
     7
 43
1.0
 76
     1
 77
     6
 78
     2
 67
     7
 79
     5
170
     0
171
     0
290
     0
174
     0
 93
        1
 44
0.0
173
     0
291
     1
 45
0.0
1001
ACAD
1000
AcDbSavedByObjectVersion
1070
     0
  0
VISUALSTYLE
  5
A9C0
102
{ACAD_XDICTIONARY
360
AA27
102
}
102
{ACAD_REACTORS
330
A9B1
102
}
330
A9B1
100
AcDbVisualStyle
  2
Facepattern
 70
    15
 71
     2
 72
     2
 73
     0
 90
        0
 40
-0.6
 41
-30.0
 62
     5
 63
     7
 74
     1
 91
        4
 64
     7
 65
   257
 75
     1
175
     1
 42
1.0
 92
        8
 66
     7
 43
1.0
 76
     1
 77
     6
 78
     2
 67
     7
 79
     5
170
     0
171
     0
290
     0
174
     0
 93
        1
 44
0.0
173
     0
291
     1
 45
0.0
1001
ACAD
1000
AcDbSavedByObjectVersion
1070
     0
  0
VISUALSTYLE
  5
A9B2
102
{ACAD_XDICTIONARY
360
AA0B
102
}
102
{ACAD_REACTORS
330
A9B1
102
}
330
A9B1
100
AcDbVisualStyle
  2
Flat
 70
     0
 71
     2
 72
     1
 73
     1
 90
        2
 40
-0.6
 41
30.0
 62
     5
 63
     7
 74
     0
 91
        0
 64
     7
 65
   257
 75
     1
175
     1
 42
1.0
 92
        8
 66
     7
 43
1.0
 76
     1
 77
     6
 78
     2
 67
     7
 79
     5
170
     0
171
     0
290
     0
174
     0
 93
       13
 44
0.0
173
     0
291
     1
 45
0.0
1001
ACAD
1000
AcDbSavedByObjectVersion
1070
     0
  0
VISUALSTYLE
  5
A9B3
102
{ACAD_XDICTIONARY
360
AA0D
102
}
102
{ACAD_REACTORS
330
A9B1
102
}
330
A9B1
100
AcDbVisualStyle
  2
FlatWithEdges
 70
     1
 71
     2
 72
     1
 73
     1
 90
        2
 40
-0.6
 41
30.0
 62
     5
 63
     7
 74
     1
 91
        0
 64
     7
 65
   257
 75
     1
175
     1
 42
1.0
 92
        0
 66
   257
 43
1.0
 76
     1
 77
     6
 78
     2
 67
     7
 79
     5
170
     0
171
     0
290
     0
174
     0
 93
       13
 44
0.0
173
     0
291
     1
 45
0.0
1001
ACAD
1000
AcDbSavedByObjectVersion
1070
     0
  0
VISUALSTYLE
  5
A9B4
102
{ACAD_XDICTIONARY
360
AA0F
102
}
102
{ACAD_REACTORS
330
A9B1
102
}
330
A9B1
100
AcDbVisualStyle
  2
Gouraud
 70
     2
 71
     2
 72
     2
 73
     1
 90
        2
 40
-0.6
 41
30.0
 62
     5
 63
     7
 74
     0
 91
        0
 64
     7
 65
   257
 75
     1
175
     1
 42
1.0
 92
        0
 66
     7
 43
1.0
 76
     1
 77
     6
 78
     2
 67
     7
 79
     5
170
     0
171
     0
290
     0
174
     0
 93
       13
 44
0.0
173
     0
291
     1
 45
0.0
1001
ACAD
1000
AcDbSavedByObjectVersion
1070
     0
  0
VISUALSTYLE
  5
A9B5
102
{ACAD_XDICTIONARY
360
AA11
102
}
102
{ACAD_REACTORS
330
A9B1
102
}
330
A9B1
100
AcDbVisualStyle
  2
GouraudWithEdges
 70
     3
 71
     2
 72
     2
 73
     1
 90
        2
 40
-0.6
 41
30.0
 62
     5
 63
     7
 74
     1
 91
        0
 64
     7
 65
   257
 75
     1
175
     1
 42
1.0
 92
        0
 66
   257
 43
1.0
 76
     1
 77
     6
 78
     2
 67
     7
 79
     5
170
     0
171
     0
290
     0
174
     0
 93
       13
 44
0.0
173
     0
291
     1
 45
0.0
1001
ACAD
1000
AcDbSavedByObjectVersion
1070
     0
  0
VISUALSTYLE
  5
A9B9
102
{ACAD_XDICTIONARY
360
AA19
102
}
102
{ACAD_REACTORS
330
A9B1
102
}
330
A9B1
100
AcDbVisualStyle
  2
Hidden
 70
     6
 71
     1
 72
     2
 73
     2
 90
        0
 40
-0.6
 41
-30.0
 62
     5
 63
     7
 74
     2
 91
        2
 64
     7
 65
   257
 75
     2
175
     1
 42
40.0
 92
        0
 66
   257
 43
1.0
 76
     1
 77
     6
 78
     2
 67
     7
 79
     3
170
     0
171
     0
290
     0
174
     0
 93
        1
 44
0.0
173
     0
291
     0
 45
0.0
1001
ACAD
1000
AcDbSavedByObjectVersion
1070
     0
  0
VISUALSTYLE
  5
A9C7
102
{ACAD_XDICTIONARY
360
AA35
102
}
102
{ACAD_REACTORS
330
A9B1
102
}
330
A9B1
100
AcDbVisualStyle
  2
JitterOff
 70
    20
 71
     2
 72
     2
 73
     0
 90
        0
 40
-0.6
 41
-30.0
 62
     5
 63
     7
 74
     1
 91
        4
 64
     7
 65
   257
 75
     1
175
     1
 42
1.0
 92
       10
 66
     7
 43
1.0
 76
     1
 77
     6
 78
     2
 67
     7
 79
     5
170
     0
171
     0
290
     0
174
     0
 93
        1
 44
0.0
173
     0
291
     1
 45
0.0
1001
ACAD
1000
AcDbSavedByObjectVersion
1070
     0
  0
VISUALSTYLE
  5
A9BF
102
{ACAD_XDICTIONARY
360
AA25
102
}
102
{ACAD_REACTORS
330
A9B1
102
}
330
A9B1
100
AcDbVisualStyle
  2
Linepattern
 70
    14
 71
     2
 72
     2
 73
     0
 90
        0
 40
-0.6
 41
-30.0
 62
     5
 63
     7
 74
     1
 91
        4
 64
     7
 65
   257
 75
     7
175
     7
 42
1.0
 92
        8
 66
     7
 43
1.0
 76
     1
 77
     6
 78
     2
 67
     7
 79
     5
170
     0
171
     0
290
     0
174
     0
 93
        1
 44
0.0
173
     0
291
     1
 45
0.0
1001
ACAD
1000
AcDbSavedByObjectVersion
1070
     0
  0
VISUALSTYLE
  5
A9C8
102
{ACAD_XDICTIONARY
360
AA37
102
}
102
{ACAD_REACTORS
330
A9B1
102
}
330
A9B1
100
AcDbVisualStyle
  2
OverhangOff
 70
    21
 71
     2
 72
     2
 73
     0
 90
        0
 40
-0.6
 41
-30.0
 62
     5
 63
     7
 74
     1
 91
        4
 64
     7
 65
   257
 75
     1
175
     1
 42
1.0
 92
        9
 66
     7
 43
1.0
 76
     1
 77
     6
 78
     2
 67
     7
 79
     5
170
     0
171
     0
290
     0
174
     0
 93
        1
 44
0.0
173
     0
291
     1
 45
0.0
1001
ACAD
1000
AcDbSavedByObjectVersion
1070
     0
  0
VISUALSTYLE
  5
A9BB
102
{ACAD_XDICTIONARY
360
AA1D
102
}
102
{ACAD_REACTORS
330
A9B1
102
}
330
A9B1
100
AcDbVisualStyle
  2
Realistic
 70
     8
 71
     2
 72
     3
 73
     0
 90
        2
 40
-0.6
 41
30.0
 62
     5
 63
     7
 74
     0
 91
        0
 64
     7
 65
   257
 75
     1
175
     1
 42
1.0
 92
        8
 66
   257
 43
1.0
 76
     1
 77
     6
 78
     2
 67
     7
 79
     3
170
     0
171
     0
290
     0
174
     0
 93
       13
 44
0.0
173
     0
291
     0
 45
0.0
1001
ACAD
1000
AcDbSavedByObjectVersion
1070
     0
  0
VISUALSTYLE
  5
A9C6
102
{ACAD_XDICTIONARY
360
AA33
102
}
102
{ACAD_REACTORS
330
A9B1
102
}
330
A9B1
100
AcDbVisualStyle
  2
Shaded
 70
    27
 71
     2
 72
     2
 73
     1
 90
        2
 40
-0.6
 41
30.0
 62
     5
 63
     7
 74
     0
 91
        4
 64
     7
 65
   257
 75
     1
175
     1
 42
1.0
 92
        8
 66
   257
 43
1.0
 76
     1
 77
     6
 78
     2
 67
     8
 79
     3
170
     0
171
     0
290
     0
174
     0
 93
        5
 44
0.0
173
     0
291
     0
 45
0.0
1001
ACAD
1000
AcDbSavedByObjectVersion
1070
     0
  0
VISUALSTYLE
  5
A9C5
102
{ACAD_XDICTIONARY
360
AA31
102
}
102
{ACAD_REACTORS
330
A9B1
102
}
330
A9B1
100
AcDbVisualStyle
  2
Shaded with edges
 70
    26
 71
     2
 72
     2
 73
     1
 90
        2
 40
-0.6
 41
30.0
 62
     5
 63
     7
 74
     1
 91
       10
 64
     7
 65
   257
 75
     2
175
     1
 42
1.0
 92
        8
 66
   257
 43
1.0
 76
     1
 77
     6
 78
     2
 67
     7
 79
     3
170
     0
171
     0
290
     0
174
     0
 93
        5
 44
0.0
173
     0
291
     0
 45
0.0
1001
ACAD
1000
AcDbSavedByObjectVersion
1070
     0
  0
VISUALSTYLE
  5
A9C2
102
{ACAD_XDICTIONARY
360
AA2B
102
}
102
{ACAD_REACTORS
330
A9B1
102
}
330
A9B1
100
AcDbVisualStyle
  2
Shades of Gray
 70
    23
 71
     2
 72
     2
 73
     3
 90
        0
 40
-0.6
 41
-30.0
 62
     5
 63
     7
 74
     2
 91
        2
 64
     7
 65
     7
 75
     1
175
     1
 42
40.0
 92
        8
 66
     7
 43
1.0
 76
     1
 77
     6
 78
     2
 67
     7
 79
     3
170
     0
171
     0
290
     0
174
     0
 93
        1
 44
0.0
173
     0
291
     0
 45
0.0
1001
ACAD
1000
AcDbSavedByObjectVersion
1070
     0
  0
VISUALSTYLE
  5
A9C3
102
{ACAD_XDICTIONARY
360
AA2D
102
}
102
{ACAD_REACTORS
330
A9B1
102
}
330
A9B1
100
AcDbVisualStyle
  2
Sketchy
 70
    24
 71
     1
 72
     2
 73
     2
 90
        0
 40
-0.6
 41
-30.0
 62
     5
 63
     7
 74
     2
 91
        2
 64
     7
 65
     7
 75
     1
175
     1
 42
40.0
 92
       11
 66
     7
 43
1.0
 76
     1
 77
     6
 78
     2
 67
     7
 79
     6
170
     0
171
     0
290
     0
174
     0
 93
        1
 44
0.0
173
     0
291
     0
 45
0.0
1001
ACAD
1000
AcDbSavedByObjectVersion
1070
     0
  0
VISUALSTYLE
  5
A9BE
102
{ACAD_XDICTIONARY
360
AA23
102
}
102
{ACAD_REACTORS
330
A9B1
102
}
330
A9B1
100
AcDbVisualStyle
  2
Thicken
 70
    13
 71
     2
 72
     2
 73
     0
 90
        0
 40
-0.6
 41
-30.0
 62
     5
 63
     7
 74
     1
 91
        4
 64
     7
 65
   257
 75
     1
175
     1
 42
1.0
 92
       12
 66
     7
 43
1.0
 76
     1
 77
     6
 78
     2
 67
     7
 79
     5
170
     0
171
     0
290
     0
174
     0
 93
        1
 44
0.0
173
     0
291
     1
 45
0.0
1001
ACAD
1000
AcDbSavedByObjectVersion
1070
     0
  0
VISUALSTYLE
  5
A9B8
102
{ACAD_XDICTIONARY
360
AA17
102
}
102
{ACAD_REACTORS
330
A9B1
102
}
330
A9B1
100
AcDbVisualStyle
  2
Wireframe
 70
     5
 71
     0
 72
     2
 73
     0
 90
        0
 40
-0.6
 41
-30.0
 62
     5
 63
     7
 74
     1
 91
        4
 64
     7
 65
   257
 75
     1
175
     1
 42
1.0
 92
        0
 66
   257
 43
1.0
 76
     1
 77
     6
 78
     2
 67
     7
 79
     3
170
     0
171
     0
290
     0
174
     0
 93
        1
 44
0.0
173
     0
291
     0
 45
0.0
1001
ACAD
1000
AcDbSavedByObjectVersion
1070
     0
  0
VISUALSTYLE
  5
A9C4
102
{ACAD_XDICTIONARY
360
AA2F
102
}
102
{ACAD_REACTORS
330
A9B1
102
}
330
A9B1
100
AcDbVisualStyle
  2
X-Ray
 70
    25
 71
     2
 72
     2
 73
     1
 90
        1
 40
0.5
 41
-30.0
 62
     5
 63
     7
 74
     1
 91
        0
 64
     7
 65
   257
 75
     1
175
     1
 42
1.0
 92
        8
 66
     7
 43
1.0
 76
     1
 77
     6
 78
     2
 67
     7
 79
     3
170
     0
171
     0
290
     0
174
     0
 93
       13
 44
0.0
173
     0
291
     0
 45
0.0
1001
ACAD
1000
AcDbSavedByObjectVersion
1070
     0
  0
DICTIONARYVAR
  5
A9FE
102
{ACAD_REACTORS
330
A9F9
102
}
330
A9F9
100
DictionaryVariables
280
     0
  1
1:1
  0
DICTIONARYVAR
  5
A9FB
102
{ACAD_REACTORS
330
A9F9
102
}
330
A9F9
100
DictionaryVariables
280
     0
  1
STANDARD
  0
DICTIONARYVAR
  5
A9FA
102
{ACAD_REACTORS
330
A9F9
102
}
330
A9F9
100
DictionaryVariables
280
     0
  1
STANDARD
  0
DICTIONARYVAR
  5
A9FC
102
{ACAD_REACTORS
330
A9F9
102
}
330
A9F9
100
DictionaryVariables
280
     0
  1
Imperial24
  0
DICTIONARYVAR
  5
A9FD
102
{ACAD_REACTORS
330
A9F9
102
}
330
A9F9
100
DictionaryVariables
280
     0
  1
Imperial24
  0
DICTIONARYVAR
  5
AA01
102
{ACAD_REACTORS
330
A9F9
102
}
330
A9F9
100
DictionaryVariables
280
     0
  1
1
  0
DICTIONARYVAR
  5
AA00
102
{ACAD_REACTORS
330
A9F9
102
}
330
A9F9
100
DictionaryVariables
280
     0
  1
0
  0
DICTIONARYVAR
  5
A9FF
102
{ACAD_REACTORS
330
A9F9
102
}
330
A9F9
100
DictionaryVariables
280
     0
  1
127
  0
DICTIONARYVAR
  5
AA02
102
{ACAD_REACTORS
330
A9F9
102
}
330
A9F9
100
DictionaryVariables
280
     0
  1
2
  0
DICTIONARY
  5
AA3F
330
A9E4
100
AcDbDictionary
280
     1
281
     1
  3
ACAD_XREC_ROUNDTRIP
360
AA40
  0
DICTIONARY
  5
AA41
330
A9E5
100
AcDbDictionary
280
     1
281
     1
  3
ACAD_XREC_ROUNDTRIP
360
AA42
  0
DICTIONARY
  5
AA43
330
A9E6
100
AcDbDictionary
280
     1
281
     1
  3
ACAD_XREC_ROUNDTRIP
360
AA44
  0
DICTIONARY
  5
A9A2
330
A9A1
100
AcDbDictionary
280
     1
281
     1
  3
ACAD_XREC_ROUNDTRIP
360
AA09
  3
BUMPTILE
360
A9A4
  3
DIFFUSETILE
360
A9A3
  3
OPACITYTILE
360
A9A7
  3
REFLECTIONTILE
360
A9A6
  3
REFRACTIONTILE
360
A9A8
  3
SPECULARTILE
360
A9A5
  0
DICTIONARY
  5
A99A
330
A999
100
AcDbDictionary
280
     1
281
     1
  3
ACAD_XREC_ROUNDTRIP
360
AA08
  3
BUMPTILE
360
A99C
  3
DIFFUSETILE
360
A99B
  3
OPACITYTILE
360
A99F
  3
REFLECTIONTILE
360
A99E
  3
REFRACTIONTILE
360
A9A0
  3
SPECULARTILE
360
A99D
  0
DICTIONARY
  5
A9AA
330
A9A9
100
AcDbDictionary
280
     1
281
     1
  3
ACAD_XREC_ROUNDTRIP
360
AA0A
  3
BUMPTILE
360
A9AC
  3
DIFFUSETILE
360
A9AB
  3
OPACITYTILE
360
A9AF
  3
REFLECTIONTILE
360
A9AE
  3
REFRACTIONTILE
360
A9B0
  3
SPECULARTILE
360
A9AD
  0
DICTIONARY
  5
AA3D
330
A9E2
100
AcDbDictionary
280
     1
281
     1
  3
ACAD_XREC_ROUNDTRIP
360
AA3E
  0
DICTIONARY
  5
AA04
330
A9CC
100
AcDbDictionary
280
     1
281
     1
  3
ACAD_ROUNDTRIP_2008_TABLESTYLE_CELLSTYLEMAP
360
AA05
  3
ACAD_XREC_ROUNDTRIP
360
AA3B
  0
DICTIONARY
  5
AA15
330
A9B7
100
AcDbDictionary
280
     1
281
     1
  3
ACAD_XREC_ROUNDTRIP
360
AA16
  0
DICTIONARY
  5
AA13
330
A9B6
100
AcDbDictionary
280
     1
281
     1
  3
ACAD_XREC_ROUNDTRIP
360
AA14
  0
DICTIONARY
  5
AA21
330
A9BD
100
AcDbDictionary
280
     1
281
     1
  3
ACAD_XREC_ROUNDTRIP
360
AA22
  0
DICTIONARY
  5
AA29
330
A9C1
100
AcDbDictionary
280
     1
281
     1
  3
ACAD_XREC_ROUNDTRIP
360
AA2A
  0
DICTIONARY
  5
AA1B
330
A9BA
100
AcDbDictionary
280
     1
281
     1
  3
ACAD_XREC_ROUNDTRIP
360
AA1C
  0
DICTIONARY
  5
AA1F
330
A9BC
100
AcDbDictionary
280
     1
281
     1
  3
ACAD_XREC_ROUNDTRIP
360
AA20
  0
DICTIONARY
  5
AA39
330
A9C9
100
AcDbDictionary
280
     1
281
     1
  3
ACAD_XREC_ROUNDTRIP
360
AA3A
  0
DICTIONARY
  5
AA27
330
A9C0
100
AcDbDictionary
280
     1
281
     1
  3
ACAD_XREC_ROUNDTRIP
360
AA28
  0
DICTIONARY
  5
AA0B
330
A9B2
100
AcDbDictionary
280
     1
281
     1
  3
ACAD_XREC_ROUNDTRIP
360
AA0C
  0
DICTIONARY
  5
AA0D
330
A9B3
100
AcDbDictionary
280
     1
281
     1
  3
ACAD_XREC_ROUNDTRIP
360
AA0E
  0
DICTIONARY
  5
AA0F
330
A9B4
100
AcDbDictionary
280
     1
281
     1
  3
ACAD_XREC_ROUNDTRIP
360
AA10
  0
DICTIONARY
  5
AA11
330
A9B5
100
AcDbDictionary
280
     1
281
     1
  3
ACAD_XREC_ROUNDTRIP
360
AA12
  0
DICTIONARY
  5
AA19
330
A9B9
100
AcDbDictionary
280
     1
281
     1
  3
ACAD_XREC_ROUNDTRIP
360
AA1A
  0
DICTIONARY
  5
AA35
330
A9C7
100
AcDbDictionary
280
     1
281
     1
  3
ACAD_XREC_ROUNDTRIP
360
AA36
  0
DICTIONARY
  5
AA25
330
A9BF
100
AcDbDictionary
280
     1
281
     1
  3
ACAD_XREC_ROUNDTRIP
360
AA26
  0
DICTIONARY
  5
AA37
330
A9C8
100
AcDbDictionary
280
     1
281
     1
  3
ACAD_XREC_ROUNDTRIP
360
AA38
  0
DICTIONARY
  5
AA1D
330
A9BB
100
AcDbDictionary
280
     1
281
     1
  3
ACAD_XREC_ROUNDTRIP
360
AA1E
  0
DICTIONARY
  5
AA33
330
A9C6
100
AcDbDictionary
280
     1
281
     1
  3
ACAD_XREC_ROUNDTRIP
360
AA34
  0
DICTIONARY
  5
AA31
330
A9C5
100
AcDbDictionary
280
     1
281
     1
  3
ACAD_XREC_ROUNDTRIP
360
AA32
  0
DICTIONARY
  5
AA2B
330
A9C2
100
AcDbDictionary
280
     1
281
     1
  3
ACAD_XREC_ROUNDTRIP
360
AA2C
  0
DICTIONARY
  5
AA2D
330
A9C3
100
AcDbDictionary
280
     1
281
     1
  3
ACAD_XREC_ROUNDTRIP
360
AA2E
  0
DICTIONARY
  5
AA23
330
A9BE
100
AcDbDictionary
280
     1
281
     1
  3
ACAD_XREC_ROUNDTRIP
360
AA24
  0
DICTIONARY
  5
AA17
330
A9B8
100
AcDbDictionary
280
     1
281
     1
  3
ACAD_XREC_ROUNDTRIP
360
AA18
  0
DICTIONARY
  5
AA2F
330
A9C4
100
AcDbDictionary
280
     1
281
     1
  3
ACAD_XREC_ROUNDTRIP
360
AA30
  0
XRECORD
  5
AA40
102
{ACAD_REACTORS
330
AA3F
102
}
330
AA3F
100
AcDbXrecord
280
     1
102
DISPLAYNAME
  1
Imperial24
102
FLAGS
 90
        0
  0
XRECORD
  5
AA42
102
{ACAD_REACTORS
330
AA41
102
}
330
AA41
100
AcDbXrecord
280
     1
102
SHADEPLOT
 70
     0
102
SHADEPLOTRESLEVEL
 70
     2
102
SHADEPLOTCUSTOMDPI
 70
   300
  0
XRECORD
  5
AA44
102
{ACAD_REACTORS
330
AA43
102
}
330
AA43
100
AcDbXrecord
280
     1
102
SHADEPLOT
 70
     0
102
SHADEPLOTRESLEVEL
 70
     2
102
SHADEPLOTCUSTOMDPI
 70
   300
  0
XRECORD
  5
AA09
102
{ACAD_REACTORS
330
A9A2
102
}
330
A9A2
100
AcDbXrecord
280
     1
102
MATERIAL
148
0.0
149
0.0
149
0.0
 93
        0
 94
      127
282
     0
 72
     0
 77
     0
171
     0
175
     0
179
     0
273
     0
  0
XRECORD
  5
A9A4
102
{ACAD_REACTORS
330
A9A2
102
}
330
A9A2
100
AcDbXrecord
280
     1
270
     1
271
     1
  0
XRECORD
  5
A9A3
102
{ACAD_REACTORS
330
A9A2
102
}
330
A9A2
100
AcDbXrecord
280
     1
270
     1
271
     1
  0
XRECORD
  5
A9A7
102
{ACAD_REACTORS
330
A9A2
102
}
330
A9A2
100
AcDbXrecord
280
     1
270
     1
271
     1
  0
XRECORD
  5
A9A6
102
{ACAD_REACTORS
330
A9A2
102
}
330
A9A2
100
AcDbXrecord
280
     1
270
     1
271
     1
  0
XRECORD
  5
A9A8
102
{ACAD_REACTORS
330
A9A2
102
}
330
A9A2
100
AcDbXrecord
280
     1
270
     1
271
     1
  0
XRECORD
  5
A9A5
102
{ACAD_REACTORS
330
A9A2
102
}
330
A9A2
100
AcDbXrecord
280
     1
270
     1
271
     1
  0
XRECORD
  5
AA08
102
{ACAD_REACTORS
330
A99A
102
}
330
A99A
100
AcDbXrecord
280
     1
102
MATERIAL
148
0.0
149
0.0
149
0.0
 93
        0
 94
      127
282
     0
 72
     0
 77
     0
171
     0
175
     0
179
     0
273
     0
  0
XRECORD
  5
A99C
102
{ACAD_REACTORS
330
A99A
102
}
330
A99A
100
AcDbXrecord
280
     1
270
     1
271
     1
  0
XRECORD
  5
A99B
102
{ACAD_REACTORS
330
A99A
102
}
330
A99A
100
AcDbXrecord
280
     1
270
     1
271
     1
  0
XRECORD
  5
A99F
102
{ACAD_REACTORS
330
A99A
102
}
330
A99A
100
AcDbXrecord
280
     1
270
     1
271
     1
  0
XRECORD
  5
A99E
102
{ACAD_REACTORS
330
A99A
102
}
330
A99A
100
AcDbXrecord
280
     1
270
     1
271
     1
  0
XRECORD
  5
A9A0
102
{ACAD_REACTORS
330
A99A
102
}
330
A99A
100
AcDbXrecord
280
     1
270
     1
271
     1
  0
XRECORD
  5
A99D
102
{ACAD_REACTORS
330
A99A
102
}
330
A99A
100
AcDbXrecord
280
     1
270
     1
271
     1
  0
XRECORD
  5
AA0A
102
{ACAD_REACTORS
330
A9AA
102
}
330
A9AA
100
AcDbXrecord
280
     1
102
MATERIAL
148
0.0
149
0.0
149
0.0
 93
        0
 94
      127
282
     0
 72
     0
 77
     0
171
     0
175
     0
179
     0
273
     0
  0
XRECORD
  5
A9AC
102
{ACAD_REACTORS
330
A9AA
102
}
330
A9AA
100
AcDbXrecord
280
     1
270
     1
271
     1
  0
XRECORD
  5
A9AB
102
{ACAD_REACTORS
330
A9AA
102
}
330
A9AA
100
AcDbXrecord
280
     1
270
     1
271
     1
  0
XRECORD
  5
A9AF
102
{ACAD_REACTORS
330
A9AA
102
}
330
A9AA
100
AcDbXrecord
280
     1
270
     1
271
     1
  0
XRECORD
  5
A9AE
102
{ACAD_REACTORS
330
A9AA
102
}
330
A9AA
100
AcDbXrecord
280
     1
270
     1
271
     1
  0
XRECORD
  5
A9B0
102
{ACAD_REACTORS
330
A9AA
102
}
330
A9AA
100
AcDbXrecord
280
     1
270
     1
271
     1
  0
XRECORD
  5
A9AD
102
{ACAD_REACTORS
330
A9AA
102
}
330
A9AA
100
AcDbXrecord
280
     1
270
     1
271
     1
  0
XRECORD
  5
AA3E
102
{ACAD_REACTORS
330
AA3D
102
}
330
AA3D
100
AcDbXrecord
280
     1
102
DISPLAYNAME
  1
Imperial24
102
FLAGS
 90
        0
  0
CELLSTYLEMAP
  5
AA05
102
{ACAD_REACTORS
330
AA04
102
}
330
AA04
100
AcDbCellStyleMap
 90
        3
300
CELLSTYLE
  1
TABLEFORMAT_BEGIN
 90
        5
170
     1
 91
        0
 92
    32768
 62
   257
 93
        1
300
CONTENTFORMAT
  1
CONTENTFORMAT_BEGIN
 90
        0
 91
        0
 92
      512
 93
        0
300

 40
0.0
140
1.0
 94
        5
 62
     0
340
A7C5
144
0.25
309
CONTENTFORMAT_END
171
     0
 94
        0
309
TABLEFORMAT_END
  1
CELLSTYLE_BEGIN
 90
        1
 91
        1
300
_TITLE
309
CELLSTYLE_END
300
CELLSTYLE
  1
TABLEFORMAT_BEGIN
 90
        5
170
     1
 91
        0
 92
        0
 62
   257
 93
        1
300
CONTENTFORMAT
  1
CONTENTFORMAT_BEGIN
 90
        0
 91
        0
 92
      512
 93
        0
300

 40
0.0
140
1.0
 94
        5
 62
     0
340
A7C5
144
0.18
309
CONTENTFORMAT_END
171
     0
 94
        0
309
TABLEFORMAT_END
  1
CELLSTYLE_BEGIN
 90
        2
 91
        1
300
_HEADER
309
CELLSTYLE_END
300
CELLSTYLE
  1
TABLEFORMAT_BEGIN
 90
        5
170
     1
 91
        0
 92
        0
 62
   257
 93
        1
300
CONTENTFORMAT
  1
CONTENTFORMAT_BEGIN
 90
        0
 91
        0
 92
      512
 93
        0
300

 40
0.0
140
1.0
 94
        2
 62
     0
340
A7C5
144
0.18
309
CONTENTFORMAT_END
171
     0
 94
        0
309
TABLEFORMAT_END
  1
CELLSTYLE_BEGIN
 90
        3
 91
        2
300
_DATA
309
CELLSTYLE_END
  0
XRECORD
  5
AA3B
102
{ACAD_REACTORS
330
AA04
102
}
330
AA04
100
AcDbXrecord
280
     1
102
ACAD_ROUNDTRIP_PRE2007_TABLESTYLE
 90
      512
 91
        0
  1

 92
      512
 93
        0
  2

 94
      512
 95
        0
  3

  0
XRECORD
  5
AA16
102
{ACAD_REACTORS
330
AA15
102
}
330
AA15
100
AcDbXrecord
280
     1
102
RTVSPost2010Prop28
280
     1
102
RTVSPost2010PropOp28
 70
     1
102
RTVSPost2010Prop29
280
     1
102
RTVSPost2010PropOp29
 70
     1
102
RTVSPost2010Prop30
280
     0
102
RTVSPost2010PropOp30
 70
     1
102
RTVSPost2010Prop31
280
     0
102
RTVSPost2010PropOp31
 70
     1
102
RTVSPost2010Prop32
280
     0
102
RTVSPost2010PropOp32
 70
     1
102
RTVSPost2010Prop33
280
     0
102
RTVSPost2010PropOp33
 70
     1
102
RTVSPost2010Prop34
280
     0
102
RTVSPost2010PropOp34
 70
     1
102
RTVSPost2010Prop35
280
     0
102
RTVSPost2010PropOp35
 70
     1
102
RTVSPost2010Prop36
280
     0
102
RTVSPost2010PropOp36
 70
     1
102
RTVSPost2010Prop37
 90
       50
102
RTVSPost2010PropOp37
 70
     1
102
RTVSPost2010Prop38
140
0.0
102
RTVSPost2010PropOp38
 70
     1
102
RTVSPost2010Prop39
140
1.0
102
RTVSPost2010PropOp39
 70
     1
102
RTVSPost2010Prop40
 90
        0
102
RTVSPost2010PropOp40
 70
     1
102
RTVSPost2010Prop41ColorIndex
 90
       18
102
RTVSPost2010Prop41ColorRGB
 90
        0
102
RTVSPost2010PropOp41
 70
     1
102
RTVSPost2010Prop42
 90
       50
102
RTVSPost2010PropOp42
 70
     1
102
RTVSPost2010Prop43
 90
        3
102
RTVSPost2010PropOp43
 70
     1
102
RTVSPost2010Prop44ColorIndex
 90
        5
102
RTVSPost2010Prop44ColorRGB
 90
      255
102
RTVSPost2010PropOp44
 70
     1
102
RTVSPost2010Prop45
280
     0
102
RTVSPost2010PropOp45
 70
     1
102
RTVSPost2010Prop46
 90
       50
102
RTVSPost2010PropOp46
 70
     1
102
RTVSPost2010Prop47
 90
       50
102
RTVSPost2010PropOp47
 70
     1
102
RTVSPost2010Prop48
 90
       50
102
RTVSPost2010PropOp48
 70
     1
102
RTVSPost2010Prop49
280
     0
102
RTVSPost2010PropOp49
 70
     1
102
RTVSPost2010Prop50
 90
       50
102
RTVSPost2010PropOp50
 70
     1
102
RTVSPost2010Prop51ColorIndex
 90
      256
102
RTVSPost2010Prop51ColorRGB
 90
-16777216
102
RTVSPost2010PropOp51
 70
     0
102
RTVSPost2010Prop52
140
1.0
102
RTVSPost2010PropOp52
 70
     0
102
RTVSPost2010Prop53
 90
        2
102
RTVSPost2010PropOp53
 70
     1
102
RTVSPost2010Prop54
  1
strokes_ogs.tif
102
RTVSPost2010PropOp54
 70
     1
102
RTVSPost2010Prop55
280
     0
102
RTVSPost2010PropOp55
 70
     1
102
RTVSPost2010Prop56
140
1.0
102
RTVSPost2010PropOp56
 70
     1
102
RTVSPost2010Prop57
140
1.0
102
RTVSPost2010PropOp57
 70
     1
102
RTVSPropertyOp0
 70
     1
102
RTVSPropertyOp1
 70
     1
102
RTVSPropertyOp2
 70
     1
102
RTVSPropertyOp3
 70
     1
102
RTVSPropertyOp4
 70
     1
102
RTVSPropertyOp5
 70
     1
102
RTVSPropertyOp6
 70
     1
102
RTVSPropertyOp7
 70
     1
102
RTVSPropertyOp8
 70
     1
102
RTVSPropertyOp9
 70
     1
102
RTVSPropertyOp10
 70
     1
102
RTVSPropertyOp11
 70
     1
102
RTVSPropertyOp12
 70
     1
102
RTVSPropertyOp13
 70
     1
102
RTVSPropertyOp14
 70
     1
102
RTVSPropertyOp15
 70
     1
102
RTVSPropertyOp16
 70
     1
102
RTVSPropertyOp17
 70
     1
102
RTVSPropertyOp18
 70
     1
102
RTVSPropertyOp19
 70
     1
102
RTVSPropertyOp20
 70
     1
102
RTVSPropertyOp21
 70
     1
102
RTVSPropertyOp22
 70
     1
102
RTVSPropertyOp23
 70
     1
102
RTVSPropertyOp24
 70
     1
102
RTVSPropertyOp25
 70
     1
102
RTVSPropertyOp26
 70
     1
102
RTVSPropertyOp27
 70
     1
102
RTVSPropertyOp28
 70
     1
102
RTVSPropertyOp29
 70
     1
102
RTVSPropertyOp30
 70
     1
102
RTVSPropertyOp31
 70
     1
102
RTVSPropertyOp32
 70
     1
102
RTVSPropertyOp33
 70
     1
102
RTVSPropertyOp34
 70
     1
102
RTVSPropertyOp35
 70
     1
102
RTVSPropertyOp36
 70
     1
102
RTVSPropertyOp37
 70
     1
102
RTVSPropertyOp38
 70
     1
102
RTVSPropertyOp39
 70
     1
102
RTVSPropertyOp40
 70
     1
102
RTVSPropertyOp41
 70
     1
102
RTVSPropertyOp42
 70
     1
102
RTVSPropertyOp43
 70
     1
102
RTVSPropertyOp44
 70
     1
102
RTVSPropertyOp45
 70
     1
102
RTVSPropertyOp46
 70
     1
102
RTVSPropertyOp47
 70
     1
102
RTVSPropertyOp48
 70
     1
102
RTVSPropertyOp49
 70
     1
102
RTVSPropertyOp50
 70
     1
102
RTVSPropertyOp51
 70
     0
102
RTVSPropertyOp52
 70
     0
102
RTVSPropertyOp53
 70
     1
102
RTVSPropertyOp54
 70
     1
102
RTVSPropertyOp55
 70
     1
102
RTVSPropertyOp56
 70
     1
102
RTVSPropertyOp57
 70
     1
102
RTVSPropertyOp58
 70
     1
102
RTVSPropertyOp59
 70
     1
102
RTVSPropertyOp60
 70
     1
102
RTVSPropertyOp61
 70
     1
102
RTVSPropertyOp62
 70
     1
  0
XRECORD
  5
AA14
102
{ACAD_REACTORS
330
AA13
102
}
330
AA13
100
AcDbXrecord
280
     1
102
RTVSPost2010Prop28
280
     0
102
RTVSPost2010PropOp28
 70
     1
102
RTVSPost2010Prop29
280
     1
102
RTVSPost2010PropOp29
 70
     1
102
RTVSPost2010Prop30
280
     1
102
RTVSPost2010PropOp30
 70
     1
102
RTVSPost2010Prop31
280
     0
102
RTVSPost2010PropOp31
 70
     1
102
RTVSPost2010Prop32
280
     0
102
RTVSPost2010PropOp32
 70
     1
102
RTVSPost2010Prop33
280
     0
102
RTVSPost2010PropOp33
 70
     1
102
RTVSPost2010Prop34
280
     0
102
RTVSPost2010PropOp34
 70
     1
102
RTVSPost2010Prop35
280
     0
102
RTVSPost2010PropOp35
 70
     1
102
RTVSPost2010Prop36
280
     0
102
RTVSPost2010PropOp36
 70
     1
102
RTVSPost2010Prop37
 90
       50
102
RTVSPost2010PropOp37
 70
     1
102
RTVSPost2010Prop38
140
0.0
102
RTVSPost2010PropOp38
 70
     1
102
RTVSPost2010Prop39
140
1.0
102
RTVSPost2010PropOp39
 70
     1
102
RTVSPost2010Prop40
 90
        0
102
RTVSPost2010PropOp40
 70
     1
102
RTVSPost2010Prop41ColorIndex
 90
       18
102
RTVSPost2010Prop41ColorRGB
 90
        0
102
RTVSPost2010PropOp41
 70
     1
102
RTVSPost2010Prop42
 90
       50
102
RTVSPost2010PropOp42
 70
     1
102
RTVSPost2010Prop43
 90
        3
102
RTVSPost2010PropOp43
 70
     1
102
RTVSPost2010Prop44ColorIndex
 90
        5
102
RTVSPost2010Prop44ColorRGB
 90
      255
102
RTVSPost2010PropOp44
 70
     1
102
RTVSPost2010Prop45
280
     0
102
RTVSPost2010PropOp45
 70
     1
102
RTVSPost2010Prop46
 90
       50
102
RTVSPost2010PropOp46
 70
     1
102
RTVSPost2010Prop47
 90
       50
102
RTVSPost2010PropOp47
 70
     1
102
RTVSPost2010Prop48
 90
       50
102
RTVSPost2010PropOp48
 70
     1
102
RTVSPost2010Prop49
280
     0
102
RTVSPost2010PropOp49
 70
     1
102
RTVSPost2010Prop50
 90
       50
102
RTVSPost2010PropOp50
 70
     1
102
RTVSPost2010Prop51ColorIndex
 90
      256
102
RTVSPost2010Prop51ColorRGB
 90
-16777216
102
RTVSPost2010PropOp51
 70
     0
102
RTVSPost2010Prop52
140
1.0
102
RTVSPost2010PropOp52
 70
     0
102
RTVSPost2010Prop53
 90
        2
102
RTVSPost2010PropOp53
 70
     1
102
RTVSPost2010Prop54
  1
strokes_ogs.tif
102
RTVSPost2010PropOp54
 70
     1
102
RTVSPost2010Prop55
280
     0
102
RTVSPost2010PropOp55
 70
     1
102
RTVSPost2010Prop56
140
1.0
102
RTVSPost2010PropOp56
 70
     1
102
RTVSPost2010Prop57
140
1.0
102
RTVSPost2010PropOp57
 70
     1
102
RTVSPropertyOp0
 70
     1
102
RTVSPropertyOp1
 70
     1
102
RTVSPropertyOp2
 70
     1
102
RTVSPropertyOp3
 70
     1
102
RTVSPropertyOp4
 70
     1
102
RTVSPropertyOp5
 70
     1
102
RTVSPropertyOp6
 70
     1
102
RTVSPropertyOp7
 70
     1
102
RTVSPropertyOp8
 70
     1
102
RTVSPropertyOp9
 70
     1
102
RTVSPropertyOp10
 70
     1
102
RTVSPropertyOp11
 70
     1
102
RTVSPropertyOp12
 70
     1
102
RTVSPropertyOp13
 70
     1
102
RTVSPropertyOp14
 70
     1
102
RTVSPropertyOp15
 70
     1
102
RTVSPropertyOp16
 70
     1
102
RTVSPropertyOp17
 70
     1
102
RTVSPropertyOp18
 70
     1
102
RTVSPropertyOp19
 70
     1
102
RTVSPropertyOp20
 70
     1
102
RTVSPropertyOp21
 70
     1
102
RTVSPropertyOp22
 70
     1
102
RTVSPropertyOp23
 70
     1
102
RTVSPropertyOp24
 70
     1
102
RTVSPropertyOp25
 70
     1
102
RTVSPropertyOp26
 70
     1
102
RTVSPropertyOp27
 70
     1
102
RTVSPropertyOp28
 70
     1
102
RTVSPropertyOp29
 70
     1
102
RTVSPropertyOp30
 70
     1
102
RTVSPropertyOp31
 70
     1
102
RTVSPropertyOp32
 70
     1
102
RTVSPropertyOp33
 70
     1
102
RTVSPropertyOp34
 70
     1
102
RTVSPropertyOp35
 70
     1
102
RTVSPropertyOp36
 70
     1
102
RTVSPropertyOp37
 70
     1
102
RTVSPropertyOp38
 70
     1
102
RTVSPropertyOp39
 70
     1
102
RTVSPropertyOp40
 70
     1
102
RTVSPropertyOp41
 70
     1
102
RTVSPropertyOp42
 70
     1
102
RTVSPropertyOp43
 70
     1
102
RTVSPropertyOp44
 70
     1
102
RTVSPropertyOp45
 70
     1
102
RTVSPropertyOp46
 70
     1
102
RTVSPropertyOp47
 70
     1
102
RTVSPropertyOp48
 70
     1
102
RTVSPropertyOp49
 70
     1
102
RTVSPropertyOp50
 70
     1
102
RTVSPropertyOp51
 70
     0
102
RTVSPropertyOp52
 70
     0
102
RTVSPropertyOp53
 70
     1
102
RTVSPropertyOp54
 70
     1
102
RTVSPropertyOp55
 70
     1
102
RTVSPropertyOp56
 70
     1
102
RTVSPropertyOp57
 70
     1
102
RTVSPropertyOp58
 70
     1
102
RTVSPropertyOp59
 70
     1
102
RTVSPropertyOp60
 70
     1
102
RTVSPropertyOp61
 70
     1
102
RTVSPropertyOp62
 70
     1
  0
XRECORD
  5
AA22
102
{ACAD_REACTORS
330
AA21
102
}
330
AA21
100
AcDbXrecord
280
     1
102
RTVSPost2010Prop28
280
     0
102
RTVSPost2010PropOp28
 70
     1
102
RTVSPost2010Prop29
280
     1
102
RTVSPost2010PropOp29
 70
     1
102
RTVSPost2010Prop30
280
     1
102
RTVSPost2010PropOp30
 70
     1
102
RTVSPost2010Prop31
280
     0
102
RTVSPost2010PropOp31
 70
     1
102
RTVSPost2010Prop32
280
     0
102
RTVSPost2010PropOp32
 70
     1
102
RTVSPost2010Prop33
280
     0
102
RTVSPost2010PropOp33
 70
     1
102
RTVSPost2010Prop34
280
     0
102
RTVSPost2010PropOp34
 70
     1
102
RTVSPost2010Prop35
280
     0
102
RTVSPost2010PropOp35
 70
     1
102
RTVSPost2010Prop36
280
     0
102
RTVSPost2010PropOp36
 70
     1
102
RTVSPost2010Prop37
 90
       50
102
RTVSPost2010PropOp37
 70
     1
102
RTVSPost2010Prop38
140
0.0
102
RTVSPost2010PropOp38
 70
     1
102
RTVSPost2010Prop39
140
1.0
102
RTVSPost2010PropOp39
 70
     1
102
RTVSPost2010Prop40
 90
        0
102
RTVSPost2010PropOp40
 70
     1
102
RTVSPost2010Prop41ColorIndex
 90
       18
102
RTVSPost2010Prop41ColorRGB
 90
        0
102
RTVSPost2010PropOp41
 70
     1
102
RTVSPost2010Prop42
 90
       50
102
RTVSPost2010PropOp42
 70
     1
102
RTVSPost2010Prop43
 90
        3
102
RTVSPost2010PropOp43
 70
     1
102
RTVSPost2010Prop44ColorIndex
 90
        5
102
RTVSPost2010Prop44ColorRGB
 90
      255
102
RTVSPost2010PropOp44
 70
     1
102
RTVSPost2010Prop45
280
     0
102
RTVSPost2010PropOp45
 70
     1
102
RTVSPost2010Prop46
 90
       50
102
RTVSPost2010PropOp46
 70
     1
102
RTVSPost2010Prop47
 90
       50
102
RTVSPost2010PropOp47
 70
     1
102
RTVSPost2010Prop48
 90
       50
102
RTVSPost2010PropOp48
 70
     1
102
RTVSPost2010Prop49
280
     0
102
RTVSPost2010PropOp49
 70
     1
102
RTVSPost2010Prop50
 90
       50
102
RTVSPost2010PropOp50
 70
     1
102
RTVSPost2010Prop51ColorIndex
 90
      256
102
RTVSPost2010Prop51ColorRGB
 90
-16777216
102
RTVSPost2010PropOp51
 70
     0
102
RTVSPost2010Prop52
140
1.0
102
RTVSPost2010PropOp52
 70
     0
102
RTVSPost2010Prop53
 90
        2
102
RTVSPost2010PropOp53
 70
     1
102
RTVSPost2010Prop54
  1
strokes_ogs.tif
102
RTVSPost2010PropOp54
 70
     1
102
RTVSPost2010Prop55
280
     0
102
RTVSPost2010PropOp55
 70
     1
102
RTVSPost2010Prop56
140
1.0
102
RTVSPost2010PropOp56
 70
     1
102
RTVSPost2010Prop57
140
1.0
102
RTVSPost2010PropOp57
 70
     1
102
RTVSPropertyOp0
 70
     1
102
RTVSPropertyOp1
 70
     1
102
RTVSPropertyOp2
 70
     1
102
RTVSPropertyOp3
 70
     1
102
RTVSPropertyOp4
 70
     1
102
RTVSPropertyOp5
 70
     1
102
RTVSPropertyOp6
 70
     1
102
RTVSPropertyOp7
 70
     1
102
RTVSPropertyOp8
 70
     1
102
RTVSPropertyOp9
 70
     1
102
RTVSPropertyOp10
 70
     1
102
RTVSPropertyOp11
 70
     1
102
RTVSPropertyOp12
 70
     1
102
RTVSPropertyOp13
 70
     1
102
RTVSPropertyOp14
 70
     1
102
RTVSPropertyOp15
 70
     1
102
RTVSPropertyOp16
 70
     1
102
RTVSPropertyOp17
 70
     1
102
RTVSPropertyOp18
 70
     1
102
RTVSPropertyOp19
 70
     1
102
RTVSPropertyOp20
 70
     1
102
RTVSPropertyOp21
 70
     1
102
RTVSPropertyOp22
 70
     1
102
RTVSPropertyOp23
 70
     1
102
RTVSPropertyOp24
 70
     1
102
RTVSPropertyOp25
 70
     1
102
RTVSPropertyOp26
 70
     1
102
RTVSPropertyOp27
 70
     1
102
RTVSPropertyOp28
 70
     1
102
RTVSPropertyOp29
 70
     1
102
RTVSPropertyOp30
 70
     1
102
RTVSPropertyOp31
 70
     1
102
RTVSPropertyOp32
 70
     1
102
RTVSPropertyOp33
 70
     1
102
RTVSPropertyOp34
 70
     1
102
RTVSPropertyOp35
 70
     1
102
RTVSPropertyOp36
 70
     1
102
RTVSPropertyOp37
 70
     1
102
RTVSPropertyOp38
 70
     1
102
RTVSPropertyOp39
 70
     1
102
RTVSPropertyOp40
 70
     1
102
RTVSPropertyOp41
 70
     1
102
RTVSPropertyOp42
 70
     1
102
RTVSPropertyOp43
 70
     1
102
RTVSPropertyOp44
 70
     1
102
RTVSPropertyOp45
 70
     1
102
RTVSPropertyOp46
 70
     1
102
RTVSPropertyOp47
 70
     1
102
RTVSPropertyOp48
 70
     1
102
RTVSPropertyOp49
 70
     1
102
RTVSPropertyOp50
 70
     1
102
RTVSPropertyOp51
 70
     0
102
RTVSPropertyOp52
 70
     0
102
RTVSPropertyOp53
 70
     1
102
RTVSPropertyOp54
 70
     1
102
RTVSPropertyOp55
 70
     1
102
RTVSPropertyOp56
 70
     1
102
RTVSPropertyOp57
 70
     1
102
RTVSPropertyOp58
 70
     1
102
RTVSPropertyOp59
 70
     1
102
RTVSPropertyOp60
 70
     1
102
RTVSPropertyOp61
 70
     1
102
RTVSPropertyOp62
 70
     1
  0
XRECORD
  5
AA2A
102
{ACAD_REACTORS
330
AA29
102
}
330
AA29
100
AcDbXrecord
280
     1
102
RTVSPost2010Prop28
280
     0
102
RTVSPost2010PropOp28
 70
     1
102
RTVSPost2010Prop29
280
     1
102
RTVSPost2010PropOp29
 70
     1
102
RTVSPost2010Prop30
280
     1
102
RTVSPost2010PropOp30
 70
     1
102
RTVSPost2010Prop31
280
     0
102
RTVSPost2010PropOp31
 70
     1
102
RTVSPost2010Prop32
280
     0
102
RTVSPost2010PropOp32
 70
     1
102
RTVSPost2010Prop33
280
     0
102
RTVSPost2010PropOp33
 70
     1
102
RTVSPost2010Prop34
280
     0
102
RTVSPost2010PropOp34
 70
     1
102
RTVSPost2010Prop35
280
     0
102
RTVSPost2010PropOp35
 70
     1
102
RTVSPost2010Prop36
280
     0
102
RTVSPost2010PropOp36
 70
     1
102
RTVSPost2010Prop37
 90
       50
102
RTVSPost2010PropOp37
 70
     1
102
RTVSPost2010Prop38
140
0.0
102
RTVSPost2010PropOp38
 70
     1
102
RTVSPost2010Prop39
140
1.0
102
RTVSPost2010PropOp39
 70
     1
102
RTVSPost2010Prop40
 90
        0
102
RTVSPost2010PropOp40
 70
     1
102
RTVSPost2010Prop41ColorIndex
 90
       18
102
RTVSPost2010Prop41ColorRGB
 90
        0
102
RTVSPost2010PropOp41
 70
     1
102
RTVSPost2010Prop42
 90
       50
102
RTVSPost2010PropOp42
 70
     1
102
RTVSPost2010Prop43
 90
        3
102
RTVSPost2010PropOp43
 70
     1
102
RTVSPost2010Prop44ColorIndex
 90
        5
102
RTVSPost2010Prop44ColorRGB
 90
      255
102
RTVSPost2010PropOp44
 70
     1
102
RTVSPost2010Prop45
280
     0
102
RTVSPost2010PropOp45
 70
     1
102
RTVSPost2010Prop46
 90
       50
102
RTVSPost2010PropOp46
 70
     1
102
RTVSPost2010Prop47
 90
       50
102
RTVSPost2010PropOp47
 70
     1
102
RTVSPost2010Prop48
 90
       50
102
RTVSPost2010PropOp48
 70
     1
102
RTVSPost2010Prop49
280
     0
102
RTVSPost2010PropOp49
 70
     1
102
RTVSPost2010Prop50
 90
       50
102
RTVSPost2010PropOp50
 70
     1
102
RTVSPost2010Prop51ColorIndex
 90
      256
102
RTVSPost2010Prop51ColorRGB
 90
-16777216
102
RTVSPost2010PropOp51
 70
     0
102
RTVSPost2010Prop52
140
1.0
102
RTVSPost2010PropOp52
 70
     0
102
RTVSPost2010Prop53
 90
        2
102
RTVSPost2010PropOp53
 70
     1
102
RTVSPost2010Prop54
  1
strokes_ogs.tif
102
RTVSPost2010PropOp54
 70
     1
102
RTVSPost2010Prop55
280
     0
102
RTVSPost2010PropOp55
 70
     1
102
RTVSPost2010Prop56
140
1.0
102
RTVSPost2010PropOp56
 70
     1
102
RTVSPost2010Prop57
140
1.0
102
RTVSPost2010PropOp57
 70
     1
102
RTVSPropertyOp0
 70
     1
102
RTVSPropertyOp1
 70
     1
102
RTVSPropertyOp2
 70
     1
102
RTVSPropertyOp3
 70
     1
102
RTVSPropertyOp4
 70
     1
102
RTVSPropertyOp5
 70
     1
102
RTVSPropertyOp6
 70
     1
102
RTVSPropertyOp7
 70
     1
102
RTVSPropertyOp8
 70
     1
102
RTVSPropertyOp9
 70
     1
102
RTVSPropertyOp10
 70
     1
102
RTVSPropertyOp11
 70
     1
102
RTVSPropertyOp12
 70
     1
102
RTVSPropertyOp13
 70
     1
102
RTVSPropertyOp14
 70
     1
102
RTVSPropertyOp15
 70
     1
102
RTVSPropertyOp16
 70
     1
102
RTVSPropertyOp17
 70
     1
102
RTVSPropertyOp18
 70
     1
102
RTVSPropertyOp19
 70
     1
102
RTVSPropertyOp20
 70
     1
102
RTVSPropertyOp21
 70
     1
102
RTVSPropertyOp22
 70
     1
102
RTVSPropertyOp23
 70
     1
102
RTVSPropertyOp24
 70
     1
102
RTVSPropertyOp25
 70
     1
102
RTVSPropertyOp26
 70
     1
102
RTVSPropertyOp27
 70
     1
102
RTVSPropertyOp28
 70
     1
102
RTVSPropertyOp29
 70
     1
102
RTVSPropertyOp30
 70
     1
102
RTVSPropertyOp31
 70
     1
102
RTVSPropertyOp32
 70
     1
102
RTVSPropertyOp33
 70
     1
102
RTVSPropertyOp34
 70
     1
102
RTVSPropertyOp35
 70
     1
102
RTVSPropertyOp36
 70
     1
102
RTVSPropertyOp37
 70
     1
102
RTVSPropertyOp38
 70
     1
102
RTVSPropertyOp39
 70
     1
102
RTVSPropertyOp40
 70
     1
102
RTVSPropertyOp41
 70
     1
102
RTVSPropertyOp42
 70
     1
102
RTVSPropertyOp43
 70
     1
102
RTVSPropertyOp44
 70
     1
102
RTVSPropertyOp45
 70
     1
102
RTVSPropertyOp46
 70
     1
102
RTVSPropertyOp47
 70
     1
102
RTVSPropertyOp48
 70
     1
102
RTVSPropertyOp49
 70
     1
102
RTVSPropertyOp50
 70
     1
102
RTVSPropertyOp51
 70
     0
102
RTVSPropertyOp52
 70
     0
102
RTVSPropertyOp53
 70
     1
102
RTVSPropertyOp54
 70
     1
102
RTVSPropertyOp55
 70
     1
102
RTVSPropertyOp56
 70
     1
102
RTVSPropertyOp57
 70
     1
102
RTVSPropertyOp58
 70
     1
102
RTVSPropertyOp59
 70
     1
102
RTVSPropertyOp60
 70
     1
102
RTVSPropertyOp61
 70
     1
102
RTVSPropertyOp62
 70
     1
  0
XRECORD
  5
AA1C
102
{ACAD_REACTORS
330
AA1B
102
}
330
AA1B
100
AcDbXrecord
280
     1
102
RTVSPost2010Prop28
280
     0
102
RTVSPost2010PropOp28
 70
     1
102
RTVSPost2010Prop29
280
     1
102
RTVSPost2010PropOp29
 70
     1
102
RTVSPost2010Prop30
280
     1
102
RTVSPost2010PropOp30
 70
     1
102
RTVSPost2010Prop31
280
     0
102
RTVSPost2010PropOp31
 70
     1
102
RTVSPost2010Prop32
280
     0
102
RTVSPost2010PropOp32
 70
     1
102
RTVSPost2010Prop33
280
     0
102
RTVSPost2010PropOp33
 70
     1
102
RTVSPost2010Prop34
280
     0
102
RTVSPost2010PropOp34
 70
     1
102
RTVSPost2010Prop35
280
     0
102
RTVSPost2010PropOp35
 70
     1
102
RTVSPost2010Prop36
280
     0
102
RTVSPost2010PropOp36
 70
     1
102
RTVSPost2010Prop37
 90
       50
102
RTVSPost2010PropOp37
 70
     1
102
RTVSPost2010Prop38
140
0.0
102
RTVSPost2010PropOp38
 70
     1
102
RTVSPost2010Prop39
140
1.0
102
RTVSPost2010PropOp39
 70
     1
102
RTVSPost2010Prop40
 90
        0
102
RTVSPost2010PropOp40
 70
     1
102
RTVSPost2010Prop41ColorIndex
 90
       18
102
RTVSPost2010Prop41ColorRGB
 90
        0
102
RTVSPost2010PropOp41
 70
     1
102
RTVSPost2010Prop42
 90
       50
102
RTVSPost2010PropOp42
 70
     1
102
RTVSPost2010Prop43
 90
        3
102
RTVSPost2010PropOp43
 70
     1
102
RTVSPost2010Prop44ColorIndex
 90
        5
102
RTVSPost2010Prop44ColorRGB
 90
      255
102
RTVSPost2010PropOp44
 70
     1
102
RTVSPost2010Prop45
280
     0
102
RTVSPost2010PropOp45
 70
     1
102
RTVSPost2010Prop46
 90
       50
102
RTVSPost2010PropOp46
 70
     1
102
RTVSPost2010Prop47
 90
       50
102
RTVSPost2010PropOp47
 70
     1
102
RTVSPost2010Prop48
 90
       50
102
RTVSPost2010PropOp48
 70
     1
102
RTVSPost2010Prop49
280
     0
102
RTVSPost2010PropOp49
 70
     1
102
RTVSPost2010Prop50
 90
       50
102
RTVSPost2010PropOp50
 70
     1
102
RTVSPost2010Prop51ColorIndex
 90
      256
102
RTVSPost2010Prop51ColorRGB
 90
-16777216
102
RTVSPost2010PropOp51
 70
     0
102
RTVSPost2010Prop52
140
1.0
102
RTVSPost2010PropOp52
 70
     0
102
RTVSPost2010Prop53
 90
        2
102
RTVSPost2010PropOp53
 70
     1
102
RTVSPost2010Prop54
  1
strokes_ogs.tif
102
RTVSPost2010PropOp54
 70
     1
102
RTVSPost2010Prop55
280
     0
102
RTVSPost2010PropOp55
 70
     1
102
RTVSPost2010Prop56
140
1.0
102
RTVSPost2010PropOp56
 70
     1
102
RTVSPost2010Prop57
140
1.0
102
RTVSPost2010PropOp57
 70
     1
102
RTVSPropertyOp0
 70
     1
102
RTVSPropertyOp1
 70
     1
102
RTVSPropertyOp2
 70
     1
102
RTVSPropertyOp3
 70
     1
102
RTVSPropertyOp4
 70
     1
102
RTVSPropertyOp5
 70
     1
102
RTVSPropertyOp6
 70
     1
102
RTVSPropertyOp7
 70
     1
102
RTVSPropertyOp8
 70
     1
102
RTVSPropertyOp9
 70
     1
102
RTVSPropertyOp10
 70
     1
102
RTVSPropertyOp11
 70
     1
102
RTVSPropertyOp12
 70
     1
102
RTVSPropertyOp13
 70
     1
102
RTVSPropertyOp14
 70
     1
102
RTVSPropertyOp15
 70
     1
102
RTVSPropertyOp16
 70
     1
102
RTVSPropertyOp17
 70
     1
102
RTVSPropertyOp18
 70
     1
102
RTVSPropertyOp19
 70
     1
102
RTVSPropertyOp20
 70
     1
102
RTVSPropertyOp21
 70
     1
102
RTVSPropertyOp22
 70
     1
102
RTVSPropertyOp23
 70
     1
102
RTVSPropertyOp24
 70
     1
102
RTVSPropertyOp25
 70
     1
102
RTVSPropertyOp26
 70
     1
102
RTVSPropertyOp27
 70
     1
102
RTVSPropertyOp28
 70
     1
102
RTVSPropertyOp29
 70
     1
102
RTVSPropertyOp30
 70
     1
102
RTVSPropertyOp31
 70
     1
102
RTVSPropertyOp32
 70
     1
102
RTVSPropertyOp33
 70
     1
102
RTVSPropertyOp34
 70
     1
102
RTVSPropertyOp35
 70
     1
102
RTVSPropertyOp36
 70
     1
102
RTVSPropertyOp37
 70
     1
102
RTVSPropertyOp38
 70
     1
102
RTVSPropertyOp39
 70
     1
102
RTVSPropertyOp40
 70
     1
102
RTVSPropertyOp41
 70
     1
102
RTVSPropertyOp42
 70
     1
102
RTVSPropertyOp43
 70
     1
102
RTVSPropertyOp44
 70
     1
102
RTVSPropertyOp45
 70
     1
102
RTVSPropertyOp46
 70
     1
102
RTVSPropertyOp47
 70
     1
102
RTVSPropertyOp48
 70
     1
102
RTVSPropertyOp49
 70
     1
102
RTVSPropertyOp50
 70
     1
102
RTVSPropertyOp51
 70
     0
102
RTVSPropertyOp52
 70
     0
102
RTVSPropertyOp53
 70
     1
102
RTVSPropertyOp54
 70
     1
102
RTVSPropertyOp55
 70
     1
102
RTVSPropertyOp56
 70
     1
102
RTVSPropertyOp57
 70
     1
102
RTVSPropertyOp58
 70
     1
102
RTVSPropertyOp59
 70
     1
102
RTVSPropertyOp60
 70
     1
102
RTVSPropertyOp61
 70
     1
102
RTVSPropertyOp62
 70
     1
  0
XRECORD
  5
AA20
102
{ACAD_REACTORS
330
AA1F
102
}
330
AA1F
100
AcDbXrecord
280
     1
102
RTVSPost2010Prop28
280
     0
102
RTVSPost2010PropOp28
 70
     1
102
RTVSPost2010Prop29
280
     1
102
RTVSPost2010PropOp29
 70
     1
102
RTVSPost2010Prop30
280
     1
102
RTVSPost2010PropOp30
 70
     1
102
RTVSPost2010Prop31
280
     0
102
RTVSPost2010PropOp31
 70
     1
102
RTVSPost2010Prop32
280
     0
102
RTVSPost2010PropOp32
 70
     1
102
RTVSPost2010Prop33
280
     0
102
RTVSPost2010PropOp33
 70
     1
102
RTVSPost2010Prop34
280
     0
102
RTVSPost2010PropOp34
 70
     1
102
RTVSPost2010Prop35
280
     0
102
RTVSPost2010PropOp35
 70
     1
102
RTVSPost2010Prop36
280
     0
102
RTVSPost2010PropOp36
 70
     1
102
RTVSPost2010Prop37
 90
       50
102
RTVSPost2010PropOp37
 70
     1
102
RTVSPost2010Prop38
140
0.0
102
RTVSPost2010PropOp38
 70
     1
102
RTVSPost2010Prop39
140
1.0
102
RTVSPost2010PropOp39
 70
     1
102
RTVSPost2010Prop40
 90
        0
102
RTVSPost2010PropOp40
 70
     1
102
RTVSPost2010Prop41ColorIndex
 90
       18
102
RTVSPost2010Prop41ColorRGB
 90
        0
102
RTVSPost2010PropOp41
 70
     1
102
RTVSPost2010Prop42
 90
       50
102
RTVSPost2010PropOp42
 70
     1
102
RTVSPost2010Prop43
 90
        3
102
RTVSPost2010PropOp43
 70
     1
102
RTVSPost2010Prop44ColorIndex
 90
        5
102
RTVSPost2010Prop44ColorRGB
 90
      255
102
RTVSPost2010PropOp44
 70
     1
102
RTVSPost2010Prop45
280
     0
102
RTVSPost2010PropOp45
 70
     1
102
RTVSPost2010Prop46
 90
       50
102
RTVSPost2010PropOp46
 70
     1
102
RTVSPost2010Prop47
 90
       50
102
RTVSPost2010PropOp47
 70
     1
102
RTVSPost2010Prop48
 90
       50
102
RTVSPost2010PropOp48
 70
     1
102
RTVSPost2010Prop49
280
     0
102
RTVSPost2010PropOp49
 70
     1
102
RTVSPost2010Prop50
 90
       50
102
RTVSPost2010PropOp50
 70
     1
102
RTVSPost2010Prop51ColorIndex
 90
      256
102
RTVSPost2010Prop51ColorRGB
 90
-16777216
102
RTVSPost2010PropOp51
 70
     0
102
RTVSPost2010Prop52
140
1.0
102
RTVSPost2010PropOp52
 70
     0
102
RTVSPost2010Prop53
 90
        2
102
RTVSPost2010PropOp53
 70
     1
102
RTVSPost2010Prop54
  1
strokes_ogs.tif
102
RTVSPost2010PropOp54
 70
     1
102
RTVSPost2010Prop55
280
     0
102
RTVSPost2010PropOp55
 70
     1
102
RTVSPost2010Prop56
140
1.0
102
RTVSPost2010PropOp56
 70
     1
102
RTVSPost2010Prop57
140
1.0
102
RTVSPost2010PropOp57
 70
     1
102
RTVSPropertyOp0
 70
     1
102
RTVSPropertyOp1
 70
     1
102
RTVSPropertyOp2
 70
     1
102
RTVSPropertyOp3
 70
     1
102
RTVSPropertyOp4
 70
     1
102
RTVSPropertyOp5
 70
     1
102
RTVSPropertyOp6
 70
     1
102
RTVSPropertyOp7
 70
     1
102
RTVSPropertyOp8
 70
     1
102
RTVSPropertyOp9
 70
     1
102
RTVSPropertyOp10
 70
     1
102
RTVSPropertyOp11
 70
     1
102
RTVSPropertyOp12
 70
     1
102
RTVSPropertyOp13
 70
     1
102
RTVSPropertyOp14
 70
     1
102
RTVSPropertyOp15
 70
     1
102
RTVSPropertyOp16
 70
     1
102
RTVSPropertyOp17
 70
     1
102
RTVSPropertyOp18
 70
     1
102
RTVSPropertyOp19
 70
     1
102
RTVSPropertyOp20
 70
     1
102
RTVSPropertyOp21
 70
     1
102
RTVSPropertyOp22
 70
     1
102
RTVSPropertyOp23
 70
     1
102
RTVSPropertyOp24
 70
     1
102
RTVSPropertyOp25
 70
     1
102
RTVSPropertyOp26
 70
     1
102
RTVSPropertyOp27
 70
     1
102
RTVSPropertyOp28
 70
     1
102
RTVSPropertyOp29
 70
     1
102
RTVSPropertyOp30
 70
     1
102
RTVSPropertyOp31
 70
     1
102
RTVSPropertyOp32
 70
     1
102
RTVSPropertyOp33
 70
     1
102
RTVSPropertyOp34
 70
     1
102
RTVSPropertyOp35
 70
     1
102
RTVSPropertyOp36
 70
     1
102
RTVSPropertyOp37
 70
     1
102
RTVSPropertyOp38
 70
     1
102
RTVSPropertyOp39
 70
     1
102
RTVSPropertyOp40
 70
     1
102
RTVSPropertyOp41
 70
     1
102
RTVSPropertyOp42
 70
     1
102
RTVSPropertyOp43
 70
     1
102
RTVSPropertyOp44
 70
     1
102
RTVSPropertyOp45
 70
     1
102
RTVSPropertyOp46
 70
     1
102
RTVSPropertyOp47
 70
     1
102
RTVSPropertyOp48
 70
     1
102
RTVSPropertyOp49
 70
     1
102
RTVSPropertyOp50
 70
     1
102
RTVSPropertyOp51
 70
     0
102
RTVSPropertyOp52
 70
     0
102
RTVSPropertyOp53
 70
     1
102
RTVSPropertyOp54
 70
     1
102
RTVSPropertyOp55
 70
     1
102
RTVSPropertyOp56
 70
     1
102
RTVSPropertyOp57
 70
     1
102
RTVSPropertyOp58
 70
     1
102
RTVSPropertyOp59
 70
     1
102
RTVSPropertyOp60
 70
     1
102
RTVSPropertyOp61
 70
     1
102
RTVSPropertyOp62
 70
     1
  0
XRECORD
  5
AA3A
102
{ACAD_REACTORS
330
AA39
102
}
330
AA39
100
AcDbXrecord
280
     1
102
RTVSPost2010Prop28
280
     0
102
RTVSPost2010PropOp28
 70
     1
102
RTVSPost2010Prop29
280
     1
102
RTVSPost2010PropOp29
 70
     1
102
RTVSPost2010Prop30
280
     1
102
RTVSPost2010PropOp30
 70
     1
102
RTVSPost2010Prop31
280
     0
102
RTVSPost2010PropOp31
 70
     1
102
RTVSPost2010Prop32
280
     0
102
RTVSPost2010PropOp32
 70
     1
102
RTVSPost2010Prop33
280
     0
102
RTVSPost2010PropOp33
 70
     1
102
RTVSPost2010Prop34
280
     0
102
RTVSPost2010PropOp34
 70
     1
102
RTVSPost2010Prop35
280
     0
102
RTVSPost2010PropOp35
 70
     1
102
RTVSPost2010Prop36
280
     0
102
RTVSPost2010PropOp36
 70
     1
102
RTVSPost2010Prop37
 90
       50
102
RTVSPost2010PropOp37
 70
     0
102
RTVSPost2010Prop38
140
0.0
102
RTVSPost2010PropOp38
 70
     0
102
RTVSPost2010Prop39
140
1.0
102
RTVSPost2010PropOp39
 70
     0
102
RTVSPost2010Prop40
 90
        0
102
RTVSPost2010PropOp40
 70
     0
102
RTVSPost2010Prop41ColorIndex
 90
       18
102
RTVSPost2010Prop41ColorRGB
 90
        0
102
RTVSPost2010PropOp41
 70
     0
102
RTVSPost2010Prop42
 90
       50
102
RTVSPost2010PropOp42
 70
     0
102
RTVSPost2010Prop43
 90
        3
102
RTVSPost2010PropOp43
 70
     0
102
RTVSPost2010Prop44ColorIndex
 90
        5
102
RTVSPost2010Prop44ColorRGB
 90
      255
102
RTVSPost2010PropOp44
 70
     0
102
RTVSPost2010Prop45
280
     0
102
RTVSPost2010PropOp45
 70
     1
102
RTVSPost2010Prop46
 90
       50
102
RTVSPost2010PropOp46
 70
     0
102
RTVSPost2010Prop47
 90
       50
102
RTVSPost2010PropOp47
 70
     0
102
RTVSPost2010Prop48
 90
       50
102
RTVSPost2010PropOp48
 70
     0
102
RTVSPost2010Prop49
280
     0
102
RTVSPost2010PropOp49
 70
     1
102
RTVSPost2010Prop50
 90
       50
102
RTVSPost2010PropOp50
 70
     0
102
RTVSPost2010Prop51ColorIndex
 90
      256
102
RTVSPost2010Prop51ColorRGB
 90
-16777216
102
RTVSPost2010PropOp51
 70
     0
102
RTVSPost2010Prop52
140
1.0
102
RTVSPost2010PropOp52
 70
     0
102
RTVSPost2010Prop53
 90
        2
102
RTVSPost2010PropOp53
 70
     0
102
RTVSPost2010Prop54
  1
strokes_ogs.tif
102
RTVSPost2010PropOp54
 70
     0
102
RTVSPost2010Prop55
280
     0
102
RTVSPost2010PropOp55
 70
     1
102
RTVSPost2010Prop56
140
1.0
102
RTVSPost2010PropOp56
 70
     0
102
RTVSPost2010Prop57
140
1.0
102
RTVSPost2010PropOp57
 70
     0
102
RTVSPropertyOp0
 70
     0
102
RTVSPropertyOp1
 70
     0
102
RTVSPropertyOp2
 70
     0
102
RTVSPropertyOp3
 70
     0
102
RTVSPropertyOp4
 70
     0
102
RTVSPropertyOp5
 70
     0
102
RTVSPropertyOp6
 70
     0
102
RTVSPropertyOp7
 70
     0
102
RTVSPropertyOp8
 70
     0
102
RTVSPropertyOp9
 70
     0
102
RTVSPropertyOp10
 70
     0
102
RTVSPropertyOp11
 70
     0
102
RTVSPropertyOp12
 70
     0
102
RTVSPropertyOp13
 70
     0
102
RTVSPropertyOp14
 70
     2
102
RTVSPropertyOp15
 70
     0
102
RTVSPropertyOp16
 70
     0
102
RTVSPropertyOp17
 70
     0
102
RTVSPropertyOp18
 70
     0
102
RTVSPropertyOp19
 70
     0
102
RTVSPropertyOp20
 70
     0
102
RTVSPropertyOp21
 70
     0
102
RTVSPropertyOp22
 70
     0
102
RTVSPropertyOp23
 70
     0
102
RTVSPropertyOp24
 70
     0
102
RTVSPropertyOp25
 70
     0
102
RTVSPropertyOp26
 70
     0
102
RTVSPropertyOp27
 70
     0
102
RTVSPropertyOp28
 70
     1
102
RTVSPropertyOp29
 70
     1
102
RTVSPropertyOp30
 70
     1
102
RTVSPropertyOp31
 70
     1
102
RTVSPropertyOp32
 70
     1
102
RTVSPropertyOp33
 70
     1
102
RTVSPropertyOp34
 70
     1
102
RTVSPropertyOp35
 70
     1
102
RTVSPropertyOp36
 70
     1
102
RTVSPropertyOp37
 70
     0
102
RTVSPropertyOp38
 70
     0
102
RTVSPropertyOp39
 70
     0
102
RTVSPropertyOp40
 70
     0
102
RTVSPropertyOp41
 70
     0
102
RTVSPropertyOp42
 70
     0
102
RTVSPropertyOp43
 70
     0
102
RTVSPropertyOp44
 70
     0
102
RTVSPropertyOp45
 70
     1
102
RTVSPropertyOp46
 70
     0
102
RTVSPropertyOp47
 70
     0
102
RTVSPropertyOp48
 70
     0
102
RTVSPropertyOp49
 70
     1
102
RTVSPropertyOp50
 70
     0
102
RTVSPropertyOp51
 70
     0
102
RTVSPropertyOp52
 70
     0
102
RTVSPropertyOp53
 70
     0
102
RTVSPropertyOp54
 70
     0
102
RTVSPropertyOp55
 70
     1
102
RTVSPropertyOp56
 70
     0
102
RTVSPropertyOp57
 70
     0
102
RTVSPropertyOp58
 70
     0
102
RTVSPropertyOp59
 70
     0
102
RTVSPropertyOp60
 70
     0
102
RTVSPropertyOp61
 70
     0
102
RTVSPropertyOp62
 70
     0
  0
XRECORD
  5
AA28
102
{ACAD_REACTORS
330
AA27
102
}
330
AA27
100
AcDbXrecord
280
     1
102
RTVSPost2010Prop28
280
     0
102
RTVSPost2010PropOp28
 70
     1
102
RTVSPost2010Prop29
280
     1
102
RTVSPost2010PropOp29
 70
     1
102
RTVSPost2010Prop30
280
     1
102
RTVSPost2010PropOp30
 70
     1
102
RTVSPost2010Prop31
280
     0
102
RTVSPost2010PropOp31
 70
     1
102
RTVSPost2010Prop32
280
     0
102
RTVSPost2010PropOp32
 70
     1
102
RTVSPost2010Prop33
280
     0
102
RTVSPost2010PropOp33
 70
     1
102
RTVSPost2010Prop34
280
     0
102
RTVSPost2010PropOp34
 70
     1
102
RTVSPost2010Prop35
280
     0
102
RTVSPost2010PropOp35
 70
     1
102
RTVSPost2010Prop36
280
     0
102
RTVSPost2010PropOp36
 70
     1
102
RTVSPost2010Prop37
 90
       50
102
RTVSPost2010PropOp37
 70
     1
102
RTVSPost2010Prop38
140
0.0
102
RTVSPost2010PropOp38
 70
     1
102
RTVSPost2010Prop39
140
1.0
102
RTVSPost2010PropOp39
 70
     1
102
RTVSPost2010Prop40
 90
        0
102
RTVSPost2010PropOp40
 70
     1
102
RTVSPost2010Prop41ColorIndex
 90
       18
102
RTVSPost2010Prop41ColorRGB
 90
        0
102
RTVSPost2010PropOp41
 70
     1
102
RTVSPost2010Prop42
 90
       50
102
RTVSPost2010PropOp42
 70
     1
102
RTVSPost2010Prop43
 90
        3
102
RTVSPost2010PropOp43
 70
     1
102
RTVSPost2010Prop44ColorIndex
 90
        5
102
RTVSPost2010Prop44ColorRGB
 90
      255
102
RTVSPost2010PropOp44
 70
     1
102
RTVSPost2010Prop45
280
     0
102
RTVSPost2010PropOp45
 70
     1
102
RTVSPost2010Prop46
 90
       50
102
RTVSPost2010PropOp46
 70
     1
102
RTVSPost2010Prop47
 90
       50
102
RTVSPost2010PropOp47
 70
     1
102
RTVSPost2010Prop48
 90
       50
102
RTVSPost2010PropOp48
 70
     1
102
RTVSPost2010Prop49
280
     0
102
RTVSPost2010PropOp49
 70
     1
102
RTVSPost2010Prop50
 90
       50
102
RTVSPost2010PropOp50
 70
     1
102
RTVSPost2010Prop51ColorIndex
 90
      256
102
RTVSPost2010Prop51ColorRGB
 90
-16777216
102
RTVSPost2010PropOp51
 70
     0
102
RTVSPost2010Prop52
140
1.0
102
RTVSPost2010PropOp52
 70
     0
102
RTVSPost2010Prop53
 90
        2
102
RTVSPost2010PropOp53
 70
     1
102
RTVSPost2010Prop54
  1
strokes_ogs.tif
102
RTVSPost2010PropOp54
 70
     1
102
RTVSPost2010Prop55
280
     0
102
RTVSPost2010PropOp55
 70
     1
102
RTVSPost2010Prop56
140
1.0
102
RTVSPost2010PropOp56
 70
     1
102
RTVSPost2010Prop57
140
1.0
102
RTVSPost2010PropOp57
 70
     1
102
RTVSPropertyOp0
 70
     1
102
RTVSPropertyOp1
 70
     1
102
RTVSPropertyOp2
 70
     1
102
RTVSPropertyOp3
 70
     1
102
RTVSPropertyOp4
 70
     1
102
RTVSPropertyOp5
 70
     1
102
RTVSPropertyOp6
 70
     1
102
RTVSPropertyOp7
 70
     1
102
RTVSPropertyOp8
 70
     1
102
RTVSPropertyOp9
 70
     1
102
RTVSPropertyOp10
 70
     1
102
RTVSPropertyOp11
 70
     1
102
RTVSPropertyOp12
 70
     1
102
RTVSPropertyOp13
 70
     1
102
RTVSPropertyOp14
 70
     1
102
RTVSPropertyOp15
 70
     1
102
RTVSPropertyOp16
 70
     1
102
RTVSPropertyOp17
 70
     1
102
RTVSPropertyOp18
 70
     1
102
RTVSPropertyOp19
 70
     1
102
RTVSPropertyOp20
 70
     1
102
RTVSPropertyOp21
 70
     1
102
RTVSPropertyOp22
 70
     1
102
RTVSPropertyOp23
 70
     1
102
RTVSPropertyOp24
 70
     1
102
RTVSPropertyOp25
 70
     1
102
RTVSPropertyOp26
 70
     1
102
RTVSPropertyOp27
 70
     1
102
RTVSPropertyOp28
 70
     1
102
RTVSPropertyOp29
 70
     1
102
RTVSPropertyOp30
 70
     1
102
RTVSPropertyOp31
 70
     1
102
RTVSPropertyOp32
 70
     1
102
RTVSPropertyOp33
 70
     1
102
RTVSPropertyOp34
 70
     1
102
RTVSPropertyOp35
 70
     1
102
RTVSPropertyOp36
 70
     1
102
RTVSPropertyOp37
 70
     1
102
RTVSPropertyOp38
 70
     1
102
RTVSPropertyOp39
 70
     1
102
RTVSPropertyOp40
 70
     1
102
RTVSPropertyOp41
 70
     1
102
RTVSPropertyOp42
 70
     1
102
RTVSPropertyOp43
 70
     1
102
RTVSPropertyOp44
 70
     1
102
RTVSPropertyOp45
 70
     1
102
RTVSPropertyOp46
 70
     1
102
RTVSPropertyOp47
 70
     1
102
RTVSPropertyOp48
 70
     1
102
RTVSPropertyOp49
 70
     1
102
RTVSPropertyOp50
 70
     1
102
RTVSPropertyOp51
 70
     0
102
RTVSPropertyOp52
 70
     0
102
RTVSPropertyOp53
 70
     1
102
RTVSPropertyOp54
 70
     1
102
RTVSPropertyOp55
 70
     1
102
RTVSPropertyOp56
 70
     1
102
RTVSPropertyOp57
 70
     1
102
RTVSPropertyOp58
 70
     1
102
RTVSPropertyOp59
 70
     1
102
RTVSPropertyOp60
 70
     1
102
RTVSPropertyOp61
 70
     1
102
RTVSPropertyOp62
 70
     1
  0
XRECORD
  5
AA0C
102
{ACAD_REACTORS
330
AA0B
102
}
330
AA0B
100
AcDbXrecord
280
     1
102
RTVSPost2010Prop28
280
     0
102
RTVSPost2010PropOp28
 70
     1
102
RTVSPost2010Prop29
280
     1
102
RTVSPost2010PropOp29
 70
     1
102
RTVSPost2010Prop30
280
     1
102
RTVSPost2010PropOp30
 70
     1
102
RTVSPost2010Prop31
280
     0
102
RTVSPost2010PropOp31
 70
     1
102
RTVSPost2010Prop32
280
     0
102
RTVSPost2010PropOp32
 70
     1
102
RTVSPost2010Prop33
280
     0
102
RTVSPost2010PropOp33
 70
     1
102
RTVSPost2010Prop34
280
     0
102
RTVSPost2010PropOp34
 70
     1
102
RTVSPost2010Prop35
280
     0
102
RTVSPost2010PropOp35
 70
     1
102
RTVSPost2010Prop36
280
     0
102
RTVSPost2010PropOp36
 70
     1
102
RTVSPost2010Prop37
 90
       50
102
RTVSPost2010PropOp37
 70
     1
102
RTVSPost2010Prop38
140
0.0
102
RTVSPost2010PropOp38
 70
     1
102
RTVSPost2010Prop39
140
1.0
102
RTVSPost2010PropOp39
 70
     1
102
RTVSPost2010Prop40
 90
        0
102
RTVSPost2010PropOp40
 70
     1
102
RTVSPost2010Prop41ColorIndex
 90
       18
102
RTVSPost2010Prop41ColorRGB
 90
        0
102
RTVSPost2010PropOp41
 70
     1
102
RTVSPost2010Prop42
 90
       50
102
RTVSPost2010PropOp42
 70
     1
102
RTVSPost2010Prop43
 90
        3
102
RTVSPost2010PropOp43
 70
     1
102
RTVSPost2010Prop44ColorIndex
 90
        5
102
RTVSPost2010Prop44ColorRGB
 90
      255
102
RTVSPost2010PropOp44
 70
     1
102
RTVSPost2010Prop45
280
     0
102
RTVSPost2010PropOp45
 70
     1
102
RTVSPost2010Prop46
 90
       50
102
RTVSPost2010PropOp46
 70
     1
102
RTVSPost2010Prop47
 90
       50
102
RTVSPost2010PropOp47
 70
     1
102
RTVSPost2010Prop48
 90
       50
102
RTVSPost2010PropOp48
 70
     1
102
RTVSPost2010Prop49
280
     0
102
RTVSPost2010PropOp49
 70
     1
102
RTVSPost2010Prop50
 90
       50
102
RTVSPost2010PropOp50
 70
     1
102
RTVSPost2010Prop51ColorIndex
 90
      256
102
RTVSPost2010Prop51ColorRGB
 90
-16777216
102
RTVSPost2010PropOp51
 70
     0
102
RTVSPost2010Prop52
140
1.0
102
RTVSPost2010PropOp52
 70
     0
102
RTVSPost2010Prop53
 90
        2
102
RTVSPost2010PropOp53
 70
     1
102
RTVSPost2010Prop54
  1
strokes_ogs.tif
102
RTVSPost2010PropOp54
 70
     1
102
RTVSPost2010Prop55
280
     0
102
RTVSPost2010PropOp55
 70
     1
102
RTVSPost2010Prop56
140
1.0
102
RTVSPost2010PropOp56
 70
     1
102
RTVSPost2010Prop57
140
1.0
102
RTVSPost2010PropOp57
 70
     1
102
RTVSPropertyOp0
 70
     1
102
RTVSPropertyOp1
 70
     1
102
RTVSPropertyOp2
 70
     1
102
RTVSPropertyOp3
 70
     1
102
RTVSPropertyOp4
 70
     1
102
RTVSPropertyOp5
 70
     1
102
RTVSPropertyOp6
 70
     1
102
RTVSPropertyOp7
 70
     1
102
RTVSPropertyOp8
 70
     1
102
RTVSPropertyOp9
 70
     1
102
RTVSPropertyOp10
 70
     1
102
RTVSPropertyOp11
 70
     1
102
RTVSPropertyOp12
 70
     1
102
RTVSPropertyOp13
 70
     1
102
RTVSPropertyOp14
 70
     1
102
RTVSPropertyOp15
 70
     1
102
RTVSPropertyOp16
 70
     1
102
RTVSPropertyOp17
 70
     1
102
RTVSPropertyOp18
 70
     1
102
RTVSPropertyOp19
 70
     1
102
RTVSPropertyOp20
 70
     1
102
RTVSPropertyOp21
 70
     1
102
RTVSPropertyOp22
 70
     1
102
RTVSPropertyOp23
 70
     1
102
RTVSPropertyOp24
 70
     1
102
RTVSPropertyOp25
 70
     1
102
RTVSPropertyOp26
 70
     1
102
RTVSPropertyOp27
 70
     1
102
RTVSPropertyOp28
 70
     1
102
RTVSPropertyOp29
 70
     1
102
RTVSPropertyOp30
 70
     1
102
RTVSPropertyOp31
 70
     1
102
RTVSPropertyOp32
 70
     1
102
RTVSPropertyOp33
 70
     1
102
RTVSPropertyOp34
 70
     1
102
RTVSPropertyOp35
 70
     1
102
RTVSPropertyOp36
 70
     1
102
RTVSPropertyOp37
 70
     1
102
RTVSPropertyOp38
 70
     1
102
RTVSPropertyOp39
 70
     1
102
RTVSPropertyOp40
 70
     1
102
RTVSPropertyOp41
 70
     1
102
RTVSPropertyOp42
 70
     1
102
RTVSPropertyOp43
 70
     1
102
RTVSPropertyOp44
 70
     1
102
RTVSPropertyOp45
 70
     1
102
RTVSPropertyOp46
 70
     1
102
RTVSPropertyOp47
 70
     1
102
RTVSPropertyOp48
 70
     1
102
RTVSPropertyOp49
 70
     1
102
RTVSPropertyOp50
 70
     1
102
RTVSPropertyOp51
 70
     0
102
RTVSPropertyOp52
 70
     0
102
RTVSPropertyOp53
 70
     1
102
RTVSPropertyOp54
 70
     1
102
RTVSPropertyOp55
 70
     1
102
RTVSPropertyOp56
 70
     1
102
RTVSPropertyOp57
 70
     1
102
RTVSPropertyOp58
 70
     1
102
RTVSPropertyOp59
 70
     1
102
RTVSPropertyOp60
 70
     1
102
RTVSPropertyOp61
 70
     1
102
RTVSPropertyOp62
 70
     1
  0
XRECORD
  5
AA0E
102
{ACAD_REACTORS
330
AA0D
102
}
330
AA0D
100
AcDbXrecord
280
     1
102
RTVSPost2010Prop28
280
     0
102
RTVSPost2010PropOp28
 70
     1
102
RTVSPost2010Prop29
280
     1
102
RTVSPost2010PropOp29
 70
     1
102
RTVSPost2010Prop30
280
     1
102
RTVSPost2010PropOp30
 70
     1
102
RTVSPost2010Prop31
280
     0
102
RTVSPost2010PropOp31
 70
     1
102
RTVSPost2010Prop32
280
     0
102
RTVSPost2010PropOp32
 70
     1
102
RTVSPost2010Prop33
280
     0
102
RTVSPost2010PropOp33
 70
     1
102
RTVSPost2010Prop34
280
     0
102
RTVSPost2010PropOp34
 70
     1
102
RTVSPost2010Prop35
280
     0
102
RTVSPost2010PropOp35
 70
     1
102
RTVSPost2010Prop36
280
     0
102
RTVSPost2010PropOp36
 70
     1
102
RTVSPost2010Prop37
 90
       50
102
RTVSPost2010PropOp37
 70
     1
102
RTVSPost2010Prop38
140
0.0
102
RTVSPost2010PropOp38
 70
     1
102
RTVSPost2010Prop39
140
1.0
102
RTVSPost2010PropOp39
 70
     1
102
RTVSPost2010Prop40
 90
        0
102
RTVSPost2010PropOp40
 70
     1
102
RTVSPost2010Prop41ColorIndex
 90
       18
102
RTVSPost2010Prop41ColorRGB
 90
        0
102
RTVSPost2010PropOp41
 70
     1
102
RTVSPost2010Prop42
 90
       50
102
RTVSPost2010PropOp42
 70
     1
102
RTVSPost2010Prop43
 90
        3
102
RTVSPost2010PropOp43
 70
     1
102
RTVSPost2010Prop44ColorIndex
 90
        5
102
RTVSPost2010Prop44ColorRGB
 90
      255
102
RTVSPost2010PropOp44
 70
     1
102
RTVSPost2010Prop45
280
     0
102
RTVSPost2010PropOp45
 70
     1
102
RTVSPost2010Prop46
 90
       50
102
RTVSPost2010PropOp46
 70
     1
102
RTVSPost2010Prop47
 90
       50
102
RTVSPost2010PropOp47
 70
     1
102
RTVSPost2010Prop48
 90
       50
102
RTVSPost2010PropOp48
 70
     1
102
RTVSPost2010Prop49
280
     0
102
RTVSPost2010PropOp49
 70
     1
102
RTVSPost2010Prop50
 90
       50
102
RTVSPost2010PropOp50
 70
     1
102
RTVSPost2010Prop51ColorIndex
 90
      256
102
RTVSPost2010Prop51ColorRGB
 90
-16777216
102
RTVSPost2010PropOp51
 70
     0
102
RTVSPost2010Prop52
140
1.0
102
RTVSPost2010PropOp52
 70
     0
102
RTVSPost2010Prop53
 90
        2
102
RTVSPost2010PropOp53
 70
     1
102
RTVSPost2010Prop54
  1
strokes_ogs.tif
102
RTVSPost2010PropOp54
 70
     1
102
RTVSPost2010Prop55
280
     0
102
RTVSPost2010PropOp55
 70
     1
102
RTVSPost2010Prop56
140
1.0
102
RTVSPost2010PropOp56
 70
     1
102
RTVSPost2010Prop57
140
1.0
102
RTVSPost2010PropOp57
 70
     1
102
RTVSPropertyOp0
 70
     1
102
RTVSPropertyOp1
 70
     1
102
RTVSPropertyOp2
 70
     1
102
RTVSPropertyOp3
 70
     1
102
RTVSPropertyOp4
 70
     1
102
RTVSPropertyOp5
 70
     1
102
RTVSPropertyOp6
 70
     1
102
RTVSPropertyOp7
 70
     1
102
RTVSPropertyOp8
 70
     1
102
RTVSPropertyOp9
 70
     1
102
RTVSPropertyOp10
 70
     1
102
RTVSPropertyOp11
 70
     1
102
RTVSPropertyOp12
 70
     1
102
RTVSPropertyOp13
 70
     1
102
RTVSPropertyOp14
 70
     1
102
RTVSPropertyOp15
 70
     1
102
RTVSPropertyOp16
 70
     1
102
RTVSPropertyOp17
 70
     1
102
RTVSPropertyOp18
 70
     1
102
RTVSPropertyOp19
 70
     1
102
RTVSPropertyOp20
 70
     1
102
RTVSPropertyOp21
 70
     1
102
RTVSPropertyOp22
 70
     1
102
RTVSPropertyOp23
 70
     1
102
RTVSPropertyOp24
 70
     1
102
RTVSPropertyOp25
 70
     1
102
RTVSPropertyOp26
 70
     1
102
RTVSPropertyOp27
 70
     1
102
RTVSPropertyOp28
 70
     1
102
RTVSPropertyOp29
 70
     1
102
RTVSPropertyOp30
 70
     1
102
RTVSPropertyOp31
 70
     1
102
RTVSPropertyOp32
 70
     1
102
RTVSPropertyOp33
 70
     1
102
RTVSPropertyOp34
 70
     1
102
RTVSPropertyOp35
 70
     1
102
RTVSPropertyOp36
 70
     1
102
RTVSPropertyOp37
 70
     1
102
RTVSPropertyOp38
 70
     1
102
RTVSPropertyOp39
 70
     1
102
RTVSPropertyOp40
 70
     1
102
RTVSPropertyOp41
 70
     1
102
RTVSPropertyOp42
 70
     1
102
RTVSPropertyOp43
 70
     1
102
RTVSPropertyOp44
 70
     1
102
RTVSPropertyOp45
 70
     1
102
RTVSPropertyOp46
 70
     1
102
RTVSPropertyOp47
 70
     1
102
RTVSPropertyOp48
 70
     1
102
RTVSPropertyOp49
 70
     1
102
RTVSPropertyOp50
 70
     1
102
RTVSPropertyOp51
 70
     0
102
RTVSPropertyOp52
 70
     0
102
RTVSPropertyOp53
 70
     1
102
RTVSPropertyOp54
 70
     1
102
RTVSPropertyOp55
 70
     1
102
RTVSPropertyOp56
 70
     1
102
RTVSPropertyOp57
 70
     1
102
RTVSPropertyOp58
 70
     1
102
RTVSPropertyOp59
 70
     1
102
RTVSPropertyOp60
 70
     1
102
RTVSPropertyOp61
 70
     1
102
RTVSPropertyOp62
 70
     1
  0
XRECORD
  5
AA10
102
{ACAD_REACTORS
330
AA0F
102
}
330
AA0F
100
AcDbXrecord
280
     1
102
RTVSPost2010Prop28
280
     0
102
RTVSPost2010PropOp28
 70
     1
102
RTVSPost2010Prop29
280
     1
102
RTVSPost2010PropOp29
 70
     1
102
RTVSPost2010Prop30
280
     1
102
RTVSPost2010PropOp30
 70
     1
102
RTVSPost2010Prop31
280
     0
102
RTVSPost2010PropOp31
 70
     1
102
RTVSPost2010Prop32
280
     0
102
RTVSPost2010PropOp32
 70
     1
102
RTVSPost2010Prop33
280
     0
102
RTVSPost2010PropOp33
 70
     1
102
RTVSPost2010Prop34
280
     0
102
RTVSPost2010PropOp34
 70
     1
102
RTVSPost2010Prop35
280
     0
102
RTVSPost2010PropOp35
 70
     1
102
RTVSPost2010Prop36
280
     0
102
RTVSPost2010PropOp36
 70
     1
102
RTVSPost2010Prop37
 90
       50
102
RTVSPost2010PropOp37
 70
     1
102
RTVSPost2010Prop38
140
0.0
102
RTVSPost2010PropOp38
 70
     1
102
RTVSPost2010Prop39
140
1.0
102
RTVSPost2010PropOp39
 70
     1
102
RTVSPost2010Prop40
 90
        0
102
RTVSPost2010PropOp40
 70
     1
102
RTVSPost2010Prop41ColorIndex
 90
       18
102
RTVSPost2010Prop41ColorRGB
 90
        0
102
RTVSPost2010PropOp41
 70
     1
102
RTVSPost2010Prop42
 90
       50
102
RTVSPost2010PropOp42
 70
     1
102
RTVSPost2010Prop43
 90
        3
102
RTVSPost2010PropOp43
 70
     1
102
RTVSPost2010Prop44ColorIndex
 90
        5
102
RTVSPost2010Prop44ColorRGB
 90
      255
102
RTVSPost2010PropOp44
 70
     1
102
RTVSPost2010Prop45
280
     0
102
RTVSPost2010PropOp45
 70
     1
102
RTVSPost2010Prop46
 90
       50
102
RTVSPost2010PropOp46
 70
     1
102
RTVSPost2010Prop47
 90
       50
102
RTVSPost2010PropOp47
 70
     1
102
RTVSPost2010Prop48
 90
       50
102
RTVSPost2010PropOp48
 70
     1
102
RTVSPost2010Prop49
280
     0
102
RTVSPost2010PropOp49
 70
     1
102
RTVSPost2010Prop50
 90
       50
102
RTVSPost2010PropOp50
 70
     1
102
RTVSPost2010Prop51ColorIndex
 90
      256
102
RTVSPost2010Prop51ColorRGB
 90
-16777216
102
RTVSPost2010PropOp51
 70
     0
102
RTVSPost2010Prop52
140
1.0
102
RTVSPost2010PropOp52
 70
     0
102
RTVSPost2010Prop53
 90
        2
102
RTVSPost2010PropOp53
 70
     1
102
RTVSPost2010Prop54
  1
strokes_ogs.tif
102
RTVSPost2010PropOp54
 70
     1
102
RTVSPost2010Prop55
280
     0
102
RTVSPost2010PropOp55
 70
     1
102
RTVSPost2010Prop56
140
1.0
102
RTVSPost2010PropOp56
 70
     1
102
RTVSPost2010Prop57
140
1.0
102
RTVSPost2010PropOp57
 70
     1
102
RTVSPropertyOp0
 70
     1
102
RTVSPropertyOp1
 70
     1
102
RTVSPropertyOp2
 70
     1
102
RTVSPropertyOp3
 70
     1
102
RTVSPropertyOp4
 70
     1
102
RTVSPropertyOp5
 70
     1
102
RTVSPropertyOp6
 70
     1
102
RTVSPropertyOp7
 70
     1
102
RTVSPropertyOp8
 70
     1
102
RTVSPropertyOp9
 70
     1
102
RTVSPropertyOp10
 70
     1
102
RTVSPropertyOp11
 70
     1
102
RTVSPropertyOp12
 70
     1
102
RTVSPropertyOp13
 70
     1
102
RTVSPropertyOp14
 70
     1
102
RTVSPropertyOp15
 70
     1
102
RTVSPropertyOp16
 70
     1
102
RTVSPropertyOp17
 70
     1
102
RTVSPropertyOp18
 70
     1
102
RTVSPropertyOp19
 70
     1
102
RTVSPropertyOp20
 70
     1
102
RTVSPropertyOp21
 70
     1
102
RTVSPropertyOp22
 70
     1
102
RTVSPropertyOp23
 70
     1
102
RTVSPropertyOp24
 70
     1
102
RTVSPropertyOp25
 70
     1
102
RTVSPropertyOp26
 70
     1
102
RTVSPropertyOp27
 70
     1
102
RTVSPropertyOp28
 70
     1
102
RTVSPropertyOp29
 70
     1
102
RTVSPropertyOp30
 70
     1
102
RTVSPropertyOp31
 70
     1
102
RTVSPropertyOp32
 70
     1
102
RTVSPropertyOp33
 70
     1
102
RTVSPropertyOp34
 70
     1
102
RTVSPropertyOp35
 70
     1
102
RTVSPropertyOp36
 70
     1
102
RTVSPropertyOp37
 70
     1
102
RTVSPropertyOp38
 70
     1
102
RTVSPropertyOp39
 70
     1
102
RTVSPropertyOp40
 70
     1
102
RTVSPropertyOp41
 70
     1
102
RTVSPropertyOp42
 70
     1
102
RTVSPropertyOp43
 70
     1
102
RTVSPropertyOp44
 70
     1
102
RTVSPropertyOp45
 70
     1
102
RTVSPropertyOp46
 70
     1
102
RTVSPropertyOp47
 70
     1
102
RTVSPropertyOp48
 70
     1
102
RTVSPropertyOp49
 70
     1
102
RTVSPropertyOp50
 70
     1
102
RTVSPropertyOp51
 70
     0
102
RTVSPropertyOp52
 70
     0
102
RTVSPropertyOp53
 70
     1
102
RTVSPropertyOp54
 70
     1
102
RTVSPropertyOp55
 70
     1
102
RTVSPropertyOp56
 70
     1
102
RTVSPropertyOp57
 70
     1
102
RTVSPropertyOp58
 70
     1
102
RTVSPropertyOp59
 70
     1
102
RTVSPropertyOp60
 70
     1
102
RTVSPropertyOp61
 70
     1
102
RTVSPropertyOp62
 70
     1
  0
XRECORD
  5
AA12
102
{ACAD_REACTORS
330
AA11
102
}
330
AA11
100
AcDbXrecord
280
     1
102
RTVSPost2010Prop28
280
     0
102
RTVSPost2010PropOp28
 70
     1
102
RTVSPost2010Prop29
280
     1
102
RTVSPost2010PropOp29
 70
     1
102
RTVSPost2010Prop30
280
     1
102
RTVSPost2010PropOp30
 70
     1
102
RTVSPost2010Prop31
280
     0
102
RTVSPost2010PropOp31
 70
     1
102
RTVSPost2010Prop32
280
     0
102
RTVSPost2010PropOp32
 70
     1
102
RTVSPost2010Prop33
280
     0
102
RTVSPost2010PropOp33
 70
     1
102
RTVSPost2010Prop34
280
     0
102
RTVSPost2010PropOp34
 70
     1
102
RTVSPost2010Prop35
280
     0
102
RTVSPost2010PropOp35
 70
     1
102
RTVSPost2010Prop36
280
     0
102
RTVSPost2010PropOp36
 70
     1
102
RTVSPost2010Prop37
 90
       50
102
RTVSPost2010PropOp37
 70
     1
102
RTVSPost2010Prop38
140
0.0
102
RTVSPost2010PropOp38
 70
     1
102
RTVSPost2010Prop39
140
1.0
102
RTVSPost2010PropOp39
 70
     1
102
RTVSPost2010Prop40
 90
        0
102
RTVSPost2010PropOp40
 70
     1
102
RTVSPost2010Prop41ColorIndex
 90
       18
102
RTVSPost2010Prop41ColorRGB
 90
        0
102
RTVSPost2010PropOp41
 70
     1
102
RTVSPost2010Prop42
 90
       50
102
RTVSPost2010PropOp42
 70
     1
102
RTVSPost2010Prop43
 90
        3
102
RTVSPost2010PropOp43
 70
     1
102
RTVSPost2010Prop44ColorIndex
 90
        5
102
RTVSPost2010Prop44ColorRGB
 90
      255
102
RTVSPost2010PropOp44
 70
     1
102
RTVSPost2010Prop45
280
     0
102
RTVSPost2010PropOp45
 70
     1
102
RTVSPost2010Prop46
 90
       50
102
RTVSPost2010PropOp46
 70
     1
102
RTVSPost2010Prop47
 90
       50
102
RTVSPost2010PropOp47
 70
     1
102
RTVSPost2010Prop48
 90
       50
102
RTVSPost2010PropOp48
 70
     1
102
RTVSPost2010Prop49
280
     0
102
RTVSPost2010PropOp49
 70
     1
102
RTVSPost2010Prop50
 90
       50
102
RTVSPost2010PropOp50
 70
     1
102
RTVSPost2010Prop51ColorIndex
 90
      256
102
RTVSPost2010Prop51ColorRGB
 90
-16777216
102
RTVSPost2010PropOp51
 70
     0
102
RTVSPost2010Prop52
140
1.0
102
RTVSPost2010PropOp52
 70
     0
102
RTVSPost2010Prop53
 90
        2
102
RTVSPost2010PropOp53
 70
     1
102
RTVSPost2010Prop54
  1
strokes_ogs.tif
102
RTVSPost2010PropOp54
 70
     1
102
RTVSPost2010Prop55
280
     0
102
RTVSPost2010PropOp55
 70
     1
102
RTVSPost2010Prop56
140
1.0
102
RTVSPost2010PropOp56
 70
     1
102
RTVSPost2010Prop57
140
1.0
102
RTVSPost2010PropOp57
 70
     1
102
RTVSPropertyOp0
 70
     1
102
RTVSPropertyOp1
 70
     1
102
RTVSPropertyOp2
 70
     1
102
RTVSPropertyOp3
 70
     1
102
RTVSPropertyOp4
 70
     1
102
RTVSPropertyOp5
 70
     1
102
RTVSPropertyOp6
 70
     1
102
RTVSPropertyOp7
 70
     1
102
RTVSPropertyOp8
 70
     1
102
RTVSPropertyOp9
 70
     1
102
RTVSPropertyOp10
 70
     1
102
RTVSPropertyOp11
 70
     1
102
RTVSPropertyOp12
 70
     1
102
RTVSPropertyOp13
 70
     1
102
RTVSPropertyOp14
 70
     1
102
RTVSPropertyOp15
 70
     1
102
RTVSPropertyOp16
 70
     1
102
RTVSPropertyOp17
 70
     1
102
RTVSPropertyOp18
 70
     1
102
RTVSPropertyOp19
 70
     1
102
RTVSPropertyOp20
 70
     1
102
RTVSPropertyOp21
 70
     1
102
RTVSPropertyOp22
 70
     1
102
RTVSPropertyOp23
 70
     1
102
RTVSPropertyOp24
 70
     1
102
RTVSPropertyOp25
 70
     1
102
RTVSPropertyOp26
 70
     1
102
RTVSPropertyOp27
 70
     1
102
RTVSPropertyOp28
 70
     1
102
RTVSPropertyOp29
 70
     1
102
RTVSPropertyOp30
 70
     1
102
RTVSPropertyOp31
 70
     1
102
RTVSPropertyOp32
 70
     1
102
RTVSPropertyOp33
 70
     1
102
RTVSPropertyOp34
 70
     1
102
RTVSPropertyOp35
 70
     1
102
RTVSPropertyOp36
 70
     1
102
RTVSPropertyOp37
 70
     1
102
RTVSPropertyOp38
 70
     1
102
RTVSPropertyOp39
 70
     1
102
RTVSPropertyOp40
 70
     1
102
RTVSPropertyOp41
 70
     1
102
RTVSPropertyOp42
 70
     1
102
RTVSPropertyOp43
 70
     1
102
RTVSPropertyOp44
 70
     1
102
RTVSPropertyOp45
 70
     1
102
RTVSPropertyOp46
 70
     1
102
RTVSPropertyOp47
 70
     1
102
RTVSPropertyOp48
 70
     1
102
RTVSPropertyOp49
 70
     1
102
RTVSPropertyOp50
 70
     1
102
RTVSPropertyOp51
 70
     0
102
RTVSPropertyOp52
 70
     0
102
RTVSPropertyOp53
 70
     1
102
RTVSPropertyOp54
 70
     1
102
RTVSPropertyOp55
 70
     1
102
RTVSPropertyOp56
 70
     1
102
RTVSPropertyOp57
 70
     1
102
RTVSPropertyOp58
 70
     1
102
RTVSPropertyOp59
 70
     1
102
RTVSPropertyOp60
 70
     1
102
RTVSPropertyOp61
 70
     1
102
RTVSPropertyOp62
 70
     1
  0
XRECORD
  5
AA1A
102
{ACAD_REACTORS
330
AA19
102
}
330
AA19
100
AcDbXrecord
280
     1
102
RTVSPost2010Prop28
280
     0
102
RTVSPost2010PropOp28
 70
     1
102
RTVSPost2010Prop29
280
     1
102
RTVSPost2010PropOp29
 70
     1
102
RTVSPost2010Prop30
280
     1
102
RTVSPost2010PropOp30
 70
     1
102
RTVSPost2010Prop31
280
     0
102
RTVSPost2010PropOp31
 70
     1
102
RTVSPost2010Prop32
280
     0
102
RTVSPost2010PropOp32
 70
     1
102
RTVSPost2010Prop33
280
     0
102
RTVSPost2010PropOp33
 70
     1
102
RTVSPost2010Prop34
280
     0
102
RTVSPost2010PropOp34
 70
     1
102
RTVSPost2010Prop35
280
     0
102
RTVSPost2010PropOp35
 70
     1
102
RTVSPost2010Prop36
280
     0
102
RTVSPost2010PropOp36
 70
     1
102
RTVSPost2010Prop37
 90
       50
102
RTVSPost2010PropOp37
 70
     1
102
RTVSPost2010Prop38
140
0.0
102
RTVSPost2010PropOp38
 70
     1
102
RTVSPost2010Prop39
140
1.0
102
RTVSPost2010PropOp39
 70
     1
102
RTVSPost2010Prop40
 90
        0
102
RTVSPost2010PropOp40
 70
     1
102
RTVSPost2010Prop41ColorIndex
 90
       18
102
RTVSPost2010Prop41ColorRGB
 90
        0
102
RTVSPost2010PropOp41
 70
     1
102
RTVSPost2010Prop42
 90
       50
102
RTVSPost2010PropOp42
 70
     1
102
RTVSPost2010Prop43
 90
        3
102
RTVSPost2010PropOp43
 70
     1
102
RTVSPost2010Prop44ColorIndex
 90
        5
102
RTVSPost2010Prop44ColorRGB
 90
      255
102
RTVSPost2010PropOp44
 70
     1
102
RTVSPost2010Prop45
280
     0
102
RTVSPost2010PropOp45
 70
     1
102
RTVSPost2010Prop46
 90
       50
102
RTVSPost2010PropOp46
 70
     1
102
RTVSPost2010Prop47
 90
       50
102
RTVSPost2010PropOp47
 70
     1
102
RTVSPost2010Prop48
 90
       50
102
RTVSPost2010PropOp48
 70
     1
102
RTVSPost2010Prop49
280
     0
102
RTVSPost2010PropOp49
 70
     1
102
RTVSPost2010Prop50
 90
       50
102
RTVSPost2010PropOp50
 70
     1
102
RTVSPost2010Prop51ColorIndex
 90
      256
102
RTVSPost2010Prop51ColorRGB
 90
-16777216
102
RTVSPost2010PropOp51
 70
     0
102
RTVSPost2010Prop52
140
1.0
102
RTVSPost2010PropOp52
 70
     0
102
RTVSPost2010Prop53
 90
        2
102
RTVSPost2010PropOp53
 70
     1
102
RTVSPost2010Prop54
  1
strokes_ogs.tif
102
RTVSPost2010PropOp54
 70
     1
102
RTVSPost2010Prop55
280
     0
102
RTVSPost2010PropOp55
 70
     1
102
RTVSPost2010Prop56
140
1.0
102
RTVSPost2010PropOp56
 70
     1
102
RTVSPost2010Prop57
140
1.0
102
RTVSPost2010PropOp57
 70
     1
102
RTVSPropertyOp0
 70
     1
102
RTVSPropertyOp1
 70
     1
102
RTVSPropertyOp2
 70
     1
102
RTVSPropertyOp3
 70
     1
102
RTVSPropertyOp4
 70
     1
102
RTVSPropertyOp5
 70
     1
102
RTVSPropertyOp6
 70
     1
102
RTVSPropertyOp7
 70
     1
102
RTVSPropertyOp8
 70
     1
102
RTVSPropertyOp9
 70
     1
102
RTVSPropertyOp10
 70
     1
102
RTVSPropertyOp11
 70
     1
102
RTVSPropertyOp12
 70
     1
102
RTVSPropertyOp13
 70
     1
102
RTVSPropertyOp14
 70
     1
102
RTVSPropertyOp15
 70
     1
102
RTVSPropertyOp16
 70
     1
102
RTVSPropertyOp17
 70
     1
102
RTVSPropertyOp18
 70
     1
102
RTVSPropertyOp19
 70
     1
102
RTVSPropertyOp20
 70
     1
102
RTVSPropertyOp21
 70
     1
102
RTVSPropertyOp22
 70
     1
102
RTVSPropertyOp23
 70
     1
102
RTVSPropertyOp24
 70
     1
102
RTVSPropertyOp25
 70
     1
102
RTVSPropertyOp26
 70
     1
102
RTVSPropertyOp27
 70
     1
102
RTVSPropertyOp28
 70
     1
102
RTVSPropertyOp29
 70
     1
102
RTVSPropertyOp30
 70
     1
102
RTVSPropertyOp31
 70
     1
102
RTVSPropertyOp32
 70
     1
102
RTVSPropertyOp33
 70
     1
102
RTVSPropertyOp34
 70
     1
102
RTVSPropertyOp35
 70
     1
102
RTVSPropertyOp36
 70
     1
102
RTVSPropertyOp37
 70
     1
102
RTVSPropertyOp38
 70
     1
102
RTVSPropertyOp39
 70
     1
102
RTVSPropertyOp40
 70
     1
102
RTVSPropertyOp41
 70
     1
102
RTVSPropertyOp42
 70
     1
102
RTVSPropertyOp43
 70
     1
102
RTVSPropertyOp44
 70
     1
102
RTVSPropertyOp45
 70
     1
102
RTVSPropertyOp46
 70
     1
102
RTVSPropertyOp47
 70
     1
102
RTVSPropertyOp48
 70
     1
102
RTVSPropertyOp49
 70
     1
102
RTVSPropertyOp50
 70
     1
102
RTVSPropertyOp51
 70
     0
102
RTVSPropertyOp52
 70
     0
102
RTVSPropertyOp53
 70
     1
102
RTVSPropertyOp54
 70
     1
102
RTVSPropertyOp55
 70
     1
102
RTVSPropertyOp56
 70
     1
102
RTVSPropertyOp57
 70
     1
102
RTVSPropertyOp58
 70
     1
102
RTVSPropertyOp59
 70
     1
102
RTVSPropertyOp60
 70
     1
102
RTVSPropertyOp61
 70
     1
102
RTVSPropertyOp62
 70
     1
  0
XRECORD
  5
AA36
102
{ACAD_REACTORS
330
AA35
102
}
330
AA35
100
AcDbXrecord
280
     1
102
RTVSPost2010Prop28
280
     0
102
RTVSPost2010PropOp28
 70
     1
102
RTVSPost2010Prop29
280
     1
102
RTVSPost2010PropOp29
 70
     1
102
RTVSPost2010Prop30
280
     1
102
RTVSPost2010PropOp30
 70
     1
102
RTVSPost2010Prop31
280
     0
102
RTVSPost2010PropOp31
 70
     1
102
RTVSPost2010Prop32
280
     0
102
RTVSPost2010PropOp32
 70
     1
102
RTVSPost2010Prop33
280
     0
102
RTVSPost2010PropOp33
 70
     1
102
RTVSPost2010Prop34
280
     0
102
RTVSPost2010PropOp34
 70
     1
102
RTVSPost2010Prop35
280
     0
102
RTVSPost2010PropOp35
 70
     1
102
RTVSPost2010Prop36
280
     0
102
RTVSPost2010PropOp36
 70
     1
102
RTVSPost2010Prop37
 90
       50
102
RTVSPost2010PropOp37
 70
     0
102
RTVSPost2010Prop38
140
0.0
102
RTVSPost2010PropOp38
 70
     0
102
RTVSPost2010Prop39
140
1.0
102
RTVSPost2010PropOp39
 70
     0
102
RTVSPost2010Prop40
 90
        0
102
RTVSPost2010PropOp40
 70
     0
102
RTVSPost2010Prop41ColorIndex
 90
       18
102
RTVSPost2010Prop41ColorRGB
 90
        0
102
RTVSPost2010PropOp41
 70
     0
102
RTVSPost2010Prop42
 90
       50
102
RTVSPost2010PropOp42
 70
     0
102
RTVSPost2010Prop43
 90
        3
102
RTVSPost2010PropOp43
 70
     0
102
RTVSPost2010Prop44ColorIndex
 90
        5
102
RTVSPost2010Prop44ColorRGB
 90
      255
102
RTVSPost2010PropOp44
 70
     0
102
RTVSPost2010Prop45
280
     0
102
RTVSPost2010PropOp45
 70
     1
102
RTVSPost2010Prop46
 90
       50
102
RTVSPost2010PropOp46
 70
     0
102
RTVSPost2010Prop47
 90
       50
102
RTVSPost2010PropOp47
 70
     0
102
RTVSPost2010Prop48
 90
       50
102
RTVSPost2010PropOp48
 70
     0
102
RTVSPost2010Prop49
280
     0
102
RTVSPost2010PropOp49
 70
     1
102
RTVSPost2010Prop50
 90
       50
102
RTVSPost2010PropOp50
 70
     0
102
RTVSPost2010Prop51ColorIndex
 90
      256
102
RTVSPost2010Prop51ColorRGB
 90
-16777216
102
RTVSPost2010PropOp51
 70
     0
102
RTVSPost2010Prop52
140
1.0
102
RTVSPost2010PropOp52
 70
     0
102
RTVSPost2010Prop53
 90
        2
102
RTVSPost2010PropOp53
 70
     0
102
RTVSPost2010Prop54
  1
strokes_ogs.tif
102
RTVSPost2010PropOp54
 70
     0
102
RTVSPost2010Prop55
280
     0
102
RTVSPost2010PropOp55
 70
     1
102
RTVSPost2010Prop56
140
1.0
102
RTVSPost2010PropOp56
 70
     0
102
RTVSPost2010Prop57
140
1.0
102
RTVSPost2010PropOp57
 70
     0
102
RTVSPropertyOp0
 70
     0
102
RTVSPropertyOp1
 70
     0
102
RTVSPropertyOp2
 70
     0
102
RTVSPropertyOp3
 70
     0
102
RTVSPropertyOp4
 70
     0
102
RTVSPropertyOp5
 70
     0
102
RTVSPropertyOp6
 70
     0
102
RTVSPropertyOp7
 70
     0
102
RTVSPropertyOp8
 70
     0
102
RTVSPropertyOp9
 70
     0
102
RTVSPropertyOp10
 70
     0
102
RTVSPropertyOp11
 70
     0
102
RTVSPropertyOp12
 70
     0
102
RTVSPropertyOp13
 70
     0
102
RTVSPropertyOp14
 70
     2
102
RTVSPropertyOp15
 70
     0
102
RTVSPropertyOp16
 70
     0
102
RTVSPropertyOp17
 70
     0
102
RTVSPropertyOp18
 70
     0
102
RTVSPropertyOp19
 70
     0
102
RTVSPropertyOp20
 70
     0
102
RTVSPropertyOp21
 70
     0
102
RTVSPropertyOp22
 70
     0
102
RTVSPropertyOp23
 70
     0
102
RTVSPropertyOp24
 70
     0
102
RTVSPropertyOp25
 70
     0
102
RTVSPropertyOp26
 70
     0
102
RTVSPropertyOp27
 70
     0
102
RTVSPropertyOp28
 70
     1
102
RTVSPropertyOp29
 70
     1
102
RTVSPropertyOp30
 70
     1
102
RTVSPropertyOp31
 70
     1
102
RTVSPropertyOp32
 70
     1
102
RTVSPropertyOp33
 70
     1
102
RTVSPropertyOp34
 70
     1
102
RTVSPropertyOp35
 70
     1
102
RTVSPropertyOp36
 70
     1
102
RTVSPropertyOp37
 70
     0
102
RTVSPropertyOp38
 70
     0
102
RTVSPropertyOp39
 70
     0
102
RTVSPropertyOp40
 70
     0
102
RTVSPropertyOp41
 70
     0
102
RTVSPropertyOp42
 70
     0
102
RTVSPropertyOp43
 70
     0
102
RTVSPropertyOp44
 70
     0
102
RTVSPropertyOp45
 70
     1
102
RTVSPropertyOp46
 70
     0
102
RTVSPropertyOp47
 70
     0
102
RTVSPropertyOp48
 70
     0
102
RTVSPropertyOp49
 70
     1
102
RTVSPropertyOp50
 70
     0
102
RTVSPropertyOp51
 70
     0
102
RTVSPropertyOp52
 70
     0
102
RTVSPropertyOp53
 70
     0
102
RTVSPropertyOp54
 70
     0
102
RTVSPropertyOp55
 70
     1
102
RTVSPropertyOp56
 70
     0
102
RTVSPropertyOp57
 70
     0
102
RTVSPropertyOp58
 70
     0
102
RTVSPropertyOp59
 70
     0
102
RTVSPropertyOp60
 70
     0
102
RTVSPropertyOp61
 70
     0
102
RTVSPropertyOp62
 70
     0
  0
XRECORD
  5
AA26
102
{ACAD_REACTORS
330
AA25
102
}
330
AA25
100
AcDbXrecord
280
     1
102
RTVSPost2010Prop28
280
     0
102
RTVSPost2010PropOp28
 70
     1
102
RTVSPost2010Prop29
280
     1
102
RTVSPost2010PropOp29
 70
     1
102
RTVSPost2010Prop30
280
     1
102
RTVSPost2010PropOp30
 70
     1
102
RTVSPost2010Prop31
280
     0
102
RTVSPost2010PropOp31
 70
     1
102
RTVSPost2010Prop32
280
     0
102
RTVSPost2010PropOp32
 70
     1
102
RTVSPost2010Prop33
280
     0
102
RTVSPost2010PropOp33
 70
     1
102
RTVSPost2010Prop34
280
     0
102
RTVSPost2010PropOp34
 70
     1
102
RTVSPost2010Prop35
280
     0
102
RTVSPost2010PropOp35
 70
     1
102
RTVSPost2010Prop36
280
     0
102
RTVSPost2010PropOp36
 70
     1
102
RTVSPost2010Prop37
 90
       50
102
RTVSPost2010PropOp37
 70
     1
102
RTVSPost2010Prop38
140
0.0
102
RTVSPost2010PropOp38
 70
     1
102
RTVSPost2010Prop39
140
1.0
102
RTVSPost2010PropOp39
 70
     1
102
RTVSPost2010Prop40
 90
        0
102
RTVSPost2010PropOp40
 70
     1
102
RTVSPost2010Prop41ColorIndex
 90
       18
102
RTVSPost2010Prop41ColorRGB
 90
        0
102
RTVSPost2010PropOp41
 70
     1
102
RTVSPost2010Prop42
 90
       50
102
RTVSPost2010PropOp42
 70
     1
102
RTVSPost2010Prop43
 90
        3
102
RTVSPost2010PropOp43
 70
     1
102
RTVSPost2010Prop44ColorIndex
 90
        5
102
RTVSPost2010Prop44ColorRGB
 90
      255
102
RTVSPost2010PropOp44
 70
     1
102
RTVSPost2010Prop45
280
     0
102
RTVSPost2010PropOp45
 70
     1
102
RTVSPost2010Prop46
 90
       50
102
RTVSPost2010PropOp46
 70
     1
102
RTVSPost2010Prop47
 90
       50
102
RTVSPost2010PropOp47
 70
     1
102
RTVSPost2010Prop48
 90
       50
102
RTVSPost2010PropOp48
 70
     1
102
RTVSPost2010Prop49
280
     0
102
RTVSPost2010PropOp49
 70
     1
102
RTVSPost2010Prop50
 90
       50
102
RTVSPost2010PropOp50
 70
     1
102
RTVSPost2010Prop51ColorIndex
 90
      256
102
RTVSPost2010Prop51ColorRGB
 90
-16777216
102
RTVSPost2010PropOp51
 70
     0
102
RTVSPost2010Prop52
140
1.0
102
RTVSPost2010PropOp52
 70
     0
102
RTVSPost2010Prop53
 90
        2
102
RTVSPost2010PropOp53
 70
     1
102
RTVSPost2010Prop54
  1
strokes_ogs.tif
102
RTVSPost2010PropOp54
 70
     1
102
RTVSPost2010Prop55
280
     0
102
RTVSPost2010PropOp55
 70
     1
102
RTVSPost2010Prop56
140
1.0
102
RTVSPost2010PropOp56
 70
     1
102
RTVSPost2010Prop57
140
1.0
102
RTVSPost2010PropOp57
 70
     1
102
RTVSPropertyOp0
 70
     1
102
RTVSPropertyOp1
 70
     1
102
RTVSPropertyOp2
 70
     1
102
RTVSPropertyOp3
 70
     1
102
RTVSPropertyOp4
 70
     1
102
RTVSPropertyOp5
 70
     1
102
RTVSPropertyOp6
 70
     1
102
RTVSPropertyOp7
 70
     1
102
RTVSPropertyOp8
 70
     1
102
RTVSPropertyOp9
 70
     1
102
RTVSPropertyOp10
 70
     1
102
RTVSPropertyOp11
 70
     1
102
RTVSPropertyOp12
 70
     1
102
RTVSPropertyOp13
 70
     1
102
RTVSPropertyOp14
 70
     1
102
RTVSPropertyOp15
 70
     1
102
RTVSPropertyOp16
 70
     1
102
RTVSPropertyOp17
 70
     1
102
RTVSPropertyOp18
 70
     1
102
RTVSPropertyOp19
 70
     1
102
RTVSPropertyOp20
 70
     1
102
RTVSPropertyOp21
 70
     1
102
RTVSPropertyOp22
 70
     1
102
RTVSPropertyOp23
 70
     1
102
RTVSPropertyOp24
 70
     1
102
RTVSPropertyOp25
 70
     1
102
RTVSPropertyOp26
 70
     1
102
RTVSPropertyOp27
 70
     1
102
RTVSPropertyOp28
 70
     1
102
RTVSPropertyOp29
 70
     1
102
RTVSPropertyOp30
 70
     1
102
RTVSPropertyOp31
 70
     1
102
RTVSPropertyOp32
 70
     1
102
RTVSPropertyOp33
 70
     1
102
RTVSPropertyOp34
 70
     1
102
RTVSPropertyOp35
 70
     1
102
RTVSPropertyOp36
 70
     1
102
RTVSPropertyOp37
 70
     1
102
RTVSPropertyOp38
 70
     1
102
RTVSPropertyOp39
 70
     1
102
RTVSPropertyOp40
 70
     1
102
RTVSPropertyOp41
 70
     1
102
RTVSPropertyOp42
 70
     1
102
RTVSPropertyOp43
 70
     1
102
RTVSPropertyOp44
 70
     1
102
RTVSPropertyOp45
 70
     1
102
RTVSPropertyOp46
 70
     1
102
RTVSPropertyOp47
 70
     1
102
RTVSPropertyOp48
 70
     1
102
RTVSPropertyOp49
 70
     1
102
RTVSPropertyOp50
 70
     1
102
RTVSPropertyOp51
 70
     0
102
RTVSPropertyOp52
 70
     0
102
RTVSPropertyOp53
 70
     1
102
RTVSPropertyOp54
 70
     1
102
RTVSPropertyOp55
 70
     1
102
RTVSPropertyOp56
 70
     1
102
RTVSPropertyOp57
 70
     1
102
RTVSPropertyOp58
 70
     1
102
RTVSPropertyOp59
 70
     1
102
RTVSPropertyOp60
 70
     1
102
RTVSPropertyOp61
 70
     1
102
RTVSPropertyOp62
 70
     1
  0
XRECORD
  5
AA38
102
{ACAD_REACTORS
330
AA37
102
}
330
AA37
100
AcDbXrecord
280
     1
102
RTVSPost2010Prop28
280
     0
102
RTVSPost2010PropOp28
 70
     1
102
RTVSPost2010Prop29
280
     1
102
RTVSPost2010PropOp29
 70
     1
102
RTVSPost2010Prop30
280
     1
102
RTVSPost2010PropOp30
 70
     1
102
RTVSPost2010Prop31
280
     0
102
RTVSPost2010PropOp31
 70
     1
102
RTVSPost2010Prop32
280
     0
102
RTVSPost2010PropOp32
 70
     1
102
RTVSPost2010Prop33
280
     0
102
RTVSPost2010PropOp33
 70
     1
102
RTVSPost2010Prop34
280
     0
102
RTVSPost2010PropOp34
 70
     1
102
RTVSPost2010Prop35
280
     0
102
RTVSPost2010PropOp35
 70
     1
102
RTVSPost2010Prop36
280
     0
102
RTVSPost2010PropOp36
 70
     1
102
RTVSPost2010Prop37
 90
       50
102
RTVSPost2010PropOp37
 70
     0
102
RTVSPost2010Prop38
140
0.0
102
RTVSPost2010PropOp38
 70
     0
102
RTVSPost2010Prop39
140
1.0
102
RTVSPost2010PropOp39
 70
     0
102
RTVSPost2010Prop40
 90
        0
102
RTVSPost2010PropOp40
 70
     0
102
RTVSPost2010Prop41ColorIndex
 90
       18
102
RTVSPost2010Prop41ColorRGB
 90
        0
102
RTVSPost2010PropOp41
 70
     0
102
RTVSPost2010Prop42
 90
       50
102
RTVSPost2010PropOp42
 70
     0
102
RTVSPost2010Prop43
 90
        3
102
RTVSPost2010PropOp43
 70
     0
102
RTVSPost2010Prop44ColorIndex
 90
        5
102
RTVSPost2010Prop44ColorRGB
 90
      255
102
RTVSPost2010PropOp44
 70
     0
102
RTVSPost2010Prop45
280
     0
102
RTVSPost2010PropOp45
 70
     1
102
RTVSPost2010Prop46
 90
       50
102
RTVSPost2010PropOp46
 70
     0
102
RTVSPost2010Prop47
 90
       50
102
RTVSPost2010PropOp47
 70
     0
102
RTVSPost2010Prop48
 90
       50
102
RTVSPost2010PropOp48
 70
     0
102
RTVSPost2010Prop49
280
     0
102
RTVSPost2010PropOp49
 70
     1
102
RTVSPost2010Prop50
 90
       50
102
RTVSPost2010PropOp50
 70
     0
102
RTVSPost2010Prop51ColorIndex
 90
      256
102
RTVSPost2010Prop51ColorRGB
 90
-16777216
102
RTVSPost2010PropOp51
 70
     0
102
RTVSPost2010Prop52
140
1.0
102
RTVSPost2010PropOp52
 70
     0
102
RTVSPost2010Prop53
 90
        2
102
RTVSPost2010PropOp53
 70
     0
102
RTVSPost2010Prop54
  1
strokes_ogs.tif
102
RTVSPost2010PropOp54
 70
     0
102
RTVSPost2010Prop55
280
     0
102
RTVSPost2010PropOp55
 70
     1
102
RTVSPost2010Prop56
140
1.0
102
RTVSPost2010PropOp56
 70
     0
102
RTVSPost2010Prop57
140
1.0
102
RTVSPost2010PropOp57
 70
     0
102
RTVSPropertyOp0
 70
     0
102
RTVSPropertyOp1
 70
     0
102
RTVSPropertyOp2
 70
     0
102
RTVSPropertyOp3
 70
     0
102
RTVSPropertyOp4
 70
     0
102
RTVSPropertyOp5
 70
     0
102
RTVSPropertyOp6
 70
     0
102
RTVSPropertyOp7
 70
     0
102
RTVSPropertyOp8
 70
     0
102
RTVSPropertyOp9
 70
     0
102
RTVSPropertyOp10
 70
     0
102
RTVSPropertyOp11
 70
     0
102
RTVSPropertyOp12
 70
     0
102
RTVSPropertyOp13
 70
     0
102
RTVSPropertyOp14
 70
     2
102
RTVSPropertyOp15
 70
     0
102
RTVSPropertyOp16
 70
     0
102
RTVSPropertyOp17
 70
     0
102
RTVSPropertyOp18
 70
     0
102
RTVSPropertyOp19
 70
     0
102
RTVSPropertyOp20
 70
     0
102
RTVSPropertyOp21
 70
     0
102
RTVSPropertyOp22
 70
     0
102
RTVSPropertyOp23
 70
     0
102
RTVSPropertyOp24
 70
     0
102
RTVSPropertyOp25
 70
     0
102
RTVSPropertyOp26
 70
     0
102
RTVSPropertyOp27
 70
     0
102
RTVSPropertyOp28
 70
     1
102
RTVSPropertyOp29
 70
     1
102
RTVSPropertyOp30
 70
     1
102
RTVSPropertyOp31
 70
     1
102
RTVSPropertyOp32
 70
     1
102
RTVSPropertyOp33
 70
     1
102
RTVSPropertyOp34
 70
     1
102
RTVSPropertyOp35
 70
     1
102
RTVSPropertyOp36
 70
     1
102
RTVSPropertyOp37
 70
     0
102
RTVSPropertyOp38
 70
     0
102
RTVSPropertyOp39
 70
     0
102
RTVSPropertyOp40
 70
     0
102
RTVSPropertyOp41
 70
     0
102
RTVSPropertyOp42
 70
     0
102
RTVSPropertyOp43
 70
     0
102
RTVSPropertyOp44
 70
     0
102
RTVSPropertyOp45
 70
     1
102
RTVSPropertyOp46
 70
     0
102
RTVSPropertyOp47
 70
     0
102
RTVSPropertyOp48
 70
     0
102
RTVSPropertyOp49
 70
     1
102
RTVSPropertyOp50
 70
     0
102
RTVSPropertyOp51
 70
     0
102
RTVSPropertyOp52
 70
     0
102
RTVSPropertyOp53
 70
     0
102
RTVSPropertyOp54
 70
     0
102
RTVSPropertyOp55
 70
     1
102
RTVSPropertyOp56
 70
     0
102
RTVSPropertyOp57
 70
     0
102
RTVSPropertyOp58
 70
     0
102
RTVSPropertyOp59
 70
     0
102
RTVSPropertyOp60
 70
     0
102
RTVSPropertyOp61
 70
     0
102
RTVSPropertyOp62
 70
     0
  0
XRECORD
  5
AA1E
102
{ACAD_REACTORS
330
AA1D
102
}
330
AA1D
100
AcDbXrecord
280
     1
102
RTVSPost2010Prop28
280
     0
102
RTVSPost2010PropOp28
 70
     1
102
RTVSPost2010Prop29
280
     1
102
RTVSPost2010PropOp29
 70
     1
102
RTVSPost2010Prop30
280
     1
102
RTVSPost2010PropOp30
 70
     1
102
RTVSPost2010Prop31
280
     0
102
RTVSPost2010PropOp31
 70
     1
102
RTVSPost2010Prop32
280
     0
102
RTVSPost2010PropOp32
 70
     1
102
RTVSPost2010Prop33
280
     0
102
RTVSPost2010PropOp33
 70
     1
102
RTVSPost2010Prop34
280
     0
102
RTVSPost2010PropOp34
 70
     1
102
RTVSPost2010Prop35
280
     0
102
RTVSPost2010PropOp35
 70
     1
102
RTVSPost2010Prop36
280
     0
102
RTVSPost2010PropOp36
 70
     1
102
RTVSPost2010Prop37
 90
       50
102
RTVSPost2010PropOp37
 70
     1
102
RTVSPost2010Prop38
140
0.0
102
RTVSPost2010PropOp38
 70
     1
102
RTVSPost2010Prop39
140
1.0
102
RTVSPost2010PropOp39
 70
     1
102
RTVSPost2010Prop40
 90
        0
102
RTVSPost2010PropOp40
 70
     1
102
RTVSPost2010Prop41ColorIndex
 90
       18
102
RTVSPost2010Prop41ColorRGB
 90
        0
102
RTVSPost2010PropOp41
 70
     1
102
RTVSPost2010Prop42
 90
       50
102
RTVSPost2010PropOp42
 70
     1
102
RTVSPost2010Prop43
 90
        3
102
RTVSPost2010PropOp43
 70
     1
102
RTVSPost2010Prop44ColorIndex
 90
        5
102
RTVSPost2010Prop44ColorRGB
 90
      255
102
RTVSPost2010PropOp44
 70
     1
102
RTVSPost2010Prop45
280
     0
102
RTVSPost2010PropOp45
 70
     1
102
RTVSPost2010Prop46
 90
       50
102
RTVSPost2010PropOp46
 70
     1
102
RTVSPost2010Prop47
 90
       50
102
RTVSPost2010PropOp47
 70
     1
102
RTVSPost2010Prop48
 90
       50
102
RTVSPost2010PropOp48
 70
     1
102
RTVSPost2010Prop49
280
     0
102
RTVSPost2010PropOp49
 70
     1
102
RTVSPost2010Prop50
 90
       50
102
RTVSPost2010PropOp50
 70
     1
102
RTVSPost2010Prop51ColorIndex
 90
      256
102
RTVSPost2010Prop51ColorRGB
 90
-16777216
102
RTVSPost2010PropOp51
 70
     0
102
RTVSPost2010Prop52
140
1.0
102
RTVSPost2010PropOp52
 70
     0
102
RTVSPost2010Prop53
 90
        2
102
RTVSPost2010PropOp53
 70
     1
102
RTVSPost2010Prop54
  1
strokes_ogs.tif
102
RTVSPost2010PropOp54
 70
     1
102
RTVSPost2010Prop55
280
     0
102
RTVSPost2010PropOp55
 70
     1
102
RTVSPost2010Prop56
140
1.0
102
RTVSPost2010PropOp56
 70
     1
102
RTVSPost2010Prop57
140
1.0
102
RTVSPost2010PropOp57
 70
     1
102
RTVSPropertyOp0
 70
     1
102
RTVSPropertyOp1
 70
     1
102
RTVSPropertyOp2
 70
     1
102
RTVSPropertyOp3
 70
     1
102
RTVSPropertyOp4
 70
     1
102
RTVSPropertyOp5
 70
     1
102
RTVSPropertyOp6
 70
     1
102
RTVSPropertyOp7
 70
     1
102
RTVSPropertyOp8
 70
     1
102
RTVSPropertyOp9
 70
     1
102
RTVSPropertyOp10
 70
     1
102
RTVSPropertyOp11
 70
     1
102
RTVSPropertyOp12
 70
     1
102
RTVSPropertyOp13
 70
     1
102
RTVSPropertyOp14
 70
     1
102
RTVSPropertyOp15
 70
     1
102
RTVSPropertyOp16
 70
     1
102
RTVSPropertyOp17
 70
     1
102
RTVSPropertyOp18
 70
     1
102
RTVSPropertyOp19
 70
     1
102
RTVSPropertyOp20
 70
     1
102
RTVSPropertyOp21
 70
     1
102
RTVSPropertyOp22
 70
     1
102
RTVSPropertyOp23
 70
     1
102
RTVSPropertyOp24
 70
     1
102
RTVSPropertyOp25
 70
     1
102
RTVSPropertyOp26
 70
     1
102
RTVSPropertyOp27
 70
     1
102
RTVSPropertyOp28
 70
     1
102
RTVSPropertyOp29
 70
     1
102
RTVSPropertyOp30
 70
     1
102
RTVSPropertyOp31
 70
     1
102
RTVSPropertyOp32
 70
     1
102
RTVSPropertyOp33
 70
     1
102
RTVSPropertyOp34
 70
     1
102
RTVSPropertyOp35
 70
     1
102
RTVSPropertyOp36
 70
     1
102
RTVSPropertyOp37
 70
     1
102
RTVSPropertyOp38
 70
     1
102
RTVSPropertyOp39
 70
     1
102
RTVSPropertyOp40
 70
     1
102
RTVSPropertyOp41
 70
     1
102
RTVSPropertyOp42
 70
     1
102
RTVSPropertyOp43
 70
     1
102
RTVSPropertyOp44
 70
     1
102
RTVSPropertyOp45
 70
     1
102
RTVSPropertyOp46
 70
     1
102
RTVSPropertyOp47
 70
     1
102
RTVSPropertyOp48
 70
     1
102
RTVSPropertyOp49
 70
     1
102
RTVSPropertyOp50
 70
     1
102
RTVSPropertyOp51
 70
     0
102
RTVSPropertyOp52
 70
     0
102
RTVSPropertyOp53
 70
     1
102
RTVSPropertyOp54
 70
     1
102
RTVSPropertyOp55
 70
     1
102
RTVSPropertyOp56
 70
     1
102
RTVSPropertyOp57
 70
     1
102
RTVSPropertyOp58
 70
     1
102
RTVSPropertyOp59
 70
     1
102
RTVSPropertyOp60
 70
     1
102
RTVSPropertyOp61
 70
     1
102
RTVSPropertyOp62
 70
     1
  0
XRECORD
  5
AA34
102
{ACAD_REACTORS
330
AA33
102
}
330
AA33
100
AcDbXrecord
280
     1
102
RTVSPost2010Prop28
280
     0
102
RTVSPost2010PropOp28
 70
     1
102
RTVSPost2010Prop29
280
     1
102
RTVSPost2010PropOp29
 70
     1
102
RTVSPost2010Prop30
280
     1
102
RTVSPost2010PropOp30
 70
     1
102
RTVSPost2010Prop31
280
     0
102
RTVSPost2010PropOp31
 70
     1
102
RTVSPost2010Prop32
280
     0
102
RTVSPost2010PropOp32
 70
     1
102
RTVSPost2010Prop33
280
     0
102
RTVSPost2010PropOp33
 70
     1
102
RTVSPost2010Prop34
280
     0
102
RTVSPost2010PropOp34
 70
     1
102
RTVSPost2010Prop35
280
     0
102
RTVSPost2010PropOp35
 70
     1
102
RTVSPost2010Prop36
280
     0
102
RTVSPost2010PropOp36
 70
     1
102
RTVSPost2010Prop37
 90
       50
102
RTVSPost2010PropOp37
 70
     1
102
RTVSPost2010Prop38
140
0.0
102
RTVSPost2010PropOp38
 70
     1
102
RTVSPost2010Prop39
140
1.0
102
RTVSPost2010PropOp39
 70
     1
102
RTVSPost2010Prop40
 90
        0
102
RTVSPost2010PropOp40
 70
     1
102
RTVSPost2010Prop41ColorIndex
 90
       18
102
RTVSPost2010Prop41ColorRGB
 90
        0
102
RTVSPost2010PropOp41
 70
     1
102
RTVSPost2010Prop42
 90
       50
102
RTVSPost2010PropOp42
 70
     1
102
RTVSPost2010Prop43
 90
        3
102
RTVSPost2010PropOp43
 70
     1
102
RTVSPost2010Prop44ColorIndex
 90
        5
102
RTVSPost2010Prop44ColorRGB
 90
      255
102
RTVSPost2010PropOp44
 70
     1
102
RTVSPost2010Prop45
280
     0
102
RTVSPost2010PropOp45
 70
     1
102
RTVSPost2010Prop46
 90
       50
102
RTVSPost2010PropOp46
 70
     1
102
RTVSPost2010Prop47
 90
       50
102
RTVSPost2010PropOp47
 70
     1
102
RTVSPost2010Prop48
 90
       50
102
RTVSPost2010PropOp48
 70
     1
102
RTVSPost2010Prop49
280
     0
102
RTVSPost2010PropOp49
 70
     1
102
RTVSPost2010Prop50
 90
       50
102
RTVSPost2010PropOp50
 70
     1
102
RTVSPost2010Prop51ColorIndex
 90
      256
102
RTVSPost2010Prop51ColorRGB
 90
-16777216
102
RTVSPost2010PropOp51
 70
     0
102
RTVSPost2010Prop52
140
1.0
102
RTVSPost2010PropOp52
 70
     0
102
RTVSPost2010Prop53
 90
        2
102
RTVSPost2010PropOp53
 70
     1
102
RTVSPost2010Prop54
  1
strokes_ogs.tif
102
RTVSPost2010PropOp54
 70
     1
102
RTVSPost2010Prop55
280
     0
102
RTVSPost2010PropOp55
 70
     1
102
RTVSPost2010Prop56
140
1.0
102
RTVSPost2010PropOp56
 70
     1
102
RTVSPost2010Prop57
140
1.0
102
RTVSPost2010PropOp57
 70
     1
102
RTVSPropertyOp0
 70
     1
102
RTVSPropertyOp1
 70
     1
102
RTVSPropertyOp2
 70
     1
102
RTVSPropertyOp3
 70
     1
102
RTVSPropertyOp4
 70
     1
102
RTVSPropertyOp5
 70
     1
102
RTVSPropertyOp6
 70
     1
102
RTVSPropertyOp7
 70
     1
102
RTVSPropertyOp8
 70
     1
102
RTVSPropertyOp9
 70
     1
102
RTVSPropertyOp10
 70
     1
102
RTVSPropertyOp11
 70
     1
102
RTVSPropertyOp12
 70
     1
102
RTVSPropertyOp13
 70
     1
102
RTVSPropertyOp14
 70
     1
102
RTVSPropertyOp15
 70
     1
102
RTVSPropertyOp16
 70
     1
102
RTVSPropertyOp17
 70
     1
102
RTVSPropertyOp18
 70
     1
102
RTVSPropertyOp19
 70
     1
102
RTVSPropertyOp20
 70
     1
102
RTVSPropertyOp21
 70
     1
102
RTVSPropertyOp22
 70
     1
102
RTVSPropertyOp23
 70
     1
102
RTVSPropertyOp24
 70
     1
102
RTVSPropertyOp25
 70
     1
102
RTVSPropertyOp26
 70
     1
102
RTVSPropertyOp27
 70
     1
102
RTVSPropertyOp28
 70
     1
102
RTVSPropertyOp29
 70
     1
102
RTVSPropertyOp30
 70
     1
102
RTVSPropertyOp31
 70
     1
102
RTVSPropertyOp32
 70
     1
102
RTVSPropertyOp33
 70
     1
102
RTVSPropertyOp34
 70
     1
102
RTVSPropertyOp35
 70
     1
102
RTVSPropertyOp36
 70
     1
102
RTVSPropertyOp37
 70
     1
102
RTVSPropertyOp38
 70
     1
102
RTVSPropertyOp39
 70
     1
102
RTVSPropertyOp40
 70
     1
102
RTVSPropertyOp41
 70
     1
102
RTVSPropertyOp42
 70
     1
102
RTVSPropertyOp43
 70
     1
102
RTVSPropertyOp44
 70
     1
102
RTVSPropertyOp45
 70
     1
102
RTVSPropertyOp46
 70
     1
102
RTVSPropertyOp47
 70
     1
102
RTVSPropertyOp48
 70
     1
102
RTVSPropertyOp49
 70
     1
102
RTVSPropertyOp50
 70
     1
102
RTVSPropertyOp51
 70
     0
102
RTVSPropertyOp52
 70
     0
102
RTVSPropertyOp53
 70
     1
102
RTVSPropertyOp54
 70
     1
102
RTVSPropertyOp55
 70
     1
102
RTVSPropertyOp56
 70
     1
102
RTVSPropertyOp57
 70
     1
102
RTVSPropertyOp58
 70
     1
102
RTVSPropertyOp59
 70
     1
102
RTVSPropertyOp60
 70
     1
102
RTVSPropertyOp61
 70
     1
102
RTVSPropertyOp62
 70
     1
  0
XRECORD
  5
AA32
102
{ACAD_REACTORS
330
AA31
102
}
330
AA31
100
AcDbXrecord
280
     1
102
RTVSPost2010Prop28
280
     0
102
RTVSPost2010PropOp28
 70
     1
102
RTVSPost2010Prop29
280
     1
102
RTVSPost2010PropOp29
 70
     1
102
RTVSPost2010Prop30
280
     1
102
RTVSPost2010PropOp30
 70
     1
102
RTVSPost2010Prop31
280
     0
102
RTVSPost2010PropOp31
 70
     1
102
RTVSPost2010Prop32
280
     0
102
RTVSPost2010PropOp32
 70
     1
102
RTVSPost2010Prop33
280
     0
102
RTVSPost2010PropOp33
 70
     1
102
RTVSPost2010Prop34
280
     0
102
RTVSPost2010PropOp34
 70
     1
102
RTVSPost2010Prop35
280
     0
102
RTVSPost2010PropOp35
 70
     1
102
RTVSPost2010Prop36
280
     0
102
RTVSPost2010PropOp36
 70
     1
102
RTVSPost2010Prop37
 90
       50
102
RTVSPost2010PropOp37
 70
     1
102
RTVSPost2010Prop38
140
0.0
102
RTVSPost2010PropOp38
 70
     1
102
RTVSPost2010Prop39
140
1.0
102
RTVSPost2010PropOp39
 70
     1
102
RTVSPost2010Prop40
 90
        0
102
RTVSPost2010PropOp40
 70
     1
102
RTVSPost2010Prop41ColorIndex
 90
       18
102
RTVSPost2010Prop41ColorRGB
 90
        0
102
RTVSPost2010PropOp41
 70
     1
102
RTVSPost2010Prop42
 90
       50
102
RTVSPost2010PropOp42
 70
     1
102
RTVSPost2010Prop43
 90
        3
102
RTVSPost2010PropOp43
 70
     1
102
RTVSPost2010Prop44ColorIndex
 90
        5
102
RTVSPost2010Prop44ColorRGB
 90
      255
102
RTVSPost2010PropOp44
 70
     1
102
RTVSPost2010Prop45
280
     0
102
RTVSPost2010PropOp45
 70
     1
102
RTVSPost2010Prop46
 90
       50
102
RTVSPost2010PropOp46
 70
     1
102
RTVSPost2010Prop47
 90
       50
102
RTVSPost2010PropOp47
 70
     1
102
RTVSPost2010Prop48
 90
       50
102
RTVSPost2010PropOp48
 70
     1
102
RTVSPost2010Prop49
280
     0
102
RTVSPost2010PropOp49
 70
     1
102
RTVSPost2010Prop50
 90
       50
102
RTVSPost2010PropOp50
 70
     1
102
RTVSPost2010Prop51ColorIndex
 90
      256
102
RTVSPost2010Prop51ColorRGB
 90
-16777216
102
RTVSPost2010PropOp51
 70
     0
102
RTVSPost2010Prop52
140
1.0
102
RTVSPost2010PropOp52
 70
     0
102
RTVSPost2010Prop53
 90
        2
102
RTVSPost2010PropOp53
 70
     1
102
RTVSPost2010Prop54
  1
strokes_ogs.tif
102
RTVSPost2010PropOp54
 70
     1
102
RTVSPost2010Prop55
280
     0
102
RTVSPost2010PropOp55
 70
     1
102
RTVSPost2010Prop56
140
1.0
102
RTVSPost2010PropOp56
 70
     1
102
RTVSPost2010Prop57
140
1.0
102
RTVSPost2010PropOp57
 70
     1
102
RTVSPropertyOp0
 70
     1
102
RTVSPropertyOp1
 70
     1
102
RTVSPropertyOp2
 70
     1
102
RTVSPropertyOp3
 70
     1
102
RTVSPropertyOp4
 70
     1
102
RTVSPropertyOp5
 70
     1
102
RTVSPropertyOp6
 70
     1
102
RTVSPropertyOp7
 70
     1
102
RTVSPropertyOp8
 70
     1
102
RTVSPropertyOp9
 70
     1
102
RTVSPropertyOp10
 70
     1
102
RTVSPropertyOp11
 70
     1
102
RTVSPropertyOp12
 70
     1
102
RTVSPropertyOp13
 70
     1
102
RTVSPropertyOp14
 70
     1
102
RTVSPropertyOp15
 70
     1
102
RTVSPropertyOp16
 70
     1
102
RTVSPropertyOp17
 70
     1
102
RTVSPropertyOp18
 70
     1
102
RTVSPropertyOp19
 70
     1
102
RTVSPropertyOp20
 70
     1
102
RTVSPropertyOp21
 70
     1
102
RTVSPropertyOp22
 70
     1
102
RTVSPropertyOp23
 70
     1
102
RTVSPropertyOp24
 70
     1
102
RTVSPropertyOp25
 70
     1
102
RTVSPropertyOp26
 70
     1
102
RTVSPropertyOp27
 70
     1
102
RTVSPropertyOp28
 70
     1
102
RTVSPropertyOp29
 70
     1
102
RTVSPropertyOp30
 70
     1
102
RTVSPropertyOp31
 70
     1
102
RTVSPropertyOp32
 70
     1
102
RTVSPropertyOp33
 70
     1
102
RTVSPropertyOp34
 70
     1
102
RTVSPropertyOp35
 70
     1
102
RTVSPropertyOp36
 70
     1
102
RTVSPropertyOp37
 70
     1
102
RTVSPropertyOp38
 70
     1
102
RTVSPropertyOp39
 70
     1
102
RTVSPropertyOp40
 70
     1
102
RTVSPropertyOp41
 70
     1
102
RTVSPropertyOp42
 70
     1
102
RTVSPropertyOp43
 70
     1
102
RTVSPropertyOp44
 70
     1
102
RTVSPropertyOp45
 70
     1
102
RTVSPropertyOp46
 70
     1
102
RTVSPropertyOp47
 70
     1
102
RTVSPropertyOp48
 70
     1
102
RTVSPropertyOp49
 70
     1
102
RTVSPropertyOp50
 70
     1
102
RTVSPropertyOp51
 70
     0
102
RTVSPropertyOp52
 70
     0
102
RTVSPropertyOp53
 70
     1
102
RTVSPropertyOp54
 70
     1
102
RTVSPropertyOp55
 70
     1
102
RTVSPropertyOp56
 70
     1
102
RTVSPropertyOp57
 70
     1
102
RTVSPropertyOp58
 70
     1
102
RTVSPropertyOp59
 70
     1
102
RTVSPropertyOp60
 70
     1
102
RTVSPropertyOp61
 70
     1
102
RTVSPropertyOp62
 70
     1
  0
XRECORD
  5
AA2C
102
{ACAD_REACTORS
330
AA2B
102
}
330
AA2B
100
AcDbXrecord
280
     1
102
RTVSPost2010Prop28
280
     0
102
RTVSPost2010PropOp28
 70
     1
102
RTVSPost2010Prop29
280
     1
102
RTVSPost2010PropOp29
 70
     1
102
RTVSPost2010Prop30
280
     1
102
RTVSPost2010PropOp30
 70
     1
102
RTVSPost2010Prop31
280
     0
102
RTVSPost2010PropOp31
 70
     1
102
RTVSPost2010Prop32
280
     0
102
RTVSPost2010PropOp32
 70
     1
102
RTVSPost2010Prop33
280
     0
102
RTVSPost2010PropOp33
 70
     1
102
RTVSPost2010Prop34
280
     0
102
RTVSPost2010PropOp34
 70
     1
102
RTVSPost2010Prop35
280
     0
102
RTVSPost2010PropOp35
 70
     1
102
RTVSPost2010Prop36
280
     0
102
RTVSPost2010PropOp36
 70
     1
102
RTVSPost2010Prop37
 90
       50
102
RTVSPost2010PropOp37
 70
     1
102
RTVSPost2010Prop38
140
0.0
102
RTVSPost2010PropOp38
 70
     1
102
RTVSPost2010Prop39
140
1.0
102
RTVSPost2010PropOp39
 70
     1
102
RTVSPost2010Prop40
 90
        0
102
RTVSPost2010PropOp40
 70
     1
102
RTVSPost2010Prop41ColorIndex
 90
       18
102
RTVSPost2010Prop41ColorRGB
 90
        0
102
RTVSPost2010PropOp41
 70
     1
102
RTVSPost2010Prop42
 90
       50
102
RTVSPost2010PropOp42
 70
     1
102
RTVSPost2010Prop43
 90
        3
102
RTVSPost2010PropOp43
 70
     1
102
RTVSPost2010Prop44ColorIndex
 90
        5
102
RTVSPost2010Prop44ColorRGB
 90
      255
102
RTVSPost2010PropOp44
 70
     1
102
RTVSPost2010Prop45
280
     0
102
RTVSPost2010PropOp45
 70
     1
102
RTVSPost2010Prop46
 90
       50
102
RTVSPost2010PropOp46
 70
     1
102
RTVSPost2010Prop47
 90
       50
102
RTVSPost2010PropOp47
 70
     1
102
RTVSPost2010Prop48
 90
       50
102
RTVSPost2010PropOp48
 70
     1
102
RTVSPost2010Prop49
280
     0
102
RTVSPost2010PropOp49
 70
     1
102
RTVSPost2010Prop50
 90
       50
102
RTVSPost2010PropOp50
 70
     1
102
RTVSPost2010Prop51ColorIndex
 90
      256
102
RTVSPost2010Prop51ColorRGB
 90
-16777216
102
RTVSPost2010PropOp51
 70
     0
102
RTVSPost2010Prop52
140
1.0
102
RTVSPost2010PropOp52
 70
     0
102
RTVSPost2010Prop53
 90
        2
102
RTVSPost2010PropOp53
 70
     1
102
RTVSPost2010Prop54
  1
strokes_ogs.tif
102
RTVSPost2010PropOp54
 70
     1
102
RTVSPost2010Prop55
280
     0
102
RTVSPost2010PropOp55
 70
     1
102
RTVSPost2010Prop56
140
1.0
102
RTVSPost2010PropOp56
 70
     1
102
RTVSPost2010Prop57
140
1.0
102
RTVSPost2010PropOp57
 70
     1
102
RTVSPropertyOp0
 70
     1
102
RTVSPropertyOp1
 70
     1
102
RTVSPropertyOp2
 70
     1
102
RTVSPropertyOp3
 70
     1
102
RTVSPropertyOp4
 70
     1
102
RTVSPropertyOp5
 70
     1
102
RTVSPropertyOp6
 70
     1
102
RTVSPropertyOp7
 70
     1
102
RTVSPropertyOp8
 70
     1
102
RTVSPropertyOp9
 70
     1
102
RTVSPropertyOp10
 70
     1
102
RTVSPropertyOp11
 70
     1
102
RTVSPropertyOp12
 70
     1
102
RTVSPropertyOp13
 70
     1
102
RTVSPropertyOp14
 70
     1
102
RTVSPropertyOp15
 70
     1
102
RTVSPropertyOp16
 70
     1
102
RTVSPropertyOp17
 70
     1
102
RTVSPropertyOp18
 70
     1
102
RTVSPropertyOp19
 70
     1
102
RTVSPropertyOp20
 70
     1
102
RTVSPropertyOp21
 70
     1
102
RTVSPropertyOp22
 70
     1
102
RTVSPropertyOp23
 70
     1
102
RTVSPropertyOp24
 70
     1
102
RTVSPropertyOp25
 70
     1
102
RTVSPropertyOp26
 70
     1
102
RTVSPropertyOp27
 70
     1
102
RTVSPropertyOp28
 70
     1
102
RTVSPropertyOp29
 70
     1
102
RTVSPropertyOp30
 70
     1
102
RTVSPropertyOp31
 70
     1
102
RTVSPropertyOp32
 70
     1
102
RTVSPropertyOp33
 70
     1
102
RTVSPropertyOp34
 70
     1
102
RTVSPropertyOp35
 70
     1
102
RTVSPropertyOp36
 70
     1
102
RTVSPropertyOp37
 70
     1
102
RTVSPropertyOp38
 70
     1
102
RTVSPropertyOp39
 70
     1
102
RTVSPropertyOp40
 70
     1
102
RTVSPropertyOp41
 70
     1
102
RTVSPropertyOp42
 70
     1
102
RTVSPropertyOp43
 70
     1
102
RTVSPropertyOp44
 70
     1
102
RTVSPropertyOp45
 70
     1
102
RTVSPropertyOp46
 70
     1
102
RTVSPropertyOp47
 70
     1
102
RTVSPropertyOp48
 70
     1
102
RTVSPropertyOp49
 70
     1
102
RTVSPropertyOp50
 70
     1
102
RTVSPropertyOp51
 70
     0
102
RTVSPropertyOp52
 70
     0
102
RTVSPropertyOp53
 70
     1
102
RTVSPropertyOp54
 70
     1
102
RTVSPropertyOp55
 70
     1
102
RTVSPropertyOp56
 70
     1
102
RTVSPropertyOp57
 70
     1
102
RTVSPropertyOp58
 70
     1
102
RTVSPropertyOp59
 70
     1
102
RTVSPropertyOp60
 70
     1
102
RTVSPropertyOp61
 70
     1
102
RTVSPropertyOp62
 70
     1
  0
XRECORD
  5
AA2E
102
{ACAD_REACTORS
330
AA2D
102
}
330
AA2D
100
AcDbXrecord
280
     1
102
RTVSPost2010Prop28
280
     0
102
RTVSPost2010PropOp28
 70
     1
102
RTVSPost2010Prop29
280
     1
102
RTVSPost2010PropOp29
 70
     1
102
RTVSPost2010Prop30
280
     1
102
RTVSPost2010PropOp30
 70
     1
102
RTVSPost2010Prop31
280
     0
102
RTVSPost2010PropOp31
 70
     1
102
RTVSPost2010Prop32
280
     0
102
RTVSPost2010PropOp32
 70
     1
102
RTVSPost2010Prop33
280
     0
102
RTVSPost2010PropOp33
 70
     1
102
RTVSPost2010Prop34
280
     0
102
RTVSPost2010PropOp34
 70
     1
102
RTVSPost2010Prop35
280
     0
102
RTVSPost2010PropOp35
 70
     1
102
RTVSPost2010Prop36
280
     0
102
RTVSPost2010PropOp36
 70
     1
102
RTVSPost2010Prop37
 90
       50
102
RTVSPost2010PropOp37
 70
     1
102
RTVSPost2010Prop38
140
0.0
102
RTVSPost2010PropOp38
 70
     1
102
RTVSPost2010Prop39
140
1.0
102
RTVSPost2010PropOp39
 70
     1
102
RTVSPost2010Prop40
 90
        0
102
RTVSPost2010PropOp40
 70
     1
102
RTVSPost2010Prop41ColorIndex
 90
       18
102
RTVSPost2010Prop41ColorRGB
 90
        0
102
RTVSPost2010PropOp41
 70
     1
102
RTVSPost2010Prop42
 90
       50
102
RTVSPost2010PropOp42
 70
     1
102
RTVSPost2010Prop43
 90
        3
102
RTVSPost2010PropOp43
 70
     1
102
RTVSPost2010Prop44ColorIndex
 90
        5
102
RTVSPost2010Prop44ColorRGB
 90
      255
102
RTVSPost2010PropOp44
 70
     1
102
RTVSPost2010Prop45
280
     0
102
RTVSPost2010PropOp45
 70
     1
102
RTVSPost2010Prop46
 90
       50
102
RTVSPost2010PropOp46
 70
     1
102
RTVSPost2010Prop47
 90
       50
102
RTVSPost2010PropOp47
 70
     1
102
RTVSPost2010Prop48
 90
       50
102
RTVSPost2010PropOp48
 70
     1
102
RTVSPost2010Prop49
280
     0
102
RTVSPost2010PropOp49
 70
     1
102
RTVSPost2010Prop50
 90
       50
102
RTVSPost2010PropOp50
 70
     1
102
RTVSPost2010Prop51ColorIndex
 90
      256
102
RTVSPost2010Prop51ColorRGB
 90
-16777216
102
RTVSPost2010PropOp51
 70
     0
102
RTVSPost2010Prop52
140
1.0
102
RTVSPost2010PropOp52
 70
     0
102
RTVSPost2010Prop53
 90
        2
102
RTVSPost2010PropOp53
 70
     1
102
RTVSPost2010Prop54
  1
strokes_ogs.tif
102
RTVSPost2010PropOp54
 70
     1
102
RTVSPost2010Prop55
280
     0
102
RTVSPost2010PropOp55
 70
     1
102
RTVSPost2010Prop56
140
1.0
102
RTVSPost2010PropOp56
 70
     1
102
RTVSPost2010Prop57
140
1.0
102
RTVSPost2010PropOp57
 70
     1
102
RTVSPropertyOp0
 70
     1
102
RTVSPropertyOp1
 70
     1
102
RTVSPropertyOp2
 70
     1
102
RTVSPropertyOp3
 70
     1
102
RTVSPropertyOp4
 70
     1
102
RTVSPropertyOp5
 70
     1
102
RTVSPropertyOp6
 70
     1
102
RTVSPropertyOp7
 70
     1
102
RTVSPropertyOp8
 70
     1
102
RTVSPropertyOp9
 70
     1
102
RTVSPropertyOp10
 70
     1
102
RTVSPropertyOp11
 70
     1
102
RTVSPropertyOp12
 70
     1
102
RTVSPropertyOp13
 70
     1
102
RTVSPropertyOp14
 70
     1
102
RTVSPropertyOp15
 70
     1
102
RTVSPropertyOp16
 70
     1
102
RTVSPropertyOp17
 70
     1
102
RTVSPropertyOp18
 70
     1
102
RTVSPropertyOp19
 70
     1
102
RTVSPropertyOp20
 70
     1
102
RTVSPropertyOp21
 70
     1
102
RTVSPropertyOp22
 70
     1
102
RTVSPropertyOp23
 70
     1
102
RTVSPropertyOp24
 70
     1
102
RTVSPropertyOp25
 70
     1
102
RTVSPropertyOp26
 70
     1
102
RTVSPropertyOp27
 70
     1
102
RTVSPropertyOp28
 70
     1
102
RTVSPropertyOp29
 70
     1
102
RTVSPropertyOp30
 70
     1
102
RTVSPropertyOp31
 70
     1
102
RTVSPropertyOp32
 70
     1
102
RTVSPropertyOp33
 70
     1
102
RTVSPropertyOp34
 70
     1
102
RTVSPropertyOp35
 70
     1
102
RTVSPropertyOp36
 70
     1
102
RTVSPropertyOp37
 70
     1
102
RTVSPropertyOp38
 70
     1
102
RTVSPropertyOp39
 70
     1
102
RTVSPropertyOp40
 70
     1
102
RTVSPropertyOp41
 70
     1
102
RTVSPropertyOp42
 70
     1
102
RTVSPropertyOp43
 70
     1
102
RTVSPropertyOp44
 70
     1
102
RTVSPropertyOp45
 70
     1
102
RTVSPropertyOp46
 70
     1
102
RTVSPropertyOp47
 70
     1
102
RTVSPropertyOp48
 70
     1
102
RTVSPropertyOp49
 70
     1
102
RTVSPropertyOp50
 70
     1
102
RTVSPropertyOp51
 70
     0
102
RTVSPropertyOp52
 70
     0
102
RTVSPropertyOp53
 70
     1
102
RTVSPropertyOp54
 70
     1
102
RTVSPropertyOp55
 70
     1
102
RTVSPropertyOp56
 70
     1
102
RTVSPropertyOp57
 70
     1
102
RTVSPropertyOp58
 70
     1
102
RTVSPropertyOp59
 70
     1
102
RTVSPropertyOp60
 70
     1
102
RTVSPropertyOp61
 70
     1
102
RTVSPropertyOp62
 70
     1
  0
XRECORD
  5
AA24
102
{ACAD_REACTORS
330
AA23
102
}
330
AA23
100
AcDbXrecord
280
     1
102
RTVSPost2010Prop28
280
     0
102
RTVSPost2010PropOp28
 70
     1
102
RTVSPost2010Prop29
280
     1
102
RTVSPost2010PropOp29
 70
     1
102
RTVSPost2010Prop30
280
     1
102
RTVSPost2010PropOp30
 70
     1
102
RTVSPost2010Prop31
280
     0
102
RTVSPost2010PropOp31
 70
     1
102
RTVSPost2010Prop32
280
     0
102
RTVSPost2010PropOp32
 70
     1
102
RTVSPost2010Prop33
280
     0
102
RTVSPost2010PropOp33
 70
     1
102
RTVSPost2010Prop34
280
     0
102
RTVSPost2010PropOp34
 70
     1
102
RTVSPost2010Prop35
280
     0
102
RTVSPost2010PropOp35
 70
     1
102
RTVSPost2010Prop36
280
     0
102
RTVSPost2010PropOp36
 70
     1
102
RTVSPost2010Prop37
 90
       50
102
RTVSPost2010PropOp37
 70
     1
102
RTVSPost2010Prop38
140
0.0
102
RTVSPost2010PropOp38
 70
     1
102
RTVSPost2010Prop39
140
1.0
102
RTVSPost2010PropOp39
 70
     1
102
RTVSPost2010Prop40
 90
        0
102
RTVSPost2010PropOp40
 70
     1
102
RTVSPost2010Prop41ColorIndex
 90
       18
102
RTVSPost2010Prop41ColorRGB
 90
        0
102
RTVSPost2010PropOp41
 70
     1
102
RTVSPost2010Prop42
 90
       50
102
RTVSPost2010PropOp42
 70
     1
102
RTVSPost2010Prop43
 90
        3
102
RTVSPost2010PropOp43
 70
     1
102
RTVSPost2010Prop44ColorIndex
 90
        5
102
RTVSPost2010Prop44ColorRGB
 90
      255
102
RTVSPost2010PropOp44
 70
     1
102
RTVSPost2010Prop45
280
     0
102
RTVSPost2010PropOp45
 70
     1
102
RTVSPost2010Prop46
 90
       50
102
RTVSPost2010PropOp46
 70
     1
102
RTVSPost2010Prop47
 90
       50
102
RTVSPost2010PropOp47
 70
     1
102
RTVSPost2010Prop48
 90
       50
102
RTVSPost2010PropOp48
 70
     1
102
RTVSPost2010Prop49
280
     0
102
RTVSPost2010PropOp49
 70
     1
102
RTVSPost2010Prop50
 90
       50
102
RTVSPost2010PropOp50
 70
     1
102
RTVSPost2010Prop51ColorIndex
 90
      256
102
RTVSPost2010Prop51ColorRGB
 90
-16777216
102
RTVSPost2010PropOp51
 70
     0
102
RTVSPost2010Prop52
140
1.0
102
RTVSPost2010PropOp52
 70
     0
102
RTVSPost2010Prop53
 90
        2
102
RTVSPost2010PropOp53
 70
     1
102
RTVSPost2010Prop54
  1
strokes_ogs.tif
102
RTVSPost2010PropOp54
 70
     1
102
RTVSPost2010Prop55
280
     0
102
RTVSPost2010PropOp55
 70
     1
102
RTVSPost2010Prop56
140
1.0
102
RTVSPost2010PropOp56
 70
     1
102
RTVSPost2010Prop57
140
1.0
102
RTVSPost2010PropOp57
 70
     1
102
RTVSPropertyOp0
 70
     1
102
RTVSPropertyOp1
 70
     1
102
RTVSPropertyOp2
 70
     1
102
RTVSPropertyOp3
 70
     1
102
RTVSPropertyOp4
 70
     1
102
RTVSPropertyOp5
 70
     1
102
RTVSPropertyOp6
 70
     1
102
RTVSPropertyOp7
 70
     1
102
RTVSPropertyOp8
 70
     1
102
RTVSPropertyOp9
 70
     1
102
RTVSPropertyOp10
 70
     1
102
RTVSPropertyOp11
 70
     1
102
RTVSPropertyOp12
 70
     1
102
RTVSPropertyOp13
 70
     1
102
RTVSPropertyOp14
 70
     1
102
RTVSPropertyOp15
 70
     1
102
RTVSPropertyOp16
 70
     1
102
RTVSPropertyOp17
 70
     1
102
RTVSPropertyOp18
 70
     1
102
RTVSPropertyOp19
 70
     1
102
RTVSPropertyOp20
 70
     1
102
RTVSPropertyOp21
 70
     1
102
RTVSPropertyOp22
 70
     1
102
RTVSPropertyOp23
 70
     1
102
RTVSPropertyOp24
 70
     1
102
RTVSPropertyOp25
 70
     1
102
RTVSPropertyOp26
 70
     1
102
RTVSPropertyOp27
 70
     1
102
RTVSPropertyOp28
 70
     1
102
RTVSPropertyOp29
 70
     1
102
RTVSPropertyOp30
 70
     1
102
RTVSPropertyOp31
 70
     1
102
RTVSPropertyOp32
 70
     1
102
RTVSPropertyOp33
 70
     1
102
RTVSPropertyOp34
 70
     1
102
RTVSPropertyOp35
 70
     1
102
RTVSPropertyOp36
 70
     1
102
RTVSPropertyOp37
 70
     1
102
RTVSPropertyOp38
 70
     1
102
RTVSPropertyOp39
 70
     1
102
RTVSPropertyOp40
 70
     1
102
RTVSPropertyOp41
 70
     1
102
RTVSPropertyOp42
 70
     1
102
RTVSPropertyOp43
 70
     1
102
RTVSPropertyOp44
 70
     1
102
RTVSPropertyOp45
 70
     1
102
RTVSPropertyOp46
 70
     1
102
RTVSPropertyOp47
 70
     1
102
RTVSPropertyOp48
 70
     1
102
RTVSPropertyOp49
 70
     1
102
RTVSPropertyOp50
 70
     1
102
RTVSPropertyOp51
 70
     0
102
RTVSPropertyOp52
 70
     0
102
RTVSPropertyOp53
 70
     1
102
RTVSPropertyOp54
 70
     1
102
RTVSPropertyOp55
 70
     1
102
RTVSPropertyOp56
 70
     1
102
RTVSPropertyOp57
 70
     1
102
RTVSPropertyOp58
 70
     1
102
RTVSPropertyOp59
 70
     1
102
RTVSPropertyOp60
 70
     1
102
RTVSPropertyOp61
 70
     1
102
RTVSPropertyOp62
 70
     1
  0
XRECORD
  5
AA18
102
{ACAD_REACTORS
330
AA17
102
}
330
AA17
100
AcDbXrecord
280
     1
102
RTVSPost2010Prop28
280
     0
102
RTVSPost2010PropOp28
 70
     1
102
RTVSPost2010Prop29
280
     1
102
RTVSPost2010PropOp29
 70
     1
102
RTVSPost2010Prop30
280
     1
102
RTVSPost2010PropOp30
 70
     1
102
RTVSPost2010Prop31
280
     0
102
RTVSPost2010PropOp31
 70
     1
102
RTVSPost2010Prop32
280
     0
102
RTVSPost2010PropOp32
 70
     1
102
RTVSPost2010Prop33
280
     0
102
RTVSPost2010PropOp33
 70
     1
102
RTVSPost2010Prop34
280
     0
102
RTVSPost2010PropOp34
 70
     1
102
RTVSPost2010Prop35
280
     0
102
RTVSPost2010PropOp35
 70
     1
102
RTVSPost2010Prop36
280
     0
102
RTVSPost2010PropOp36
 70
     1
102
RTVSPost2010Prop37
 90
       50
102
RTVSPost2010PropOp37
 70
     1
102
RTVSPost2010Prop38
140
0.0
102
RTVSPost2010PropOp38
 70
     1
102
RTVSPost2010Prop39
140
1.0
102
RTVSPost2010PropOp39
 70
     1
102
RTVSPost2010Prop40
 90
        0
102
RTVSPost2010PropOp40
 70
     1
102
RTVSPost2010Prop41ColorIndex
 90
       18
102
RTVSPost2010Prop41ColorRGB
 90
        0
102
RTVSPost2010PropOp41
 70
     1
102
RTVSPost2010Prop42
 90
       50
102
RTVSPost2010PropOp42
 70
     1
102
RTVSPost2010Prop43
 90
        3
102
RTVSPost2010PropOp43
 70
     1
102
RTVSPost2010Prop44ColorIndex
 90
        5
102
RTVSPost2010Prop44ColorRGB
 90
      255
102
RTVSPost2010PropOp44
 70
     1
102
RTVSPost2010Prop45
280
     0
102
RTVSPost2010PropOp45
 70
     1
102
RTVSPost2010Prop46
 90
       50
102
RTVSPost2010PropOp46
 70
     1
102
RTVSPost2010Prop47
 90
       50
102
RTVSPost2010PropOp47
 70
     1
102
RTVSPost2010Prop48
 90
       50
102
RTVSPost2010PropOp48
 70
     1
102
RTVSPost2010Prop49
280
     0
102
RTVSPost2010PropOp49
 70
     1
102
RTVSPost2010Prop50
 90
       50
102
RTVSPost2010PropOp50
 70
     1
102
RTVSPost2010Prop51ColorIndex
 90
      256
102
RTVSPost2010Prop51ColorRGB
 90
-16777216
102
RTVSPost2010PropOp51
 70
     0
102
RTVSPost2010Prop52
140
1.0
102
RTVSPost2010PropOp52
 70
     0
102
RTVSPost2010Prop53
 90
        2
102
RTVSPost2010PropOp53
 70
     1
102
RTVSPost2010Prop54
  1
strokes_ogs.tif
102
RTVSPost2010PropOp54
 70
     1
102
RTVSPost2010Prop55
280
     0
102
RTVSPost2010PropOp55
 70
     1
102
RTVSPost2010Prop56
140
1.0
102
RTVSPost2010PropOp56
 70
     1
102
RTVSPost2010Prop57
140
1.0
102
RTVSPost2010PropOp57
 70
     1
102
RTVSPropertyOp0
 70
     1
102
RTVSPropertyOp1
 70
     1
102
RTVSPropertyOp2
 70
     1
102
RTVSPropertyOp3
 70
     1
102
RTVSPropertyOp4
 70
     1
102
RTVSPropertyOp5
 70
     1
102
RTVSPropertyOp6
 70
     1
102
RTVSPropertyOp7
 70
     1
102
RTVSPropertyOp8
 70
     1
102
RTVSPropertyOp9
 70
     1
102
RTVSPropertyOp10
 70
     1
102
RTVSPropertyOp11
 70
     1
102
RTVSPropertyOp12
 70
     1
102
RTVSPropertyOp13
 70
     1
102
RTVSPropertyOp14
 70
     1
102
RTVSPropertyOp15
 70
     1
102
RTVSPropertyOp16
 70
     1
102
RTVSPropertyOp17
 70
     1
102
RTVSPropertyOp18
 70
     1
102
RTVSPropertyOp19
 70
     1
102
RTVSPropertyOp20
 70
     1
102
RTVSPropertyOp21
 70
     1
102
RTVSPropertyOp22
 70
     1
102
RTVSPropertyOp23
 70
     1
102
RTVSPropertyOp24
 70
     1
102
RTVSPropertyOp25
 70
     1
102
RTVSPropertyOp26
 70
     1
102
RTVSPropertyOp27
 70
     1
102
RTVSPropertyOp28
 70
     1
102
RTVSPropertyOp29
 70
     1
102
RTVSPropertyOp30
 70
     1
102
RTVSPropertyOp31
 70
     1
102
RTVSPropertyOp32
 70
     1
102
RTVSPropertyOp33
 70
     1
102
RTVSPropertyOp34
 70
     1
102
RTVSPropertyOp35
 70
     1
102
RTVSPropertyOp36
 70
     1
102
RTVSPropertyOp37
 70
     1
102
RTVSPropertyOp38
 70
     1
102
RTVSPropertyOp39
 70
     1
102
RTVSPropertyOp40
 70
     1
102
RTVSPropertyOp41
 70
     1
102
RTVSPropertyOp42
 70
     1
102
RTVSPropertyOp43
 70
     1
102
RTVSPropertyOp44
 70
     1
102
RTVSPropertyOp45
 70
     1
102
RTVSPropertyOp46
 70
     1
102
RTVSPropertyOp47
 70
     1
102
RTVSPropertyOp48
 70
     1
102
RTVSPropertyOp49
 70
     1
102
RTVSPropertyOp50
 70
     1
102
RTVSPropertyOp51
 70
     0
102
RTVSPropertyOp52
 70
     0
102
RTVSPropertyOp53
 70
     1
102
RTVSPropertyOp54
 70
     1
102
RTVSPropertyOp55
 70
     1
102
RTVSPropertyOp56
 70
     1
102
RTVSPropertyOp57
 70
     1
102
RTVSPropertyOp58
 70
     1
102
RTVSPropertyOp59
 70
     1
102
RTVSPropertyOp60
 70
     1
102
RTVSPropertyOp61
 70
     1
102
RTVSPropertyOp62
 70
     1
  0
XRECORD
  5
AA30
102
{ACAD_REACTORS
330
AA2F
102
}
330
AA2F
100
AcDbXrecord
280
     1
102
RTVSPost2010Prop28
280
     0
102
RTVSPost2010PropOp28
 70
     1
102
RTVSPost2010Prop29
280
     1
102
RTVSPost2010PropOp29
 70
     1
102
RTVSPost2010Prop30
280
     1
102
RTVSPost2010PropOp30
 70
     1
102
RTVSPost2010Prop31
280
     0
102
RTVSPost2010PropOp31
 70
     1
102
RTVSPost2010Prop32
280
     0
102
RTVSPost2010PropOp32
 70
     1
102
RTVSPost2010Prop33
280
     0
102
RTVSPost2010PropOp33
 70
     1
102
RTVSPost2010Prop34
280
     0
102
RTVSPost2010PropOp34
 70
     1
102
RTVSPost2010Prop35
280
     0
102
RTVSPost2010PropOp35
 70
     1
102
RTVSPost2010Prop36
280
     0
102
RTVSPost2010PropOp36
 70
     1
102
RTVSPost2010Prop37
 90
       50
102
RTVSPost2010PropOp37
 70
     1
102
RTVSPost2010Prop38
140
0.0
102
RTVSPost2010PropOp38
 70
     1
102
RTVSPost2010Prop39
140
1.0
102
RTVSPost2010PropOp39
 70
     1
102
RTVSPost2010Prop40
 90
        0
102
RTVSPost2010PropOp40
 70
     1
102
RTVSPost2010Prop41ColorIndex
 90
       18
102
RTVSPost2010Prop41ColorRGB
 90
        0
102
RTVSPost2010PropOp41
 70
     1
102
RTVSPost2010Prop42
 90
       50
102
RTVSPost2010PropOp42
 70
     1
102
RTVSPost2010Prop43
 90
        3
102
RTVSPost2010PropOp43
 70
     1
102
RTVSPost2010Prop44ColorIndex
 90
        5
102
RTVSPost2010Prop44ColorRGB
 90
      255
102
RTVSPost2010PropOp44
 70
     1
102
RTVSPost2010Prop45
280
     0
102
RTVSPost2010PropOp45
 70
     1
102
RTVSPost2010Prop46
 90
       50
102
RTVSPost2010PropOp46
 70
     1
102
RTVSPost2010Prop47
 90
       50
102
RTVSPost2010PropOp47
 70
     1
102
RTVSPost2010Prop48
 90
       50
102
RTVSPost2010PropOp48
 70
     1
102
RTVSPost2010Prop49
280
     0
102
RTVSPost2010PropOp49
 70
     1
102
RTVSPost2010Prop50
 90
       50
102
RTVSPost2010PropOp50
 70
     1
102
RTVSPost2010Prop51ColorIndex
 90
      256
102
RTVSPost2010Prop51ColorRGB
 90
-16777216
102
RTVSPost2010PropOp51
 70
     0
102
RTVSPost2010Prop52
140
1.0
102
RTVSPost2010PropOp52
 70
     0
102
RTVSPost2010Prop53
 90
        2
102
RTVSPost2010PropOp53
 70
     1
102
RTVSPost2010Prop54
  1
strokes_ogs.tif
102
RTVSPost2010PropOp54
 70
     1
102
RTVSPost2010Prop55
280
     0
102
RTVSPost2010PropOp55
 70
     1
102
RTVSPost2010Prop56
140
1.0
102
RTVSPost2010PropOp56
 70
     1
102
RTVSPost2010Prop57
140
1.0
102
RTVSPost2010PropOp57
 70
     1
102
RTVSPropertyOp0
 70
     1
102
RTVSPropertyOp1
 70
     1
102
RTVSPropertyOp2
 70
     1
102
RTVSPropertyOp3
 70
     1
102
RTVSPropertyOp4
 70
     1
102
RTVSPropertyOp5
 70
     1
102
RTVSPropertyOp6
 70
     1
102
RTVSPropertyOp7
 70
     1
102
RTVSPropertyOp8
 70
     1
102
RTVSPropertyOp9
 70
     1
102
RTVSPropertyOp10
 70
     1
102
RTVSPropertyOp11
 70
     1
102
RTVSPropertyOp12
 70
     1
102
RTVSPropertyOp13
 70
     1
102
RTVSPropertyOp14
 70
     1
102
RTVSPropertyOp15
 70
     1
102
RTVSPropertyOp16
 70
     1
102
RTVSPropertyOp17
 70
     1
102
RTVSPropertyOp18
 70
     1
102
RTVSPropertyOp19
 70
     1
102
RTVSPropertyOp20
 70
     1
102
RTVSPropertyOp21
 70
     1
102
RTVSPropertyOp22
 70
     1
102
RTVSPropertyOp23
 70
     1
102
RTVSPropertyOp24
 70
     1
102
RTVSPropertyOp25
 70
     1
102
RTVSPropertyOp26
 70
     1
102
RTVSPropertyOp27
 70
     1
102
RTVSPropertyOp28
 70
     1
102
RTVSPropertyOp29
 70
     1
102
RTVSPropertyOp30
 70
     1
102
RTVSPropertyOp31
 70
     1
102
RTVSPropertyOp32
 70
     1
102
RTVSPropertyOp33
 70
     1
102
RTVSPropertyOp34
 70
     1
102
RTVSPropertyOp35
 70
     1
102
RTVSPropertyOp36
 70
     1
102
RTVSPropertyOp37
 70
     1
102
RTVSPropertyOp38
 70
     1
102
RTVSPropertyOp39
 70
     1
102
RTVSPropertyOp40
 70
     1
102
RTVSPropertyOp41
 70
     1
102
RTVSPropertyOp42
 70
     1
102
RTVSPropertyOp43
 70
     1
102
RTVSPropertyOp44
 70
     1
102
RTVSPropertyOp45
 70
     1
102
RTVSPropertyOp46
 70
     1
102
RTVSPropertyOp47
 70
     1
102
RTVSPropertyOp48
 70
     1
102
RTVSPropertyOp49
 70
     1
102
RTVSPropertyOp50
 70
     1
102
RTVSPropertyOp51
 70
     0
102
RTVSPropertyOp52
 70
     0
102
RTVSPropertyOp53
 70
     1
102
RTVSPropertyOp54
 70
     1
102
RTVSPropertyOp55
 70
     1
102
RTVSPropertyOp56
 70
     1
102
RTVSPropertyOp57
 70
     1
102
RTVSPropertyOp58
 70
     1
102
RTVSPropertyOp59
 70
     1
102
RTVSPropertyOp60
 70
     1
102
RTVSPropertyOp61
 70
     1
102
RTVSPropertyOp62
 70
     1
  0
ENDSEC
  0
EOF
