  0
SECTION
  2
HEADER
  9
$ACADVER
  1
AC1015
  9
$ACADMAINTVER
 70
    20
  9
$DWGCODEPAGE
  3
ANSI_932
  9
$INSBASE
 10
0.0
 20
0.0
 30
0.0
  9
$EXTMIN
 10
9.9999975266385
 20
10.0
 30
0.0
  9
$EXTMAX
 10
525.1311783995117
 20
438.7294228280871
 30
0.0
  9
$LIMMIN
 10
0.0000015376081137
 20
-0.0000001931532552
  9
$LIMMAX
 10
695.0000015376082
 20
479.1287876856343
  9
$ORTHOMODE
 70
     1
  9
$REGENMODE
 70
     1
  9
$FILLMODE
 70
     1
  9
$QTEXTMODE
 70
     0
  9
$MIRRTEXT
 70
     1
  9
$LTSCALE
 40
1.0
  9
$ATTMODE
 70
     1
  9
$TEXTSIZE
 40
2.5
  9
$TRACEWID
 40
1.0
  9
$TEXTSTYLE
  7
STANDARD
  9
$CLAYER
  8
0
  9
$CELTYPE
  6
BYLAYER
  9
$CECOLOR
 62
   256
  9
$CELTSCALE
 40
1.0
  9
$DISPSILH
 70
     0
  9
$DIMSCALE
 40
1.0
  9
$DIMASZ
 40
3.0
  9
$DIMEXO
 40
1.0
  9
$DIMDLI
 40
10.0
  9
$DIMRND
 40
0.0
  9
$DIMDLE
 40
0.0
  9
$DIMEXE
 40
1.0
  9
$DIMTP
 40
0.0
  9
$DIMTM
 40
0.0
  9
$DIMTXT
 40
3.2
  9
$DIMCEN
 40
0.0
  9
$DIMTSZ
 40
0.0
  9
$DIMTOL
 70
     0
  9
$DIMLIM
 70
     0
  9
$DIMTIH
 70
     0
  9
$DIMTOH
 70
     0
  9
$DIMSE1
 70
     0
  9
$DIMSE2
 70
     0
  9
$DIMTAD
 70
     3
  9
$DIMZIN
 70
     8
  9
$DIMBLK
  1

  9
$DIMASO
 70
     1
  9
$DIMSHO
 70
     1
  9
$DIMPOST
  1

  9
$DIMAPOST
  1

  9
$DIMALT
 70
     0
  9
$DIMALTD
 70
     2
  9
$DIMALTF
 40
25.4
  9
$DIMLFAC
 40
1.0
  9
$DIMTOFL
 70
     1
  9
$DIMTVP
 40
0.0
  9
$DIMTIX
 70
     0
  9
$DIMSOXD
 70
     0
  9
$DIMSAH
 70
     1
  9
$DIMBLK1
  1
OPEN
  9
$DIMBLK2
  1
OPEN
  9
$DIMSTYLE
  2
STANDARD
  9
$DIMCLRD
 70
     0
  9
$DIMCLRE
 70
     0
  9
$DIMCLRT
 70
     0
  9
$DIMTFAC
 40
1.0
  9
$DIMGAP
 40
1.0
  9
$DIMJUST
 70
     0
  9
$DIMSD1
 70
     0
  9
$DIMSD2
 70
     0
  9
$DIMTOLJ
 70
     1
  9
$DIMTZIN
 70
     0
  9
$DIMALTZ
 70
     0
  9
$DIMALTTZ
 70
     0
  9
$DIMUPT
 70
     0
  9
$DIMDEC
 70
     3
  9
$DIMTDEC
 70
     3
  9
$DIMALTU
 70
     2
  9
$DIMALTTD
 70
     2
  9
$DIMTXSTY
  7
STANDARD
  9
$DIMAUNIT
 70
     0
  9
$DIMADEC
 70
     0
  9
$DIMALTRND
 40
0.0
  9
$DIMAZIN
 70
     0
  9
$DIMDSEP
 70
    46
  9
$DIMATFIT
 70
     3
  9
$DIMFRAC
 70
     0
  9
$DIMLDRBLK
  1
OPEN
  9
$DIMLUNIT
 70
     2
  9
$DIMLWD
 70
    -2
  9
$DIMLWE
 70
    -2
  9
$DIMTMOVE
 70
     0
  9
$LUNITS
 70
     2
  9
$LUPREC
 70
     4
  9
$SKETCHINC
 40
1.0
  9
$FILLETRAD
 40
2.0
  9
$AUNITS
 70
     0
  9
$AUPREC
 70
     0
  9
$MENU
  1
.
  9
$ELEVATION
 40
0.0
  9
$PELEVATION
 40
0.0
  9
$THICKNESS
 40
0.0
  9
$LIMCHECK
 70
     0
  9
$CHAMFERA
 40
10.0
  9
$CHAMFERB
 40
10.0
  9
$CHAMFERC
 40
20.0
  9
$CHAMFERD
 40
0.0
  9
$SKPOLY
 70
     0
  9
$TDCREATE
 40
2454526.717009005
  9
$TDUCREATE
 40
2454526.342009005
  9
$TDUPDATE
 40
2457192.688489815
  9
$TDUUPDATE
 40
2457192.313489815
  9
$TDINDWG
 40
0.0756574653
  9
$TDUSRTIMER
 40
0.0756574653
  9
$USRTIMER
 70
     1
  9
$ANGBASE
 50
0.0
  9
$ANGDIR
 70
     0
  9
$PDMODE
 70
     0
  9
$PDSIZE
 40
0.0
  9
$PLINEWID
 40
0.0
  9
$SPLFRAME
 70
     0
  9
$SPLINETYPE
 70
     6
  9
$SPLINESEGS
 70
     8
  9
$HANDSEED
  5
23C6
  9
$SURFTAB1
 70
     6
  9
$SURFTAB2
 70
     6
  9
$SURFTYPE
 70
     6
  9
$SURFU
 70
     6
  9
$SURFV
 70
     6
  9
$UCSBASE
  2

  9
$UCSNAME
  2

  9
$UCSORG
 10
0.0
 20
0.0
 30
0.0
  9
$UCSXDIR
 10
1.0
 20
0.0
 30
0.0
  9
$UCSYDIR
 10
0.0
 20
1.0
 30
0.0
  9
$UCSORTHOREF
  2

  9
$UCSORTHOVIEW
 70
     0
  9
$UCSORGTOP
 10
0.0
 20
0.0
 30
0.0
  9
$UCSORGBOTTOM
 10
0.0
 20
0.0
 30
0.0
  9
$UCSORGLEFT
 10
0.0
 20
0.0
 30
0.0
  9
$UCSORGRIGHT
 10
0.0
 20
0.0
 30
0.0
  9
$UCSORGFRONT
 10
0.0
 20
0.0
 30
0.0
  9
$UCSORGBACK
 10
0.0
 20
0.0
 30
0.0
  9
$PUCSBASE
  2

  9
$PUCSNAME
  2

  9
$PUCSORG
 10
0.0
 20
0.0
 30
0.0
  9
$PUCSXDIR
 10
1.0
 20
0.0
 30
0.0
  9
$PUCSYDIR
 10
0.0
 20
1.0
 30
0.0
  9
$PUCSORTHOREF
  2

  9
$PUCSORTHOVIEW
 70
     0
  9
$PUCSORGTOP
 10
0.0
 20
0.0
 30
0.0
  9
$PUCSORGBOTTOM
 10
0.0
 20
0.0
 30
0.0
  9
$PUCSORGLEFT
 10
0.0
 20
0.0
 30
0.0
  9
$PUCSORGRIGHT
 10
0.0
 20
0.0
 30
0.0
  9
$PUCSORGFRONT
 10
0.0
 20
0.0
 30
0.0
  9
$PUCSORGBACK
 10
0.0
 20
0.0
 30
0.0
  9
$USERI1
 70
     0
  9
$USERI2
 70
     0
  9
$USERI3
 70
     0
  9
$USERI4
 70
     0
  9
$USERI5
 70
     0
  9
$USERR1
 40
0.0
  9
$USERR2
 40
0.0
  9
$USERR3
 40
0.0
  9
$USERR4
 40
0.0
  9
$USERR5
 40
0.0
  9
$WORLDVIEW
 70
     1
  9
$SHADEDGE
 70
     3
  9
$SHADEDIF
 70
    70
  9
$TILEMODE
 70
     1
  9
$MAXACTVP
 70
    48
  9
$PINSBASE
 10
0.0
 20
0.0
 30
0.0
  9
$PLIMCHECK
 70
     0
  9
$PEXTMIN
 10
1.000000000000000E+20
 20
1.000000000000000E+20
 30
1.000000000000000E+20
  9
$PEXTMAX
 10
-1.000000000000000E+20
 20
-1.000000000000000E+20
 30
-1.000000000000000E+20
  9
$PLIMMIN
 10
0.0
 20
0.0
  9
$PLIMMAX
 10
420.0
 20
297.0
  9
$UNITMODE
 70
     0
  9
$VISRETAIN
 70
     1
  9
$PLINEGEN
 70
     0
  9
$PSLTSCALE
 70
     1
  9
$TREEDEPTH
 70
  3020
  9
$CMLSTYLE
  2
STANDARD
  9
$CMLJUST
 70
     0
  9
$CMLSCALE
 40
20.0
  9
$PROXYGRAPHICS
 70
     1
  9
$MEASUREMENT
 70
     0
  9
$CELWEIGHT
370
    -1
  9
$ENDCAPS
280
     0
  9
$JOINSTYLE
280
     0
  9
$LWDISPLAY
290
     0
  9
$INSUNITS
 70
     0
  9
$HYPERLINKBASE
  1

  9
$STYLESHEET
  1

  9
$XEDIT
290
     1
  9
$CEPSNTYPE
380
     0
  9
$PSTYLEMODE
290
     1
  9
$FINGERPRINTGUID
  2
{BA7F7E5E-3C66-46A8-AC58-424097B9CED8}
  9
$VERSIONGUID
  2
{D2C8951F-304F-4F73-83B9-2075472FF42F}
  9
$EXTNAMES
290
     1
  9
$PSVPSCALE
 40
0.0
  9
$OLESTARTUP
290
     0
  0
ENDSEC
  0
SECTION
  2
CLASSES
  0
CLASS
  1
ACDBDICTIONARYWDFLT
  2
AcDbDictionaryWithDefault
  3
ObjectDBX Classes
 90
        0
280
     0
281
     0
  0
CLASS
  1
ACDBPLACEHOLDER
  2
AcDbPlaceHolder
  3
ObjectDBX Classes
 90
        0
280
     0
281
     0
  0
CLASS
  1
LAYOUT
  2
AcDbLayout
  3
ObjectDBX Classes
 90
        0
280
     0
281
     0
  0
CLASS
  1
DICTIONARYVAR
  2
AcDbDictionaryVar
  3
ObjectDBX Classes
 90
        0
280
     0
281
     0
  0
CLASS
  1
MATERIAL
  2
AcDbMaterial
  3
ObjectDBX Classes
 90
     1153
280
     0
281
     0
  0
CLASS
  1
VISUALSTYLE
  2
AcDbVisualStyle
  3
ObjectDBX Classes
 90
     4095
280
     0
281
     0
  0
CLASS
  1
TABLESTYLE
  2
AcDbTableStyle
  3
ObjectDBX Classes
 90
     4095
280
     0
281
     0
  0
CLASS
  1
SCALE
  2
AcDbScale
  3
ObjectDBX Classes
 90
     1153
280
     0
281
     0
  0
CLASS
  1
MLEADERSTYLE
  2
AcDbMLeaderStyle
  3
ACDB_MLEADERSTYLE_CLASS
 90
     4095
280
     0
281
     0
  0
CLASS
  1
ACDBSECTIONVIEWSTYLE
  2
AcDbSectionViewStyle
  3
ObjectDBX Classes
 90
     1025
280
     0
281
     0
  0
CLASS
  1
ACDBDETAILVIEWSTYLE
  2
AcDbDetailViewStyle
  3
ObjectDBX Classes
 90
     1025
280
     0
281
     0
  0
CLASS
  1
CELLSTYLEMAP
  2
AcDbCellStyleMap
  3
ObjectDBX Classes
 90
     1152
280
     0
281
     0
  0
ENDSEC
  0
SECTION
  2
TABLES
  0
TABLE
  2
VPORT
  5
8
330
0
100
AcDbSymbolTable
 70
     1
  0
VPORT
  5
2310
330
8
100
AcDbSymbolTableRecord
100
AcDbViewportTableRecord
  2
*ACTIVE
 70
     0
 10
0.0
 20
0.0
 11
1.0
 21
1.0
 12
432.5785885242653
 22
224.3576706194276
 13
0.0
 23
0.0
 14
10.0
 24
10.0
 15
10.0
 25
10.0
 16
0.0
 26
0.0
 36
1.0
 17
0.0
 27
0.0
 37
0.0
 40
432.1709082437117
 41
2.35006605019815
 42
50.0
 43
0.0
 44
0.0
 50
0.0
 51
0.0
 71
     0
 72
   100
 73
     1
 74
     0
 75
     0
 76
     0
 77
     0
 78
     0
281
     0
 65
     1
110
0.0
120
0.0
130
0.0
111
1.0
121
0.0
131
0.0
112
0.0
122
1.0
132
0.0
 79
     0
146
0.0
1001
ACAD_NAV_VCDISPLAY
1070
     3
  0
ENDTAB
  0
TABLE
  2
LTYPE
  5
5
330
0
100
AcDbSymbolTable
 70
     4
  0
LTYPE
  5
12
330
5
100
AcDbSymbolTableRecord
100
AcDbLinetypeTableRecord
  2
BYBLOCK
 70
     0
  3

 72
    65
 73
     0
 40
0.0
  0
LTYPE
  5
13
330
5
100
AcDbSymbolTableRecord
100
AcDbLinetypeTableRecord
  2
BYLAYER
 70
     0
  3

 72
    65
 73
     0
 40
0.0
  0
LTYPE
  5
14
330
5
100
AcDbSymbolTableRecord
100
AcDbLinetypeTableRecord
  2
CONTINUOUS
 70
     0
  3
Solid line
 72
    65
 73
     0
 40
0.0
  0
LTYPE
  5
4B
330
5
100
AcDbSymbolTableRecord
100
AcDbLinetypeTableRecord
  2
DASHED
 70
     0
  3
Dashed __ __ __ __ __ __ __ __ __ __ __ __ __ _
 72
    65
 73
     2
 40
19.04999999999999
 49
12.7
 74
     0
 49
-6.349999999999998
 74
     0
  0
LTYPE
  5
4C
330
5
100
AcDbSymbolTableRecord
100
AcDbLinetypeTableRecord
  2
CENTER
 70
     0
  3
Center ____ _ ____ _ ____ _ ____ _ ____ _ ____
 72
    65
 73
     4
 40
50.8
 49
31.75
 74
     0
 49
-6.349999999999998
 74
     0
 49
6.349999999999998
 74
     0
 49
-6.349999999999998
 74
     0
  0
LTYPE
  5
4D
330
5
100
AcDbSymbolTableRecord
100
AcDbLinetypeTableRecord
  2
PHANTOM
 70
     0
  3
Phantom ______  __  __  ______  __  __  ______
 72
    65
 73
     6
 40
63.5
 49
31.75
 74
     0
 49
-6.349999999999998
 74
     0
 49
6.349999999999998
 74
     0
 49
-6.349999999999998
 74
     0
 49
6.349999999999998
 74
     0
 49
-6.349999999999998
 74
     0
  0
ENDTAB
  0
TABLE
  2
LAYER
  5
2
330
0
100
AcDbSymbolTable
 70
     8
  0
LAYER
  5
E
102
{ACAD_XDICTIONARY
360
236A
102
}
330
2
100
AcDbSymbolTableRecord
100
AcDbLayerTableRecord
  2
0
 70
     0
 62
     7
  6
CONTINUOUS
370
    -3
390
2319
  0
LAYER
  5
4E
102
{ACAD_XDICTIONARY
360
236C
102
}
330
2
100
AcDbSymbolTableRecord
100
AcDbLayerTableRecord
  2
4
 70
     0
 62
     1
  6
CENTER
370
    -3
390
2319
  0
LAYER
  5
4F
102
{ACAD_XDICTIONARY
360
236E
102
}
330
2
100
AcDbSymbolTableRecord
100
AcDbLayerTableRecord
  2
5
 70
     0
 62
     6
  6
PHANTOM
370
    -3
390
2319
  0
LAYER
  5
50
102
{ACAD_XDICTIONARY
360
2370
102
}
330
2
100
AcDbSymbolTableRecord
100
AcDbLayerTableRecord
  2
1
 70
     0
 62
     7
  6
CONTINUOUS
370
    -3
390
2319
  0
LAYER
  5
51
102
{ACAD_XDICTIONARY
360
2372
102
}
330
2
100
AcDbSymbolTableRecord
100
AcDbLayerTableRecord
  2
2
 70
     0
 62
     4
  6
CONTINUOUS
370
    -3
390
2319
  0
LAYER
  5
52
102
{ACAD_XDICTIONARY
360
2374
102
}
330
2
100
AcDbSymbolTableRecord
100
AcDbLayerTableRecord
  2
3
 70
     0
 62
     2
  6
DASHED
370
    -3
390
2319
  0
LAYER
  5
53
102
{ACAD_XDICTIONARY
360
2376
102
}
330
2
100
AcDbSymbolTableRecord
100
AcDbLayerTableRecord
  2
6
 70
     0
 62
     5
  6
CONTINUOUS
370
    -3
390
2319
  0
LAYER
  5
54
102
{ACAD_XDICTIONARY
360
2378
102
}
330
2
100
AcDbSymbolTableRecord
100
AcDbLayerTableRecord
  2
7
 70
     0
 62
     3
  6
CONTINUOUS
370
    -3
390
2319
  0
ENDTAB
  0
TABLE
  2
STYLE
  5
3
330
0
100
AcDbSymbolTable
 70
     1
  0
STYLE
  5
F
330
3
100
AcDbSymbolTableRecord
100
AcDbTextStyleTableRecord
  2
STANDARD
 70
     0
 40
0.0
 41
1.0
 50
0.0
 71
     0
 42
2.5
  3
simplex.shx
  4

  0
ENDTAB
  0
TABLE
  2
VIEW
  5
6
330
0
100
AcDbSymbolTable
 70
     0
  0
ENDTAB
  0
TABLE
  2
UCS
  5
7
330
0
100
AcDbSymbolTable
 70
     0
  0
ENDTAB
  0
TABLE
  2
APPID
  5
9
330
0
100
AcDbSymbolTable
 70
     5
  0
APPID
  5
10
330
9
100
AcDbSymbolTableRecord
100
AcDbRegAppTableRecord
  2
ACAD
 70
     0
  0
APPID
  5
3E
330
9
100
AcDbSymbolTableRecord
100
AcDbRegAppTableRecord
  2
CONTENTTABDATA
 70
     0
  0
APPID
  5
3F
330
9
100
AcDbSymbolTableRecord
100
AcDbRegAppTableRecord
  2
CONTENTCURRENTTAB
 70
     0
  0
APPID
  5
2384
330
9
100
AcDbSymbolTableRecord
100
AcDbRegAppTableRecord
  2
ACAD_NAV_VCDISPLAY
 70
     0
  0
APPID
  5
23BD
330
9
100
AcDbSymbolTableRecord
100
AcDbRegAppTableRecord
  2
ACAD_MLEADERVER
 70
     0
  0
ENDTAB
  0
TABLE
  2
DIMSTYLE
  5
A
330
0
100
AcDbSymbolTable
 70
     1
100
AcDbDimStyleTable
 71
     0
  0
DIMSTYLE
105
1D
330
A
100
AcDbSymbolTableRecord
100
AcDbDimStyleTableRecord
  2
STANDARD
 70
     0
 41
3.0
 42
1.0
 43
10.0
 44
1.0
 73
     0
 74
     0
 77
     3
 78
     8
140
3.2
141
0.0
147
1.0
172
     1
173
     1
271
     3
272
     3
340
F
341
2E
343
2E
344
2E
  0
ENDTAB
  0
TABLE
  2
BLOCK_RECORD
  5
1
330
0
100
AcDbSymbolTable
 70
     1
  0
BLOCK_RECORD
  5
18
102
{ACAD_XDICTIONARY
360
2313
102
}
330
1
100
AcDbSymbolTableRecord
100
AcDbBlockTableRecord
  2
*MODEL_SPACE
340
2367
  0
BLOCK_RECORD
  5
15
102
{ACAD_XDICTIONARY
360
2311
102
}
330
1
100
AcDbSymbolTableRecord
100
AcDbBlockTableRecord
  2
*PAPER_SPACE
340
2368
  0
BLOCK_RECORD
  5
2E
330
1
100
AcDbSymbolTableRecord
100
AcDbBlockTableRecord
  2
_OPEN
340
0
  0
ENDTAB
  0
ENDSEC
  0
SECTION
  2
BLOCKS
  0
BLOCK
  5
19
330
18
100
AcDbEntity
  8
0
100
AcDbBlockBegin
  2
*MODEL_SPACE
 70
     0
 10
0.0
 20
0.0
 30
0.0
  3
*MODEL_SPACE
  1

  0
ENDBLK
  5
1A
330
18
100
AcDbEntity
  8
0
100
AcDbBlockEnd
  0
BLOCK
  5
16
330
15
100
AcDbEntity
 67
     1
  8
0
100
AcDbBlockBegin
  2
*PAPER_SPACE
 70
     0
 10
0.0
 20
0.0
 30
0.0
  3
*PAPER_SPACE
  1

  0
ENDBLK
  5
17
330
15
100
AcDbEntity
 67
     1
  8
0
100
AcDbBlockEnd
  0
BLOCK
  5
2F
330
2E
100
AcDbEntity
  8
0
100
AcDbBlockBegin
  2
_OPEN
 70
     0
 10
0.0
 20
0.0
 30
0.0
  3
_OPEN
  1

  0
LINE
  5
30
330
2E
100
AcDbEntity
  8
0
  6
ByBlock
 62
     0
100
AcDbLine
 10
-1.0
 20
0.1666666666666666
 30
0.0
 11
0.0
 21
0.0
 31
0.0
  0
LINE
  5
31
330
2E
100
AcDbEntity
  8
0
  6
ByBlock
 62
     0
100
AcDbLine
 10
0.0
 20
0.0
 30
0.0
 11
-1.0
 21
-0.1666666666666666
 31
0.0
  0
LINE
  5
32
330
2E
100
AcDbEntity
  8
0
  6
ByBlock
 62
     0
100
AcDbLine
 10
0.0
 20
0.0
 30
0.0
 11
-1.0
 21
0.0
 31
0.0
  0
ENDBLK
  5
33
330
2E
100
AcDbEntity
  8
0
100
AcDbBlockEnd
  0
ENDSEC
  0
SECTION
  2
ENTITIES
  0
TEXT
  5
63
330
18
100
AcDbEntity
  8
4
  6
CENTER
 48
0.25
100
AcDbText
 10
23.97950852663849
 20
10.0
 30
0.0
 40
1.399999999999999
  1
4
100
AcDbText
  0
TEXT
  5
64
330
18
100
AcDbEntity
  8
7
  6
Continuous
 48
0.25
100
AcDbText
 10
9.999997526638502
 20
26.0000007607689
 30
0.0
 40
3.0
  1
CODE No.9833
100
AcDbText
  0
TEXT
  5
65
330
18
100
AcDbEntity
  8
7
  6
Continuous
 48
0.25
100
AcDbText
 10
9.999997526638502
 20
18.00000076076889
 30
0.0
 40
3.0
  1
TYPE No.605X-N
100
AcDbText
  0
TEXT
  5
66
330
18
100
AcDbEntity
  8
1
  6
Continuous
 48
0.25
100
AcDbText
 10
9.999997526638502
 20
10.00000076076889
 30
0.0
 40
1.399999999999999
  1
LAYER
100
AcDbText
  0
TEXT
  5
67
330
18
100
AcDbEntity
  8
2
  6
Continuous
 48
0.25
100
AcDbText
 10
19.9795085266385
 20
10.0
 30
0.0
 40
1.399999999999999
  1
2
100
AcDbText
  0
TEXT
  5
68
330
18
100
AcDbEntity
  8
3
  6
DASHED
 48
0.25
100
AcDbText
 10
21.9795085266385
 20
10.0
 30
0.0
 40
1.399999999999999
  1
3
100
AcDbText
  0
TEXT
  5
69
330
18
100
AcDbEntity
  8
1
  6
Continuous
 48
0.25
100
AcDbText
 10
17.9795085266385
 20
10.0
 30
0.0
 40
1.399999999999999
  1
1
100
AcDbText
  0
TEXT
  5
6A
330
18
100
AcDbEntity
  8
5
  6
PHANTOM
 48
0.25
100
AcDbText
 10
25.9795085266385
 20
10.0
 30
0.0
 40
1.399999999999999
  1
5
100
AcDbText
  0
TEXT
  5
6B
330
18
100
AcDbEntity
  8
6
  6
Continuous
 48
0.25
100
AcDbText
 10
27.9795085266385
 20
10.0
 30
0.0
 40
1.399999999999999
  1
6
100
AcDbText
  0
TEXT
  5
6C
330
18
100
AcDbEntity
  8
7
  6
Continuous
 48
0.25
100
AcDbText
 10
29.9795085266385
 20
10.0
 30
0.0
 40
1.399999999999999
  1
7
100
AcDbText
  0
LINE
  5
102E
330
18
100
AcDbEntity
  8
1
  6
Continuous
100
AcDbLine
 10
311.5420538763824
 20
247.1818877092424
 30
0.0
 11
304.2420538763824
 21
247.1818877092424
 31
0.0
  0
LINE
  5
102F
330
18
100
AcDbEntity
  8
1
  6
Continuous
100
AcDbLine
 10
311.5420538763824
 20
191.5018877092425
 30
0.0
 11
304.2420538763824
 21
191.5018877092425
 31
0.0
  0
LINE
  5
1030
330
18
100
AcDbEntity
  8
1
  6
Continuous
100
AcDbLine
 10
375.1420538763825
 20
272.5018877092425
 30
0.0
 11
304.2420538763824
 21
272.5018877092425
 31
0.0
  0
LINE
  5
1031
330
18
100
AcDbEntity
  8
4
  6
CENTER
 48
0.5
100
AcDbLine
 10
382.1420538763825
 20
208.0018877092425
 30
0.0
 11
297.2420538763825
 21
208.0018877092425
 31
0.0
  0
LINE
  5
1032
330
18
100
AcDbEntity
  8
1
  6
Continuous
100
AcDbLine
 10
297.6920688763824
 20
290.5019687092424
 30
0.0
 11
332.2420688763825
 21
290.5019687092424
 31
0.0
  0
LINE
  5
1033
330
18
100
AcDbEntity
  8
1
  6
Continuous
100
AcDbLine
 10
297.6920688763824
 20
284.1529517092423
 30
0.0
 11
307.6927078763824
 21
277.4074357092424
 31
0.0
  0
ARC
  5
1034
330
18
100
AcDbEntity
  8
1
  6
Continuous
100
AcDbCircle
 10
304.6920688763824
 20
282.5019687092424
 30
0.0
 40
3.0
100
AcDbArc
 50
0.0
 51
90.0
  0
LINE
  5
1035
330
18
100
AcDbEntity
  8
1
  6
Continuous
100
AcDbLine
 10
332.4133158763824
 20
285.5019687092424
 30
0.0
 11
297.6920688763824
 21
285.5019687092424
 31
0.0
  0
LINE
  5
1036
330
18
100
AcDbEntity
  8
4
  6
CENTER
 48
0.5
100
AcDbLine
 10
196.2529619235316
 20
295.0018877092425
 30
0.0
 11
196.2529619235316
 21
170.5018877092425
 31
0.0
  0
LINE
  5
1037
330
18
100
AcDbEntity
  8
1
  6
Continuous
100
AcDbLine
 10
188.9742079235315
 20
284.7288127092424
 30
0.0
 11
188.9742079235315
 21
278.5607247092424
 31
0.0
  0
LINE
  5
1038
330
18
100
AcDbEntity
  8
1
  6
Continuous
100
AcDbLine
 10
154.2529619235316
 20
284.1528707092425
 30
0.0
 11
164.2535999235316
 21
277.4073547092425
 31
0.0
  0
LINE
  5
1039
330
18
100
AcDbEntity
  8
1
  6
Continuous
100
AcDbLine
 10
164.2529619235316
 20
277.5018877092425
 30
0.0
 11
164.2529619235316
 21
282.5018877092425
 31
0.0
  0
LINE
  5
103A
330
18
100
AcDbEntity
  8
1
  6
Continuous
100
AcDbLine
 10
203.5317149235317
 20
284.7288127092424
 30
0.0
 11
203.5317149235317
 21
278.5607247092424
 31
0.0
  0
LINE
  5
103B
330
18
100
AcDbEntity
  8
1
  6
Continuous
100
AcDbLine
 10
238.2529619235316
 20
284.1528707092425
 30
0.0
 11
228.2523229235316
 21
277.4073547092425
 31
0.0
  0
LINE
  5
103C
330
18
100
AcDbEntity
  8
1
  6
Continuous
100
AcDbLine
 10
228.2529619235316
 20
277.5018877092425
 30
0.0
 11
228.2529619235316
 21
282.5018877092425
 31
0.0
  0
ARC
  5
103D
330
18
100
AcDbEntity
  8
1
  6
Continuous
100
AcDbCircle
 10
196.2529619235316
 20
208.0018877092425
 30
0.0
 40
32.5
100
AcDbArc
 50
128.2823220000018
 51
51.71767799999813
  0
ARC
  5
103E
330
18
100
AcDbEntity
  8
1
  6
Continuous
100
AcDbCircle
 10
196.2529619235316
 20
208.0018877092425
 30
0.0
 40
21.49999999999999
100
AcDbArc
 50
147.8968079999986
 51
32.10319200000133
  0
ARC
  5
103F
330
18
100
AcDbEntity
  8
1
  6
Continuous
100
AcDbCircle
 10
221.0942619235316
 20
244.5378487092424
 30
0.0
 40
6.964038999999998
100
AcDbArc
 50
90.0
 51
110.5884440000002
  0
LINE
  5
1040
330
18
100
AcDbEntity
  8
1
  6
Continuous
100
AcDbLine
 10
162.2529619235316
 20
272.5018877092425
 30
0.0
 11
230.2529619235316
 21
272.5018877092425
 31
0.0
  0
LINE
  5
1041
330
18
100
AcDbEntity
  8
4
  6
CENTER
 48
0.5
100
AcDbLine
 10
158.7529619235316
 20
208.0018877092425
 30
0.0
 11
233.7529619235316
 21
208.0018877092425
 31
0.0
  0
LINE
  5
1042
330
18
100
AcDbEntity
  8
1
  6
Continuous
100
AcDbLine
 10
179.9045059235315
 20
205.7707477092424
 30
0.0
 11
174.2713309235316
 21
247.0472907092424
 31
0.0
  0
LINE
  5
1043
330
18
100
AcDbEntity
  8
1
  6
Continuous
100
AcDbLine
 10
212.6014179235316
 20
205.7707477092424
 30
0.0
 11
218.2345929235316
 21
247.0472907092424
 31
0.0
  0
ARC
  5
1044
330
18
100
AcDbEntity
  8
1
  6
Continuous
100
AcDbCircle
 10
196.2529619235316
 20
208.0018877092425
 30
0.0
 40
16.5
100
AcDbArc
 50
187.7713740000013
 51
352.2286259999987
  0
CIRCLE
  5
1047
330
18
100
AcDbEntity
  8
1
  6
Continuous
100
AcDbCircle
 10
196.2529619235316
 20
208.0018877092425
 30
0.0
 40
10.0
  0
ARC
  5
1048
330
18
100
AcDbEntity
  8
1
  6
Continuous
100
AcDbCircle
 10
196.2529619235316
 20
208.0018877092425
 30
0.0
 40
17.0
100
AcDbArc
 50
173.841530000001
 51
6.158469999998956
  0
CIRCLE
  5
1049
330
18
100
AcDbEntity
  8
1
  6
Continuous
100
AcDbCircle
 10
196.2529619235316
 20
208.0018877092425
 30
0.0
 40
10.5
  0
LINE
  5
104D
330
18
100
AcDbEntity
  8
1
  6
Continuous
100
AcDbLine
 10
196.2529619235316
 20
212.6206897092424
 30
0.0
 11
192.2529619235316
 21
210.3112887092424
 31
0.0
  0
LINE
  5
104E
330
18
100
AcDbEntity
  8
1
  6
Continuous
100
AcDbLine
 10
200.2529619235316
 20
210.3112887092424
 30
0.0
 11
196.2529619235316
 21
212.6206897092424
 31
0.0
  0
LINE
  5
104F
330
18
100
AcDbEntity
  8
1
  6
Continuous
100
AcDbLine
 10
196.2529619235316
 20
203.3830847092425
 30
0.0
 11
192.2529619235316
 21
205.6924857092425
 31
0.0
  0
LINE
  5
1050
330
18
100
AcDbEntity
  8
1
  6
Continuous
100
AcDbLine
 10
192.2529619235316
 20
205.6924857092425
 30
0.0
 11
192.2529619235316
 21
210.3112887092424
 31
0.0
  0
LINE
  5
1051
330
18
100
AcDbEntity
  8
1
  6
Continuous
100
AcDbLine
 10
200.2529619235316
 20
205.6924857092425
 30
0.0
 11
196.2529619235316
 21
203.3830847092425
 31
0.0
  0
LINE
  5
1052
330
18
100
AcDbEntity
  8
1
  6
Continuous
100
AcDbLine
 10
200.2529619235316
 20
205.6924857092425
 30
0.0
 11
200.2529619235316
 21
210.3112887092424
 31
0.0
  0
LINE
  5
1064
330
18
100
AcDbEntity
  8
1
  6
Continuous
100
AcDbLine
 10
174.2529619235316
 20
270.5018877092425
 30
0.0
 11
174.2529619235316
 21
247.3177317092424
 31
0.0
  0
LINE
  5
1065
330
18
100
AcDbEntity
  8
1
  6
Continuous
100
AcDbLine
 10
160.2529619235316
 20
270.5018877092425
 30
0.0
 11
160.2529619235316
 21
253.5018877092425
 31
0.0
  0
LINE
  5
1066
330
18
100
AcDbEntity
  8
1
  6
Continuous
100
AcDbLine
 10
162.2529619235316
 20
251.5018877092425
 30
0.0
 11
171.4116619235316
 21
251.5018877092425
 31
0.0
  0
ARC
  5
1067
330
18
100
AcDbEntity
  8
1
  6
Continuous
100
AcDbCircle
 10
162.2529619235316
 20
253.5018877092425
 30
0.0
 40
2.0
100
AcDbArc
 50
180.0
 51
270.0
  0
ARC
  5
106B
330
18
100
AcDbEntity
  8
1
  6
Continuous
100
AcDbCircle
 10
173.6847589235316
 20
250.5890317092424
 30
0.0
 40
0.5
100
AcDbArc
 50
3.008047000001081
 51
69.41155599999976
  0
ARC
  5
106C
330
18
100
AcDbEntity
  8
1
  6
Continuous
100
AcDbCircle
 10
124.2529619235316
 20
247.9914597092424
 30
0.0
 40
50.0
100
AcDbArc
 50
0.0
 51
3.008047000001081
  0
ARC
  5
106D
330
18
100
AcDbEntity
  8
1
  6
Continuous
100
AcDbCircle
 10
176.2529619235316
 20
247.3177317092424
 30
0.0
 40
2.0
100
AcDbArc
 50
180.0
 51
187.7713740000013
  0
ARC
  5
106E
330
18
100
AcDbEntity
  8
1
  6
Continuous
100
AcDbCircle
 10
171.4116619235316
 20
244.5378487092424
 30
0.0
 40
6.964038999999998
100
AcDbArc
 50
69.41155599999976
 51
90.0
  0
ARC
  5
1072
330
18
100
AcDbEntity
  8
1
  6
Continuous
100
AcDbCircle
 10
162.2529619235316
 20
270.5018877092425
 30
0.0
 40
2.0
100
AcDbArc
 50
90.0
 51
180.0
  0
ARC
  5
1073
330
18
100
AcDbEntity
  8
1
  6
Continuous
100
AcDbCircle
 10
171.2529619235316
 20
277.5018877092425
 30
0.0
 40
7.0
100
AcDbArc
 50
180.0
 51
225.5846910000012
  0
ARC
  5
1075
330
18
100
AcDbEntity
  8
1
  6
Continuous
100
AcDbCircle
 10
176.2529619235316
 20
270.5018877092425
 30
0.0
 40
2.0
100
AcDbArc
 50
90.0
 51
180.0
  0
LINE
  5
1076
330
18
100
AcDbEntity
  8
1
  6
Continuous
100
AcDbLine
 10
218.2529619235316
 20
270.5018877092425
 30
0.0
 11
218.2529619235316
 21
247.3177317092424
 31
0.0
  0
ARC
  5
10AD
330
18
100
AcDbEntity
  8
1
  6
Continuous
100
AcDbCircle
 10
218.8211639235317
 20
250.5890317092424
 30
0.0
 40
0.5
100
AcDbArc
 50
110.5884440000002
 51
176.9919529999989
  0
ARC
  5
10AE
330
18
100
AcDbEntity
  8
1
  6
Continuous
100
AcDbCircle
 10
268.2529619235316
 20
247.9914597092424
 30
0.0
 40
50.0
100
AcDbArc
 50
176.9919529999989
 51
180.0
  0
ARC
  5
10AF
330
18
100
AcDbEntity
  8
1
  6
Continuous
100
AcDbCircle
 10
216.2529619235316
 20
247.3177317092424
 30
0.0
 40
2.0
100
AcDbArc
 50
352.2286259999987
 51
0.0
  0
ARC
  5
10B2
330
18
100
AcDbEntity
  8
1
  6
Continuous
100
AcDbCircle
 10
204.5317149235316
 20
278.4077847092425
 30
0.0
 40
1.0
100
AcDbArc
 50
205.8376559999988
 51
241.4142169999981
  0
LINE
  5
10B3
330
18
100
AcDbEntity
  8
1
  6
Continuous
100
AcDbLine
 10
202.5254949235316
 20
277.4077847092424
 30
0.0
 11
189.9804279235316
 21
277.4077847092424
 31
0.0
  0
ARC
  5
10B4
330
18
100
AcDbEntity
  8
1
  6
Continuous
100
AcDbCircle
 10
187.9742079235315
 20
278.4077847092425
 30
0.0
 40
1.0
100
AcDbArc
 50
298.5857830000018
 51
334.162344000001
  0
ARC
  5
10B6
330
18
100
AcDbEntity
  8
1
  6
Continuous
100
AcDbCircle
 10
216.2529619235316
 20
270.5018877092425
 30
0.0
 40
2.0
100
AcDbArc
 50
0.0
 51
90.0
  0
LINE
  5
10B7
330
18
100
AcDbEntity
  8
1
  6
Continuous
100
AcDbLine
 10
302.2420538763824
 20
270.5018877092425
 30
0.0
 11
302.2420538763824
 21
193.5018877092424
 31
0.0
  0
ARC
  5
10B8
330
18
100
AcDbEntity
  8
1
  6
Continuous
100
AcDbCircle
 10
304.2420538763824
 20
193.5018877092424
 30
0.0
 40
2.0
100
AcDbArc
 50
180.0
 51
270.0
  0
LINE
  5
10B9
330
18
100
AcDbEntity
  8
1
  6
Continuous
100
AcDbLine
 10
232.2529619235316
 20
270.5018877092425
 30
0.0
 11
232.2529619235316
 21
253.5018877092425
 31
0.0
  0
LINE
  5
10BA
330
18
100
AcDbEntity
  8
1
  6
Continuous
100
AcDbLine
 10
230.2529619235316
 20
251.5018877092425
 30
0.0
 11
221.0942619235316
 21
251.5018877092425
 31
0.0
  0
ARC
  5
10BB
330
18
100
AcDbEntity
  8
1
  6
Continuous
100
AcDbCircle
 10
230.2529619235316
 20
253.5018877092425
 30
0.0
 40
2.0
100
AcDbArc
 50
270.0
 51
0.0
  0
ARC
  5
10BC
330
18
100
AcDbEntity
  8
1
  6
Continuous
100
AcDbCircle
 10
221.2529619235316
 20
277.5018877092425
 30
0.0
 40
7.0
100
AcDbArc
 50
314.4153089999988
 51
0.0
  0
ARC
  5
10BD
330
18
100
AcDbEntity
  8
1
  6
Continuous
100
AcDbCircle
 10
230.2529619235316
 20
270.5018877092425
 30
0.0
 40
2.0
100
AcDbArc
 50
0.0
 51
90.0
  0
ARC
  5
10BE
330
18
100
AcDbEntity
  8
1
  6
Continuous
100
AcDbCircle
 10
304.2420538763824
 20
270.5018877092425
 30
0.0
 40
2.0
100
AcDbArc
 50
90.0
 51
180.0
  0
LINE
  5
10BF
330
18
100
AcDbEntity
  8
1
  6
Continuous
100
AcDbLine
 10
154.2529619235316
 20
290.5018877092425
 30
0.0
 11
188.8029619235316
 21
290.5018877092425
 31
0.0
  0
LINE
  5
10C0
330
18
100
AcDbEntity
  8
1
  6
Continuous
100
AcDbLine
 10
188.9742079235315
 20
285.5018877092425
 30
0.0
 11
154.2529619235316
 21
285.5018877092425
 31
0.0
  0
LINE
  5
10C1
330
18
100
AcDbEntity
  8
4
  6
CENTER
 48
0.5
100
AcDbLine
 10
149.2529619235316
 20
391.729422828087
 30
0.0
 11
243.2529619235316
 21
391.729422828087
 31
0.0
  0
LINE
  5
10C2
330
18
100
AcDbEntity
  8
1
  6
Continuous
100
AcDbLine
 10
165.2297849235315
 20
386.4794228280871
 30
0.0
 11
154.2529619235316
 21
386.4794228280871
 31
0.0
  0
LINE
  5
10C3
330
18
100
AcDbEntity
  8
1
  6
Continuous
100
AcDbLine
 10
154.2529619235316
 20
396.979422828087
 30
0.0
 11
165.2297849235315
 21
396.979422828087
 31
0.0
  0
ARC
  5
10C4
330
18
100
AcDbEntity
  8
1
  6
Continuous
100
AcDbCircle
 10
164.2529619235316
 20
359.729422828087
 30
0.0
 40
10.0
100
AcDbArc
 50
180.0
 51
270.0
  0
ARC
  5
10C5
330
18
100
AcDbEntity
  8
1
  6
Continuous
100
AcDbCircle
 10
164.2529619235316
 20
423.729422828087
 30
0.0
 40
10.0
100
AcDbArc
 50
90.0
 51
180.0
  0
LINE
  5
10C6
330
18
100
AcDbEntity
  8
1
  6
Continuous
100
AcDbLine
 10
154.2529619235316
 20
423.729422828087
 30
0.0
 11
154.2529619235316
 21
359.729422828087
 31
0.0
  0
LINE
  5
10C7
330
18
100
AcDbEntity
  8
1
  6
Continuous
100
AcDbLine
 10
154.2529619235316
 20
290.5018877092425
 30
0.0
 11
154.2529619235316
 21
284.1528707092425
 31
0.0
  0
CIRCLE
  5
10C8
330
18
100
AcDbEntity
  8
1
  6
Continuous
100
AcDbCircle
 10
196.2529619235316
 20
391.729422828087
 30
0.0
 40
24.0
  0
CIRCLE
  5
10C9
330
18
100
AcDbEntity
  8
1
  6
Continuous
100
AcDbCircle
 10
196.2529619235316
 20
391.729422828087
 30
0.0
 40
27.0
  0
CIRCLE
  5
10CA
330
18
100
AcDbEntity
  8
1
  6
Continuous
100
AcDbCircle
 10
196.2529619235316
 20
391.729422828087
 30
0.0
 40
17.0
  0
LINE
  5
10CB
330
18
100
AcDbEntity
  8
1
  6
Continuous
100
AcDbLine
 10
213.2529619235316
 20
401.544376828087
 30
0.0
 11
196.2529619235316
 21
411.3593318280869
 31
0.0
  0
LINE
  5
10CC
330
18
100
AcDbEntity
  8
1
  6
Continuous
100
AcDbLine
 10
179.2529619235316
 20
401.544376828087
 30
0.0
 11
196.2529619235316
 21
411.3593318280869
 31
0.0
  0
LINE
  5
10CD
330
18
100
AcDbEntity
  8
4
  6
CENTER
 48
0.5
100
AcDbLine
 10
196.2529619235316
 20
344.729422828087
 30
0.0
 11
196.2529619235316
 21
438.7294228280871
 31
0.0
  0
LINE
  5
10CE
330
18
100
AcDbEntity
  8
1
  6
Continuous
100
AcDbLine
 10
238.2529619235316
 20
423.729422828087
 30
0.0
 11
238.2529619235316
 21
359.729422828087
 31
0.0
  0
LINE
  5
10CF
330
18
100
AcDbEntity
  8
1
  6
Continuous
100
AcDbLine
 10
203.7029619235316
 20
290.5018877092425
 30
0.0
 11
238.2529619235316
 21
290.5018877092425
 31
0.0
  0
LINE
  5
10D0
330
18
100
AcDbEntity
  8
1
  6
Continuous
100
AcDbLine
 10
203.5317149235317
 20
285.5018877092425
 30
0.0
 11
238.2529619235316
 21
285.5018877092425
 31
0.0
  0
LINE
  5
10D1
330
18
100
AcDbEntity
  8
1
  6
Continuous
100
AcDbLine
 10
228.2529619235316
 20
349.729422828087
 30
0.0
 11
164.2529619235316
 21
349.729422828087
 31
0.0
  0
LINE
  5
10D2
330
18
100
AcDbEntity
  8
4
  6
CENTER
 48
0.2
100
AcDbLine
 10
164.2529619235316
 20
352.4794228280871
 30
0.0
 11
164.2529619235316
 21
366.979422828087
 31
0.0
  0
LINE
  5
10D3
330
18
100
AcDbEntity
  8
1
  6
Continuous
100
AcDbLine
 10
191.0029619235316
 20
349.729422828087
 30
0.0
 11
191.0029619235316
 21
360.706245828087
 31
0.0
  0
LINE
  5
10D4
330
18
100
AcDbEntity
  8
1
  6
Continuous
100
AcDbLine
 10
201.5029619235316
 20
349.729422828087
 30
0.0
 11
201.5029619235316
 21
360.706245828087
 31
0.0
  0
CIRCLE
  5
10D5
330
18
100
AcDbEntity
  8
1
  6
Continuous
100
AcDbCircle
 10
164.2529619235316
 20
359.729422828087
 30
0.0
 40
4.25
  0
LINE
  5
10D6
330
18
100
AcDbEntity
  8
4
  6
CENTER
 48
0.2
100
AcDbLine
 10
164.2529619235316
 20
293.5018877092425
 30
0.0
 11
164.2529619235316
 21
282.5018877092425
 31
0.0
  0
ARC
  5
10D7
330
18
100
AcDbEntity
  8
1
  6
Continuous
100
AcDbCircle
 10
161.2529619235315
 20
282.5018877092425
 30
0.0
 40
3.0
100
AcDbArc
 50
0.0
 51
90.0
  0
ARC
  5
10D8
330
18
100
AcDbEntity
  8
1
  6
Continuous
100
AcDbCircle
 10
201.5029649235316
 20
286.3528707092425
 30
0.0
 40
2.2
100
AcDbArc
 50
270.0
 51
337.2438190000011
  0
ARC
  5
10D9
330
18
100
AcDbEntity
  8
1
  6
Continuous
100
AcDbCircle
 10
203.7029619235316
 20
288.3018877092423
 30
0.0
 40
2.2
100
AcDbArc
 50
90.0
 51
180.0997249999992
  0
ARC
  5
10DA
330
18
100
AcDbEntity
  8
1
  6
Continuous
100
AcDbCircle
 10
187.7529619235316
 20
265.4511957092424
 30
0.0
 40
24.550691
100
AcDbArc
 50
69.74356400000093
 51
83.92260899999802
  0
LINE
  5
10DB
330
18
100
AcDbEntity
  8
1
  6
Continuous
100
AcDbLine
 10
190.1993859235316
 20
290.0018877092425
 30
0.0
 11
202.3065379235316
 21
290.0018877092425
 31
0.0
  0
LINE
  5
10DC
330
18
100
AcDbEntity
  8
1
  6
Continuous
100
AcDbLine
 10
201.5029649235316
 20
284.1528707092425
 30
0.0
 11
191.0029579235316
 21
284.1528707092425
 31
0.0
  0
LINE
  5
10DD
330
18
100
AcDbEntity
  8
1
  6
Continuous
100
AcDbLine
 10
201.5029649235316
 20
288.2980577092423
 30
0.0
 11
191.0029579235316
 21
288.2980577092423
 31
0.0
  0
ARC
  5
10DE
330
18
100
AcDbEntity
  8
1
  6
Continuous
100
AcDbCircle
 10
191.0029579235316
 20
286.3528707092425
 30
0.0
 40
2.2
100
AcDbArc
 50
202.7561809999988
 51
270.0
  0
ARC
  5
10DF
330
18
100
AcDbEntity
  8
1
  6
Continuous
100
AcDbCircle
 10
188.8029619235316
 20
288.3018877092423
 30
0.0
 40
2.2
100
AcDbArc
 50
359.9002750000007
 51
90.0
  0
ARC
  5
10E0
330
18
100
AcDbEntity
  8
1
  6
Continuous
100
AcDbCircle
 10
204.7529619235316
 20
265.4511957092424
 30
0.0
 40
24.550691
100
AcDbArc
 50
96.07739100000198
 51
110.256435999999
  0
LINE
  5
10E1
330
18
100
AcDbEntity
  8
1
  6
Continuous
100
AcDbLine
 10
196.2529619235316
 20
288.4834877092424
 30
0.0
 11
196.2529619235316
 21
288.2980577092423
 31
0.0
  0
LINE
  5
10E2
330
18
100
AcDbEntity
  8
1
  6
Continuous
100
AcDbLine
 10
179.2529619235316
 20
381.914467828087
 30
0.0
 11
196.2529619235316
 21
372.099513828087
 31
0.0
  0
ARC
  5
10E3
330
18
100
AcDbEntity
  8
1
  6
Continuous
100
AcDbCircle
 10
185.0029619235316
 20
360.706245828087
 30
0.0
 40
6.0
100
AcDbArc
 50
0.0
 51
70.06772999999789
  0
LINE
  5
10E4
330
18
100
AcDbEntity
  8
4
  6
CENTER
 48
0.2
100
AcDbLine
 10
157.0029619235316
 20
359.729422828087
 30
0.0
 11
171.5029619235316
 21
359.729422828087
 31
0.0
  0
ARC
  5
10E5
330
18
100
AcDbEntity
  8
1
  6
Continuous
100
AcDbCircle
 10
165.2297849235315
 20
380.479422828087
 30
0.0
 40
6.0
100
AcDbArc
 50
19.93227000000015
 51
90.0
  0
ARC
  5
10E6
330
18
100
AcDbEntity
  8
1
  6
Continuous
100
AcDbCircle
 10
165.2297849235315
 20
402.979422828087
 30
0.0
 40
6.0
100
AcDbArc
 50
270.0
 51
340.0677299999998
  0
LINE
  5
10E8
330
18
100
AcDbEntity
  8
1
  6
Continuous
100
AcDbLine
 10
179.2529619235316
 20
401.544376828087
 30
0.0
 11
179.2529619235316
 21
381.914467828087
 31
0.0
  0
LINE
  5
10E9
330
18
100
AcDbEntity
  8
1
  6
Continuous
100
AcDbLine
 10
213.2529619235316
 20
381.914467828087
 30
0.0
 11
196.2529619235316
 21
372.099513828087
 31
0.0
  0
ARC
  5
10EA
330
18
100
AcDbEntity
  8
1
  6
Continuous
100
AcDbCircle
 10
207.5029619235316
 20
360.706245828087
 30
0.0
 40
6.0
100
AcDbArc
 50
109.9322700000021
 51
180.0
  0
LINE
  5
10EC
330
18
100
AcDbEntity
  8
1
  6
Continuous
100
AcDbLine
 10
213.2529619235316
 20
401.544376828087
 30
0.0
 11
213.2529619235316
 21
381.914467828087
 31
0.0
  0
LINE
  5
10ED
330
18
100
AcDbEntity
  8
4
  6
CENTER
 48
0.2
100
AcDbLine
 10
228.2529619235316
 20
352.4794228280871
 30
0.0
 11
228.2529619235316
 21
366.979422828087
 31
0.0
  0
ARC
  5
10EE
330
18
100
AcDbEntity
  8
1
  6
Continuous
100
AcDbCircle
 10
228.2529619235316
 20
359.729422828087
 30
0.0
 40
10.0
100
AcDbArc
 50
270.0
 51
0.0
  0
CIRCLE
  5
10EF
330
18
100
AcDbEntity
  8
1
  6
Continuous
100
AcDbCircle
 10
228.2529619235316
 20
359.729422828087
 30
0.0
 40
4.25
  0
LINE
  5
10F0
330
18
100
AcDbEntity
  8
4
  6
CENTER
 48
0.2
100
AcDbLine
 10
228.2529619235316
 20
293.5018877092425
 30
0.0
 11
228.2529619235316
 21
282.5018877092425
 31
0.0
  0
ARC
  5
10F1
330
18
100
AcDbEntity
  8
1
  6
Continuous
100
AcDbCircle
 10
231.2529619235316
 20
282.5018877092425
 30
0.0
 40
3.0
100
AcDbArc
 50
90.0
 51
180.0
  0
LINE
  5
10F2
330
18
100
AcDbEntity
  8
1
  6
Continuous
100
AcDbLine
 10
238.2529619235316
 20
290.5018877092425
 30
0.0
 11
238.2529619235316
 21
284.1528707092425
 31
0.0
  0
LINE
  5
10F3
330
18
100
AcDbEntity
  8
1
  6
Continuous
100
AcDbLine
 10
297.6920688763824
 20
290.5019687092424
 30
0.0
 11
297.6920688763824
 21
284.1529517092423
 31
0.0
  0
LINE
  5
10F4
330
18
100
AcDbEntity
  8
4
  6
CENTER
 48
0.2
100
AcDbLine
 10
221.0029619235316
 20
359.729422828087
 30
0.0
 11
235.5029619235316
 21
359.729422828087
 31
0.0
  0
LINE
  5
10F5
330
18
100
AcDbEntity
  8
1
  6
Continuous
100
AcDbLine
 10
238.2529619235316
 20
386.4794228280871
 30
0.0
 11
227.2761389235316
 21
386.4794228280871
 31
0.0
  0
LINE
  5
10F6
330
18
100
AcDbEntity
  8
1
  6
Continuous
100
AcDbLine
 10
238.2529619235316
 20
396.979422828087
 30
0.0
 11
227.2761389235316
 21
396.979422828087
 31
0.0
  0
ARC
  5
10F7
330
18
100
AcDbEntity
  8
1
  6
Continuous
100
AcDbCircle
 10
227.2761389235316
 20
380.479422828087
 30
0.0
 40
6.0
100
AcDbArc
 50
90.0
 51
160.0677299999998
  0
ARC
  5
10F8
330
18
100
AcDbEntity
  8
1
  6
Continuous
100
AcDbCircle
 10
227.2761389235316
 20
402.979422828087
 30
0.0
 40
6.0
100
AcDbArc
 50
199.93227
 51
270.0
  0
LINE
  5
10F9
330
18
100
AcDbEntity
  8
1
  6
Continuous
100
AcDbLine
 10
228.2529619235316
 20
433.729422828087
 30
0.0
 11
164.2529619235316
 21
433.729422828087
 31
0.0
  0
ARC
  5
10FA
330
18
100
AcDbEntity
  8
1
  6
Continuous
100
AcDbCircle
 10
185.0029619235316
 20
422.7525998280872
 30
0.0
 40
6.0
100
AcDbArc
 50
289.932270000002
 51
0.0
  0
LINE
  5
10FB
330
18
100
AcDbEntity
  8
4
  6
CENTER
 48
0.2
100
AcDbLine
 10
164.2529619235316
 20
416.4794228280871
 30
0.0
 11
164.2529619235316
 21
430.979422828087
 31
0.0
  0
CIRCLE
  5
10FC
330
18
100
AcDbEntity
  8
1
  6
Continuous
100
AcDbCircle
 10
164.2529619235316
 20
423.729422828087
 30
0.0
 40
4.25
  0
LINE
  5
10FD
330
18
100
AcDbEntity
  8
4
  6
CENTER
 48
0.2
100
AcDbLine
 10
157.0029619235316
 20
423.729422828087
 30
0.0
 11
171.5029619235316
 21
423.729422828087
 31
0.0
  0
LINE
  5
10FE
330
18
100
AcDbEntity
  8
1
  6
Continuous
100
AcDbLine
 10
201.5029619235316
 20
433.729422828087
 30
0.0
 11
201.5029619235316
 21
422.7525998280872
 31
0.0
  0
LINE
  5
10FF
330
18
100
AcDbEntity
  8
1
  6
Continuous
100
AcDbLine
 10
191.0029619235316
 20
433.729422828087
 30
0.0
 11
191.0029619235316
 21
422.7525998280872
 31
0.0
  0
ARC
  5
1100
330
18
100
AcDbEntity
  8
1
  6
Continuous
100
AcDbCircle
 10
207.5029619235316
 20
422.7525998280872
 30
0.0
 40
6.0
100
AcDbArc
 50
180.0
 51
250.0677299999979
  0
LINE
  5
1101
330
18
100
AcDbEntity
  8
4
  6
CENTER
 48
0.2
100
AcDbLine
 10
228.2529619235316
 20
416.4794228280871
 30
0.0
 11
228.2529619235316
 21
430.979422828087
 31
0.0
  0
ARC
  5
1102
330
18
100
AcDbEntity
  8
1
  6
Continuous
100
AcDbCircle
 10
228.2529619235316
 20
423.729422828087
 30
0.0
 40
10.0
100
AcDbArc
 50
0.0
 51
90.0
  0
CIRCLE
  5
1103
330
18
100
AcDbEntity
  8
1
  6
Continuous
100
AcDbCircle
 10
228.2529619235316
 20
423.729422828087
 30
0.0
 40
4.25
  0
LINE
  5
1104
330
18
100
AcDbEntity
  8
4
  6
CENTER
 48
0.2
100
AcDbLine
 10
221.0029619235316
 20
423.729422828087
 30
0.0
 11
235.5029619235316
 21
423.729422828087
 31
0.0
  0
LINE
  5
1105
330
18
100
AcDbEntity
  8
4
  6
CENTER
 48
0.5
100
AcDbLine
 10
339.6920701615217
 20
295.0019687092424
 30
0.0
 11
339.6920464962217
 21
170.5018877092426
 31
0.0
  0
LINE
  5
1106
330
18
100
AcDbEntity
  8
1
  6
Continuous
100
AcDbLine
 10
332.4133158763824
 20
284.7288947092423
 30
0.0
 11
332.4133158763824
 21
278.5608067092424
 31
0.0
  0
LINE
  5
1107
330
18
100
AcDbEntity
  8
1
  6
Continuous
100
AcDbLine
 10
346.9708228763825
 20
284.7288947092423
 30
0.0
 11
346.9708228763825
 21
278.5608067092424
 31
0.0
  0
LINE
  5
1108
330
18
100
AcDbEntity
  8
1
  6
Continuous
100
AcDbLine
 10
307.6920688763824
 20
277.5019687092424
 30
0.0
 11
307.6920688763824
 21
282.5019687092424
 31
0.0
  0
LINE
  5
1109
330
18
100
AcDbEntity
  8
1
  6
Continuous
100
AcDbLine
 10
381.6920688763825
 20
284.1529517092423
 30
0.0
 11
371.6914308763823
 21
277.4074357092424
 31
0.0
  0
LINE
  5
110A
330
18
100
AcDbEntity
  8
1
  6
Continuous
100
AcDbLine
 10
371.6920688763825
 20
277.5019687092424
 30
0.0
 11
371.6920688763825
 21
282.5019687092424
 31
0.0
  0
LINE
  5
110C
330
18
100
AcDbEntity
  8
1
  6
Continuous
100
AcDbLine
 10
340.1920538763825
 20
237.4093797092424
 30
0.0
 11
340.1920538763825
 21
178.5943947092424
 31
0.0
  0
LINE
  5
110F
330
18
100
AcDbEntity
  8
1
  6
Continuous
100
AcDbLine
 10
339.1920538763824
 20
237.4093797092424
 30
0.0
 11
339.1920538763824
 21
178.5943947092424
 31
0.0
  0
ARC
  5
1111
330
18
100
AcDbEntity
  8
1
  6
Continuous
100
AcDbCircle
 10
336.6920538763825
 20
178.5943947092424
 30
0.0
 40
2.5
100
AcDbArc
 50
277.3301309999999
 51
0.0
  0
ARC
  5
1112
330
18
100
AcDbEntity
  8
1
  6
Continuous
100
AcDbCircle
 10
327.4420538763824
 20
250.5018877092425
 30
0.0
 40
75.0
100
AcDbArc
 50
264.4664520000005
 51
277.3301309999999
  0
ARC
  5
1113
330
18
100
AcDbEntity
  8
1
  6
Continuous
100
AcDbCircle
 10
320.6920538763824
 20
180.8280937092424
 30
0.0
 40
5.0
100
AcDbArc
 50
180.0
 51
264.4664520000005
  0
ARC
  5
1114
330
18
100
AcDbEntity
  8
1
  6
Continuous
100
AcDbCircle
 10
351.9420538763824
 20
250.5018877092425
 30
0.0
 40
75.0
100
AcDbArc
 50
262.669869
 51
275.5335479999995
  0
ARC
  5
1115
330
18
100
AcDbEntity
  8
1
  6
Continuous
100
AcDbCircle
 10
342.6920538763825
 20
178.5943947092424
 30
0.0
 40
2.5
100
AcDbArc
 50
180.0
 51
262.669869
  0
ARC
  5
1116
330
18
100
AcDbEntity
  8
1
  6
Continuous
100
AcDbCircle
 10
358.6920538763824
 20
180.8280937092424
 30
0.0
 40
5.0
100
AcDbArc
 50
275.5335479999995
 51
0.0
  0
LINE
  5
1117
330
18
100
AcDbEntity
  8
1
  6
Continuous
100
AcDbLine
 10
367.8420538763824
 20
247.1818877092424
 30
0.0
 11
375.1420538763825
 21
247.1818877092424
 31
0.0
  0
LINE
  5
1118
330
18
100
AcDbEntity
  8
1
  6
Continuous
100
AcDbLine
 10
367.8420538763824
 20
191.5018877092425
 30
0.0
 11
375.1420538763825
 21
191.5018877092425
 31
0.0
  0
ARC
  5
111A
330
18
100
AcDbEntity
  8
1
  6
Continuous
100
AcDbCircle
 10
364.6920688763825
 20
277.5019687092424
 30
0.0
 40
7.0
100
AcDbArc
 50
314.4153089999988
 51
0.0
  0
LINE
  5
111B
330
18
100
AcDbEntity
  8
1
  6
Continuous
100
AcDbLine
 10
365.8420538763824
 20
193.5018877092424
 30
0.0
 11
365.8420538763824
 21
246.5018877092425
 31
0.0
  0
LINE
  5
111C
330
18
100
AcDbEntity
  8
1
  6
Continuous
100
AcDbLine
 10
313.5420538763824
 20
193.5018877092424
 30
0.0
 11
313.5420538763824
 21
246.5018877092425
 31
0.0
  0
LINE
  5
111E
330
18
100
AcDbEntity
  8
1
  6
Continuous
100
AcDbLine
 10
363.6920538763825
 20
180.8280937092424
 30
0.0
 11
363.6920538763825
 21
235.1756807092424
 31
0.0
  0
LINE
  5
1120
330
18
100
AcDbEntity
  8
1
  6
Continuous
100
AcDbLine
 10
315.6920538763825
 20
180.8280937092424
 30
0.0
 11
315.6920538763825
 21
235.1756807092424
 31
0.0
  0
LINE
  5
1121
330
18
100
AcDbEntity
  8
1
  6
Continuous
100
AcDbLine
 10
339.1920538763824
 20
196.0018877092425
 30
0.0
 11
339.6920538763824
 21
196.5018877092425
 31
0.0
  0
LINE
  5
1122
330
18
100
AcDbEntity
  8
1
  6
Continuous
100
AcDbLine
 10
339.1920538763824
 20
220.0018877092424
 30
0.0
 11
339.6920538763824
 21
219.5018877092425
 31
0.0
  0
LINE
  5
1123
330
18
100
AcDbEntity
  8
1
  6
Continuous
100
AcDbLine
 10
314.0420848763824
 20
191.1851027092424
 30
0.0
 11
314.0420848763824
 21
224.8186717092425
 31
0.0
  0
ARC
  5
1125
330
18
100
AcDbEntity
  8
1
  6
Continuous
100
AcDbCircle
 10
314.0420838763825
 20
190.0018877092425
 30
0.0
 40
1.0
100
AcDbArc
 50
12.44796599999981
 51
80.40587900000227
  0
ARC
  5
1126
330
18
100
AcDbEntity
  8
1
  6
Continuous
100
AcDbCircle
 10
311.5420538763824
 20
193.5018877092424
 30
0.0
 40
2.0
100
AcDbArc
 50
270.0
 51
0.0
  0
ARC
  5
1127
330
18
100
AcDbEntity
  8
1
  6
Continuous
100
AcDbCircle
 10
314.2420848763824
 20
191.1851027092424
 30
0.0
 40
0.2
100
AcDbArc
 50
180.0000210000001
 51
260.4058790000022
  0
ARC
  5
1128
330
18
100
AcDbEntity
  8
1
  6
Continuous
100
AcDbCircle
 10
316.6420848763824
 20
187.5018877092425
 30
0.0
 40
1.0
100
AcDbArc
 50
192.4479659999997
 51
198.194893
  0
LINE
  5
1129
330
18
100
AcDbEntity
  8
1
  6
Continuous
100
AcDbLine
 10
315.0185758763825
 20
190.2174397092425
 30
0.0
 11
315.6655928763824
 21
187.2863347092425
 31
0.0
  0
LINE
  5
112A
330
18
100
AcDbEntity
  8
1
  6
Continuous
100
AcDbLine
 10
314.0420848763824
 20
200.5268877092424
 30
0.0
 11
313.5420598763825
 21
200.5268877092424
 31
0.0
  0
LINE
  5
112B
330
18
100
AcDbEntity
  8
1
  6
Continuous
100
AcDbLine
 10
314.0420848763824
 20
215.4768877092424
 30
0.0
 11
313.5420598763825
 21
215.4768877092424
 31
0.0
  0
ARC
  5
112C
330
18
100
AcDbEntity
  8
1
  6
Continuous
100
AcDbCircle
 10
314.0420838763825
 20
226.0018877092424
 30
0.0
 40
1.0
100
AcDbArc
 50
279.5941209999976
 51
347.5520340000002
  0
ARC
  5
112D
330
18
100
AcDbEntity
  8
1
  6
Continuous
100
AcDbCircle
 10
314.2420848763824
 20
224.8186717092425
 30
0.0
 40
0.2
100
AcDbArc
 50
99.59412099999774
 51
179.9999789999998
  0
LINE
  5
112E
330
18
100
AcDbEntity
  8
1
  6
Continuous
100
AcDbLine
 10
315.0185758763825
 20
225.7863347092424
 30
0.0
 11
315.6655928763824
 21
228.7174397092424
 31
0.0
  0
ARC
  5
112F
330
18
100
AcDbEntity
  8
1
  6
Continuous
100
AcDbCircle
 10
316.6420848763824
 20
228.5018877092424
 30
0.0
 40
1.0
100
AcDbArc
 50
161.8051069999999
 51
167.5520340000002
  0
LINE
  5
1131
330
18
100
AcDbEntity
  8
1
  6
Continuous
100
AcDbLine
 10
365.3420538763823
 20
191.1851027092424
 30
0.0
 11
365.3420538763823
 21
224.8186717092425
 31
0.0
  0
LINE
  5
1135
330
18
100
AcDbEntity
  8
1
  6
Continuous
100
AcDbLine
 10
339.6920538763824
 20
219.5018877092425
 30
0.0
 11
339.6920538763824
 21
196.5018877092425
 31
0.0
  0
LINE
  5
1136
330
18
100
AcDbEntity
  8
1
  6
Continuous
100
AcDbLine
 10
340.1920538763825
 20
196.0018877092425
 30
0.0
 11
339.6920538763824
 21
196.5018877092425
 31
0.0
  0
LINE
  5
1138
330
18
100
AcDbEntity
  8
1
  6
Continuous
100
AcDbLine
 10
364.3655628763824
 20
190.2174397092425
 30
0.0
 11
363.7185458763824
 21
187.2863347092425
 31
0.0
  0
ARC
  5
1139
330
18
100
AcDbEntity
  8
1
  6
Continuous
100
AcDbCircle
 10
362.7420538763824
 20
187.5018877092425
 30
0.0
 40
1.0
100
AcDbArc
 50
341.8051279999994
 51
347.552054999999
  0
ARC
  5
113A
330
18
100
AcDbEntity
  8
1
  6
Continuous
100
AcDbCircle
 10
367.8420538763824
 20
193.5018877092424
 30
0.0
 40
2.0
100
AcDbArc
 50
180.0
 51
270.0
  0
ARC
  5
113B
330
18
100
AcDbEntity
  8
1
  6
Continuous
100
AcDbCircle
 10
365.3420548763823
 20
190.0018877092425
 30
0.0
 40
1.0
100
AcDbArc
 50
99.59414199999978
 51
167.5520549999991
  0
ARC
  5
113C
330
18
100
AcDbEntity
  8
1
  6
Continuous
100
AcDbCircle
 10
365.1420538763825
 20
191.1851027092424
 30
0.0
 40
0.2
100
AcDbArc
 50
279.5941419999997
 51
0.0
  0
LINE
  5
113D
330
18
100
AcDbEntity
  8
1
  6
Continuous
100
AcDbLine
 10
365.3420538763823
 20
200.5268877092424
 30
0.0
 11
365.8420788763825
 21
200.5268877092424
 31
0.0
  0
LINE
  5
113E
330
18
100
AcDbEntity
  8
1
  6
Continuous
100
AcDbLine
 10
340.1920538763825
 20
220.0018877092424
 30
0.0
 11
339.6920538763824
 21
219.5018877092425
 31
0.0
  0
LINE
  5
1140
330
18
100
AcDbEntity
  8
1
  6
Continuous
100
AcDbLine
 10
365.3420538763823
 20
215.4768877092424
 30
0.0
 11
365.8420788763825
 21
215.4768877092424
 31
0.0
  0
LINE
  5
1141
330
18
100
AcDbEntity
  8
1
  6
Continuous
100
AcDbLine
 10
364.3655628763824
 20
225.7863347092424
 30
0.0
 11
363.7185458763824
 21
228.7174397092424
 31
0.0
  0
ARC
  5
1142
330
18
100
AcDbEntity
  8
1
  6
Continuous
100
AcDbCircle
 10
362.7420538763824
 20
228.5018877092424
 30
0.0
 40
1.0
100
AcDbArc
 50
12.44794500000093
 51
18.19487200000065
  0
ARC
  5
1143
330
18
100
AcDbEntity
  8
1
  6
Continuous
100
AcDbCircle
 10
365.3420548763823
 20
226.0018877092424
 30
0.0
 40
1.0
100
AcDbArc
 50
192.4479450000009
 51
260.4058580000002
  0
ARC
  5
1144
330
18
100
AcDbEntity
  8
1
  6
Continuous
100
AcDbCircle
 10
365.1420538763825
 20
224.8186717092425
 30
0.0
 40
0.2
100
AcDbArc
 50
0.0
 51
80.40585800000023
  0
ARC
  5
1146
330
18
100
AcDbEntity
  8
1
  6
Continuous
100
AcDbCircle
 10
336.6920538763825
 20
237.4093797092424
 30
0.0
 40
2.5
100
AcDbArc
 50
0.0
 51
82.66986900000004
  0
LINE
  5
1147
330
18
100
AcDbEntity
  8
1
  6
Continuous
100
AcDbLine
 10
345.9646028763825
 20
277.4078667092425
 30
0.0
 11
333.4195358763825
 21
277.4078667092425
 31
0.0
  0
LINE
  5
1148
330
18
100
AcDbEntity
  8
1
  6
Continuous
100
AcDbLine
 10
313.7690908763825
 20
251.5018877092425
 30
0.0
 11
313.7690908763825
 21
270.5018877092425
 31
0.0
  0
ARC
  5
1149
330
18
100
AcDbEntity
  8
1
  6
Continuous
100
AcDbCircle
 10
327.4420538763824
 20
165.5018877092424
 30
0.0
 40
75.0
100
AcDbArc
 50
82.66986900000004
 51
95.53354799999953
  0
ARC
  5
114A
330
18
100
AcDbEntity
  8
1
  6
Continuous
100
AcDbCircle
 10
320.6920538763824
 20
235.1756807092424
 30
0.0
 40
5.0
100
AcDbArc
 50
95.53354799999953
 51
180.0
  0
ARC
  5
114B
330
18
100
AcDbEntity
  8
1
  6
Continuous
100
AcDbCircle
 10
318.5420538763825
 20
246.5018877092425
 30
0.0
 40
5.0
100
AcDbArc
 50
90.0
 51
180.0
  0
ARC
  5
114C
330
18
100
AcDbEntity
  8
1
  6
Continuous
100
AcDbCircle
 10
314.6920688763824
 20
277.5019687092424
 30
0.0
 40
7.0
100
AcDbArc
 50
180.0
 51
225.5846910000012
  0
ARC
  5
114D
330
18
100
AcDbEntity
  8
1
  6
Continuous
100
AcDbCircle
 10
331.4133158763825
 20
278.4078667092425
 30
0.0
 40
1.0
100
AcDbArc
 50
298.5857830000018
 51
334.162344000001
  0
LINE
  5
114E
330
18
100
AcDbEntity
  8
1
  6
Continuous
100
AcDbLine
 10
365.6150168763824
 20
251.5018877092425
 30
0.0
 11
365.6150168763824
 21
270.5018877092425
 31
0.0
  0
LINE
  5
114F
330
18
100
AcDbEntity
  8
1
  6
Continuous
100
AcDbLine
 10
318.5420538763825
 20
251.5018877092425
 30
0.0
 11
360.8420538763823
 21
251.5018877092425
 31
0.0
  0
ARC
  5
1150
330
18
100
AcDbEntity
  8
1
  6
Continuous
100
AcDbCircle
 10
351.9420538763824
 20
165.5018877092424
 30
0.0
 40
75.0
100
AcDbArc
 50
84.46645200000046
 51
97.33013099999997
  0
ARC
  5
1151
330
18
100
AcDbEntity
  8
1
  6
Continuous
100
AcDbCircle
 10
342.6920538763825
 20
237.4093797092424
 30
0.0
 40
2.5
100
AcDbArc
 50
97.33013099999997
 51
180.0
  0
ARC
  5
1152
330
18
100
AcDbEntity
  8
1
  6
Continuous
100
AcDbCircle
 10
358.6920538763824
 20
235.1756807092424
 30
0.0
 40
5.0
100
AcDbArc
 50
0.0
 51
84.46645200000046
  0
ARC
  5
1153
330
18
100
AcDbEntity
  8
1
  6
Continuous
100
AcDbCircle
 10
360.8420538763823
 20
246.5018877092425
 30
0.0
 40
5.0
100
AcDbArc
 50
0.0
 51
90.0
  0
ARC
  5
1154
330
18
100
AcDbEntity
  8
1
  6
Continuous
100
AcDbCircle
 10
347.9708228763825
 20
278.4078667092425
 30
0.0
 40
1.0
100
AcDbArc
 50
205.8376559999988
 51
241.4142169999981
  0
LINE
  5
1155
330
18
100
AcDbEntity
  8
1
  6
Continuous
100
AcDbLine
 10
377.1420538763825
 20
270.5018877092425
 30
0.0
 11
377.1420538763825
 21
193.5018877092424
 31
0.0
  0
ARC
  5
1156
330
18
100
AcDbEntity
  8
1
  6
Continuous
100
AcDbCircle
 10
375.1420538763825
 20
193.5018877092424
 30
0.0
 40
2.0
100
AcDbArc
 50
270.0
 51
0.0
  0
ARC
  5
1157
330
18
100
AcDbEntity
  8
1
  6
Continuous
100
AcDbCircle
 10
375.1420538763825
 20
270.5018877092425
 30
0.0
 40
2.0
100
AcDbArc
 50
0.0
 51
90.0
  0
LINE
  5
1158
330
18
100
AcDbEntity
  8
1
  6
Continuous
100
AcDbLine
 10
347.1420688763824
 20
290.5019687092424
 30
0.0
 11
381.6920688763825
 21
290.5019687092424
 31
0.0
  0
ARC
  5
1159
330
18
100
AcDbEntity
  8
1
  6
Continuous
100
AcDbCircle
 10
374.6920688763825
 20
282.5019687092424
 30
0.0
 40
3.0
100
AcDbArc
 50
90.0
 51
180.0
  0
LINE
  5
115A
330
18
100
AcDbEntity
  8
1
  6
Continuous
100
AcDbLine
 10
346.9708228763825
 20
285.5019687092424
 30
0.0
 11
381.6920688763825
 21
285.5019687092424
 31
0.0
  0
LINE
  5
115C
330
18
100
AcDbEntity
  8
1
  6
Continuous
100
AcDbLine
 10
345.7456448720055
 20
290.0019687092424
 30
0.0
 11
333.6384928763825
 21
290.0019687092424
 31
0.0
  0
LINE
  5
115D
330
18
100
AcDbEntity
  8
1
  6
Continuous
100
AcDbLine
 10
344.9420728763825
 20
284.1529517092423
 30
0.0
 11
334.4420658763823
 21
284.1529517092423
 31
0.0
  0
LINE
  5
115E
330
18
100
AcDbEntity
  8
1
  6
Continuous
100
AcDbLine
 10
344.9420728763825
 20
288.2981397092425
 30
0.0
 11
334.4420658763823
 21
288.2981397092425
 31
0.0
  0
LINE
  5
115F
330
18
100
AcDbEntity
  8
4
  6
CENTER
 48
0.2
100
AcDbLine
 10
307.6920688763824
 20
293.5019687092424
 30
0.0
 11
307.6920688763824
 21
282.5019687092424
 31
0.0
  0
ARC
  5
1160
330
18
100
AcDbEntity
  8
1
  6
Continuous
100
AcDbCircle
 10
334.4420658763823
 20
286.3529517092423
 30
0.0
 40
2.2
100
AcDbArc
 50
202.7561809999988
 51
270.0
  0
ARC
  5
1161
330
18
100
AcDbEntity
  8
1
  6
Continuous
100
AcDbCircle
 10
332.2420688763825
 20
288.3019687092424
 30
0.0
 40
2.2
100
AcDbArc
 50
359.9002750000007
 51
90.0
  0
ARC
  5
1162
330
18
100
AcDbEntity
  8
1
  6
Continuous
100
AcDbCircle
 10
344.9420728763825
 20
286.3529517092423
 30
0.0
 40
2.2
100
AcDbArc
 50
270.0
 51
337.2438190000011
  0
ARC
  5
1163
330
18
100
AcDbEntity
  8
1
  6
Continuous
100
AcDbCircle
 10
339.6920688763825
 20
257.5203477092425
 30
0.0
 40
32.481621
100
AcDbArc
 50
80.04818599999778
 51
99.95181449643604
  0
ARC
  5
1165
330
18
100
AcDbEntity
  8
1
  6
Continuous
100
AcDbCircle
 10
347.1420688763824
 20
288.3019687092424
 30
0.0
 40
2.2
100
AcDbArc
 50
90.0
 51
180.0997249999992
  0
LINE
  5
1166
330
18
100
AcDbEntity
  8
4
  6
CENTER
 48
0.2
100
AcDbLine
 10
371.6920688763825
 20
293.5019687092424
 30
0.0
 11
371.6920688763825
 21
282.5019687092424
 31
0.0
  0
LINE
  5
1167
330
18
100
AcDbEntity
  8
1
  6
Continuous
100
AcDbLine
 10
381.6920688763825
 20
290.5019687092424
 30
0.0
 11
381.6920688763825
 21
284.1529517092423
 31
0.0
  0
LINE
  5
16B7
330
18
100
AcDbEntity
  8
4
  6
CENTER
 48
0.5
100
AcDbLine
 10
483.1311783995118
 20
295.0018877092425
 30
0.0
 11
483.1311783995118
 21
170.5018877092425
 31
0.0
  0
ARC
  5
16B8
330
18
100
AcDbEntity
  8
1
  6
Continuous
100
AcDbCircle
 10
483.1311783995118
 20
208.0018877092425
 30
0.0
 40
32.5
100
AcDbArc
 50
128.2823220000018
 51
51.71767799999813
  0
ARC
  5
16B9
330
18
100
AcDbEntity
  8
1
  6
Continuous
100
AcDbCircle
 10
483.1311783995118
 20
208.0018877092425
 30
0.0
 40
21.49999999999999
100
AcDbArc
 50
147.8968079999986
 51
32.10319200000134
  0
LINE
  5
16BA
330
18
100
AcDbEntity
  8
1
  6
Continuous
100
AcDbLine
 10
499.4796343995117
 20
205.7707477092424
 30
0.0
 11
505.1128093995116
 21
247.0472907092424
 31
0.0
  0
LINE
  5
16BB
330
18
100
AcDbEntity
  8
1
  6
Continuous
100
AcDbLine
 10
466.7827223995117
 20
205.7707477092424
 30
0.0
 11
461.1495473995118
 21
247.0472907092424
 31
0.0
  0
CIRCLE
  5
16BC
330
18
100
AcDbEntity
  8
1
  6
Continuous
100
AcDbCircle
 10
483.1311783995118
 20
208.0018877092425
 30
0.0
 40
10.0
  0
ARC
  5
16BD
330
18
100
AcDbEntity
  8
1
  6
Continuous
100
AcDbCircle
 10
483.1311783995118
 20
208.0018877092425
 30
0.0
 40
17.0
100
AcDbArc
 50
173.841530000001
 51
6.158469999998967
  0
CIRCLE
  5
16BE
330
18
100
AcDbEntity
  8
1
  6
Continuous
100
AcDbCircle
 10
483.1311783995118
 20
208.0018877092425
 30
0.0
 40
10.5
  0
ARC
  5
16C0
330
18
100
AcDbEntity
  8
1
  6
Continuous
100
AcDbCircle
 10
483.1311783995118
 20
208.0018877092425
 30
0.0
 40
16.5
100
AcDbArc
 50
187.7713740000013
 51
352.2286259999987
  0
LINE
  5
16C1
330
18
100
AcDbEntity
  8
4
  6
CENTER
 48
0.5
100
AcDbLine
 10
520.6311783995118
 20
208.0018877092425
 30
0.0
 11
445.6311783995118
 21
208.0018877092425
 31
0.0
  0
ARC
  5
16C5
330
18
100
AcDbEntity
  8
1
  6
Continuous
100
AcDbCircle
 10
491.6311783995118
 20
265.4511957092424
 30
0.0
 40
24.550691
100
AcDbArc
 50
96.07739100000198
 51
110.256435999999
  0
LINE
  5
16C6
330
18
100
AcDbEntity
  8
1
  6
Continuous
100
AcDbLine
 10
476.8586453995117
 20
277.4077847092424
 30
0.0
 11
489.4037123995117
 21
277.4077847092424
 31
0.0
  0
LINE
  5
16C7
330
18
100
AcDbEntity
  8
1
  6
Continuous
100
AcDbLine
 10
489.1847543995118
 20
290.0018877092425
 30
0.0
 11
477.0776023995117
 21
290.0018877092425
 31
0.0
  0
LINE
  5
16C8
330
18
100
AcDbEntity
  8
1
  6
Continuous
100
AcDbLine
 10
477.8811753995118
 20
284.1528707092425
 30
0.0
 11
488.3811823995118
 21
284.1528707092425
 31
0.0
  0
LINE
  5
16C9
330
18
100
AcDbEntity
  8
1
  6
Continuous
100
AcDbLine
 10
477.8811753995118
 20
288.2980577092423
 30
0.0
 11
488.3811823995118
 21
288.2980577092423
 31
0.0
  0
LINE
  5
16CA
330
18
100
AcDbEntity
  8
1
  6
Continuous
100
AcDbLine
 10
517.1311783995117
 20
272.5018877092425
 30
0.0
 11
449.1311783995118
 21
272.5018877092425
 31
0.0
  0
ARC
  5
16CC
330
18
100
AcDbEntity
  8
1
  6
Continuous
100
AcDbCircle
 10
508.1311783995118
 20
277.5018877092425
 30
0.0
 40
7.0
100
AcDbArc
 50
314.4153089999988
 51
0.000000000000007
  0
ARC
  5
16CD
330
18
100
AcDbEntity
  8
1
  6
Continuous
100
AcDbCircle
 10
517.1311783995117
 20
270.5018877092425
 30
0.0
 40
2.0
100
AcDbArc
 50
0.000000000000007
 51
90.0
  0
ARC
  5
16CE
330
18
100
AcDbEntity
  8
1
  6
Continuous
100
AcDbCircle
 10
517.1311783995117
 20
253.5018877092425
 30
0.0
 40
2.0
100
AcDbArc
 50
270.0
 51
0.000000000000007
  0
LINE
  5
16CF
330
18
100
AcDbEntity
  8
1
  6
Continuous
100
AcDbLine
 10
519.1311783995116
 20
270.5018877092425
 30
0.0
 11
519.1311783995116
 21
253.5018877092425
 31
0.0
  0
LINE
  5
16D0
330
18
100
AcDbEntity
  8
1
  6
Continuous
100
AcDbLine
 10
505.1311783995116
 20
270.5018877092425
 30
0.0
 11
505.1311783995116
 21
247.3177317092424
 31
0.0
  0
LINE
  5
16D1
330
18
100
AcDbEntity
  8
1
  6
Continuous
100
AcDbLine
 10
517.1311783995117
 20
251.5018877092425
 30
0.0
 11
507.9724783995117
 21
251.5018877092425
 31
0.0
  0
ARC
  5
16D2
330
18
100
AcDbEntity
  8
1
  6
Continuous
100
AcDbCircle
 10
505.6993813995118
 20
250.5890317092424
 30
0.0
 40
0.5
100
AcDbArc
 50
110.5884440000002
 51
176.9919529999989
  0
ARC
  5
16D3
330
18
100
AcDbEntity
  8
1
  6
Continuous
100
AcDbCircle
 10
555.1311783995116
 20
247.9914597092424
 30
0.0
 40
50.0
100
AcDbArc
 50
176.9919529999989
 51
180.0
  0
ARC
  5
16D4
330
18
100
AcDbEntity
  8
1
  6
Continuous
100
AcDbCircle
 10
503.1311783995118
 20
247.3177317092424
 30
0.0
 40
2.0
100
AcDbArc
 50
352.2286259999987
 51
0.000000000000007
  0
ARC
  5
16D5
330
18
100
AcDbEntity
  8
1
  6
Continuous
100
AcDbCircle
 10
507.9724783995117
 20
244.5378487092424
 30
0.0
 40
6.964038999999998
100
AcDbArc
 50
90.0
 51
110.5884440000002
  0
ARC
  5
16D6
330
18
100
AcDbEntity
  8
1
  6
Continuous
100
AcDbCircle
 10
503.1311783995118
 20
270.5018877092425
 30
0.0
 40
2.0
100
AcDbArc
 50
0.000000000000007
 51
90.0
  0
LINE
  5
16D7
330
18
100
AcDbEntity
  8
1
  6
Continuous
100
AcDbLine
 10
525.1311783995117
 20
284.1528707092425
 30
0.0
 11
515.1305403995118
 21
277.4073547092425
 31
0.0
  0
LINE
  5
16D8
330
18
100
AcDbEntity
  8
1
  6
Continuous
100
AcDbLine
 10
525.1311783995117
 20
290.5018877092425
 30
0.0
 11
490.5811783995117
 21
290.5018877092425
 31
0.0
  0
LINE
  5
16D9
330
18
100
AcDbEntity
  8
1
  6
Continuous
100
AcDbLine
 10
490.4099323995118
 20
285.5018877092425
 30
0.0
 11
525.1311783995117
 21
285.5018877092425
 31
0.0
  0
LINE
  5
16DA
330
18
100
AcDbEntity
  8
1
  6
Continuous
100
AcDbLine
 10
525.1311783995117
 20
290.5018877092425
 30
0.0
 11
525.1311783995117
 21
284.1528707092425
 31
0.0
  0
LINE
  5
16DB
330
18
100
AcDbEntity
  8
4
  6
CENTER
 48
0.2
100
AcDbLine
 10
515.1311783995118
 20
293.5018877092425
 30
0.0
 11
515.1311783995118
 21
282.5018877092425
 31
0.0
  0
LINE
  5
16DC
330
18
100
AcDbEntity
  8
1
  6
Continuous
100
AcDbLine
 10
515.1311783995118
 20
277.5018877092425
 30
0.0
 11
515.1311783995118
 21
282.5018877092425
 31
0.0
  0
ARC
  5
16DD
330
18
100
AcDbEntity
  8
1
  6
Continuous
100
AcDbCircle
 10
518.1311783995116
 20
282.5018877092425
 30
0.0
 40
3.0
100
AcDbArc
 50
90.0
 51
180.0
  0
ARC
  5
16DE
330
18
100
AcDbEntity
  8
1
  6
Continuous
100
AcDbCircle
 10
490.5811783995117
 20
288.3018877092423
 30
0.0
 40
2.2
100
AcDbArc
 50
90.0
 51
180.0997249999992
  0
LINE
  5
16DF
330
18
100
AcDbEntity
  8
1
  6
Continuous
100
AcDbLine
 10
490.4099323995118
 20
284.7288127092424
 30
0.0
 11
490.4099323995118
 21
278.5607247092424
 31
0.0
  0
ARC
  5
16E0
330
18
100
AcDbEntity
  8
1
  6
Continuous
100
AcDbCircle
 10
491.4099323995118
 20
278.4077847092425
 30
0.0
 40
1.0
100
AcDbArc
 50
205.8376559999989
 51
241.4142169999981
  0
ARC
  5
16E1
330
18
100
AcDbEntity
  8
1
  6
Continuous
100
AcDbCircle
 10
488.3811823995118
 20
286.3528707092425
 30
0.0
 40
2.2
100
AcDbArc
 50
270.0
 51
337.2438190000011
  0
ARC
  5
16E2
330
18
100
AcDbEntity
  8
1
  6
Continuous
100
AcDbCircle
 10
458.1311783995118
 20
277.5018877092425
 30
0.0
 40
7.0
100
AcDbArc
 50
180.0
 51
225.5846910000012
  0
LINE
  5
16E3
330
18
100
AcDbEntity
  8
1
  6
Continuous
100
AcDbLine
 10
449.1311783995118
 20
251.5018877092425
 30
0.0
 11
458.2898783995117
 21
251.5018877092425
 31
0.0
  0
LINE
  5
16E5
330
18
100
AcDbEntity
  8
1
  6
Continuous
100
AcDbLine
 10
461.1311783995118
 20
270.5018877092425
 30
0.0
 11
461.1311783995118
 21
247.3177317092424
 31
0.0
  0
ARC
  5
16E6
330
18
100
AcDbEntity
  8
1
  6
Continuous
100
AcDbCircle
 10
458.2898783995117
 20
244.5378487092424
 30
0.0
 40
6.964038999999998
100
AcDbArc
 50
69.41155599999977
 51
90.0
  0
ARC
  5
16E7
330
18
100
AcDbEntity
  8
1
  6
Continuous
100
AcDbCircle
 10
460.5629763995117
 20
250.5890317092424
 30
0.0
 40
0.5
100
AcDbArc
 50
3.008047000001079
 51
69.41155599999977
  0
ARC
  5
16E8
330
18
100
AcDbEntity
  8
1
  6
Continuous
100
AcDbCircle
 10
411.1311783995118
 20
247.9914597092424
 30
0.0
 40
50.0
100
AcDbArc
 50
0.000000000000007
 51
3.008047000001079
  0
ARC
  5
16E9
330
18
100
AcDbEntity
  8
1
  6
Continuous
100
AcDbCircle
 10
463.1311783995117
 20
247.3177317092424
 30
0.0
 40
2.0
100
AcDbArc
 50
180.0
 51
187.7713740000013
  0
ARC
  5
16EA
330
18
100
AcDbEntity
  8
1
  6
Continuous
100
AcDbCircle
 10
463.1311783995117
 20
270.5018877092425
 30
0.0
 40
2.0
100
AcDbArc
 50
90.0
 51
180.0
  0
LINE
  5
16EB
330
18
100
AcDbEntity
  8
1
  6
Continuous
100
AcDbLine
 10
447.1311783995117
 20
270.5018877092425
 30
0.0
 11
447.1311783995117
 21
253.5018877092425
 31
0.0
  0
ARC
  5
16EC
330
18
100
AcDbEntity
  8
1
  6
Continuous
100
AcDbCircle
 10
449.1311783995118
 20
253.5018877092425
 30
0.0
 40
2.0
100
AcDbArc
 50
180.0
 51
270.0
  0
ARC
  5
16ED
330
18
100
AcDbEntity
  8
1
  6
Continuous
100
AcDbCircle
 10
449.1311783995118
 20
270.5018877092425
 30
0.0
 40
2.0
100
AcDbArc
 50
90.0
 51
180.0
  0
ARC
  5
16EE
330
18
100
AcDbEntity
  8
1
  6
Continuous
100
AcDbCircle
 10
448.1311783995117
 20
282.5018877092425
 30
0.0
 40
3.0
100
AcDbArc
 50
0.000000000000007
 51
90.0
  0
LINE
  5
16EF
330
18
100
AcDbEntity
  8
1
  6
Continuous
100
AcDbLine
 10
475.6811783995117
 20
290.5018877092425
 30
0.0
 11
441.1311783995118
 21
290.5018877092425
 31
0.0
  0
LINE
  5
16F0
330
18
100
AcDbEntity
  8
1
  6
Continuous
100
AcDbLine
 10
475.8524253995117
 20
285.5018877092425
 30
0.0
 11
441.1311783995118
 21
285.5018877092425
 31
0.0
  0
ARC
  5
16F1
330
18
100
AcDbEntity
  8
1
  6
Continuous
100
AcDbCircle
 10
475.6811783995117
 20
288.3018877092423
 30
0.0
 40
2.2
100
AcDbArc
 50
359.9002750000007
 51
90.0
  0
ARC
  5
16F2
330
18
100
AcDbEntity
  8
1
  6
Continuous
100
AcDbCircle
 10
477.8811753995118
 20
286.3528707092425
 30
0.0
 40
2.2
100
AcDbArc
 50
202.7561809999988
 51
270.0
  0
LINE
  5
16F3
330
18
100
AcDbEntity
  8
1
  6
Continuous
100
AcDbLine
 10
483.1311783995118
 20
288.4834877092424
 30
0.0
 11
483.1311783995118
 21
288.2980577092423
 31
0.0
  0
ARC
  5
16F4
330
18
100
AcDbEntity
  8
1
  6
Continuous
100
AcDbCircle
 10
474.6311783995118
 20
265.4511957092424
 30
0.0
 40
24.550691
100
AcDbArc
 50
69.74356400000093
 51
83.92260899999802
  0
LINE
  5
16F5
330
18
100
AcDbEntity
  8
1
  6
Continuous
100
AcDbLine
 10
475.8524253995117
 20
284.7288127092424
 30
0.0
 11
475.8524253995117
 21
278.5607247092424
 31
0.0
  0
ARC
  5
16F6
330
18
100
AcDbEntity
  8
1
  6
Continuous
100
AcDbCircle
 10
474.8524253995117
 20
278.4077847092425
 30
0.0
 40
1.0
100
AcDbArc
 50
298.5857830000018
 51
334.1623440000011
  0
LINE
  5
16F8
330
18
100
AcDbEntity
  8
4
  6
CENTER
 48
0.2
100
AcDbLine
 10
451.1311783995117
 20
293.5018877092425
 30
0.0
 11
451.1311783995117
 21
282.5018877092425
 31
0.0
  0
LINE
  5
16F9
330
18
100
AcDbEntity
  8
1
  6
Continuous
100
AcDbLine
 10
441.1311783995118
 20
284.1528707092425
 30
0.0
 11
451.1318173995118
 21
277.4073547092425
 31
0.0
  0
LINE
  5
16FA
330
18
100
AcDbEntity
  8
1
  6
Continuous
100
AcDbLine
 10
451.1311783995117
 20
277.5018877092425
 30
0.0
 11
451.1311783995117
 21
282.5018877092425
 31
0.0
  0
LINE
  5
16FB
330
18
100
AcDbEntity
  8
1
  6
Continuous
100
AcDbLine
 10
441.1311783995118
 20
290.5018877092425
 30
0.0
 11
441.1311783995118
 21
284.1528707092425
 31
0.0
  0
CIRCLE
  5
17A5
330
18
100
AcDbEntity
  8
1
  6
Continuous
100
AcDbCircle
 10
483.1311783995118
 20
208.0018877092425
 30
0.0
 40
4.75
  0
LINE
  5
17A8
330
18
100
AcDbEntity
  8
1
  6
Continuous
100
AcDbLine
 10
15.36386997068075
 20
270.5018877092425
 30
0.0
 11
15.36386997068075
 21
193.5018877092424
 31
0.0
  0
LINE
  5
17A9
330
18
100
AcDbEntity
  8
1
  6
Continuous
100
AcDbLine
 10
27.16386997068082
 20
191.1851027092424
 30
0.0
 11
27.16386997068082
 21
224.8186717092425
 31
0.0
  0
LINE
  5
17AA
330
18
100
AcDbEntity
  8
1
  6
Continuous
100
AcDbLine
 10
28.8138699706808
 20
180.8280937092424
 30
0.0
 11
28.8138699706808
 21
235.1756807092424
 31
0.0
  0
LINE
  5
17AB
330
18
100
AcDbEntity
  8
1
  6
Continuous
100
AcDbLine
 10
26.66386997068082
 20
193.5018877092424
 30
0.0
 11
26.66386997068082
 21
246.5018877092425
 31
0.0
  0
LINE
  5
17AC
330
18
100
AcDbEntity
  8
1
  6
Continuous
100
AcDbLine
 10
52.8138699706808
 20
219.5018877092425
 30
0.0
 11
52.8138699706808
 21
196.5018877092425
 31
0.0
  0
LINE
  5
17AD
330
18
100
AcDbEntity
  8
1
  6
Continuous
100
AcDbLine
 10
78.46383897068085
 20
191.1851027092424
 30
0.0
 11
78.46383897068085
 21
224.8186717092425
 31
0.0
  0
LINE
  5
17AE
330
18
100
AcDbEntity
  8
1
  6
Continuous
100
AcDbLine
 10
76.8138699706808
 20
180.8280937092424
 30
0.0
 11
76.8138699706808
 21
235.1756807092424
 31
0.0
  0
LINE
  5
17AF
330
18
100
AcDbEntity
  8
1
  6
Continuous
100
AcDbLine
 10
78.96386997068076
 20
193.5018877092424
 30
0.0
 11
78.96386997068076
 21
246.5018877092425
 31
0.0
  0
LINE
  5
17B0
330
18
100
AcDbEntity
  8
1
  6
Continuous
100
AcDbLine
 10
53.31386997068079
 20
237.4093797092424
 30
0.0
 11
53.31386997068079
 21
178.5943947092424
 31
0.0
  0
LINE
  5
17B1
330
18
100
AcDbEntity
  8
1
  6
Continuous
100
AcDbLine
 10
52.3138699706808
 20
237.4093797092424
 30
0.0
 11
52.3138699706808
 21
178.5943947092424
 31
0.0
  0
LINE
  5
17B2
330
18
100
AcDbEntity
  8
1
  6
Continuous
100
AcDbLine
 10
90.26386997068085
 20
270.5018877092425
 30
0.0
 11
90.26386997068085
 21
193.5018877092424
 31
0.0
  0
LINE
  5
17B3
330
18
100
AcDbEntity
  8
4
  6
CENTER
 48
0.5
100
AcDbLine
 10
52.8138536855415
 20
295.0019687092424
 30
0.0
 11
52.81387735084149
 21
170.5018877092426
 31
0.0
  0
ARC
  5
17B6
330
18
100
AcDbEntity
  8
1
  6
Continuous
100
AcDbCircle
 10
65.0638699706808
 20
250.5018877092425
 30
0.0
 40
75.0
100
AcDbArc
 50
262.669869
 51
275.5335479999994
  0
LINE
  5
17B7
330
18
100
AcDbEntity
  8
4
  6
CENTER
 48
0.5
100
AcDbLine
 10
10.36386997068075
 20
208.0018877092425
 30
0.0
 11
95.26386997068085
 21
208.0018877092425
 31
0.0
  0
ARC
  5
17B9
330
18
100
AcDbEntity
  8
1
  6
Continuous
100
AcDbCircle
 10
71.8138699706808
 20
180.8280937092424
 30
0.0
 40
5.0
100
AcDbArc
 50
275.5335479999994
 51
0.000000000000007
  0
ARC
  5
17BA
330
18
100
AcDbEntity
  8
1
  6
Continuous
100
AcDbCircle
 10
80.96386997068078
 20
193.5018877092424
 30
0.0
 40
2.0
100
AcDbArc
 50
180.0
 51
270.0
  0
ARC
  5
17BB
330
18
100
AcDbEntity
  8
1
  6
Continuous
100
AcDbCircle
 10
88.26386997068084
 20
193.5018877092424
 30
0.0
 40
2.0
100
AcDbArc
 50
270.0
 51
0.000000000000007
  0
LINE
  5
17BC
330
18
100
AcDbEntity
  8
1
  6
Continuous
100
AcDbLine
 10
80.96386997068078
 20
191.5018877092425
 30
0.0
 11
88.26386997068084
 21
191.5018877092425
 31
0.0
  0
LINE
  5
17BD
330
18
100
AcDbEntity
  8
1
  6
Continuous
100
AcDbLine
 10
77.48734797068073
 20
190.2174397092425
 30
0.0
 11
76.84033097068085
 21
187.2863347092425
 31
0.0
  0
ARC
  5
17BE
330
18
100
AcDbEntity
  8
1
  6
Continuous
100
AcDbCircle
 10
75.86383897068083
 20
187.5018877092425
 30
0.0
 40
1.0
100
AcDbArc
 50
341.8051069999999
 51
347.5520340000002
  0
ARC
  5
17BF
330
18
100
AcDbEntity
  8
1
  6
Continuous
100
AcDbCircle
 10
78.26383897068081
 20
191.1851027092424
 30
0.0
 40
0.2
100
AcDbArc
 50
279.5941209999977
 51
359.9999789999998
  0
ARC
  5
17C0
330
18
100
AcDbEntity
  8
1
  6
Continuous
100
AcDbCircle
 10
78.46383997068073
 20
190.0018877092425
 30
0.0
 40
1.0
100
AcDbArc
 50
99.59412099999774
 51
167.5520340000002
  0
LINE
  5
17C1
330
18
100
AcDbEntity
  8
1
  6
Continuous
100
AcDbLine
 10
78.46383897068085
 20
200.5268877092424
 30
0.0
 11
78.96386397068081
 21
200.5268877092424
 31
0.0
  0
ARC
  5
17C2
330
18
100
AcDbEntity
  8
1
  6
Continuous
100
AcDbCircle
 10
33.8138699706808
 20
180.8280937092424
 30
0.0
 40
5.0
100
AcDbArc
 50
180.0
 51
264.4664520000005
  0
ARC
  5
17C3
330
18
100
AcDbEntity
  8
1
  6
Continuous
100
AcDbCircle
 10
49.8138699706808
 20
178.5943947092424
 30
0.0
 40
2.5
100
AcDbArc
 50
277.3301309999999
 51
0.000000000000007
  0
ARC
  5
17C4
330
18
100
AcDbEntity
  8
1
  6
Continuous
100
AcDbCircle
 10
55.81386997068079
 20
178.5943947092424
 30
0.0
 40
2.5
100
AcDbArc
 50
180.0
 51
262.669869
  0
ARC
  5
17C5
330
18
100
AcDbEntity
  8
1
  6
Continuous
100
AcDbCircle
 10
40.56386997068079
 20
250.5018877092425
 30
0.0
 40
75.0
100
AcDbArc
 50
264.4664520000005
 51
277.3301309999999
  0
LINE
  5
17C6
330
18
100
AcDbEntity
  8
1
  6
Continuous
100
AcDbLine
 10
53.31386997068079
 20
196.0018877092425
 30
0.0
 11
52.8138699706808
 21
196.5018877092425
 31
0.0
  0
LINE
  5
17C7
330
18
100
AcDbEntity
  8
1
  6
Continuous
100
AcDbLine
 10
52.3138699706808
 20
196.0018877092425
 30
0.0
 11
52.8138699706808
 21
196.5018877092425
 31
0.0
  0
LINE
  5
17C8
330
18
100
AcDbEntity
  8
1
  6
Continuous
100
AcDbLine
 10
24.66386997068082
 20
191.5018877092425
 30
0.0
 11
17.36386997068075
 21
191.5018877092425
 31
0.0
  0
ARC
  5
17C9
330
18
100
AcDbEntity
  8
1
  6
Continuous
100
AcDbCircle
 10
27.36386997068076
 20
191.1851027092424
 30
0.0
 40
0.2
100
AcDbArc
 50
180.0
 51
260.4058580000002
  0
ARC
  5
17CA
330
18
100
AcDbEntity
  8
1
  6
Continuous
100
AcDbCircle
 10
27.16386897068082
 20
190.0018877092425
 30
0.0
 40
1.0
100
AcDbArc
 50
12.44794500000093
 51
80.40585800000025
  0
ARC
  5
17CB
330
18
100
AcDbEntity
  8
1
  6
Continuous
100
AcDbCircle
 10
24.66386997068082
 20
193.5018877092424
 30
0.0
 40
2.0
100
AcDbArc
 50
270.0
 51
0.000000000000007
  0
ARC
  5
17CC
330
18
100
AcDbEntity
  8
1
  6
Continuous
100
AcDbCircle
 10
29.76386997068084
 20
187.5018877092425
 30
0.0
 40
1.0
100
AcDbArc
 50
192.4479450000009
 51
198.1948720000006
  0
LINE
  5
17CD
330
18
100
AcDbEntity
  8
1
  6
Continuous
100
AcDbLine
 10
28.14036097068083
 20
190.2174397092425
 30
0.0
 11
28.78737797068083
 21
187.2863347092425
 31
0.0
  0
ARC
  5
17CE
330
18
100
AcDbEntity
  8
1
  6
Continuous
100
AcDbCircle
 10
17.36386997068075
 20
193.5018877092424
 30
0.0
 40
2.0
100
AcDbArc
 50
180.0
 51
270.0
  0
LINE
  5
17CF
330
18
100
AcDbEntity
  8
1
  6
Continuous
100
AcDbLine
 10
27.16386997068082
 20
200.5268877092424
 30
0.0
 11
26.66384497068077
 21
200.5268877092424
 31
0.0
  0
LINE
  5
17D3
330
18
100
AcDbEntity
  8
1
  6
Continuous
100
AcDbLine
 10
60.09260797068077
 20
285.5019687092424
 30
0.0
 11
94.81385497068085
 21
285.5019687092424
 31
0.0
  0
LINE
  5
17D4
330
18
100
AcDbEntity
  8
1
  6
Continuous
100
AcDbLine
 10
94.81385497068085
 20
290.5019687092424
 30
0.0
 11
60.26385497068076
 21
290.5019687092424
 31
0.0
  0
ARC
  5
17D5
330
18
100
AcDbEntity
  8
1
  6
Continuous
100
AcDbCircle
 10
65.0638699706808
 20
165.5018877092424
 30
0.0
 40
75.0
100
AcDbArc
 50
84.4664520000005
 51
97.33013099999997
  0
LINE
  5
17D6
330
18
100
AcDbEntity
  8
1
  6
Continuous
100
AcDbLine
 10
73.96386997068076
 20
251.5018877092425
 30
0.0
 11
31.66386997068082
 21
251.5018877092425
 31
0.0
  0
LINE
  5
17D7
330
18
100
AcDbEntity
  8
1
  6
Continuous
100
AcDbLine
 10
17.36386997068075
 20
272.5018877092425
 30
0.0
 11
88.26386997068084
 21
272.5018877092425
 31
0.0
  0
ARC
  5
17D8
330
18
100
AcDbEntity
  8
1
  6
Continuous
100
AcDbCircle
 10
77.81385497068082
 20
277.5019687092424
 30
0.0
 40
7.0
100
AcDbArc
 50
314.4153089999988
 51
0.000000000000007
  0
LINE
  5
17D9
330
18
100
AcDbEntity
  8
1
  6
Continuous
100
AcDbLine
 10
77.48734797068073
 20
225.7863347092424
 30
0.0
 11
76.84033097068085
 21
228.7174397092424
 31
0.0
  0
ARC
  5
17DA
330
18
100
AcDbEntity
  8
1
  6
Continuous
100
AcDbCircle
 10
78.26383897068081
 20
224.8186717092425
 30
0.0
 40
0.2
100
AcDbArc
 50
0.0000210000001664
 51
80.40587900000227
  0
ARC
  5
17DB
330
18
100
AcDbEntity
  8
1
  6
Continuous
100
AcDbCircle
 10
78.46383997068073
 20
226.0018877092424
 30
0.0
 40
1.0
100
AcDbArc
 50
192.4479659999999
 51
260.4058790000022
  0
LINE
  5
17DC
330
18
100
AcDbEntity
  8
1
  6
Continuous
100
AcDbLine
 10
78.46383897068085
 20
215.4768877092424
 30
0.0
 11
78.96386397068081
 21
215.4768877092424
 31
0.0
  0
ARC
  5
17DD
330
18
100
AcDbEntity
  8
1
  6
Continuous
100
AcDbCircle
 10
75.86383897068083
 20
228.5018877092424
 30
0.0
 40
1.0
100
AcDbArc
 50
12.44796599999981
 51
18.19489300000002
  0
ARC
  5
17DE
330
18
100
AcDbEntity
  8
1
  6
Continuous
100
AcDbCircle
 10
71.8138699706808
 20
235.1756807092424
 30
0.0
 40
5.0
100
AcDbArc
 50
0.000000000000007
 51
84.4664520000005
  0
ARC
  5
17DF
330
18
100
AcDbEntity
  8
1
  6
Continuous
100
AcDbCircle
 10
73.96386997068076
 20
246.5018877092425
 30
0.0
 40
5.0
100
AcDbArc
 50
0.000000000000007
 51
90.0
  0
LINE
  5
17E0
330
18
100
AcDbEntity
  8
1
  6
Continuous
100
AcDbLine
 10
80.96386997068078
 20
247.1818877092424
 30
0.0
 11
88.26386997068084
 21
247.1818877092424
 31
0.0
  0
ARC
  5
17E1
330
18
100
AcDbEntity
  8
1
  6
Continuous
100
AcDbCircle
 10
88.26386997068084
 20
270.5018877092425
 30
0.0
 40
2.0
100
AcDbArc
 50
0.000000000000007
 51
90.0
  0
LINE
  5
17E2
330
18
100
AcDbEntity
  8
1
  6
Continuous
100
AcDbLine
 10
78.73683297068078
 20
251.5018877092425
 30
0.0
 11
78.73683297068078
 21
270.5018877092425
 31
0.0
  0
LINE
  5
17E3
330
18
100
AcDbEntity
  8
4
  6
CENTER
 48
0.2
100
AcDbLine
 10
84.81385497068082
 20
293.5019687092424
 30
0.0
 11
84.81385497068082
 21
282.5019687092424
 31
0.0
  0
LINE
  5
17E4
330
18
100
AcDbEntity
  8
1
  6
Continuous
100
AcDbLine
 10
94.81385497068085
 20
284.1529517092423
 30
0.0
 11
84.81321597068086
 21
277.4074357092424
 31
0.0
  0
LINE
  5
17E5
330
18
100
AcDbEntity
  8
1
  6
Continuous
100
AcDbLine
 10
94.81385497068085
 20
290.5019687092424
 30
0.0
 11
94.81385497068085
 21
284.1529517092423
 31
0.0
  0
LINE
  5
17E6
330
18
100
AcDbEntity
  8
1
  6
Continuous
100
AcDbLine
 10
84.81385497068082
 20
277.5019687092424
 30
0.0
 11
84.81385497068082
 21
282.5019687092424
 31
0.0
  0
ARC
  5
17E7
330
18
100
AcDbEntity
  8
1
  6
Continuous
100
AcDbCircle
 10
87.81385497068084
 20
282.5019687092424
 30
0.0
 40
3.0
100
AcDbArc
 50
90.0
 51
180.0
  0
ARC
  5
17E8
330
18
100
AcDbEntity
  8
1
  6
Continuous
100
AcDbCircle
 10
27.81385497068072
 20
277.5019687092424
 30
0.0
 40
7.0
100
AcDbArc
 50
180.0
 51
225.5846910000012
  0
ARC
  5
17E9
330
18
100
AcDbEntity
  8
1
  6
Continuous
100
AcDbCircle
 10
31.66386997068082
 20
246.5018877092425
 30
0.0
 40
5.0
100
AcDbArc
 50
90.0
 51
180.0
  0
ARC
  5
17EA
330
18
100
AcDbEntity
  8
1
  6
Continuous
100
AcDbCircle
 10
33.8138699706808
 20
235.1756807092424
 30
0.0
 40
5.0
100
AcDbArc
 50
95.53354799999953
 51
180.0
  0
ARC
  5
17EB
330
18
100
AcDbEntity
  8
1
  6
Continuous
100
AcDbCircle
 10
40.56386997068079
 20
165.5018877092424
 30
0.0
 40
75.0
100
AcDbArc
 50
82.66986900000004
 51
95.53354799999953
  0
LINE
  5
17EC
330
18
100
AcDbEntity
  8
1
  6
Continuous
100
AcDbLine
 10
53.31386997068079
 20
220.0018877092424
 30
0.0
 11
52.8138699706808
 21
219.5018877092425
 31
0.0
  0
LINE
  5
17ED
330
18
100
AcDbEntity
  8
1
  6
Continuous
100
AcDbLine
 10
52.3138699706808
 20
220.0018877092424
 30
0.0
 11
52.8138699706808
 21
219.5018877092425
 31
0.0
  0
ARC
  5
17EE
330
18
100
AcDbEntity
  8
1
  6
Continuous
100
AcDbCircle
 10
55.81386997068079
 20
237.4093797092424
 30
0.0
 40
2.5
100
AcDbArc
 50
97.33013099999997
 51
180.0
  0
ARC
  5
17EF
330
18
100
AcDbEntity
  8
1
  6
Continuous
100
AcDbCircle
 10
49.8138699706808
 20
237.4093797092424
 30
0.0
 40
2.5
100
AcDbArc
 50
0.000000000000007
 51
82.66986900000004
  0
LINE
  5
17F0
330
18
100
AcDbEntity
  8
1
  6
Continuous
100
AcDbLine
 10
28.14036097068083
 20
225.7863347092424
 30
0.0
 11
28.78737797068083
 21
228.7174397092424
 31
0.0
  0
ARC
  5
17F1
330
18
100
AcDbEntity
  8
1
  6
Continuous
100
AcDbCircle
 10
27.36386997068076
 20
224.8186717092425
 30
0.0
 40
0.2
100
AcDbArc
 50
99.59414199999978
 51
180.0
  0
ARC
  5
17F2
330
18
100
AcDbEntity
  8
1
  6
Continuous
100
AcDbCircle
 10
27.16386897068082
 20
226.0018877092424
 30
0.0
 40
1.0
100
AcDbArc
 50
279.5941419999997
 51
347.552054999999
  0
LINE
  5
17F3
330
18
100
AcDbEntity
  8
1
  6
Continuous
100
AcDbLine
 10
27.16386997068082
 20
215.4768877092424
 30
0.0
 11
26.66384497068077
 21
215.4768877092424
 31
0.0
  0
ARC
  5
17F4
330
18
100
AcDbEntity
  8
1
  6
Continuous
100
AcDbCircle
 10
29.76386997068084
 20
228.5018877092424
 30
0.0
 40
1.0
100
AcDbArc
 50
161.8051279999993
 51
167.5520549999991
  0
LINE
  5
17F5
330
18
100
AcDbEntity
  8
1
  6
Continuous
100
AcDbLine
 10
26.89090697068081
 20
251.5018877092425
 30
0.0
 11
26.89090697068081
 21
270.5018877092425
 31
0.0
  0
LINE
  5
17F6
330
18
100
AcDbEntity
  8
1
  6
Continuous
100
AcDbLine
 10
24.66386997068082
 20
247.1818877092424
 30
0.0
 11
17.36386997068075
 21
247.1818877092424
 31
0.0
  0
ARC
  5
17F7
330
18
100
AcDbEntity
  8
1
  6
Continuous
100
AcDbCircle
 10
17.36386997068075
 20
270.5018877092425
 30
0.0
 40
2.0
100
AcDbArc
 50
90.0
 51
180.0
  0
LINE
  5
17F8
330
18
100
AcDbEntity
  8
1
  6
Continuous
100
AcDbLine
 10
45.53510097068079
 20
285.5019687092424
 30
0.0
 11
10.81385497068072
 21
285.5019687092424
 31
0.0
  0
LINE
  5
17F9
330
18
100
AcDbEntity
  8
1
  6
Continuous
100
AcDbLine
 10
45.36385497068079
 20
290.5019687092424
 30
0.0
 11
10.81385497068072
 21
290.5019687092424
 31
0.0
  0
ARC
  5
17FA
330
18
100
AcDbEntity
  8
1
  6
Continuous
100
AcDbCircle
 10
45.36385497068079
 20
288.3019687092424
 30
0.0
 40
2.2
100
AcDbArc
 50
359.9002750000007
 51
90.0
  0
ARC
  5
17FB
330
18
100
AcDbEntity
  8
1
  6
Continuous
100
AcDbCircle
 10
47.56385097068072
 20
286.3529517092423
 30
0.0
 40
2.2
100
AcDbArc
 50
202.7561809999988
 51
270.0
  0
ARC
  5
17FC
330
18
100
AcDbEntity
  8
1
  6
Continuous
100
AcDbCircle
 10
60.26385497068076
 20
288.3019687092424
 30
0.0
 40
2.2
100
AcDbArc
 50
90.0
 51
180.0997249999992
  0
ARC
  5
17FD
330
18
100
AcDbEntity
  8
1
  6
Continuous
100
AcDbCircle
 10
52.81385497068072
 20
257.5203477092425
 30
0.0
 40
32.481621
100
AcDbArc
 50
80.04818550356397
 51
99.95181400000223
  0
LINE
  5
17FE
330
18
100
AcDbEntity
  8
1
  6
Continuous
100
AcDbLine
 10
47.56385097068072
 20
288.2981397092425
 30
0.0
 11
58.06385797068083
 21
288.2981397092425
 31
0.0
  0
LINE
  5
17FF
330
18
100
AcDbEntity
  8
1
  6
Continuous
100
AcDbLine
 10
47.56385097068072
 20
284.1529517092423
 30
0.0
 11
58.06385797068083
 21
284.1529517092423
 31
0.0
  0
LINE
  5
1800
330
18
100
AcDbEntity
  8
1
  6
Continuous
100
AcDbLine
 10
46.76027897505774
 20
290.0019687092424
 30
0.0
 11
58.86743097068074
 21
290.0019687092424
 31
0.0
  0
LINE
  5
1801
330
18
100
AcDbEntity
  8
1
  6
Continuous
100
AcDbLine
 10
46.54132097068077
 20
277.4078667092425
 30
0.0
 11
59.08638797068078
 21
277.4078667092425
 31
0.0
  0
LINE
  5
1802
330
18
100
AcDbEntity
  8
1
  6
Continuous
100
AcDbLine
 10
60.09260797068077
 20
284.7288947092423
 30
0.0
 11
60.09260797068077
 21
278.5608067092424
 31
0.0
  0
ARC
  5
1803
330
18
100
AcDbEntity
  8
1
  6
Continuous
100
AcDbCircle
 10
61.09260797068078
 20
278.4078667092425
 30
0.0
 40
1.0
100
AcDbArc
 50
205.8376559999989
 51
241.4142169999981
  0
ARC
  5
1804
330
18
100
AcDbEntity
  8
1
  6
Continuous
100
AcDbCircle
 10
58.06385797068083
 20
286.3529517092423
 30
0.0
 40
2.2
100
AcDbArc
 50
270.0
 51
337.2438190000011
  0
ARC
  5
1805
330
18
100
AcDbEntity
  8
1
  6
Continuous
100
AcDbCircle
 10
44.53510097068078
 20
278.4078667092425
 30
0.0
 40
1.0
100
AcDbArc
 50
298.5857830000018
 51
334.1623440000011
  0
LINE
  5
1806
330
18
100
AcDbEntity
  8
1
  6
Continuous
100
AcDbLine
 10
45.53510097068079
 20
284.7288947092423
 30
0.0
 11
45.53510097068079
 21
278.5608067092424
 31
0.0
  0
LINE
  5
1807
330
18
100
AcDbEntity
  8
1
  6
Continuous
100
AcDbLine
 10
10.81385497068072
 20
284.1529517092423
 30
0.0
 11
20.81449297068081
 21
277.4074357092424
 31
0.0
  0
LINE
  5
1808
330
18
100
AcDbEntity
  8
4
  6
CENTER
 48
0.2
100
AcDbLine
 10
20.81385497068072
 20
293.5019687092424
 30
0.0
 11
20.81385497068072
 21
282.5019687092424
 31
0.0
  0
ARC
  5
1809
330
18
100
AcDbEntity
  8
1
  6
Continuous
100
AcDbCircle
 10
17.81385497068072
 20
282.5019687092424
 30
0.0
 40
3.0
100
AcDbArc
 50
0.000000000000007
 51
90.0
  0
LINE
  5
180A
330
18
100
AcDbEntity
  8
1
  6
Continuous
100
AcDbLine
 10
20.81385497068072
 20
277.5019687092424
 30
0.0
 11
20.81385497068072
 21
282.5019687092424
 31
0.0
  0
LINE
  5
180B
330
18
100
AcDbEntity
  8
1
  6
Continuous
100
AcDbLine
 10
10.81385497068072
 20
290.5019687092424
 30
0.0
 11
10.81385497068072
 21
284.1529517092423
 31
0.0
  0
LINE
  5
18C1
330
18
100
AcDbEntity
  8
1
  6
Continuous
100
AcDbLine
 10
228.2529619235316
 20
115.7744335903979
 30
0.0
 11
164.2529619235316
 21
115.7744335903979
 31
0.0
  0
LINE
  5
18C2
330
18
100
AcDbEntity
  8
1
  6
Continuous
100
AcDbLine
 10
228.2529619235316
 20
31.77443359039796
 30
0.0
 11
164.2529619235316
 21
31.77443359039796
 31
0.0
  0
LINE
  5
18C3
330
18
100
AcDbEntity
  8
4
  6
CENTER
 48
0.5
100
AcDbLine
 10
149.2529619235316
 20
73.77443359039794
 30
0.0
 11
243.2529619235316
 21
73.77443359039794
 31
0.0
  0
LINE
  5
18C4
330
18
100
AcDbEntity
  8
1
  6
Continuous
100
AcDbLine
 10
154.2529619235316
 20
41.77443359039796
 30
0.0
 11
154.2529619235316
 21
105.7744335903979
 31
0.0
  0
CIRCLE
  5
18C7
330
18
100
AcDbEntity
  8
1
  6
Continuous
100
AcDbCircle
 10
164.2529619235316
 20
105.7744335903979
 30
0.0
 40
4.25
  0
ARC
  5
18C8
330
18
100
AcDbEntity
  8
1
  6
Continuous
100
AcDbCircle
 10
164.2529619235316
 20
105.7744335903979
 30
0.0
 40
10.0
100
AcDbArc
 50
90.00000000000005
 51
180.0
  0
LINE
  5
18C9
330
18
100
AcDbEntity
  8
4
  6
CENTER
 48
0.2
100
AcDbLine
 10
157.0029619235316
 20
105.7744335903979
 30
0.0
 11
171.5029619235316
 21
105.7744335903979
 31
0.0
  0
LINE
  5
18CA
330
18
100
AcDbEntity
  8
4
  6
CENTER
 48
0.2
100
AcDbLine
 10
164.2529619235316
 20
113.0244335903979
 30
0.0
 11
164.2529619235316
 21
98.52443359039805
 31
0.0
  0
ARC
  5
18D0
330
18
100
AcDbEntity
  8
1
  6
Continuous
100
AcDbCircle
 10
164.2529619235316
 20
41.77443359039796
 30
0.0
 40
10.0
100
AcDbArc
 50
180.0
 51
270.0
  0
CIRCLE
  5
18D1
330
18
100
AcDbEntity
  8
1
  6
Continuous
100
AcDbCircle
 10
164.2529619235316
 20
41.77443359039796
 30
0.0
 40
4.25
  0
LINE
  5
18D2
330
18
100
AcDbEntity
  8
4
  6
CENTER
 48
0.2
100
AcDbLine
 10
157.0029619235316
 20
41.77443359039796
 30
0.0
 11
171.5029619235316
 21
41.77443359039796
 31
0.0
  0
LINE
  5
18D3
330
18
100
AcDbEntity
  8
4
  6
CENTER
 48
0.2
100
AcDbLine
 10
164.2529619235316
 20
49.02443359039796
 30
0.0
 11
164.2529619235316
 21
34.52443359039796
 31
0.0
  0
LINE
  5
18D7
330
18
100
AcDbEntity
  8
1
  6
Continuous
100
AcDbLine
 10
238.2529619235316
 20
41.77443359039796
 30
0.0
 11
238.2529619235316
 21
105.7744335903979
 31
0.0
  0
LINE
  5
18D8
330
18
100
AcDbEntity
  8
4
  6
CENTER
 48
0.5
100
AcDbLine
 10
196.2529619235316
 20
120.7744335903979
 30
0.0
 11
196.2529619235316
 21
26.77443359039796
 31
0.0
  0
LINE
  5
18DC
330
18
100
AcDbEntity
  8
4
  6
CENTER
 48
0.2
100
AcDbLine
 10
221.0029619235316
 20
105.7744335903979
 30
0.0
 11
235.5029619235316
 21
105.7744335903979
 31
0.0
  0
CIRCLE
  5
18DD
330
18
100
AcDbEntity
  8
1
  6
Continuous
100
AcDbCircle
 10
228.2529619235316
 20
105.7744335903979
 30
0.0
 40
4.25
  0
LINE
  5
18E4
330
18
100
AcDbEntity
  8
4
  6
CENTER
 48
0.2
100
AcDbLine
 10
228.2529619235316
 20
113.0244335903979
 30
0.0
 11
228.2529619235316
 21
98.52443359039805
 31
0.0
  0
ARC
  5
18E5
330
18
100
AcDbEntity
  8
1
  6
Continuous
100
AcDbCircle
 10
228.2529619235316
 20
105.7744335903979
 30
0.0
 40
10.0
100
AcDbArc
 50
0.0
 51
90.00000000000005
  0
LINE
  5
18E6
330
18
100
AcDbEntity
  8
4
  6
CENTER
 48
0.2
100
AcDbLine
 10
221.0029619235316
 20
41.77443359039796
 30
0.0
 11
235.5029619235316
 21
41.77443359039796
 31
0.0
  0
CIRCLE
  5
18E7
330
18
100
AcDbEntity
  8
1
  6
Continuous
100
AcDbCircle
 10
228.2529619235316
 20
41.77443359039796
 30
0.0
 40
4.25
  0
LINE
  5
18EB
330
18
100
AcDbEntity
  8
4
  6
CENTER
 48
0.2
100
AcDbLine
 10
228.2529619235316
 20
49.02443359039796
 30
0.0
 11
228.2529619235316
 21
34.52443359039796
 31
0.0
  0
ARC
  5
18EC
330
18
100
AcDbEntity
  8
1
  6
Continuous
100
AcDbCircle
 10
228.2529619235316
 20
41.77443359039796
 30
0.0
 40
10.0
100
AcDbArc
 50
270.0
 51
0.0
  0
LINE
  5
1963
330
18
100
AcDbEntity
  8
1
  6
Continuous
100
AcDbLine
 10
179.4361769235315
 20
48.12443359039797
 30
0.0
 11
213.0697459235316
 21
48.12443359039797
 31
0.0
  0
LINE
  5
1964
330
18
100
AcDbEntity
  8
1
  6
Continuous
100
AcDbLine
 10
169.0791679235315
 20
49.77443359039796
 30
0.0
 11
223.4267549235316
 21
49.77443359039796
 31
0.0
  0
LINE
  5
1966
330
18
100
AcDbEntity
  8
1
  6
Continuous
100
AcDbLine
 10
207.7529619235316
 20
73.77443359039794
 30
0.0
 11
184.7529619235316
 21
73.77443359039794
 31
0.0
  0
LINE
  5
1967
330
18
100
AcDbEntity
  8
1
  6
Continuous
100
AcDbLine
 10
179.4361769235315
 20
99.424402590398
 30
0.0
 11
213.0697459235316
 21
99.424402590398
 31
0.0
  0
LINE
  5
1968
330
18
100
AcDbEntity
  8
1
  6
Continuous
100
AcDbLine
 10
169.0791679235315
 20
97.77443359039795
 30
0.0
 11
223.4267549235316
 21
97.77443359039795
 31
0.0
  0
LINE
  5
1969
330
18
100
AcDbEntity
  8
1
  6
Continuous
100
AcDbLine
 10
176.2529619235316
 20
99.92443359039793
 30
0.0
 11
216.2529619235316
 21
99.92443359039793
 31
0.0
  0
LINE
  5
196A
330
18
100
AcDbEntity
  8
1
  6
Continuous
100
AcDbLine
 10
225.6604539235315
 20
74.27443359039795
 30
0.0
 11
166.8454689235316
 21
74.27443359039795
 31
0.0
  0
LINE
  5
196B
330
18
100
AcDbEntity
  8
1
  6
Continuous
100
AcDbLine
 10
225.6604539235315
 20
73.27443359039794
 30
0.0
 11
166.8454689235316
 21
73.27443359039794
 31
0.0
  0
ARC
  5
196D
330
18
100
AcDbEntity
  8
1
  6
Continuous
100
AcDbCircle
 10
238.7529619235316
 20
86.02443359039794
 30
0.0
 40
75.0
100
AcDbArc
 50
174.4664520000005
 51
187.3301309999999
  0
ARC
  5
1970
330
18
100
AcDbEntity
  8
1
  6
Continuous
100
AcDbCircle
 10
169.0791679235315
 20
92.77443359039798
 30
0.0
 40
5.0
100
AcDbArc
 50
89.99999999999998
 51
174.4664520000005
  0
LINE
  5
1974
330
18
100
AcDbEntity
  8
1
  6
Continuous
100
AcDbLine
 10
178.4685139235316
 20
98.44791159039791
 30
0.0
 11
175.5374089235316
 21
97.800894590398
 31
0.0
  0
ARC
  5
1975
330
18
100
AcDbEntity
  8
1
  6
Continuous
100
AcDbCircle
 10
175.7529619235316
 20
96.824402590398
 30
0.0
 40
1.0
100
AcDbArc
 50
102.4479659999997
 51
108.194893
  0
ARC
  5
1976
330
18
100
AcDbEntity
  8
1
  6
Continuous
100
AcDbCircle
 10
179.4361769235315
 20
99.22440259039801
 30
0.0
 40
0.2
100
AcDbArc
 50
90.00002100000019
 51
170.4058790000022
  0
ARC
  5
1977
330
18
100
AcDbEntity
  8
1
  6
Continuous
100
AcDbCircle
 10
178.2529619235316
 20
99.42440359039792
 30
0.0
 40
1.0
100
AcDbArc
 50
282.4479659999997
 51
350.4058790000022
  0
LINE
  5
1978
330
18
100
AcDbEntity
  8
1
  6
Continuous
100
AcDbLine
 10
188.7779619235316
 20
99.424402590398
 30
0.0
 11
188.7779619235316
 21
99.92442759039796
 31
0.0
  0
ARC
  5
1979
330
18
100
AcDbEntity
  8
1
  6
Continuous
100
AcDbCircle
 10
169.0791679235315
 20
54.77443359039799
 30
0.0
 40
5.0
100
AcDbArc
 50
185.5335479999995
 51
270.0
  0
ARC
  5
197A
330
18
100
AcDbEntity
  8
1
  6
Continuous
100
AcDbCircle
 10
166.8454689235316
 20
70.77443359039799
 30
0.0
 40
2.5
100
AcDbArc
 50
89.99999999999998
 51
172.669869
  0
ARC
  5
197B
330
18
100
AcDbEntity
  8
1
  6
Continuous
100
AcDbCircle
 10
166.8454689235316
 20
76.77443359039799
 30
0.0
 40
2.5
100
AcDbArc
 50
187.3301309999999
 51
270.0
  0
ARC
  5
197C
330
18
100
AcDbEntity
  8
1
  6
Continuous
100
AcDbCircle
 10
238.7529619235316
 20
61.52443359039796
 30
0.0
 40
75.0
100
AcDbArc
 50
172.669869
 51
185.5335479999995
  0
LINE
  5
197D
330
18
100
AcDbEntity
  8
1
  6
Continuous
100
AcDbLine
 10
184.2529619235316
 20
74.27443359039795
 30
0.0
 11
184.7529619235316
 21
73.77443359039794
 31
0.0
  0
LINE
  5
197E
330
18
100
AcDbEntity
  8
1
  6
Continuous
100
AcDbLine
 10
184.2529619235316
 20
73.27443359039794
 30
0.0
 11
184.7529619235316
 21
73.77443359039794
 31
0.0
  0
ARC
  5
1980
330
18
100
AcDbEntity
  8
1
  6
Continuous
100
AcDbCircle
 10
179.4361769235315
 20
48.32443359039793
 30
0.0
 40
0.2
100
AcDbArc
 50
189.5941419999997
 51
270.0
  0
ARC
  5
1981
330
18
100
AcDbEntity
  8
1
  6
Continuous
100
AcDbCircle
 10
178.2529619235316
 20
48.12443259039802
 30
0.0
 40
1.0
100
AcDbArc
 50
9.594141999999752
 51
77.55205499999907
  0
ARC
  5
1983
330
18
100
AcDbEntity
  8
1
  6
Continuous
100
AcDbCircle
 10
175.7529619235316
 20
50.72443359039803
 30
0.0
 40
1.0
100
AcDbArc
 50
251.8051279999993
 51
257.552054999999
  0
LINE
  5
1984
330
18
100
AcDbEntity
  8
1
  6
Continuous
100
AcDbLine
 10
178.4685139235316
 20
49.10092459039799
 30
0.0
 11
175.5374089235316
 21
49.747941590398
 31
0.0
  0
LINE
  5
1986
330
18
100
AcDbEntity
  8
1
  6
Continuous
100
AcDbLine
 10
188.7779619235316
 20
48.12443359039797
 30
0.0
 11
188.7779619235316
 21
47.62440859039792
 31
0.0
  0
ARC
  5
1987
330
18
100
AcDbEntity
  8
1
  6
Continuous
100
AcDbCircle
 10
153.7529619235315
 20
86.02443359039799
 30
0.0
 40
75.0
100
AcDbArc
 50
352.669869
 51
5.533547999999499
  0
LINE
  5
1989
330
18
100
AcDbEntity
  8
1
  6
Continuous
100
AcDbLine
 10
214.0374089235316
 20
98.44791159039791
 30
0.0
 11
216.9685139235316
 21
97.800894590398
 31
0.0
  0
ARC
  5
198A
330
18
100
AcDbEntity
  8
1
  6
Continuous
100
AcDbCircle
 10
213.0697459235316
 20
99.22440259039801
 30
0.0
 40
0.2
100
AcDbArc
 50
9.594120999997734
 51
89.9999789999998
  0
ARC
  5
198B
330
18
100
AcDbEntity
  8
1
  6
Continuous
100
AcDbCircle
 10
214.2529619235316
 20
99.42440359039792
 30
0.0
 40
1.0
100
AcDbArc
 50
189.5941209999977
 51
257.5520340000001
  0
LINE
  5
198C
330
18
100
AcDbEntity
  8
1
  6
Continuous
100
AcDbLine
 10
203.7279619235316
 20
99.424402590398
 30
0.0
 11
203.7279619235316
 21
99.92442759039796
 31
0.0
  0
ARC
  5
198D
330
18
100
AcDbEntity
  8
1
  6
Continuous
100
AcDbCircle
 10
216.7529619235316
 20
96.824402590398
 30
0.0
 40
1.0
100
AcDbArc
 50
71.80510699999995
 51
77.55203400000017
  0
ARC
  5
198E
330
18
100
AcDbEntity
  8
1
  6
Continuous
100
AcDbCircle
 10
223.4267549235315
 20
92.77443359039795
 30
0.0
 40
5.0
100
AcDbArc
 50
5.533547999999499
 51
89.99999999999998
  0
ARC
  5
1992
330
18
100
AcDbEntity
  8
1
  6
Continuous
100
AcDbCircle
 10
223.4267549235315
 20
54.77443359039796
 30
0.0
 40
5.0
100
AcDbArc
 50
270.0
 51
354.4664520000004
  0
ARC
  5
1993
330
18
100
AcDbEntity
  8
1
  6
Continuous
100
AcDbCircle
 10
153.7529619235315
 20
61.524433590398
 30
0.0
 40
75.0
100
AcDbArc
 50
354.4664520000004
 51
7.330130999999933
  0
LINE
  5
1994
330
18
100
AcDbEntity
  8
1
  6
Continuous
100
AcDbLine
 10
208.2529619235316
 20
74.27443359039795
 30
0.0
 11
207.7529619235316
 21
73.77443359039794
 31
0.0
  0
LINE
  5
1995
330
18
100
AcDbEntity
  8
1
  6
Continuous
100
AcDbLine
 10
208.2529619235316
 20
73.27443359039794
 30
0.0
 11
207.7529619235316
 21
73.77443359039794
 31
0.0
  0
ARC
  5
1996
330
18
100
AcDbEntity
  8
1
  6
Continuous
100
AcDbCircle
 10
225.6604539235315
 20
76.77443359039795
 30
0.0
 40
2.5
100
AcDbArc
 50
270.0
 51
352.669869
  0
ARC
  5
1997
330
18
100
AcDbEntity
  8
1
  6
Continuous
100
AcDbCircle
 10
225.6604539235315
 20
70.77443359039794
 30
0.0
 40
2.5
100
AcDbArc
 50
7.330130999999933
 51
89.99999999999998
  0
LINE
  5
1998
330
18
100
AcDbEntity
  8
1
  6
Continuous
100
AcDbLine
 10
214.0374089235316
 20
49.10092459039799
 30
0.0
 11
216.9685139235316
 21
49.747941590398
 31
0.0
  0
ARC
  5
1999
330
18
100
AcDbEntity
  8
1
  6
Continuous
100
AcDbCircle
 10
213.0697459235316
 20
48.32443359039793
 30
0.0
 40
0.2
100
AcDbArc
 50
270.0
 51
350.4058580000001
  0
ARC
  5
199A
330
18
100
AcDbEntity
  8
1
  6
Continuous
100
AcDbCircle
 10
214.2529619235316
 20
48.12443259039799
 30
0.0
 40
1.0
100
AcDbArc
 50
102.4479450000009
 51
170.4058580000002
  0
LINE
  5
199B
330
18
100
AcDbEntity
  8
1
  6
Continuous
100
AcDbLine
 10
203.7279619235316
 20
48.12443359039797
 30
0.0
 11
203.7279619235316
 21
47.62440859039792
 31
0.0
  0
ARC
  5
199C
330
18
100
AcDbEntity
  8
1
  6
Continuous
100
AcDbCircle
 10
216.7529619235316
 20
50.72443359039801
 30
0.0
 40
1.0
100
AcDbArc
 50
282.4479450000008
 51
288.1948720000006
  0
LINE
  5
19C9
330
18
100
AcDbEntity
  8
1
  6
Continuous
100
AcDbLine
 10
216.2529619235316
 20
111.224433590398
 30
0.0
 11
176.2529619235315
 21
111.224433590398
 31
0.0
  0
LINE
  5
19CB
330
18
100
AcDbEntity
  8
1
  6
Continuous
100
AcDbLine
 10
203.5317149235316
 20
115.7744335903979
 30
0.0
 11
203.5317149235317
 21
111.2244335903979
 31
0.0
  0
LINE
  5
19CC
330
18
100
AcDbEntity
  8
1
  6
Continuous
100
AcDbLine
 10
188.9742079235315
 20
115.7744335903979
 30
0.0
 11
188.9742079235315
 21
111.224433590398
 31
0.0
  0
LINE
  5
19CD
330
18
100
AcDbEntity
  8
1
  6
Continuous
100
AcDbLine
 10
238.2529619235316
 20
66.49568059039797
 30
0.0
 11
231.3367077685343
 21
66.49568059039792
 31
0.0
  0
LINE
  5
19CE
330
18
100
AcDbEntity
  8
1
  6
Continuous
100
AcDbLine
 10
238.2529619235316
 20
81.05318759039807
 30
0.0
 11
231.3367075127193
 21
81.05318759039803
 31
0.0
  0
ARC
  5
19D2
330
18
100
AcDbEntity
  8
1
  6
Continuous
100
AcDbCircle
 10
196.2529619235316
 20
73.77443359039794
 30
0.0
 40
32.0
100
AcDbArc
 50
228.5903778907291
 51
234.8042347096241
  0
LINE
  5
19D3
330
18
100
AcDbEntity
  8
1
  6
Continuous
100
AcDbLine
 10
161.1692163343438
 20
81.05318759039775
 30
0.0
 11
154.2529619235316
 21
81.05318759039773
 31
0.0
  0
LINE
  5
19D4
330
18
100
AcDbEntity
  8
1
  6
Continuous
100
AcDbLine
 10
203.5317149235319
 20
36.32443359039791
 30
0.0
 11
203.5317149235319
 21
31.77443359039796
 31
0.0
  0
LINE
  5
19D5
330
18
100
AcDbEntity
  8
1
  6
Continuous
100
AcDbLine
 10
188.9742079235318
 20
36.32443359039791
 30
0.0
 11
188.9742079235318
 21
31.77443359039796
 31
0.0
  0
LINE
  5
19D6
330
18
100
AcDbEntity
  8
1
  6
Continuous
100
AcDbLine
 10
161.1692160785289
 20
66.49568059039771
 30
0.0
 11
154.2529619235316
 21
66.49568059039768
 31
0.0
  0
LINE
  5
19E1
330
18
100
AcDbEntity
  8
1
  6
Continuous
100
AcDbLine
 10
174.2529619235315
 20
109.224433590398
 30
0.0
 11
174.2529619235316
 21
101.9244335903979
 31
0.0
  0
LINE
  5
19E2
330
18
100
AcDbEntity
  8
1
  6
Continuous
100
AcDbLine
 10
218.2529619235316
 20
109.2244335903979
 30
0.0
 11
218.2529619235316
 21
101.9244335903979
 31
0.0
  0
ARC
  5
19E4
330
18
100
AcDbEntity
  8
1
  6
Continuous
100
AcDbCircle
 10
176.2529619235315
 20
109.224433590398
 30
0.0
 40
2.0
100
AcDbArc
 50
90.0
 51
180.0
  0
ARC
  5
19E5
330
18
100
AcDbEntity
  8
1
  6
Continuous
100
AcDbCircle
 10
176.2529619235316
 20
101.9244335903979
 30
0.0
 40
2.0
100
AcDbArc
 50
180.0000000000001
 51
270.0
  0
ARC
  5
19E6
330
18
100
AcDbEntity
  8
1
  6
Continuous
100
AcDbCircle
 10
216.2529619235316
 20
101.9244335903979
 30
0.0
 40
2.0
100
AcDbArc
 50
270.0
 51
0.0
  0
ARC
  5
19E7
330
18
100
AcDbEntity
  8
1
  6
Continuous
100
AcDbCircle
 10
216.2529619235316
 20
109.224433590398
 30
0.0
 40
2.0
100
AcDbArc
 50
359.9999999999987
 51
90.0
  0
LINE
  5
19E8
330
18
100
AcDbEntity
  8
1
  6
Continuous
100
AcDbLine
 10
216.2529619235316
 20
36.32443359039791
 30
0.0
 11
176.2529619235315
 21
36.32443359039791
 31
0.0
  0
LINE
  5
19E9
330
18
100
AcDbEntity
  8
1
  6
Continuous
100
AcDbLine
 10
174.2529619235315
 20
38.32443359039791
 30
0.0
 11
174.2529619235316
 21
45.62443359039797
 31
0.0
  0
ARC
  5
19EA
330
18
100
AcDbEntity
  8
1
  6
Continuous
100
AcDbCircle
 10
176.2529619235315
 20
38.32443359039791
 30
0.0
 40
2.0
100
AcDbArc
 50
180.0
 51
270.0
  0
ARC
  5
19EB
330
18
100
AcDbEntity
  8
1
  6
Continuous
100
AcDbCircle
 10
176.2529619235316
 20
45.62443359039797
 30
0.0
 40
2.0
100
AcDbArc
 50
90.00000000000005
 51
179.9999999999998
  0
LINE
  5
19EC
330
18
100
AcDbEntity
  8
1
  6
Continuous
100
AcDbLine
 10
176.2529619235316
 20
47.62443359039798
 30
0.0
 11
216.2529619235316
 21
47.62443359039798
 31
0.0
  0
ARC
  5
19ED
330
18
100
AcDbEntity
  8
1
  6
Continuous
100
AcDbCircle
 10
216.2529619235316
 20
45.62443359039797
 30
0.0
 40
2.0
100
AcDbArc
 50
0.0
 51
90.00000000000005
  0
LINE
  5
19EE
330
18
100
AcDbEntity
  8
1
  6
Continuous
100
AcDbLine
 10
218.2529619235316
 20
38.32443359039796
 30
0.0
 11
218.2529619235316
 21
45.62443359039797
 31
0.0
  0
ARC
  5
19EF
330
18
100
AcDbEntity
  8
1
  6
Continuous
100
AcDbCircle
 10
216.2529619235316
 20
38.32443359039791
 30
0.0
 40
2.0
100
AcDbArc
 50
270.0
 51
0.0000000000012354
  0
ARC
  5
19F0
330
18
100
AcDbEntity
  8
1
  6
Continuous
100
AcDbCircle
 10
189.6224150485315
 20
73.77443359039794
 30
0.0
 40
29.36945312499996
100
AcDbArc
 50
117.078850768555
 51
125.1969498456822
  0
ARC
  5
19F1
330
18
100
AcDbEntity
  8
1
  6
Continuous
100
AcDbCircle
 10
202.8835087985316
 20
73.77443359039794
 30
0.0
 40
29.36945312499996
100
AcDbArc
 50
297.078850768555
 51
305.1969498456823
  0
ARC
  5
19F2
330
18
100
AcDbEntity
  8
1
  6
Continuous
100
AcDbCircle
 10
202.8835087985316
 20
73.77443359039794
 30
0.0
 40
29.36945312499996
100
AcDbArc
 50
331.6641127714861
 51
28.33588722851384
  0
ARC
  5
19F3
330
18
100
AcDbEntity
  8
1
  6
Continuous
100
AcDbCircle
 10
202.8835087985316
 20
73.77443359039794
 30
0.0
 40
29.36945312499996
100
AcDbArc
 50
54.80305015431772
 51
62.92114923144498
  0
ARC
  5
19F4
330
18
100
AcDbEntity
  8
1
  6
Continuous
100
AcDbCircle
 10
189.6224150485315
 20
73.77443359039794
 30
0.0
 40
29.36945312499996
100
AcDbArc
 50
151.6641127714864
 51
208.3358872285136
  0
ARC
  5
19F5
330
18
100
AcDbEntity
  8
1
  6
Continuous
100
AcDbCircle
 10
189.6224150485315
 20
73.77443359039794
 30
0.0
 40
29.36945312499996
100
AcDbArc
 50
234.8030501543176
 51
242.9211492314449
  0
ARC
  5
19F6
330
18
100
AcDbEntity
  8
1
  6
Continuous
100
AcDbCircle
 10
196.2529619235316
 20
73.77443359039794
 30
0.0
 40
32.0
100
AcDbArc
 50
175.1903673170554
 51
184.8096326829445
  0
ARC
  5
19F7
330
18
100
AcDbEntity
  8
1
  6
Continuous
100
AcDbCircle
 10
196.2529619235316
 20
73.77443359039794
 30
0.0
 40
32.0
100
AcDbArc
 50
48.59037789072917
 51
54.8042347096241
  0
ARC
  5
19F8
330
18
100
AcDbEntity
  8
1
  6
Continuous
100
AcDbCircle
 10
196.2529619235316
 20
73.77443359039794
 30
0.0
 40
32.0
100
AcDbArc
 50
355.190367317055
 51
4.809632682945056
  0
ARC
  5
19F9
330
18
100
AcDbEntity
  8
1
  6
Continuous
100
AcDbCircle
 10
196.2529619235316
 20
73.77443359039794
 30
0.0
 40
32.0
100
AcDbArc
 50
305.1957652903758
 51
311.4096221092708
  0
ARC
  5
19FA
330
18
100
AcDbEntity
  8
1
  6
Continuous
100
AcDbCircle
 10
196.2529619235316
 20
73.77443359039794
 30
0.0
 40
32.0
100
AcDbArc
 50
125.1957652903759
 51
131.4096221092708
  0
ENDSEC
  0
SECTION
  2
OBJECTS
  0
DICTIONARY
  5
C
330
0
100
AcDbDictionary
281
     1
  3
ACAD_CIP_PREVIOUS_PRODUCT_INFO
350
2369
  3
ACAD_COLOR
350
234C
  3
ACAD_DETAILVIEWSTYLE
350
2365
  3
ACAD_GROUP
350
D
  3
ACAD_LAYOUT
350
94
  3
ACAD_MATERIAL
350
231A
  3
ACAD_MLEADERSTYLE
350
2361
  3
ACAD_MLINESTYLE
350
1B
  3
ACAD_PLOTSETTINGS
350
95
  3
ACAD_PLOTSTYLENAME
350
2318
  3
ACAD_SCALELIST
350
234F
  3
ACAD_SECTIONVIEWSTYLE
350
2363
  3
ACAD_TABLESTYLE
350
234D
  3
ACAD_VISUALSTYLE
350
2333
  3
ACDB_RECOMPOSE_DATA
350
2387
  3
AcDbVariableDictionary
350
237A
  3
CONTENTDICTIONARY
350
3D
  3
DWGPROPS
350
2388
  0
DICTIONARY
  5
236A
330
E
100
AcDbDictionary
280
     1
281
     1
  3
ADSK_XREC_LAYER_RECONCILED
360
236B
  0
DICTIONARY
  5
236C
330
4E
100
AcDbDictionary
280
     1
281
     1
  3
ADSK_XREC_LAYER_RECONCILED
360
236D
  0
DICTIONARY
  5
236E
330
4F
100
AcDbDictionary
280
     1
281
     1
  3
ADSK_XREC_LAYER_RECONCILED
360
236F
  0
DICTIONARY
  5
2370
330
50
100
AcDbDictionary
280
     1
281
     1
  3
ADSK_XREC_LAYER_RECONCILED
360
2371
  0
DICTIONARY
  5
2372
330
51
100
AcDbDictionary
280
     1
281
     1
  3
ADSK_XREC_LAYER_RECONCILED
360
2373
  0
DICTIONARY
  5
2374
330
52
100
AcDbDictionary
280
     1
281
     1
  3
ADSK_XREC_LAYER_RECONCILED
360
2375
  0
DICTIONARY
  5
2376
330
53
100
AcDbDictionary
280
     1
281
     1
  3
ADSK_XREC_LAYER_RECONCILED
360
2377
  0
DICTIONARY
  5
2378
330
54
100
AcDbDictionary
280
     1
281
     1
  3
ADSK_XREC_LAYER_RECONCILED
360
2379
  0
DICTIONARY
  5
2313
330
18
100
AcDbDictionary
281
     1
  3
ACAD_LAYOUTSELFREF
350
2314
  0
DICTIONARY
  5
2311
330
15
100
AcDbDictionary
281
     1
  3
ACAD_LAYOUTSELFREF
350
2312
  0
XRECORD
  5
2369
102
{ACAD_REACTORS
330
C
102
}
330
C
100
AcDbXrecord
280
     1
300
ACDLT
300
2014
300
ACDLT_F_S
  0
DICTIONARY
  5
234C
102
{ACAD_REACTORS
330
C
102
}
330
C
100
AcDbDictionary
281
     1
  0
DICTIONARY
  5
2365
102
{ACAD_REACTORS
330
C
102
}
330
C
100
AcDbDictionary
281
     1
  3
Imperial24
350
2366
  0
DICTIONARY
  5
D
102
{ACAD_REACTORS
330
C
102
}
330
C
100
AcDbDictionary
281
     1
  0
DICTIONARY
  5
94
102
{ACAD_REACTORS
330
C
102
}
330
C
100
AcDbDictionary
281
     1
  3
Model
350
2367
  3
レイアウト1
350
2368
  0
DICTIONARY
  5
231A
102
{ACAD_REACTORS
330
C
102
}
330
C
100
AcDbDictionary
281
     1
  3
ByBlock
350
2323
  3
ByLayer
350
231B
  3
Global
350
232B
  0
DICTIONARY
  5
2361
102
{ACAD_REACTORS
330
C
102
}
330
C
100
AcDbDictionary
281
     1
  3
Standard
350
2362
  0
DICTIONARY
  5
1B
102
{ACAD_REACTORS
330
C
102
}
330
C
100
AcDbDictionary
281
     1
  3
STANDARD
350
1C
  0
DICTIONARY
  5
95
102
{ACAD_REACTORS
330
C
102
}
330
C
100
AcDbDictionary
281
     1
  0
ACDBDICTIONARYWDFLT
  5
2318
102
{ACAD_REACTORS
330
C
102
}
330
C
100
AcDbDictionary
281
     1
  3
Normal
350
2319
100
AcDbDictionaryWithDefault
340
2319
  0
DICTIONARY
  5
234F
102
{ACAD_REACTORS
330
C
102
}
330
C
100
AcDbDictionary
281
     1
  3
A0
350
2350
  3
A1
350
2351
  3
A2
350
2352
  3
A3
350
2353
  3
A4
350
2354
  3
A5
350
2355
  3
A6
350
2356
  3
A7
350
2357
  3
A8
350
2358
  3
A9
350
2359
  3
B0
350
235A
  3
B1
350
235B
  3
B2
350
235C
  3
B3
350
235D
  3
B4
350
235E
  3
B5
350
235F
  3
B6
350
2360
  0
DICTIONARY
  5
2363
102
{ACAD_REACTORS
330
C
102
}
330
C
100
AcDbDictionary
281
     1
  3
Imperial24
350
2364
  0
DICTIONARY
  5
234D
102
{ACAD_REACTORS
330
C
102
}
330
C
100
AcDbDictionary
281
     1
  3
Standard
350
234E
  0
DICTIONARY
  5
2333
102
{ACAD_REACTORS
330
C
102
}
330
C
100
AcDbDictionary
281
     1
  3
2dWireframe
350
2339
  3
Basic
350
2338
  3
Brighten
350
233F
  3
ColorChange
350
2343
  3
Conceptual
350
233C
  3
Dim
350
233E
  3
EdgeColorOff
350
234B
  3
Facepattern
350
2342
  3
Flat
350
2334
  3
FlatWithEdges
350
2335
  3
Gouraud
350
2336
  3
GouraudWithEdges
350
2337
  3
Hidden
350
233B
  3
JitterOff
350
2349
  3
Linepattern
350
2341
  3
OverhangOff
350
234A
  3
Realistic
350
233D
  3
Shaded
350
2348
  3
Shaded with edges
350
2347
  3
Shades of Gray
350
2344
  3
Sketchy
350
2345
  3
Thicken
350
2340
  3
Wireframe
350
233A
  3
X-Ray
350
2346
  0
XRECORD
  5
2387
102
{ACAD_REACTORS
330
C
102
}
330
C
100
AcDbXrecord
280
     1
 90
        1
330
234E
  0
DICTIONARY
  5
237A
102
{ACAD_REACTORS
330
C
102
}
330
C
100
AcDbDictionary
281
     1
  3
CANNOSCALE
350
237F
  3
CMLEADERSTYLE
350
237C
  3
CTABLESTYLE
350
237B
  3
CVIEWDETAILSTYLE
350
237D
  3
CVIEWSECTIONSTYLE
350
237E
  3
DIMASSOC
350
2382
  3
INDEXCTL
350
2381
  3
SORTENTS
350
2380
  3
XCLIPFRAME
350
2383
  0
DICTIONARY
  5
3D
102
{ACAD_REACTORS
330
C
102
}
330
C
100
AcDbDictionary
281
     1
  0
XRECORD
  5
2388
102
{ACAD_REACTORS
330
C
102
}
330
C
100
AcDbXrecord
280
     1
  1
DWGPROPS COOKIE
  2

  3

  4

  6

  7

  8
Yoshitsune
  9

300
=
301
=
302
=
303
=
304
=
305
=
306
=
307
=
308
=
309
=
 40
0.0756567939814815
 41
2454526.717009005
 42
2457192.688489815
  1

 90
        0
  0
XRECORD
  5
236B
102
{ACAD_REACTORS
330
236A
102
}
330
236A
100
AcDbXrecord
280
     1
290
     1
  0
XRECORD
  5
236D
102
{ACAD_REACTORS
330
236C
102
}
330
236C
100
AcDbXrecord
280
     1
290
     1
  0
XRECORD
  5
236F
102
{ACAD_REACTORS
330
236E
102
}
330
236E
100
AcDbXrecord
280
     1
290
     1
  0
XRECORD
  5
2371
102
{ACAD_REACTORS
330
2370
102
}
330
2370
100
AcDbXrecord
280
     1
290
     1
  0
XRECORD
  5
2373
102
{ACAD_REACTORS
330
2372
102
}
330
2372
100
AcDbXrecord
280
     1
290
     1
  0
XRECORD
  5
2375
102
{ACAD_REACTORS
330
2374
102
}
330
2374
100
AcDbXrecord
280
     1
290
     1
  0
XRECORD
  5
2377
102
{ACAD_REACTORS
330
2376
102
}
330
2376
100
AcDbXrecord
280
     1
290
     1
  0
XRECORD
  5
2379
102
{ACAD_REACTORS
330
2378
102
}
330
2378
100
AcDbXrecord
280
     1
290
     1
  0
XRECORD
  5
2314
102
{ACAD_REACTORS
330
2313
102
}
330
2313
100
AcDbXrecord
280
     1
340
18
  0
XRECORD
  5
2312
102
{ACAD_REACTORS
330
2311
102
}
330
2311
100
AcDbXrecord
280
     1
340
15
  0
ACDBDETAILVIEWSTYLE
  5
2366
102
{ACAD_XDICTIONARY
360
23C0
102
}
102
{ACAD_REACTORS
330
2365
102
}
330
2365
100
AcDbModelDocViewStyle
 70
     0
  3
Imperial24
290
     0
100
AcDbDetailViewStyle
 70
     0
 71
     0
 90
        3
 71
     1
340
F
 40
0.24
340
0
 40
0.24
300

 40
0.36
280
     3
 71
     2
340
14
 90
       25
 71
     3
340
F
 40
0.24
 90
        1
 40
0.75
 90
        1
300
%<\AcVar ViewType \f "%tc1">% %<\AcVar ViewDetailId>%\PSCALE %<\AcVar ViewScale \f "%sn">%
 71
     4
340
14
 90
       25
340
14
 90
       25
280
     0
  0
LAYOUT
  5
2367
102
{ACAD_XDICTIONARY
360
23C2
102
}
102
{ACAD_REACTORS
330
94
102
}
330
94
100
AcDbPlotSettings
  1

  2
Canon LBP9100C
  4

  6

 40
0.0
 41
0.0
 42
0.0
 43
0.0
 44
0.0
 45
0.0
 46
0.0
 47
0.0
 48
0.0
 49
0.0
140
0.0
141
0.0
142
1.0
143
1.0
 70
  1712
 72
     0
 73
     0
 74
     0
  7

 75
     0
147
1.0
148
0.0
149
0.0
100
AcDbLayout
  1
Model
 70
     1
 71
     0
 10
0.0
 20
0.0
 11
12.0
 21
9.0
 12
0.0
 22
0.0
 32
0.0
 14
0.0
 24
0.0
 34
0.0
 15
0.0
 25
0.0
 35
0.0
146
0.0
 13
0.0
 23
0.0
 33
0.0
 16
1.0
 26
0.0
 36
0.0
 17
0.0
 27
1.0
 37
0.0
 76
     0
330
18
331
2310
  0
LAYOUT
  5
2368
102
{ACAD_XDICTIONARY
360
23C4
102
}
102
{ACAD_REACTORS
330
94
102
}
330
94
100
AcDbPlotSettings
  1

  2
Canon LBP9100C
  4

  6

 40
0.0
 41
0.0
 42
0.0
 43
0.0
 44
0.0
 45
0.0
 46
0.0
 47
0.0
 48
0.0
 49
0.0
140
0.0
141
0.0
142
1.0
143
1.0
 70
   688
 72
     0
 73
     0
 74
     5
  7

 75
    16
147
1.0
148
0.0
149
0.0
100
AcDbLayout
  1
レイアウト1
 70
     1
 71
     1
 10
0.0
 20
0.0
 11
420.0
 21
297.0
 12
0.0
 22
0.0
 32
0.0
 14
1.000000000000000E+20
 24
1.000000000000000E+20
 34
1.000000000000000E+20
 15
-1.000000000000000E+20
 25
-1.000000000000000E+20
 35
-1.000000000000000E+20
146
0.0
 13
0.0
 23
0.0
 33
0.0
 16
1.0
 26
0.0
 36
0.0
 17
0.0
 27
1.0
 37
0.0
 76
     0
330
15
  0
MATERIAL
  5
2323
102
{ACAD_XDICTIONARY
360
2324
102
}
102
{ACAD_REACTORS
330
231A
102
}
330
231A
100
AcDbMaterial
  1
ByBlock
 72
     0
 43
0.0208333333333333
 43
0.0
 43
0.0
 43
0.0
 43
0.0
 43
0.0208333333333333
 43
0.0
 43
0.0
 43
0.0
 43
0.0
 43
1.0
 43
0.0
 43
0.0
 43
0.0
 43
0.0
 43
1.0
 77
     0
 47
0.0208333333333333
 47
0.0
 47
0.0
 47
0.0
 47
0.0
 47
0.0208333333333333
 47
0.0
 47
0.0
 47
0.0
 47
0.0
 47
1.0
 47
0.0
 47
0.0
 47
0.0
 47
0.0
 47
1.0
171
     0
 49
0.0208333333333333
 49
0.0
 49
0.0
 49
0.0
 49
0.0
 49
0.0208333333333333
 49
0.0
 49
0.0
 49
0.0
 49
0.0
 49
1.0
 49
0.0
 49
0.0
 49
0.0
 49
0.0
 49
1.0
175
     0
142
0.0208333333333333
142
0.0
142
0.0
142
0.0
142
0.0
142
0.0208333333333333
142
0.0
142
0.0
142
0.0
142
0.0
142
1.0
142
0.0
142
0.0
142
0.0
142
0.0
142
1.0
179
     0
144
0.0208333333333333
144
0.0
144
0.0
144
0.0
144
0.0
144
0.0208333333333333
144
0.0
144
0.0
144
0.0
144
0.0
144
1.0
144
0.0
144
0.0
144
0.0
144
0.0
144
1.0
147
0.0208333333333333
147
0.0
147
0.0
147
0.0
147
0.0
147
0.0208333333333333
147
0.0
147
0.0
147
0.0
147
0.0
147
1.0
147
0.0
147
0.0
147
0.0
147
0.0
147
1.0
  0
MATERIAL
  5
231B
102
{ACAD_XDICTIONARY
360
231C
102
}
102
{ACAD_REACTORS
330
231A
102
}
330
231A
100
AcDbMaterial
  1
ByLayer
 72
     0
 43
0.0208333333333333
 43
0.0
 43
0.0
 43
0.0
 43
0.0
 43
0.0208333333333333
 43
0.0
 43
0.0
 43
0.0
 43
0.0
 43
1.0
 43
0.0
 43
0.0
 43
0.0
 43
0.0
 43
1.0
 77
     0
 47
0.0208333333333333
 47
0.0
 47
0.0
 47
0.0
 47
0.0
 47
0.0208333333333333
 47
0.0
 47
0.0
 47
0.0
 47
0.0
 47
1.0
 47
0.0
 47
0.0
 47
0.0
 47
0.0
 47
1.0
171
     0
 49
0.0208333333333333
 49
0.0
 49
0.0
 49
0.0
 49
0.0
 49
0.0208333333333333
 49
0.0
 49
0.0
 49
0.0
 49
0.0
 49
1.0
 49
0.0
 49
0.0
 49
0.0
 49
0.0
 49
1.0
175
     0
142
0.0208333333333333
142
0.0
142
0.0
142
0.0
142
0.0
142
0.0208333333333333
142
0.0
142
0.0
142
0.0
142
0.0
142
1.0
142
0.0
142
0.0
142
0.0
142
0.0
142
1.0
179
     0
144
0.0208333333333333
144
0.0
144
0.0
144
0.0
144
0.0
144
0.0208333333333333
144
0.0
144
0.0
144
0.0
144
0.0
144
1.0
144
0.0
144
0.0
144
0.0
144
0.0
144
1.0
147
0.0208333333333333
147
0.0
147
0.0
147
0.0
147
0.0
147
0.0208333333333333
147
0.0
147
0.0
147
0.0
147
0.0
147
1.0
147
0.0
147
0.0
147
0.0
147
0.0
147
1.0
  0
MATERIAL
  5
232B
102
{ACAD_XDICTIONARY
360
232C
102
}
102
{ACAD_REACTORS
330
231A
102
}
330
231A
100
AcDbMaterial
  1
Global
 72
     0
 43
0.0208333333333333
 43
0.0
 43
0.0
 43
0.0
 43
0.0
 43
0.0208333333333333
 43
0.0
 43
0.0
 43
0.0
 43
0.0
 43
1.0
 43
0.0
 43
0.0
 43
0.0
 43
0.0
 43
1.0
 77
     0
 47
0.0208333333333333
 47
0.0
 47
0.0
 47
0.0
 47
0.0
 47
0.0208333333333333
 47
0.0
 47
0.0
 47
0.0
 47
0.0
 47
1.0
 47
0.0
 47
0.0
 47
0.0
 47
0.0
 47
1.0
171
     0
 49
0.0208333333333333
 49
0.0
 49
0.0
 49
0.0
 49
0.0
 49
0.0208333333333333
 49
0.0
 49
0.0
 49
0.0
 49
0.0
 49
1.0
 49
0.0
 49
0.0
 49
0.0
 49
0.0
 49
1.0
175
     0
142
0.0208333333333333
142
0.0
142
0.0
142
0.0
142
0.0
142
0.0208333333333333
142
0.0
142
0.0
142
0.0
142
0.0
142
1.0
142
0.0
142
0.0
142
0.0
142
0.0
142
1.0
179
     0
144
0.0208333333333333
144
0.0
144
0.0
144
0.0
144
0.0
144
0.0208333333333333
144
0.0
144
0.0
144
0.0
144
0.0
144
1.0
144
0.0
144
0.0
144
0.0
144
0.0
144
1.0
147
0.0208333333333333
147
0.0
147
0.0
147
0.0
147
0.0
147
0.0208333333333333
147
0.0
147
0.0
147
0.0
147
0.0
147
1.0
147
0.0
147
0.0
147
0.0
147
0.0
147
1.0
  0
MLEADERSTYLE
  5
2362
102
{ACAD_REACTORS
330
2361
102
}
330
2361
100
AcDbMLeaderStyle
170
     2
171
     1
172
     0
 90
        2
 40
0.0
 41
0.0
173
     1
 91
-1056964608
340
12
 92
       -2
290
     1
 42
0.09
291
     1
 43
0.36
  3
Standard
 44
0.18
300

342
F
174
     1
178
     6
175
     1
176
     0
 93
-1056964608
 45
0.18
292
     0
297
     0
 46
0.18
 94
-1056964608
 47
1.0
 49
1.0
140
1.0
293
     1
141
0.0
294
     1
177
     0
142
1.0
295
     0
296
     0
143
0.125
1001
ACAD_MLEADERVER
1070
     2
  0
MLINESTYLE
  5
1C
102
{ACAD_REACTORS
330
1B
102
}
330
1B
100
AcDbMlineStyle
  2
STANDARD
 70
     0
  3

 62
   256
 51
90.0
 52
90.0
 71
     2
 49
0.5
 62
   256
  6
BYLAYER
 49
-0.5
 62
   256
  6
BYLAYER
  0
ACDBPLACEHOLDER
  5
2319
102
{ACAD_REACTORS
330
2318
102
}
330
2318
  0
SCALE
  5
2350
102
{ACAD_REACTORS
330
234F
102
}
330
234F
100
AcDbScale
 70
     0
300
1:1
140
1.0
141
1.0
290
     1
  0
SCALE
  5
2351
102
{ACAD_REACTORS
330
234F
102
}
330
234F
100
AcDbScale
 70
     0
300
1/128" = 1'-0"
140
0.0078125
141
12.0
290
     0
  0
SCALE
  5
2352
102
{ACAD_REACTORS
330
234F
102
}
330
234F
100
AcDbScale
 70
     0
300
1/64" = 1'-0"
140
0.015625
141
12.0
290
     0
  0
SCALE
  5
2353
102
{ACAD_REACTORS
330
234F
102
}
330
234F
100
AcDbScale
 70
     0
300
1/32" = 1'-0"
140
0.03125
141
12.0
290
     0
  0
SCALE
  5
2354
102
{ACAD_REACTORS
330
234F
102
}
330
234F
100
AcDbScale
 70
     0
300
1/16" = 1'-0"
140
0.0625
141
12.0
290
     0
  0
SCALE
  5
2355
102
{ACAD_REACTORS
330
234F
102
}
330
234F
100
AcDbScale
 70
     0
300
3/32" = 1'-0"
140
0.09375
141
12.0
290
     0
  0
SCALE
  5
2356
102
{ACAD_REACTORS
330
234F
102
}
330
234F
100
AcDbScale
 70
     0
300
1/8" = 1'-0"
140
0.125
141
12.0
290
     0
  0
SCALE
  5
2357
102
{ACAD_REACTORS
330
234F
102
}
330
234F
100
AcDbScale
 70
     0
300
3/16" = 1'-0"
140
0.1875
141
12.0
290
     0
  0
SCALE
  5
2358
102
{ACAD_REACTORS
330
234F
102
}
330
234F
100
AcDbScale
 70
     0
300
1/4" = 1'-0"
140
0.25
141
12.0
290
     0
  0
SCALE
  5
2359
102
{ACAD_REACTORS
330
234F
102
}
330
234F
100
AcDbScale
 70
     0
300
3/8" = 1'-0"
140
0.375
141
12.0
290
     0
  0
SCALE
  5
235A
102
{ACAD_REACTORS
330
234F
102
}
330
234F
100
AcDbScale
 70
     0
300
1/2" = 1'-0"
140
0.5
141
12.0
290
     0
  0
SCALE
  5
235B
102
{ACAD_REACTORS
330
234F
102
}
330
234F
100
AcDbScale
 70
     0
300
3/4" = 1'-0"
140
0.75
141
12.0
290
     0
  0
SCALE
  5
235C
102
{ACAD_REACTORS
330
234F
102
}
330
234F
100
AcDbScale
 70
     0
300
1" = 1'-0"
140
1.0
141
12.0
290
     0
  0
SCALE
  5
235D
102
{ACAD_REACTORS
330
234F
102
}
330
234F
100
AcDbScale
 70
     0
300
1-1/2" = 1'-0"
140
1.5
141
12.0
290
     0
  0
SCALE
  5
235E
102
{ACAD_REACTORS
330
234F
102
}
330
234F
100
AcDbScale
 70
     0
300
3" = 1'-0"
140
3.0
141
12.0
290
     0
  0
SCALE
  5
235F
102
{ACAD_REACTORS
330
234F
102
}
330
234F
100
AcDbScale
 70
     0
300
6" = 1'-0"
140
6.0
141
12.0
290
     0
  0
SCALE
  5
2360
102
{ACAD_REACTORS
330
234F
102
}
330
234F
100
AcDbScale
 70
     0
300
1'-0" = 1'-0"
140
12.0
141
12.0
290
     0
  0
ACDBSECTIONVIEWSTYLE
  5
2364
102
{ACAD_XDICTIONARY
360
23BE
102
}
102
{ACAD_REACTORS
330
2363
102
}
330
2363
100
AcDbModelDocViewStyle
 70
     0
  3
Imperial24
290
     0
100
AcDbSectionViewStyle
 70
     0
 71
     0
 90
       78
 71
     1
340
F
 40
0.24
340
0
340
0
 40
0.24
300
I, O, Q, S, X, Z
 40
0.48
 90
        3
 40
0.18
 90
        1
 71
     2
340
14
 90
       25
340
14
 90
       50
 40
0.24
 40
0.0
 40
0.24
 71
     3
340
F
 40
0.24
 90
        1
 40
0.75
 90
        1
300
%<\AcVar ViewType \f "%tc1">% %<\AcVar ViewSectionStartId>%-%<\AcVar ViewSectionEndId>%\PSCALE %<\AcVar ViewScale \f "%sn">%
 71
     4
300
ANSI31
 40
1.0
 90
        0
290
     0
290
     0
 90
        6
 40
0.0
 40
1.570796326794896
 40
0.2617993877991494
 40
1.308996938995747
 40
-0.2617993877991494
 40
1.832595714594046
  0
TABLESTYLE
  5
234E
102
{ACAD_XDICTIONARY
360
2385
102
}
102
{ACAD_REACTORS
330
234D
102
}
330
234D
100
AcDbTableStyle
  3
Standard
 70
     0
 71
     0
 40
0.06
 41
0.06
280
     0
281
     0
  7
STANDARD
140
0.18
170
     2
 62
     0
 63
     7
283
     0
274
    -2
284
     1
 64
     0
275
    -2
285
     1
 65
     0
276
    -2
286
     1
 66
     0
277
    -2
287
     1
 67
     0
278
    -2
288
     1
 68
     0
279
    -2
289
     1
 69
     0
  7
STANDARD
140
0.25
170
     5
 62
     0
 63
     7
283
     0
274
    -2
284
     1
 64
     0
275
    -2
285
     1
 65
     0
276
    -2
286
     1
 66
     0
277
    -2
287
     1
 67
     0
278
    -2
288
     1
 68
     0
279
    -2
289
     1
 69
     0
  7
STANDARD
140
0.18
170
     5
 62
     0
 63
     7
283
     0
274
    -2
284
     1
 64
     0
275
    -2
285
     1
 65
     0
276
    -2
286
     1
 66
     0
277
    -2
287
     1
 67
     0
278
    -2
288
     1
 68
     0
279
    -2
289
     1
 69
     0
  0
VISUALSTYLE
  5
2339
102
{ACAD_XDICTIONARY
360
2396
102
}
102
{ACAD_REACTORS
330
2333
102
}
330
2333
100
AcDbVisualStyle
  2
2dWireframe
 70
     4
 71
     0
 72
     2
 73
     0
 90
        0
 40
-0.6
 41
-30.0
 62
     5
 63
     7
 74
     1
 91
        4
 64
     7
 65
   257
 75
     1
175
     1
 42
1.0
 92
        0
 66
   257
 43
1.0
 76
     1
 77
     6
 78
     2
 67
     7
 79
     5
170
     0
171
     0
290
     0
174
     0
 93
        1
 44
0.0
173
     0
291
     0
 45
0.0
1001
ACAD
1000
AcDbSavedByObjectVersion
1070
     0
  0
VISUALSTYLE
  5
2338
102
{ACAD_XDICTIONARY
360
2394
102
}
102
{ACAD_REACTORS
330
2333
102
}
330
2333
100
AcDbVisualStyle
  2
Basic
 70
     7
 71
     1
 72
     0
 73
     1
 90
        0
 40
-0.6
 41
-30.0
 62
     5
 63
     7
 74
     0
 91
        4
 64
     7
 65
   257
 75
     1
175
     1
 42
1.0
 92
        8
 66
     7
 43
1.0
 76
     1
 77
     6
 78
     2
 67
     7
 79
     5
170
     0
171
     0
290
     0
174
     0
 93
        1
 44
0.0
173
     0
291
     1
 45
0.0
1001
ACAD
1000
AcDbSavedByObjectVersion
1070
     0
  0
VISUALSTYLE
  5
233F
102
{ACAD_XDICTIONARY
360
23A2
102
}
102
{ACAD_REACTORS
330
2333
102
}
330
2333
100
AcDbVisualStyle
  2
Brighten
 70
    12
 71
     2
 72
     2
 73
     0
 90
        0
 40
-0.6
 41
-30.0
 62
     5
 63
     7
 74
     1
 91
        4
 64
     7
 65
   257
 75
     1
175
     1
 42
1.0
 92
        8
 66
     7
 43
1.0
 76
     1
 77
     6
 78
     2
 67
     7
 79
     5
170
     0
171
     0
290
     0
174
     0
 93
        1
 44
50.0
173
     0
291
     1
 45
0.0
1001
ACAD
1000
AcDbSavedByObjectVersion
1070
     0
  0
VISUALSTYLE
  5
2343
102
{ACAD_XDICTIONARY
360
23AA
102
}
102
{ACAD_REACTORS
330
2333
102
}
330
2333
100
AcDbVisualStyle
  2
ColorChange
 70
    16
 71
     2
 72
     2
 73
     3
 90
        0
 40
-0.6
 41
-30.0
 62
     5
 63
     8
 74
     1
 91
        4
 64
     7
 65
   257
 75
     1
175
     1
 42
1.0
 92
        8
 66
     8
 43
1.0
 76
     1
 77
     6
 78
     2
 67
     7
 79
     5
170
     0
171
     0
290
     0
174
     0
 93
        1
 44
0.0
173
     0
291
     1
 45
0.0
1001
ACAD
1000
AcDbSavedByObjectVersion
1070
     0
  0
VISUALSTYLE
  5
233C
102
{ACAD_XDICTIONARY
360
239C
102
}
102
{ACAD_REACTORS
330
2333
102
}
330
2333
100
AcDbVisualStyle
  2
Conceptual
 70
     9
 71
     3
 72
     2
 73
     0
 90
        0
 40
-0.6
 41
-30.0
 62
     5
 63
     7
 74
     2
 91
        2
 64
     7
 65
   257
 75
     1
175
     1
 42
179.0
 92
        8
 66
     7
 43
1.0
 76
     1
 77
     6
 78
     2
 67
     7
 79
     3
170
     0
171
     0
290
     0
174
     0
 93
        1
 44
0.0
173
     0
291
     0
 45
0.0
1001
ACAD
1000
AcDbSavedByObjectVersion
1070
     0
  0
VISUALSTYLE
  5
233E
102
{ACAD_XDICTIONARY
360
23A0
102
}
102
{ACAD_REACTORS
330
2333
102
}
330
2333
100
AcDbVisualStyle
  2
Dim
 70
    11
 71
     2
 72
     2
 73
     0
 90
        0
 40
-0.6
 41
-30.0
 62
     5
 63
     7
 74
     1
 91
        4
 64
     7
 65
   257
 75
     1
175
     1
 42
1.0
 92
        8
 66
     7
 43
1.0
 76
     1
 77
     6
 78
     2
 67
     7
 79
     5
170
     0
171
     0
290
     0
174
     0
 93
        1
 44
-50.0
173
     0
291
     1
 45
0.0
1001
ACAD
1000
AcDbSavedByObjectVersion
1070
     0
  0
VISUALSTYLE
  5
234B
102
{ACAD_XDICTIONARY
360
23BA
102
}
102
{ACAD_REACTORS
330
2333
102
}
330
2333
100
AcDbVisualStyle
  2
EdgeColorOff
 70
    22
 71
     2
 72
     2
 73
     0
 90
        0
 40
-0.6
 41
-30.0
 62
     5
 63
     7
 74
     1
 91
        4
 64
     7
 65
   257
 75
     1
175
     1
 42
1.0
 92
        8
 66
     7
 43
1.0
 76
     1
 77
     6
 78
     2
 67
     7
 79
     5
170
     0
171
     0
290
     0
174
     0
 93
        1
 44
0.0
173
     0
291
     1
 45
0.0
1001
ACAD
1000
AcDbSavedByObjectVersion
1070
     0
  0
VISUALSTYLE
  5
2342
102
{ACAD_XDICTIONARY
360
23A8
102
}
102
{ACAD_REACTORS
330
2333
102
}
330
2333
100
AcDbVisualStyle
  2
Facepattern
 70
    15
 71
     2
 72
     2
 73
     0
 90
        0
 40
-0.6
 41
-30.0
 62
     5
 63
     7
 74
     1
 91
        4
 64
     7
 65
   257
 75
     1
175
     1
 42
1.0
 92
        8
 66
     7
 43
1.0
 76
     1
 77
     6
 78
     2
 67
     7
 79
     5
170
     0
171
     0
290
     0
174
     0
 93
        1
 44
0.0
173
     0
291
     1
 45
0.0
1001
ACAD
1000
AcDbSavedByObjectVersion
1070
     0
  0
VISUALSTYLE
  5
2334
102
{ACAD_XDICTIONARY
360
238C
102
}
102
{ACAD_REACTORS
330
2333
102
}
330
2333
100
AcDbVisualStyle
  2
Flat
 70
     0
 71
     2
 72
     1
 73
     1
 90
        2
 40
-0.6
 41
30.0
 62
     5
 63
     7
 74
     0
 91
        0
 64
     7
 65
   257
 75
     1
175
     1
 42
1.0
 92
        8
 66
     7
 43
1.0
 76
     1
 77
     6
 78
     2
 67
     7
 79
     5
170
     0
171
     0
290
     0
174
     0
 93
       13
 44
0.0
173
     0
291
     1
 45
0.0
1001
ACAD
1000
AcDbSavedByObjectVersion
1070
     0
  0
VISUALSTYLE
  5
2335
102
{ACAD_XDICTIONARY
360
238E
102
}
102
{ACAD_REACTORS
330
2333
102
}
330
2333
100
AcDbVisualStyle
  2
FlatWithEdges
 70
     1
 71
     2
 72
     1
 73
     1
 90
        2
 40
-0.6
 41
30.0
 62
     5
 63
     7
 74
     1
 91
        0
 64
     7
 65
   257
 75
     1
175
     1
 42
1.0
 92
        0
 66
   257
 43
1.0
 76
     1
 77
     6
 78
     2
 67
     7
 79
     5
170
     0
171
     0
290
     0
174
     0
 93
       13
 44
0.0
173
     0
291
     1
 45
0.0
1001
ACAD
1000
AcDbSavedByObjectVersion
1070
     0
  0
VISUALSTYLE
  5
2336
102
{ACAD_XDICTIONARY
360
2390
102
}
102
{ACAD_REACTORS
330
2333
102
}
330
2333
100
AcDbVisualStyle
  2
Gouraud
 70
     2
 71
     2
 72
     2
 73
     1
 90
        2
 40
-0.6
 41
30.0
 62
     5
 63
     7
 74
     0
 91
        0
 64
     7
 65
   257
 75
     1
175
     1
 42
1.0
 92
        0
 66
     7
 43
1.0
 76
     1
 77
     6
 78
     2
 67
     7
 79
     5
170
     0
171
     0
290
     0
174
     0
 93
       13
 44
0.0
173
     0
291
     1
 45
0.0
1001
ACAD
1000
AcDbSavedByObjectVersion
1070
     0
  0
VISUALSTYLE
  5
2337
102
{ACAD_XDICTIONARY
360
2392
102
}
102
{ACAD_REACTORS
330
2333
102
}
330
2333
100
AcDbVisualStyle
  2
GouraudWithEdges
 70
     3
 71
     2
 72
     2
 73
     1
 90
        2
 40
-0.6
 41
30.0
 62
     5
 63
     7
 74
     1
 91
        0
 64
     7
 65
   257
 75
     1
175
     1
 42
1.0
 92
        0
 66
   257
 43
1.0
 76
     1
 77
     6
 78
     2
 67
     7
 79
     5
170
     0
171
     0
290
     0
174
     0
 93
       13
 44
0.0
173
     0
291
     1
 45
0.0
1001
ACAD
1000
AcDbSavedByObjectVersion
1070
     0
  0
VISUALSTYLE
  5
233B
102
{ACAD_XDICTIONARY
360
239A
102
}
102
{ACAD_REACTORS
330
2333
102
}
330
2333
100
AcDbVisualStyle
  2
Hidden
 70
     6
 71
     1
 72
     2
 73
     2
 90
        0
 40
-0.6
 41
-30.0
 62
     5
 63
     7
 74
     2
 91
        2
 64
     7
 65
   257
 75
     2
175
     1
 42
40.0
 92
        0
 66
   257
 43
1.0
 76
     1
 77
     6
 78
     2
 67
     7
 79
     3
170
     0
171
     0
290
     0
174
     0
 93
        1
 44
0.0
173
     0
291
     0
 45
0.0
1001
ACAD
1000
AcDbSavedByObjectVersion
1070
     0
  0
VISUALSTYLE
  5
2349
102
{ACAD_XDICTIONARY
360
23B6
102
}
102
{ACAD_REACTORS
330
2333
102
}
330
2333
100
AcDbVisualStyle
  2
JitterOff
 70
    20
 71
     2
 72
     2
 73
     0
 90
        0
 40
-0.6
 41
-30.0
 62
     5
 63
     7
 74
     1
 91
        4
 64
     7
 65
   257
 75
     1
175
     1
 42
1.0
 92
       10
 66
     7
 43
1.0
 76
     1
 77
     6
 78
     2
 67
     7
 79
     5
170
     0
171
     0
290
     0
174
     0
 93
        1
 44
0.0
173
     0
291
     1
 45
0.0
1001
ACAD
1000
AcDbSavedByObjectVersion
1070
     0
  0
VISUALSTYLE
  5
2341
102
{ACAD_XDICTIONARY
360
23A6
102
}
102
{ACAD_REACTORS
330
2333
102
}
330
2333
100
AcDbVisualStyle
  2
Linepattern
 70
    14
 71
     2
 72
     2
 73
     0
 90
        0
 40
-0.6
 41
-30.0
 62
     5
 63
     7
 74
     1
 91
        4
 64
     7
 65
   257
 75
     7
175
     7
 42
1.0
 92
        8
 66
     7
 43
1.0
 76
     1
 77
     6
 78
     2
 67
     7
 79
     5
170
     0
171
     0
290
     0
174
     0
 93
        1
 44
0.0
173
     0
291
     1
 45
0.0
1001
ACAD
1000
AcDbSavedByObjectVersion
1070
     0
  0
VISUALSTYLE
  5
234A
102
{ACAD_XDICTIONARY
360
23B8
102
}
102
{ACAD_REACTORS
330
2333
102
}
330
2333
100
AcDbVisualStyle
  2
OverhangOff
 70
    21
 71
     2
 72
     2
 73
     0
 90
        0
 40
-0.6
 41
-30.0
 62
     5
 63
     7
 74
     1
 91
        4
 64
     7
 65
   257
 75
     1
175
     1
 42
1.0
 92
        9
 66
     7
 43
1.0
 76
     1
 77
     6
 78
     2
 67
     7
 79
     5
170
     0
171
     0
290
     0
174
     0
 93
        1
 44
0.0
173
     0
291
     1
 45
0.0
1001
ACAD
1000
AcDbSavedByObjectVersion
1070
     0
  0
VISUALSTYLE
  5
233D
102
{ACAD_XDICTIONARY
360
239E
102
}
102
{ACAD_REACTORS
330
2333
102
}
330
2333
100
AcDbVisualStyle
  2
Realistic
 70
     8
 71
     2
 72
     3
 73
     0
 90
        2
 40
-0.6
 41
30.0
 62
     5
 63
     7
 74
     0
 91
        0
 64
     7
 65
   257
 75
     1
175
     1
 42
1.0
 92
        8
 66
   257
 43
1.0
 76
     1
 77
     6
 78
     2
 67
     7
 79
     3
170
     0
171
     0
290
     0
174
     0
 93
       13
 44
0.0
173
     0
291
     0
 45
0.0
1001
ACAD
1000
AcDbSavedByObjectVersion
1070
     0
  0
VISUALSTYLE
  5
2348
102
{ACAD_XDICTIONARY
360
23B4
102
}
102
{ACAD_REACTORS
330
2333
102
}
330
2333
100
AcDbVisualStyle
  2
Shaded
 70
    27
 71
     2
 72
     2
 73
     1
 90
        2
 40
-0.6
 41
30.0
 62
     5
 63
     7
 74
     0
 91
        4
 64
     7
 65
   257
 75
     1
175
     1
 42
1.0
 92
        8
 66
   257
 43
1.0
 76
     1
 77
     6
 78
     2
 67
     8
 79
     3
170
     0
171
     0
290
     0
174
     0
 93
        5
 44
0.0
173
     0
291
     0
 45
0.0
1001
ACAD
1000
AcDbSavedByObjectVersion
1070
     0
  0
VISUALSTYLE
  5
2347
102
{ACAD_XDICTIONARY
360
23B2
102
}
102
{ACAD_REACTORS
330
2333
102
}
330
2333
100
AcDbVisualStyle
  2
Shaded with edges
 70
    26
 71
     2
 72
     2
 73
     1
 90
        2
 40
-0.6
 41
30.0
 62
     5
 63
     7
 74
     1
 91
       10
 64
     7
 65
   257
 75
     2
175
     1
 42
1.0
 92
        8
 66
   257
 43
1.0
 76
     1
 77
     6
 78
     2
 67
     7
 79
     3
170
     0
171
     0
290
     0
174
     0
 93
        5
 44
0.0
173
     0
291
     0
 45
0.0
1001
ACAD
1000
AcDbSavedByObjectVersion
1070
     0
  0
VISUALSTYLE
  5
2344
102
{ACAD_XDICTIONARY
360
23AC
102
}
102
{ACAD_REACTORS
330
2333
102
}
330
2333
100
AcDbVisualStyle
  2
Shades of Gray
 70
    23
 71
     2
 72
     2
 73
     3
 90
        0
 40
-0.6
 41
-30.0
 62
     5
 63
     7
 74
     2
 91
        2
 64
     7
 65
     7
 75
     1
175
     1
 42
40.0
 92
        8
 66
     7
 43
1.0
 76
     1
 77
     6
 78
     2
 67
     7
 79
     3
170
     0
171
     0
290
     0
174
     0
 93
        1
 44
0.0
173
     0
291
     0
 45
0.0
1001
ACAD
1000
AcDbSavedByObjectVersion
1070
     0
  0
VISUALSTYLE
  5
2345
102
{ACAD_XDICTIONARY
360
23AE
102
}
102
{ACAD_REACTORS
330
2333
102
}
330
2333
100
AcDbVisualStyle
  2
Sketchy
 70
    24
 71
     1
 72
     2
 73
     2
 90
        0
 40
-0.6
 41
-30.0
 62
     5
 63
     7
 74
     2
 91
        2
 64
     7
 65
     7
 75
     1
175
     1
 42
40.0
 92
       11
 66
     7
 43
1.0
 76
     1
 77
     6
 78
     2
 67
     7
 79
     6
170
     0
171
     0
290
     0
174
     0
 93
        1
 44
0.0
173
     0
291
     0
 45
0.0
1001
ACAD
1000
AcDbSavedByObjectVersion
1070
     0
  0
VISUALSTYLE
  5
2340
102
{ACAD_XDICTIONARY
360
23A4
102
}
102
{ACAD_REACTORS
330
2333
102
}
330
2333
100
AcDbVisualStyle
  2
Thicken
 70
    13
 71
     2
 72
     2
 73
     0
 90
        0
 40
-0.6
 41
-30.0
 62
     5
 63
     7
 74
     1
 91
        4
 64
     7
 65
   257
 75
     1
175
     1
 42
1.0
 92
       12
 66
     7
 43
1.0
 76
     1
 77
     6
 78
     2
 67
     7
 79
     5
170
     0
171
     0
290
     0
174
     0
 93
        1
 44
0.0
173
     0
291
     1
 45
0.0
1001
ACAD
1000
AcDbSavedByObjectVersion
1070
     0
  0
VISUALSTYLE
  5
233A
102
{ACAD_XDICTIONARY
360
2398
102
}
102
{ACAD_REACTORS
330
2333
102
}
330
2333
100
AcDbVisualStyle
  2
Wireframe
 70
     5
 71
     0
 72
     2
 73
     0
 90
        0
 40
-0.6
 41
-30.0
 62
     5
 63
     7
 74
     1
 91
        4
 64
     7
 65
   257
 75
     1
175
     1
 42
1.0
 92
        0
 66
   257
 43
1.0
 76
     1
 77
     6
 78
     2
 67
     7
 79
     3
170
     0
171
     0
290
     0
174
     0
 93
        1
 44
0.0
173
     0
291
     0
 45
0.0
1001
ACAD
1000
AcDbSavedByObjectVersion
1070
     0
  0
VISUALSTYLE
  5
2346
102
{ACAD_XDICTIONARY
360
23B0
102
}
102
{ACAD_REACTORS
330
2333
102
}
330
2333
100
AcDbVisualStyle
  2
X-Ray
 70
    25
 71
     2
 72
     2
 73
     1
 90
        1
 40
0.5
 41
-30.0
 62
     5
 63
     7
 74
     1
 91
        0
 64
     7
 65
   257
 75
     1
175
     1
 42
1.0
 92
        8
 66
     7
 43
1.0
 76
     1
 77
     6
 78
     2
 67
     7
 79
     3
170
     0
171
     0
290
     0
174
     0
 93
       13
 44
0.0
173
     0
291
     0
 45
0.0
1001
ACAD
1000
AcDbSavedByObjectVersion
1070
     0
  0
DICTIONARYVAR
  5
237F
102
{ACAD_REACTORS
330
237A
102
}
330
237A
100
DictionaryVariables
280
     0
  1
1:1
  0
DICTIONARYVAR
  5
237C
102
{ACAD_REACTORS
330
237A
102
}
330
237A
100
DictionaryVariables
280
     0
  1
STANDARD
  0
DICTIONARYVAR
  5
237B
102
{ACAD_REACTORS
330
237A
102
}
330
237A
100
DictionaryVariables
280
     0
  1
STANDARD
  0
DICTIONARYVAR
  5
237D
102
{ACAD_REACTORS
330
237A
102
}
330
237A
100
DictionaryVariables
280
     0
  1
Imperial24
  0
DICTIONARYVAR
  5
237E
102
{ACAD_REACTORS
330
237A
102
}
330
237A
100
DictionaryVariables
280
     0
  1
Imperial24
  0
DICTIONARYVAR
  5
2382
102
{ACAD_REACTORS
330
237A
102
}
330
237A
100
DictionaryVariables
280
     0
  1
1
  0
DICTIONARYVAR
  5
2381
102
{ACAD_REACTORS
330
237A
102
}
330
237A
100
DictionaryVariables
280
     0
  1
0
  0
DICTIONARYVAR
  5
2380
102
{ACAD_REACTORS
330
237A
102
}
330
237A
100
DictionaryVariables
280
     0
  1
127
  0
DICTIONARYVAR
  5
2383
102
{ACAD_REACTORS
330
237A
102
}
330
237A
100
DictionaryVariables
280
     0
  1
2
  0
DICTIONARY
  5
23C0
330
2366
100
AcDbDictionary
280
     1
281
     1
  3
ACAD_XREC_ROUNDTRIP
360
23C1
  0
DICTIONARY
  5
23C2
330
2367
100
AcDbDictionary
280
     1
281
     1
  3
ACAD_XREC_ROUNDTRIP
360
23C3
  0
DICTIONARY
  5
23C4
330
2368
100
AcDbDictionary
280
     1
281
     1
  3
ACAD_XREC_ROUNDTRIP
360
23C5
  0
DICTIONARY
  5
2324
330
2323
100
AcDbDictionary
280
     1
281
     1
  3
ACAD_XREC_ROUNDTRIP
360
238A
  3
BUMPTILE
360
2326
  3
DIFFUSETILE
360
2325
  3
OPACITYTILE
360
2329
  3
REFLECTIONTILE
360
2328
  3
REFRACTIONTILE
360
232A
  3
SPECULARTILE
360
2327
  0
DICTIONARY
  5
231C
330
231B
100
AcDbDictionary
280
     1
281
     1
  3
ACAD_XREC_ROUNDTRIP
360
2389
  3
BUMPTILE
360
231E
  3
DIFFUSETILE
360
231D
  3
OPACITYTILE
360
2321
  3
REFLECTIONTILE
360
2320
  3
REFRACTIONTILE
360
2322
  3
SPECULARTILE
360
231F
  0
DICTIONARY
  5
232C
330
232B
100
AcDbDictionary
280
     1
281
     1
  3
ACAD_XREC_ROUNDTRIP
360
238B
  3
BUMPTILE
360
232E
  3
DIFFUSETILE
360
232D
  3
OPACITYTILE
360
2331
  3
REFLECTIONTILE
360
2330
  3
REFRACTIONTILE
360
2332
  3
SPECULARTILE
360
232F
  0
DICTIONARY
  5
23BE
330
2364
100
AcDbDictionary
280
     1
281
     1
  3
ACAD_XREC_ROUNDTRIP
360
23BF
  0
DICTIONARY
  5
2385
330
234E
100
AcDbDictionary
280
     1
281
     1
  3
ACAD_ROUNDTRIP_2008_TABLESTYLE_CELLSTYLEMAP
360
2386
  3
ACAD_XREC_ROUNDTRIP
360
23BC
  0
DICTIONARY
  5
2396
330
2339
100
AcDbDictionary
280
     1
281
     1
  3
ACAD_XREC_ROUNDTRIP
360
2397
  0
DICTIONARY
  5
2394
330
2338
100
AcDbDictionary
280
     1
281
     1
  3
ACAD_XREC_ROUNDTRIP
360
2395
  0
DICTIONARY
  5
23A2
330
233F
100
AcDbDictionary
280
     1
281
     1
  3
ACAD_XREC_ROUNDTRIP
360
23A3
  0
DICTIONARY
  5
23AA
330
2343
100
AcDbDictionary
280
     1
281
     1
  3
ACAD_XREC_ROUNDTRIP
360
23AB
  0
DICTIONARY
  5
239C
330
233C
100
AcDbDictionary
280
     1
281
     1
  3
ACAD_XREC_ROUNDTRIP
360
239D
  0
DICTIONARY
  5
23A0
330
233E
100
AcDbDictionary
280
     1
281
     1
  3
ACAD_XREC_ROUNDTRIP
360
23A1
  0
DICTIONARY
  5
23BA
330
234B
100
AcDbDictionary
280
     1
281
     1
  3
ACAD_XREC_ROUNDTRIP
360
23BB
  0
DICTIONARY
  5
23A8
330
2342
100
AcDbDictionary
280
     1
281
     1
  3
ACAD_XREC_ROUNDTRIP
360
23A9
  0
DICTIONARY
  5
238C
330
2334
100
AcDbDictionary
280
     1
281
     1
  3
ACAD_XREC_ROUNDTRIP
360
238D
  0
DICTIONARY
  5
238E
330
2335
100
AcDbDictionary
280
     1
281
     1
  3
ACAD_XREC_ROUNDTRIP
360
238F
  0
DICTIONARY
  5
2390
330
2336
100
AcDbDictionary
280
     1
281
     1
  3
ACAD_XREC_ROUNDTRIP
360
2391
  0
DICTIONARY
  5
2392
330
2337
100
AcDbDictionary
280
     1
281
     1
  3
ACAD_XREC_ROUNDTRIP
360
2393
  0
DICTIONARY
  5
239A
330
233B
100
AcDbDictionary
280
     1
281
     1
  3
ACAD_XREC_ROUNDTRIP
360
239B
  0
DICTIONARY
  5
23B6
330
2349
100
AcDbDictionary
280
     1
281
     1
  3
ACAD_XREC_ROUNDTRIP
360
23B7
  0
DICTIONARY
  5
23A6
330
2341
100
AcDbDictionary
280
     1
281
     1
  3
ACAD_XREC_ROUNDTRIP
360
23A7
  0
DICTIONARY
  5
23B8
330
234A
100
AcDbDictionary
280
     1
281
     1
  3
ACAD_XREC_ROUNDTRIP
360
23B9
  0
DICTIONARY
  5
239E
330
233D
100
AcDbDictionary
280
     1
281
     1
  3
ACAD_XREC_ROUNDTRIP
360
239F
  0
DICTIONARY
  5
23B4
330
2348
100
AcDbDictionary
280
     1
281
     1
  3
ACAD_XREC_ROUNDTRIP
360
23B5
  0
DICTIONARY
  5
23B2
330
2347
100
AcDbDictionary
280
     1
281
     1
  3
ACAD_XREC_ROUNDTRIP
360
23B3
  0
DICTIONARY
  5
23AC
330
2344
100
AcDbDictionary
280
     1
281
     1
  3
ACAD_XREC_ROUNDTRIP
360
23AD
  0
DICTIONARY
  5
23AE
330
2345
100
AcDbDictionary
280
     1
281
     1
  3
ACAD_XREC_ROUNDTRIP
360
23AF
  0
DICTIONARY
  5
23A4
330
2340
100
AcDbDictionary
280
     1
281
     1
  3
ACAD_XREC_ROUNDTRIP
360
23A5
  0
DICTIONARY
  5
2398
330
233A
100
AcDbDictionary
280
     1
281
     1
  3
ACAD_XREC_ROUNDTRIP
360
2399
  0
DICTIONARY
  5
23B0
330
2346
100
AcDbDictionary
280
     1
281
     1
  3
ACAD_XREC_ROUNDTRIP
360
23B1
  0
XRECORD
  5
23C1
102
{ACAD_REACTORS
330
23C0
102
}
330
23C0
100
AcDbXrecord
280
     1
102
DISPLAYNAME
  1
Imperial24
102
FLAGS
 90
        0
  0
XRECORD
  5
23C3
102
{ACAD_REACTORS
330
23C2
102
}
330
23C2
100
AcDbXrecord
280
     1
102
SHADEPLOT
 70
     0
102
SHADEPLOTRESLEVEL
 70
     2
102
SHADEPLOTCUSTOMDPI
 70
   300
  0
XRECORD
  5
23C5
102
{ACAD_REACTORS
330
23C4
102
}
330
23C4
100
AcDbXrecord
280
     1
102
SHADEPLOT
 70
     0
102
SHADEPLOTRESLEVEL
 70
     2
102
SHADEPLOTCUSTOMDPI
 70
   300
  0
XRECORD
  5
238A
102
{ACAD_REACTORS
330
2324
102
}
330
2324
100
AcDbXrecord
280
     1
102
MATERIAL
148
0.0
149
0.0
149
0.0
 93
        0
 94
      127
282
     0
 72
     0
 77
     0
171
     0
175
     0
179
     0
273
     0
  0
XRECORD
  5
2326
102
{ACAD_REACTORS
330
2324
102
}
330
2324
100
AcDbXrecord
280
     1
270
     1
271
     1
  0
XRECORD
  5
2325
102
{ACAD_REACTORS
330
2324
102
}
330
2324
100
AcDbXrecord
280
     1
270
     1
271
     1
  0
XRECORD
  5
2329
102
{ACAD_REACTORS
330
2324
102
}
330
2324
100
AcDbXrecord
280
     1
270
     1
271
     1
  0
XRECORD
  5
2328
102
{ACAD_REACTORS
330
2324
102
}
330
2324
100
AcDbXrecord
280
     1
270
     1
271
     1
  0
XRECORD
  5
232A
102
{ACAD_REACTORS
330
2324
102
}
330
2324
100
AcDbXrecord
280
     1
270
     1
271
     1
  0
XRECORD
  5
2327
102
{ACAD_REACTORS
330
2324
102
}
330
2324
100
AcDbXrecord
280
     1
270
     1
271
     1
  0
XRECORD
  5
2389
102
{ACAD_REACTORS
330
231C
102
}
330
231C
100
AcDbXrecord
280
     1
102
MATERIAL
148
0.0
149
0.0
149
0.0
 93
        0
 94
      127
282
     0
 72
     0
 77
     0
171
     0
175
     0
179
     0
273
     0
  0
XRECORD
  5
231E
102
{ACAD_REACTORS
330
231C
102
}
330
231C
100
AcDbXrecord
280
     1
270
     1
271
     1
  0
XRECORD
  5
231D
102
{ACAD_REACTORS
330
231C
102
}
330
231C
100
AcDbXrecord
280
     1
270
     1
271
     1
  0
XRECORD
  5
2321
102
{ACAD_REACTORS
330
231C
102
}
330
231C
100
AcDbXrecord
280
     1
270
     1
271
     1
  0
XRECORD
  5
2320
102
{ACAD_REACTORS
330
231C
102
}
330
231C
100
AcDbXrecord
280
     1
270
     1
271
     1
  0
XRECORD
  5
2322
102
{ACAD_REACTORS
330
231C
102
}
330
231C
100
AcDbXrecord
280
     1
270
     1
271
     1
  0
XRECORD
  5
231F
102
{ACAD_REACTORS
330
231C
102
}
330
231C
100
AcDbXrecord
280
     1
270
     1
271
     1
  0
XRECORD
  5
238B
102
{ACAD_REACTORS
330
232C
102
}
330
232C
100
AcDbXrecord
280
     1
102
MATERIAL
148
0.0
149
0.0
149
0.0
 93
        0
 94
      127
282
     0
 72
     0
 77
     0
171
     0
175
     0
179
     0
273
     0
  0
XRECORD
  5
232E
102
{ACAD_REACTORS
330
232C
102
}
330
232C
100
AcDbXrecord
280
     1
270
     1
271
     1
  0
XRECORD
  5
232D
102
{ACAD_REACTORS
330
232C
102
}
330
232C
100
AcDbXrecord
280
     1
270
     1
271
     1
  0
XRECORD
  5
2331
102
{ACAD_REACTORS
330
232C
102
}
330
232C
100
AcDbXrecord
280
     1
270
     1
271
     1
  0
XRECORD
  5
2330
102
{ACAD_REACTORS
330
232C
102
}
330
232C
100
AcDbXrecord
280
     1
270
     1
271
     1
  0
XRECORD
  5
2332
102
{ACAD_REACTORS
330
232C
102
}
330
232C
100
AcDbXrecord
280
     1
270
     1
271
     1
  0
XRECORD
  5
232F
102
{ACAD_REACTORS
330
232C
102
}
330
232C
100
AcDbXrecord
280
     1
270
     1
271
     1
  0
XRECORD
  5
23BF
102
{ACAD_REACTORS
330
23BE
102
}
330
23BE
100
AcDbXrecord
280
     1
102
DISPLAYNAME
  1
Imperial24
102
FLAGS
 90
        0
  0
CELLSTYLEMAP
  5
2386
102
{ACAD_REACTORS
330
2385
102
}
330
2385
100
AcDbCellStyleMap
 90
        3
300
CELLSTYLE
  1
TABLEFORMAT_BEGIN
 90
        5
170
     1
 91
        0
 92
    32768
 62
   257
 93
        1
300
CONTENTFORMAT
  1
CONTENTFORMAT_BEGIN
 90
        0
 91
        0
 92
      512
 93
        0
300

 40
0.0
140
1.0
 94
        5
 62
     0
340
F
144
0.25
309
CONTENTFORMAT_END
171
     0
 94
        0
309
TABLEFORMAT_END
  1
CELLSTYLE_BEGIN
 90
        1
 91
        1
300
_TITLE
309
CELLSTYLE_END
300
CELLSTYLE
  1
TABLEFORMAT_BEGIN
 90
        5
170
     1
 91
        0
 92
        0
 62
   257
 93
        1
300
CONTENTFORMAT
  1
CONTENTFORMAT_BEGIN
 90
        0
 91
        0
 92
      512
 93
        0
300

 40
0.0
140
1.0
 94
        5
 62
     0
340
F
144
0.18
309
CONTENTFORMAT_END
171
     0
 94
        0
309
TABLEFORMAT_END
  1
CELLSTYLE_BEGIN
 90
        2
 91
        1
300
_HEADER
309
CELLSTYLE_END
300
CELLSTYLE
  1
TABLEFORMAT_BEGIN
 90
        5
170
     1
 91
        0
 92
        0
 62
   257
 93
        1
300
CONTENTFORMAT
  1
CONTENTFORMAT_BEGIN
 90
        0
 91
        0
 92
      512
 93
        0
300

 40
0.0
140
1.0
 94
        2
 62
     0
340
F
144
0.18
309
CONTENTFORMAT_END
171
     0
 94
        0
309
TABLEFORMAT_END
  1
CELLSTYLE_BEGIN
 90
        3
 91
        2
300
_DATA
309
CELLSTYLE_END
  0
XRECORD
  5
23BC
102
{ACAD_REACTORS
330
2385
102
}
330
2385
100
AcDbXrecord
280
     1
102
ACAD_ROUNDTRIP_PRE2007_TABLESTYLE
 90
      512
 91
        0
  1

 92
      512
 93
        0
  2

 94
      512
 95
        0
  3

  0
XRECORD
  5
2397
102
{ACAD_REACTORS
330
2396
102
}
330
2396
100
AcDbXrecord
280
     1
102
RTVSPost2010Prop28
280
     1
102
RTVSPost2010PropOp28
 70
     1
102
RTVSPost2010Prop29
280
     1
102
RTVSPost2010PropOp29
 70
     1
102
RTVSPost2010Prop30
280
     0
102
RTVSPost2010PropOp30
 70
     1
102
RTVSPost2010Prop31
280
     0
102
RTVSPost2010PropOp31
 70
     1
102
RTVSPost2010Prop32
280
     0
102
RTVSPost2010PropOp32
 70
     1
102
RTVSPost2010Prop33
280
     0
102
RTVSPost2010PropOp33
 70
     1
102
RTVSPost2010Prop34
280
     0
102
RTVSPost2010PropOp34
 70
     1
102
RTVSPost2010Prop35
280
     0
102
RTVSPost2010PropOp35
 70
     1
102
RTVSPost2010Prop36
280
     0
102
RTVSPost2010PropOp36
 70
     1
102
RTVSPost2010Prop37
 90
       50
102
RTVSPost2010PropOp37
 70
     1
102
RTVSPost2010Prop38
140
0.0
102
RTVSPost2010PropOp38
 70
     1
102
RTVSPost2010Prop39
140
1.0
102
RTVSPost2010PropOp39
 70
     1
102
RTVSPost2010Prop40
 90
        0
102
RTVSPost2010PropOp40
 70
     1
102
RTVSPost2010Prop41ColorIndex
 90
       18
102
RTVSPost2010Prop41ColorRGB
 90
        0
102
RTVSPost2010PropOp41
 70
     1
102
RTVSPost2010Prop42
 90
       50
102
RTVSPost2010PropOp42
 70
     1
102
RTVSPost2010Prop43
 90
        3
102
RTVSPost2010PropOp43
 70
     1
102
RTVSPost2010Prop44ColorIndex
 90
        5
102
RTVSPost2010Prop44ColorRGB
 90
      255
102
RTVSPost2010PropOp44
 70
     1
102
RTVSPost2010Prop45
280
     0
102
RTVSPost2010PropOp45
 70
     1
102
RTVSPost2010Prop46
 90
       50
102
RTVSPost2010PropOp46
 70
     1
102
RTVSPost2010Prop47
 90
       50
102
RTVSPost2010PropOp47
 70
     1
102
RTVSPost2010Prop48
 90
       50
102
RTVSPost2010PropOp48
 70
     1
102
RTVSPost2010Prop49
280
     0
102
RTVSPost2010PropOp49
 70
     1
102
RTVSPost2010Prop50
 90
       50
102
RTVSPost2010PropOp50
 70
     1
102
RTVSPost2010Prop51ColorIndex
 90
      256
102
RTVSPost2010Prop51ColorRGB
 90
-16777216
102
RTVSPost2010PropOp51
 70
     0
102
RTVSPost2010Prop52
140
1.0
102
RTVSPost2010PropOp52
 70
     0
102
RTVSPost2010Prop53
 90
        2
102
RTVSPost2010PropOp53
 70
     1
102
RTVSPost2010Prop54
  1
strokes_ogs.tif
102
RTVSPost2010PropOp54
 70
     1
102
RTVSPost2010Prop55
280
     0
102
RTVSPost2010PropOp55
 70
     1
102
RTVSPost2010Prop56
140
1.0
102
RTVSPost2010PropOp56
 70
     1
102
RTVSPost2010Prop57
140
1.0
102
RTVSPost2010PropOp57
 70
     1
102
RTVSPropertyOp0
 70
     1
102
RTVSPropertyOp1
 70
     1
102
RTVSPropertyOp2
 70
     1
102
RTVSPropertyOp3
 70
     1
102
RTVSPropertyOp4
 70
     1
102
RTVSPropertyOp5
 70
     1
102
RTVSPropertyOp6
 70
     1
102
RTVSPropertyOp7
 70
     1
102
RTVSPropertyOp8
 70
     1
102
RTVSPropertyOp9
 70
     1
102
RTVSPropertyOp10
 70
     1
102
RTVSPropertyOp11
 70
     1
102
RTVSPropertyOp12
 70
     1
102
RTVSPropertyOp13
 70
     1
102
RTVSPropertyOp14
 70
     1
102
RTVSPropertyOp15
 70
     1
102
RTVSPropertyOp16
 70
     1
102
RTVSPropertyOp17
 70
     1
102
RTVSPropertyOp18
 70
     1
102
RTVSPropertyOp19
 70
     1
102
RTVSPropertyOp20
 70
     1
102
RTVSPropertyOp21
 70
     1
102
RTVSPropertyOp22
 70
     1
102
RTVSPropertyOp23
 70
     1
102
RTVSPropertyOp24
 70
     1
102
RTVSPropertyOp25
 70
     1
102
RTVSPropertyOp26
 70
     1
102
RTVSPropertyOp27
 70
     1
102
RTVSPropertyOp28
 70
     1
102
RTVSPropertyOp29
 70
     1
102
RTVSPropertyOp30
 70
     1
102
RTVSPropertyOp31
 70
     1
102
RTVSPropertyOp32
 70
     1
102
RTVSPropertyOp33
 70
     1
102
RTVSPropertyOp34
 70
     1
102
RTVSPropertyOp35
 70
     1
102
RTVSPropertyOp36
 70
     1
102
RTVSPropertyOp37
 70
     1
102
RTVSPropertyOp38
 70
     1
102
RTVSPropertyOp39
 70
     1
102
RTVSPropertyOp40
 70
     1
102
RTVSPropertyOp41
 70
     1
102
RTVSPropertyOp42
 70
     1
102
RTVSPropertyOp43
 70
     1
102
RTVSPropertyOp44
 70
     1
102
RTVSPropertyOp45
 70
     1
102
RTVSPropertyOp46
 70
     1
102
RTVSPropertyOp47
 70
     1
102
RTVSPropertyOp48
 70
     1
102
RTVSPropertyOp49
 70
     1
102
RTVSPropertyOp50
 70
     1
102
RTVSPropertyOp51
 70
     0
102
RTVSPropertyOp52
 70
     0
102
RTVSPropertyOp53
 70
     1
102
RTVSPropertyOp54
 70
     1
102
RTVSPropertyOp55
 70
     1
102
RTVSPropertyOp56
 70
     1
102
RTVSPropertyOp57
 70
     1
102
RTVSPropertyOp58
 70
     1
102
RTVSPropertyOp59
 70
     1
102
RTVSPropertyOp60
 70
     1
102
RTVSPropertyOp61
 70
     1
102
RTVSPropertyOp62
 70
     1
  0
XRECORD
  5
2395
102
{ACAD_REACTORS
330
2394
102
}
330
2394
100
AcDbXrecord
280
     1
102
RTVSPost2010Prop28
280
     0
102
RTVSPost2010PropOp28
 70
     1
102
RTVSPost2010Prop29
280
     1
102
RTVSPost2010PropOp29
 70
     1
102
RTVSPost2010Prop30
280
     1
102
RTVSPost2010PropOp30
 70
     1
102
RTVSPost2010Prop31
280
     0
102
RTVSPost2010PropOp31
 70
     1
102
RTVSPost2010Prop32
280
     0
102
RTVSPost2010PropOp32
 70
     1
102
RTVSPost2010Prop33
280
     0
102
RTVSPost2010PropOp33
 70
     1
102
RTVSPost2010Prop34
280
     0
102
RTVSPost2010PropOp34
 70
     1
102
RTVSPost2010Prop35
280
     0
102
RTVSPost2010PropOp35
 70
     1
102
RTVSPost2010Prop36
280
     0
102
RTVSPost2010PropOp36
 70
     1
102
RTVSPost2010Prop37
 90
       50
102
RTVSPost2010PropOp37
 70
     1
102
RTVSPost2010Prop38
140
0.0
102
RTVSPost2010PropOp38
 70
     1
102
RTVSPost2010Prop39
140
1.0
102
RTVSPost2010PropOp39
 70
     1
102
RTVSPost2010Prop40
 90
        0
102
RTVSPost2010PropOp40
 70
     1
102
RTVSPost2010Prop41ColorIndex
 90
       18
102
RTVSPost2010Prop41ColorRGB
 90
        0
102
RTVSPost2010PropOp41
 70
     1
102
RTVSPost2010Prop42
 90
       50
102
RTVSPost2010PropOp42
 70
     1
102
RTVSPost2010Prop43
 90
        3
102
RTVSPost2010PropOp43
 70
     1
102
RTVSPost2010Prop44ColorIndex
 90
        5
102
RTVSPost2010Prop44ColorRGB
 90
      255
102
RTVSPost2010PropOp44
 70
     1
102
RTVSPost2010Prop45
280
     0
102
RTVSPost2010PropOp45
 70
     1
102
RTVSPost2010Prop46
 90
       50
102
RTVSPost2010PropOp46
 70
     1
102
RTVSPost2010Prop47
 90
       50
102
RTVSPost2010PropOp47
 70
     1
102
RTVSPost2010Prop48
 90
       50
102
RTVSPost2010PropOp48
 70
     1
102
RTVSPost2010Prop49
280
     0
102
RTVSPost2010PropOp49
 70
     1
102
RTVSPost2010Prop50
 90
       50
102
RTVSPost2010PropOp50
 70
     1
102
RTVSPost2010Prop51ColorIndex
 90
      256
102
RTVSPost2010Prop51ColorRGB
 90
-16777216
102
RTVSPost2010PropOp51
 70
     0
102
RTVSPost2010Prop52
140
1.0
102
RTVSPost2010PropOp52
 70
     0
102
RTVSPost2010Prop53
 90
        2
102
RTVSPost2010PropOp53
 70
     1
102
RTVSPost2010Prop54
  1
strokes_ogs.tif
102
RTVSPost2010PropOp54
 70
     1
102
RTVSPost2010Prop55
280
     0
102
RTVSPost2010PropOp55
 70
     1
102
RTVSPost2010Prop56
140
1.0
102
RTVSPost2010PropOp56
 70
     1
102
RTVSPost2010Prop57
140
1.0
102
RTVSPost2010PropOp57
 70
     1
102
RTVSPropertyOp0
 70
     1
102
RTVSPropertyOp1
 70
     1
102
RTVSPropertyOp2
 70
     1
102
RTVSPropertyOp3
 70
     1
102
RTVSPropertyOp4
 70
     1
102
RTVSPropertyOp5
 70
     1
102
RTVSPropertyOp6
 70
     1
102
RTVSPropertyOp7
 70
     1
102
RTVSPropertyOp8
 70
     1
102
RTVSPropertyOp9
 70
     1
102
RTVSPropertyOp10
 70
     1
102
RTVSPropertyOp11
 70
     1
102
RTVSPropertyOp12
 70
     1
102
RTVSPropertyOp13
 70
     1
102
RTVSPropertyOp14
 70
     1
102
RTVSPropertyOp15
 70
     1
102
RTVSPropertyOp16
 70
     1
102
RTVSPropertyOp17
 70
     1
102
RTVSPropertyOp18
 70
     1
102
RTVSPropertyOp19
 70
     1
102
RTVSPropertyOp20
 70
     1
102
RTVSPropertyOp21
 70
     1
102
RTVSPropertyOp22
 70
     1
102
RTVSPropertyOp23
 70
     1
102
RTVSPropertyOp24
 70
     1
102
RTVSPropertyOp25
 70
     1
102
RTVSPropertyOp26
 70
     1
102
RTVSPropertyOp27
 70
     1
102
RTVSPropertyOp28
 70
     1
102
RTVSPropertyOp29
 70
     1
102
RTVSPropertyOp30
 70
     1
102
RTVSPropertyOp31
 70
     1
102
RTVSPropertyOp32
 70
     1
102
RTVSPropertyOp33
 70
     1
102
RTVSPropertyOp34
 70
     1
102
RTVSPropertyOp35
 70
     1
102
RTVSPropertyOp36
 70
     1
102
RTVSPropertyOp37
 70
     1
102
RTVSPropertyOp38
 70
     1
102
RTVSPropertyOp39
 70
     1
102
RTVSPropertyOp40
 70
     1
102
RTVSPropertyOp41
 70
     1
102
RTVSPropertyOp42
 70
     1
102
RTVSPropertyOp43
 70
     1
102
RTVSPropertyOp44
 70
     1
102
RTVSPropertyOp45
 70
     1
102
RTVSPropertyOp46
 70
     1
102
RTVSPropertyOp47
 70
     1
102
RTVSPropertyOp48
 70
     1
102
RTVSPropertyOp49
 70
     1
102
RTVSPropertyOp50
 70
     1
102
RTVSPropertyOp51
 70
     0
102
RTVSPropertyOp52
 70
     0
102
RTVSPropertyOp53
 70
     1
102
RTVSPropertyOp54
 70
     1
102
RTVSPropertyOp55
 70
     1
102
RTVSPropertyOp56
 70
     1
102
RTVSPropertyOp57
 70
     1
102
RTVSPropertyOp58
 70
     1
102
RTVSPropertyOp59
 70
     1
102
RTVSPropertyOp60
 70
     1
102
RTVSPropertyOp61
 70
     1
102
RTVSPropertyOp62
 70
     1
  0
XRECORD
  5
23A3
102
{ACAD_REACTORS
330
23A2
102
}
330
23A2
100
AcDbXrecord
280
     1
102
RTVSPost2010Prop28
280
     0
102
RTVSPost2010PropOp28
 70
     1
102
RTVSPost2010Prop29
280
     1
102
RTVSPost2010PropOp29
 70
     1
102
RTVSPost2010Prop30
280
     1
102
RTVSPost2010PropOp30
 70
     1
102
RTVSPost2010Prop31
280
     0
102
RTVSPost2010PropOp31
 70
     1
102
RTVSPost2010Prop32
280
     0
102
RTVSPost2010PropOp32
 70
     1
102
RTVSPost2010Prop33
280
     0
102
RTVSPost2010PropOp33
 70
     1
102
RTVSPost2010Prop34
280
     0
102
RTVSPost2010PropOp34
 70
     1
102
RTVSPost2010Prop35
280
     0
102
RTVSPost2010PropOp35
 70
     1
102
RTVSPost2010Prop36
280
     0
102
RTVSPost2010PropOp36
 70
     1
102
RTVSPost2010Prop37
 90
       50
102
RTVSPost2010PropOp37
 70
     1
102
RTVSPost2010Prop38
140
0.0
102
RTVSPost2010PropOp38
 70
     1
102
RTVSPost2010Prop39
140
1.0
102
RTVSPost2010PropOp39
 70
     1
102
RTVSPost2010Prop40
 90
        0
102
RTVSPost2010PropOp40
 70
     1
102
RTVSPost2010Prop41ColorIndex
 90
       18
102
RTVSPost2010Prop41ColorRGB
 90
        0
102
RTVSPost2010PropOp41
 70
     1
102
RTVSPost2010Prop42
 90
       50
102
RTVSPost2010PropOp42
 70
     1
102
RTVSPost2010Prop43
 90
        3
102
RTVSPost2010PropOp43
 70
     1
102
RTVSPost2010Prop44ColorIndex
 90
        5
102
RTVSPost2010Prop44ColorRGB
 90
      255
102
RTVSPost2010PropOp44
 70
     1
102
RTVSPost2010Prop45
280
     0
102
RTVSPost2010PropOp45
 70
     1
102
RTVSPost2010Prop46
 90
       50
102
RTVSPost2010PropOp46
 70
     1
102
RTVSPost2010Prop47
 90
       50
102
RTVSPost2010PropOp47
 70
     1
102
RTVSPost2010Prop48
 90
       50
102
RTVSPost2010PropOp48
 70
     1
102
RTVSPost2010Prop49
280
     0
102
RTVSPost2010PropOp49
 70
     1
102
RTVSPost2010Prop50
 90
       50
102
RTVSPost2010PropOp50
 70
     1
102
RTVSPost2010Prop51ColorIndex
 90
      256
102
RTVSPost2010Prop51ColorRGB
 90
-16777216
102
RTVSPost2010PropOp51
 70
     0
102
RTVSPost2010Prop52
140
1.0
102
RTVSPost2010PropOp52
 70
     0
102
RTVSPost2010Prop53
 90
        2
102
RTVSPost2010PropOp53
 70
     1
102
RTVSPost2010Prop54
  1
strokes_ogs.tif
102
RTVSPost2010PropOp54
 70
     1
102
RTVSPost2010Prop55
280
     0
102
RTVSPost2010PropOp55
 70
     1
102
RTVSPost2010Prop56
140
1.0
102
RTVSPost2010PropOp56
 70
     1
102
RTVSPost2010Prop57
140
1.0
102
RTVSPost2010PropOp57
 70
     1
102
RTVSPropertyOp0
 70
     1
102
RTVSPropertyOp1
 70
     1
102
RTVSPropertyOp2
 70
     1
102
RTVSPropertyOp3
 70
     1
102
RTVSPropertyOp4
 70
     1
102
RTVSPropertyOp5
 70
     1
102
RTVSPropertyOp6
 70
     1
102
RTVSPropertyOp7
 70
     1
102
RTVSPropertyOp8
 70
     1
102
RTVSPropertyOp9
 70
     1
102
RTVSPropertyOp10
 70
     1
102
RTVSPropertyOp11
 70
     1
102
RTVSPropertyOp12
 70
     1
102
RTVSPropertyOp13
 70
     1
102
RTVSPropertyOp14
 70
     1
102
RTVSPropertyOp15
 70
     1
102
RTVSPropertyOp16
 70
     1
102
RTVSPropertyOp17
 70
     1
102
RTVSPropertyOp18
 70
     1
102
RTVSPropertyOp19
 70
     1
102
RTVSPropertyOp20
 70
     1
102
RTVSPropertyOp21
 70
     1
102
RTVSPropertyOp22
 70
     1
102
RTVSPropertyOp23
 70
     1
102
RTVSPropertyOp24
 70
     1
102
RTVSPropertyOp25
 70
     1
102
RTVSPropertyOp26
 70
     1
102
RTVSPropertyOp27
 70
     1
102
RTVSPropertyOp28
 70
     1
102
RTVSPropertyOp29
 70
     1
102
RTVSPropertyOp30
 70
     1
102
RTVSPropertyOp31
 70
     1
102
RTVSPropertyOp32
 70
     1
102
RTVSPropertyOp33
 70
     1
102
RTVSPropertyOp34
 70
     1
102
RTVSPropertyOp35
 70
     1
102
RTVSPropertyOp36
 70
     1
102
RTVSPropertyOp37
 70
     1
102
RTVSPropertyOp38
 70
     1
102
RTVSPropertyOp39
 70
     1
102
RTVSPropertyOp40
 70
     1
102
RTVSPropertyOp41
 70
     1
102
RTVSPropertyOp42
 70
     1
102
RTVSPropertyOp43
 70
     1
102
RTVSPropertyOp44
 70
     1
102
RTVSPropertyOp45
 70
     1
102
RTVSPropertyOp46
 70
     1
102
RTVSPropertyOp47
 70
     1
102
RTVSPropertyOp48
 70
     1
102
RTVSPropertyOp49
 70
     1
102
RTVSPropertyOp50
 70
     1
102
RTVSPropertyOp51
 70
     0
102
RTVSPropertyOp52
 70
     0
102
RTVSPropertyOp53
 70
     1
102
RTVSPropertyOp54
 70
     1
102
RTVSPropertyOp55
 70
     1
102
RTVSPropertyOp56
 70
     1
102
RTVSPropertyOp57
 70
     1
102
RTVSPropertyOp58
 70
     1
102
RTVSPropertyOp59
 70
     1
102
RTVSPropertyOp60
 70
     1
102
RTVSPropertyOp61
 70
     1
102
RTVSPropertyOp62
 70
     1
  0
XRECORD
  5
23AB
102
{ACAD_REACTORS
330
23AA
102
}
330
23AA
100
AcDbXrecord
280
     1
102
RTVSPost2010Prop28
280
     0
102
RTVSPost2010PropOp28
 70
     1
102
RTVSPost2010Prop29
280
     1
102
RTVSPost2010PropOp29
 70
     1
102
RTVSPost2010Prop30
280
     1
102
RTVSPost2010PropOp30
 70
     1
102
RTVSPost2010Prop31
280
     0
102
RTVSPost2010PropOp31
 70
     1
102
RTVSPost2010Prop32
280
     0
102
RTVSPost2010PropOp32
 70
     1
102
RTVSPost2010Prop33
280
     0
102
RTVSPost2010PropOp33
 70
     1
102
RTVSPost2010Prop34
280
     0
102
RTVSPost2010PropOp34
 70
     1
102
RTVSPost2010Prop35
280
     0
102
RTVSPost2010PropOp35
 70
     1
102
RTVSPost2010Prop36
280
     0
102
RTVSPost2010PropOp36
 70
     1
102
RTVSPost2010Prop37
 90
       50
102
RTVSPost2010PropOp37
 70
     1
102
RTVSPost2010Prop38
140
0.0
102
RTVSPost2010PropOp38
 70
     1
102
RTVSPost2010Prop39
140
1.0
102
RTVSPost2010PropOp39
 70
     1
102
RTVSPost2010Prop40
 90
        0
102
RTVSPost2010PropOp40
 70
     1
102
RTVSPost2010Prop41ColorIndex
 90
       18
102
RTVSPost2010Prop41ColorRGB
 90
        0
102
RTVSPost2010PropOp41
 70
     1
102
RTVSPost2010Prop42
 90
       50
102
RTVSPost2010PropOp42
 70
     1
102
RTVSPost2010Prop43
 90
        3
102
RTVSPost2010PropOp43
 70
     1
102
RTVSPost2010Prop44ColorIndex
 90
        5
102
RTVSPost2010Prop44ColorRGB
 90
      255
102
RTVSPost2010PropOp44
 70
     1
102
RTVSPost2010Prop45
280
     0
102
RTVSPost2010PropOp45
 70
     1
102
RTVSPost2010Prop46
 90
       50
102
RTVSPost2010PropOp46
 70
     1
102
RTVSPost2010Prop47
 90
       50
102
RTVSPost2010PropOp47
 70
     1
102
RTVSPost2010Prop48
 90
       50
102
RTVSPost2010PropOp48
 70
     1
102
RTVSPost2010Prop49
280
     0
102
RTVSPost2010PropOp49
 70
     1
102
RTVSPost2010Prop50
 90
       50
102
RTVSPost2010PropOp50
 70
     1
102
RTVSPost2010Prop51ColorIndex
 90
      256
102
RTVSPost2010Prop51ColorRGB
 90
-16777216
102
RTVSPost2010PropOp51
 70
     0
102
RTVSPost2010Prop52
140
1.0
102
RTVSPost2010PropOp52
 70
     0
102
RTVSPost2010Prop53
 90
        2
102
RTVSPost2010PropOp53
 70
     1
102
RTVSPost2010Prop54
  1
strokes_ogs.tif
102
RTVSPost2010PropOp54
 70
     1
102
RTVSPost2010Prop55
280
     0
102
RTVSPost2010PropOp55
 70
     1
102
RTVSPost2010Prop56
140
1.0
102
RTVSPost2010PropOp56
 70
     1
102
RTVSPost2010Prop57
140
1.0
102
RTVSPost2010PropOp57
 70
     1
102
RTVSPropertyOp0
 70
     1
102
RTVSPropertyOp1
 70
     1
102
RTVSPropertyOp2
 70
     1
102
RTVSPropertyOp3
 70
     1
102
RTVSPropertyOp4
 70
     1
102
RTVSPropertyOp5
 70
     1
102
RTVSPropertyOp6
 70
     1
102
RTVSPropertyOp7
 70
     1
102
RTVSPropertyOp8
 70
     1
102
RTVSPropertyOp9
 70
     1
102
RTVSPropertyOp10
 70
     1
102
RTVSPropertyOp11
 70
     1
102
RTVSPropertyOp12
 70
     1
102
RTVSPropertyOp13
 70
     1
102
RTVSPropertyOp14
 70
     1
102
RTVSPropertyOp15
 70
     1
102
RTVSPropertyOp16
 70
     1
102
RTVSPropertyOp17
 70
     1
102
RTVSPropertyOp18
 70
     1
102
RTVSPropertyOp19
 70
     1
102
RTVSPropertyOp20
 70
     1
102
RTVSPropertyOp21
 70
     1
102
RTVSPropertyOp22
 70
     1
102
RTVSPropertyOp23
 70
     1
102
RTVSPropertyOp24
 70
     1
102
RTVSPropertyOp25
 70
     1
102
RTVSPropertyOp26
 70
     1
102
RTVSPropertyOp27
 70
     1
102
RTVSPropertyOp28
 70
     1
102
RTVSPropertyOp29
 70
     1
102
RTVSPropertyOp30
 70
     1
102
RTVSPropertyOp31
 70
     1
102
RTVSPropertyOp32
 70
     1
102
RTVSPropertyOp33
 70
     1
102
RTVSPropertyOp34
 70
     1
102
RTVSPropertyOp35
 70
     1
102
RTVSPropertyOp36
 70
     1
102
RTVSPropertyOp37
 70
     1
102
RTVSPropertyOp38
 70
     1
102
RTVSPropertyOp39
 70
     1
102
RTVSPropertyOp40
 70
     1
102
RTVSPropertyOp41
 70
     1
102
RTVSPropertyOp42
 70
     1
102
RTVSPropertyOp43
 70
     1
102
RTVSPropertyOp44
 70
     1
102
RTVSPropertyOp45
 70
     1
102
RTVSPropertyOp46
 70
     1
102
RTVSPropertyOp47
 70
     1
102
RTVSPropertyOp48
 70
     1
102
RTVSPropertyOp49
 70
     1
102
RTVSPropertyOp50
 70
     1
102
RTVSPropertyOp51
 70
     0
102
RTVSPropertyOp52
 70
     0
102
RTVSPropertyOp53
 70
     1
102
RTVSPropertyOp54
 70
     1
102
RTVSPropertyOp55
 70
     1
102
RTVSPropertyOp56
 70
     1
102
RTVSPropertyOp57
 70
     1
102
RTVSPropertyOp58
 70
     1
102
RTVSPropertyOp59
 70
     1
102
RTVSPropertyOp60
 70
     1
102
RTVSPropertyOp61
 70
     1
102
RTVSPropertyOp62
 70
     1
  0
XRECORD
  5
239D
102
{ACAD_REACTORS
330
239C
102
}
330
239C
100
AcDbXrecord
280
     1
102
RTVSPost2010Prop28
280
     0
102
RTVSPost2010PropOp28
 70
     1
102
RTVSPost2010Prop29
280
     1
102
RTVSPost2010PropOp29
 70
     1
102
RTVSPost2010Prop30
280
     1
102
RTVSPost2010PropOp30
 70
     1
102
RTVSPost2010Prop31
280
     0
102
RTVSPost2010PropOp31
 70
     1
102
RTVSPost2010Prop32
280
     0
102
RTVSPost2010PropOp32
 70
     1
102
RTVSPost2010Prop33
280
     0
102
RTVSPost2010PropOp33
 70
     1
102
RTVSPost2010Prop34
280
     0
102
RTVSPost2010PropOp34
 70
     1
102
RTVSPost2010Prop35
280
     0
102
RTVSPost2010PropOp35
 70
     1
102
RTVSPost2010Prop36
280
     0
102
RTVSPost2010PropOp36
 70
     1
102
RTVSPost2010Prop37
 90
       50
102
RTVSPost2010PropOp37
 70
     1
102
RTVSPost2010Prop38
140
0.0
102
RTVSPost2010PropOp38
 70
     1
102
RTVSPost2010Prop39
140
1.0
102
RTVSPost2010PropOp39
 70
     1
102
RTVSPost2010Prop40
 90
        0
102
RTVSPost2010PropOp40
 70
     1
102
RTVSPost2010Prop41ColorIndex
 90
       18
102
RTVSPost2010Prop41ColorRGB
 90
        0
102
RTVSPost2010PropOp41
 70
     1
102
RTVSPost2010Prop42
 90
       50
102
RTVSPost2010PropOp42
 70
     1
102
RTVSPost2010Prop43
 90
        3
102
RTVSPost2010PropOp43
 70
     1
102
RTVSPost2010Prop44ColorIndex
 90
        5
102
RTVSPost2010Prop44ColorRGB
 90
      255
102
RTVSPost2010PropOp44
 70
     1
102
RTVSPost2010Prop45
280
     0
102
RTVSPost2010PropOp45
 70
     1
102
RTVSPost2010Prop46
 90
       50
102
RTVSPost2010PropOp46
 70
     1
102
RTVSPost2010Prop47
 90
       50
102
RTVSPost2010PropOp47
 70
     1
102
RTVSPost2010Prop48
 90
       50
102
RTVSPost2010PropOp48
 70
     1
102
RTVSPost2010Prop49
280
     0
102
RTVSPost2010PropOp49
 70
     1
102
RTVSPost2010Prop50
 90
       50
102
RTVSPost2010PropOp50
 70
     1
102
RTVSPost2010Prop51ColorIndex
 90
      256
102
RTVSPost2010Prop51ColorRGB
 90
-16777216
102
RTVSPost2010PropOp51
 70
     0
102
RTVSPost2010Prop52
140
1.0
102
RTVSPost2010PropOp52
 70
     0
102
RTVSPost2010Prop53
 90
        2
102
RTVSPost2010PropOp53
 70
     1
102
RTVSPost2010Prop54
  1
strokes_ogs.tif
102
RTVSPost2010PropOp54
 70
     1
102
RTVSPost2010Prop55
280
     0
102
RTVSPost2010PropOp55
 70
     1
102
RTVSPost2010Prop56
140
1.0
102
RTVSPost2010PropOp56
 70
     1
102
RTVSPost2010Prop57
140
1.0
102
RTVSPost2010PropOp57
 70
     1
102
RTVSPropertyOp0
 70
     1
102
RTVSPropertyOp1
 70
     1
102
RTVSPropertyOp2
 70
     1
102
RTVSPropertyOp3
 70
     1
102
RTVSPropertyOp4
 70
     1
102
RTVSPropertyOp5
 70
     1
102
RTVSPropertyOp6
 70
     1
102
RTVSPropertyOp7
 70
     1
102
RTVSPropertyOp8
 70
     1
102
RTVSPropertyOp9
 70
     1
102
RTVSPropertyOp10
 70
     1
102
RTVSPropertyOp11
 70
     1
102
RTVSPropertyOp12
 70
     1
102
RTVSPropertyOp13
 70
     1
102
RTVSPropertyOp14
 70
     1
102
RTVSPropertyOp15
 70
     1
102
RTVSPropertyOp16
 70
     1
102
RTVSPropertyOp17
 70
     1
102
RTVSPropertyOp18
 70
     1
102
RTVSPropertyOp19
 70
     1
102
RTVSPropertyOp20
 70
     1
102
RTVSPropertyOp21
 70
     1
102
RTVSPropertyOp22
 70
     1
102
RTVSPropertyOp23
 70
     1
102
RTVSPropertyOp24
 70
     1
102
RTVSPropertyOp25
 70
     1
102
RTVSPropertyOp26
 70
     1
102
RTVSPropertyOp27
 70
     1
102
RTVSPropertyOp28
 70
     1
102
RTVSPropertyOp29
 70
     1
102
RTVSPropertyOp30
 70
     1
102
RTVSPropertyOp31
 70
     1
102
RTVSPropertyOp32
 70
     1
102
RTVSPropertyOp33
 70
     1
102
RTVSPropertyOp34
 70
     1
102
RTVSPropertyOp35
 70
     1
102
RTVSPropertyOp36
 70
     1
102
RTVSPropertyOp37
 70
     1
102
RTVSPropertyOp38
 70
     1
102
RTVSPropertyOp39
 70
     1
102
RTVSPropertyOp40
 70
     1
102
RTVSPropertyOp41
 70
     1
102
RTVSPropertyOp42
 70
     1
102
RTVSPropertyOp43
 70
     1
102
RTVSPropertyOp44
 70
     1
102
RTVSPropertyOp45
 70
     1
102
RTVSPropertyOp46
 70
     1
102
RTVSPropertyOp47
 70
     1
102
RTVSPropertyOp48
 70
     1
102
RTVSPropertyOp49
 70
     1
102
RTVSPropertyOp50
 70
     1
102
RTVSPropertyOp51
 70
     0
102
RTVSPropertyOp52
 70
     0
102
RTVSPropertyOp53
 70
     1
102
RTVSPropertyOp54
 70
     1
102
RTVSPropertyOp55
 70
     1
102
RTVSPropertyOp56
 70
     1
102
RTVSPropertyOp57
 70
     1
102
RTVSPropertyOp58
 70
     1
102
RTVSPropertyOp59
 70
     1
102
RTVSPropertyOp60
 70
     1
102
RTVSPropertyOp61
 70
     1
102
RTVSPropertyOp62
 70
     1
  0
XRECORD
  5
23A1
102
{ACAD_REACTORS
330
23A0
102
}
330
23A0
100
AcDbXrecord
280
     1
102
RTVSPost2010Prop28
280
     0
102
RTVSPost2010PropOp28
 70
     1
102
RTVSPost2010Prop29
280
     1
102
RTVSPost2010PropOp29
 70
     1
102
RTVSPost2010Prop30
280
     1
102
RTVSPost2010PropOp30
 70
     1
102
RTVSPost2010Prop31
280
     0
102
RTVSPost2010PropOp31
 70
     1
102
RTVSPost2010Prop32
280
     0
102
RTVSPost2010PropOp32
 70
     1
102
RTVSPost2010Prop33
280
     0
102
RTVSPost2010PropOp33
 70
     1
102
RTVSPost2010Prop34
280
     0
102
RTVSPost2010PropOp34
 70
     1
102
RTVSPost2010Prop35
280
     0
102
RTVSPost2010PropOp35
 70
     1
102
RTVSPost2010Prop36
280
     0
102
RTVSPost2010PropOp36
 70
     1
102
RTVSPost2010Prop37
 90
       50
102
RTVSPost2010PropOp37
 70
     1
102
RTVSPost2010Prop38
140
0.0
102
RTVSPost2010PropOp38
 70
     1
102
RTVSPost2010Prop39
140
1.0
102
RTVSPost2010PropOp39
 70
     1
102
RTVSPost2010Prop40
 90
        0
102
RTVSPost2010PropOp40
 70
     1
102
RTVSPost2010Prop41ColorIndex
 90
       18
102
RTVSPost2010Prop41ColorRGB
 90
        0
102
RTVSPost2010PropOp41
 70
     1
102
RTVSPost2010Prop42
 90
       50
102
RTVSPost2010PropOp42
 70
     1
102
RTVSPost2010Prop43
 90
        3
102
RTVSPost2010PropOp43
 70
     1
102
RTVSPost2010Prop44ColorIndex
 90
        5
102
RTVSPost2010Prop44ColorRGB
 90
      255
102
RTVSPost2010PropOp44
 70
     1
102
RTVSPost2010Prop45
280
     0
102
RTVSPost2010PropOp45
 70
     1
102
RTVSPost2010Prop46
 90
       50
102
RTVSPost2010PropOp46
 70
     1
102
RTVSPost2010Prop47
 90
       50
102
RTVSPost2010PropOp47
 70
     1
102
RTVSPost2010Prop48
 90
       50
102
RTVSPost2010PropOp48
 70
     1
102
RTVSPost2010Prop49
280
     0
102
RTVSPost2010PropOp49
 70
     1
102
RTVSPost2010Prop50
 90
       50
102
RTVSPost2010PropOp50
 70
     1
102
RTVSPost2010Prop51ColorIndex
 90
      256
102
RTVSPost2010Prop51ColorRGB
 90
-16777216
102
RTVSPost2010PropOp51
 70
     0
102
RTVSPost2010Prop52
140
1.0
102
RTVSPost2010PropOp52
 70
     0
102
RTVSPost2010Prop53
 90
        2
102
RTVSPost2010PropOp53
 70
     1
102
RTVSPost2010Prop54
  1
strokes_ogs.tif
102
RTVSPost2010PropOp54
 70
     1
102
RTVSPost2010Prop55
280
     0
102
RTVSPost2010PropOp55
 70
     1
102
RTVSPost2010Prop56
140
1.0
102
RTVSPost2010PropOp56
 70
     1
102
RTVSPost2010Prop57
140
1.0
102
RTVSPost2010PropOp57
 70
     1
102
RTVSPropertyOp0
 70
     1
102
RTVSPropertyOp1
 70
     1
102
RTVSPropertyOp2
 70
     1
102
RTVSPropertyOp3
 70
     1
102
RTVSPropertyOp4
 70
     1
102
RTVSPropertyOp5
 70
     1
102
RTVSPropertyOp6
 70
     1
102
RTVSPropertyOp7
 70
     1
102
RTVSPropertyOp8
 70
     1
102
RTVSPropertyOp9
 70
     1
102
RTVSPropertyOp10
 70
     1
102
RTVSPropertyOp11
 70
     1
102
RTVSPropertyOp12
 70
     1
102
RTVSPropertyOp13
 70
     1
102
RTVSPropertyOp14
 70
     1
102
RTVSPropertyOp15
 70
     1
102
RTVSPropertyOp16
 70
     1
102
RTVSPropertyOp17
 70
     1
102
RTVSPropertyOp18
 70
     1
102
RTVSPropertyOp19
 70
     1
102
RTVSPropertyOp20
 70
     1
102
RTVSPropertyOp21
 70
     1
102
RTVSPropertyOp22
 70
     1
102
RTVSPropertyOp23
 70
     1
102
RTVSPropertyOp24
 70
     1
102
RTVSPropertyOp25
 70
     1
102
RTVSPropertyOp26
 70
     1
102
RTVSPropertyOp27
 70
     1
102
RTVSPropertyOp28
 70
     1
102
RTVSPropertyOp29
 70
     1
102
RTVSPropertyOp30
 70
     1
102
RTVSPropertyOp31
 70
     1
102
RTVSPropertyOp32
 70
     1
102
RTVSPropertyOp33
 70
     1
102
RTVSPropertyOp34
 70
     1
102
RTVSPropertyOp35
 70
     1
102
RTVSPropertyOp36
 70
     1
102
RTVSPropertyOp37
 70
     1
102
RTVSPropertyOp38
 70
     1
102
RTVSPropertyOp39
 70
     1
102
RTVSPropertyOp40
 70
     1
102
RTVSPropertyOp41
 70
     1
102
RTVSPropertyOp42
 70
     1
102
RTVSPropertyOp43
 70
     1
102
RTVSPropertyOp44
 70
     1
102
RTVSPropertyOp45
 70
     1
102
RTVSPropertyOp46
 70
     1
102
RTVSPropertyOp47
 70
     1
102
RTVSPropertyOp48
 70
     1
102
RTVSPropertyOp49
 70
     1
102
RTVSPropertyOp50
 70
     1
102
RTVSPropertyOp51
 70
     0
102
RTVSPropertyOp52
 70
     0
102
RTVSPropertyOp53
 70
     1
102
RTVSPropertyOp54
 70
     1
102
RTVSPropertyOp55
 70
     1
102
RTVSPropertyOp56
 70
     1
102
RTVSPropertyOp57
 70
     1
102
RTVSPropertyOp58
 70
     1
102
RTVSPropertyOp59
 70
     1
102
RTVSPropertyOp60
 70
     1
102
RTVSPropertyOp61
 70
     1
102
RTVSPropertyOp62
 70
     1
  0
XRECORD
  5
23BB
102
{ACAD_REACTORS
330
23BA
102
}
330
23BA
100
AcDbXrecord
280
     1
102
RTVSPost2010Prop28
280
     0
102
RTVSPost2010PropOp28
 70
     1
102
RTVSPost2010Prop29
280
     1
102
RTVSPost2010PropOp29
 70
     1
102
RTVSPost2010Prop30
280
     1
102
RTVSPost2010PropOp30
 70
     1
102
RTVSPost2010Prop31
280
     0
102
RTVSPost2010PropOp31
 70
     1
102
RTVSPost2010Prop32
280
     0
102
RTVSPost2010PropOp32
 70
     1
102
RTVSPost2010Prop33
280
     0
102
RTVSPost2010PropOp33
 70
     1
102
RTVSPost2010Prop34
280
     0
102
RTVSPost2010PropOp34
 70
     1
102
RTVSPost2010Prop35
280
     0
102
RTVSPost2010PropOp35
 70
     1
102
RTVSPost2010Prop36
280
     0
102
RTVSPost2010PropOp36
 70
     1
102
RTVSPost2010Prop37
 90
       50
102
RTVSPost2010PropOp37
 70
     0
102
RTVSPost2010Prop38
140
0.0
102
RTVSPost2010PropOp38
 70
     0
102
RTVSPost2010Prop39
140
1.0
102
RTVSPost2010PropOp39
 70
     0
102
RTVSPost2010Prop40
 90
        0
102
RTVSPost2010PropOp40
 70
     0
102
RTVSPost2010Prop41ColorIndex
 90
       18
102
RTVSPost2010Prop41ColorRGB
 90
        0
102
RTVSPost2010PropOp41
 70
     0
102
RTVSPost2010Prop42
 90
       50
102
RTVSPost2010PropOp42
 70
     0
102
RTVSPost2010Prop43
 90
        3
102
RTVSPost2010PropOp43
 70
     0
102
RTVSPost2010Prop44ColorIndex
 90
        5
102
RTVSPost2010Prop44ColorRGB
 90
      255
102
RTVSPost2010PropOp44
 70
     0
102
RTVSPost2010Prop45
280
     0
102
RTVSPost2010PropOp45
 70
     1
102
RTVSPost2010Prop46
 90
       50
102
RTVSPost2010PropOp46
 70
     0
102
RTVSPost2010Prop47
 90
       50
102
RTVSPost2010PropOp47
 70
     0
102
RTVSPost2010Prop48
 90
       50
102
RTVSPost2010PropOp48
 70
     0
102
RTVSPost2010Prop49
280
     0
102
RTVSPost2010PropOp49
 70
     1
102
RTVSPost2010Prop50
 90
       50
102
RTVSPost2010PropOp50
 70
     0
102
RTVSPost2010Prop51ColorIndex
 90
      256
102
RTVSPost2010Prop51ColorRGB
 90
-16777216
102
RTVSPost2010PropOp51
 70
     0
102
RTVSPost2010Prop52
140
1.0
102
RTVSPost2010PropOp52
 70
     0
102
RTVSPost2010Prop53
 90
        2
102
RTVSPost2010PropOp53
 70
     0
102
RTVSPost2010Prop54
  1
strokes_ogs.tif
102
RTVSPost2010PropOp54
 70
     0
102
RTVSPost2010Prop55
280
     0
102
RTVSPost2010PropOp55
 70
     1
102
RTVSPost2010Prop56
140
1.0
102
RTVSPost2010PropOp56
 70
     0
102
RTVSPost2010Prop57
140
1.0
102
RTVSPost2010PropOp57
 70
     0
102
RTVSPropertyOp0
 70
     0
102
RTVSPropertyOp1
 70
     0
102
RTVSPropertyOp2
 70
     0
102
RTVSPropertyOp3
 70
     0
102
RTVSPropertyOp4
 70
     0
102
RTVSPropertyOp5
 70
     0
102
RTVSPropertyOp6
 70
     0
102
RTVSPropertyOp7
 70
     0
102
RTVSPropertyOp8
 70
     0
102
RTVSPropertyOp9
 70
     0
102
RTVSPropertyOp10
 70
     0
102
RTVSPropertyOp11
 70
     0
102
RTVSPropertyOp12
 70
     0
102
RTVSPropertyOp13
 70
     0
102
RTVSPropertyOp14
 70
     2
102
RTVSPropertyOp15
 70
     0
102
RTVSPropertyOp16
 70
     0
102
RTVSPropertyOp17
 70
     0
102
RTVSPropertyOp18
 70
     0
102
RTVSPropertyOp19
 70
     0
102
RTVSPropertyOp20
 70
     0
102
RTVSPropertyOp21
 70
     0
102
RTVSPropertyOp22
 70
     0
102
RTVSPropertyOp23
 70
     0
102
RTVSPropertyOp24
 70
     0
102
RTVSPropertyOp25
 70
     0
102
RTVSPropertyOp26
 70
     0
102
RTVSPropertyOp27
 70
     0
102
RTVSPropertyOp28
 70
     1
102
RTVSPropertyOp29
 70
     1
102
RTVSPropertyOp30
 70
     1
102
RTVSPropertyOp31
 70
     1
102
RTVSPropertyOp32
 70
     1
102
RTVSPropertyOp33
 70
     1
102
RTVSPropertyOp34
 70
     1
102
RTVSPropertyOp35
 70
     1
102
RTVSPropertyOp36
 70
     1
102
RTVSPropertyOp37
 70
     0
102
RTVSPropertyOp38
 70
     0
102
RTVSPropertyOp39
 70
     0
102
RTVSPropertyOp40
 70
     0
102
RTVSPropertyOp41
 70
     0
102
RTVSPropertyOp42
 70
     0
102
RTVSPropertyOp43
 70
     0
102
RTVSPropertyOp44
 70
     0
102
RTVSPropertyOp45
 70
     1
102
RTVSPropertyOp46
 70
     0
102
RTVSPropertyOp47
 70
     0
102
RTVSPropertyOp48
 70
     0
102
RTVSPropertyOp49
 70
     1
102
RTVSPropertyOp50
 70
     0
102
RTVSPropertyOp51
 70
     0
102
RTVSPropertyOp52
 70
     0
102
RTVSPropertyOp53
 70
     0
102
RTVSPropertyOp54
 70
     0
102
RTVSPropertyOp55
 70
     1
102
RTVSPropertyOp56
 70
     0
102
RTVSPropertyOp57
 70
     0
102
RTVSPropertyOp58
 70
     0
102
RTVSPropertyOp59
 70
     0
102
RTVSPropertyOp60
 70
     0
102
RTVSPropertyOp61
 70
     0
102
RTVSPropertyOp62
 70
     0
  0
XRECORD
  5
23A9
102
{ACAD_REACTORS
330
23A8
102
}
330
23A8
100
AcDbXrecord
280
     1
102
RTVSPost2010Prop28
280
     0
102
RTVSPost2010PropOp28
 70
     1
102
RTVSPost2010Prop29
280
     1
102
RTVSPost2010PropOp29
 70
     1
102
RTVSPost2010Prop30
280
     1
102
RTVSPost2010PropOp30
 70
     1
102
RTVSPost2010Prop31
280
     0
102
RTVSPost2010PropOp31
 70
     1
102
RTVSPost2010Prop32
280
     0
102
RTVSPost2010PropOp32
 70
     1
102
RTVSPost2010Prop33
280
     0
102
RTVSPost2010PropOp33
 70
     1
102
RTVSPost2010Prop34
280
     0
102
RTVSPost2010PropOp34
 70
     1
102
RTVSPost2010Prop35
280
     0
102
RTVSPost2010PropOp35
 70
     1
102
RTVSPost2010Prop36
280
     0
102
RTVSPost2010PropOp36
 70
     1
102
RTVSPost2010Prop37
 90
       50
102
RTVSPost2010PropOp37
 70
     1
102
RTVSPost2010Prop38
140
0.0
102
RTVSPost2010PropOp38
 70
     1
102
RTVSPost2010Prop39
140
1.0
102
RTVSPost2010PropOp39
 70
     1
102
RTVSPost2010Prop40
 90
        0
102
RTVSPost2010PropOp40
 70
     1
102
RTVSPost2010Prop41ColorIndex
 90
       18
102
RTVSPost2010Prop41ColorRGB
 90
        0
102
RTVSPost2010PropOp41
 70
     1
102
RTVSPost2010Prop42
 90
       50
102
RTVSPost2010PropOp42
 70
     1
102
RTVSPost2010Prop43
 90
        3
102
RTVSPost2010PropOp43
 70
     1
102
RTVSPost2010Prop44ColorIndex
 90
        5
102
RTVSPost2010Prop44ColorRGB
 90
      255
102
RTVSPost2010PropOp44
 70
     1
102
RTVSPost2010Prop45
280
     0
102
RTVSPost2010PropOp45
 70
     1
102
RTVSPost2010Prop46
 90
       50
102
RTVSPost2010PropOp46
 70
     1
102
RTVSPost2010Prop47
 90
       50
102
RTVSPost2010PropOp47
 70
     1
102
RTVSPost2010Prop48
 90
       50
102
RTVSPost2010PropOp48
 70
     1
102
RTVSPost2010Prop49
280
     0
102
RTVSPost2010PropOp49
 70
     1
102
RTVSPost2010Prop50
 90
       50
102
RTVSPost2010PropOp50
 70
     1
102
RTVSPost2010Prop51ColorIndex
 90
      256
102
RTVSPost2010Prop51ColorRGB
 90
-16777216
102
RTVSPost2010PropOp51
 70
     0
102
RTVSPost2010Prop52
140
1.0
102
RTVSPost2010PropOp52
 70
     0
102
RTVSPost2010Prop53
 90
        2
102
RTVSPost2010PropOp53
 70
     1
102
RTVSPost2010Prop54
  1
strokes_ogs.tif
102
RTVSPost2010PropOp54
 70
     1
102
RTVSPost2010Prop55
280
     0
102
RTVSPost2010PropOp55
 70
     1
102
RTVSPost2010Prop56
140
1.0
102
RTVSPost2010PropOp56
 70
     1
102
RTVSPost2010Prop57
140
1.0
102
RTVSPost2010PropOp57
 70
     1
102
RTVSPropertyOp0
 70
     1
102
RTVSPropertyOp1
 70
     1
102
RTVSPropertyOp2
 70
     1
102
RTVSPropertyOp3
 70
     1
102
RTVSPropertyOp4
 70
     1
102
RTVSPropertyOp5
 70
     1
102
RTVSPropertyOp6
 70
     1
102
RTVSPropertyOp7
 70
     1
102
RTVSPropertyOp8
 70
     1
102
RTVSPropertyOp9
 70
     1
102
RTVSPropertyOp10
 70
     1
102
RTVSPropertyOp11
 70
     1
102
RTVSPropertyOp12
 70
     1
102
RTVSPropertyOp13
 70
     1
102
RTVSPropertyOp14
 70
     1
102
RTVSPropertyOp15
 70
     1
102
RTVSPropertyOp16
 70
     1
102
RTVSPropertyOp17
 70
     1
102
RTVSPropertyOp18
 70
     1
102
RTVSPropertyOp19
 70
     1
102
RTVSPropertyOp20
 70
     1
102
RTVSPropertyOp21
 70
     1
102
RTVSPropertyOp22
 70
     1
102
RTVSPropertyOp23
 70
     1
102
RTVSPropertyOp24
 70
     1
102
RTVSPropertyOp25
 70
     1
102
RTVSPropertyOp26
 70
     1
102
RTVSPropertyOp27
 70
     1
102
RTVSPropertyOp28
 70
     1
102
RTVSPropertyOp29
 70
     1
102
RTVSPropertyOp30
 70
     1
102
RTVSPropertyOp31
 70
     1
102
RTVSPropertyOp32
 70
     1
102
RTVSPropertyOp33
 70
     1
102
RTVSPropertyOp34
 70
     1
102
RTVSPropertyOp35
 70
     1
102
RTVSPropertyOp36
 70
     1
102
RTVSPropertyOp37
 70
     1
102
RTVSPropertyOp38
 70
     1
102
RTVSPropertyOp39
 70
     1
102
RTVSPropertyOp40
 70
     1
102
RTVSPropertyOp41
 70
     1
102
RTVSPropertyOp42
 70
     1
102
RTVSPropertyOp43
 70
     1
102
RTVSPropertyOp44
 70
     1
102
RTVSPropertyOp45
 70
     1
102
RTVSPropertyOp46
 70
     1
102
RTVSPropertyOp47
 70
     1
102
RTVSPropertyOp48
 70
     1
102
RTVSPropertyOp49
 70
     1
102
RTVSPropertyOp50
 70
     1
102
RTVSPropertyOp51
 70
     0
102
RTVSPropertyOp52
 70
     0
102
RTVSPropertyOp53
 70
     1
102
RTVSPropertyOp54
 70
     1
102
RTVSPropertyOp55
 70
     1
102
RTVSPropertyOp56
 70
     1
102
RTVSPropertyOp57
 70
     1
102
RTVSPropertyOp58
 70
     1
102
RTVSPropertyOp59
 70
     1
102
RTVSPropertyOp60
 70
     1
102
RTVSPropertyOp61
 70
     1
102
RTVSPropertyOp62
 70
     1
  0
XRECORD
  5
238D
102
{ACAD_REACTORS
330
238C
102
}
330
238C
100
AcDbXrecord
280
     1
102
RTVSPost2010Prop28
280
     0
102
RTVSPost2010PropOp28
 70
     1
102
RTVSPost2010Prop29
280
     1
102
RTVSPost2010PropOp29
 70
     1
102
RTVSPost2010Prop30
280
     1
102
RTVSPost2010PropOp30
 70
     1
102
RTVSPost2010Prop31
280
     0
102
RTVSPost2010PropOp31
 70
     1
102
RTVSPost2010Prop32
280
     0
102
RTVSPost2010PropOp32
 70
     1
102
RTVSPost2010Prop33
280
     0
102
RTVSPost2010PropOp33
 70
     1
102
RTVSPost2010Prop34
280
     0
102
RTVSPost2010PropOp34
 70
     1
102
RTVSPost2010Prop35
280
     0
102
RTVSPost2010PropOp35
 70
     1
102
RTVSPost2010Prop36
280
     0
102
RTVSPost2010PropOp36
 70
     1
102
RTVSPost2010Prop37
 90
       50
102
RTVSPost2010PropOp37
 70
     1
102
RTVSPost2010Prop38
140
0.0
102
RTVSPost2010PropOp38
 70
     1
102
RTVSPost2010Prop39
140
1.0
102
RTVSPost2010PropOp39
 70
     1
102
RTVSPost2010Prop40
 90
        0
102
RTVSPost2010PropOp40
 70
     1
102
RTVSPost2010Prop41ColorIndex
 90
       18
102
RTVSPost2010Prop41ColorRGB
 90
        0
102
RTVSPost2010PropOp41
 70
     1
102
RTVSPost2010Prop42
 90
       50
102
RTVSPost2010PropOp42
 70
     1
102
RTVSPost2010Prop43
 90
        3
102
RTVSPost2010PropOp43
 70
     1
102
RTVSPost2010Prop44ColorIndex
 90
        5
102
RTVSPost2010Prop44ColorRGB
 90
      255
102
RTVSPost2010PropOp44
 70
     1
102
RTVSPost2010Prop45
280
     0
102
RTVSPost2010PropOp45
 70
     1
102
RTVSPost2010Prop46
 90
       50
102
RTVSPost2010PropOp46
 70
     1
102
RTVSPost2010Prop47
 90
       50
102
RTVSPost2010PropOp47
 70
     1
102
RTVSPost2010Prop48
 90
       50
102
RTVSPost2010PropOp48
 70
     1
102
RTVSPost2010Prop49
280
     0
102
RTVSPost2010PropOp49
 70
     1
102
RTVSPost2010Prop50
 90
       50
102
RTVSPost2010PropOp50
 70
     1
102
RTVSPost2010Prop51ColorIndex
 90
      256
102
RTVSPost2010Prop51ColorRGB
 90
-16777216
102
RTVSPost2010PropOp51
 70
     0
102
RTVSPost2010Prop52
140
1.0
102
RTVSPost2010PropOp52
 70
     0
102
RTVSPost2010Prop53
 90
        2
102
RTVSPost2010PropOp53
 70
     1
102
RTVSPost2010Prop54
  1
strokes_ogs.tif
102
RTVSPost2010PropOp54
 70
     1
102
RTVSPost2010Prop55
280
     0
102
RTVSPost2010PropOp55
 70
     1
102
RTVSPost2010Prop56
140
1.0
102
RTVSPost2010PropOp56
 70
     1
102
RTVSPost2010Prop57
140
1.0
102
RTVSPost2010PropOp57
 70
     1
102
RTVSPropertyOp0
 70
     1
102
RTVSPropertyOp1
 70
     1
102
RTVSPropertyOp2
 70
     1
102
RTVSPropertyOp3
 70
     1
102
RTVSPropertyOp4
 70
     1
102
RTVSPropertyOp5
 70
     1
102
RTVSPropertyOp6
 70
     1
102
RTVSPropertyOp7
 70
     1
102
RTVSPropertyOp8
 70
     1
102
RTVSPropertyOp9
 70
     1
102
RTVSPropertyOp10
 70
     1
102
RTVSPropertyOp11
 70
     1
102
RTVSPropertyOp12
 70
     1
102
RTVSPropertyOp13
 70
     1
102
RTVSPropertyOp14
 70
     1
102
RTVSPropertyOp15
 70
     1
102
RTVSPropertyOp16
 70
     1
102
RTVSPropertyOp17
 70
     1
102
RTVSPropertyOp18
 70
     1
102
RTVSPropertyOp19
 70
     1
102
RTVSPropertyOp20
 70
     1
102
RTVSPropertyOp21
 70
     1
102
RTVSPropertyOp22
 70
     1
102
RTVSPropertyOp23
 70
     1
102
RTVSPropertyOp24
 70
     1
102
RTVSPropertyOp25
 70
     1
102
RTVSPropertyOp26
 70
     1
102
RTVSPropertyOp27
 70
     1
102
RTVSPropertyOp28
 70
     1
102
RTVSPropertyOp29
 70
     1
102
RTVSPropertyOp30
 70
     1
102
RTVSPropertyOp31
 70
     1
102
RTVSPropertyOp32
 70
     1
102
RTVSPropertyOp33
 70
     1
102
RTVSPropertyOp34
 70
     1
102
RTVSPropertyOp35
 70
     1
102
RTVSPropertyOp36
 70
     1
102
RTVSPropertyOp37
 70
     1
102
RTVSPropertyOp38
 70
     1
102
RTVSPropertyOp39
 70
     1
102
RTVSPropertyOp40
 70
     1
102
RTVSPropertyOp41
 70
     1
102
RTVSPropertyOp42
 70
     1
102
RTVSPropertyOp43
 70
     1
102
RTVSPropertyOp44
 70
     1
102
RTVSPropertyOp45
 70
     1
102
RTVSPropertyOp46
 70
     1
102
RTVSPropertyOp47
 70
     1
102
RTVSPropertyOp48
 70
     1
102
RTVSPropertyOp49
 70
     1
102
RTVSPropertyOp50
 70
     1
102
RTVSPropertyOp51
 70
     0
102
RTVSPropertyOp52
 70
     0
102
RTVSPropertyOp53
 70
     1
102
RTVSPropertyOp54
 70
     1
102
RTVSPropertyOp55
 70
     1
102
RTVSPropertyOp56
 70
     1
102
RTVSPropertyOp57
 70
     1
102
RTVSPropertyOp58
 70
     1
102
RTVSPropertyOp59
 70
     1
102
RTVSPropertyOp60
 70
     1
102
RTVSPropertyOp61
 70
     1
102
RTVSPropertyOp62
 70
     1
  0
XRECORD
  5
238F
102
{ACAD_REACTORS
330
238E
102
}
330
238E
100
AcDbXrecord
280
     1
102
RTVSPost2010Prop28
280
     0
102
RTVSPost2010PropOp28
 70
     1
102
RTVSPost2010Prop29
280
     1
102
RTVSPost2010PropOp29
 70
     1
102
RTVSPost2010Prop30
280
     1
102
RTVSPost2010PropOp30
 70
     1
102
RTVSPost2010Prop31
280
     0
102
RTVSPost2010PropOp31
 70
     1
102
RTVSPost2010Prop32
280
     0
102
RTVSPost2010PropOp32
 70
     1
102
RTVSPost2010Prop33
280
     0
102
RTVSPost2010PropOp33
 70
     1
102
RTVSPost2010Prop34
280
     0
102
RTVSPost2010PropOp34
 70
     1
102
RTVSPost2010Prop35
280
     0
102
RTVSPost2010PropOp35
 70
     1
102
RTVSPost2010Prop36
280
     0
102
RTVSPost2010PropOp36
 70
     1
102
RTVSPost2010Prop37
 90
       50
102
RTVSPost2010PropOp37
 70
     1
102
RTVSPost2010Prop38
140
0.0
102
RTVSPost2010PropOp38
 70
     1
102
RTVSPost2010Prop39
140
1.0
102
RTVSPost2010PropOp39
 70
     1
102
RTVSPost2010Prop40
 90
        0
102
RTVSPost2010PropOp40
 70
     1
102
RTVSPost2010Prop41ColorIndex
 90
       18
102
RTVSPost2010Prop41ColorRGB
 90
        0
102
RTVSPost2010PropOp41
 70
     1
102
RTVSPost2010Prop42
 90
       50
102
RTVSPost2010PropOp42
 70
     1
102
RTVSPost2010Prop43
 90
        3
102
RTVSPost2010PropOp43
 70
     1
102
RTVSPost2010Prop44ColorIndex
 90
        5
102
RTVSPost2010Prop44ColorRGB
 90
      255
102
RTVSPost2010PropOp44
 70
     1
102
RTVSPost2010Prop45
280
     0
102
RTVSPost2010PropOp45
 70
     1
102
RTVSPost2010Prop46
 90
       50
102
RTVSPost2010PropOp46
 70
     1
102
RTVSPost2010Prop47
 90
       50
102
RTVSPost2010PropOp47
 70
     1
102
RTVSPost2010Prop48
 90
       50
102
RTVSPost2010PropOp48
 70
     1
102
RTVSPost2010Prop49
280
     0
102
RTVSPost2010PropOp49
 70
     1
102
RTVSPost2010Prop50
 90
       50
102
RTVSPost2010PropOp50
 70
     1
102
RTVSPost2010Prop51ColorIndex
 90
      256
102
RTVSPost2010Prop51ColorRGB
 90
-16777216
102
RTVSPost2010PropOp51
 70
     0
102
RTVSPost2010Prop52
140
1.0
102
RTVSPost2010PropOp52
 70
     0
102
RTVSPost2010Prop53
 90
        2
102
RTVSPost2010PropOp53
 70
     1
102
RTVSPost2010Prop54
  1
strokes_ogs.tif
102
RTVSPost2010PropOp54
 70
     1
102
RTVSPost2010Prop55
280
     0
102
RTVSPost2010PropOp55
 70
     1
102
RTVSPost2010Prop56
140
1.0
102
RTVSPost2010PropOp56
 70
     1
102
RTVSPost2010Prop57
140
1.0
102
RTVSPost2010PropOp57
 70
     1
102
RTVSPropertyOp0
 70
     1
102
RTVSPropertyOp1
 70
     1
102
RTVSPropertyOp2
 70
     1
102
RTVSPropertyOp3
 70
     1
102
RTVSPropertyOp4
 70
     1
102
RTVSPropertyOp5
 70
     1
102
RTVSPropertyOp6
 70
     1
102
RTVSPropertyOp7
 70
     1
102
RTVSPropertyOp8
 70
     1
102
RTVSPropertyOp9
 70
     1
102
RTVSPropertyOp10
 70
     1
102
RTVSPropertyOp11
 70
     1
102
RTVSPropertyOp12
 70
     1
102
RTVSPropertyOp13
 70
     1
102
RTVSPropertyOp14
 70
     1
102
RTVSPropertyOp15
 70
     1
102
RTVSPropertyOp16
 70
     1
102
RTVSPropertyOp17
 70
     1
102
RTVSPropertyOp18
 70
     1
102
RTVSPropertyOp19
 70
     1
102
RTVSPropertyOp20
 70
     1
102
RTVSPropertyOp21
 70
     1
102
RTVSPropertyOp22
 70
     1
102
RTVSPropertyOp23
 70
     1
102
RTVSPropertyOp24
 70
     1
102
RTVSPropertyOp25
 70
     1
102
RTVSPropertyOp26
 70
     1
102
RTVSPropertyOp27
 70
     1
102
RTVSPropertyOp28
 70
     1
102
RTVSPropertyOp29
 70
     1
102
RTVSPropertyOp30
 70
     1
102
RTVSPropertyOp31
 70
     1
102
RTVSPropertyOp32
 70
     1
102
RTVSPropertyOp33
 70
     1
102
RTVSPropertyOp34
 70
     1
102
RTVSPropertyOp35
 70
     1
102
RTVSPropertyOp36
 70
     1
102
RTVSPropertyOp37
 70
     1
102
RTVSPropertyOp38
 70
     1
102
RTVSPropertyOp39
 70
     1
102
RTVSPropertyOp40
 70
     1
102
RTVSPropertyOp41
 70
     1
102
RTVSPropertyOp42
 70
     1
102
RTVSPropertyOp43
 70
     1
102
RTVSPropertyOp44
 70
     1
102
RTVSPropertyOp45
 70
     1
102
RTVSPropertyOp46
 70
     1
102
RTVSPropertyOp47
 70
     1
102
RTVSPropertyOp48
 70
     1
102
RTVSPropertyOp49
 70
     1
102
RTVSPropertyOp50
 70
     1
102
RTVSPropertyOp51
 70
     0
102
RTVSPropertyOp52
 70
     0
102
RTVSPropertyOp53
 70
     1
102
RTVSPropertyOp54
 70
     1
102
RTVSPropertyOp55
 70
     1
102
RTVSPropertyOp56
 70
     1
102
RTVSPropertyOp57
 70
     1
102
RTVSPropertyOp58
 70
     1
102
RTVSPropertyOp59
 70
     1
102
RTVSPropertyOp60
 70
     1
102
RTVSPropertyOp61
 70
     1
102
RTVSPropertyOp62
 70
     1
  0
XRECORD
  5
2391
102
{ACAD_REACTORS
330
2390
102
}
330
2390
100
AcDbXrecord
280
     1
102
RTVSPost2010Prop28
280
     0
102
RTVSPost2010PropOp28
 70
     1
102
RTVSPost2010Prop29
280
     1
102
RTVSPost2010PropOp29
 70
     1
102
RTVSPost2010Prop30
280
     1
102
RTVSPost2010PropOp30
 70
     1
102
RTVSPost2010Prop31
280
     0
102
RTVSPost2010PropOp31
 70
     1
102
RTVSPost2010Prop32
280
     0
102
RTVSPost2010PropOp32
 70
     1
102
RTVSPost2010Prop33
280
     0
102
RTVSPost2010PropOp33
 70
     1
102
RTVSPost2010Prop34
280
     0
102
RTVSPost2010PropOp34
 70
     1
102
RTVSPost2010Prop35
280
     0
102
RTVSPost2010PropOp35
 70
     1
102
RTVSPost2010Prop36
280
     0
102
RTVSPost2010PropOp36
 70
     1
102
RTVSPost2010Prop37
 90
       50
102
RTVSPost2010PropOp37
 70
     1
102
RTVSPost2010Prop38
140
0.0
102
RTVSPost2010PropOp38
 70
     1
102
RTVSPost2010Prop39
140
1.0
102
RTVSPost2010PropOp39
 70
     1
102
RTVSPost2010Prop40
 90
        0
102
RTVSPost2010PropOp40
 70
     1
102
RTVSPost2010Prop41ColorIndex
 90
       18
102
RTVSPost2010Prop41ColorRGB
 90
        0
102
RTVSPost2010PropOp41
 70
     1
102
RTVSPost2010Prop42
 90
       50
102
RTVSPost2010PropOp42
 70
     1
102
RTVSPost2010Prop43
 90
        3
102
RTVSPost2010PropOp43
 70
     1
102
RTVSPost2010Prop44ColorIndex
 90
        5
102
RTVSPost2010Prop44ColorRGB
 90
      255
102
RTVSPost2010PropOp44
 70
     1
102
RTVSPost2010Prop45
280
     0
102
RTVSPost2010PropOp45
 70
     1
102
RTVSPost2010Prop46
 90
       50
102
RTVSPost2010PropOp46
 70
     1
102
RTVSPost2010Prop47
 90
       50
102
RTVSPost2010PropOp47
 70
     1
102
RTVSPost2010Prop48
 90
       50
102
RTVSPost2010PropOp48
 70
     1
102
RTVSPost2010Prop49
280
     0
102
RTVSPost2010PropOp49
 70
     1
102
RTVSPost2010Prop50
 90
       50
102
RTVSPost2010PropOp50
 70
     1
102
RTVSPost2010Prop51ColorIndex
 90
      256
102
RTVSPost2010Prop51ColorRGB
 90
-16777216
102
RTVSPost2010PropOp51
 70
     0
102
RTVSPost2010Prop52
140
1.0
102
RTVSPost2010PropOp52
 70
     0
102
RTVSPost2010Prop53
 90
        2
102
RTVSPost2010PropOp53
 70
     1
102
RTVSPost2010Prop54
  1
strokes_ogs.tif
102
RTVSPost2010PropOp54
 70
     1
102
RTVSPost2010Prop55
280
     0
102
RTVSPost2010PropOp55
 70
     1
102
RTVSPost2010Prop56
140
1.0
102
RTVSPost2010PropOp56
 70
     1
102
RTVSPost2010Prop57
140
1.0
102
RTVSPost2010PropOp57
 70
     1
102
RTVSPropertyOp0
 70
     1
102
RTVSPropertyOp1
 70
     1
102
RTVSPropertyOp2
 70
     1
102
RTVSPropertyOp3
 70
     1
102
RTVSPropertyOp4
 70
     1
102
RTVSPropertyOp5
 70
     1
102
RTVSPropertyOp6
 70
     1
102
RTVSPropertyOp7
 70
     1
102
RTVSPropertyOp8
 70
     1
102
RTVSPropertyOp9
 70
     1
102
RTVSPropertyOp10
 70
     1
102
RTVSPropertyOp11
 70
     1
102
RTVSPropertyOp12
 70
     1
102
RTVSPropertyOp13
 70
     1
102
RTVSPropertyOp14
 70
     1
102
RTVSPropertyOp15
 70
     1
102
RTVSPropertyOp16
 70
     1
102
RTVSPropertyOp17
 70
     1
102
RTVSPropertyOp18
 70
     1
102
RTVSPropertyOp19
 70
     1
102
RTVSPropertyOp20
 70
     1
102
RTVSPropertyOp21
 70
     1
102
RTVSPropertyOp22
 70
     1
102
RTVSPropertyOp23
 70
     1
102
RTVSPropertyOp24
 70
     1
102
RTVSPropertyOp25
 70
     1
102
RTVSPropertyOp26
 70
     1
102
RTVSPropertyOp27
 70
     1
102
RTVSPropertyOp28
 70
     1
102
RTVSPropertyOp29
 70
     1
102
RTVSPropertyOp30
 70
     1
102
RTVSPropertyOp31
 70
     1
102
RTVSPropertyOp32
 70
     1
102
RTVSPropertyOp33
 70
     1
102
RTVSPropertyOp34
 70
     1
102
RTVSPropertyOp35
 70
     1
102
RTVSPropertyOp36
 70
     1
102
RTVSPropertyOp37
 70
     1
102
RTVSPropertyOp38
 70
     1
102
RTVSPropertyOp39
 70
     1
102
RTVSPropertyOp40
 70
     1
102
RTVSPropertyOp41
 70
     1
102
RTVSPropertyOp42
 70
     1
102
RTVSPropertyOp43
 70
     1
102
RTVSPropertyOp44
 70
     1
102
RTVSPropertyOp45
 70
     1
102
RTVSPropertyOp46
 70
     1
102
RTVSPropertyOp47
 70
     1
102
RTVSPropertyOp48
 70
     1
102
RTVSPropertyOp49
 70
     1
102
RTVSPropertyOp50
 70
     1
102
RTVSPropertyOp51
 70
     0
102
RTVSPropertyOp52
 70
     0
102
RTVSPropertyOp53
 70
     1
102
RTVSPropertyOp54
 70
     1
102
RTVSPropertyOp55
 70
     1
102
RTVSPropertyOp56
 70
     1
102
RTVSPropertyOp57
 70
     1
102
RTVSPropertyOp58
 70
     1
102
RTVSPropertyOp59
 70
     1
102
RTVSPropertyOp60
 70
     1
102
RTVSPropertyOp61
 70
     1
102
RTVSPropertyOp62
 70
     1
  0
XRECORD
  5
2393
102
{ACAD_REACTORS
330
2392
102
}
330
2392
100
AcDbXrecord
280
     1
102
RTVSPost2010Prop28
280
     0
102
RTVSPost2010PropOp28
 70
     1
102
RTVSPost2010Prop29
280
     1
102
RTVSPost2010PropOp29
 70
     1
102
RTVSPost2010Prop30
280
     1
102
RTVSPost2010PropOp30
 70
     1
102
RTVSPost2010Prop31
280
     0
102
RTVSPost2010PropOp31
 70
     1
102
RTVSPost2010Prop32
280
     0
102
RTVSPost2010PropOp32
 70
     1
102
RTVSPost2010Prop33
280
     0
102
RTVSPost2010PropOp33
 70
     1
102
RTVSPost2010Prop34
280
     0
102
RTVSPost2010PropOp34
 70
     1
102
RTVSPost2010Prop35
280
     0
102
RTVSPost2010PropOp35
 70
     1
102
RTVSPost2010Prop36
280
     0
102
RTVSPost2010PropOp36
 70
     1
102
RTVSPost2010Prop37
 90
       50
102
RTVSPost2010PropOp37
 70
     1
102
RTVSPost2010Prop38
140
0.0
102
RTVSPost2010PropOp38
 70
     1
102
RTVSPost2010Prop39
140
1.0
102
RTVSPost2010PropOp39
 70
     1
102
RTVSPost2010Prop40
 90
        0
102
RTVSPost2010PropOp40
 70
     1
102
RTVSPost2010Prop41ColorIndex
 90
       18
102
RTVSPost2010Prop41ColorRGB
 90
        0
102
RTVSPost2010PropOp41
 70
     1
102
RTVSPost2010Prop42
 90
       50
102
RTVSPost2010PropOp42
 70
     1
102
RTVSPost2010Prop43
 90
        3
102
RTVSPost2010PropOp43
 70
     1
102
RTVSPost2010Prop44ColorIndex
 90
        5
102
RTVSPost2010Prop44ColorRGB
 90
      255
102
RTVSPost2010PropOp44
 70
     1
102
RTVSPost2010Prop45
280
     0
102
RTVSPost2010PropOp45
 70
     1
102
RTVSPost2010Prop46
 90
       50
102
RTVSPost2010PropOp46
 70
     1
102
RTVSPost2010Prop47
 90
       50
102
RTVSPost2010PropOp47
 70
     1
102
RTVSPost2010Prop48
 90
       50
102
RTVSPost2010PropOp48
 70
     1
102
RTVSPost2010Prop49
280
     0
102
RTVSPost2010PropOp49
 70
     1
102
RTVSPost2010Prop50
 90
       50
102
RTVSPost2010PropOp50
 70
     1
102
RTVSPost2010Prop51ColorIndex
 90
      256
102
RTVSPost2010Prop51ColorRGB
 90
-16777216
102
RTVSPost2010PropOp51
 70
     0
102
RTVSPost2010Prop52
140
1.0
102
RTVSPost2010PropOp52
 70
     0
102
RTVSPost2010Prop53
 90
        2
102
RTVSPost2010PropOp53
 70
     1
102
RTVSPost2010Prop54
  1
strokes_ogs.tif
102
RTVSPost2010PropOp54
 70
     1
102
RTVSPost2010Prop55
280
     0
102
RTVSPost2010PropOp55
 70
     1
102
RTVSPost2010Prop56
140
1.0
102
RTVSPost2010PropOp56
 70
     1
102
RTVSPost2010Prop57
140
1.0
102
RTVSPost2010PropOp57
 70
     1
102
RTVSPropertyOp0
 70
     1
102
RTVSPropertyOp1
 70
     1
102
RTVSPropertyOp2
 70
     1
102
RTVSPropertyOp3
 70
     1
102
RTVSPropertyOp4
 70
     1
102
RTVSPropertyOp5
 70
     1
102
RTVSPropertyOp6
 70
     1
102
RTVSPropertyOp7
 70
     1
102
RTVSPropertyOp8
 70
     1
102
RTVSPropertyOp9
 70
     1
102
RTVSPropertyOp10
 70
     1
102
RTVSPropertyOp11
 70
     1
102
RTVSPropertyOp12
 70
     1
102
RTVSPropertyOp13
 70
     1
102
RTVSPropertyOp14
 70
     1
102
RTVSPropertyOp15
 70
     1
102
RTVSPropertyOp16
 70
     1
102
RTVSPropertyOp17
 70
     1
102
RTVSPropertyOp18
 70
     1
102
RTVSPropertyOp19
 70
     1
102
RTVSPropertyOp20
 70
     1
102
RTVSPropertyOp21
 70
     1
102
RTVSPropertyOp22
 70
     1
102
RTVSPropertyOp23
 70
     1
102
RTVSPropertyOp24
 70
     1
102
RTVSPropertyOp25
 70
     1
102
RTVSPropertyOp26
 70
     1
102
RTVSPropertyOp27
 70
     1
102
RTVSPropertyOp28
 70
     1
102
RTVSPropertyOp29
 70
     1
102
RTVSPropertyOp30
 70
     1
102
RTVSPropertyOp31
 70
     1
102
RTVSPropertyOp32
 70
     1
102
RTVSPropertyOp33
 70
     1
102
RTVSPropertyOp34
 70
     1
102
RTVSPropertyOp35
 70
     1
102
RTVSPropertyOp36
 70
     1
102
RTVSPropertyOp37
 70
     1
102
RTVSPropertyOp38
 70
     1
102
RTVSPropertyOp39
 70
     1
102
RTVSPropertyOp40
 70
     1
102
RTVSPropertyOp41
 70
     1
102
RTVSPropertyOp42
 70
     1
102
RTVSPropertyOp43
 70
     1
102
RTVSPropertyOp44
 70
     1
102
RTVSPropertyOp45
 70
     1
102
RTVSPropertyOp46
 70
     1
102
RTVSPropertyOp47
 70
     1
102
RTVSPropertyOp48
 70
     1
102
RTVSPropertyOp49
 70
     1
102
RTVSPropertyOp50
 70
     1
102
RTVSPropertyOp51
 70
     0
102
RTVSPropertyOp52
 70
     0
102
RTVSPropertyOp53
 70
     1
102
RTVSPropertyOp54
 70
     1
102
RTVSPropertyOp55
 70
     1
102
RTVSPropertyOp56
 70
     1
102
RTVSPropertyOp57
 70
     1
102
RTVSPropertyOp58
 70
     1
102
RTVSPropertyOp59
 70
     1
102
RTVSPropertyOp60
 70
     1
102
RTVSPropertyOp61
 70
     1
102
RTVSPropertyOp62
 70
     1
  0
XRECORD
  5
239B
102
{ACAD_REACTORS
330
239A
102
}
330
239A
100
AcDbXrecord
280
     1
102
RTVSPost2010Prop28
280
     0
102
RTVSPost2010PropOp28
 70
     1
102
RTVSPost2010Prop29
280
     1
102
RTVSPost2010PropOp29
 70
     1
102
RTVSPost2010Prop30
280
     1
102
RTVSPost2010PropOp30
 70
     1
102
RTVSPost2010Prop31
280
     0
102
RTVSPost2010PropOp31
 70
     1
102
RTVSPost2010Prop32
280
     0
102
RTVSPost2010PropOp32
 70
     1
102
RTVSPost2010Prop33
280
     0
102
RTVSPost2010PropOp33
 70
     1
102
RTVSPost2010Prop34
280
     0
102
RTVSPost2010PropOp34
 70
     1
102
RTVSPost2010Prop35
280
     0
102
RTVSPost2010PropOp35
 70
     1
102
RTVSPost2010Prop36
280
     0
102
RTVSPost2010PropOp36
 70
     1
102
RTVSPost2010Prop37
 90
       50
102
RTVSPost2010PropOp37
 70
     1
102
RTVSPost2010Prop38
140
0.0
102
RTVSPost2010PropOp38
 70
     1
102
RTVSPost2010Prop39
140
1.0
102
RTVSPost2010PropOp39
 70
     1
102
RTVSPost2010Prop40
 90
        0
102
RTVSPost2010PropOp40
 70
     1
102
RTVSPost2010Prop41ColorIndex
 90
       18
102
RTVSPost2010Prop41ColorRGB
 90
        0
102
RTVSPost2010PropOp41
 70
     1
102
RTVSPost2010Prop42
 90
       50
102
RTVSPost2010PropOp42
 70
     1
102
RTVSPost2010Prop43
 90
        3
102
RTVSPost2010PropOp43
 70
     1
102
RTVSPost2010Prop44ColorIndex
 90
        5
102
RTVSPost2010Prop44ColorRGB
 90
      255
102
RTVSPost2010PropOp44
 70
     1
102
RTVSPost2010Prop45
280
     0
102
RTVSPost2010PropOp45
 70
     1
102
RTVSPost2010Prop46
 90
       50
102
RTVSPost2010PropOp46
 70
     1
102
RTVSPost2010Prop47
 90
       50
102
RTVSPost2010PropOp47
 70
     1
102
RTVSPost2010Prop48
 90
       50
102
RTVSPost2010PropOp48
 70
     1
102
RTVSPost2010Prop49
280
     0
102
RTVSPost2010PropOp49
 70
     1
102
RTVSPost2010Prop50
 90
       50
102
RTVSPost2010PropOp50
 70
     1
102
RTVSPost2010Prop51ColorIndex
 90
      256
102
RTVSPost2010Prop51ColorRGB
 90
-16777216
102
RTVSPost2010PropOp51
 70
     0
102
RTVSPost2010Prop52
140
1.0
102
RTVSPost2010PropOp52
 70
     0
102
RTVSPost2010Prop53
 90
        2
102
RTVSPost2010PropOp53
 70
     1
102
RTVSPost2010Prop54
  1
strokes_ogs.tif
102
RTVSPost2010PropOp54
 70
     1
102
RTVSPost2010Prop55
280
     0
102
RTVSPost2010PropOp55
 70
     1
102
RTVSPost2010Prop56
140
1.0
102
RTVSPost2010PropOp56
 70
     1
102
RTVSPost2010Prop57
140
1.0
102
RTVSPost2010PropOp57
 70
     1
102
RTVSPropertyOp0
 70
     1
102
RTVSPropertyOp1
 70
     1
102
RTVSPropertyOp2
 70
     1
102
RTVSPropertyOp3
 70
     1
102
RTVSPropertyOp4
 70
     1
102
RTVSPropertyOp5
 70
     1
102
RTVSPropertyOp6
 70
     1
102
RTVSPropertyOp7
 70
     1
102
RTVSPropertyOp8
 70
     1
102
RTVSPropertyOp9
 70
     1
102
RTVSPropertyOp10
 70
     1
102
RTVSPropertyOp11
 70
     1
102
RTVSPropertyOp12
 70
     1
102
RTVSPropertyOp13
 70
     1
102
RTVSPropertyOp14
 70
     1
102
RTVSPropertyOp15
 70
     1
102
RTVSPropertyOp16
 70
     1
102
RTVSPropertyOp17
 70
     1
102
RTVSPropertyOp18
 70
     1
102
RTVSPropertyOp19
 70
     1
102
RTVSPropertyOp20
 70
     1
102
RTVSPropertyOp21
 70
     1
102
RTVSPropertyOp22
 70
     1
102
RTVSPropertyOp23
 70
     1
102
RTVSPropertyOp24
 70
     1
102
RTVSPropertyOp25
 70
     1
102
RTVSPropertyOp26
 70
     1
102
RTVSPropertyOp27
 70
     1
102
RTVSPropertyOp28
 70
     1
102
RTVSPropertyOp29
 70
     1
102
RTVSPropertyOp30
 70
     1
102
RTVSPropertyOp31
 70
     1
102
RTVSPropertyOp32
 70
     1
102
RTVSPropertyOp33
 70
     1
102
RTVSPropertyOp34
 70
     1
102
RTVSPropertyOp35
 70
     1
102
RTVSPropertyOp36
 70
     1
102
RTVSPropertyOp37
 70
     1
102
RTVSPropertyOp38
 70
     1
102
RTVSPropertyOp39
 70
     1
102
RTVSPropertyOp40
 70
     1
102
RTVSPropertyOp41
 70
     1
102
RTVSPropertyOp42
 70
     1
102
RTVSPropertyOp43
 70
     1
102
RTVSPropertyOp44
 70
     1
102
RTVSPropertyOp45
 70
     1
102
RTVSPropertyOp46
 70
     1
102
RTVSPropertyOp47
 70
     1
102
RTVSPropertyOp48
 70
     1
102
RTVSPropertyOp49
 70
     1
102
RTVSPropertyOp50
 70
     1
102
RTVSPropertyOp51
 70
     0
102
RTVSPropertyOp52
 70
     0
102
RTVSPropertyOp53
 70
     1
102
RTVSPropertyOp54
 70
     1
102
RTVSPropertyOp55
 70
     1
102
RTVSPropertyOp56
 70
     1
102
RTVSPropertyOp57
 70
     1
102
RTVSPropertyOp58
 70
     1
102
RTVSPropertyOp59
 70
     1
102
RTVSPropertyOp60
 70
     1
102
RTVSPropertyOp61
 70
     1
102
RTVSPropertyOp62
 70
     1
  0
XRECORD
  5
23B7
102
{ACAD_REACTORS
330
23B6
102
}
330
23B6
100
AcDbXrecord
280
     1
102
RTVSPost2010Prop28
280
     0
102
RTVSPost2010PropOp28
 70
     1
102
RTVSPost2010Prop29
280
     1
102
RTVSPost2010PropOp29
 70
     1
102
RTVSPost2010Prop30
280
     1
102
RTVSPost2010PropOp30
 70
     1
102
RTVSPost2010Prop31
280
     0
102
RTVSPost2010PropOp31
 70
     1
102
RTVSPost2010Prop32
280
     0
102
RTVSPost2010PropOp32
 70
     1
102
RTVSPost2010Prop33
280
     0
102
RTVSPost2010PropOp33
 70
     1
102
RTVSPost2010Prop34
280
     0
102
RTVSPost2010PropOp34
 70
     1
102
RTVSPost2010Prop35
280
     0
102
RTVSPost2010PropOp35
 70
     1
102
RTVSPost2010Prop36
280
     0
102
RTVSPost2010PropOp36
 70
     1
102
RTVSPost2010Prop37
 90
       50
102
RTVSPost2010PropOp37
 70
     0
102
RTVSPost2010Prop38
140
0.0
102
RTVSPost2010PropOp38
 70
     0
102
RTVSPost2010Prop39
140
1.0
102
RTVSPost2010PropOp39
 70
     0
102
RTVSPost2010Prop40
 90
        0
102
RTVSPost2010PropOp40
 70
     0
102
RTVSPost2010Prop41ColorIndex
 90
       18
102
RTVSPost2010Prop41ColorRGB
 90
        0
102
RTVSPost2010PropOp41
 70
     0
102
RTVSPost2010Prop42
 90
       50
102
RTVSPost2010PropOp42
 70
     0
102
RTVSPost2010Prop43
 90
        3
102
RTVSPost2010PropOp43
 70
     0
102
RTVSPost2010Prop44ColorIndex
 90
        5
102
RTVSPost2010Prop44ColorRGB
 90
      255
102
RTVSPost2010PropOp44
 70
     0
102
RTVSPost2010Prop45
280
     0
102
RTVSPost2010PropOp45
 70
     1
102
RTVSPost2010Prop46
 90
       50
102
RTVSPost2010PropOp46
 70
     0
102
RTVSPost2010Prop47
 90
       50
102
RTVSPost2010PropOp47
 70
     0
102
RTVSPost2010Prop48
 90
       50
102
RTVSPost2010PropOp48
 70
     0
102
RTVSPost2010Prop49
280
     0
102
RTVSPost2010PropOp49
 70
     1
102
RTVSPost2010Prop50
 90
       50
102
RTVSPost2010PropOp50
 70
     0
102
RTVSPost2010Prop51ColorIndex
 90
      256
102
RTVSPost2010Prop51ColorRGB
 90
-16777216
102
RTVSPost2010PropOp51
 70
     0
102
RTVSPost2010Prop52
140
1.0
102
RTVSPost2010PropOp52
 70
     0
102
RTVSPost2010Prop53
 90
        2
102
RTVSPost2010PropOp53
 70
     0
102
RTVSPost2010Prop54
  1
strokes_ogs.tif
102
RTVSPost2010PropOp54
 70
     0
102
RTVSPost2010Prop55
280
     0
102
RTVSPost2010PropOp55
 70
     1
102
RTVSPost2010Prop56
140
1.0
102
RTVSPost2010PropOp56
 70
     0
102
RTVSPost2010Prop57
140
1.0
102
RTVSPost2010PropOp57
 70
     0
102
RTVSPropertyOp0
 70
     0
102
RTVSPropertyOp1
 70
     0
102
RTVSPropertyOp2
 70
     0
102
RTVSPropertyOp3
 70
     0
102
RTVSPropertyOp4
 70
     0
102
RTVSPropertyOp5
 70
     0
102
RTVSPropertyOp6
 70
     0
102
RTVSPropertyOp7
 70
     0
102
RTVSPropertyOp8
 70
     0
102
RTVSPropertyOp9
 70
     0
102
RTVSPropertyOp10
 70
     0
102
RTVSPropertyOp11
 70
     0
102
RTVSPropertyOp12
 70
     0
102
RTVSPropertyOp13
 70
     0
102
RTVSPropertyOp14
 70
     2
102
RTVSPropertyOp15
 70
     0
102
RTVSPropertyOp16
 70
     0
102
RTVSPropertyOp17
 70
     0
102
RTVSPropertyOp18
 70
     0
102
RTVSPropertyOp19
 70
     0
102
RTVSPropertyOp20
 70
     0
102
RTVSPropertyOp21
 70
     0
102
RTVSPropertyOp22
 70
     0
102
RTVSPropertyOp23
 70
     0
102
RTVSPropertyOp24
 70
     0
102
RTVSPropertyOp25
 70
     0
102
RTVSPropertyOp26
 70
     0
102
RTVSPropertyOp27
 70
     0
102
RTVSPropertyOp28
 70
     1
102
RTVSPropertyOp29
 70
     1
102
RTVSPropertyOp30
 70
     1
102
RTVSPropertyOp31
 70
     1
102
RTVSPropertyOp32
 70
     1
102
RTVSPropertyOp33
 70
     1
102
RTVSPropertyOp34
 70
     1
102
RTVSPropertyOp35
 70
     1
102
RTVSPropertyOp36
 70
     1
102
RTVSPropertyOp37
 70
     0
102
RTVSPropertyOp38
 70
     0
102
RTVSPropertyOp39
 70
     0
102
RTVSPropertyOp40
 70
     0
102
RTVSPropertyOp41
 70
     0
102
RTVSPropertyOp42
 70
     0
102
RTVSPropertyOp43
 70
     0
102
RTVSPropertyOp44
 70
     0
102
RTVSPropertyOp45
 70
     1
102
RTVSPropertyOp46
 70
     0
102
RTVSPropertyOp47
 70
     0
102
RTVSPropertyOp48
 70
     0
102
RTVSPropertyOp49
 70
     1
102
RTVSPropertyOp50
 70
     0
102
RTVSPropertyOp51
 70
     0
102
RTVSPropertyOp52
 70
     0
102
RTVSPropertyOp53
 70
     0
102
RTVSPropertyOp54
 70
     0
102
RTVSPropertyOp55
 70
     1
102
RTVSPropertyOp56
 70
     0
102
RTVSPropertyOp57
 70
     0
102
RTVSPropertyOp58
 70
     0
102
RTVSPropertyOp59
 70
     0
102
RTVSPropertyOp60
 70
     0
102
RTVSPropertyOp61
 70
     0
102
RTVSPropertyOp62
 70
     0
  0
XRECORD
  5
23A7
102
{ACAD_REACTORS
330
23A6
102
}
330
23A6
100
AcDbXrecord
280
     1
102
RTVSPost2010Prop28
280
     0
102
RTVSPost2010PropOp28
 70
     1
102
RTVSPost2010Prop29
280
     1
102
RTVSPost2010PropOp29
 70
     1
102
RTVSPost2010Prop30
280
     1
102
RTVSPost2010PropOp30
 70
     1
102
RTVSPost2010Prop31
280
     0
102
RTVSPost2010PropOp31
 70
     1
102
RTVSPost2010Prop32
280
     0
102
RTVSPost2010PropOp32
 70
     1
102
RTVSPost2010Prop33
280
     0
102
RTVSPost2010PropOp33
 70
     1
102
RTVSPost2010Prop34
280
     0
102
RTVSPost2010PropOp34
 70
     1
102
RTVSPost2010Prop35
280
     0
102
RTVSPost2010PropOp35
 70
     1
102
RTVSPost2010Prop36
280
     0
102
RTVSPost2010PropOp36
 70
     1
102
RTVSPost2010Prop37
 90
       50
102
RTVSPost2010PropOp37
 70
     1
102
RTVSPost2010Prop38
140
0.0
102
RTVSPost2010PropOp38
 70
     1
102
RTVSPost2010Prop39
140
1.0
102
RTVSPost2010PropOp39
 70
     1
102
RTVSPost2010Prop40
 90
        0
102
RTVSPost2010PropOp40
 70
     1
102
RTVSPost2010Prop41ColorIndex
 90
       18
102
RTVSPost2010Prop41ColorRGB
 90
        0
102
RTVSPost2010PropOp41
 70
     1
102
RTVSPost2010Prop42
 90
       50
102
RTVSPost2010PropOp42
 70
     1
102
RTVSPost2010Prop43
 90
        3
102
RTVSPost2010PropOp43
 70
     1
102
RTVSPost2010Prop44ColorIndex
 90
        5
102
RTVSPost2010Prop44ColorRGB
 90
      255
102
RTVSPost2010PropOp44
 70
     1
102
RTVSPost2010Prop45
280
     0
102
RTVSPost2010PropOp45
 70
     1
102
RTVSPost2010Prop46
 90
       50
102
RTVSPost2010PropOp46
 70
     1
102
RTVSPost2010Prop47
 90
       50
102
RTVSPost2010PropOp47
 70
     1
102
RTVSPost2010Prop48
 90
       50
102
RTVSPost2010PropOp48
 70
     1
102
RTVSPost2010Prop49
280
     0
102
RTVSPost2010PropOp49
 70
     1
102
RTVSPost2010Prop50
 90
       50
102
RTVSPost2010PropOp50
 70
     1
102
RTVSPost2010Prop51ColorIndex
 90
      256
102
RTVSPost2010Prop51ColorRGB
 90
-16777216
102
RTVSPost2010PropOp51
 70
     0
102
RTVSPost2010Prop52
140
1.0
102
RTVSPost2010PropOp52
 70
     0
102
RTVSPost2010Prop53
 90
        2
102
RTVSPost2010PropOp53
 70
     1
102
RTVSPost2010Prop54
  1
strokes_ogs.tif
102
RTVSPost2010PropOp54
 70
     1
102
RTVSPost2010Prop55
280
     0
102
RTVSPost2010PropOp55
 70
     1
102
RTVSPost2010Prop56
140
1.0
102
RTVSPost2010PropOp56
 70
     1
102
RTVSPost2010Prop57
140
1.0
102
RTVSPost2010PropOp57
 70
     1
102
RTVSPropertyOp0
 70
     1
102
RTVSPropertyOp1
 70
     1
102
RTVSPropertyOp2
 70
     1
102
RTVSPropertyOp3
 70
     1
102
RTVSPropertyOp4
 70
     1
102
RTVSPropertyOp5
 70
     1
102
RTVSPropertyOp6
 70
     1
102
RTVSPropertyOp7
 70
     1
102
RTVSPropertyOp8
 70
     1
102
RTVSPropertyOp9
 70
     1
102
RTVSPropertyOp10
 70
     1
102
RTVSPropertyOp11
 70
     1
102
RTVSPropertyOp12
 70
     1
102
RTVSPropertyOp13
 70
     1
102
RTVSPropertyOp14
 70
     1
102
RTVSPropertyOp15
 70
     1
102
RTVSPropertyOp16
 70
     1
102
RTVSPropertyOp17
 70
     1
102
RTVSPropertyOp18
 70
     1
102
RTVSPropertyOp19
 70
     1
102
RTVSPropertyOp20
 70
     1
102
RTVSPropertyOp21
 70
     1
102
RTVSPropertyOp22
 70
     1
102
RTVSPropertyOp23
 70
     1
102
RTVSPropertyOp24
 70
     1
102
RTVSPropertyOp25
 70
     1
102
RTVSPropertyOp26
 70
     1
102
RTVSPropertyOp27
 70
     1
102
RTVSPropertyOp28
 70
     1
102
RTVSPropertyOp29
 70
     1
102
RTVSPropertyOp30
 70
     1
102
RTVSPropertyOp31
 70
     1
102
RTVSPropertyOp32
 70
     1
102
RTVSPropertyOp33
 70
     1
102
RTVSPropertyOp34
 70
     1
102
RTVSPropertyOp35
 70
     1
102
RTVSPropertyOp36
 70
     1
102
RTVSPropertyOp37
 70
     1
102
RTVSPropertyOp38
 70
     1
102
RTVSPropertyOp39
 70
     1
102
RTVSPropertyOp40
 70
     1
102
RTVSPropertyOp41
 70
     1
102
RTVSPropertyOp42
 70
     1
102
RTVSPropertyOp43
 70
     1
102
RTVSPropertyOp44
 70
     1
102
RTVSPropertyOp45
 70
     1
102
RTVSPropertyOp46
 70
     1
102
RTVSPropertyOp47
 70
     1
102
RTVSPropertyOp48
 70
     1
102
RTVSPropertyOp49
 70
     1
102
RTVSPropertyOp50
 70
     1
102
RTVSPropertyOp51
 70
     0
102
RTVSPropertyOp52
 70
     0
102
RTVSPropertyOp53
 70
     1
102
RTVSPropertyOp54
 70
     1
102
RTVSPropertyOp55
 70
     1
102
RTVSPropertyOp56
 70
     1
102
RTVSPropertyOp57
 70
     1
102
RTVSPropertyOp58
 70
     1
102
RTVSPropertyOp59
 70
     1
102
RTVSPropertyOp60
 70
     1
102
RTVSPropertyOp61
 70
     1
102
RTVSPropertyOp62
 70
     1
  0
XRECORD
  5
23B9
102
{ACAD_REACTORS
330
23B8
102
}
330
23B8
100
AcDbXrecord
280
     1
102
RTVSPost2010Prop28
280
     0
102
RTVSPost2010PropOp28
 70
     1
102
RTVSPost2010Prop29
280
     1
102
RTVSPost2010PropOp29
 70
     1
102
RTVSPost2010Prop30
280
     1
102
RTVSPost2010PropOp30
 70
     1
102
RTVSPost2010Prop31
280
     0
102
RTVSPost2010PropOp31
 70
     1
102
RTVSPost2010Prop32
280
     0
102
RTVSPost2010PropOp32
 70
     1
102
RTVSPost2010Prop33
280
     0
102
RTVSPost2010PropOp33
 70
     1
102
RTVSPost2010Prop34
280
     0
102
RTVSPost2010PropOp34
 70
     1
102
RTVSPost2010Prop35
280
     0
102
RTVSPost2010PropOp35
 70
     1
102
RTVSPost2010Prop36
280
     0
102
RTVSPost2010PropOp36
 70
     1
102
RTVSPost2010Prop37
 90
       50
102
RTVSPost2010PropOp37
 70
     0
102
RTVSPost2010Prop38
140
0.0
102
RTVSPost2010PropOp38
 70
     0
102
RTVSPost2010Prop39
140
1.0
102
RTVSPost2010PropOp39
 70
     0
102
RTVSPost2010Prop40
 90
        0
102
RTVSPost2010PropOp40
 70
     0
102
RTVSPost2010Prop41ColorIndex
 90
       18
102
RTVSPost2010Prop41ColorRGB
 90
        0
102
RTVSPost2010PropOp41
 70
     0
102
RTVSPost2010Prop42
 90
       50
102
RTVSPost2010PropOp42
 70
     0
102
RTVSPost2010Prop43
 90
        3
102
RTVSPost2010PropOp43
 70
     0
102
RTVSPost2010Prop44ColorIndex
 90
        5
102
RTVSPost2010Prop44ColorRGB
 90
      255
102
RTVSPost2010PropOp44
 70
     0
102
RTVSPost2010Prop45
280
     0
102
RTVSPost2010PropOp45
 70
     1
102
RTVSPost2010Prop46
 90
       50
102
RTVSPost2010PropOp46
 70
     0
102
RTVSPost2010Prop47
 90
       50
102
RTVSPost2010PropOp47
 70
     0
102
RTVSPost2010Prop48
 90
       50
102
RTVSPost2010PropOp48
 70
     0
102
RTVSPost2010Prop49
280
     0
102
RTVSPost2010PropOp49
 70
     1
102
RTVSPost2010Prop50
 90
       50
102
RTVSPost2010PropOp50
 70
     0
102
RTVSPost2010Prop51ColorIndex
 90
      256
102
RTVSPost2010Prop51ColorRGB
 90
-16777216
102
RTVSPost2010PropOp51
 70
     0
102
RTVSPost2010Prop52
140
1.0
102
RTVSPost2010PropOp52
 70
     0
102
RTVSPost2010Prop53
 90
        2
102
RTVSPost2010PropOp53
 70
     0
102
RTVSPost2010Prop54
  1
strokes_ogs.tif
102
RTVSPost2010PropOp54
 70
     0
102
RTVSPost2010Prop55
280
     0
102
RTVSPost2010PropOp55
 70
     1
102
RTVSPost2010Prop56
140
1.0
102
RTVSPost2010PropOp56
 70
     0
102
RTVSPost2010Prop57
140
1.0
102
RTVSPost2010PropOp57
 70
     0
102
RTVSPropertyOp0
 70
     0
102
RTVSPropertyOp1
 70
     0
102
RTVSPropertyOp2
 70
     0
102
RTVSPropertyOp3
 70
     0
102
RTVSPropertyOp4
 70
     0
102
RTVSPropertyOp5
 70
     0
102
RTVSPropertyOp6
 70
     0
102
RTVSPropertyOp7
 70
     0
102
RTVSPropertyOp8
 70
     0
102
RTVSPropertyOp9
 70
     0
102
RTVSPropertyOp10
 70
     0
102
RTVSPropertyOp11
 70
     0
102
RTVSPropertyOp12
 70
     0
102
RTVSPropertyOp13
 70
     0
102
RTVSPropertyOp14
 70
     2
102
RTVSPropertyOp15
 70
     0
102
RTVSPropertyOp16
 70
     0
102
RTVSPropertyOp17
 70
     0
102
RTVSPropertyOp18
 70
     0
102
RTVSPropertyOp19
 70
     0
102
RTVSPropertyOp20
 70
     0
102
RTVSPropertyOp21
 70
     0
102
RTVSPropertyOp22
 70
     0
102
RTVSPropertyOp23
 70
     0
102
RTVSPropertyOp24
 70
     0
102
RTVSPropertyOp25
 70
     0
102
RTVSPropertyOp26
 70
     0
102
RTVSPropertyOp27
 70
     0
102
RTVSPropertyOp28
 70
     1
102
RTVSPropertyOp29
 70
     1
102
RTVSPropertyOp30
 70
     1
102
RTVSPropertyOp31
 70
     1
102
RTVSPropertyOp32
 70
     1
102
RTVSPropertyOp33
 70
     1
102
RTVSPropertyOp34
 70
     1
102
RTVSPropertyOp35
 70
     1
102
RTVSPropertyOp36
 70
     1
102
RTVSPropertyOp37
 70
     0
102
RTVSPropertyOp38
 70
     0
102
RTVSPropertyOp39
 70
     0
102
RTVSPropertyOp40
 70
     0
102
RTVSPropertyOp41
 70
     0
102
RTVSPropertyOp42
 70
     0
102
RTVSPropertyOp43
 70
     0
102
RTVSPropertyOp44
 70
     0
102
RTVSPropertyOp45
 70
     1
102
RTVSPropertyOp46
 70
     0
102
RTVSPropertyOp47
 70
     0
102
RTVSPropertyOp48
 70
     0
102
RTVSPropertyOp49
 70
     1
102
RTVSPropertyOp50
 70
     0
102
RTVSPropertyOp51
 70
     0
102
RTVSPropertyOp52
 70
     0
102
RTVSPropertyOp53
 70
     0
102
RTVSPropertyOp54
 70
     0
102
RTVSPropertyOp55
 70
     1
102
RTVSPropertyOp56
 70
     0
102
RTVSPropertyOp57
 70
     0
102
RTVSPropertyOp58
 70
     0
102
RTVSPropertyOp59
 70
     0
102
RTVSPropertyOp60
 70
     0
102
RTVSPropertyOp61
 70
     0
102
RTVSPropertyOp62
 70
     0
  0
XRECORD
  5
239F
102
{ACAD_REACTORS
330
239E
102
}
330
239E
100
AcDbXrecord
280
     1
102
RTVSPost2010Prop28
280
     0
102
RTVSPost2010PropOp28
 70
     1
102
RTVSPost2010Prop29
280
     1
102
RTVSPost2010PropOp29
 70
     1
102
RTVSPost2010Prop30
280
     1
102
RTVSPost2010PropOp30
 70
     1
102
RTVSPost2010Prop31
280
     0
102
RTVSPost2010PropOp31
 70
     1
102
RTVSPost2010Prop32
280
     0
102
RTVSPost2010PropOp32
 70
     1
102
RTVSPost2010Prop33
280
     0
102
RTVSPost2010PropOp33
 70
     1
102
RTVSPost2010Prop34
280
     0
102
RTVSPost2010PropOp34
 70
     1
102
RTVSPost2010Prop35
280
     0
102
RTVSPost2010PropOp35
 70
     1
102
RTVSPost2010Prop36
280
     0
102
RTVSPost2010PropOp36
 70
     1
102
RTVSPost2010Prop37
 90
       50
102
RTVSPost2010PropOp37
 70
     1
102
RTVSPost2010Prop38
140
0.0
102
RTVSPost2010PropOp38
 70
     1
102
RTVSPost2010Prop39
140
1.0
102
RTVSPost2010PropOp39
 70
     1
102
RTVSPost2010Prop40
 90
        0
102
RTVSPost2010PropOp40
 70
     1
102
RTVSPost2010Prop41ColorIndex
 90
       18
102
RTVSPost2010Prop41ColorRGB
 90
        0
102
RTVSPost2010PropOp41
 70
     1
102
RTVSPost2010Prop42
 90
       50
102
RTVSPost2010PropOp42
 70
     1
102
RTVSPost2010Prop43
 90
        3
102
RTVSPost2010PropOp43
 70
     1
102
RTVSPost2010Prop44ColorIndex
 90
        5
102
RTVSPost2010Prop44ColorRGB
 90
      255
102
RTVSPost2010PropOp44
 70
     1
102
RTVSPost2010Prop45
280
     0
102
RTVSPost2010PropOp45
 70
     1
102
RTVSPost2010Prop46
 90
       50
102
RTVSPost2010PropOp46
 70
     1
102
RTVSPost2010Prop47
 90
       50
102
RTVSPost2010PropOp47
 70
     1
102
RTVSPost2010Prop48
 90
       50
102
RTVSPost2010PropOp48
 70
     1
102
RTVSPost2010Prop49
280
     0
102
RTVSPost2010PropOp49
 70
     1
102
RTVSPost2010Prop50
 90
       50
102
RTVSPost2010PropOp50
 70
     1
102
RTVSPost2010Prop51ColorIndex
 90
      256
102
RTVSPost2010Prop51ColorRGB
 90
-16777216
102
RTVSPost2010PropOp51
 70
     0
102
RTVSPost2010Prop52
140
1.0
102
RTVSPost2010PropOp52
 70
     0
102
RTVSPost2010Prop53
 90
        2
102
RTVSPost2010PropOp53
 70
     1
102
RTVSPost2010Prop54
  1
strokes_ogs.tif
102
RTVSPost2010PropOp54
 70
     1
102
RTVSPost2010Prop55
280
     0
102
RTVSPost2010PropOp55
 70
     1
102
RTVSPost2010Prop56
140
1.0
102
RTVSPost2010PropOp56
 70
     1
102
RTVSPost2010Prop57
140
1.0
102
RTVSPost2010PropOp57
 70
     1
102
RTVSPropertyOp0
 70
     1
102
RTVSPropertyOp1
 70
     1
102
RTVSPropertyOp2
 70
     1
102
RTVSPropertyOp3
 70
     1
102
RTVSPropertyOp4
 70
     1
102
RTVSPropertyOp5
 70
     1
102
RTVSPropertyOp6
 70
     1
102
RTVSPropertyOp7
 70
     1
102
RTVSPropertyOp8
 70
     1
102
RTVSPropertyOp9
 70
     1
102
RTVSPropertyOp10
 70
     1
102
RTVSPropertyOp11
 70
     1
102
RTVSPropertyOp12
 70
     1
102
RTVSPropertyOp13
 70
     1
102
RTVSPropertyOp14
 70
     1
102
RTVSPropertyOp15
 70
     1
102
RTVSPropertyOp16
 70
     1
102
RTVSPropertyOp17
 70
     1
102
RTVSPropertyOp18
 70
     1
102
RTVSPropertyOp19
 70
     1
102
RTVSPropertyOp20
 70
     1
102
RTVSPropertyOp21
 70
     1
102
RTVSPropertyOp22
 70
     1
102
RTVSPropertyOp23
 70
     1
102
RTVSPropertyOp24
 70
     1
102
RTVSPropertyOp25
 70
     1
102
RTVSPropertyOp26
 70
     1
102
RTVSPropertyOp27
 70
     1
102
RTVSPropertyOp28
 70
     1
102
RTVSPropertyOp29
 70
     1
102
RTVSPropertyOp30
 70
     1
102
RTVSPropertyOp31
 70
     1
102
RTVSPropertyOp32
 70
     1
102
RTVSPropertyOp33
 70
     1
102
RTVSPropertyOp34
 70
     1
102
RTVSPropertyOp35
 70
     1
102
RTVSPropertyOp36
 70
     1
102
RTVSPropertyOp37
 70
     1
102
RTVSPropertyOp38
 70
     1
102
RTVSPropertyOp39
 70
     1
102
RTVSPropertyOp40
 70
     1
102
RTVSPropertyOp41
 70
     1
102
RTVSPropertyOp42
 70
     1
102
RTVSPropertyOp43
 70
     1
102
RTVSPropertyOp44
 70
     1
102
RTVSPropertyOp45
 70
     1
102
RTVSPropertyOp46
 70
     1
102
RTVSPropertyOp47
 70
     1
102
RTVSPropertyOp48
 70
     1
102
RTVSPropertyOp49
 70
     1
102
RTVSPropertyOp50
 70
     1
102
RTVSPropertyOp51
 70
     0
102
RTVSPropertyOp52
 70
     0
102
RTVSPropertyOp53
 70
     1
102
RTVSPropertyOp54
 70
     1
102
RTVSPropertyOp55
 70
     1
102
RTVSPropertyOp56
 70
     1
102
RTVSPropertyOp57
 70
     1
102
RTVSPropertyOp58
 70
     1
102
RTVSPropertyOp59
 70
     1
102
RTVSPropertyOp60
 70
     1
102
RTVSPropertyOp61
 70
     1
102
RTVSPropertyOp62
 70
     1
  0
XRECORD
  5
23B5
102
{ACAD_REACTORS
330
23B4
102
}
330
23B4
100
AcDbXrecord
280
     1
102
RTVSPost2010Prop28
280
     0
102
RTVSPost2010PropOp28
 70
     1
102
RTVSPost2010Prop29
280
     1
102
RTVSPost2010PropOp29
 70
     1
102
RTVSPost2010Prop30
280
     1
102
RTVSPost2010PropOp30
 70
     1
102
RTVSPost2010Prop31
280
     0
102
RTVSPost2010PropOp31
 70
     1
102
RTVSPost2010Prop32
280
     0
102
RTVSPost2010PropOp32
 70
     1
102
RTVSPost2010Prop33
280
     0
102
RTVSPost2010PropOp33
 70
     1
102
RTVSPost2010Prop34
280
     0
102
RTVSPost2010PropOp34
 70
     1
102
RTVSPost2010Prop35
280
     0
102
RTVSPost2010PropOp35
 70
     1
102
RTVSPost2010Prop36
280
     0
102
RTVSPost2010PropOp36
 70
     1
102
RTVSPost2010Prop37
 90
       50
102
RTVSPost2010PropOp37
 70
     1
102
RTVSPost2010Prop38
140
0.0
102
RTVSPost2010PropOp38
 70
     1
102
RTVSPost2010Prop39
140
1.0
102
RTVSPost2010PropOp39
 70
     1
102
RTVSPost2010Prop40
 90
        0
102
RTVSPost2010PropOp40
 70
     1
102
RTVSPost2010Prop41ColorIndex
 90
       18
102
RTVSPost2010Prop41ColorRGB
 90
        0
102
RTVSPost2010PropOp41
 70
     1
102
RTVSPost2010Prop42
 90
       50
102
RTVSPost2010PropOp42
 70
     1
102
RTVSPost2010Prop43
 90
        3
102
RTVSPost2010PropOp43
 70
     1
102
RTVSPost2010Prop44ColorIndex
 90
        5
102
RTVSPost2010Prop44ColorRGB
 90
      255
102
RTVSPost2010PropOp44
 70
     1
102
RTVSPost2010Prop45
280
     0
102
RTVSPost2010PropOp45
 70
     1
102
RTVSPost2010Prop46
 90
       50
102
RTVSPost2010PropOp46
 70
     1
102
RTVSPost2010Prop47
 90
       50
102
RTVSPost2010PropOp47
 70
     1
102
RTVSPost2010Prop48
 90
       50
102
RTVSPost2010PropOp48
 70
     1
102
RTVSPost2010Prop49
280
     0
102
RTVSPost2010PropOp49
 70
     1
102
RTVSPost2010Prop50
 90
       50
102
RTVSPost2010PropOp50
 70
     1
102
RTVSPost2010Prop51ColorIndex
 90
      256
102
RTVSPost2010Prop51ColorRGB
 90
-16777216
102
RTVSPost2010PropOp51
 70
     0
102
RTVSPost2010Prop52
140
1.0
102
RTVSPost2010PropOp52
 70
     0
102
RTVSPost2010Prop53
 90
        2
102
RTVSPost2010PropOp53
 70
     1
102
RTVSPost2010Prop54
  1
strokes_ogs.tif
102
RTVSPost2010PropOp54
 70
     1
102
RTVSPost2010Prop55
280
     0
102
RTVSPost2010PropOp55
 70
     1
102
RTVSPost2010Prop56
140
1.0
102
RTVSPost2010PropOp56
 70
     1
102
RTVSPost2010Prop57
140
1.0
102
RTVSPost2010PropOp57
 70
     1
102
RTVSPropertyOp0
 70
     1
102
RTVSPropertyOp1
 70
     1
102
RTVSPropertyOp2
 70
     1
102
RTVSPropertyOp3
 70
     1
102
RTVSPropertyOp4
 70
     1
102
RTVSPropertyOp5
 70
     1
102
RTVSPropertyOp6
 70
     1
102
RTVSPropertyOp7
 70
     1
102
RTVSPropertyOp8
 70
     1
102
RTVSPropertyOp9
 70
     1
102
RTVSPropertyOp10
 70
     1
102
RTVSPropertyOp11
 70
     1
102
RTVSPropertyOp12
 70
     1
102
RTVSPropertyOp13
 70
     1
102
RTVSPropertyOp14
 70
     1
102
RTVSPropertyOp15
 70
     1
102
RTVSPropertyOp16
 70
     1
102
RTVSPropertyOp17
 70
     1
102
RTVSPropertyOp18
 70
     1
102
RTVSPropertyOp19
 70
     1
102
RTVSPropertyOp20
 70
     1
102
RTVSPropertyOp21
 70
     1
102
RTVSPropertyOp22
 70
     1
102
RTVSPropertyOp23
 70
     1
102
RTVSPropertyOp24
 70
     1
102
RTVSPropertyOp25
 70
     1
102
RTVSPropertyOp26
 70
     1
102
RTVSPropertyOp27
 70
     1
102
RTVSPropertyOp28
 70
     1
102
RTVSPropertyOp29
 70
     1
102
RTVSPropertyOp30
 70
     1
102
RTVSPropertyOp31
 70
     1
102
RTVSPropertyOp32
 70
     1
102
RTVSPropertyOp33
 70
     1
102
RTVSPropertyOp34
 70
     1
102
RTVSPropertyOp35
 70
     1
102
RTVSPropertyOp36
 70
     1
102
RTVSPropertyOp37
 70
     1
102
RTVSPropertyOp38
 70
     1
102
RTVSPropertyOp39
 70
     1
102
RTVSPropertyOp40
 70
     1
102
RTVSPropertyOp41
 70
     1
102
RTVSPropertyOp42
 70
     1
102
RTVSPropertyOp43
 70
     1
102
RTVSPropertyOp44
 70
     1
102
RTVSPropertyOp45
 70
     1
102
RTVSPropertyOp46
 70
     1
102
RTVSPropertyOp47
 70
     1
102
RTVSPropertyOp48
 70
     1
102
RTVSPropertyOp49
 70
     1
102
RTVSPropertyOp50
 70
     1
102
RTVSPropertyOp51
 70
     0
102
RTVSPropertyOp52
 70
     0
102
RTVSPropertyOp53
 70
     1
102
RTVSPropertyOp54
 70
     1
102
RTVSPropertyOp55
 70
     1
102
RTVSPropertyOp56
 70
     1
102
RTVSPropertyOp57
 70
     1
102
RTVSPropertyOp58
 70
     1
102
RTVSPropertyOp59
 70
     1
102
RTVSPropertyOp60
 70
     1
102
RTVSPropertyOp61
 70
     1
102
RTVSPropertyOp62
 70
     1
  0
XRECORD
  5
23B3
102
{ACAD_REACTORS
330
23B2
102
}
330
23B2
100
AcDbXrecord
280
     1
102
RTVSPost2010Prop28
280
     0
102
RTVSPost2010PropOp28
 70
     1
102
RTVSPost2010Prop29
280
     1
102
RTVSPost2010PropOp29
 70
     1
102
RTVSPost2010Prop30
280
     1
102
RTVSPost2010PropOp30
 70
     1
102
RTVSPost2010Prop31
280
     0
102
RTVSPost2010PropOp31
 70
     1
102
RTVSPost2010Prop32
280
     0
102
RTVSPost2010PropOp32
 70
     1
102
RTVSPost2010Prop33
280
     0
102
RTVSPost2010PropOp33
 70
     1
102
RTVSPost2010Prop34
280
     0
102
RTVSPost2010PropOp34
 70
     1
102
RTVSPost2010Prop35
280
     0
102
RTVSPost2010PropOp35
 70
     1
102
RTVSPost2010Prop36
280
     0
102
RTVSPost2010PropOp36
 70
     1
102
RTVSPost2010Prop37
 90
       50
102
RTVSPost2010PropOp37
 70
     1
102
RTVSPost2010Prop38
140
0.0
102
RTVSPost2010PropOp38
 70
     1
102
RTVSPost2010Prop39
140
1.0
102
RTVSPost2010PropOp39
 70
     1
102
RTVSPost2010Prop40
 90
        0
102
RTVSPost2010PropOp40
 70
     1
102
RTVSPost2010Prop41ColorIndex
 90
       18
102
RTVSPost2010Prop41ColorRGB
 90
        0
102
RTVSPost2010PropOp41
 70
     1
102
RTVSPost2010Prop42
 90
       50
102
RTVSPost2010PropOp42
 70
     1
102
RTVSPost2010Prop43
 90
        3
102
RTVSPost2010PropOp43
 70
     1
102
RTVSPost2010Prop44ColorIndex
 90
        5
102
RTVSPost2010Prop44ColorRGB
 90
      255
102
RTVSPost2010PropOp44
 70
     1
102
RTVSPost2010Prop45
280
     0
102
RTVSPost2010PropOp45
 70
     1
102
RTVSPost2010Prop46
 90
       50
102
RTVSPost2010PropOp46
 70
     1
102
RTVSPost2010Prop47
 90
       50
102
RTVSPost2010PropOp47
 70
     1
102
RTVSPost2010Prop48
 90
       50
102
RTVSPost2010PropOp48
 70
     1
102
RTVSPost2010Prop49
280
     0
102
RTVSPost2010PropOp49
 70
     1
102
RTVSPost2010Prop50
 90
       50
102
RTVSPost2010PropOp50
 70
     1
102
RTVSPost2010Prop51ColorIndex
 90
      256
102
RTVSPost2010Prop51ColorRGB
 90
-16777216
102
RTVSPost2010PropOp51
 70
     0
102
RTVSPost2010Prop52
140
1.0
102
RTVSPost2010PropOp52
 70
     0
102
RTVSPost2010Prop53
 90
        2
102
RTVSPost2010PropOp53
 70
     1
102
RTVSPost2010Prop54
  1
strokes_ogs.tif
102
RTVSPost2010PropOp54
 70
     1
102
RTVSPost2010Prop55
280
     0
102
RTVSPost2010PropOp55
 70
     1
102
RTVSPost2010Prop56
140
1.0
102
RTVSPost2010PropOp56
 70
     1
102
RTVSPost2010Prop57
140
1.0
102
RTVSPost2010PropOp57
 70
     1
102
RTVSPropertyOp0
 70
     1
102
RTVSPropertyOp1
 70
     1
102
RTVSPropertyOp2
 70
     1
102
RTVSPropertyOp3
 70
     1
102
RTVSPropertyOp4
 70
     1
102
RTVSPropertyOp5
 70
     1
102
RTVSPropertyOp6
 70
     1
102
RTVSPropertyOp7
 70
     1
102
RTVSPropertyOp8
 70
     1
102
RTVSPropertyOp9
 70
     1
102
RTVSPropertyOp10
 70
     1
102
RTVSPropertyOp11
 70
     1
102
RTVSPropertyOp12
 70
     1
102
RTVSPropertyOp13
 70
     1
102
RTVSPropertyOp14
 70
     1
102
RTVSPropertyOp15
 70
     1
102
RTVSPropertyOp16
 70
     1
102
RTVSPropertyOp17
 70
     1
102
RTVSPropertyOp18
 70
     1
102
RTVSPropertyOp19
 70
     1
102
RTVSPropertyOp20
 70
     1
102
RTVSPropertyOp21
 70
     1
102
RTVSPropertyOp22
 70
     1
102
RTVSPropertyOp23
 70
     1
102
RTVSPropertyOp24
 70
     1
102
RTVSPropertyOp25
 70
     1
102
RTVSPropertyOp26
 70
     1
102
RTVSPropertyOp27
 70
     1
102
RTVSPropertyOp28
 70
     1
102
RTVSPropertyOp29
 70
     1
102
RTVSPropertyOp30
 70
     1
102
RTVSPropertyOp31
 70
     1
102
RTVSPropertyOp32
 70
     1
102
RTVSPropertyOp33
 70
     1
102
RTVSPropertyOp34
 70
     1
102
RTVSPropertyOp35
 70
     1
102
RTVSPropertyOp36
 70
     1
102
RTVSPropertyOp37
 70
     1
102
RTVSPropertyOp38
 70
     1
102
RTVSPropertyOp39
 70
     1
102
RTVSPropertyOp40
 70
     1
102
RTVSPropertyOp41
 70
     1
102
RTVSPropertyOp42
 70
     1
102
RTVSPropertyOp43
 70
     1
102
RTVSPropertyOp44
 70
     1
102
RTVSPropertyOp45
 70
     1
102
RTVSPropertyOp46
 70
     1
102
RTVSPropertyOp47
 70
     1
102
RTVSPropertyOp48
 70
     1
102
RTVSPropertyOp49
 70
     1
102
RTVSPropertyOp50
 70
     1
102
RTVSPropertyOp51
 70
     0
102
RTVSPropertyOp52
 70
     0
102
RTVSPropertyOp53
 70
     1
102
RTVSPropertyOp54
 70
     1
102
RTVSPropertyOp55
 70
     1
102
RTVSPropertyOp56
 70
     1
102
RTVSPropertyOp57
 70
     1
102
RTVSPropertyOp58
 70
     1
102
RTVSPropertyOp59
 70
     1
102
RTVSPropertyOp60
 70
     1
102
RTVSPropertyOp61
 70
     1
102
RTVSPropertyOp62
 70
     1
  0
XRECORD
  5
23AD
102
{ACAD_REACTORS
330
23AC
102
}
330
23AC
100
AcDbXrecord
280
     1
102
RTVSPost2010Prop28
280
     0
102
RTVSPost2010PropOp28
 70
     1
102
RTVSPost2010Prop29
280
     1
102
RTVSPost2010PropOp29
 70
     1
102
RTVSPost2010Prop30
280
     1
102
RTVSPost2010PropOp30
 70
     1
102
RTVSPost2010Prop31
280
     0
102
RTVSPost2010PropOp31
 70
     1
102
RTVSPost2010Prop32
280
     0
102
RTVSPost2010PropOp32
 70
     1
102
RTVSPost2010Prop33
280
     0
102
RTVSPost2010PropOp33
 70
     1
102
RTVSPost2010Prop34
280
     0
102
RTVSPost2010PropOp34
 70
     1
102
RTVSPost2010Prop35
280
     0
102
RTVSPost2010PropOp35
 70
     1
102
RTVSPost2010Prop36
280
     0
102
RTVSPost2010PropOp36
 70
     1
102
RTVSPost2010Prop37
 90
       50
102
RTVSPost2010PropOp37
 70
     1
102
RTVSPost2010Prop38
140
0.0
102
RTVSPost2010PropOp38
 70
     1
102
RTVSPost2010Prop39
140
1.0
102
RTVSPost2010PropOp39
 70
     1
102
RTVSPost2010Prop40
 90
        0
102
RTVSPost2010PropOp40
 70
     1
102
RTVSPost2010Prop41ColorIndex
 90
       18
102
RTVSPost2010Prop41ColorRGB
 90
        0
102
RTVSPost2010PropOp41
 70
     1
102
RTVSPost2010Prop42
 90
       50
102
RTVSPost2010PropOp42
 70
     1
102
RTVSPost2010Prop43
 90
        3
102
RTVSPost2010PropOp43
 70
     1
102
RTVSPost2010Prop44ColorIndex
 90
        5
102
RTVSPost2010Prop44ColorRGB
 90
      255
102
RTVSPost2010PropOp44
 70
     1
102
RTVSPost2010Prop45
280
     0
102
RTVSPost2010PropOp45
 70
     1
102
RTVSPost2010Prop46
 90
       50
102
RTVSPost2010PropOp46
 70
     1
102
RTVSPost2010Prop47
 90
       50
102
RTVSPost2010PropOp47
 70
     1
102
RTVSPost2010Prop48
 90
       50
102
RTVSPost2010PropOp48
 70
     1
102
RTVSPost2010Prop49
280
     0
102
RTVSPost2010PropOp49
 70
     1
102
RTVSPost2010Prop50
 90
       50
102
RTVSPost2010PropOp50
 70
     1
102
RTVSPost2010Prop51ColorIndex
 90
      256
102
RTVSPost2010Prop51ColorRGB
 90
-16777216
102
RTVSPost2010PropOp51
 70
     0
102
RTVSPost2010Prop52
140
1.0
102
RTVSPost2010PropOp52
 70
     0
102
RTVSPost2010Prop53
 90
        2
102
RTVSPost2010PropOp53
 70
     1
102
RTVSPost2010Prop54
  1
strokes_ogs.tif
102
RTVSPost2010PropOp54
 70
     1
102
RTVSPost2010Prop55
280
     0
102
RTVSPost2010PropOp55
 70
     1
102
RTVSPost2010Prop56
140
1.0
102
RTVSPost2010PropOp56
 70
     1
102
RTVSPost2010Prop57
140
1.0
102
RTVSPost2010PropOp57
 70
     1
102
RTVSPropertyOp0
 70
     1
102
RTVSPropertyOp1
 70
     1
102
RTVSPropertyOp2
 70
     1
102
RTVSPropertyOp3
 70
     1
102
RTVSPropertyOp4
 70
     1
102
RTVSPropertyOp5
 70
     1
102
RTVSPropertyOp6
 70
     1
102
RTVSPropertyOp7
 70
     1
102
RTVSPropertyOp8
 70
     1
102
RTVSPropertyOp9
 70
     1
102
RTVSPropertyOp10
 70
     1
102
RTVSPropertyOp11
 70
     1
102
RTVSPropertyOp12
 70
     1
102
RTVSPropertyOp13
 70
     1
102
RTVSPropertyOp14
 70
     1
102
RTVSPropertyOp15
 70
     1
102
RTVSPropertyOp16
 70
     1
102
RTVSPropertyOp17
 70
     1
102
RTVSPropertyOp18
 70
     1
102
RTVSPropertyOp19
 70
     1
102
RTVSPropertyOp20
 70
     1
102
RTVSPropertyOp21
 70
     1
102
RTVSPropertyOp22
 70
     1
102
RTVSPropertyOp23
 70
     1
102
RTVSPropertyOp24
 70
     1
102
RTVSPropertyOp25
 70
     1
102
RTVSPropertyOp26
 70
     1
102
RTVSPropertyOp27
 70
     1
102
RTVSPropertyOp28
 70
     1
102
RTVSPropertyOp29
 70
     1
102
RTVSPropertyOp30
 70
     1
102
RTVSPropertyOp31
 70
     1
102
RTVSPropertyOp32
 70
     1
102
RTVSPropertyOp33
 70
     1
102
RTVSPropertyOp34
 70
     1
102
RTVSPropertyOp35
 70
     1
102
RTVSPropertyOp36
 70
     1
102
RTVSPropertyOp37
 70
     1
102
RTVSPropertyOp38
 70
     1
102
RTVSPropertyOp39
 70
     1
102
RTVSPropertyOp40
 70
     1
102
RTVSPropertyOp41
 70
     1
102
RTVSPropertyOp42
 70
     1
102
RTVSPropertyOp43
 70
     1
102
RTVSPropertyOp44
 70
     1
102
RTVSPropertyOp45
 70
     1
102
RTVSPropertyOp46
 70
     1
102
RTVSPropertyOp47
 70
     1
102
RTVSPropertyOp48
 70
     1
102
RTVSPropertyOp49
 70
     1
102
RTVSPropertyOp50
 70
     1
102
RTVSPropertyOp51
 70
     0
102
RTVSPropertyOp52
 70
     0
102
RTVSPropertyOp53
 70
     1
102
RTVSPropertyOp54
 70
     1
102
RTVSPropertyOp55
 70
     1
102
RTVSPropertyOp56
 70
     1
102
RTVSPropertyOp57
 70
     1
102
RTVSPropertyOp58
 70
     1
102
RTVSPropertyOp59
 70
     1
102
RTVSPropertyOp60
 70
     1
102
RTVSPropertyOp61
 70
     1
102
RTVSPropertyOp62
 70
     1
  0
XRECORD
  5
23AF
102
{ACAD_REACTORS
330
23AE
102
}
330
23AE
100
AcDbXrecord
280
     1
102
RTVSPost2010Prop28
280
     0
102
RTVSPost2010PropOp28
 70
     1
102
RTVSPost2010Prop29
280
     1
102
RTVSPost2010PropOp29
 70
     1
102
RTVSPost2010Prop30
280
     1
102
RTVSPost2010PropOp30
 70
     1
102
RTVSPost2010Prop31
280
     0
102
RTVSPost2010PropOp31
 70
     1
102
RTVSPost2010Prop32
280
     0
102
RTVSPost2010PropOp32
 70
     1
102
RTVSPost2010Prop33
280
     0
102
RTVSPost2010PropOp33
 70
     1
102
RTVSPost2010Prop34
280
     0
102
RTVSPost2010PropOp34
 70
     1
102
RTVSPost2010Prop35
280
     0
102
RTVSPost2010PropOp35
 70
     1
102
RTVSPost2010Prop36
280
     0
102
RTVSPost2010PropOp36
 70
     1
102
RTVSPost2010Prop37
 90
       50
102
RTVSPost2010PropOp37
 70
     1
102
RTVSPost2010Prop38
140
0.0
102
RTVSPost2010PropOp38
 70
     1
102
RTVSPost2010Prop39
140
1.0
102
RTVSPost2010PropOp39
 70
     1
102
RTVSPost2010Prop40
 90
        0
102
RTVSPost2010PropOp40
 70
     1
102
RTVSPost2010Prop41ColorIndex
 90
       18
102
RTVSPost2010Prop41ColorRGB
 90
        0
102
RTVSPost2010PropOp41
 70
     1
102
RTVSPost2010Prop42
 90
       50
102
RTVSPost2010PropOp42
 70
     1
102
RTVSPost2010Prop43
 90
        3
102
RTVSPost2010PropOp43
 70
     1
102
RTVSPost2010Prop44ColorIndex
 90
        5
102
RTVSPost2010Prop44ColorRGB
 90
      255
102
RTVSPost2010PropOp44
 70
     1
102
RTVSPost2010Prop45
280
     0
102
RTVSPost2010PropOp45
 70
     1
102
RTVSPost2010Prop46
 90
       50
102
RTVSPost2010PropOp46
 70
     1
102
RTVSPost2010Prop47
 90
       50
102
RTVSPost2010PropOp47
 70
     1
102
RTVSPost2010Prop48
 90
       50
102
RTVSPost2010PropOp48
 70
     1
102
RTVSPost2010Prop49
280
     0
102
RTVSPost2010PropOp49
 70
     1
102
RTVSPost2010Prop50
 90
       50
102
RTVSPost2010PropOp50
 70
     1
102
RTVSPost2010Prop51ColorIndex
 90
      256
102
RTVSPost2010Prop51ColorRGB
 90
-16777216
102
RTVSPost2010PropOp51
 70
     0
102
RTVSPost2010Prop52
140
1.0
102
RTVSPost2010PropOp52
 70
     0
102
RTVSPost2010Prop53
 90
        2
102
RTVSPost2010PropOp53
 70
     1
102
RTVSPost2010Prop54
  1
strokes_ogs.tif
102
RTVSPost2010PropOp54
 70
     1
102
RTVSPost2010Prop55
280
     0
102
RTVSPost2010PropOp55
 70
     1
102
RTVSPost2010Prop56
140
1.0
102
RTVSPost2010PropOp56
 70
     1
102
RTVSPost2010Prop57
140
1.0
102
RTVSPost2010PropOp57
 70
     1
102
RTVSPropertyOp0
 70
     1
102
RTVSPropertyOp1
 70
     1
102
RTVSPropertyOp2
 70
     1
102
RTVSPropertyOp3
 70
     1
102
RTVSPropertyOp4
 70
     1
102
RTVSPropertyOp5
 70
     1
102
RTVSPropertyOp6
 70
     1
102
RTVSPropertyOp7
 70
     1
102
RTVSPropertyOp8
 70
     1
102
RTVSPropertyOp9
 70
     1
102
RTVSPropertyOp10
 70
     1
102
RTVSPropertyOp11
 70
     1
102
RTVSPropertyOp12
 70
     1
102
RTVSPropertyOp13
 70
     1
102
RTVSPropertyOp14
 70
     1
102
RTVSPropertyOp15
 70
     1
102
RTVSPropertyOp16
 70
     1
102
RTVSPropertyOp17
 70
     1
102
RTVSPropertyOp18
 70
     1
102
RTVSPropertyOp19
 70
     1
102
RTVSPropertyOp20
 70
     1
102
RTVSPropertyOp21
 70
     1
102
RTVSPropertyOp22
 70
     1
102
RTVSPropertyOp23
 70
     1
102
RTVSPropertyOp24
 70
     1
102
RTVSPropertyOp25
 70
     1
102
RTVSPropertyOp26
 70
     1
102
RTVSPropertyOp27
 70
     1
102
RTVSPropertyOp28
 70
     1
102
RTVSPropertyOp29
 70
     1
102
RTVSPropertyOp30
 70
     1
102
RTVSPropertyOp31
 70
     1
102
RTVSPropertyOp32
 70
     1
102
RTVSPropertyOp33
 70
     1
102
RTVSPropertyOp34
 70
     1
102
RTVSPropertyOp35
 70
     1
102
RTVSPropertyOp36
 70
     1
102
RTVSPropertyOp37
 70
     1
102
RTVSPropertyOp38
 70
     1
102
RTVSPropertyOp39
 70
     1
102
RTVSPropertyOp40
 70
     1
102
RTVSPropertyOp41
 70
     1
102
RTVSPropertyOp42
 70
     1
102
RTVSPropertyOp43
 70
     1
102
RTVSPropertyOp44
 70
     1
102
RTVSPropertyOp45
 70
     1
102
RTVSPropertyOp46
 70
     1
102
RTVSPropertyOp47
 70
     1
102
RTVSPropertyOp48
 70
     1
102
RTVSPropertyOp49
 70
     1
102
RTVSPropertyOp50
 70
     1
102
RTVSPropertyOp51
 70
     0
102
RTVSPropertyOp52
 70
     0
102
RTVSPropertyOp53
 70
     1
102
RTVSPropertyOp54
 70
     1
102
RTVSPropertyOp55
 70
     1
102
RTVSPropertyOp56
 70
     1
102
RTVSPropertyOp57
 70
     1
102
RTVSPropertyOp58
 70
     1
102
RTVSPropertyOp59
 70
     1
102
RTVSPropertyOp60
 70
     1
102
RTVSPropertyOp61
 70
     1
102
RTVSPropertyOp62
 70
     1
  0
XRECORD
  5
23A5
102
{ACAD_REACTORS
330
23A4
102
}
330
23A4
100
AcDbXrecord
280
     1
102
RTVSPost2010Prop28
280
     0
102
RTVSPost2010PropOp28
 70
     1
102
RTVSPost2010Prop29
280
     1
102
RTVSPost2010PropOp29
 70
     1
102
RTVSPost2010Prop30
280
     1
102
RTVSPost2010PropOp30
 70
     1
102
RTVSPost2010Prop31
280
     0
102
RTVSPost2010PropOp31
 70
     1
102
RTVSPost2010Prop32
280
     0
102
RTVSPost2010PropOp32
 70
     1
102
RTVSPost2010Prop33
280
     0
102
RTVSPost2010PropOp33
 70
     1
102
RTVSPost2010Prop34
280
     0
102
RTVSPost2010PropOp34
 70
     1
102
RTVSPost2010Prop35
280
     0
102
RTVSPost2010PropOp35
 70
     1
102
RTVSPost2010Prop36
280
     0
102
RTVSPost2010PropOp36
 70
     1
102
RTVSPost2010Prop37
 90
       50
102
RTVSPost2010PropOp37
 70
     1
102
RTVSPost2010Prop38
140
0.0
102
RTVSPost2010PropOp38
 70
     1
102
RTVSPost2010Prop39
140
1.0
102
RTVSPost2010PropOp39
 70
     1
102
RTVSPost2010Prop40
 90
        0
102
RTVSPost2010PropOp40
 70
     1
102
RTVSPost2010Prop41ColorIndex
 90
       18
102
RTVSPost2010Prop41ColorRGB
 90
        0
102
RTVSPost2010PropOp41
 70
     1
102
RTVSPost2010Prop42
 90
       50
102
RTVSPost2010PropOp42
 70
     1
102
RTVSPost2010Prop43
 90
        3
102
RTVSPost2010PropOp43
 70
     1
102
RTVSPost2010Prop44ColorIndex
 90
        5
102
RTVSPost2010Prop44ColorRGB
 90
      255
102
RTVSPost2010PropOp44
 70
     1
102
RTVSPost2010Prop45
280
     0
102
RTVSPost2010PropOp45
 70
     1
102
RTVSPost2010Prop46
 90
       50
102
RTVSPost2010PropOp46
 70
     1
102
RTVSPost2010Prop47
 90
       50
102
RTVSPost2010PropOp47
 70
     1
102
RTVSPost2010Prop48
 90
       50
102
RTVSPost2010PropOp48
 70
     1
102
RTVSPost2010Prop49
280
     0
102
RTVSPost2010PropOp49
 70
     1
102
RTVSPost2010Prop50
 90
       50
102
RTVSPost2010PropOp50
 70
     1
102
RTVSPost2010Prop51ColorIndex
 90
      256
102
RTVSPost2010Prop51ColorRGB
 90
-16777216
102
RTVSPost2010PropOp51
 70
     0
102
RTVSPost2010Prop52
140
1.0
102
RTVSPost2010PropOp52
 70
     0
102
RTVSPost2010Prop53
 90
        2
102
RTVSPost2010PropOp53
 70
     1
102
RTVSPost2010Prop54
  1
strokes_ogs.tif
102
RTVSPost2010PropOp54
 70
     1
102
RTVSPost2010Prop55
280
     0
102
RTVSPost2010PropOp55
 70
     1
102
RTVSPost2010Prop56
140
1.0
102
RTVSPost2010PropOp56
 70
     1
102
RTVSPost2010Prop57
140
1.0
102
RTVSPost2010PropOp57
 70
     1
102
RTVSPropertyOp0
 70
     1
102
RTVSPropertyOp1
 70
     1
102
RTVSPropertyOp2
 70
     1
102
RTVSPropertyOp3
 70
     1
102
RTVSPropertyOp4
 70
     1
102
RTVSPropertyOp5
 70
     1
102
RTVSPropertyOp6
 70
     1
102
RTVSPropertyOp7
 70
     1
102
RTVSPropertyOp8
 70
     1
102
RTVSPropertyOp9
 70
     1
102
RTVSPropertyOp10
 70
     1
102
RTVSPropertyOp11
 70
     1
102
RTVSPropertyOp12
 70
     1
102
RTVSPropertyOp13
 70
     1
102
RTVSPropertyOp14
 70
     1
102
RTVSPropertyOp15
 70
     1
102
RTVSPropertyOp16
 70
     1
102
RTVSPropertyOp17
 70
     1
102
RTVSPropertyOp18
 70
     1
102
RTVSPropertyOp19
 70
     1
102
RTVSPropertyOp20
 70
     1
102
RTVSPropertyOp21
 70
     1
102
RTVSPropertyOp22
 70
     1
102
RTVSPropertyOp23
 70
     1
102
RTVSPropertyOp24
 70
     1
102
RTVSPropertyOp25
 70
     1
102
RTVSPropertyOp26
 70
     1
102
RTVSPropertyOp27
 70
     1
102
RTVSPropertyOp28
 70
     1
102
RTVSPropertyOp29
 70
     1
102
RTVSPropertyOp30
 70
     1
102
RTVSPropertyOp31
 70
     1
102
RTVSPropertyOp32
 70
     1
102
RTVSPropertyOp33
 70
     1
102
RTVSPropertyOp34
 70
     1
102
RTVSPropertyOp35
 70
     1
102
RTVSPropertyOp36
 70
     1
102
RTVSPropertyOp37
 70
     1
102
RTVSPropertyOp38
 70
     1
102
RTVSPropertyOp39
 70
     1
102
RTVSPropertyOp40
 70
     1
102
RTVSPropertyOp41
 70
     1
102
RTVSPropertyOp42
 70
     1
102
RTVSPropertyOp43
 70
     1
102
RTVSPropertyOp44
 70
     1
102
RTVSPropertyOp45
 70
     1
102
RTVSPropertyOp46
 70
     1
102
RTVSPropertyOp47
 70
     1
102
RTVSPropertyOp48
 70
     1
102
RTVSPropertyOp49
 70
     1
102
RTVSPropertyOp50
 70
     1
102
RTVSPropertyOp51
 70
     0
102
RTVSPropertyOp52
 70
     0
102
RTVSPropertyOp53
 70
     1
102
RTVSPropertyOp54
 70
     1
102
RTVSPropertyOp55
 70
     1
102
RTVSPropertyOp56
 70
     1
102
RTVSPropertyOp57
 70
     1
102
RTVSPropertyOp58
 70
     1
102
RTVSPropertyOp59
 70
     1
102
RTVSPropertyOp60
 70
     1
102
RTVSPropertyOp61
 70
     1
102
RTVSPropertyOp62
 70
     1
  0
XRECORD
  5
2399
102
{ACAD_REACTORS
330
2398
102
}
330
2398
100
AcDbXrecord
280
     1
102
RTVSPost2010Prop28
280
     0
102
RTVSPost2010PropOp28
 70
     1
102
RTVSPost2010Prop29
280
     1
102
RTVSPost2010PropOp29
 70
     1
102
RTVSPost2010Prop30
280
     1
102
RTVSPost2010PropOp30
 70
     1
102
RTVSPost2010Prop31
280
     0
102
RTVSPost2010PropOp31
 70
     1
102
RTVSPost2010Prop32
280
     0
102
RTVSPost2010PropOp32
 70
     1
102
RTVSPost2010Prop33
280
     0
102
RTVSPost2010PropOp33
 70
     1
102
RTVSPost2010Prop34
280
     0
102
RTVSPost2010PropOp34
 70
     1
102
RTVSPost2010Prop35
280
     0
102
RTVSPost2010PropOp35
 70
     1
102
RTVSPost2010Prop36
280
     0
102
RTVSPost2010PropOp36
 70
     1
102
RTVSPost2010Prop37
 90
       50
102
RTVSPost2010PropOp37
 70
     1
102
RTVSPost2010Prop38
140
0.0
102
RTVSPost2010PropOp38
 70
     1
102
RTVSPost2010Prop39
140
1.0
102
RTVSPost2010PropOp39
 70
     1
102
RTVSPost2010Prop40
 90
        0
102
RTVSPost2010PropOp40
 70
     1
102
RTVSPost2010Prop41ColorIndex
 90
       18
102
RTVSPost2010Prop41ColorRGB
 90
        0
102
RTVSPost2010PropOp41
 70
     1
102
RTVSPost2010Prop42
 90
       50
102
RTVSPost2010PropOp42
 70
     1
102
RTVSPost2010Prop43
 90
        3
102
RTVSPost2010PropOp43
 70
     1
102
RTVSPost2010Prop44ColorIndex
 90
        5
102
RTVSPost2010Prop44ColorRGB
 90
      255
102
RTVSPost2010PropOp44
 70
     1
102
RTVSPost2010Prop45
280
     0
102
RTVSPost2010PropOp45
 70
     1
102
RTVSPost2010Prop46
 90
       50
102
RTVSPost2010PropOp46
 70
     1
102
RTVSPost2010Prop47
 90
       50
102
RTVSPost2010PropOp47
 70
     1
102
RTVSPost2010Prop48
 90
       50
102
RTVSPost2010PropOp48
 70
     1
102
RTVSPost2010Prop49
280
     0
102
RTVSPost2010PropOp49
 70
     1
102
RTVSPost2010Prop50
 90
       50
102
RTVSPost2010PropOp50
 70
     1
102
RTVSPost2010Prop51ColorIndex
 90
      256
102
RTVSPost2010Prop51ColorRGB
 90
-16777216
102
RTVSPost2010PropOp51
 70
     0
102
RTVSPost2010Prop52
140
1.0
102
RTVSPost2010PropOp52
 70
     0
102
RTVSPost2010Prop53
 90
        2
102
RTVSPost2010PropOp53
 70
     1
102
RTVSPost2010Prop54
  1
strokes_ogs.tif
102
RTVSPost2010PropOp54
 70
     1
102
RTVSPost2010Prop55
280
     0
102
RTVSPost2010PropOp55
 70
     1
102
RTVSPost2010Prop56
140
1.0
102
RTVSPost2010PropOp56
 70
     1
102
RTVSPost2010Prop57
140
1.0
102
RTVSPost2010PropOp57
 70
     1
102
RTVSPropertyOp0
 70
     1
102
RTVSPropertyOp1
 70
     1
102
RTVSPropertyOp2
 70
     1
102
RTVSPropertyOp3
 70
     1
102
RTVSPropertyOp4
 70
     1
102
RTVSPropertyOp5
 70
     1
102
RTVSPropertyOp6
 70
     1
102
RTVSPropertyOp7
 70
     1
102
RTVSPropertyOp8
 70
     1
102
RTVSPropertyOp9
 70
     1
102
RTVSPropertyOp10
 70
     1
102
RTVSPropertyOp11
 70
     1
102
RTVSPropertyOp12
 70
     1
102
RTVSPropertyOp13
 70
     1
102
RTVSPropertyOp14
 70
     1
102
RTVSPropertyOp15
 70
     1
102
RTVSPropertyOp16
 70
     1
102
RTVSPropertyOp17
 70
     1
102
RTVSPropertyOp18
 70
     1
102
RTVSPropertyOp19
 70
     1
102
RTVSPropertyOp20
 70
     1
102
RTVSPropertyOp21
 70
     1
102
RTVSPropertyOp22
 70
     1
102
RTVSPropertyOp23
 70
     1
102
RTVSPropertyOp24
 70
     1
102
RTVSPropertyOp25
 70
     1
102
RTVSPropertyOp26
 70
     1
102
RTVSPropertyOp27
 70
     1
102
RTVSPropertyOp28
 70
     1
102
RTVSPropertyOp29
 70
     1
102
RTVSPropertyOp30
 70
     1
102
RTVSPropertyOp31
 70
     1
102
RTVSPropertyOp32
 70
     1
102
RTVSPropertyOp33
 70
     1
102
RTVSPropertyOp34
 70
     1
102
RTVSPropertyOp35
 70
     1
102
RTVSPropertyOp36
 70
     1
102
RTVSPropertyOp37
 70
     1
102
RTVSPropertyOp38
 70
     1
102
RTVSPropertyOp39
 70
     1
102
RTVSPropertyOp40
 70
     1
102
RTVSPropertyOp41
 70
     1
102
RTVSPropertyOp42
 70
     1
102
RTVSPropertyOp43
 70
     1
102
RTVSPropertyOp44
 70
     1
102
RTVSPropertyOp45
 70
     1
102
RTVSPropertyOp46
 70
     1
102
RTVSPropertyOp47
 70
     1
102
RTVSPropertyOp48
 70
     1
102
RTVSPropertyOp49
 70
     1
102
RTVSPropertyOp50
 70
     1
102
RTVSPropertyOp51
 70
     0
102
RTVSPropertyOp52
 70
     0
102
RTVSPropertyOp53
 70
     1
102
RTVSPropertyOp54
 70
     1
102
RTVSPropertyOp55
 70
     1
102
RTVSPropertyOp56
 70
     1
102
RTVSPropertyOp57
 70
     1
102
RTVSPropertyOp58
 70
     1
102
RTVSPropertyOp59
 70
     1
102
RTVSPropertyOp60
 70
     1
102
RTVSPropertyOp61
 70
     1
102
RTVSPropertyOp62
 70
     1
  0
XRECORD
  5
23B1
102
{ACAD_REACTORS
330
23B0
102
}
330
23B0
100
AcDbXrecord
280
     1
102
RTVSPost2010Prop28
280
     0
102
RTVSPost2010PropOp28
 70
     1
102
RTVSPost2010Prop29
280
     1
102
RTVSPost2010PropOp29
 70
     1
102
RTVSPost2010Prop30
280
     1
102
RTVSPost2010PropOp30
 70
     1
102
RTVSPost2010Prop31
280
     0
102
RTVSPost2010PropOp31
 70
     1
102
RTVSPost2010Prop32
280
     0
102
RTVSPost2010PropOp32
 70
     1
102
RTVSPost2010Prop33
280
     0
102
RTVSPost2010PropOp33
 70
     1
102
RTVSPost2010Prop34
280
     0
102
RTVSPost2010PropOp34
 70
     1
102
RTVSPost2010Prop35
280
     0
102
RTVSPost2010PropOp35
 70
     1
102
RTVSPost2010Prop36
280
     0
102
RTVSPost2010PropOp36
 70
     1
102
RTVSPost2010Prop37
 90
       50
102
RTVSPost2010PropOp37
 70
     1
102
RTVSPost2010Prop38
140
0.0
102
RTVSPost2010PropOp38
 70
     1
102
RTVSPost2010Prop39
140
1.0
102
RTVSPost2010PropOp39
 70
     1
102
RTVSPost2010Prop40
 90
        0
102
RTVSPost2010PropOp40
 70
     1
102
RTVSPost2010Prop41ColorIndex
 90
       18
102
RTVSPost2010Prop41ColorRGB
 90
        0
102
RTVSPost2010PropOp41
 70
     1
102
RTVSPost2010Prop42
 90
       50
102
RTVSPost2010PropOp42
 70
     1
102
RTVSPost2010Prop43
 90
        3
102
RTVSPost2010PropOp43
 70
     1
102
RTVSPost2010Prop44ColorIndex
 90
        5
102
RTVSPost2010Prop44ColorRGB
 90
      255
102
RTVSPost2010PropOp44
 70
     1
102
RTVSPost2010Prop45
280
     0
102
RTVSPost2010PropOp45
 70
     1
102
RTVSPost2010Prop46
 90
       50
102
RTVSPost2010PropOp46
 70
     1
102
RTVSPost2010Prop47
 90
       50
102
RTVSPost2010PropOp47
 70
     1
102
RTVSPost2010Prop48
 90
       50
102
RTVSPost2010PropOp48
 70
     1
102
RTVSPost2010Prop49
280
     0
102
RTVSPost2010PropOp49
 70
     1
102
RTVSPost2010Prop50
 90
       50
102
RTVSPost2010PropOp50
 70
     1
102
RTVSPost2010Prop51ColorIndex
 90
      256
102
RTVSPost2010Prop51ColorRGB
 90
-16777216
102
RTVSPost2010PropOp51
 70
     0
102
RTVSPost2010Prop52
140
1.0
102
RTVSPost2010PropOp52
 70
     0
102
RTVSPost2010Prop53
 90
        2
102
RTVSPost2010PropOp53
 70
     1
102
RTVSPost2010Prop54
  1
strokes_ogs.tif
102
RTVSPost2010PropOp54
 70
     1
102
RTVSPost2010Prop55
280
     0
102
RTVSPost2010PropOp55
 70
     1
102
RTVSPost2010Prop56
140
1.0
102
RTVSPost2010PropOp56
 70
     1
102
RTVSPost2010Prop57
140
1.0
102
RTVSPost2010PropOp57
 70
     1
102
RTVSPropertyOp0
 70
     1
102
RTVSPropertyOp1
 70
     1
102
RTVSPropertyOp2
 70
     1
102
RTVSPropertyOp3
 70
     1
102
RTVSPropertyOp4
 70
     1
102
RTVSPropertyOp5
 70
     1
102
RTVSPropertyOp6
 70
     1
102
RTVSPropertyOp7
 70
     1
102
RTVSPropertyOp8
 70
     1
102
RTVSPropertyOp9
 70
     1
102
RTVSPropertyOp10
 70
     1
102
RTVSPropertyOp11
 70
     1
102
RTVSPropertyOp12
 70
     1
102
RTVSPropertyOp13
 70
     1
102
RTVSPropertyOp14
 70
     1
102
RTVSPropertyOp15
 70
     1
102
RTVSPropertyOp16
 70
     1
102
RTVSPropertyOp17
 70
     1
102
RTVSPropertyOp18
 70
     1
102
RTVSPropertyOp19
 70
     1
102
RTVSPropertyOp20
 70
     1
102
RTVSPropertyOp21
 70
     1
102
RTVSPropertyOp22
 70
     1
102
RTVSPropertyOp23
 70
     1
102
RTVSPropertyOp24
 70
     1
102
RTVSPropertyOp25
 70
     1
102
RTVSPropertyOp26
 70
     1
102
RTVSPropertyOp27
 70
     1
102
RTVSPropertyOp28
 70
     1
102
RTVSPropertyOp29
 70
     1
102
RTVSPropertyOp30
 70
     1
102
RTVSPropertyOp31
 70
     1
102
RTVSPropertyOp32
 70
     1
102
RTVSPropertyOp33
 70
     1
102
RTVSPropertyOp34
 70
     1
102
RTVSPropertyOp35
 70
     1
102
RTVSPropertyOp36
 70
     1
102
RTVSPropertyOp37
 70
     1
102
RTVSPropertyOp38
 70
     1
102
RTVSPropertyOp39
 70
     1
102
RTVSPropertyOp40
 70
     1
102
RTVSPropertyOp41
 70
     1
102
RTVSPropertyOp42
 70
     1
102
RTVSPropertyOp43
 70
     1
102
RTVSPropertyOp44
 70
     1
102
RTVSPropertyOp45
 70
     1
102
RTVSPropertyOp46
 70
     1
102
RTVSPropertyOp47
 70
     1
102
RTVSPropertyOp48
 70
     1
102
RTVSPropertyOp49
 70
     1
102
RTVSPropertyOp50
 70
     1
102
RTVSPropertyOp51
 70
     0
102
RTVSPropertyOp52
 70
     0
102
RTVSPropertyOp53
 70
     1
102
RTVSPropertyOp54
 70
     1
102
RTVSPropertyOp55
 70
     1
102
RTVSPropertyOp56
 70
     1
102
RTVSPropertyOp57
 70
     1
102
RTVSPropertyOp58
 70
     1
102
RTVSPropertyOp59
 70
     1
102
RTVSPropertyOp60
 70
     1
102
RTVSPropertyOp61
 70
     1
102
RTVSPropertyOp62
 70
     1
  0
ENDSEC
  0
EOF
