  0
SECTION
  2
HEADER
  9
$ACADVER
  1
AC1015
  9
$ACADMAINTVER
 70
    20
  9
$DWGCODEPAGE
  3
ANSI_932
  9
$INSBASE
 10
0.0
 20
0.0
 30
0.0
  9
$EXTMIN
 10
10.0
 20
9.999999999999998
 30
0.0
  9
$EXTMAX
 10
614.619109
 20
402.229477
 30
0.0
  9
$LIMMIN
 10
0.0
 20
0.0
  9
$LIMMAX
 10
660.0
 20
455.0
  9
$ORTHOMODE
 70
     0
  9
$REGENMODE
 70
     1
  9
$FILLMODE
 70
     1
  9
$QTEXTMODE
 70
     0
  9
$MIRRTEXT
 70
     1
  9
$LTSCALE
 40
20.0
  9
$ATTMODE
 70
     1
  9
$TEXTSIZE
 40
5.0
  9
$TRACEWID
 40
1.0
  9
$TEXTSTYLE
  7
STANDARD
  9
$CLAYER
  8
0
  9
$CELTYPE
  6
BYLAYER
  9
$CECOLOR
 62
   256
  9
$CELTSCALE
 40
1.0
  9
$DISPSILH
 70
     0
  9
$DIMSCALE
 40
1.0
  9
$DIMASZ
 40
3.0
  9
$DIMEXO
 40
1.0
  9
$DIMDLI
 40
10.0
  9
$DIMRND
 40
0.0
  9
$DIMDLE
 40
0.0
  9
$DIMEXE
 40
1.0
  9
$DIMTP
 40
0.0
  9
$DIMTM
 40
0.0
  9
$DIMTXT
 40
3.2
  9
$DIMCEN
 40
0.0
  9
$DIMTSZ
 40
0.0
  9
$DIMTOL
 70
     0
  9
$DIMLIM
 70
     0
  9
$DIMTIH
 70
     0
  9
$DIMTOH
 70
     0
  9
$DIMSE1
 70
     0
  9
$DIMSE2
 70
     0
  9
$DIMTAD
 70
     3
  9
$DIMZIN
 70
     8
  9
$DIMBLK
  1

  9
$DIMASO
 70
     1
  9
$DIMSHO
 70
     1
  9
$DIMPOST
  1

  9
$DIMAPOST
  1

  9
$DIMALT
 70
     0
  9
$DIMALTD
 70
     2
  9
$DIMALTF
 40
25.4
  9
$DIMLFAC
 40
1.0
  9
$DIMTOFL
 70
     1
  9
$DIMTVP
 40
0.0
  9
$DIMTIX
 70
     0
  9
$DIMSOXD
 70
     0
  9
$DIMSAH
 70
     1
  9
$DIMBLK1
  1
OPEN
  9
$DIMBLK2
  1
OPEN
  9
$DIMSTYLE
  2
STANDARD
  9
$DIMCLRD
 70
     0
  9
$DIMCLRE
 70
     0
  9
$DIMCLRT
 70
     0
  9
$DIMTFAC
 40
1.0
  9
$DIMGAP
 40
1.0
  9
$DIMJUST
 70
     0
  9
$DIMSD1
 70
     0
  9
$DIMSD2
 70
     0
  9
$DIMTOLJ
 70
     1
  9
$DIMTZIN
 70
     0
  9
$DIMALTZ
 70
     0
  9
$DIMALTTZ
 70
     0
  9
$DIMUPT
 70
     0
  9
$DIMDEC
 70
     4
  9
$DIMTDEC
 70
     4
  9
$DIMALTU
 70
     2
  9
$DIMALTTD
 70
     2
  9
$DIMTXSTY
  7
STANDARD
  9
$DIMAUNIT
 70
     0
  9
$DIMADEC
 70
     0
  9
$DIMALTRND
 40
0.0
  9
$DIMAZIN
 70
     0
  9
$DIMDSEP
 70
    46
  9
$DIMATFIT
 70
     3
  9
$DIMFRAC
 70
     0
  9
$DIMLDRBLK
  1
OPEN
  9
$DIMLUNIT
 70
     2
  9
$DIMLWD
 70
    -2
  9
$DIMLWE
 70
    -2
  9
$DIMTMOVE
 70
     0
  9
$LUNITS
 70
     2
  9
$LUPREC
 70
     4
  9
$SKETCHINC
 40
1.0
  9
$FILLETRAD
 40
2.5
  9
$AUNITS
 70
     0
  9
$AUPREC
 70
     2
  9
$MENU
  1
.
  9
$ELEVATION
 40
0.0
  9
$PELEVATION
 40
0.0
  9
$THICKNESS
 40
0.0
  9
$LIMCHECK
 70
     0
  9
$CHAMFERA
 40
0.8
  9
$CHAMFERB
 40
0.8
  9
$CHAMFERC
 40
0.0
  9
$CHAMFERD
 40
0.0
  9
$SKPOLY
 70
     0
  9
$TDCREATE
 40
2451301.626357176
  9
$TDUCREATE
 40
2451301.251357176
  9
$TDUPDATE
 40
2457192.688542118
  9
$TDUUPDATE
 40
2457192.313542118
  9
$TDINDWG
 40
0.0000099884
  9
$TDUSRTIMER
 40
0.0000094907
  9
$USRTIMER
 70
     1
  9
$ANGBASE
 50
0.0
  9
$ANGDIR
 70
     0
  9
$PDMODE
 70
     0
  9
$PDSIZE
 40
0.0
  9
$PLINEWID
 40
0.0
  9
$SPLFRAME
 70
     0
  9
$SPLINETYPE
 70
     6
  9
$SPLINESEGS
 70
     8
  9
$HANDSEED
  5
C0ED
  9
$SURFTAB1
 70
     6
  9
$SURFTAB2
 70
     6
  9
$SURFTYPE
 70
     6
  9
$SURFU
 70
     6
  9
$SURFV
 70
     6
  9
$UCSBASE
  2

  9
$UCSNAME
  2

  9
$UCSORG
 10
0.0
 20
0.0
 30
0.0
  9
$UCSXDIR
 10
1.0
 20
0.0
 30
0.0
  9
$UCSYDIR
 10
0.0
 20
1.0
 30
0.0
  9
$UCSORTHOREF
  2

  9
$UCSORTHOVIEW
 70
     0
  9
$UCSORGTOP
 10
0.0
 20
0.0
 30
0.0
  9
$UCSORGBOTTOM
 10
0.0
 20
0.0
 30
0.0
  9
$UCSORGLEFT
 10
0.0
 20
0.0
 30
0.0
  9
$UCSORGRIGHT
 10
0.0
 20
0.0
 30
0.0
  9
$UCSORGFRONT
 10
0.0
 20
0.0
 30
0.0
  9
$UCSORGBACK
 10
0.0
 20
0.0
 30
0.0
  9
$PUCSBASE
  2

  9
$PUCSNAME
  2

  9
$PUCSORG
 10
0.0
 20
0.0
 30
0.0
  9
$PUCSXDIR
 10
1.0
 20
0.0
 30
0.0
  9
$PUCSYDIR
 10
0.0
 20
1.0
 30
0.0
  9
$PUCSORTHOREF
  2

  9
$PUCSORTHOVIEW
 70
     0
  9
$PUCSORGTOP
 10
0.0
 20
0.0
 30
0.0
  9
$PUCSORGBOTTOM
 10
0.0
 20
0.0
 30
0.0
  9
$PUCSORGLEFT
 10
0.0
 20
0.0
 30
0.0
  9
$PUCSORGRIGHT
 10
0.0
 20
0.0
 30
0.0
  9
$PUCSORGFRONT
 10
0.0
 20
0.0
 30
0.0
  9
$PUCSORGBACK
 10
0.0
 20
0.0
 30
0.0
  9
$USERI1
 70
     0
  9
$USERI2
 70
     0
  9
$USERI3
 70
     0
  9
$USERI4
 70
     0
  9
$USERI5
 70
     0
  9
$USERR1
 40
0.0
  9
$USERR2
 40
0.0
  9
$USERR3
 40
0.0
  9
$USERR4
 40
0.0
  9
$USERR5
 40
0.0
  9
$WORLDVIEW
 70
     1
  9
$SHADEDGE
 70
     3
  9
$SHADEDIF
 70
    70
  9
$TILEMODE
 70
     1
  9
$MAXACTVP
 70
    16
  9
$PINSBASE
 10
0.0
 20
0.0
 30
0.0
  9
$PLIMCHECK
 70
     0
  9
$PEXTMIN
 10
1.000000000000000E+20
 20
1.000000000000000E+20
 30
1.000000000000000E+20
  9
$PEXTMAX
 10
-1.000000000000000E+20
 20
-1.000000000000000E+20
 30
-1.000000000000000E+20
  9
$PLIMMIN
 10
0.0
 20
0.0
  9
$PLIMMAX
 10
420.0
 20
297.0
  9
$UNITMODE
 70
     0
  9
$VISRETAIN
 70
     0
  9
$PLINEGEN
 70
     0
  9
$PSLTSCALE
 70
     0
  9
$TREEDEPTH
 70
  3020
  9
$CMLSTYLE
  2
STANDARD
  9
$CMLJUST
 70
     0
  9
$CMLSCALE
 40
1.0
  9
$PROXYGRAPHICS
 70
     1
  9
$MEASUREMENT
 70
     0
  9
$CELWEIGHT
370
    -1
  9
$ENDCAPS
280
     0
  9
$JOINSTYLE
280
     0
  9
$LWDISPLAY
290
     0
  9
$INSUNITS
 70
     0
  9
$HYPERLINKBASE
  1

  9
$STYLESHEET
  1

  9
$XEDIT
290
     1
  9
$CEPSNTYPE
380
     0
  9
$PSTYLEMODE
290
     1
  9
$FINGERPRINTGUID
  2
{74D881BB-C589-41ED-9755-6E9C9124D8A1}
  9
$VERSIONGUID
  2
{C36B0BB8-2446-4F00-9759-2454FB04BF5B}
  9
$EXTNAMES
290
     1
  9
$PSVPSCALE
 40
0.0
  9
$OLESTARTUP
290
     0
  0
ENDSEC
  0
SECTION
  2
CLASSES
  0
CLASS
  1
ACDBDICTIONARYWDFLT
  2
AcDbDictionaryWithDefault
  3
ObjectDBX Classes
 90
        0
280
     0
281
     0
  0
CLASS
  1
ACDBPLACEHOLDER
  2
AcDbPlaceHolder
  3
ObjectDBX Classes
 90
        0
280
     0
281
     0
  0
CLASS
  1
LAYOUT
  2
AcDbLayout
  3
ObjectDBX Classes
 90
        0
280
     0
281
     0
  0
CLASS
  1
DICTIONARYVAR
  2
AcDbDictionaryVar
  3
ObjectDBX Classes
 90
        0
280
     0
281
     0
  0
CLASS
  1
MATERIAL
  2
AcDbMaterial
  3
ObjectDBX Classes
 90
     1153
280
     0
281
     0
  0
CLASS
  1
VISUALSTYLE
  2
AcDbVisualStyle
  3
ObjectDBX Classes
 90
     4095
280
     0
281
     0
  0
CLASS
  1
TABLESTYLE
  2
AcDbTableStyle
  3
ObjectDBX Classes
 90
     4095
280
     0
281
     0
  0
CLASS
  1
SCALE
  2
AcDbScale
  3
ObjectDBX Classes
 90
     1153
280
     0
281
     0
  0
CLASS
  1
MLEADERSTYLE
  2
AcDbMLeaderStyle
  3
ACDB_MLEADERSTYLE_CLASS
 90
     4095
280
     0
281
     0
  0
CLASS
  1
ACDBSECTIONVIEWSTYLE
  2
AcDbSectionViewStyle
  3
ObjectDBX Classes
 90
     1025
280
     0
281
     0
  0
CLASS
  1
ACDBDETAILVIEWSTYLE
  2
AcDbDetailViewStyle
  3
ObjectDBX Classes
 90
     1025
280
     0
281
     0
  0
CLASS
  1
CELLSTYLEMAP
  2
AcDbCellStyleMap
  3
ObjectDBX Classes
 90
     1152
280
     0
281
     0
  0
ENDSEC
  0
SECTION
  2
TABLES
  0
TABLE
  2
VPORT
  5
BE5E
330
0
100
AcDbSymbolTable
 70
     1
  0
VPORT
  5
C036
330
BE5E
100
AcDbSymbolTableRecord
100
AcDbViewportTableRecord
  2
*ACTIVE
 70
     0
 10
0.0
 20
0.0
 11
1.0
 21
1.0
 12
431.1106563801239
 22
206.116334042298
 13
0.0
 23
0.0
 14
10.0
 24
10.0
 15
10.0
 25
10.0
 16
0.0
 26
0.0
 36
1.0
 17
0.0
 27
0.0
 37
0.0
 40
396.5997431738511
 41
2.35006605019815
 42
50.0
 43
0.0
 44
0.0
 50
0.0
 51
0.0
 71
     0
 72
   100
 73
     1
 74
     0
 75
     0
 76
     0
 77
     0
 78
     0
281
     0
 65
     1
110
0.0
120
0.0
130
0.0
111
1.0
121
0.0
131
0.0
112
0.0
122
1.0
132
0.0
 79
     0
146
0.0
1001
ACAD_NAV_VCDISPLAY
1070
     3
  0
ENDTAB
  0
TABLE
  2
LTYPE
  5
BE5B
330
0
100
AcDbSymbolTable
 70
     4
  0
LTYPE
  5
BE69
330
BE5B
100
AcDbSymbolTableRecord
100
AcDbLinetypeTableRecord
  2
BYBLOCK
 70
     0
  3

 72
    65
 73
     0
 40
0.0
  0
LTYPE
  5
BE6A
330
BE5B
100
AcDbSymbolTableRecord
100
AcDbLinetypeTableRecord
  2
BYLAYER
 70
     0
  3

 72
    65
 73
     0
 40
0.0
  0
LTYPE
  5
BE6B
330
BE5B
100
AcDbSymbolTableRecord
100
AcDbLinetypeTableRecord
  2
CONTINUOUS
 70
     0
  3
Solid line
 72
    65
 73
     0
 40
0.0
  0
LTYPE
  5
BE79
330
BE5B
100
AcDbSymbolTableRecord
100
AcDbLinetypeTableRecord
  2
DASHED
 70
     0
  3
__ __ __ __ __ __ __ __ __ __ __ __ __ __ __ __
 72
    65
 73
     2
 40
0.75
 49
0.5
 74
     0
 49
-0.25
 74
     0
  0
LTYPE
  5
BE7A
330
BE5B
100
AcDbSymbolTableRecord
100
AcDbLinetypeTableRecord
  2
CENTER
 70
     0
  3
____ _ ____ _ ____ _ ____ _ ____ _ ____ _ ____ 
 72
    65
 73
     4
 40
2.0
 49
1.25
 74
     0
 49
-0.25
 74
     0
 49
0.25
 74
     0
 49
-0.25
 74
     0
  0
LTYPE
  5
BE7B
330
BE5B
100
AcDbSymbolTableRecord
100
AcDbLinetypeTableRecord
  2
PHANTOM
 70
     0
  3
______  __  __  ______  __  __  ______  __  __ 
 72
    65
 73
     6
 40
2.5
 49
1.25
 74
     0
 49
-0.25
 74
     0
 49
0.25
 74
     0
 49
-0.25
 74
     0
 49
0.25
 74
     0
 49
-0.25
 74
     0
  0
ENDTAB
  0
TABLE
  2
LAYER
  5
BE58
330
0
100
AcDbSymbolTable
 70
     8
  0
LAYER
  5
BE66
102
{ACAD_XDICTIONARY
360
C091
102
}
330
BE58
100
AcDbSymbolTableRecord
100
AcDbLayerTableRecord
  2
0
 70
     0
 62
     7
  6
CONTINUOUS
370
    -3
390
C03F
  0
LAYER
  5
BE7C
102
{ACAD_XDICTIONARY
360
C093
102
}
330
BE58
100
AcDbSymbolTableRecord
100
AcDbLayerTableRecord
  2
4
 70
     0
 62
     1
  6
CENTER
370
    -3
390
C03F
  0
LAYER
  5
BE7D
102
{ACAD_XDICTIONARY
360
C095
102
}
330
BE58
100
AcDbSymbolTableRecord
100
AcDbLayerTableRecord
  2
5
 70
     0
 62
     6
  6
PHANTOM
370
    -3
390
C03F
  0
LAYER
  5
BE7E
102
{ACAD_XDICTIONARY
360
C097
102
}
330
BE58
100
AcDbSymbolTableRecord
100
AcDbLayerTableRecord
  2
1
 70
     0
 62
     7
  6
CONTINUOUS
370
    -3
390
C03F
  0
LAYER
  5
BE7F
102
{ACAD_XDICTIONARY
360
C099
102
}
330
BE58
100
AcDbSymbolTableRecord
100
AcDbLayerTableRecord
  2
2
 70
     0
 62
     4
  6
CONTINUOUS
370
    -3
390
C03F
  0
LAYER
  5
BE80
102
{ACAD_XDICTIONARY
360
C09B
102
}
330
BE58
100
AcDbSymbolTableRecord
100
AcDbLayerTableRecord
  2
3
 70
     0
 62
     2
  6
DASHED
370
    -3
390
C03F
  0
LAYER
  5
BE81
102
{ACAD_XDICTIONARY
360
C09D
102
}
330
BE58
100
AcDbSymbolTableRecord
100
AcDbLayerTableRecord
  2
6
 70
     0
 62
     5
  6
CONTINUOUS
370
    -3
390
C03F
  0
LAYER
  5
BE82
102
{ACAD_XDICTIONARY
360
C09F
102
}
330
BE58
100
AcDbSymbolTableRecord
100
AcDbLayerTableRecord
  2
7
 70
     0
 62
     3
  6
CONTINUOUS
370
    -3
390
C03F
  0
ENDTAB
  0
TABLE
  2
STYLE
  5
BE59
330
0
100
AcDbSymbolTable
 70
     1
  0
STYLE
  5
BE67
330
BE59
100
AcDbSymbolTableRecord
100
AcDbTextStyleTableRecord
  2
STANDARD
 70
     0
 40
0.0
 41
1.0
 50
0.0
 71
     0
 42
5.0
  3
txt
  4

  0
ENDTAB
  0
TABLE
  2
VIEW
  5
BE5C
330
0
100
AcDbSymbolTable
 70
     0
  0
ENDTAB
  0
TABLE
  2
UCS
  5
BE5D
330
0
100
AcDbSymbolTable
 70
     0
  0
ENDTAB
  0
TABLE
  2
APPID
  5
BE5F
330
0
100
AcDbSymbolTable
 70
     3
  0
APPID
  5
BE68
330
BE5F
100
AcDbSymbolTableRecord
100
AcDbRegAppTableRecord
  2
ACAD
 70
     0
  0
APPID
  5
C0AB
330
BE5F
100
AcDbSymbolTableRecord
100
AcDbRegAppTableRecord
  2
ACAD_NAV_VCDISPLAY
 70
     0
  0
APPID
  5
C0E4
330
BE5F
100
AcDbSymbolTableRecord
100
AcDbRegAppTableRecord
  2
ACAD_MLEADERVER
 70
     0
  0
ENDTAB
  0
TABLE
  2
DIMSTYLE
  5
BE60
330
0
100
AcDbSymbolTable
 70
     1
100
AcDbDimStyleTable
 71
     0
  0
DIMSTYLE
105
BE84
330
BE60
100
AcDbSymbolTableRecord
100
AcDbDimStyleTableRecord
  2
STANDARD
 70
     0
 41
3.0
 42
1.0
 43
10.0
 44
1.0
 73
     0
 74
     0
 77
     3
 78
     8
140
3.2
141
0.0
147
1.0
172
     1
173
     1
284
     8
285
     8
286
     8
340
BE67
  0
ENDTAB
  0
TABLE
  2
BLOCK_RECORD
  5
BE57
330
0
100
AcDbSymbolTable
 70
     1
  0
BLOCK_RECORD
  5
BE74
102
{ACAD_XDICTIONARY
360
C039
102
}
330
BE57
100
AcDbSymbolTableRecord
100
AcDbBlockTableRecord
  2
*MODEL_SPACE
340
C08D
  0
BLOCK_RECORD
  5
BE70
102
{ACAD_XDICTIONARY
360
C037
102
}
330
BE57
100
AcDbSymbolTableRecord
100
AcDbBlockTableRecord
  2
*PAPER_SPACE
340
C08E
  0
BLOCK_RECORD
  5
BE8C
330
BE57
100
AcDbSymbolTableRecord
100
AcDbBlockTableRecord
  2
_OPEN
340
0
  0
ENDTAB
  0
ENDSEC
  0
SECTION
  2
BLOCKS
  0
BLOCK
  5
BE75
330
BE74
100
AcDbEntity
  8
0
100
AcDbBlockBegin
  2
*MODEL_SPACE
 70
     0
 10
0.0
 20
0.0
 30
0.0
  3
*MODEL_SPACE
  1

  0
ENDBLK
  5
BE76
330
BE74
100
AcDbEntity
  8
0
100
AcDbBlockEnd
  0
BLOCK
  5
BE71
330
BE70
100
AcDbEntity
 67
     1
  8
0
100
AcDbBlockBegin
  2
*PAPER_SPACE
 70
     0
 10
0.0
 20
0.0
 30
0.0
  3
*PAPER_SPACE
  1

  0
ENDBLK
  5
BE72
330
BE70
100
AcDbEntity
 67
     1
  8
0
100
AcDbBlockEnd
  0
BLOCK
  5
BE8D
330
BE8C
100
AcDbEntity
  8
0
100
AcDbBlockBegin
  2
_OPEN
 70
     0
 10
0.0
 20
0.0
 30
0.0
  3
_OPEN
  1

  0
LINE
  5
BE8E
330
BE8C
100
AcDbEntity
  8
0
  6
ByBlock
 62
     0
100
AcDbLine
 10
-1.0
 20
0.166667
 30
0.0
 11
0.0
 21
0.0
 31
0.0
  0
LINE
  5
BE8F
330
BE8C
100
AcDbEntity
  8
0
  6
ByBlock
 62
     0
100
AcDbLine
 10
0.0
 20
0.0
 30
0.0
 11
-1.0
 21
-0.166667
 31
0.0
  0
LINE
  5
BE90
330
BE8C
100
AcDbEntity
  8
0
  6
ByBlock
 62
     0
100
AcDbLine
 10
0.0
 20
0.0
 30
0.0
 11
-1.0
 21
0.0
 31
0.0
  0
ENDBLK
  5
BE91
330
BE8C
100
AcDbEntity
  8
0
100
AcDbBlockEnd
  0
ENDSEC
  0
SECTION
  2
ENTITIES
  0
TEXT
  5
BE92
330
BE74
100
AcDbEntity
  8
7
  6
Continuous
100
AcDbText
 10
10.0
 20
18.0
 30
0.0
 40
3.0
  1
TYPE No.606HB2-EP
100
AcDbText
  0
TEXT
  5
BE93
330
BE74
100
AcDbEntity
  8
7
  6
Continuous
100
AcDbText
 10
10.0
 20
26.0
 30
0.0
 40
3.0
  1
CODE No.19089
100
AcDbText
  0
TEXT
  5
BE94
330
BE74
100
AcDbEntity
  8
1
  6
Continuous
100
AcDbText
 10
10.0
 20
10.0
 30
0.0
 40
1.399999999999999
  1
LAYER
100
AcDbText
  0
TEXT
  5
BE95
330
BE74
100
AcDbEntity
  8
1
  6
Continuous
100
AcDbText
 10
17.97951099999998
 20
10.04873699999998
 30
0.0
 40
1.399999999999999
  1
1
100
AcDbText
  0
TEXT
  5
BE96
330
BE74
100
AcDbEntity
  8
7
  6
Continuous
100
AcDbText
 10
29.97951099999999
 20
10.04873699999998
 30
0.0
 40
1.399999999999999
  1
7
100
AcDbText
  0
TEXT
  5
BE97
330
BE74
100
AcDbEntity
  8
4
  6
CENTER
100
AcDbText
 10
23.97951099999999
 20
10.04873699999998
 30
0.0
 40
1.399999999999999
  1
4
100
AcDbText
  0
TEXT
  5
BE98
330
BE74
100
AcDbEntity
  8
3
  6
DASHED
100
AcDbText
 10
21.979511
 20
10.04873699999998
 30
0.0
 40
1.399999999999999
  1
3
100
AcDbText
  0
TEXT
  5
BE99
330
BE74
100
AcDbEntity
  8
2
  6
Continuous
100
AcDbText
 10
19.97951099999999
 20
10.04873699999998
 30
0.0
 40
1.399999999999999
  1
2
100
AcDbText
  0
TEXT
  5
BE9A
330
BE74
100
AcDbEntity
  8
6
  6
Continuous
100
AcDbText
 10
27.979511
 20
10.04873699999998
 30
0.0
 40
1.399999999999999
  1
6
100
AcDbText
  0
TEXT
  5
BE9B
330
BE74
100
AcDbEntity
  8
5
  6
PHANTOM
100
AcDbText
 10
25.97951099999999
 20
10.04873699999998
 30
0.0
 40
1.399999999999999
  1
5
100
AcDbText
  0
ARC
  5
BE9C
330
BE74
100
AcDbEntity
  8
1
  6
Continuous
100
AcDbCircle
 10
173.539703
 20
390.817928
 30
0.0
 40
10.0
100
AcDbArc
 50
47.79455399999998
 51
180.0
  0
LINE
  5
BE9D
330
BE74
100
AcDbEntity
  8
1
  6
Continuous
100
AcDbLine
 10
215.0666589999999
 20
388.817928
 30
0.0
 11
235.0127469999999
 21
388.817928
 31
0.0
  0
ARC
  5
BE9E
330
BE74
100
AcDbEntity
  8
1
  6
Continuous
100
AcDbCircle
 10
182.6088809999999
 20
400.817928
 30
0.0
 40
3.5
100
AcDbArc
 50
227.794554
 51
351.786789
  0
CIRCLE
  5
BE9F
330
BE74
100
AcDbEntity
  8
1
  6
Continuous
100
AcDbCircle
 10
173.539703
 20
390.817928
 30
0.0
 40
5.25
  0
ARC
  5
BEA0
330
BE74
100
AcDbEntity
  8
1
  6
Continuous
100
AcDbCircle
 10
276.5397029999999
 20
390.817928
 30
0.0
 40
10.0
100
AcDbArc
 50
0.0
 51
132.2054459999999
  0
ARC
  5
BEA1
330
BE74
100
AcDbEntity
  8
1
  6
Continuous
100
AcDbCircle
 10
267.470524
 20
400.817928
 30
0.0
 40
3.5
100
AcDbArc
 50
188.213211
 51
312.205446
  0
CIRCLE
  5
BEA2
330
BE74
100
AcDbEntity
  8
1
  6
Continuous
100
AcDbCircle
 10
276.5397029999999
 20
390.817928
 30
0.0
 40
5.25
  0
LINE
  5
BEA3
330
BE74
100
AcDbEntity
  8
1
  6
Continuous
100
AcDbLine
 10
163.539703
 20
338.817928
 30
0.0
 11
163.539703
 21
390.817928
 31
0.0
  0
ARC
  5
BEA4
330
BE74
100
AcDbEntity
  8
1
  6
Continuous
100
AcDbCircle
 10
173.539703
 20
338.817928
 30
0.0
 40
10.0
100
AcDbArc
 50
180.0
 51
312.205446
  0
LINE
  5
BEA5
330
BE74
100
AcDbEntity
  8
1
  6
Continuous
100
AcDbLine
 10
215.0666589999999
 20
340.817928
 30
0.0
 11
235.0127469999999
 21
340.817928
 31
0.0
  0
ARC
  5
BEA6
330
BE74
100
AcDbEntity
  8
1
  6
Continuous
100
AcDbCircle
 10
182.6088809999999
 20
328.817928
 30
0.0
 40
3.5
100
AcDbArc
 50
8.213210999999997
 51
132.2054459999999
  0
CIRCLE
  5
BEA7
330
BE74
100
AcDbEntity
  8
1
  6
Continuous
100
AcDbCircle
 10
173.539703
 20
338.817928
 30
0.0
 40
5.25
  0
LINE
  5
BEA8
330
BE74
100
AcDbEntity
  8
1
  6
Continuous
100
AcDbLine
 10
286.539703
 20
338.817928
 30
0.0
 11
286.539703
 21
390.817928
 31
0.0
  0
ARC
  5
BEA9
330
BE74
100
AcDbEntity
  8
1
  6
Continuous
100
AcDbCircle
 10
276.5397029999999
 20
338.817928
 30
0.0
 40
10.0
100
AcDbArc
 50
227.794554
 51
0.0
  0
ARC
  5
BEAA
330
BE74
100
AcDbEntity
  8
1
  6
Continuous
100
AcDbCircle
 10
267.470524
 20
328.817928
 30
0.0
 40
3.5
100
AcDbArc
 50
47.79455399999998
 51
171.7867889999999
  0
CIRCLE
  5
BEAB
330
BE74
100
AcDbEntity
  8
1
  6
Continuous
100
AcDbCircle
 10
276.5397029999999
 20
338.817928
 30
0.0
 40
5.25
  0
LINE
  5
BEAC
330
BE74
100
AcDbEntity
  8
1
  6
Continuous
100
AcDbLine
 10
163.539703
 20
274.1584739999999
 30
0.0
 11
163.539703
 21
271.258474
 31
0.0
  0
LINE
  5
BEAD
330
BE74
100
AcDbEntity
  8
1
  6
Continuous
100
AcDbLine
 10
286.539703
 20
274.1584739999999
 30
0.0
 11
286.539703
 21
271.258474
 31
0.0
  0
LINE
  5
BEAE
330
BE74
100
AcDbEntity
  8
1
  6
Continuous
100
AcDbLine
 10
163.539703
 20
274.1584739999999
 30
0.0
 11
286.539703
 21
274.1584739999999
 31
0.0
  0
ARC
  5
BEAF
330
BE74
100
AcDbEntity
  8
1
  6
Continuous
100
AcDbCircle
 10
184.0750979999999
 20
270.658474
 30
0.0
 40
3.5
100
AcDbArc
 50
17.58955499999999
 51
90.0
  0
ARC
  5
BEB0
330
BE74
100
AcDbEntity
  8
1
  6
Continuous
100
AcDbCircle
 10
266.0043069999999
 20
270.658474
 30
0.0
 40
3.5
100
AcDbArc
 50
90.0
 51
162.4104449999999
  0
LINE
  5
BEB1
330
BE74
100
AcDbEntity
  8
1
  6
Continuous
100
AcDbLine
 10
163.539703
 20
271.258474
 30
0.0
 11
185.72648
 21
271.258474
 31
0.0
  0
LINE
  5
BEB2
330
BE74
100
AcDbEntity
  8
1
  6
Continuous
100
AcDbLine
 10
264.352925
 20
271.258474
 30
0.0
 11
286.539703
 21
271.258474
 31
0.0
  0
ARC
  5
BEB3
330
BE74
100
AcDbEntity
  8
1
  6
Continuous
100
AcDbCircle
 10
225.0397029999998
 20
202.658474
 30
0.0
 40
15.0
100
AcDbArc
 50
197.5895549999999
 51
342.4104449999999
  0
LINE
  5
BEB4
330
BE74
100
AcDbEntity
  8
1
  6
Continuous
100
AcDbLine
 10
214.0397029999999
 20
272.246166
 30
0.0
 11
214.0397029999999
 21
198.221698
 31
0.0
  0
LINE
  5
BEB5
330
BE74
100
AcDbEntity
  8
1
  6
Continuous
100
AcDbLine
 10
236.0397029999998
 20
272.163631
 30
0.0
 11
236.0397029999998
 21
198.1558259999999
 31
0.0
  0
LINE
  5
BEB6
330
BE74
100
AcDbEntity
  8
4
  6
CENTER
100
AcDbLine
 10
158.811157
 20
364.8179279999998
 30
0.0
 11
291.6804189999999
 21
364.8179279999998
 31
0.0
  0
LINE
  5
BEB7
330
BE74
100
AcDbEntity
  8
4
  6
CENTER
100
AcDbLine
 10
225.0397029999998
 20
331.4718159999998
 30
0.0
 11
225.0397029999998
 21
402.229477
 31
0.0
  0
LINE
  5
BEB8
330
BE74
100
AcDbEntity
  8
4
  6
CENTER
100
AcDbLine
 10
164.9367709999999
 20
390.817928
 30
0.0
 11
182.9231749999999
 21
390.817928
 31
0.0
  0
LINE
  5
BEB9
330
BE74
100
AcDbEntity
  8
4
  6
CENTER
100
AcDbLine
 10
173.539703
 20
380.9163789999999
 30
0.0
 11
173.539703
 21
399.3121759999998
 31
0.0
  0
LINE
  5
BEBA
330
BE74
100
AcDbEntity
  8
4
  6
CENTER
100
AcDbLine
 10
173.539703
 20
329.649575
 30
0.0
 11
173.539703
 21
347.226575
 31
0.0
  0
LINE
  5
BEBB
330
BE74
100
AcDbEntity
  8
4
  6
CENTER
100
AcDbLine
 10
164.6106289999999
 20
338.817928
 30
0.0
 11
182.35416
 21
338.817928
 31
0.0
  0
LINE
  5
BEBC
330
BE74
100
AcDbEntity
  8
4
  6
CENTER
100
AcDbLine
 10
267.879756
 20
338.817928
 30
0.0
 11
285.540023
 21
338.817928
 31
0.0
  0
LINE
  5
BEBD
330
BE74
100
AcDbEntity
  8
4
  6
CENTER
100
AcDbLine
 10
276.5397029999999
 20
330.058987
 30
0.0
 11
276.5397029999999
 21
348.121731
 31
0.0
  0
LINE
  5
BEBE
330
BE74
100
AcDbEntity
  8
4
  6
CENTER
100
AcDbLine
 10
266.9846069999999
 20
390.817928
 30
0.0
 11
285.380418
 21
390.817928
 31
0.0
  0
LINE
  5
BEBF
330
BE74
100
AcDbEntity
  8
4
  6
CENTER
100
AcDbLine
 10
276.5397029999999
 20
381.5686609999998
 30
0.0
 11
276.5397029999999
 21
399.7146649999999
 31
0.0
  0
LINE
  5
BEC0
330
BE74
100
AcDbEntity
  8
4
  6
CENTER
100
AcDbLine
 10
276.5397029999999
 20
276.326496
 30
0.0
 11
276.5397029999999
 21
269.0757069999999
 31
0.0
  0
LINE
  5
BEC1
330
BE74
100
AcDbEntity
  8
4
  6
CENTER
100
AcDbLine
 10
173.539703
 20
276.50776
 30
0.0
 11
173.539703
 21
268.731016
 31
0.0
  0
LINE
  5
BEC2
330
BE74
100
AcDbEntity
  8
4
  6
CENTER
100
AcDbLine
 10
184.5397029999998
 20
205.658474
 30
0.0
 11
265.5397029999999
 21
205.658474
 31
0.0
  0
LINE
  5
BEC3
330
BE74
100
AcDbEntity
  8
4
  6
CENTER
100
AcDbLine
 10
225.0397029999998
 20
165.158474
 30
0.0
 11
225.0397029999998
 21
277.8507139999999
 31
0.0
  0
ARC
  5
BEC4
330
BE74
100
AcDbEntity
  8
1
  6
Continuous
100
AcDbCircle
 10
264.0064219999999
 20
363.518658
 30
0.0
 40
36.79927
100
AcDbArc
 50
90.0
 51
133.2703389999998
  0
ARC
  5
BEC5
330
BE74
100
AcDbEntity
  8
1
  6
Continuous
100
AcDbCircle
 10
235.0127469999999
 20
394.3179279999998
 30
0.0
 40
5.5
100
AcDbArc
 50
270.0
 51
313.2703389999999
  0
ARC
  5
BEC6
330
BE74
100
AcDbEntity
  8
1
  6
Continuous
100
AcDbCircle
 10
186.0729839999999
 20
363.518658
 30
0.0
 40
36.79927
100
AcDbArc
 50
46.729661
 51
90.0
  0
ARC
  5
BEC7
330
BE74
100
AcDbEntity
  8
1
  6
Continuous
100
AcDbCircle
 10
215.0666589999999
 20
394.3179279999998
 30
0.0
 40
5.5
100
AcDbArc
 50
226.7296609999999
 51
270.0
  0
ARC
  5
BEC8
330
BE74
100
AcDbEntity
  8
1
  6
Continuous
100
AcDbCircle
 10
264.0064219999999
 20
366.1171979999999
 30
0.0
 40
36.79927
100
AcDbArc
 50
226.7296609999999
 51
270.0
  0
ARC
  5
BEC9
330
BE74
100
AcDbEntity
  8
1
  6
Continuous
100
AcDbCircle
 10
235.0127469999999
 20
335.3179279999999
 30
0.0
 40
5.5
100
AcDbArc
 50
46.729661
 51
90.0
  0
ARC
  5
BECA
330
BE74
100
AcDbEntity
  8
1
  6
Continuous
100
AcDbCircle
 10
215.0666589999999
 20
335.3179279999999
 30
0.0
 40
5.5
100
AcDbArc
 50
90.0
 51
133.2703389999998
  0
ARC
  5
BECB
330
BE74
100
AcDbEntity
  8
1
  6
Continuous
100
AcDbCircle
 10
186.0729839999999
 20
366.1171979999999
 30
0.0
 40
36.79927
100
AcDbArc
 50
270.0
 51
313.2703389999999
  0
LINE
  5
BECC
330
BE74
100
AcDbEntity
  8
1
  6
Continuous
100
AcDbLine
 10
97.0
 20
271.258065
 30
0.0
 11
25.0
 21
271.258065
 31
0.0
  0
LINE
  5
BECD
330
BE74
100
AcDbEntity
  8
1
  6
Continuous
100
AcDbLine
 10
97.0
 20
274.1580649999999
 30
0.0
 11
25.0
 21
274.1580649999999
 31
0.0
  0
LINE
  5
BECE
330
BE74
100
AcDbEntity
  8
4
  6
CENTER
100
AcDbLine
 10
94.463178
 20
205.658474
 30
0.0
 11
22.134626
 21
205.658474
 31
0.0
  0
LINE
  5
BECF
330
BE74
100
AcDbEntity
  8
1
  6
Continuous
100
AcDbLine
 10
82.09999999999999
 20
268.758065
 30
0.0
 11
82.09999999999999
 21
187.658474
 31
0.0
  0
ARC
  5
BED0
330
BE74
100
AcDbEntity
  8
1
  6
Continuous
100
AcDbCircle
 10
1.954969
 20
245.505096
 30
0.0
 40
91.64745999999999
100
AcDbArc
 50
334.850511
 51
359.9932539999999
  0
ARC
  5
BED1
330
BE74
100
AcDbEntity
  8
1
  6
Continuous
100
AcDbCircle
 10
2.020977999999999
 20
245.494306
 30
0.0
 40
94.48145399999999
100
AcDbArc
 50
335.245386
 51
0.0
  0
ARC
  5
BED2
330
BE74
100
AcDbEntity
  8
1
  6
Continuous
100
AcDbCircle
 10
116.0365659999998
 20
193.0042889999998
 30
0.0
 40
31.036567
100
AcDbArc
 50
155.384567
 51
180.0
  0
LINE
  5
BED3
330
BE74
100
AcDbEntity
  8
1
  6
Continuous
100
AcDbLine
 10
85.0
 20
193.0042889999998
 30
0.0
 11
85.0
 21
187.658474
 31
0.0
  0
LINE
  5
BED4
330
BE74
100
AcDbEntity
  8
1
  6
Continuous
100
AcDbLine
 10
85.0
 20
187.658474
 30
0.0
 11
82.09999999999999
 21
187.658474
 31
0.0
  0
ARC
  5
BED5
330
BE74
100
AcDbEntity
  8
1
  6
Continuous
100
AcDbCircle
 10
112.119771
 20
193.8658209999999
 30
0.0
 40
30.01977099999999
100
AcDbArc
 50
154.991783
 51
180.0
  0
LINE
  5
BED6
330
BE74
100
AcDbEntity
  8
1
  6
Continuous
100
AcDbLine
 10
96.5
 20
271.258065
 30
0.0
 11
96.5
 21
244.816322
 31
0.0
  0
LINE
  5
BED7
330
BE74
100
AcDbEntity
  8
1
  6
Continuous
100
AcDbLine
 10
93.59999999999999
 20
271.258065
 30
0.0
 11
93.59999999999999
 21
244.837901
 31
0.0
  0
LINE
  5
BED8
330
BE74
100
AcDbEntity
  8
4
  6
CENTER
100
AcDbLine
 10
87.0
 20
268.731016
 30
0.0
 11
87.0
 21
276.6602429999999
 31
0.0
  0
ARC
  5
BED9
330
BE74
100
AcDbEntity
  8
1
  6
Continuous
100
AcDbCircle
 10
79.59999999999998
 20
268.758065
 30
0.0
 40
2.5
100
AcDbArc
 50
0.0
 51
90.0
  0
LINE
  5
BEDA
330
BE74
100
AcDbEntity
  8
1
  6
Continuous
100
AcDbLine
 10
97.0
 20
271.258065
 30
0.0
 11
97.0
 21
274.1580649999999
 31
0.0
  0
LINE
  5
BEDB
330
BE74
100
AcDbEntity
  8
4
  6
CENTER
100
AcDbLine
 10
61.0
 20
276.9628289999999
 30
0.0
 11
61.0
 21
164.8550989999999
 31
0.0
  0
LINE
  5
BEDC
330
BE74
100
AcDbEntity
  8
1
  6
Continuous
100
AcDbLine
 10
39.9
 20
268.758065
 30
0.0
 11
39.9
 21
187.658474
 31
0.0
  0
ARC
  5
BEDD
330
BE74
100
AcDbEntity
  8
1
  6
Continuous
100
AcDbCircle
 10
119.979022
 20
245.494306
 30
0.0
 40
94.48145399999999
100
AcDbArc
 50
180.0
 51
204.6857499999998
  0
ARC
  5
BEDE
330
BE74
100
AcDbEntity
  8
1
  6
Continuous
100
AcDbCircle
 10
120.0450309999999
 20
245.505096
 30
0.0
 40
91.64745999999999
100
AcDbArc
 50
180.006746
 51
205.149489
  0
ARC
  5
BEDF
330
BE74
100
AcDbEntity
  8
1
  6
Continuous
100
AcDbCircle
 10
9.880228
 20
193.8658209999999
 30
0.0
 40
30.01977099999999
100
AcDbArc
 50
0.0
 51
25.00821699999999
  0
ARC
  5
BEE0
330
BE74
100
AcDbEntity
  8
1
  6
Continuous
100
AcDbCircle
 10
5.963433
 20
193.0042889999998
 30
0.0
 40
31.036567
100
AcDbArc
 50
0.0
 51
24.825067
  0
LINE
  5
BEE1
330
BE74
100
AcDbEntity
  8
1
  6
Continuous
100
AcDbLine
 10
37.0
 20
187.658474
 30
0.0
 11
37.0
 21
193.0042889999998
 31
0.0
  0
LINE
  5
BEE2
330
BE74
100
AcDbEntity
  8
1
  6
Continuous
100
AcDbLine
 10
39.9
 20
187.658474
 30
0.0
 11
37.0
 21
187.658474
 31
0.0
  0
LINE
  5
BEE3
330
BE74
100
AcDbEntity
  8
1
  6
Continuous
100
AcDbLine
 10
25.5
 20
271.258065
 30
0.0
 11
25.5
 21
245.494306
 31
0.0
  0
LINE
  5
BEE4
330
BE74
100
AcDbEntity
  8
1
  6
Continuous
100
AcDbLine
 10
28.39999999999999
 20
271.258065
 30
0.0
 11
28.39999999999999
 21
245.494306
 31
0.0
  0
ARC
  5
BEE5
330
BE74
100
AcDbEntity
  8
1
  6
Continuous
100
AcDbCircle
 10
42.4
 20
268.758065
 30
0.0
 40
2.5
100
AcDbArc
 50
90.0
 51
180.0
  0
LINE
  5
BEE6
330
BE74
100
AcDbEntity
  8
4
  6
CENTER
100
AcDbLine
 10
35.0
 20
268.731016
 30
0.0
 11
35.0
 21
276.916019
 31
0.0
  0
LINE
  5
BEE7
330
BE74
100
AcDbEntity
  8
1
  6
Continuous
100
AcDbLine
 10
25.0
 20
271.258065
 30
0.0
 11
25.0
 21
274.1580649999999
 31
0.0
  0
CIRCLE
  5
BEE8
330
BE74
100
AcDbEntity
  8
1
  6
Continuous
100
AcDbCircle
 10
553.119109
 20
205.658474
 30
0.0
 40
10.5
  0
CIRCLE
  5
BEE9
330
BE74
100
AcDbEntity
  8
1
  6
Continuous
100
AcDbCircle
 10
553.119109
 20
205.658474
 30
0.0
 40
6.0
  0
ARC
  5
BEEA
330
BE74
100
AcDbEntity
  8
1
  6
Continuous
100
AcDbCircle
 10
264.0064219999999
 20
78.29926999999996
 30
0.0
 40
36.79927
100
AcDbArc
 50
226.7296609999999
 51
270.0
  0
LINE
  5
BEEB
330
BE74
100
AcDbEntity
  8
4
  6
CENTER
100
AcDbLine
 10
158.8601319999999
 20
77.0
 30
0.0
 11
291.6804189999999
 21
77.0
 31
0.0
  0
ARC
  5
BEEC
330
BE74
100
AcDbEntity
  8
1
  6
Continuous
100
AcDbCircle
 10
264.0064219999999
 20
75.70072999999998
 30
0.0
 40
36.79927
100
AcDbArc
 50
90.0
 51
133.2703389999998
  0
LINE
  5
BEED
330
BE74
100
AcDbEntity
  8
4
  6
CENTER
100
AcDbLine
 10
225.0397029999998
 20
110.5947939999998
 30
0.0
 11
225.0397029999998
 21
39.421787
 31
0.0
  0
LINE
  5
BEEE
330
BE74
100
AcDbEntity
  8
1
  6
Continuous
100
AcDbLine
 10
163.539703
 20
103.0
 30
0.0
 11
163.539703
 21
51.0
 31
0.0
  0
ARC
  5
BEEF
330
BE74
100
AcDbEntity
  8
1
  6
Continuous
100
AcDbCircle
 10
182.6088809999999
 20
113.0
 30
0.0
 40
3.5
100
AcDbArc
 50
227.794554
 51
351.786789
  0
ARC
  5
BEF0
330
BE74
100
AcDbEntity
  8
1
  6
Continuous
100
AcDbCircle
 10
186.0729839999999
 20
75.70072999999998
 30
0.0
 40
36.79927
100
AcDbArc
 50
46.729661
 51
90.0
  0
LINE
  5
BEF1
330
BE74
100
AcDbEntity
  8
4
  6
CENTER
100
AcDbLine
 10
173.539703
 20
112.168353
 30
0.0
 11
173.539703
 21
94.59135299999998
 31
0.0
  0
ARC
  5
BEF2
330
BE74
100
AcDbEntity
  8
1
  6
Continuous
100
AcDbCircle
 10
173.539703
 20
103.0
 30
0.0
 40
10.0
100
AcDbArc
 50
47.79455399999998
 51
180.0
  0
CIRCLE
  5
BEF3
330
BE74
100
AcDbEntity
  8
1
  6
Continuous
100
AcDbCircle
 10
173.539703
 20
103.0
 30
0.0
 40
5.25
  0
LINE
  5
BEF4
330
BE74
100
AcDbEntity
  8
4
  6
CENTER
100
AcDbLine
 10
164.6106289999999
 20
103.0
 30
0.0
 11
182.35416
 21
103.0
 31
0.0
  0
LINE
  5
BEF5
330
BE74
100
AcDbEntity
  8
1
  6
Continuous
100
AcDbLine
 10
215.0666589999999
 20
101.0
 30
0.0
 11
235.0127469999999
 21
101.0
 31
0.0
  0
ARC
  5
BEF6
330
BE74
100
AcDbEntity
  8
1
  6
Continuous
100
AcDbCircle
 10
215.0666589999999
 20
106.4999999999999
 30
0.0
 40
5.5
100
AcDbArc
 50
226.7296609999999
 51
270.0
  0
ARC
  5
BEF7
330
BE74
100
AcDbEntity
  8
1
  6
Continuous
100
AcDbCircle
 10
235.0127469999999
 20
106.4999999999999
 30
0.0
 40
5.5
100
AcDbArc
 50
270.0
 51
313.2703389999999
  0
ARC
  5
BEF8
330
BE74
100
AcDbEntity
  8
1
  6
Continuous
100
AcDbCircle
 10
186.0729839999999
 20
78.29926999999996
 30
0.0
 40
36.79927
100
AcDbArc
 50
270.0
 51
313.2703389999999
  0
ARC
  5
BEF9
330
BE74
100
AcDbEntity
  8
1
  6
Continuous
100
AcDbCircle
 10
182.6088809999999
 20
41.0
 30
0.0
 40
3.5
100
AcDbArc
 50
8.213210999999997
 51
132.2054459999999
  0
ARC
  5
BEFA
330
BE74
100
AcDbEntity
  8
1
  6
Continuous
100
AcDbCircle
 10
173.539703
 20
51.0
 30
0.0
 40
10.0
100
AcDbArc
 50
180.0
 51
312.205446
  0
CIRCLE
  5
BEFB
330
BE74
100
AcDbEntity
  8
1
  6
Continuous
100
AcDbCircle
 10
173.539703
 20
51.0
 30
0.0
 40
5.25
  0
LINE
  5
BEFC
330
BE74
100
AcDbEntity
  8
4
  6
CENTER
100
AcDbLine
 10
164.9367709999999
 20
51.0
 30
0.0
 11
182.9231749999999
 21
51.0
 31
0.0
  0
LINE
  5
BEFD
330
BE74
100
AcDbEntity
  8
4
  6
CENTER
100
AcDbLine
 10
173.539703
 20
60.90154899999999
 30
0.0
 11
173.539703
 21
42.505752
 31
0.0
  0
LINE
  5
BEFE
330
BE74
100
AcDbEntity
  8
1
  6
Continuous
100
AcDbLine
 10
215.0666589999999
 20
53.0
 30
0.0
 11
235.0127469999999
 21
53.0
 31
0.0
  0
ARC
  5
BEFF
330
BE74
100
AcDbEntity
  8
1
  6
Continuous
100
AcDbCircle
 10
215.0666589999999
 20
47.5
 30
0.0
 40
5.5
100
AcDbArc
 50
90.0
 51
133.2703389999998
  0
ARC
  5
BF00
330
BE74
100
AcDbEntity
  8
1
  6
Continuous
100
AcDbCircle
 10
235.0127469999999
 20
47.5
 30
0.0
 40
5.5
100
AcDbArc
 50
46.729661
 51
90.0
  0
LINE
  5
BF01
330
BE74
100
AcDbEntity
  8
1
  6
Continuous
100
AcDbLine
 10
286.539703
 20
103.0
 30
0.0
 11
286.539703
 21
51.0
 31
0.0
  0
LINE
  5
BF02
330
BE74
100
AcDbEntity
  8
4
  6
CENTER
100
AcDbLine
 10
276.5397029999999
 20
111.7589409999998
 30
0.0
 11
276.5397029999999
 21
93.69619699999999
 31
0.0
  0
ARC
  5
BF03
330
BE74
100
AcDbEntity
  8
1
  6
Continuous
100
AcDbCircle
 10
276.5397029999999
 20
103.0
 30
0.0
 40
10.0
100
AcDbArc
 50
0.0
 51
132.2054459999999
  0
CIRCLE
  5
BF04
330
BE74
100
AcDbEntity
  8
1
  6
Continuous
100
AcDbCircle
 10
276.5397029999999
 20
103.0
 30
0.0
 40
5.25
  0
ARC
  5
BF05
330
BE74
100
AcDbEntity
  8
1
  6
Continuous
100
AcDbCircle
 10
267.470524
 20
113.0
 30
0.0
 40
3.5
100
AcDbArc
 50
188.213211
 51
312.205446
  0
LINE
  5
BF06
330
BE74
100
AcDbEntity
  8
4
  6
CENTER
100
AcDbLine
 10
267.879756
 20
103.0
 30
0.0
 11
285.540023
 21
103.0
 31
0.0
  0
ARC
  5
BF07
330
BE74
100
AcDbEntity
  8
1
  6
Continuous
100
AcDbCircle
 10
276.5397029999999
 20
51.0
 30
0.0
 40
10.0
100
AcDbArc
 50
227.794554
 51
0.0
  0
LINE
  5
BF08
330
BE74
100
AcDbEntity
  8
4
  6
CENTER
100
AcDbLine
 10
266.9846069999999
 20
51.0
 30
0.0
 11
285.380418
 21
51.0
 31
0.0
  0
ARC
  5
BF09
330
BE74
100
AcDbEntity
  8
1
  6
Continuous
100
AcDbCircle
 10
267.470524
 20
41.0
 30
0.0
 40
3.5
100
AcDbArc
 50
47.79455399999998
 51
171.7867889999999
  0
CIRCLE
  5
BF0A
330
BE74
100
AcDbEntity
  8
1
  6
Continuous
100
AcDbCircle
 10
276.5397029999999
 20
51.0
 30
0.0
 40
5.25
  0
LINE
  5
BF0B
330
BE74
100
AcDbEntity
  8
4
  6
CENTER
100
AcDbLine
 10
276.5397029999999
 20
60.249267
 30
0.0
 11
276.5397029999999
 21
42.103263
 31
0.0
  0
LINE
  5
BF0C
330
BE74
100
AcDbEntity
  8
1
  6
Continuous
100
AcDbLine
 10
215.0666589999999
 20
98.1
 30
0.0
 11
235.0127469999999
 21
98.1
 31
0.0
  0
ARC
  5
BF0D
330
BE74
100
AcDbEntity
  8
1
  6
Continuous
100
AcDbCircle
 10
264.0064219999999
 20
75.70072999999998
 30
0.0
 40
33.89927
100
AcDbArc
 50
87.951203
 51
133.2703389999998
  0
ARC
  5
BF0E
330
BE74
100
AcDbEntity
  8
1
  6
Continuous
100
AcDbCircle
 10
235.0127469999999
 20
106.4999999999999
 30
0.0
 40
8.4
100
AcDbArc
 50
270.0
 51
313.2703389999999
  0
ARC
  5
BF0F
330
BE74
100
AcDbEntity
  8
1
  6
Continuous
100
AcDbCircle
 10
215.0666589999999
 20
106.4999999999999
 30
0.0
 40
8.4
100
AcDbArc
 50
226.7296609999999
 51
270.0
  0
ARC
  5
BF10
330
BE74
100
AcDbEntity
  8
1
  6
Continuous
100
AcDbCircle
 10
186.0729839999999
 20
75.70072999999998
 30
0.0
 40
33.89927
100
AcDbArc
 50
46.729661
 51
92.04879599999999
  0
LINE
  5
BF11
330
BE74
100
AcDbEntity
  8
1
  6
Continuous
100
AcDbLine
 10
182.7340079999999
 20
109.5022369999999
 30
0.0
 11
184.861064
 21
109.5783299999999
 31
0.0
  0
LINE
  5
BF12
330
BE74
100
AcDbEntity
  8
1
  6
Continuous
100
AcDbLine
 10
265.218343
 20
109.5783299999999
 30
0.0
 11
267.3453970000001
 21
109.5022369999999
 31
0.0
  0
ARC
  5
BF13
330
BE74
100
AcDbEntity
  8
1
  6
Continuous
100
AcDbCircle
 10
264.0064219999999
 20
78.29926999999996
 30
0.0
 40
33.89927
100
AcDbArc
 50
226.7296609999999
 51
272.0487969999999
  0
ARC
  5
BF14
330
BE74
100
AcDbEntity
  8
1
  6
Continuous
100
AcDbCircle
 10
235.0127469999999
 20
47.5
 30
0.0
 40
8.4
100
AcDbArc
 50
46.729661
 51
90.0
  0
LINE
  5
BF15
330
BE74
100
AcDbEntity
  8
1
  6
Continuous
100
AcDbLine
 10
215.0666589999999
 20
55.89999999999999
 30
0.0
 11
235.0127469999999
 21
55.89999999999999
 31
0.0
  0
ARC
  5
BF16
330
BE74
100
AcDbEntity
  8
1
  6
Continuous
100
AcDbCircle
 10
215.0666589999999
 20
47.5
 30
0.0
 40
8.4
100
AcDbArc
 50
90.0
 51
133.2703389999998
  0
ARC
  5
BF17
330
BE74
100
AcDbEntity
  8
1
  6
Continuous
100
AcDbCircle
 10
186.0729839999999
 20
78.29926999999996
 30
0.0
 40
33.89927
100
AcDbArc
 50
267.951204
 51
313.2703389999999
  0
LINE
  5
BF18
330
BE74
100
AcDbEntity
  8
1
  6
Continuous
100
AcDbLine
 10
182.7340079999999
 20
44.49776299999999
 30
0.0
 11
184.861064
 21
44.42167
 31
0.0
  0
LINE
  5
BF19
330
BE74
100
AcDbEntity
  8
1
  6
Continuous
100
AcDbLine
 10
265.218343
 20
44.42167
 30
0.0
 11
267.3453970000001
 21
44.49776299999999
 31
0.0
  0
LINE
  5
BF1A
330
BE74
100
AcDbEntity
  8
1
  6
Continuous
100
AcDbLine
 10
233.5397029999998
 20
200.750997
 30
0.0
 11
233.5397029999998
 21
210.5659509999999
 31
0.0
  0
LINE
  5
BF1B
330
BE74
100
AcDbEntity
  8
1
  6
Continuous
100
AcDbLine
 10
216.5397029999998
 20
200.750997
 30
0.0
 11
216.5397029999998
 21
210.5659509999999
 31
0.0
  0
CIRCLE
  5
BF1C
330
BE74
100
AcDbEntity
  8
1
  6
Continuous
100
AcDbCircle
 10
225.0397029999998
 20
205.658474
 30
0.0
 40
8.5
  0
LINE
  5
BF1D
330
BE74
100
AcDbEntity
  8
1
  6
Continuous
100
AcDbLine
 10
216.5397029999998
 20
200.750997
 30
0.0
 11
225.0397029999998
 21
195.8435189999999
 31
0.0
  0
LINE
  5
BF1E
330
BE74
100
AcDbEntity
  8
1
  6
Continuous
100
AcDbLine
 10
233.5397029999998
 20
200.750997
 30
0.0
 11
225.0397029999998
 21
195.8435189999999
 31
0.0
  0
LINE
  5
BF1F
330
BE74
100
AcDbEntity
  8
1
  6
Continuous
100
AcDbLine
 10
225.0397029999998
 20
215.4734289999999
 30
0.0
 11
216.5397029999998
 21
210.5659509999999
 31
0.0
  0
LINE
  5
BF20
330
BE74
100
AcDbEntity
  8
1
  6
Continuous
100
AcDbLine
 10
225.0397029999998
 20
215.4734289999999
 30
0.0
 11
233.5397029999998
 21
210.5659509999999
 31
0.0
  0
LINE
  5
BF21
330
BE74
100
AcDbEntity
  8
1
  6
Continuous
100
AcDbLine
 10
214.539704
 20
391.817928
 30
0.0
 11
235.539704
 21
391.817928
 31
0.0
  0
ARC
  5
BF22
330
BE74
100
AcDbEntity
  8
1
  6
Continuous
100
AcDbCircle
 10
229.289704
 20
404.0934349999998
 30
0.0
 40
12.275507
100
AcDbArc
 50
249.7438419999999
 51
290.256158
  0
LINE
  5
BF23
330
BE74
100
AcDbEntity
  8
1
  6
Continuous
100
AcDbLine
 10
228.0397039999999
 20
388.817928
 30
0.0
 11
225.039704
 21
391.817928
 31
0.0
  0
LINE
  5
BF24
330
BE74
100
AcDbEntity
  8
1
  6
Continuous
100
AcDbLine
 10
216.539704
 20
398.817928
 30
0.0
 11
233.539704
 21
398.817928
 31
0.0
  0
LINE
  5
BF25
330
BE74
100
AcDbEntity
  8
1
  6
Continuous
100
AcDbLine
 10
219.039704
 20
399.0179279999999
 30
0.0
 11
231.039704
 21
399.0179279999999
 31
0.0
  0
LINE
  5
BF26
330
BE74
100
AcDbEntity
  8
1
  6
Continuous
100
AcDbLine
 10
219.839704
 20
399.817928
 30
0.0
 11
230.2397039999999
 21
399.817928
 31
0.0
  0
ARC
  5
BF27
330
BE74
100
AcDbEntity
  8
1
  6
Continuous
100
AcDbCircle
 10
229.289704
 20
386.542421
 30
0.0
 40
12.275507
100
AcDbArc
 50
69.743842
 51
110.256158
  0
LINE
  5
BF28
330
BE74
100
AcDbEntity
  8
1
  6
Continuous
100
AcDbLine
 10
225.039704
 20
398.058739
 30
0.0
 11
225.039704
 21
392.5771169999999
 31
0.0
  0
LINE
  5
BF29
330
BE74
100
AcDbEntity
  8
1
  6
Continuous
100
AcDbLine
 10
216.539704
 20
398.817928
 30
0.0
 11
216.539704
 21
391.817928
 31
0.0
  0
ARC
  5
BF2A
330
BE74
100
AcDbEntity
  8
1
  6
Continuous
100
AcDbCircle
 10
220.789704
 20
404.0934349999998
 30
0.0
 40
12.275507
100
AcDbArc
 50
249.7438419999999
 51
290.256158
  0
LINE
  5
BF2B
330
BE74
100
AcDbEntity
  8
1
  6
Continuous
100
AcDbLine
 10
225.039704
 20
388.817928
 30
0.0
 11
222.0397039999999
 21
391.817928
 31
0.0
  0
LINE
  5
BF2C
330
BE74
100
AcDbEntity
  8
1
  6
Continuous
100
AcDbLine
 10
214.539704
 20
391.817928
 30
0.0
 11
214.539704
 21
388.919405
 31
0.0
  0
ARC
  5
BF2D
330
BE74
100
AcDbEntity
  8
1
  6
Continuous
100
AcDbCircle
 10
220.789704
 20
386.542421
 30
0.0
 40
12.275507
100
AcDbArc
 50
69.743842
 51
110.256158
  0
LINE
  5
BF2E
330
BE74
100
AcDbEntity
  8
2
  6
Continuous
100
AcDbLine
 10
219.716204
 20
398.817928
 30
0.0
 11
219.716204
 21
399.6944279999998
 31
0.0
  0
LINE
  5
BF2F
330
BE74
100
AcDbEntity
  8
1
  6
Continuous
100
AcDbLine
 10
219.039704
 20
399.0179279999999
 30
0.0
 11
219.039704
 21
398.817928
 31
0.0
  0
LINE
  5
BF30
330
BE74
100
AcDbEntity
  8
1
  6
Continuous
100
AcDbLine
 10
233.539704
 20
398.817928
 30
0.0
 11
233.539704
 21
391.817928
 31
0.0
  0
LINE
  5
BF31
330
BE74
100
AcDbEntity
  8
1
  6
Continuous
100
AcDbLine
 10
235.539704
 20
391.817928
 30
0.0
 11
235.539704
 21
388.919405
 31
0.0
  0
LINE
  5
BF32
330
BE74
100
AcDbEntity
  8
2
  6
Continuous
100
AcDbLine
 10
230.363204
 20
398.817928
 30
0.0
 11
230.363204
 21
399.6944279999998
 31
0.0
  0
LINE
  5
BF33
330
BE74
100
AcDbEntity
  8
1
  6
Continuous
100
AcDbLine
 10
231.039704
 20
399.0179279999999
 30
0.0
 11
231.039704
 21
398.817928
 31
0.0
  0
LINE
  5
BF34
330
BE74
100
AcDbEntity
  8
1
  6
Continuous
100
AcDbLine
 10
233.5397029999998
 20
334.317928
 30
0.0
 11
216.5397029999998
 21
334.317928
 31
0.0
  0
ARC
  5
BF35
330
BE74
100
AcDbEntity
  8
1
  6
Continuous
100
AcDbCircle
 10
229.2897029999998
 20
346.5934349999998
 30
0.0
 40
12.275507
100
AcDbArc
 50
249.7438419999999
 51
290.256158
  0
ARC
  5
BF36
330
BE74
100
AcDbEntity
  8
1
  6
Continuous
100
AcDbCircle
 10
220.7897029999998
 20
346.5934349999998
 30
0.0
 40
12.275507
100
AcDbArc
 50
249.7438419999999
 51
290.256158
  0
LINE
  5
BF37
330
BE74
100
AcDbEntity
  8
1
  6
Continuous
100
AcDbLine
 10
216.5397029999998
 20
334.317928
 30
0.0
 11
216.5397029999998
 21
340.817928
 31
0.0
  0
LINE
  5
BF38
330
BE74
100
AcDbEntity
  8
1
  6
Continuous
100
AcDbLine
 10
225.0397029999998
 20
335.0771169999998
 30
0.0
 11
225.0397029999998
 21
340.817928
 31
0.0
  0
LINE
  5
BF39
330
BE74
100
AcDbEntity
  8
1
  6
Continuous
100
AcDbLine
 10
233.5397029999998
 20
334.317928
 30
0.0
 11
233.5397029999998
 21
340.817928
 31
0.0
  0
LINE
  5
BF3A
330
BE74
100
AcDbEntity
  8
1
  6
Continuous
100
AcDbLine
 10
34.0
 20
195.158475
 30
0.0
 11
36.898523
 21
195.158475
 31
0.0
  0
LINE
  5
BF3B
330
BE74
100
AcDbEntity
  8
1
  6
Continuous
100
AcDbLine
 10
35.08340299999999
 20
203.741878
 30
0.0
 11
34.0
 21
202.658475
 31
0.0
  0
LINE
  5
BF3C
330
BE74
100
AcDbEntity
  8
1
  6
Continuous
100
AcDbLine
 10
26.0
 20
200.4584749999999
 30
0.0
 11
26.0
 21
210.858474
 31
0.0
  0
LINE
  5
BF3D
330
BE74
100
AcDbEntity
  8
1
  6
Continuous
100
AcDbLine
 10
26.8
 20
199.658475
 30
0.0
 11
26.8
 21
211.658475
 31
0.0
  0
LINE
  5
BF3E
330
BE74
100
AcDbEntity
  8
1
  6
Continuous
100
AcDbLine
 10
27.0
 20
197.158474
 30
0.0
 11
27.0
 21
214.158474
 31
0.0
  0
LINE
  5
BF3F
330
BE74
100
AcDbEntity
  8
1
  6
Continuous
100
AcDbLine
 10
34.0
 20
195.158475
 30
0.0
 11
34.0
 21
206.323487
 31
0.0
  0
LINE
  5
BF40
330
BE74
100
AcDbEntity
  8
1
  6
Continuous
100
AcDbLine
 10
26.8
 20
199.658475
 30
0.0
 11
27.0
 21
199.658475
 31
0.0
  0
LINE
  5
BF41
330
BE74
100
AcDbEntity
  8
2
  6
Continuous
100
AcDbLine
 10
27.0
 20
200.3349739999999
 30
0.0
 11
26.1235
 21
200.3349739999999
 31
0.0
  0
LINE
  5
BF42
330
BE74
100
AcDbEntity
  8
1
  6
Continuous
100
AcDbLine
 10
26.8
 20
211.6584739999999
 30
0.0
 11
27.0
 21
211.658475
 31
0.0
  0
LINE
  5
BF43
330
BE74
100
AcDbEntity
  8
2
  6
Continuous
100
AcDbLine
 10
27.0
 20
210.981975
 30
0.0
 11
26.1235
 21
210.981975
 31
0.0
  0
LINE
  5
BF44
330
BE74
100
AcDbEntity
  8
1
  6
Continuous
100
AcDbLine
 10
90.74081099999999
 20
195.8435189999999
 30
0.0
 11
85.13013800000001
 21
195.8435189999999
 31
0.0
  0
LINE
  5
BF45
330
BE74
100
AcDbEntity
  8
1
  6
Continuous
100
AcDbLine
 10
90.74081099999999
 20
200.750997
 30
0.0
 11
85.98233200000001
 21
200.750997
 31
0.0
  0
LINE
  5
BF46
330
BE74
100
AcDbEntity
  8
1
  6
Continuous
100
AcDbLine
 10
90.74081099999999
 20
210.5659509999999
 30
0.0
 11
89.809105
 21
210.5659509999999
 31
0.0
  0
LINE
  5
BF47
330
BE74
100
AcDbEntity
  8
1
  6
Continuous
100
AcDbLine
 10
91.5
 20
197.158474
 30
0.0
 11
91.5
 21
214.158474
 31
0.0
  0
ARC
  5
BF48
330
BE74
100
AcDbEntity
  8
1
  6
Continuous
100
AcDbCircle
 10
75.259189
 20
205.658474
 30
0.0
 40
16.24081099999999
100
AcDbArc
 50
342.4120459999999
 51
17.587954
  0
ARC
  5
BF49
330
BE74
100
AcDbEntity
  8
1
  6
Continuous
100
AcDbCircle
 10
87.15510100000001
 20
198.297258
 30
0.0
 40
4.344898999999998
100
AcDbArc
 50
334.384247
 51
34.38424699999998
  0
LINE
  5
BF4A
330
BE74
100
AcDbEntity
  8
1
  6
Continuous
100
AcDbLine
 10
90.74081099999999
 20
195.8435189999999
 30
0.0
 11
91.5
 21
197.158474
 31
0.0
  0
ARC
  5
BF4B
330
BE74
100
AcDbEntity
  8
1
  6
Continuous
100
AcDbCircle
 10
87.15510100000001
 20
213.01969
 30
0.0
 40
4.344898999999998
100
AcDbArc
 50
325.6157529999999
 51
19.244382
  0
LINE
  5
BF4C
330
BE74
100
AcDbEntity
  8
1
  6
Continuous
100
AcDbLine
 10
91.284807
 20
214.5311979999999
 30
0.0
 11
91.5
 21
214.158474
 31
0.0
  0
ARC
  5
BF4D
330
BE74
100
AcDbEntity
  8
1
  6
Continuous
100
AcDbCircle
 10
17.75918899999999
 20
205.658474
 30
0.0
 40
16.24081099999999
100
AcDbArc
 50
342.4120459999999
 51
2.463102
  0
ARC
  5
BF4E
330
BE74
100
AcDbEntity
  8
1
  6
Continuous
100
AcDbCircle
 10
43.24081099999999
 20
205.658474
 30
0.0
 40
16.24081099999999
100
AcDbArc
 50
162.412046
 51
197.5879539999999
  0
ARC
  5
BF4F
330
BE74
100
AcDbEntity
  8
1
  6
Continuous
100
AcDbCircle
 10
29.65510099999999
 20
198.297258
 30
0.0
 40
4.344898999999998
100
AcDbArc
 50
334.384247
 51
34.38424699999998
  0
ARC
  5
BF50
330
BE74
100
AcDbEntity
  8
1
  6
Continuous
100
AcDbCircle
 10
31.344899
 20
198.297258
 30
0.0
 40
4.344898999999998
100
AcDbArc
 50
145.615753
 51
205.615753
  0
LINE
  5
BF51
330
BE74
100
AcDbEntity
  8
1
  6
Continuous
100
AcDbLine
 10
27.75918900000001
 20
195.8435189999999
 30
0.0
 11
33.240811
 21
195.8435189999999
 31
0.0
  0
LINE
  5
BF52
330
BE74
100
AcDbEntity
  8
1
  6
Continuous
100
AcDbLine
 10
27.75918900000001
 20
195.8435189999999
 30
0.0
 11
27.0
 21
197.158474
 31
0.0
  0
LINE
  5
BF53
330
BE74
100
AcDbEntity
  8
1
  6
Continuous
100
AcDbLine
 10
33.240811
 20
195.8435189999999
 30
0.0
 11
34.0
 21
197.158474
 31
0.0
  0
LINE
  5
BF54
330
BE74
100
AcDbEntity
  8
1
  6
Continuous
100
AcDbLine
 10
27.75918900000001
 20
200.750997
 30
0.0
 11
33.240811
 21
200.750997
 31
0.0
  0
ARC
  5
BF55
330
BE74
100
AcDbEntity
  8
1
  6
Continuous
100
AcDbCircle
 10
31.344899
 20
213.01969
 30
0.0
 40
4.344898999999998
100
AcDbArc
 50
154.3842469999999
 51
214.384247
  0
LINE
  5
BF56
330
BE74
100
AcDbEntity
  8
1
  6
Continuous
100
AcDbLine
 10
27.75918900000001
 20
210.5659509999999
 30
0.0
 11
32.19089499999999
 21
210.5659509999999
 31
0.0
  0
LINE
  5
BF57
330
BE74
100
AcDbEntity
  8
1
  6
Continuous
100
AcDbLine
 10
27.75918900000001
 20
215.4734289999999
 30
0.0
 11
30.393911
 21
215.4734289999999
 31
0.0
  0
LINE
  5
BF58
330
BE74
100
AcDbEntity
  8
1
  6
Continuous
100
AcDbLine
 10
27.75918900000001
 20
215.4734289999999
 30
0.0
 11
27.0
 21
214.158474
 31
0.0
  0
LINE
  5
BF59
330
BE74
100
AcDbEntity
  8
1
  6
Continuous
100
AcDbLine
 10
34.208938
 20
205.867412
 30
0.0
 11
34.0
 21
205.658474
 31
0.0
  0
LINE
  5
BF5A
330
BE74
100
AcDbEntity
  8
1
  6
Continuous
100
AcDbLine
 10
553.119109
 20
215.4734289999999
 30
0.0
 11
561.619109
 21
210.5659509999999
 31
0.0
  0
CIRCLE
  5
BF5B
330
BE74
100
AcDbEntity
  8
1
  6
Continuous
100
AcDbCircle
 10
553.119109
 20
205.658474
 30
0.0
 40
8.5
  0
LINE
  5
BF5C
330
BE74
100
AcDbEntity
  8
1
  6
Continuous
100
AcDbLine
 10
553.119109
 20
215.4734289999999
 30
0.0
 11
544.619109
 21
210.5659509999999
 31
0.0
  0
LINE
  5
BF5D
330
BE74
100
AcDbEntity
  8
1
  6
Continuous
100
AcDbLine
 10
561.619109
 20
200.750997
 30
0.0
 11
553.119109
 21
195.8435189999999
 31
0.0
  0
LINE
  5
BF5E
330
BE74
100
AcDbEntity
  8
1
  6
Continuous
100
AcDbLine
 10
544.619109
 20
200.750997
 30
0.0
 11
544.619109
 21
210.5659509999999
 31
0.0
  0
LINE
  5
BF5F
330
BE74
100
AcDbEntity
  8
1
  6
Continuous
100
AcDbLine
 10
544.619109
 20
200.750997
 30
0.0
 11
553.119109
 21
195.8435189999999
 31
0.0
  0
LINE
  5
BF60
330
BE74
100
AcDbEntity
  8
1
  6
Continuous
100
AcDbLine
 10
561.619109
 20
200.750997
 30
0.0
 11
561.619109
 21
210.5659509999999
 31
0.0
  0
CIRCLE
  5
BF61
330
BE74
100
AcDbEntity
  8
2
  6
Continuous
100
AcDbCircle
 10
553.119109
 20
205.658474
 30
0.0
 40
5.3235
  0
ARC
  5
BF62
330
BE74
100
AcDbEntity
  8
1
  6
Continuous
100
AcDbCircle
 10
220.789704
 20
55.27550699999999
 30
0.0
 40
12.275507
100
AcDbArc
 50
249.7438419999999
 51
290.256158
  0
ARC
  5
BF63
330
BE74
100
AcDbEntity
  8
1
  6
Continuous
100
AcDbCircle
 10
220.789704
 20
37.724493
 30
0.0
 40
12.275507
100
AcDbArc
 50
69.743842
 51
110.256158
  0
LINE
  5
BF64
330
BE74
100
AcDbEntity
  8
1
  6
Continuous
100
AcDbLine
 10
219.839704
 20
42.0
 30
0.0
 11
230.2397039999999
 21
42.0
 31
0.0
  0
LINE
  5
BF65
330
BE74
100
AcDbEntity
  8
1
  6
Continuous
100
AcDbLine
 10
219.039704
 20
42.8
 30
0.0
 11
231.039704
 21
42.8
 31
0.0
  0
LINE
  5
BF66
330
BE74
100
AcDbEntity
  8
1
  6
Continuous
100
AcDbLine
 10
216.539704
 20
43.0
 30
0.0
 11
233.539704
 21
43.0
 31
0.0
  0
LINE
  5
BF67
330
BE74
100
AcDbEntity
  8
1
  6
Continuous
100
AcDbLine
 10
214.539704
 20
50.0
 30
0.0
 11
235.539704
 21
50.0
 31
0.0
  0
LINE
  5
BF68
330
BE74
100
AcDbEntity
  8
1
  6
Continuous
100
AcDbLine
 10
225.0397029999998
 20
53.0
 30
0.0
 11
228.0397029999999
 21
50.0
 31
0.0
  0
LINE
  5
BF69
330
BE74
100
AcDbEntity
  8
1
  6
Continuous
100
AcDbLine
 10
216.539704
 20
43.0
 30
0.0
 11
216.539704
 21
50.0
 31
0.0
  0
LINE
  5
BF6A
330
BE74
100
AcDbEntity
  8
1
  6
Continuous
100
AcDbLine
 10
214.539704
 20
50.0
 30
0.0
 11
214.539704
 21
52.89852299999999
 31
0.0
  0
LINE
  5
BF6B
330
BE74
100
AcDbEntity
  8
1
  6
Continuous
100
AcDbLine
 10
219.039704
 20
42.8
 30
0.0
 11
219.039704
 21
43.0
 31
0.0
  0
LINE
  5
BF6C
330
BE74
100
AcDbEntity
  8
2
  6
Continuous
100
AcDbLine
 10
219.716204
 20
43.0
 30
0.0
 11
219.716204
 21
42.12349999999999
 31
0.0
  0
LINE
  5
BF6D
330
BE74
100
AcDbEntity
  8
1
  6
Continuous
100
AcDbLine
 10
233.539704
 20
43.0
 30
0.0
 11
233.539704
 21
50.0
 31
0.0
  0
LINE
  5
BF6E
330
BE74
100
AcDbEntity
  8
1
  6
Continuous
100
AcDbLine
 10
225.039704
 20
43.759189
 30
0.0
 11
225.039704
 21
49.240811
 31
0.0
  0
ARC
  5
BF6F
330
BE74
100
AcDbEntity
  8
1
  6
Continuous
100
AcDbCircle
 10
229.289704
 20
37.724493
 30
0.0
 40
12.275507
100
AcDbArc
 50
69.743842
 51
110.256158
  0
LINE
  5
BF70
330
BE74
100
AcDbEntity
  8
1
  6
Continuous
100
AcDbLine
 10
235.539704
 20
50.0
 30
0.0
 11
235.539704
 21
52.89852299999999
 31
0.0
  0
LINE
  5
BF71
330
BE74
100
AcDbEntity
  8
1
  6
Continuous
100
AcDbLine
 10
222.0397029999999
 20
53.0
 30
0.0
 11
225.0397029999998
 21
50.0
 31
0.0
  0
LINE
  5
BF72
330
BE74
100
AcDbEntity
  8
1
  6
Continuous
100
AcDbLine
 10
231.039704
 20
42.8
 30
0.0
 11
231.039704
 21
43.0
 31
0.0
  0
LINE
  5
BF73
330
BE74
100
AcDbEntity
  8
2
  6
Continuous
100
AcDbLine
 10
230.363204
 20
43.0
 30
0.0
 11
230.363204
 21
42.12349999999999
 31
0.0
  0
ARC
  5
BF74
330
BE74
100
AcDbEntity
  8
1
  6
Continuous
100
AcDbCircle
 10
229.289704
 20
55.27550699999999
 30
0.0
 40
12.275507
100
AcDbArc
 50
249.7438419999999
 51
290.256158
  0
ARC
  5
BF75
330
BE74
100
AcDbEntity
  8
1
  6
Continuous
100
AcDbCircle
 10
220.7897029999998
 20
95.22449299999999
 30
0.0
 40
12.275507
100
AcDbArc
 50
69.743842
 51
110.256158
  0
LINE
  5
BF76
330
BE74
100
AcDbEntity
  8
1
  6
Continuous
100
AcDbLine
 10
233.5397029999998
 20
107.4999999999999
 30
0.0
 11
216.5397029999998
 21
107.4999999999999
 31
0.0
  0
LINE
  5
BF77
330
BE74
100
AcDbEntity
  8
1
  6
Continuous
100
AcDbLine
 10
216.5397029999998
 20
107.4999999999999
 30
0.0
 11
216.5397029999998
 21
101.0
 31
0.0
  0
LINE
  5
BF78
330
BE74
100
AcDbEntity
  8
1
  6
Continuous
100
AcDbLine
 10
233.5397029999998
 20
107.4999999999999
 30
0.0
 11
233.5397029999998
 21
101.0
 31
0.0
  0
LINE
  5
BF79
330
BE74
100
AcDbEntity
  8
1
  6
Continuous
100
AcDbLine
 10
225.0397029999998
 20
106.7408109999999
 30
0.0
 11
225.0397029999998
 21
101.0
 31
0.0
  0
ARC
  5
BF7A
330
BE74
100
AcDbEntity
  8
1
  6
Continuous
100
AcDbCircle
 10
229.2897029999998
 20
95.22449299999999
 30
0.0
 40
12.275507
100
AcDbArc
 50
69.743842
 51
110.256158
  0
LINE
  5
BF7B
330
BE74
100
AcDbEntity
  8
1
  6
Continuous
100
AcDbLine
 10
219.039704
 20
399.0179279999999
 30
0.0
 11
219.839704
 21
399.817928
 31
0.0
  0
LINE
  5
BF7C
330
BE74
100
AcDbEntity
  8
1
  6
Continuous
100
AcDbLine
 10
230.2397039999999
 20
399.817928
 30
0.0
 11
231.039704
 21
399.0179279999999
 31
0.0
  0
LINE
  5
BF7D
330
BE74
100
AcDbEntity
  8
1
  6
Continuous
100
AcDbLine
 10
26.8
 20
211.6584739999999
 30
0.0
 11
26.0
 21
210.858474
 31
0.0
  0
LINE
  5
BF7E
330
BE74
100
AcDbEntity
  8
1
  6
Continuous
100
AcDbLine
 10
26.0
 20
200.4584749999999
 30
0.0
 11
26.8
 21
199.658475
 31
0.0
  0
LINE
  5
BF7F
330
BE74
100
AcDbEntity
  8
1
  6
Continuous
100
AcDbLine
 10
231.039704
 20
42.8
 30
0.0
 11
230.2397039999999
 21
42.0
 31
0.0
  0
LINE
  5
BF80
330
BE74
100
AcDbEntity
  8
1
  6
Continuous
100
AcDbLine
 10
219.039704
 20
42.8
 30
0.0
 11
219.839704
 21
42.0
 31
0.0
  0
CIRCLE
  5
BF81
330
BE74
100
AcDbEntity
  8
1
  6
Continuous
100
AcDbCircle
 10
225.0397029999998
 20
205.658474
 30
0.0
 40
3.549999999999998
  0
ARC
  5
BF82
330
BE74
100
AcDbEntity
  8
1
  6
Continuous
100
AcDbCircle
 10
225.0397029999998
 20
205.658474
 30
0.0
 40
37.5
100
AcDbArc
 50
132.6880539999999
 51
47.31194699999998
  0
LINE
  5
BF83
330
BE74
100
AcDbEntity
  8
1
  6
Continuous
100
AcDbLine
 10
187.411458
 20
271.71616
 30
0.0
 11
210.741016
 21
198.1255319999999
 31
0.0
  0
LINE
  5
BF84
330
BE74
100
AcDbEntity
  8
1
  6
Continuous
100
AcDbLine
 10
262.667947
 20
271.71616
 30
0.0
 11
239.3383899999999
 21
198.1255319999999
 31
0.0
  0
ARC
  5
BF85
330
BE74
100
AcDbEntity
  8
1
  6
Continuous
100
AcDbCircle
 10
185.72648
 20
268.7584739999999
 30
0.0
 40
2.5
100
AcDbArc
 50
17.58955499999999
 51
90.0
  0
ARC
  5
BF86
330
BE74
100
AcDbEntity
  8
1
  6
Continuous
100
AcDbCircle
 10
264.352925
 20
268.7584739999999
 30
0.0
 40
2.5
100
AcDbArc
 50
90.0
 51
162.4104449999999
  0
LINE
  5
BF87
330
BE74
100
AcDbEntity
  8
1
  6
Continuous
100
AcDbLine
 10
515.490865
 20
271.71616
 30
0.0
 11
538.820422
 21
198.1255319999999
 31
0.0
  0
LINE
  5
BF88
330
BE74
100
AcDbEntity
  8
1
  6
Continuous
100
AcDbLine
 10
614.619109
 20
274.1584739999999
 30
0.0
 11
491.6191089999998
 21
274.1584739999999
 31
0.0
  0
LINE
  5
BF89
330
BE74
100
AcDbEntity
  8
4
  6
CENTER
100
AcDbLine
 10
553.119109
 20
165.158474
 30
0.0
 11
553.119109
 21
277.8507139999999
 31
0.0
  0
LINE
  5
BF8A
330
BE74
100
AcDbEntity
  8
1
  6
Continuous
100
AcDbLine
 10
590.7473539999997
 20
271.71616
 30
0.0
 11
567.4177959999998
 21
198.1255319999999
 31
0.0
  0
LINE
  5
BF8B
330
BE74
100
AcDbEntity
  8
1
  6
Continuous
100
AcDbLine
 10
564.1191089999997
 20
272.246166
 30
0.0
 11
564.1191089999997
 21
198.221698
 31
0.0
  0
LINE
  5
BF8C
330
BE74
100
AcDbEntity
  8
1
  6
Continuous
100
AcDbLine
 10
542.1191089999998
 20
272.163631
 30
0.0
 11
542.1191089999998
 21
198.1558259999999
 31
0.0
  0
ARC
  5
BF8D
330
BE74
100
AcDbEntity
  8
1
  6
Continuous
100
AcDbCircle
 10
594.083714
 20
270.658474
 30
0.0
 40
3.5
100
AcDbArc
 50
90.0
 51
162.4104449999999
  0
LINE
  5
BF8E
330
BE74
100
AcDbEntity
  8
1
  6
Continuous
100
AcDbLine
 10
614.619109
 20
274.1584739999999
 30
0.0
 11
614.619109
 21
271.258474
 31
0.0
  0
LINE
  5
BF8F
330
BE74
100
AcDbEntity
  8
4
  6
CENTER
100
AcDbLine
 10
604.6191089999997
 20
276.50776
 30
0.0
 11
604.6191089999997
 21
268.731016
 31
0.0
  0
LINE
  5
BF90
330
BE74
100
AcDbEntity
  8
1
  6
Continuous
100
AcDbLine
 10
614.619109
 20
271.258474
 30
0.0
 11
592.432332
 21
271.258474
 31
0.0
  0
ARC
  5
BF91
330
BE74
100
AcDbEntity
  8
1
  6
Continuous
100
AcDbCircle
 10
592.432332
 20
268.7584739999999
 30
0.0
 40
2.5
100
AcDbArc
 50
90.0
 51
162.4104449999999
  0
ARC
  5
BF92
330
BE74
100
AcDbEntity
  8
1
  6
Continuous
100
AcDbCircle
 10
512.1545049999999
 20
270.658474
 30
0.0
 40
3.5
100
AcDbArc
 50
17.58955499999999
 51
90.0
  0
LINE
  5
BF93
330
BE74
100
AcDbEntity
  8
1
  6
Continuous
100
AcDbLine
 10
491.6191089999998
 20
274.1584739999999
 30
0.0
 11
491.6191089999998
 21
271.258474
 31
0.0
  0
LINE
  5
BF94
330
BE74
100
AcDbEntity
  8
4
  6
CENTER
100
AcDbLine
 10
501.6191089999998
 20
276.326496
 30
0.0
 11
501.6191089999998
 21
269.0757069999999
 31
0.0
  0
LINE
  5
BF95
330
BE74
100
AcDbEntity
  8
1
  6
Continuous
100
AcDbLine
 10
513.805887
 20
271.258474
 30
0.0
 11
491.6191089999998
 21
271.258474
 31
0.0
  0
ARC
  5
BF96
330
BE74
100
AcDbEntity
  8
1
  6
Continuous
100
AcDbCircle
 10
513.805887
 20
268.7584739999999
 30
0.0
 40
2.5
100
AcDbArc
 50
17.58955499999999
 51
90.0
  0
LINE
  5
BF97
330
BE74
100
AcDbEntity
  8
4
  6
CENTER
100
AcDbLine
 10
593.619109
 20
205.658474
 30
0.0
 11
512.6191089999998
 21
205.658474
 31
0.0
  0
ARC
  5
BF98
330
BE74
100
AcDbEntity
  8
1
  6
Continuous
100
AcDbCircle
 10
553.119109
 20
205.658474
 30
0.0
 40
37.5
100
AcDbArc
 50
132.6880529999999
 51
47.31194599999999
  0
ARC
  5
BF99
330
BE74
100
AcDbEntity
  8
1
  6
Continuous
100
AcDbCircle
 10
553.119109
 20
202.658474
 30
0.0
 40
15.0
100
AcDbArc
 50
197.5895549999999
 51
342.4104449999999
  0
LINE
  5
BF9A
330
BE74
100
AcDbEntity
  8
4
  6
CENTER
100
AcDbLine
 10
389.079406
 20
276.9628289999999
 30
0.0
 11
389.079406
 21
164.8550989999999
 31
0.0
  0
LINE
  5
BF9B
330
BE74
100
AcDbEntity
  8
1
  6
Continuous
100
AcDbLine
 10
367.9794059999999
 20
268.758065
 30
0.0
 11
367.9794059999999
 21
187.658474
 31
0.0
  0
LINE
  5
BF9C
330
BE74
100
AcDbEntity
  8
1
  6
Continuous
100
AcDbLine
 10
353.579406
 20
271.258065
 30
0.0
 11
353.579406
 21
244.816322
 31
0.0
  0
LINE
  5
BF9D
330
BE74
100
AcDbEntity
  8
1
  6
Continuous
100
AcDbLine
 10
356.479406
 20
271.258065
 30
0.0
 11
356.479406
 21
244.837901
 31
0.0
  0
LINE
  5
BF9E
330
BE74
100
AcDbEntity
  8
1
  6
Continuous
100
AcDbLine
 10
410.1794059999998
 20
268.758065
 30
0.0
 11
410.1794059999998
 21
187.658474
 31
0.0
  0
LINE
  5
BF9F
330
BE74
100
AcDbEntity
  8
1
  6
Continuous
100
AcDbLine
 10
424.5794059999998
 20
271.258065
 30
0.0
 11
424.5794059999998
 21
245.494306
 31
0.0
  0
LINE
  5
BFA0
330
BE74
100
AcDbEntity
  8
1
  6
Continuous
100
AcDbLine
 10
421.6794059999998
 20
271.258065
 30
0.0
 11
421.6794059999998
 21
245.494306
 31
0.0
  0
LINE
  5
BFA1
330
BE74
100
AcDbEntity
  8
4
  6
CENTER
100
AcDbLine
 10
355.6162279999999
 20
205.658474
 30
0.0
 11
427.9447799999998
 21
205.658474
 31
0.0
  0
ARC
  5
BFA2
330
BE74
100
AcDbEntity
  8
1
  6
Continuous
100
AcDbCircle
 10
406.8385949999997
 20
205.658474
 30
0.0
 40
16.24081099999999
100
AcDbArc
 50
342.4120459999999
 51
17.587954
  0
LINE
  5
BFA3
330
BE74
100
AcDbEntity
  8
1
  6
Continuous
100
AcDbLine
 10
423.0794059999998
 20
197.158474
 30
0.0
 11
423.0794059999998
 21
214.158474
 31
0.0
  0
LINE
  5
BFA4
330
BE74
100
AcDbEntity
  8
1
  6
Continuous
100
AcDbLine
 10
423.2794059999998
 20
199.658475
 30
0.0
 11
423.2794059999998
 21
211.658475
 31
0.0
  0
LINE
  5
BFA5
330
BE74
100
AcDbEntity
  8
1
  6
Continuous
100
AcDbLine
 10
424.0794059999998
 20
200.4584749999999
 30
0.0
 11
424.0794059999998
 21
210.858474
 31
0.0
  0
ARC
  5
BFA6
330
BE74
100
AcDbEntity
  8
1
  6
Continuous
100
AcDbCircle
 10
330.034375
 20
245.505096
 30
0.0
 40
91.64745999999999
100
AcDbArc
 50
334.850511
 51
359.9932539999999
  0
ARC
  5
BFA7
330
BE74
100
AcDbEntity
  8
1
  6
Continuous
100
AcDbCircle
 10
330.1003839999999
 20
245.494306
 30
0.0
 40
94.48145399999999
100
AcDbArc
 50
335.31425
 51
0.0
  0
LINE
  5
BFA8
330
BE74
100
AcDbEntity
  8
1
  6
Continuous
100
AcDbLine
 10
422.320217
 20
200.750997
 30
0.0
 11
416.838595
 21
200.750997
 31
0.0
  0
LINE
  5
BFA9
330
BE74
100
AcDbEntity
  8
1
  6
Continuous
100
AcDbLine
 10
422.320217
 20
195.8435189999999
 30
0.0
 11
416.838595
 21
195.8435189999999
 31
0.0
  0
LINE
  5
BFAA
330
BE74
100
AcDbEntity
  8
1
  6
Continuous
100
AcDbLine
 10
424.0794059999998
 20
200.4584749999999
 30
0.0
 11
423.2794059999998
 21
199.658475
 31
0.0
  0
LINE
  5
BFAB
330
BE74
100
AcDbEntity
  8
1
  6
Continuous
100
AcDbLine
 10
422.320217
 20
195.8435189999999
 30
0.0
 11
423.0794059999998
 21
197.158474
 31
0.0
  0
ARC
  5
BFAC
330
BE74
100
AcDbEntity
  8
1
  6
Continuous
100
AcDbCircle
 10
418.734507
 20
198.297258
 30
0.0
 40
4.344898999999998
100
AcDbArc
 50
334.384247
 51
34.38424699999998
  0
LINE
  5
BFAD
330
BE74
100
AcDbEntity
  8
2
  6
Continuous
100
AcDbLine
 10
423.0794059999998
 20
200.3349739999999
 30
0.0
 11
423.9559059999998
 21
200.3349739999999
 31
0.0
  0
LINE
  5
BFAE
330
BE74
100
AcDbEntity
  8
1
  6
Continuous
100
AcDbLine
 10
423.2794059999998
 20
199.658475
 30
0.0
 11
423.0794059999998
 21
199.658475
 31
0.0
  0
LINE
  5
BFAF
330
BE74
100
AcDbEntity
  8
1
  6
Continuous
100
AcDbLine
 10
415.542601
 20
205.1216689999999
 30
0.0
 11
416.0794059999998
 21
205.658474
 31
0.0
  0
LINE
  5
BFB0
330
BE74
100
AcDbEntity
  8
1
  6
Continuous
100
AcDbLine
 10
416.838595
 20
195.8435189999999
 30
0.0
 11
416.0794059999998
 21
197.158474
 31
0.0
  0
ARC
  5
BFB1
330
BE74
100
AcDbEntity
  8
1
  6
Continuous
100
AcDbCircle
 10
420.424305
 20
198.297258
 30
0.0
 40
4.344898999999998
100
AcDbArc
 50
145.615753
 51
205.615753
  0
ARC
  5
BFB2
330
BE74
100
AcDbEntity
  8
1
  6
Continuous
100
AcDbCircle
 10
432.320217
 20
205.658474
 30
0.0
 40
16.24081099999999
100
AcDbArc
 50
177.536898
 51
197.5879539999999
  0
LINE
  5
BFB3
330
BE74
100
AcDbEntity
  8
1
  6
Continuous
100
AcDbLine
 10
416.0794059999998
 20
195.158475
 30
0.0
 11
416.0794059999998
 21
206.323487
 31
0.0
  0
LINE
  5
BFB4
330
BE74
100
AcDbEntity
  8
1
  6
Continuous
100
AcDbLine
 10
416.0794059999998
 20
195.158475
 30
0.0
 11
413.1808829999997
 21
195.158475
 31
0.0
  0
LINE
  5
BFB5
330
BE74
100
AcDbEntity
  8
1
  6
Continuous
100
AcDbLine
 10
410.1794059999998
 20
187.658474
 30
0.0
 11
413.079406
 21
187.658474
 31
0.0
  0
LINE
  5
BFB6
330
BE74
100
AcDbEntity
  8
1
  6
Continuous
100
AcDbLine
 10
413.079406
 20
187.658474
 30
0.0
 11
413.079406
 21
193.0042889999998
 31
0.0
  0
ARC
  5
BFB7
330
BE74
100
AcDbEntity
  8
1
  6
Continuous
100
AcDbCircle
 10
444.115973
 20
193.0042889999998
 30
0.0
 40
31.036567
100
AcDbArc
 50
155.1749329999998
 51
180.0
  0
ARC
  5
BFB8
330
BE74
100
AcDbEntity
  8
1
  6
Continuous
100
AcDbCircle
 10
440.199178
 20
193.8658209999999
 30
0.0
 40
30.01977099999999
100
AcDbArc
 50
154.991783
 51
180.0
  0
LINE
  5
BFB9
330
BE74
100
AcDbEntity
  8
1
  6
Continuous
100
AcDbLine
 10
422.320217
 20
210.5659509999999
 30
0.0
 11
417.888511
 21
210.5659509999999
 31
0.0
  0
LINE
  5
BFBA
330
BE74
100
AcDbEntity
  8
1
  6
Continuous
100
AcDbLine
 10
423.2794059999998
 20
211.6584739999999
 30
0.0
 11
424.0794059999998
 21
210.858474
 31
0.0
  0
LINE
  5
BFBB
330
BE74
100
AcDbEntity
  8
1
  6
Continuous
100
AcDbLine
 10
422.320217
 20
215.4734289999999
 30
0.0
 11
423.0794059999998
 21
214.158474
 31
0.0
  0
LINE
  5
BFBC
330
BE74
100
AcDbEntity
  8
1
  6
Continuous
100
AcDbLine
 10
422.320217
 20
215.4734289999999
 30
0.0
 11
419.685495
 21
215.4734289999999
 31
0.0
  0
ARC
  5
BFBD
330
BE74
100
AcDbEntity
  8
1
  6
Continuous
100
AcDbCircle
 10
418.734507
 20
213.01969
 30
0.0
 40
4.344898999999998
100
AcDbArc
 50
325.6157529999999
 51
25.615753
  0
LINE
  5
BFBE
330
BE74
100
AcDbEntity
  8
2
  6
Continuous
100
AcDbLine
 10
423.0794059999998
 20
210.981975
 30
0.0
 11
423.9559059999998
 21
210.981975
 31
0.0
  0
LINE
  5
BFBF
330
BE74
100
AcDbEntity
  8
1
  6
Continuous
100
AcDbLine
 10
423.2794059999998
 20
211.6584739999999
 30
0.0
 11
423.0794059999998
 21
211.658475
 31
0.0
  0
ARC
  5
BFC0
330
BE74
100
AcDbEntity
  8
1
  6
Continuous
100
AcDbCircle
 10
374.820217
 20
205.658474
 30
0.0
 40
16.24081099999999
100
AcDbArc
 50
162.412046
 51
197.5879539999999
  0
LINE
  5
BFC1
330
BE74
100
AcDbEntity
  8
1
  6
Continuous
100
AcDbLine
 10
358.579406
 20
197.158474
 30
0.0
 11
358.579406
 21
214.158474
 31
0.0
  0
ARC
  5
BFC2
330
BE74
100
AcDbEntity
  8
1
  6
Continuous
100
AcDbCircle
 10
448.058428
 20
245.494306
 30
0.0
 40
94.48145399999999
100
AcDbArc
 50
180.0
 51
204.754614
  0
ARC
  5
BFC3
330
BE74
100
AcDbEntity
  8
1
  6
Continuous
100
AcDbCircle
 10
448.1244369999997
 20
245.505096
 30
0.0
 40
91.64745999999999
100
AcDbArc
 50
180.006746
 51
205.149489
  0
LINE
  5
BFC4
330
BE74
100
AcDbEntity
  8
1
  6
Continuous
100
AcDbLine
 10
359.338595
 20
195.8435189999999
 30
0.0
 11
358.579406
 21
197.158474
 31
0.0
  0
ARC
  5
BFC5
330
BE74
100
AcDbEntity
  8
1
  6
Continuous
100
AcDbCircle
 10
362.9243049999999
 20
198.297258
 30
0.0
 40
4.344898999999998
100
AcDbArc
 50
145.615753
 51
205.615753
  0
LINE
  5
BFC6
330
BE74
100
AcDbEntity
  8
1
  6
Continuous
100
AcDbLine
 10
359.338595
 20
200.750997
 30
0.0
 11
364.097074
 21
200.750997
 31
0.0
  0
LINE
  5
BFC7
330
BE74
100
AcDbEntity
  8
1
  6
Continuous
100
AcDbLine
 10
359.338595
 20
195.8435189999999
 30
0.0
 11
364.949268
 21
195.8435189999999
 31
0.0
  0
ARC
  5
BFC8
330
BE74
100
AcDbEntity
  8
1
  6
Continuous
100
AcDbCircle
 10
337.9596349999999
 20
193.8658209999999
 30
0.0
 40
30.01977099999999
100
AcDbArc
 50
0.0
 51
25.00821699999999
  0
LINE
  5
BFC9
330
BE74
100
AcDbEntity
  8
1
  6
Continuous
100
AcDbLine
 10
365.0794059999999
 20
187.658474
 30
0.0
 11
367.9794059999999
 21
187.658474
 31
0.0
  0
LINE
  5
BFCA
330
BE74
100
AcDbEntity
  8
1
  6
Continuous
100
AcDbLine
 10
365.0794059999999
 20
193.0042889999998
 30
0.0
 11
365.0794059999999
 21
187.658474
 31
0.0
  0
ARC
  5
BFCB
330
BE74
100
AcDbEntity
  8
1
  6
Continuous
100
AcDbCircle
 10
334.04284
 20
193.0042889999998
 30
0.0
 40
31.036567
100
AcDbArc
 50
0.0
 51
24.615433
  0
LINE
  5
BFCC
330
BE74
100
AcDbEntity
  8
1
  6
Continuous
100
AcDbLine
 10
358.794599
 20
214.5311979999999
 30
0.0
 11
358.579406
 21
214.158474
 31
0.0
  0
ARC
  5
BFCD
330
BE74
100
AcDbEntity
  8
1
  6
Continuous
100
AcDbCircle
 10
362.9243049999999
 20
213.01969
 30
0.0
 40
4.344898999999998
100
AcDbArc
 50
160.755618
 51
214.384247
  0
LINE
  5
BFCE
330
BE74
100
AcDbEntity
  8
1
  6
Continuous
100
AcDbLine
 10
359.338595
 20
210.5659509999999
 30
0.0
 11
360.2703009999999
 21
210.5659509999999
 31
0.0
  0
LINE
  5
BFCF
330
BE74
100
AcDbEntity
  8
1
  6
Continuous
100
AcDbLine
 10
353.079406
 20
271.258065
 30
0.0
 11
425.0794059999998
 21
271.258065
 31
0.0
  0
LINE
  5
BFD0
330
BE74
100
AcDbEntity
  8
1
  6
Continuous
100
AcDbLine
 10
353.079406
 20
274.1580649999999
 30
0.0
 11
425.0794059999998
 21
274.1580649999999
 31
0.0
  0
LINE
  5
BFD1
330
BE74
100
AcDbEntity
  8
1
  6
Continuous
100
AcDbLine
 10
425.0794059999998
 20
271.258065
 30
0.0
 11
425.0794059999998
 21
274.1580649999999
 31
0.0
  0
LINE
  5
BFD2
330
BE74
100
AcDbEntity
  8
4
  6
CENTER
100
AcDbLine
 10
415.0794059999998
 20
268.731016
 30
0.0
 11
415.0794059999998
 21
276.916019
 31
0.0
  0
ARC
  5
BFD3
330
BE74
100
AcDbEntity
  8
1
  6
Continuous
100
AcDbCircle
 10
407.679406
 20
268.758065
 30
0.0
 40
2.5
100
AcDbArc
 50
0.0
 51
90.0
  0
LINE
  5
BFD4
330
BE74
100
AcDbEntity
  8
4
  6
CENTER
100
AcDbLine
 10
363.0794059999999
 20
268.731016
 30
0.0
 11
363.0794059999999
 21
276.6602429999999
 31
0.0
  0
ARC
  5
BFD5
330
BE74
100
AcDbEntity
  8
1
  6
Continuous
100
AcDbCircle
 10
370.4794059999999
 20
268.758065
 30
0.0
 40
2.5
100
AcDbArc
 50
90.0
 51
180.0
  0
LINE
  5
BFD6
330
BE74
100
AcDbEntity
  8
1
  6
Continuous
100
AcDbLine
 10
353.079406
 20
271.258065
 30
0.0
 11
353.079406
 21
274.1580649999999
 31
0.0
  0
ARC
  5
BFD7
330
BE74
100
AcDbEntity
  8
1
  6
Continuous
100
AcDbCircle
 10
553.119109
 20
205.658474
 30
0.0
 40
23.5
100
AcDbArc
 50
150.1895649999999
 51
29.810434
  0
ARC
  5
BFD8
330
BE74
100
AcDbEntity
  8
1
  6
Continuous
100
AcDbCircle
 10
553.119109
 20
205.658474
 30
0.0
 40
23.0
100
AcDbArc
 50
151.345721
 51
28.654278
  0
LINE
  5
BFD9
330
BE74
100
AcDbEntity
  8
1
  6
Continuous
100
AcDbLine
 10
238.538673
 20
57.00779499999999
 30
0.0
 11
211.540733
 21
57.00779499999999
 31
0.0
  0
LINE
  5
BFDA
330
BE74
100
AcDbEntity
  8
1
  6
Continuous
100
AcDbLine
 10
238.538673
 20
96.992205
 30
0.0
 11
211.540733
 21
96.992205
 31
0.0
  0
LINE
  5
BFDB
330
BE74
100
AcDbEntity
  8
1
  6
Continuous
100
AcDbLine
 10
212.5397029999998
 20
56.0
 30
0.0
 11
237.5387109999998
 21
56.0
 31
0.0
  0
LINE
  5
BFDC
330
BE74
100
AcDbEntity
  8
1
  6
Continuous
100
AcDbLine
 10
212.5397029999998
 20
98.0
 30
0.0
 11
237.5387109999998
 21
98.0
 31
0.0
  0
LINE
  5
BFDD
330
BE74
100
AcDbEntity
  8
1
  6
Continuous
100
AcDbLine
 10
192.3122949999998
 20
58.0
 30
0.0
 11
257.767111
 21
58.0
 31
0.0
  0
LINE
  5
BFDE
330
BE74
100
AcDbEntity
  8
1
  6
Continuous
100
AcDbLine
 10
192.3122949999998
 20
96.0
 30
0.0
 11
257.767111
 21
96.0
 31
0.0
  0
ARC
  5
BFDF
330
BE74
100
AcDbEntity
  8
1
  6
Continuous
100
AcDbCircle
 10
337.5397029999998
 20
77.0
 30
0.0
 40
150.0
100
AcDbArc
 50
174.103042
 51
185.896958
  0
ARC
  5
BFE0
330
BE74
100
AcDbEntity
  8
1
  6
Continuous
100
AcDbCircle
 10
212.586366
 20
27.000016
 30
0.0
 40
70.0
100
AcDbArc
 50
90.85589400000001
 51
97.58911500000003
  0
ARC
  5
BFE1
330
BE74
100
AcDbEntity
  8
1
  6
Continuous
100
AcDbCircle
 10
203.5397029999999
 20
94.9
 30
0.0
 40
1.5
100
AcDbArc
 50
97.58911500000003
 51
132.8334279999999
  0
ARC
  5
BFE2
330
BE74
100
AcDbEntity
  8
1
  6
Continuous
100
AcDbCircle
 10
192.3122949999998
 20
92.0
 30
0.0
 40
4.0
100
AcDbArc
 50
90.0
 51
174.103042
  0
LINE
  5
BFE3
330
BE74
100
AcDbEntity
  8
1
  6
Continuous
100
AcDbLine
 10
212.5397029999998
 20
97.999
 30
0.0
 11
211.540733
 21
96.992205
 31
0.0
  0
ARC
  5
BFE4
330
BE74
100
AcDbEntity
  8
1
  6
Continuous
100
AcDbCircle
 10
212.586366
 20
126.999984
 30
0.0
 40
70.0
100
AcDbArc
 50
262.410885
 51
269.144106
  0
ARC
  5
BFE5
330
BE74
100
AcDbEntity
  8
1
  6
Continuous
100
AcDbCircle
 10
192.3122949999998
 20
62.0
 30
0.0
 40
4.0
100
AcDbArc
 50
185.896958
 51
270.0
  0
ARC
  5
BFE6
330
BE74
100
AcDbEntity
  8
1
  6
Continuous
100
AcDbCircle
 10
203.5397029999999
 20
59.1
 30
0.0
 40
1.5
100
AcDbArc
 50
227.166572
 51
262.410885
  0
LINE
  5
BFE7
330
BE74
100
AcDbEntity
  8
1
  6
Continuous
100
AcDbLine
 10
231.3897029999999
 20
56.0
 30
0.0
 11
231.3897029999999
 21
55.89999999999999
 31
0.0
  0
LINE
  5
BFE8
330
BE74
100
AcDbEntity
  8
1
  6
Continuous
100
AcDbLine
 10
212.5397029999998
 20
56.00100000000001
 30
0.0
 11
211.540733
 21
57.00779499999999
 31
0.0
  0
ARC
  5
BFE9
330
BE74
100
AcDbEntity
  8
1
  6
Continuous
100
AcDbCircle
 10
112.539703
 20
77.0
 30
0.0
 40
150.0
100
AcDbArc
 50
354.103042
 51
5.896957999999998
  0
LINE
  5
BFEA
330
BE74
100
AcDbEntity
  8
1
  6
Continuous
100
AcDbLine
 10
237.5397029999998
 20
97.999
 30
0.0
 11
238.538673
 21
96.992205
 31
0.0
  0
ARC
  5
BFEB
330
BE74
100
AcDbEntity
  8
1
  6
Continuous
100
AcDbCircle
 10
246.5397029999998
 20
94.9
 30
0.0
 40
1.5
100
AcDbArc
 50
47.16657199999999
 51
82.41088499999998
  0
ARC
  5
BFEC
330
BE74
100
AcDbEntity
  8
1
  6
Continuous
100
AcDbCircle
 10
237.4930399999998
 20
27.000016
 30
0.0
 40
70.0
100
AcDbArc
 50
82.41088499999998
 51
89.14410600000001
  0
ARC
  5
BFED
330
BE74
100
AcDbEntity
  8
1
  6
Continuous
100
AcDbCircle
 10
257.767111
 20
92.0
 30
0.0
 40
4.0
100
AcDbArc
 50
5.896957999999998
 51
90.0
  0
ARC
  5
BFEE
330
BE74
100
AcDbEntity
  8
1
  6
Continuous
100
AcDbCircle
 10
257.767111
 20
62.0
 30
0.0
 40
4.0
100
AcDbArc
 50
270.0
 51
354.103042
  0
ARC
  5
BFEF
330
BE74
100
AcDbEntity
  8
1
  6
Continuous
100
AcDbCircle
 10
246.5397029999998
 20
59.1
 30
0.0
 40
1.5
100
AcDbArc
 50
277.589115
 51
312.833428
  0
LINE
  5
BFF0
330
BE74
100
AcDbEntity
  8
1
  6
Continuous
100
AcDbLine
 10
237.5397029999998
 20
56.00100000000001
 30
0.0
 11
238.538673
 21
57.00779499999999
 31
0.0
  0
ARC
  5
BFF1
330
BE74
100
AcDbEntity
  8
1
  6
Continuous
100
AcDbCircle
 10
237.4930399999998
 20
126.999984
 30
0.0
 40
70.0
100
AcDbArc
 50
270.8558939999999
 51
277.589115
  0
ARC
  5
BFF2
330
BE74
100
AcDbEntity
  8
1
  6
Continuous
100
AcDbCircle
 10
225.0397029999998
 20
205.658474
 30
0.0
 40
23.5
100
AcDbArc
 50
150.1895649999999
 51
29.810434
  0
ARC
  5
BFF3
330
BE74
100
AcDbEntity
  8
1
  6
Continuous
100
AcDbCircle
 10
225.0397029999998
 20
205.658474
 30
0.0
 40
23.0
100
AcDbArc
 50
151.345721
 51
28.654278
  0
LINE
  5
BFF4
330
BE74
100
AcDbEntity
  8
1
  6
Continuous
100
AcDbLine
 10
218.6897029999999
 20
56.0
 30
0.0
 11
218.6897029999999
 21
55.89999999999999
 31
0.0
  0
LINE
  5
BFF5
330
BE74
100
AcDbEntity
  8
1
  6
Continuous
100
AcDbLine
 10
218.6897029999999
 20
98.0
 30
0.0
 11
218.6897029999999
 21
98.1
 31
0.0
  0
LINE
  5
BFF6
330
BE74
100
AcDbEntity
  8
1
  6
Continuous
100
AcDbLine
 10
231.3897029999999
 20
98.0
 30
0.0
 11
231.3897029999999
 21
98.1
 31
0.0
  0
LINE
  5
BFF7
330
BE74
100
AcDbEntity
  8
1
  6
Continuous
100
AcDbLine
 10
40.0
 20
199.308474
 30
0.0
 11
39.9
 21
199.308474
 31
0.0
  0
LINE
  5
BFF8
330
BE74
100
AcDbEntity
  8
1
  6
Continuous
100
AcDbLine
 10
40.0
 20
212.008474
 30
0.0
 11
39.9
 21
212.008474
 31
0.0
  0
LINE
  5
BFF9
330
BE74
100
AcDbEntity
  8
1
  6
Continuous
100
AcDbLine
 10
80.0
 20
172.9310659999999
 30
0.0
 11
80.0
 21
238.3858819999999
 31
0.0
  0
LINE
  5
BFFA
330
BE74
100
AcDbEntity
  8
1
  6
Continuous
100
AcDbLine
 10
42.0
 20
172.9310659999999
 30
0.0
 11
42.0
 21
238.3858819999999
 31
0.0
  0
LINE
  5
BFFB
330
BE74
100
AcDbEntity
  8
1
  6
Continuous
100
AcDbLine
 10
40.0
 20
193.158474
 30
0.0
 11
40.0
 21
218.1574819999999
 31
0.0
  0
LINE
  5
BFFC
330
BE74
100
AcDbEntity
  8
1
  6
Continuous
100
AcDbLine
 10
41.007795
 20
219.157444
 30
0.0
 11
41.007795
 21
192.1595039999999
 31
0.0
  0
LINE
  5
BFFD
330
BE74
100
AcDbEntity
  8
1
  6
Continuous
100
AcDbLine
 10
82.0
 20
193.158474
 30
0.0
 11
82.0
 21
218.1574819999999
 31
0.0
  0
LINE
  5
BFFE
330
BE74
100
AcDbEntity
  8
1
  6
Continuous
100
AcDbLine
 10
80.99220499999999
 20
219.157444
 30
0.0
 11
80.99220499999999
 21
192.1595039999999
 31
0.0
  0
ARC
  5
BFFF
330
BE74
100
AcDbEntity
  8
1
  6
Continuous
100
AcDbCircle
 10
61.0
 20
318.158474
 30
0.0
 40
150.0
100
AcDbArc
 50
264.103042
 51
275.896958
  0
ARC
  5
C000
330
BE74
100
AcDbEntity
  8
1
  6
Continuous
100
AcDbCircle
 10
46.0
 20
172.9310659999999
 30
0.0
 40
4.0
100
AcDbArc
 50
180.0
 51
264.103042
  0
ARC
  5
C001
330
BE74
100
AcDbEntity
  8
1
  6
Continuous
100
AcDbCircle
 10
76.0
 20
172.9310659999999
 30
0.0
 40
4.0
100
AcDbArc
 50
275.896958
 51
0.0
  0
LINE
  5
C002
330
BE74
100
AcDbEntity
  8
1
  6
Continuous
100
AcDbLine
 10
40.00099999999997
 20
193.158474
 30
0.0
 11
41.007795
 21
192.1595039999999
 31
0.0
  0
ARC
  5
C003
330
BE74
100
AcDbEntity
  8
1
  6
Continuous
100
AcDbCircle
 10
110.999984
 20
193.205137
 30
0.0
 40
70.0
100
AcDbArc
 50
180.855894
 51
187.5891149999999
  0
ARC
  5
C004
330
BE74
100
AcDbEntity
  8
1
  6
Continuous
100
AcDbCircle
 10
43.1
 20
184.158474
 30
0.0
 40
1.5
100
AcDbArc
 50
187.5891149999999
 51
222.8334279999999
  0
LINE
  5
C005
330
BE74
100
AcDbEntity
  8
1
  6
Continuous
100
AcDbLine
 10
81.99899999999997
 20
193.158474
 30
0.0
 11
80.99220499999999
 21
192.1595039999999
 31
0.0
  0
ARC
  5
C006
330
BE74
100
AcDbEntity
  8
1
  6
Continuous
100
AcDbCircle
 10
11.000016
 20
193.205137
 30
0.0
 40
70.0
100
AcDbArc
 50
352.410885
 51
359.1441060000001
  0
ARC
  5
C007
330
BE74
100
AcDbEntity
  8
1
  6
Continuous
100
AcDbCircle
 10
78.9
 20
184.158474
 30
0.0
 40
1.5
100
AcDbArc
 50
317.166572
 51
352.410885
  0
LINE
  5
C008
330
BE74
100
AcDbEntity
  8
1
  6
Continuous
100
AcDbLine
 10
82.0
 20
212.008474
 30
0.0
 11
82.09999999999999
 21
212.008474
 31
0.0
  0
LINE
  5
C009
330
BE74
100
AcDbEntity
  8
1
  6
Continuous
100
AcDbLine
 10
82.0
 20
199.308474
 30
0.0
 11
82.09999999999999
 21
199.308474
 31
0.0
  0
ARC
  5
C00A
330
BE74
100
AcDbEntity
  8
1
  6
Continuous
100
AcDbCircle
 10
61.0
 20
93.158474
 30
0.0
 40
150.0
100
AcDbArc
 50
84.103042
 51
95.89695799999999
  0
ARC
  5
C00B
330
BE74
100
AcDbEntity
  8
1
  6
Continuous
100
AcDbCircle
 10
46.0
 20
238.3858819999999
 30
0.0
 40
4.0
100
AcDbArc
 50
95.89695799999999
 51
180.0
  0
ARC
  5
C00C
330
BE74
100
AcDbEntity
  8
1
  6
Continuous
100
AcDbCircle
 10
43.1
 20
227.158474
 30
0.0
 40
1.5
100
AcDbArc
 50
137.1665719999998
 51
172.410885
  0
ARC
  5
C00D
330
BE74
100
AcDbEntity
  8
1
  6
Continuous
100
AcDbCircle
 10
110.999984
 20
218.1118109999999
 30
0.0
 40
70.0
100
AcDbArc
 50
172.410885
 51
179.1441059999999
  0
LINE
  5
C00E
330
BE74
100
AcDbEntity
  8
1
  6
Continuous
100
AcDbLine
 10
40.00099999999997
 20
218.158474
 30
0.0
 11
41.007795
 21
219.157444
 31
0.0
  0
ARC
  5
C00F
330
BE74
100
AcDbEntity
  8
1
  6
Continuous
100
AcDbCircle
 10
76.0
 20
238.3858819999999
 30
0.0
 40
4.0
100
AcDbArc
 50
0.0
 51
84.103042
  0
ARC
  5
C010
330
BE74
100
AcDbEntity
  8
1
  6
Continuous
100
AcDbCircle
 10
11.000016
 20
218.1118109999999
 30
0.0
 40
70.0
100
AcDbArc
 50
0.8558939999999999
 51
7.589114999999999
  0
LINE
  5
C011
330
BE74
100
AcDbEntity
  8
1
  6
Continuous
100
AcDbLine
 10
81.99899999999997
 20
218.158474
 30
0.0
 11
80.99220499999999
 21
219.157444
 31
0.0
  0
ARC
  5
C012
330
BE74
100
AcDbEntity
  8
1
  6
Continuous
100
AcDbCircle
 10
78.9
 20
227.158474
 30
0.0
 40
1.5
100
AcDbArc
 50
7.589114999999999
 51
42.83342799999998
  0
LINE
  5
C013
330
BE74
100
AcDbEntity
  8
1
  6
Continuous
100
AcDbLine
 10
368.079406
 20
199.308474
 30
0.0
 11
367.9794059999999
 21
199.308474
 31
0.0
  0
LINE
  5
C014
330
BE74
100
AcDbEntity
  8
1
  6
Continuous
100
AcDbLine
 10
368.079406
 20
212.008474
 30
0.0
 11
367.9794059999999
 21
212.008474
 31
0.0
  0
LINE
  5
C015
330
BE74
100
AcDbEntity
  8
1
  6
Continuous
100
AcDbLine
 10
408.079406
 20
172.9310659999999
 30
0.0
 11
408.079406
 21
238.3858819999999
 31
0.0
  0
LINE
  5
C016
330
BE74
100
AcDbEntity
  8
1
  6
Continuous
100
AcDbLine
 10
370.079406
 20
172.9310659999999
 30
0.0
 11
370.079406
 21
238.3858819999999
 31
0.0
  0
LINE
  5
C017
330
BE74
100
AcDbEntity
  8
1
  6
Continuous
100
AcDbLine
 10
368.079406
 20
193.158474
 30
0.0
 11
368.079406
 21
218.1574819999999
 31
0.0
  0
LINE
  5
C018
330
BE74
100
AcDbEntity
  8
1
  6
Continuous
100
AcDbLine
 10
369.087201
 20
219.157444
 30
0.0
 11
369.087201
 21
192.1595039999999
 31
0.0
  0
LINE
  5
C019
330
BE74
100
AcDbEntity
  8
1
  6
Continuous
100
AcDbLine
 10
410.079406
 20
193.158474
 30
0.0
 11
410.079406
 21
218.1574819999999
 31
0.0
  0
LINE
  5
C01A
330
BE74
100
AcDbEntity
  8
1
  6
Continuous
100
AcDbLine
 10
409.0716109999998
 20
219.157444
 30
0.0
 11
409.0716109999998
 21
192.1595039999999
 31
0.0
  0
ARC
  5
C01B
330
BE74
100
AcDbEntity
  8
1
  6
Continuous
100
AcDbCircle
 10
389.079406
 20
318.158474
 30
0.0
 40
150.0
100
AcDbArc
 50
264.103042
 51
275.896958
  0
ARC
  5
C01C
330
BE74
100
AcDbEntity
  8
1
  6
Continuous
100
AcDbCircle
 10
374.079406
 20
172.9310659999999
 30
0.0
 40
4.0
100
AcDbArc
 50
180.0
 51
264.103042
  0
ARC
  5
C01D
330
BE74
100
AcDbEntity
  8
1
  6
Continuous
100
AcDbCircle
 10
404.079406
 20
172.9310659999999
 30
0.0
 40
4.0
100
AcDbArc
 50
275.896958
 51
0.0
  0
LINE
  5
C01E
330
BE74
100
AcDbEntity
  8
1
  6
Continuous
100
AcDbLine
 10
368.0804059999999
 20
193.158474
 30
0.0
 11
369.087201
 21
192.1595039999999
 31
0.0
  0
ARC
  5
C01F
330
BE74
100
AcDbEntity
  8
1
  6
Continuous
100
AcDbCircle
 10
439.07939
 20
193.205137
 30
0.0
 40
70.0
100
AcDbArc
 50
180.855894
 51
187.5891149999999
  0
ARC
  5
C020
330
BE74
100
AcDbEntity
  8
1
  6
Continuous
100
AcDbCircle
 10
371.1794059999999
 20
184.158474
 30
0.0
 40
1.5
100
AcDbArc
 50
187.5891149999999
 51
222.8334279999999
  0
LINE
  5
C021
330
BE74
100
AcDbEntity
  8
1
  6
Continuous
100
AcDbLine
 10
410.0784059999998
 20
193.158474
 30
0.0
 11
409.0716109999998
 21
192.1595039999999
 31
0.0
  0
ARC
  5
C022
330
BE74
100
AcDbEntity
  8
1
  6
Continuous
100
AcDbCircle
 10
339.079422
 20
193.205137
 30
0.0
 40
70.0
100
AcDbArc
 50
352.410885
 51
359.1441060000001
  0
ARC
  5
C023
330
BE74
100
AcDbEntity
  8
1
  6
Continuous
100
AcDbCircle
 10
406.9794059999998
 20
184.158474
 30
0.0
 40
1.5
100
AcDbArc
 50
317.166572
 51
352.410885
  0
LINE
  5
C024
330
BE74
100
AcDbEntity
  8
1
  6
Continuous
100
AcDbLine
 10
410.079406
 20
212.008474
 30
0.0
 11
410.1794059999998
 21
212.008474
 31
0.0
  0
LINE
  5
C025
330
BE74
100
AcDbEntity
  8
1
  6
Continuous
100
AcDbLine
 10
410.079406
 20
199.308474
 30
0.0
 11
410.1794059999998
 21
199.308474
 31
0.0
  0
ARC
  5
C026
330
BE74
100
AcDbEntity
  8
1
  6
Continuous
100
AcDbCircle
 10
389.079406
 20
93.158474
 30
0.0
 40
150.0
100
AcDbArc
 50
84.103042
 51
95.89695799999999
  0
ARC
  5
C027
330
BE74
100
AcDbEntity
  8
1
  6
Continuous
100
AcDbCircle
 10
374.079406
 20
238.3858819999999
 30
0.0
 40
4.0
100
AcDbArc
 50
95.89695799999999
 51
180.0
  0
ARC
  5
C028
330
BE74
100
AcDbEntity
  8
1
  6
Continuous
100
AcDbCircle
 10
371.1794059999999
 20
227.158474
 30
0.0
 40
1.5
100
AcDbArc
 50
137.1665719999998
 51
172.410885
  0
ARC
  5
C029
330
BE74
100
AcDbEntity
  8
1
  6
Continuous
100
AcDbCircle
 10
439.07939
 20
218.1118109999999
 30
0.0
 40
70.0
100
AcDbArc
 50
172.410885
 51
179.1441059999999
  0
LINE
  5
C02A
330
BE74
100
AcDbEntity
  8
1
  6
Continuous
100
AcDbLine
 10
368.0804059999999
 20
218.158474
 30
0.0
 11
369.087201
 21
219.157444
 31
0.0
  0
ARC
  5
C02B
330
BE74
100
AcDbEntity
  8
1
  6
Continuous
100
AcDbCircle
 10
404.079406
 20
238.3858819999999
 30
0.0
 40
4.0
100
AcDbArc
 50
0.0
 51
84.103042
  0
ARC
  5
C02C
330
BE74
100
AcDbEntity
  8
1
  6
Continuous
100
AcDbCircle
 10
339.079422
 20
218.1118109999999
 30
0.0
 40
70.0
100
AcDbArc
 50
0.8558939999999999
 51
7.589114999999999
  0
LINE
  5
C02D
330
BE74
100
AcDbEntity
  8
1
  6
Continuous
100
AcDbLine
 10
410.0784059999998
 20
218.158474
 30
0.0
 11
409.0716109999998
 21
219.157444
 31
0.0
  0
ARC
  5
C02E
330
BE74
100
AcDbEntity
  8
1
  6
Continuous
100
AcDbCircle
 10
406.9794059999998
 20
227.158474
 30
0.0
 40
1.5
100
AcDbArc
 50
7.589114999999999
 51
42.83342799999998
  0
ENDSEC
  0
SECTION
  2
OBJECTS
  0
DICTIONARY
  5
BE62
330
0
100
AcDbDictionary
281
     1
  3
ACAD_CIP_PREVIOUS_PRODUCT_INFO
350
C090
  3
ACAD_COLOR
350
C072
  3
ACAD_DETAILVIEWSTYLE
350
C08B
  3
ACAD_GROUP
350
BE63
  3
ACAD_LAYOUT
350
BE6F
  3
ACAD_MATERIAL
350
C040
  3
ACAD_MLEADERSTYLE
350
C087
  3
ACAD_MLINESTYLE
350
BE6C
  3
ACAD_PLOTSETTINGS
350
BE6E
  3
ACAD_PLOTSTYLENAME
350
C03E
  3
ACAD_SCALELIST
350
C075
  3
ACAD_SECTIONVIEWSTYLE
350
C089
  3
ACAD_TABLESTYLE
350
C073
  3
ACAD_VISUALSTYLE
350
C059
  3
ACDB_RECOMPOSE_DATA
350
C0AE
  3
AcDbVariableDictionary
350
C0A1
  3
DWGPROPS
350
C0AF
  0
DICTIONARY
  5
C091
330
BE66
100
AcDbDictionary
280
     1
281
     1
  3
ADSK_XREC_LAYER_RECONCILED
360
C092
  0
DICTIONARY
  5
C093
330
BE7C
100
AcDbDictionary
280
     1
281
     1
  3
ADSK_XREC_LAYER_RECONCILED
360
C094
  0
DICTIONARY
  5
C095
330
BE7D
100
AcDbDictionary
280
     1
281
     1
  3
ADSK_XREC_LAYER_RECONCILED
360
C096
  0
DICTIONARY
  5
C097
330
BE7E
100
AcDbDictionary
280
     1
281
     1
  3
ADSK_XREC_LAYER_RECONCILED
360
C098
  0
DICTIONARY
  5
C099
330
BE7F
100
AcDbDictionary
280
     1
281
     1
  3
ADSK_XREC_LAYER_RECONCILED
360
C09A
  0
DICTIONARY
  5
C09B
330
BE80
100
AcDbDictionary
280
     1
281
     1
  3
ADSK_XREC_LAYER_RECONCILED
360
C09C
  0
DICTIONARY
  5
C09D
330
BE81
100
AcDbDictionary
280
     1
281
     1
  3
ADSK_XREC_LAYER_RECONCILED
360
C09E
  0
DICTIONARY
  5
C09F
330
BE82
100
AcDbDictionary
280
     1
281
     1
  3
ADSK_XREC_LAYER_RECONCILED
360
C0A0
  0
DICTIONARY
  5
C039
330
BE74
100
AcDbDictionary
281
     1
  3
ACAD_LAYOUTSELFREF
350
C03A
  0
DICTIONARY
  5
C037
330
BE70
100
AcDbDictionary
281
     1
  3
ACAD_LAYOUTSELFREF
350
C038
  0
XRECORD
  5
C090
102
{ACAD_REACTORS
330
BE62
102
}
330
BE62
100
AcDbXrecord
280
     1
300
ACDLT
300
2014
300
ACDLT_F_S
  0
DICTIONARY
  5
C072
102
{ACAD_REACTORS
330
BE62
102
}
330
BE62
100
AcDbDictionary
281
     1
  0
DICTIONARY
  5
C08B
102
{ACAD_REACTORS
330
BE62
102
}
330
BE62
100
AcDbDictionary
281
     1
  3
Imperial24
350
C08C
  0
DICTIONARY
  5
BE63
102
{ACAD_REACTORS
330
BE62
102
}
330
BE62
100
AcDbDictionary
281
     1
  0
DICTIONARY
  5
BE6F
102
{ACAD_REACTORS
330
BE62
102
}
330
BE62
100
AcDbDictionary
281
     1
  3
Model
350
C08D
  3
レイアウト1
350
C08E
  0
DICTIONARY
  5
C040
102
{ACAD_REACTORS
330
BE62
102
}
330
BE62
100
AcDbDictionary
281
     1
  3
ByBlock
350
C049
  3
ByLayer
350
C041
  3
Global
350
C051
  0
DICTIONARY
  5
C087
102
{ACAD_REACTORS
330
BE62
102
}
330
BE62
100
AcDbDictionary
281
     1
  3
Standard
350
C088
  0
DICTIONARY
  5
BE6C
102
{ACAD_REACTORS
330
BE62
102
}
330
BE62
100
AcDbDictionary
281
     1
  3
STANDARD
350
BE6D
  0
DICTIONARY
  5
BE6E
102
{ACAD_REACTORS
330
BE62
102
}
330
BE62
100
AcDbDictionary
281
     1
  0
ACDBDICTIONARYWDFLT
  5
C03E
102
{ACAD_REACTORS
330
BE62
102
}
330
BE62
100
AcDbDictionary
281
     1
  3
Normal
350
C03F
100
AcDbDictionaryWithDefault
340
C03F
  0
DICTIONARY
  5
C075
102
{ACAD_REACTORS
330
BE62
102
}
330
BE62
100
AcDbDictionary
281
     1
  3
A0
350
C076
  3
A1
350
C077
  3
A2
350
C078
  3
A3
350
C079
  3
A4
350
C07A
  3
A5
350
C07B
  3
A6
350
C07C
  3
A7
350
C07D
  3
A8
350
C07E
  3
A9
350
C07F
  3
B0
350
C080
  3
B1
350
C081
  3
B2
350
C082
  3
B3
350
C083
  3
B4
350
C084
  3
B5
350
C085
  3
B6
350
C086
  0
DICTIONARY
  5
C089
102
{ACAD_REACTORS
330
BE62
102
}
330
BE62
100
AcDbDictionary
281
     1
  3
Imperial24
350
C08A
  0
DICTIONARY
  5
C073
102
{ACAD_REACTORS
330
BE62
102
}
330
BE62
100
AcDbDictionary
281
     1
  3
Standard
350
C074
  0
DICTIONARY
  5
C059
102
{ACAD_REACTORS
330
BE62
102
}
330
BE62
100
AcDbDictionary
281
     1
  3
2dWireframe
350
C05F
  3
Basic
350
C05E
  3
Brighten
350
C065
  3
ColorChange
350
C069
  3
Conceptual
350
C062
  3
Dim
350
C064
  3
EdgeColorOff
350
C071
  3
Facepattern
350
C068
  3
Flat
350
C05A
  3
FlatWithEdges
350
C05B
  3
Gouraud
350
C05C
  3
GouraudWithEdges
350
C05D
  3
Hidden
350
C061
  3
JitterOff
350
C06F
  3
Linepattern
350
C067
  3
OverhangOff
350
C070
  3
Realistic
350
C063
  3
Shaded
350
C06E
  3
Shaded with edges
350
C06D
  3
Shades of Gray
350
C06A
  3
Sketchy
350
C06B
  3
Thicken
350
C066
  3
Wireframe
350
C060
  3
X-Ray
350
C06C
  0
XRECORD
  5
C0AE
102
{ACAD_REACTORS
330
BE62
102
}
330
BE62
100
AcDbXrecord
280
     1
 90
        1
330
C074
  0
DICTIONARY
  5
C0A1
102
{ACAD_REACTORS
330
BE62
102
}
330
BE62
100
AcDbDictionary
281
     1
  3
CANNOSCALE
350
C0A6
  3
CMLEADERSTYLE
350
C0A3
  3
CTABLESTYLE
350
C0A2
  3
CVIEWDETAILSTYLE
350
C0A4
  3
CVIEWSECTIONSTYLE
350
C0A5
  3
DIMASSOC
350
C0A9
  3
INDEXCTL
350
C0A8
  3
SORTENTS
350
C0A7
  3
XCLIPFRAME
350
C0AA
  0
XRECORD
  5
C0AF
102
{ACAD_REACTORS
330
BE62
102
}
330
BE62
100
AcDbXrecord
280
     1
  1
DWGPROPS COOKIE
  2

  3

  4

  6

  7

  8
Yoshitsune
  9

300
=
301
=
302
=
303
=
304
=
305
=
306
=
307
=
308
=
309
=
 40
0.0000093055555556
 41
2451301.626357176
 42
2457192.688542118
  1

 90
        0
  0
XRECORD
  5
C092
102
{ACAD_REACTORS
330
C091
102
}
330
C091
100
AcDbXrecord
280
     1
290
     1
  0
XRECORD
  5
C094
102
{ACAD_REACTORS
330
C093
102
}
330
C093
100
AcDbXrecord
280
     1
290
     1
  0
XRECORD
  5
C096
102
{ACAD_REACTORS
330
C095
102
}
330
C095
100
AcDbXrecord
280
     1
290
     1
  0
XRECORD
  5
C098
102
{ACAD_REACTORS
330
C097
102
}
330
C097
100
AcDbXrecord
280
     1
290
     1
  0
XRECORD
  5
C09A
102
{ACAD_REACTORS
330
C099
102
}
330
C099
100
AcDbXrecord
280
     1
290
     1
  0
XRECORD
  5
C09C
102
{ACAD_REACTORS
330
C09B
102
}
330
C09B
100
AcDbXrecord
280
     1
290
     1
  0
XRECORD
  5
C09E
102
{ACAD_REACTORS
330
C09D
102
}
330
C09D
100
AcDbXrecord
280
     1
290
     1
  0
XRECORD
  5
C0A0
102
{ACAD_REACTORS
330
C09F
102
}
330
C09F
100
AcDbXrecord
280
     1
290
     1
  0
XRECORD
  5
C03A
102
{ACAD_REACTORS
330
C039
102
}
330
C039
100
AcDbXrecord
280
     1
340
BE74
  0
XRECORD
  5
C038
102
{ACAD_REACTORS
330
C037
102
}
330
C037
100
AcDbXrecord
280
     1
340
BE70
  0
ACDBDETAILVIEWSTYLE
  5
C08C
102
{ACAD_XDICTIONARY
360
C0E7
102
}
102
{ACAD_REACTORS
330
C08B
102
}
330
C08B
100
AcDbModelDocViewStyle
 70
     0
  3
Imperial24
290
     0
100
AcDbDetailViewStyle
 70
     0
 71
     0
 90
        3
 71
     1
340
BE67
 40
0.24
340
0
 40
0.24
300

 40
0.36
280
     3
 71
     2
340
BE6B
 90
       25
 71
     3
340
BE67
 40
0.24
 90
        1
 40
0.75
 90
        1
300
%<\AcVar ViewType \f "%tc1">% %<\AcVar ViewDetailId>%\PSCALE %<\AcVar ViewScale \f "%sn">%
 71
     4
340
BE6B
 90
       25
340
BE6B
 90
       25
280
     0
  0
LAYOUT
  5
C08D
102
{ACAD_XDICTIONARY
360
C0E9
102
}
102
{ACAD_REACTORS
330
BE6F
102
}
330
BE6F
100
AcDbPlotSettings
  1

  2
Canon LBP9100C
  4

  6

 40
0.0
 41
0.0
 42
0.0
 43
0.0
 44
0.0
 45
0.0
 46
0.0
 47
0.0
 48
0.0
 49
0.0
140
0.0
141
0.0
142
1.0
143
1.0
 70
  1712
 72
     0
 73
     0
 74
     0
  7

 75
     0
147
1.0
148
0.0
149
0.0
100
AcDbLayout
  1
Model
 70
     1
 71
     0
 10
0.0
 20
0.0
 11
12.0
 21
9.0
 12
0.0
 22
0.0
 32
0.0
 14
0.0
 24
0.0
 34
0.0
 15
0.0
 25
0.0
 35
0.0
146
0.0
 13
0.0
 23
0.0
 33
0.0
 16
1.0
 26
0.0
 36
0.0
 17
0.0
 27
1.0
 37
0.0
 76
     0
330
BE74
331
C036
  0
LAYOUT
  5
C08E
102
{ACAD_XDICTIONARY
360
C0EB
102
}
102
{ACAD_REACTORS
330
BE6F
102
}
330
BE6F
100
AcDbPlotSettings
  1

  2
Canon LBP9100C
  4

  6

 40
0.0
 41
0.0
 42
0.0
 43
0.0
 44
0.0
 45
0.0
 46
0.0
 47
0.0
 48
0.0
 49
0.0
140
0.0
141
0.0
142
1.0
143
1.0
 70
   688
 72
     0
 73
     0
 74
     5
  7

 75
    16
147
1.0
148
0.0
149
0.0
100
AcDbLayout
  1
レイアウト1
 70
     0
 71
     1
 10
0.0
 20
0.0
 11
420.0
 21
297.0
 12
0.0
 22
0.0
 32
0.0
 14
1.000000000000000E+20
 24
1.000000000000000E+20
 34
1.000000000000000E+20
 15
-1.000000000000000E+20
 25
-1.000000000000000E+20
 35
-1.000000000000000E+20
146
0.0
 13
0.0
 23
0.0
 33
0.0
 16
1.0
 26
0.0
 36
0.0
 17
0.0
 27
1.0
 37
0.0
 76
     0
330
BE70
  0
MATERIAL
  5
C049
102
{ACAD_XDICTIONARY
360
C04A
102
}
102
{ACAD_REACTORS
330
C040
102
}
330
C040
100
AcDbMaterial
  1
ByBlock
 72
     0
 43
0.0208333333333333
 43
0.0
 43
0.0
 43
0.0
 43
0.0
 43
0.0208333333333333
 43
0.0
 43
0.0
 43
0.0
 43
0.0
 43
1.0
 43
0.0
 43
0.0
 43
0.0
 43
0.0
 43
1.0
 77
     0
 47
0.0208333333333333
 47
0.0
 47
0.0
 47
0.0
 47
0.0
 47
0.0208333333333333
 47
0.0
 47
0.0
 47
0.0
 47
0.0
 47
1.0
 47
0.0
 47
0.0
 47
0.0
 47
0.0
 47
1.0
171
     0
 49
0.0208333333333333
 49
0.0
 49
0.0
 49
0.0
 49
0.0
 49
0.0208333333333333
 49
0.0
 49
0.0
 49
0.0
 49
0.0
 49
1.0
 49
0.0
 49
0.0
 49
0.0
 49
0.0
 49
1.0
175
     0
142
0.0208333333333333
142
0.0
142
0.0
142
0.0
142
0.0
142
0.0208333333333333
142
0.0
142
0.0
142
0.0
142
0.0
142
1.0
142
0.0
142
0.0
142
0.0
142
0.0
142
1.0
179
     0
144
0.0208333333333333
144
0.0
144
0.0
144
0.0
144
0.0
144
0.0208333333333333
144
0.0
144
0.0
144
0.0
144
0.0
144
1.0
144
0.0
144
0.0
144
0.0
144
0.0
144
1.0
147
0.0208333333333333
147
0.0
147
0.0
147
0.0
147
0.0
147
0.0208333333333333
147
0.0
147
0.0
147
0.0
147
0.0
147
1.0
147
0.0
147
0.0
147
0.0
147
0.0
147
1.0
  0
MATERIAL
  5
C041
102
{ACAD_XDICTIONARY
360
C042
102
}
102
{ACAD_REACTORS
330
C040
102
}
330
C040
100
AcDbMaterial
  1
ByLayer
 72
     0
 43
0.0208333333333333
 43
0.0
 43
0.0
 43
0.0
 43
0.0
 43
0.0208333333333333
 43
0.0
 43
0.0
 43
0.0
 43
0.0
 43
1.0
 43
0.0
 43
0.0
 43
0.0
 43
0.0
 43
1.0
 77
     0
 47
0.0208333333333333
 47
0.0
 47
0.0
 47
0.0
 47
0.0
 47
0.0208333333333333
 47
0.0
 47
0.0
 47
0.0
 47
0.0
 47
1.0
 47
0.0
 47
0.0
 47
0.0
 47
0.0
 47
1.0
171
     0
 49
0.0208333333333333
 49
0.0
 49
0.0
 49
0.0
 49
0.0
 49
0.0208333333333333
 49
0.0
 49
0.0
 49
0.0
 49
0.0
 49
1.0
 49
0.0
 49
0.0
 49
0.0
 49
0.0
 49
1.0
175
     0
142
0.0208333333333333
142
0.0
142
0.0
142
0.0
142
0.0
142
0.0208333333333333
142
0.0
142
0.0
142
0.0
142
0.0
142
1.0
142
0.0
142
0.0
142
0.0
142
0.0
142
1.0
179
     0
144
0.0208333333333333
144
0.0
144
0.0
144
0.0
144
0.0
144
0.0208333333333333
144
0.0
144
0.0
144
0.0
144
0.0
144
1.0
144
0.0
144
0.0
144
0.0
144
0.0
144
1.0
147
0.0208333333333333
147
0.0
147
0.0
147
0.0
147
0.0
147
0.0208333333333333
147
0.0
147
0.0
147
0.0
147
0.0
147
1.0
147
0.0
147
0.0
147
0.0
147
0.0
147
1.0
  0
MATERIAL
  5
C051
102
{ACAD_XDICTIONARY
360
C052
102
}
102
{ACAD_REACTORS
330
C040
102
}
330
C040
100
AcDbMaterial
  1
Global
 72
     0
 43
0.0208333333333333
 43
0.0
 43
0.0
 43
0.0
 43
0.0
 43
0.0208333333333333
 43
0.0
 43
0.0
 43
0.0
 43
0.0
 43
1.0
 43
0.0
 43
0.0
 43
0.0
 43
0.0
 43
1.0
 77
     0
 47
0.0208333333333333
 47
0.0
 47
0.0
 47
0.0
 47
0.0
 47
0.0208333333333333
 47
0.0
 47
0.0
 47
0.0
 47
0.0
 47
1.0
 47
0.0
 47
0.0
 47
0.0
 47
0.0
 47
1.0
171
     0
 49
0.0208333333333333
 49
0.0
 49
0.0
 49
0.0
 49
0.0
 49
0.0208333333333333
 49
0.0
 49
0.0
 49
0.0
 49
0.0
 49
1.0
 49
0.0
 49
0.0
 49
0.0
 49
0.0
 49
1.0
175
     0
142
0.0208333333333333
142
0.0
142
0.0
142
0.0
142
0.0
142
0.0208333333333333
142
0.0
142
0.0
142
0.0
142
0.0
142
1.0
142
0.0
142
0.0
142
0.0
142
0.0
142
1.0
179
     0
144
0.0208333333333333
144
0.0
144
0.0
144
0.0
144
0.0
144
0.0208333333333333
144
0.0
144
0.0
144
0.0
144
0.0
144
1.0
144
0.0
144
0.0
144
0.0
144
0.0
144
1.0
147
0.0208333333333333
147
0.0
147
0.0
147
0.0
147
0.0
147
0.0208333333333333
147
0.0
147
0.0
147
0.0
147
0.0
147
1.0
147
0.0
147
0.0
147
0.0
147
0.0
147
1.0
  0
MLEADERSTYLE
  5
C088
102
{ACAD_REACTORS
330
C087
102
}
330
C087
100
AcDbMLeaderStyle
170
     2
171
     1
172
     0
 90
        2
 40
0.0
 41
0.0
173
     1
 91
-1056964608
340
BE69
 92
       -2
290
     1
 42
0.09
291
     1
 43
0.36
  3
Standard
 44
0.18
300

342
BE67
174
     1
178
     6
175
     1
176
     0
 93
-1056964608
 45
0.18
292
     0
297
     0
 46
0.18
 94
-1056964608
 47
1.0
 49
1.0
140
1.0
293
     1
141
0.0
294
     1
177
     0
142
1.0
295
     0
296
     0
143
0.125
1001
ACAD_MLEADERVER
1070
     2
  0
MLINESTYLE
  5
BE6D
102
{ACAD_REACTORS
330
BE6C
102
}
330
BE6C
100
AcDbMlineStyle
  2
STANDARD
 70
     0
  3

 62
   256
 51
90.0
 52
90.0
 71
     2
 49
0.5
 62
   256
  6
BYLAYER
 49
-0.5
 62
   256
  6
BYLAYER
  0
ACDBPLACEHOLDER
  5
C03F
102
{ACAD_REACTORS
330
C03E
102
}
330
C03E
  0
SCALE
  5
C076
102
{ACAD_REACTORS
330
C075
102
}
330
C075
100
AcDbScale
 70
     0
300
1:1
140
1.0
141
1.0
290
     1
  0
SCALE
  5
C077
102
{ACAD_REACTORS
330
C075
102
}
330
C075
100
AcDbScale
 70
     0
300
1/128" = 1'-0"
140
0.0078125
141
12.0
290
     0
  0
SCALE
  5
C078
102
{ACAD_REACTORS
330
C075
102
}
330
C075
100
AcDbScale
 70
     0
300
1/64" = 1'-0"
140
0.015625
141
12.0
290
     0
  0
SCALE
  5
C079
102
{ACAD_REACTORS
330
C075
102
}
330
C075
100
AcDbScale
 70
     0
300
1/32" = 1'-0"
140
0.03125
141
12.0
290
     0
  0
SCALE
  5
C07A
102
{ACAD_REACTORS
330
C075
102
}
330
C075
100
AcDbScale
 70
     0
300
1/16" = 1'-0"
140
0.0625
141
12.0
290
     0
  0
SCALE
  5
C07B
102
{ACAD_REACTORS
330
C075
102
}
330
C075
100
AcDbScale
 70
     0
300
3/32" = 1'-0"
140
0.09375
141
12.0
290
     0
  0
SCALE
  5
C07C
102
{ACAD_REACTORS
330
C075
102
}
330
C075
100
AcDbScale
 70
     0
300
1/8" = 1'-0"
140
0.125
141
12.0
290
     0
  0
SCALE
  5
C07D
102
{ACAD_REACTORS
330
C075
102
}
330
C075
100
AcDbScale
 70
     0
300
3/16" = 1'-0"
140
0.1875
141
12.0
290
     0
  0
SCALE
  5
C07E
102
{ACAD_REACTORS
330
C075
102
}
330
C075
100
AcDbScale
 70
     0
300
1/4" = 1'-0"
140
0.25
141
12.0
290
     0
  0
SCALE
  5
C07F
102
{ACAD_REACTORS
330
C075
102
}
330
C075
100
AcDbScale
 70
     0
300
3/8" = 1'-0"
140
0.375
141
12.0
290
     0
  0
SCALE
  5
C080
102
{ACAD_REACTORS
330
C075
102
}
330
C075
100
AcDbScale
 70
     0
300
1/2" = 1'-0"
140
0.5
141
12.0
290
     0
  0
SCALE
  5
C081
102
{ACAD_REACTORS
330
C075
102
}
330
C075
100
AcDbScale
 70
     0
300
3/4" = 1'-0"
140
0.75
141
12.0
290
     0
  0
SCALE
  5
C082
102
{ACAD_REACTORS
330
C075
102
}
330
C075
100
AcDbScale
 70
     0
300
1" = 1'-0"
140
1.0
141
12.0
290
     0
  0
SCALE
  5
C083
102
{ACAD_REACTORS
330
C075
102
}
330
C075
100
AcDbScale
 70
     0
300
1-1/2" = 1'-0"
140
1.5
141
12.0
290
     0
  0
SCALE
  5
C084
102
{ACAD_REACTORS
330
C075
102
}
330
C075
100
AcDbScale
 70
     0
300
3" = 1'-0"
140
3.0
141
12.0
290
     0
  0
SCALE
  5
C085
102
{ACAD_REACTORS
330
C075
102
}
330
C075
100
AcDbScale
 70
     0
300
6" = 1'-0"
140
6.0
141
12.0
290
     0
  0
SCALE
  5
C086
102
{ACAD_REACTORS
330
C075
102
}
330
C075
100
AcDbScale
 70
     0
300
1'-0" = 1'-0"
140
12.0
141
12.0
290
     0
  0
ACDBSECTIONVIEWSTYLE
  5
C08A
102
{ACAD_XDICTIONARY
360
C0E5
102
}
102
{ACAD_REACTORS
330
C089
102
}
330
C089
100
AcDbModelDocViewStyle
 70
     0
  3
Imperial24
290
     0
100
AcDbSectionViewStyle
 70
     0
 71
     0
 90
       78
 71
     1
340
BE67
 40
0.24
340
0
340
0
 40
0.24
300
I, O, Q, S, X, Z
 40
0.48
 90
        3
 40
0.18
 90
        1
 71
     2
340
BE6B
 90
       25
340
BE6B
 90
       50
 40
0.24
 40
0.0
 40
0.24
 71
     3
340
BE67
 40
0.24
 90
        1
 40
0.75
 90
        1
300
%<\AcVar ViewType \f "%tc1">% %<\AcVar ViewSectionStartId>%-%<\AcVar ViewSectionEndId>%\PSCALE %<\AcVar ViewScale \f "%sn">%
 71
     4
300
ANSI31
 40
1.0
 90
        0
290
     0
290
     0
 90
        6
 40
0.0
 40
1.570796326794896
 40
0.2617993877991494
 40
1.308996938995747
 40
-0.2617993877991494
 40
1.832595714594046
  0
TABLESTYLE
  5
C074
102
{ACAD_XDICTIONARY
360
C0AC
102
}
102
{ACAD_REACTORS
330
C073
102
}
330
C073
100
AcDbTableStyle
  3
Standard
 70
     0
 71
     0
 40
0.06
 41
0.06
280
     0
281
     0
  7
STANDARD
140
0.18
170
     2
 62
     0
 63
     7
283
     0
274
    -2
284
     1
 64
     0
275
    -2
285
     1
 65
     0
276
    -2
286
     1
 66
     0
277
    -2
287
     1
 67
     0
278
    -2
288
     1
 68
     0
279
    -2
289
     1
 69
     0
  7
STANDARD
140
0.25
170
     5
 62
     0
 63
     7
283
     0
274
    -2
284
     1
 64
     0
275
    -2
285
     1
 65
     0
276
    -2
286
     1
 66
     0
277
    -2
287
     1
 67
     0
278
    -2
288
     1
 68
     0
279
    -2
289
     1
 69
     0
  7
STANDARD
140
0.18
170
     5
 62
     0
 63
     7
283
     0
274
    -2
284
     1
 64
     0
275
    -2
285
     1
 65
     0
276
    -2
286
     1
 66
     0
277
    -2
287
     1
 67
     0
278
    -2
288
     1
 68
     0
279
    -2
289
     1
 69
     0
  0
VISUALSTYLE
  5
C05F
102
{ACAD_XDICTIONARY
360
C0BD
102
}
102
{ACAD_REACTORS
330
C059
102
}
330
C059
100
AcDbVisualStyle
  2
2dWireframe
 70
     4
 71
     0
 72
     2
 73
     0
 90
        0
 40
-0.6
 41
-30.0
 62
     5
 63
     7
 74
     1
 91
        4
 64
     7
 65
   257
 75
     1
175
     1
 42
1.0
 92
        0
 66
   257
 43
1.0
 76
     1
 77
     6
 78
     2
 67
     7
 79
     5
170
     0
171
     0
290
     0
174
     0
 93
        1
 44
0.0
173
     0
291
     0
 45
0.0
1001
ACAD
1000
AcDbSavedByObjectVersion
1070
     0
  0
VISUALSTYLE
  5
C05E
102
{ACAD_XDICTIONARY
360
C0BB
102
}
102
{ACAD_REACTORS
330
C059
102
}
330
C059
100
AcDbVisualStyle
  2
Basic
 70
     7
 71
     1
 72
     0
 73
     1
 90
        0
 40
-0.6
 41
-30.0
 62
     5
 63
     7
 74
     0
 91
        4
 64
     7
 65
   257
 75
     1
175
     1
 42
1.0
 92
        8
 66
     7
 43
1.0
 76
     1
 77
     6
 78
     2
 67
     7
 79
     5
170
     0
171
     0
290
     0
174
     0
 93
        1
 44
0.0
173
     0
291
     1
 45
0.0
1001
ACAD
1000
AcDbSavedByObjectVersion
1070
     0
  0
VISUALSTYLE
  5
C065
102
{ACAD_XDICTIONARY
360
C0C9
102
}
102
{ACAD_REACTORS
330
C059
102
}
330
C059
100
AcDbVisualStyle
  2
Brighten
 70
    12
 71
     2
 72
     2
 73
     0
 90
        0
 40
-0.6
 41
-30.0
 62
     5
 63
     7
 74
     1
 91
        4
 64
     7
 65
   257
 75
     1
175
     1
 42
1.0
 92
        8
 66
     7
 43
1.0
 76
     1
 77
     6
 78
     2
 67
     7
 79
     5
170
     0
171
     0
290
     0
174
     0
 93
        1
 44
50.0
173
     0
291
     1
 45
0.0
1001
ACAD
1000
AcDbSavedByObjectVersion
1070
     0
  0
VISUALSTYLE
  5
C069
102
{ACAD_XDICTIONARY
360
C0D1
102
}
102
{ACAD_REACTORS
330
C059
102
}
330
C059
100
AcDbVisualStyle
  2
ColorChange
 70
    16
 71
     2
 72
     2
 73
     3
 90
        0
 40
-0.6
 41
-30.0
 62
     5
 63
     8
 74
     1
 91
        4
 64
     7
 65
   257
 75
     1
175
     1
 42
1.0
 92
        8
 66
     8
 43
1.0
 76
     1
 77
     6
 78
     2
 67
     7
 79
     5
170
     0
171
     0
290
     0
174
     0
 93
        1
 44
0.0
173
     0
291
     1
 45
0.0
1001
ACAD
1000
AcDbSavedByObjectVersion
1070
     0
  0
VISUALSTYLE
  5
C062
102
{ACAD_XDICTIONARY
360
C0C3
102
}
102
{ACAD_REACTORS
330
C059
102
}
330
C059
100
AcDbVisualStyle
  2
Conceptual
 70
     9
 71
     3
 72
     2
 73
     0
 90
        0
 40
-0.6
 41
-30.0
 62
     5
 63
     7
 74
     2
 91
        2
 64
     7
 65
   257
 75
     1
175
     1
 42
179.0
 92
        8
 66
     7
 43
1.0
 76
     1
 77
     6
 78
     2
 67
     7
 79
     3
170
     0
171
     0
290
     0
174
     0
 93
        1
 44
0.0
173
     0
291
     0
 45
0.0
1001
ACAD
1000
AcDbSavedByObjectVersion
1070
     0
  0
VISUALSTYLE
  5
C064
102
{ACAD_XDICTIONARY
360
C0C7
102
}
102
{ACAD_REACTORS
330
C059
102
}
330
C059
100
AcDbVisualStyle
  2
Dim
 70
    11
 71
     2
 72
     2
 73
     0
 90
        0
 40
-0.6
 41
-30.0
 62
     5
 63
     7
 74
     1
 91
        4
 64
     7
 65
   257
 75
     1
175
     1
 42
1.0
 92
        8
 66
     7
 43
1.0
 76
     1
 77
     6
 78
     2
 67
     7
 79
     5
170
     0
171
     0
290
     0
174
     0
 93
        1
 44
-50.0
173
     0
291
     1
 45
0.0
1001
ACAD
1000
AcDbSavedByObjectVersion
1070
     0
  0
VISUALSTYLE
  5
C071
102
{ACAD_XDICTIONARY
360
C0E1
102
}
102
{ACAD_REACTORS
330
C059
102
}
330
C059
100
AcDbVisualStyle
  2
EdgeColorOff
 70
    22
 71
     2
 72
     2
 73
     0
 90
        0
 40
-0.6
 41
-30.0
 62
     5
 63
     7
 74
     1
 91
        4
 64
     7
 65
   257
 75
     1
175
     1
 42
1.0
 92
        8
 66
     7
 43
1.0
 76
     1
 77
     6
 78
     2
 67
     7
 79
     5
170
     0
171
     0
290
     0
174
     0
 93
        1
 44
0.0
173
     0
291
     1
 45
0.0
1001
ACAD
1000
AcDbSavedByObjectVersion
1070
     0
  0
VISUALSTYLE
  5
C068
102
{ACAD_XDICTIONARY
360
C0CF
102
}
102
{ACAD_REACTORS
330
C059
102
}
330
C059
100
AcDbVisualStyle
  2
Facepattern
 70
    15
 71
     2
 72
     2
 73
     0
 90
        0
 40
-0.6
 41
-30.0
 62
     5
 63
     7
 74
     1
 91
        4
 64
     7
 65
   257
 75
     1
175
     1
 42
1.0
 92
        8
 66
     7
 43
1.0
 76
     1
 77
     6
 78
     2
 67
     7
 79
     5
170
     0
171
     0
290
     0
174
     0
 93
        1
 44
0.0
173
     0
291
     1
 45
0.0
1001
ACAD
1000
AcDbSavedByObjectVersion
1070
     0
  0
VISUALSTYLE
  5
C05A
102
{ACAD_XDICTIONARY
360
C0B3
102
}
102
{ACAD_REACTORS
330
C059
102
}
330
C059
100
AcDbVisualStyle
  2
Flat
 70
     0
 71
     2
 72
     1
 73
     1
 90
        2
 40
-0.6
 41
30.0
 62
     5
 63
     7
 74
     0
 91
        0
 64
     7
 65
   257
 75
     1
175
     1
 42
1.0
 92
        8
 66
     7
 43
1.0
 76
     1
 77
     6
 78
     2
 67
     7
 79
     5
170
     0
171
     0
290
     0
174
     0
 93
       13
 44
0.0
173
     0
291
     1
 45
0.0
1001
ACAD
1000
AcDbSavedByObjectVersion
1070
     0
  0
VISUALSTYLE
  5
C05B
102
{ACAD_XDICTIONARY
360
C0B5
102
}
102
{ACAD_REACTORS
330
C059
102
}
330
C059
100
AcDbVisualStyle
  2
FlatWithEdges
 70
     1
 71
     2
 72
     1
 73
     1
 90
        2
 40
-0.6
 41
30.0
 62
     5
 63
     7
 74
     1
 91
        0
 64
     7
 65
   257
 75
     1
175
     1
 42
1.0
 92
        0
 66
   257
 43
1.0
 76
     1
 77
     6
 78
     2
 67
     7
 79
     5
170
     0
171
     0
290
     0
174
     0
 93
       13
 44
0.0
173
     0
291
     1
 45
0.0
1001
ACAD
1000
AcDbSavedByObjectVersion
1070
     0
  0
VISUALSTYLE
  5
C05C
102
{ACAD_XDICTIONARY
360
C0B7
102
}
102
{ACAD_REACTORS
330
C059
102
}
330
C059
100
AcDbVisualStyle
  2
Gouraud
 70
     2
 71
     2
 72
     2
 73
     1
 90
        2
 40
-0.6
 41
30.0
 62
     5
 63
     7
 74
     0
 91
        0
 64
     7
 65
   257
 75
     1
175
     1
 42
1.0
 92
        0
 66
     7
 43
1.0
 76
     1
 77
     6
 78
     2
 67
     7
 79
     5
170
     0
171
     0
290
     0
174
     0
 93
       13
 44
0.0
173
     0
291
     1
 45
0.0
1001
ACAD
1000
AcDbSavedByObjectVersion
1070
     0
  0
VISUALSTYLE
  5
C05D
102
{ACAD_XDICTIONARY
360
C0B9
102
}
102
{ACAD_REACTORS
330
C059
102
}
330
C059
100
AcDbVisualStyle
  2
GouraudWithEdges
 70
     3
 71
     2
 72
     2
 73
     1
 90
        2
 40
-0.6
 41
30.0
 62
     5
 63
     7
 74
     1
 91
        0
 64
     7
 65
   257
 75
     1
175
     1
 42
1.0
 92
        0
 66
   257
 43
1.0
 76
     1
 77
     6
 78
     2
 67
     7
 79
     5
170
     0
171
     0
290
     0
174
     0
 93
       13
 44
0.0
173
     0
291
     1
 45
0.0
1001
ACAD
1000
AcDbSavedByObjectVersion
1070
     0
  0
VISUALSTYLE
  5
C061
102
{ACAD_XDICTIONARY
360
C0C1
102
}
102
{ACAD_REACTORS
330
C059
102
}
330
C059
100
AcDbVisualStyle
  2
Hidden
 70
     6
 71
     1
 72
     2
 73
     2
 90
        0
 40
-0.6
 41
-30.0
 62
     5
 63
     7
 74
     2
 91
        2
 64
     7
 65
   257
 75
     2
175
     1
 42
40.0
 92
        0
 66
   257
 43
1.0
 76
     1
 77
     6
 78
     2
 67
     7
 79
     3
170
     0
171
     0
290
     0
174
     0
 93
        1
 44
0.0
173
     0
291
     0
 45
0.0
1001
ACAD
1000
AcDbSavedByObjectVersion
1070
     0
  0
VISUALSTYLE
  5
C06F
102
{ACAD_XDICTIONARY
360
C0DD
102
}
102
{ACAD_REACTORS
330
C059
102
}
330
C059
100
AcDbVisualStyle
  2
JitterOff
 70
    20
 71
     2
 72
     2
 73
     0
 90
        0
 40
-0.6
 41
-30.0
 62
     5
 63
     7
 74
     1
 91
        4
 64
     7
 65
   257
 75
     1
175
     1
 42
1.0
 92
       10
 66
     7
 43
1.0
 76
     1
 77
     6
 78
     2
 67
     7
 79
     5
170
     0
171
     0
290
     0
174
     0
 93
        1
 44
0.0
173
     0
291
     1
 45
0.0
1001
ACAD
1000
AcDbSavedByObjectVersion
1070
     0
  0
VISUALSTYLE
  5
C067
102
{ACAD_XDICTIONARY
360
C0CD
102
}
102
{ACAD_REACTORS
330
C059
102
}
330
C059
100
AcDbVisualStyle
  2
Linepattern
 70
    14
 71
     2
 72
     2
 73
     0
 90
        0
 40
-0.6
 41
-30.0
 62
     5
 63
     7
 74
     1
 91
        4
 64
     7
 65
   257
 75
     7
175
     7
 42
1.0
 92
        8
 66
     7
 43
1.0
 76
     1
 77
     6
 78
     2
 67
     7
 79
     5
170
     0
171
     0
290
     0
174
     0
 93
        1
 44
0.0
173
     0
291
     1
 45
0.0
1001
ACAD
1000
AcDbSavedByObjectVersion
1070
     0
  0
VISUALSTYLE
  5
C070
102
{ACAD_XDICTIONARY
360
C0DF
102
}
102
{ACAD_REACTORS
330
C059
102
}
330
C059
100
AcDbVisualStyle
  2
OverhangOff
 70
    21
 71
     2
 72
     2
 73
     0
 90
        0
 40
-0.6
 41
-30.0
 62
     5
 63
     7
 74
     1
 91
        4
 64
     7
 65
   257
 75
     1
175
     1
 42
1.0
 92
        9
 66
     7
 43
1.0
 76
     1
 77
     6
 78
     2
 67
     7
 79
     5
170
     0
171
     0
290
     0
174
     0
 93
        1
 44
0.0
173
     0
291
     1
 45
0.0
1001
ACAD
1000
AcDbSavedByObjectVersion
1070
     0
  0
VISUALSTYLE
  5
C063
102
{ACAD_XDICTIONARY
360
C0C5
102
}
102
{ACAD_REACTORS
330
C059
102
}
330
C059
100
AcDbVisualStyle
  2
Realistic
 70
     8
 71
     2
 72
     3
 73
     0
 90
        2
 40
-0.6
 41
30.0
 62
     5
 63
     7
 74
     0
 91
        0
 64
     7
 65
   257
 75
     1
175
     1
 42
1.0
 92
        8
 66
   257
 43
1.0
 76
     1
 77
     6
 78
     2
 67
     7
 79
     3
170
     0
171
     0
290
     0
174
     0
 93
       13
 44
0.0
173
     0
291
     0
 45
0.0
1001
ACAD
1000
AcDbSavedByObjectVersion
1070
     0
  0
VISUALSTYLE
  5
C06E
102
{ACAD_XDICTIONARY
360
C0DB
102
}
102
{ACAD_REACTORS
330
C059
102
}
330
C059
100
AcDbVisualStyle
  2
Shaded
 70
    27
 71
     2
 72
     2
 73
     1
 90
        2
 40
-0.6
 41
30.0
 62
     5
 63
     7
 74
     0
 91
        4
 64
     7
 65
   257
 75
     1
175
     1
 42
1.0
 92
        8
 66
   257
 43
1.0
 76
     1
 77
     6
 78
     2
 67
     8
 79
     3
170
     0
171
     0
290
     0
174
     0
 93
        5
 44
0.0
173
     0
291
     0
 45
0.0
1001
ACAD
1000
AcDbSavedByObjectVersion
1070
     0
  0
VISUALSTYLE
  5
C06D
102
{ACAD_XDICTIONARY
360
C0D9
102
}
102
{ACAD_REACTORS
330
C059
102
}
330
C059
100
AcDbVisualStyle
  2
Shaded with edges
 70
    26
 71
     2
 72
     2
 73
     1
 90
        2
 40
-0.6
 41
30.0
 62
     5
 63
     7
 74
     1
 91
       10
 64
     7
 65
   257
 75
     2
175
     1
 42
1.0
 92
        8
 66
   257
 43
1.0
 76
     1
 77
     6
 78
     2
 67
     7
 79
     3
170
     0
171
     0
290
     0
174
     0
 93
        5
 44
0.0
173
     0
291
     0
 45
0.0
1001
ACAD
1000
AcDbSavedByObjectVersion
1070
     0
  0
VISUALSTYLE
  5
C06A
102
{ACAD_XDICTIONARY
360
C0D3
102
}
102
{ACAD_REACTORS
330
C059
102
}
330
C059
100
AcDbVisualStyle
  2
Shades of Gray
 70
    23
 71
     2
 72
     2
 73
     3
 90
        0
 40
-0.6
 41
-30.0
 62
     5
 63
     7
 74
     2
 91
        2
 64
     7
 65
     7
 75
     1
175
     1
 42
40.0
 92
        8
 66
     7
 43
1.0
 76
     1
 77
     6
 78
     2
 67
     7
 79
     3
170
     0
171
     0
290
     0
174
     0
 93
        1
 44
0.0
173
     0
291
     0
 45
0.0
1001
ACAD
1000
AcDbSavedByObjectVersion
1070
     0
  0
VISUALSTYLE
  5
C06B
102
{ACAD_XDICTIONARY
360
C0D5
102
}
102
{ACAD_REACTORS
330
C059
102
}
330
C059
100
AcDbVisualStyle
  2
Sketchy
 70
    24
 71
     1
 72
     2
 73
     2
 90
        0
 40
-0.6
 41
-30.0
 62
     5
 63
     7
 74
     2
 91
        2
 64
     7
 65
     7
 75
     1
175
     1
 42
40.0
 92
       11
 66
     7
 43
1.0
 76
     1
 77
     6
 78
     2
 67
     7
 79
     6
170
     0
171
     0
290
     0
174
     0
 93
        1
 44
0.0
173
     0
291
     0
 45
0.0
1001
ACAD
1000
AcDbSavedByObjectVersion
1070
     0
  0
VISUALSTYLE
  5
C066
102
{ACAD_XDICTIONARY
360
C0CB
102
}
102
{ACAD_REACTORS
330
C059
102
}
330
C059
100
AcDbVisualStyle
  2
Thicken
 70
    13
 71
     2
 72
     2
 73
     0
 90
        0
 40
-0.6
 41
-30.0
 62
     5
 63
     7
 74
     1
 91
        4
 64
     7
 65
   257
 75
     1
175
     1
 42
1.0
 92
       12
 66
     7
 43
1.0
 76
     1
 77
     6
 78
     2
 67
     7
 79
     5
170
     0
171
     0
290
     0
174
     0
 93
        1
 44
0.0
173
     0
291
     1
 45
0.0
1001
ACAD
1000
AcDbSavedByObjectVersion
1070
     0
  0
VISUALSTYLE
  5
C060
102
{ACAD_XDICTIONARY
360
C0BF
102
}
102
{ACAD_REACTORS
330
C059
102
}
330
C059
100
AcDbVisualStyle
  2
Wireframe
 70
     5
 71
     0
 72
     2
 73
     0
 90
        0
 40
-0.6
 41
-30.0
 62
     5
 63
     7
 74
     1
 91
        4
 64
     7
 65
   257
 75
     1
175
     1
 42
1.0
 92
        0
 66
   257
 43
1.0
 76
     1
 77
     6
 78
     2
 67
     7
 79
     3
170
     0
171
     0
290
     0
174
     0
 93
        1
 44
0.0
173
     0
291
     0
 45
0.0
1001
ACAD
1000
AcDbSavedByObjectVersion
1070
     0
  0
VISUALSTYLE
  5
C06C
102
{ACAD_XDICTIONARY
360
C0D7
102
}
102
{ACAD_REACTORS
330
C059
102
}
330
C059
100
AcDbVisualStyle
  2
X-Ray
 70
    25
 71
     2
 72
     2
 73
     1
 90
        1
 40
0.5
 41
-30.0
 62
     5
 63
     7
 74
     1
 91
        0
 64
     7
 65
   257
 75
     1
175
     1
 42
1.0
 92
        8
 66
     7
 43
1.0
 76
     1
 77
     6
 78
     2
 67
     7
 79
     3
170
     0
171
     0
290
     0
174
     0
 93
       13
 44
0.0
173
     0
291
     0
 45
0.0
1001
ACAD
1000
AcDbSavedByObjectVersion
1070
     0
  0
DICTIONARYVAR
  5
C0A6
102
{ACAD_REACTORS
330
C0A1
102
}
330
C0A1
100
DictionaryVariables
280
     0
  1
1:1
  0
DICTIONARYVAR
  5
C0A3
102
{ACAD_REACTORS
330
C0A1
102
}
330
C0A1
100
DictionaryVariables
280
     0
  1
STANDARD
  0
DICTIONARYVAR
  5
C0A2
102
{ACAD_REACTORS
330
C0A1
102
}
330
C0A1
100
DictionaryVariables
280
     0
  1
STANDARD
  0
DICTIONARYVAR
  5
C0A4
102
{ACAD_REACTORS
330
C0A1
102
}
330
C0A1
100
DictionaryVariables
280
     0
  1
Imperial24
  0
DICTIONARYVAR
  5
C0A5
102
{ACAD_REACTORS
330
C0A1
102
}
330
C0A1
100
DictionaryVariables
280
     0
  1
Imperial24
  0
DICTIONARYVAR
  5
C0A9
102
{ACAD_REACTORS
330
C0A1
102
}
330
C0A1
100
DictionaryVariables
280
     0
  1
1
  0
DICTIONARYVAR
  5
C0A8
102
{ACAD_REACTORS
330
C0A1
102
}
330
C0A1
100
DictionaryVariables
280
     0
  1
0
  0
DICTIONARYVAR
  5
C0A7
102
{ACAD_REACTORS
330
C0A1
102
}
330
C0A1
100
DictionaryVariables
280
     0
  1
127
  0
DICTIONARYVAR
  5
C0AA
102
{ACAD_REACTORS
330
C0A1
102
}
330
C0A1
100
DictionaryVariables
280
     0
  1
2
  0
DICTIONARY
  5
C0E7
330
C08C
100
AcDbDictionary
280
     1
281
     1
  3
ACAD_XREC_ROUNDTRIP
360
C0E8
  0
DICTIONARY
  5
C0E9
330
C08D
100
AcDbDictionary
280
     1
281
     1
  3
ACAD_XREC_ROUNDTRIP
360
C0EA
  0
DICTIONARY
  5
C0EB
330
C08E
100
AcDbDictionary
280
     1
281
     1
  3
ACAD_XREC_ROUNDTRIP
360
C0EC
  0
DICTIONARY
  5
C04A
330
C049
100
AcDbDictionary
280
     1
281
     1
  3
ACAD_XREC_ROUNDTRIP
360
C0B1
  3
BUMPTILE
360
C04C
  3
DIFFUSETILE
360
C04B
  3
OPACITYTILE
360
C04F
  3
REFLECTIONTILE
360
C04E
  3
REFRACTIONTILE
360
C050
  3
SPECULARTILE
360
C04D
  0
DICTIONARY
  5
C042
330
C041
100
AcDbDictionary
280
     1
281
     1
  3
ACAD_XREC_ROUNDTRIP
360
C0B0
  3
BUMPTILE
360
C044
  3
DIFFUSETILE
360
C043
  3
OPACITYTILE
360
C047
  3
REFLECTIONTILE
360
C046
  3
REFRACTIONTILE
360
C048
  3
SPECULARTILE
360
C045
  0
DICTIONARY
  5
C052
330
C051
100
AcDbDictionary
280
     1
281
     1
  3
ACAD_XREC_ROUNDTRIP
360
C0B2
  3
BUMPTILE
360
C054
  3
DIFFUSETILE
360
C053
  3
OPACITYTILE
360
C057
  3
REFLECTIONTILE
360
C056
  3
REFRACTIONTILE
360
C058
  3
SPECULARTILE
360
C055
  0
DICTIONARY
  5
C0E5
330
C08A
100
AcDbDictionary
280
     1
281
     1
  3
ACAD_XREC_ROUNDTRIP
360
C0E6
  0
DICTIONARY
  5
C0AC
330
C074
100
AcDbDictionary
280
     1
281
     1
  3
ACAD_ROUNDTRIP_2008_TABLESTYLE_CELLSTYLEMAP
360
C0AD
  3
ACAD_XREC_ROUNDTRIP
360
C0E3
  0
DICTIONARY
  5
C0BD
330
C05F
100
AcDbDictionary
280
     1
281
     1
  3
ACAD_XREC_ROUNDTRIP
360
C0BE
  0
DICTIONARY
  5
C0BB
330
C05E
100
AcDbDictionary
280
     1
281
     1
  3
ACAD_XREC_ROUNDTRIP
360
C0BC
  0
DICTIONARY
  5
C0C9
330
C065
100
AcDbDictionary
280
     1
281
     1
  3
ACAD_XREC_ROUNDTRIP
360
C0CA
  0
DICTIONARY
  5
C0D1
330
C069
100
AcDbDictionary
280
     1
281
     1
  3
ACAD_XREC_ROUNDTRIP
360
C0D2
  0
DICTIONARY
  5
C0C3
330
C062
100
AcDbDictionary
280
     1
281
     1
  3
ACAD_XREC_ROUNDTRIP
360
C0C4
  0
DICTIONARY
  5
C0C7
330
C064
100
AcDbDictionary
280
     1
281
     1
  3
ACAD_XREC_ROUNDTRIP
360
C0C8
  0
DICTIONARY
  5
C0E1
330
C071
100
AcDbDictionary
280
     1
281
     1
  3
ACAD_XREC_ROUNDTRIP
360
C0E2
  0
DICTIONARY
  5
C0CF
330
C068
100
AcDbDictionary
280
     1
281
     1
  3
ACAD_XREC_ROUNDTRIP
360
C0D0
  0
DICTIONARY
  5
C0B3
330
C05A
100
AcDbDictionary
280
     1
281
     1
  3
ACAD_XREC_ROUNDTRIP
360
C0B4
  0
DICTIONARY
  5
C0B5
330
C05B
100
AcDbDictionary
280
     1
281
     1
  3
ACAD_XREC_ROUNDTRIP
360
C0B6
  0
DICTIONARY
  5
C0B7
330
C05C
100
AcDbDictionary
280
     1
281
     1
  3
ACAD_XREC_ROUNDTRIP
360
C0B8
  0
DICTIONARY
  5
C0B9
330
C05D
100
AcDbDictionary
280
     1
281
     1
  3
ACAD_XREC_ROUNDTRIP
360
C0BA
  0
DICTIONARY
  5
C0C1
330
C061
100
AcDbDictionary
280
     1
281
     1
  3
ACAD_XREC_ROUNDTRIP
360
C0C2
  0
DICTIONARY
  5
C0DD
330
C06F
100
AcDbDictionary
280
     1
281
     1
  3
ACAD_XREC_ROUNDTRIP
360
C0DE
  0
DICTIONARY
  5
C0CD
330
C067
100
AcDbDictionary
280
     1
281
     1
  3
ACAD_XREC_ROUNDTRIP
360
C0CE
  0
DICTIONARY
  5
C0DF
330
C070
100
AcDbDictionary
280
     1
281
     1
  3
ACAD_XREC_ROUNDTRIP
360
C0E0
  0
DICTIONARY
  5
C0C5
330
C063
100
AcDbDictionary
280
     1
281
     1
  3
ACAD_XREC_ROUNDTRIP
360
C0C6
  0
DICTIONARY
  5
C0DB
330
C06E
100
AcDbDictionary
280
     1
281
     1
  3
ACAD_XREC_ROUNDTRIP
360
C0DC
  0
DICTIONARY
  5
C0D9
330
C06D
100
AcDbDictionary
280
     1
281
     1
  3
ACAD_XREC_ROUNDTRIP
360
C0DA
  0
DICTIONARY
  5
C0D3
330
C06A
100
AcDbDictionary
280
     1
281
     1
  3
ACAD_XREC_ROUNDTRIP
360
C0D4
  0
DICTIONARY
  5
C0D5
330
C06B
100
AcDbDictionary
280
     1
281
     1
  3
ACAD_XREC_ROUNDTRIP
360
C0D6
  0
DICTIONARY
  5
C0CB
330
C066
100
AcDbDictionary
280
     1
281
     1
  3
ACAD_XREC_ROUNDTRIP
360
C0CC
  0
DICTIONARY
  5
C0BF
330
C060
100
AcDbDictionary
280
     1
281
     1
  3
ACAD_XREC_ROUNDTRIP
360
C0C0
  0
DICTIONARY
  5
C0D7
330
C06C
100
AcDbDictionary
280
     1
281
     1
  3
ACAD_XREC_ROUNDTRIP
360
C0D8
  0
XRECORD
  5
C0E8
102
{ACAD_REACTORS
330
C0E7
102
}
330
C0E7
100
AcDbXrecord
280
     1
102
DISPLAYNAME
  1
Imperial24
102
FLAGS
 90
        0
  0
XRECORD
  5
C0EA
102
{ACAD_REACTORS
330
C0E9
102
}
330
C0E9
100
AcDbXrecord
280
     1
102
SHADEPLOT
 70
     0
102
SHADEPLOTRESLEVEL
 70
     2
102
SHADEPLOTCUSTOMDPI
 70
   300
  0
XRECORD
  5
C0EC
102
{ACAD_REACTORS
330
C0EB
102
}
330
C0EB
100
AcDbXrecord
280
     1
102
SHADEPLOT
 70
     0
102
SHADEPLOTRESLEVEL
 70
     2
102
SHADEPLOTCUSTOMDPI
 70
   300
  0
XRECORD
  5
C0B1
102
{ACAD_REACTORS
330
C04A
102
}
330
C04A
100
AcDbXrecord
280
     1
102
MATERIAL
148
0.0
149
0.0
149
0.0
 93
        0
 94
      127
282
     0
 72
     0
 77
     0
171
     0
175
     0
179
     0
273
     0
  0
XRECORD
  5
C04C
102
{ACAD_REACTORS
330
C04A
102
}
330
C04A
100
AcDbXrecord
280
     1
270
     1
271
     1
  0
XRECORD
  5
C04B
102
{ACAD_REACTORS
330
C04A
102
}
330
C04A
100
AcDbXrecord
280
     1
270
     1
271
     1
  0
XRECORD
  5
C04F
102
{ACAD_REACTORS
330
C04A
102
}
330
C04A
100
AcDbXrecord
280
     1
270
     1
271
     1
  0
XRECORD
  5
C04E
102
{ACAD_REACTORS
330
C04A
102
}
330
C04A
100
AcDbXrecord
280
     1
270
     1
271
     1
  0
XRECORD
  5
C050
102
{ACAD_REACTORS
330
C04A
102
}
330
C04A
100
AcDbXrecord
280
     1
270
     1
271
     1
  0
XRECORD
  5
C04D
102
{ACAD_REACTORS
330
C04A
102
}
330
C04A
100
AcDbXrecord
280
     1
270
     1
271
     1
  0
XRECORD
  5
C0B0
102
{ACAD_REACTORS
330
C042
102
}
330
C042
100
AcDbXrecord
280
     1
102
MATERIAL
148
0.0
149
0.0
149
0.0
 93
        0
 94
      127
282
     0
 72
     0
 77
     0
171
     0
175
     0
179
     0
273
     0
  0
XRECORD
  5
C044
102
{ACAD_REACTORS
330
C042
102
}
330
C042
100
AcDbXrecord
280
     1
270
     1
271
     1
  0
XRECORD
  5
C043
102
{ACAD_REACTORS
330
C042
102
}
330
C042
100
AcDbXrecord
280
     1
270
     1
271
     1
  0
XRECORD
  5
C047
102
{ACAD_REACTORS
330
C042
102
}
330
C042
100
AcDbXrecord
280
     1
270
     1
271
     1
  0
XRECORD
  5
C046
102
{ACAD_REACTORS
330
C042
102
}
330
C042
100
AcDbXrecord
280
     1
270
     1
271
     1
  0
XRECORD
  5
C048
102
{ACAD_REACTORS
330
C042
102
}
330
C042
100
AcDbXrecord
280
     1
270
     1
271
     1
  0
XRECORD
  5
C045
102
{ACAD_REACTORS
330
C042
102
}
330
C042
100
AcDbXrecord
280
     1
270
     1
271
     1
  0
XRECORD
  5
C0B2
102
{ACAD_REACTORS
330
C052
102
}
330
C052
100
AcDbXrecord
280
     1
102
MATERIAL
148
0.0
149
0.0
149
0.0
 93
        0
 94
      127
282
     0
 72
     0
 77
     0
171
     0
175
     0
179
     0
273
     0
  0
XRECORD
  5
C054
102
{ACAD_REACTORS
330
C052
102
}
330
C052
100
AcDbXrecord
280
     1
270
     1
271
     1
  0
XRECORD
  5
C053
102
{ACAD_REACTORS
330
C052
102
}
330
C052
100
AcDbXrecord
280
     1
270
     1
271
     1
  0
XRECORD
  5
C057
102
{ACAD_REACTORS
330
C052
102
}
330
C052
100
AcDbXrecord
280
     1
270
     1
271
     1
  0
XRECORD
  5
C056
102
{ACAD_REACTORS
330
C052
102
}
330
C052
100
AcDbXrecord
280
     1
270
     1
271
     1
  0
XRECORD
  5
C058
102
{ACAD_REACTORS
330
C052
102
}
330
C052
100
AcDbXrecord
280
     1
270
     1
271
     1
  0
XRECORD
  5
C055
102
{ACAD_REACTORS
330
C052
102
}
330
C052
100
AcDbXrecord
280
     1
270
     1
271
     1
  0
XRECORD
  5
C0E6
102
{ACAD_REACTORS
330
C0E5
102
}
330
C0E5
100
AcDbXrecord
280
     1
102
DISPLAYNAME
  1
Imperial24
102
FLAGS
 90
        0
  0
CELLSTYLEMAP
  5
C0AD
102
{ACAD_REACTORS
330
C0AC
102
}
330
C0AC
100
AcDbCellStyleMap
 90
        3
300
CELLSTYLE
  1
TABLEFORMAT_BEGIN
 90
        5
170
     1
 91
        0
 92
    32768
 62
   257
 93
        1
300
CONTENTFORMAT
  1
CONTENTFORMAT_BEGIN
 90
        0
 91
        0
 92
      512
 93
        0
300

 40
0.0
140
1.0
 94
        5
 62
     0
340
BE67
144
0.25
309
CONTENTFORMAT_END
171
     0
 94
        0
309
TABLEFORMAT_END
  1
CELLSTYLE_BEGIN
 90
        1
 91
        1
300
_TITLE
309
CELLSTYLE_END
300
CELLSTYLE
  1
TABLEFORMAT_BEGIN
 90
        5
170
     1
 91
        0
 92
        0
 62
   257
 93
        1
300
CONTENTFORMAT
  1
CONTENTFORMAT_BEGIN
 90
        0
 91
        0
 92
      512
 93
        0
300

 40
0.0
140
1.0
 94
        5
 62
     0
340
BE67
144
0.18
309
CONTENTFORMAT_END
171
     0
 94
        0
309
TABLEFORMAT_END
  1
CELLSTYLE_BEGIN
 90
        2
 91
        1
300
_HEADER
309
CELLSTYLE_END
300
CELLSTYLE
  1
TABLEFORMAT_BEGIN
 90
        5
170
     1
 91
        0
 92
        0
 62
   257
 93
        1
300
CONTENTFORMAT
  1
CONTENTFORMAT_BEGIN
 90
        0
 91
        0
 92
      512
 93
        0
300

 40
0.0
140
1.0
 94
        2
 62
     0
340
BE67
144
0.18
309
CONTENTFORMAT_END
171
     0
 94
        0
309
TABLEFORMAT_END
  1
CELLSTYLE_BEGIN
 90
        3
 91
        2
300
_DATA
309
CELLSTYLE_END
  0
XRECORD
  5
C0E3
102
{ACAD_REACTORS
330
C0AC
102
}
330
C0AC
100
AcDbXrecord
280
     1
102
ACAD_ROUNDTRIP_PRE2007_TABLESTYLE
 90
      512
 91
        0
  1

 92
      512
 93
        0
  2

 94
      512
 95
        0
  3

  0
XRECORD
  5
C0BE
102
{ACAD_REACTORS
330
C0BD
102
}
330
C0BD
100
AcDbXrecord
280
     1
102
RTVSPost2010Prop28
280
     1
102
RTVSPost2010PropOp28
 70
     1
102
RTVSPost2010Prop29
280
     1
102
RTVSPost2010PropOp29
 70
     1
102
RTVSPost2010Prop30
280
     0
102
RTVSPost2010PropOp30
 70
     1
102
RTVSPost2010Prop31
280
     0
102
RTVSPost2010PropOp31
 70
     1
102
RTVSPost2010Prop32
280
     0
102
RTVSPost2010PropOp32
 70
     1
102
RTVSPost2010Prop33
280
     0
102
RTVSPost2010PropOp33
 70
     1
102
RTVSPost2010Prop34
280
     0
102
RTVSPost2010PropOp34
 70
     1
102
RTVSPost2010Prop35
280
     0
102
RTVSPost2010PropOp35
 70
     1
102
RTVSPost2010Prop36
280
     0
102
RTVSPost2010PropOp36
 70
     1
102
RTVSPost2010Prop37
 90
       50
102
RTVSPost2010PropOp37
 70
     1
102
RTVSPost2010Prop38
140
0.0
102
RTVSPost2010PropOp38
 70
     1
102
RTVSPost2010Prop39
140
1.0
102
RTVSPost2010PropOp39
 70
     1
102
RTVSPost2010Prop40
 90
        0
102
RTVSPost2010PropOp40
 70
     1
102
RTVSPost2010Prop41ColorIndex
 90
       18
102
RTVSPost2010Prop41ColorRGB
 90
        0
102
RTVSPost2010PropOp41
 70
     1
102
RTVSPost2010Prop42
 90
       50
102
RTVSPost2010PropOp42
 70
     1
102
RTVSPost2010Prop43
 90
        3
102
RTVSPost2010PropOp43
 70
     1
102
RTVSPost2010Prop44ColorIndex
 90
        5
102
RTVSPost2010Prop44ColorRGB
 90
      255
102
RTVSPost2010PropOp44
 70
     1
102
RTVSPost2010Prop45
280
     0
102
RTVSPost2010PropOp45
 70
     1
102
RTVSPost2010Prop46
 90
       50
102
RTVSPost2010PropOp46
 70
     1
102
RTVSPost2010Prop47
 90
       50
102
RTVSPost2010PropOp47
 70
     1
102
RTVSPost2010Prop48
 90
       50
102
RTVSPost2010PropOp48
 70
     1
102
RTVSPost2010Prop49
280
     0
102
RTVSPost2010PropOp49
 70
     1
102
RTVSPost2010Prop50
 90
       50
102
RTVSPost2010PropOp50
 70
     1
102
RTVSPost2010Prop51ColorIndex
 90
      256
102
RTVSPost2010Prop51ColorRGB
 90
-16777216
102
RTVSPost2010PropOp51
 70
     0
102
RTVSPost2010Prop52
140
1.0
102
RTVSPost2010PropOp52
 70
     0
102
RTVSPost2010Prop53
 90
        2
102
RTVSPost2010PropOp53
 70
     1
102
RTVSPost2010Prop54
  1
strokes_ogs.tif
102
RTVSPost2010PropOp54
 70
     1
102
RTVSPost2010Prop55
280
     0
102
RTVSPost2010PropOp55
 70
     1
102
RTVSPost2010Prop56
140
1.0
102
RTVSPost2010PropOp56
 70
     1
102
RTVSPost2010Prop57
140
1.0
102
RTVSPost2010PropOp57
 70
     1
102
RTVSPropertyOp0
 70
     1
102
RTVSPropertyOp1
 70
     1
102
RTVSPropertyOp2
 70
     1
102
RTVSPropertyOp3
 70
     1
102
RTVSPropertyOp4
 70
     1
102
RTVSPropertyOp5
 70
     1
102
RTVSPropertyOp6
 70
     1
102
RTVSPropertyOp7
 70
     1
102
RTVSPropertyOp8
 70
     1
102
RTVSPropertyOp9
 70
     1
102
RTVSPropertyOp10
 70
     1
102
RTVSPropertyOp11
 70
     1
102
RTVSPropertyOp12
 70
     1
102
RTVSPropertyOp13
 70
     1
102
RTVSPropertyOp14
 70
     1
102
RTVSPropertyOp15
 70
     1
102
RTVSPropertyOp16
 70
     1
102
RTVSPropertyOp17
 70
     1
102
RTVSPropertyOp18
 70
     1
102
RTVSPropertyOp19
 70
     1
102
RTVSPropertyOp20
 70
     1
102
RTVSPropertyOp21
 70
     1
102
RTVSPropertyOp22
 70
     1
102
RTVSPropertyOp23
 70
     1
102
RTVSPropertyOp24
 70
     1
102
RTVSPropertyOp25
 70
     1
102
RTVSPropertyOp26
 70
     1
102
RTVSPropertyOp27
 70
     1
102
RTVSPropertyOp28
 70
     1
102
RTVSPropertyOp29
 70
     1
102
RTVSPropertyOp30
 70
     1
102
RTVSPropertyOp31
 70
     1
102
RTVSPropertyOp32
 70
     1
102
RTVSPropertyOp33
 70
     1
102
RTVSPropertyOp34
 70
     1
102
RTVSPropertyOp35
 70
     1
102
RTVSPropertyOp36
 70
     1
102
RTVSPropertyOp37
 70
     1
102
RTVSPropertyOp38
 70
     1
102
RTVSPropertyOp39
 70
     1
102
RTVSPropertyOp40
 70
     1
102
RTVSPropertyOp41
 70
     1
102
RTVSPropertyOp42
 70
     1
102
RTVSPropertyOp43
 70
     1
102
RTVSPropertyOp44
 70
     1
102
RTVSPropertyOp45
 70
     1
102
RTVSPropertyOp46
 70
     1
102
RTVSPropertyOp47
 70
     1
102
RTVSPropertyOp48
 70
     1
102
RTVSPropertyOp49
 70
     1
102
RTVSPropertyOp50
 70
     1
102
RTVSPropertyOp51
 70
     0
102
RTVSPropertyOp52
 70
     0
102
RTVSPropertyOp53
 70
     1
102
RTVSPropertyOp54
 70
     1
102
RTVSPropertyOp55
 70
     1
102
RTVSPropertyOp56
 70
     1
102
RTVSPropertyOp57
 70
     1
102
RTVSPropertyOp58
 70
     1
102
RTVSPropertyOp59
 70
     1
102
RTVSPropertyOp60
 70
     1
102
RTVSPropertyOp61
 70
     1
102
RTVSPropertyOp62
 70
     1
  0
XRECORD
  5
C0BC
102
{ACAD_REACTORS
330
C0BB
102
}
330
C0BB
100
AcDbXrecord
280
     1
102
RTVSPost2010Prop28
280
     0
102
RTVSPost2010PropOp28
 70
     1
102
RTVSPost2010Prop29
280
     1
102
RTVSPost2010PropOp29
 70
     1
102
RTVSPost2010Prop30
280
     1
102
RTVSPost2010PropOp30
 70
     1
102
RTVSPost2010Prop31
280
     0
102
RTVSPost2010PropOp31
 70
     1
102
RTVSPost2010Prop32
280
     0
102
RTVSPost2010PropOp32
 70
     1
102
RTVSPost2010Prop33
280
     0
102
RTVSPost2010PropOp33
 70
     1
102
RTVSPost2010Prop34
280
     0
102
RTVSPost2010PropOp34
 70
     1
102
RTVSPost2010Prop35
280
     0
102
RTVSPost2010PropOp35
 70
     1
102
RTVSPost2010Prop36
280
     0
102
RTVSPost2010PropOp36
 70
     1
102
RTVSPost2010Prop37
 90
       50
102
RTVSPost2010PropOp37
 70
     1
102
RTVSPost2010Prop38
140
0.0
102
RTVSPost2010PropOp38
 70
     1
102
RTVSPost2010Prop39
140
1.0
102
RTVSPost2010PropOp39
 70
     1
102
RTVSPost2010Prop40
 90
        0
102
RTVSPost2010PropOp40
 70
     1
102
RTVSPost2010Prop41ColorIndex
 90
       18
102
RTVSPost2010Prop41ColorRGB
 90
        0
102
RTVSPost2010PropOp41
 70
     1
102
RTVSPost2010Prop42
 90
       50
102
RTVSPost2010PropOp42
 70
     1
102
RTVSPost2010Prop43
 90
        3
102
RTVSPost2010PropOp43
 70
     1
102
RTVSPost2010Prop44ColorIndex
 90
        5
102
RTVSPost2010Prop44ColorRGB
 90
      255
102
RTVSPost2010PropOp44
 70
     1
102
RTVSPost2010Prop45
280
     0
102
RTVSPost2010PropOp45
 70
     1
102
RTVSPost2010Prop46
 90
       50
102
RTVSPost2010PropOp46
 70
     1
102
RTVSPost2010Prop47
 90
       50
102
RTVSPost2010PropOp47
 70
     1
102
RTVSPost2010Prop48
 90
       50
102
RTVSPost2010PropOp48
 70
     1
102
RTVSPost2010Prop49
280
     0
102
RTVSPost2010PropOp49
 70
     1
102
RTVSPost2010Prop50
 90
       50
102
RTVSPost2010PropOp50
 70
     1
102
RTVSPost2010Prop51ColorIndex
 90
      256
102
RTVSPost2010Prop51ColorRGB
 90
-16777216
102
RTVSPost2010PropOp51
 70
     0
102
RTVSPost2010Prop52
140
1.0
102
RTVSPost2010PropOp52
 70
     0
102
RTVSPost2010Prop53
 90
        2
102
RTVSPost2010PropOp53
 70
     1
102
RTVSPost2010Prop54
  1
strokes_ogs.tif
102
RTVSPost2010PropOp54
 70
     1
102
RTVSPost2010Prop55
280
     0
102
RTVSPost2010PropOp55
 70
     1
102
RTVSPost2010Prop56
140
1.0
102
RTVSPost2010PropOp56
 70
     1
102
RTVSPost2010Prop57
140
1.0
102
RTVSPost2010PropOp57
 70
     1
102
RTVSPropertyOp0
 70
     1
102
RTVSPropertyOp1
 70
     1
102
RTVSPropertyOp2
 70
     1
102
RTVSPropertyOp3
 70
     1
102
RTVSPropertyOp4
 70
     1
102
RTVSPropertyOp5
 70
     1
102
RTVSPropertyOp6
 70
     1
102
RTVSPropertyOp7
 70
     1
102
RTVSPropertyOp8
 70
     1
102
RTVSPropertyOp9
 70
     1
102
RTVSPropertyOp10
 70
     1
102
RTVSPropertyOp11
 70
     1
102
RTVSPropertyOp12
 70
     1
102
RTVSPropertyOp13
 70
     1
102
RTVSPropertyOp14
 70
     1
102
RTVSPropertyOp15
 70
     1
102
RTVSPropertyOp16
 70
     1
102
RTVSPropertyOp17
 70
     1
102
RTVSPropertyOp18
 70
     1
102
RTVSPropertyOp19
 70
     1
102
RTVSPropertyOp20
 70
     1
102
RTVSPropertyOp21
 70
     1
102
RTVSPropertyOp22
 70
     1
102
RTVSPropertyOp23
 70
     1
102
RTVSPropertyOp24
 70
     1
102
RTVSPropertyOp25
 70
     1
102
RTVSPropertyOp26
 70
     1
102
RTVSPropertyOp27
 70
     1
102
RTVSPropertyOp28
 70
     1
102
RTVSPropertyOp29
 70
     1
102
RTVSPropertyOp30
 70
     1
102
RTVSPropertyOp31
 70
     1
102
RTVSPropertyOp32
 70
     1
102
RTVSPropertyOp33
 70
     1
102
RTVSPropertyOp34
 70
     1
102
RTVSPropertyOp35
 70
     1
102
RTVSPropertyOp36
 70
     1
102
RTVSPropertyOp37
 70
     1
102
RTVSPropertyOp38
 70
     1
102
RTVSPropertyOp39
 70
     1
102
RTVSPropertyOp40
 70
     1
102
RTVSPropertyOp41
 70
     1
102
RTVSPropertyOp42
 70
     1
102
RTVSPropertyOp43
 70
     1
102
RTVSPropertyOp44
 70
     1
102
RTVSPropertyOp45
 70
     1
102
RTVSPropertyOp46
 70
     1
102
RTVSPropertyOp47
 70
     1
102
RTVSPropertyOp48
 70
     1
102
RTVSPropertyOp49
 70
     1
102
RTVSPropertyOp50
 70
     1
102
RTVSPropertyOp51
 70
     0
102
RTVSPropertyOp52
 70
     0
102
RTVSPropertyOp53
 70
     1
102
RTVSPropertyOp54
 70
     1
102
RTVSPropertyOp55
 70
     1
102
RTVSPropertyOp56
 70
     1
102
RTVSPropertyOp57
 70
     1
102
RTVSPropertyOp58
 70
     1
102
RTVSPropertyOp59
 70
     1
102
RTVSPropertyOp60
 70
     1
102
RTVSPropertyOp61
 70
     1
102
RTVSPropertyOp62
 70
     1
  0
XRECORD
  5
C0CA
102
{ACAD_REACTORS
330
C0C9
102
}
330
C0C9
100
AcDbXrecord
280
     1
102
RTVSPost2010Prop28
280
     0
102
RTVSPost2010PropOp28
 70
     1
102
RTVSPost2010Prop29
280
     1
102
RTVSPost2010PropOp29
 70
     1
102
RTVSPost2010Prop30
280
     1
102
RTVSPost2010PropOp30
 70
     1
102
RTVSPost2010Prop31
280
     0
102
RTVSPost2010PropOp31
 70
     1
102
RTVSPost2010Prop32
280
     0
102
RTVSPost2010PropOp32
 70
     1
102
RTVSPost2010Prop33
280
     0
102
RTVSPost2010PropOp33
 70
     1
102
RTVSPost2010Prop34
280
     0
102
RTVSPost2010PropOp34
 70
     1
102
RTVSPost2010Prop35
280
     0
102
RTVSPost2010PropOp35
 70
     1
102
RTVSPost2010Prop36
280
     0
102
RTVSPost2010PropOp36
 70
     1
102
RTVSPost2010Prop37
 90
       50
102
RTVSPost2010PropOp37
 70
     1
102
RTVSPost2010Prop38
140
0.0
102
RTVSPost2010PropOp38
 70
     1
102
RTVSPost2010Prop39
140
1.0
102
RTVSPost2010PropOp39
 70
     1
102
RTVSPost2010Prop40
 90
        0
102
RTVSPost2010PropOp40
 70
     1
102
RTVSPost2010Prop41ColorIndex
 90
       18
102
RTVSPost2010Prop41ColorRGB
 90
        0
102
RTVSPost2010PropOp41
 70
     1
102
RTVSPost2010Prop42
 90
       50
102
RTVSPost2010PropOp42
 70
     1
102
RTVSPost2010Prop43
 90
        3
102
RTVSPost2010PropOp43
 70
     1
102
RTVSPost2010Prop44ColorIndex
 90
        5
102
RTVSPost2010Prop44ColorRGB
 90
      255
102
RTVSPost2010PropOp44
 70
     1
102
RTVSPost2010Prop45
280
     0
102
RTVSPost2010PropOp45
 70
     1
102
RTVSPost2010Prop46
 90
       50
102
RTVSPost2010PropOp46
 70
     1
102
RTVSPost2010Prop47
 90
       50
102
RTVSPost2010PropOp47
 70
     1
102
RTVSPost2010Prop48
 90
       50
102
RTVSPost2010PropOp48
 70
     1
102
RTVSPost2010Prop49
280
     0
102
RTVSPost2010PropOp49
 70
     1
102
RTVSPost2010Prop50
 90
       50
102
RTVSPost2010PropOp50
 70
     1
102
RTVSPost2010Prop51ColorIndex
 90
      256
102
RTVSPost2010Prop51ColorRGB
 90
-16777216
102
RTVSPost2010PropOp51
 70
     0
102
RTVSPost2010Prop52
140
1.0
102
RTVSPost2010PropOp52
 70
     0
102
RTVSPost2010Prop53
 90
        2
102
RTVSPost2010PropOp53
 70
     1
102
RTVSPost2010Prop54
  1
strokes_ogs.tif
102
RTVSPost2010PropOp54
 70
     1
102
RTVSPost2010Prop55
280
     0
102
RTVSPost2010PropOp55
 70
     1
102
RTVSPost2010Prop56
140
1.0
102
RTVSPost2010PropOp56
 70
     1
102
RTVSPost2010Prop57
140
1.0
102
RTVSPost2010PropOp57
 70
     1
102
RTVSPropertyOp0
 70
     1
102
RTVSPropertyOp1
 70
     1
102
RTVSPropertyOp2
 70
     1
102
RTVSPropertyOp3
 70
     1
102
RTVSPropertyOp4
 70
     1
102
RTVSPropertyOp5
 70
     1
102
RTVSPropertyOp6
 70
     1
102
RTVSPropertyOp7
 70
     1
102
RTVSPropertyOp8
 70
     1
102
RTVSPropertyOp9
 70
     1
102
RTVSPropertyOp10
 70
     1
102
RTVSPropertyOp11
 70
     1
102
RTVSPropertyOp12
 70
     1
102
RTVSPropertyOp13
 70
     1
102
RTVSPropertyOp14
 70
     1
102
RTVSPropertyOp15
 70
     1
102
RTVSPropertyOp16
 70
     1
102
RTVSPropertyOp17
 70
     1
102
RTVSPropertyOp18
 70
     1
102
RTVSPropertyOp19
 70
     1
102
RTVSPropertyOp20
 70
     1
102
RTVSPropertyOp21
 70
     1
102
RTVSPropertyOp22
 70
     1
102
RTVSPropertyOp23
 70
     1
102
RTVSPropertyOp24
 70
     1
102
RTVSPropertyOp25
 70
     1
102
RTVSPropertyOp26
 70
     1
102
RTVSPropertyOp27
 70
     1
102
RTVSPropertyOp28
 70
     1
102
RTVSPropertyOp29
 70
     1
102
RTVSPropertyOp30
 70
     1
102
RTVSPropertyOp31
 70
     1
102
RTVSPropertyOp32
 70
     1
102
RTVSPropertyOp33
 70
     1
102
RTVSPropertyOp34
 70
     1
102
RTVSPropertyOp35
 70
     1
102
RTVSPropertyOp36
 70
     1
102
RTVSPropertyOp37
 70
     1
102
RTVSPropertyOp38
 70
     1
102
RTVSPropertyOp39
 70
     1
102
RTVSPropertyOp40
 70
     1
102
RTVSPropertyOp41
 70
     1
102
RTVSPropertyOp42
 70
     1
102
RTVSPropertyOp43
 70
     1
102
RTVSPropertyOp44
 70
     1
102
RTVSPropertyOp45
 70
     1
102
RTVSPropertyOp46
 70
     1
102
RTVSPropertyOp47
 70
     1
102
RTVSPropertyOp48
 70
     1
102
RTVSPropertyOp49
 70
     1
102
RTVSPropertyOp50
 70
     1
102
RTVSPropertyOp51
 70
     0
102
RTVSPropertyOp52
 70
     0
102
RTVSPropertyOp53
 70
     1
102
RTVSPropertyOp54
 70
     1
102
RTVSPropertyOp55
 70
     1
102
RTVSPropertyOp56
 70
     1
102
RTVSPropertyOp57
 70
     1
102
RTVSPropertyOp58
 70
     1
102
RTVSPropertyOp59
 70
     1
102
RTVSPropertyOp60
 70
     1
102
RTVSPropertyOp61
 70
     1
102
RTVSPropertyOp62
 70
     1
  0
XRECORD
  5
C0D2
102
{ACAD_REACTORS
330
C0D1
102
}
330
C0D1
100
AcDbXrecord
280
     1
102
RTVSPost2010Prop28
280
     0
102
RTVSPost2010PropOp28
 70
     1
102
RTVSPost2010Prop29
280
     1
102
RTVSPost2010PropOp29
 70
     1
102
RTVSPost2010Prop30
280
     1
102
RTVSPost2010PropOp30
 70
     1
102
RTVSPost2010Prop31
280
     0
102
RTVSPost2010PropOp31
 70
     1
102
RTVSPost2010Prop32
280
     0
102
RTVSPost2010PropOp32
 70
     1
102
RTVSPost2010Prop33
280
     0
102
RTVSPost2010PropOp33
 70
     1
102
RTVSPost2010Prop34
280
     0
102
RTVSPost2010PropOp34
 70
     1
102
RTVSPost2010Prop35
280
     0
102
RTVSPost2010PropOp35
 70
     1
102
RTVSPost2010Prop36
280
     0
102
RTVSPost2010PropOp36
 70
     1
102
RTVSPost2010Prop37
 90
       50
102
RTVSPost2010PropOp37
 70
     1
102
RTVSPost2010Prop38
140
0.0
102
RTVSPost2010PropOp38
 70
     1
102
RTVSPost2010Prop39
140
1.0
102
RTVSPost2010PropOp39
 70
     1
102
RTVSPost2010Prop40
 90
        0
102
RTVSPost2010PropOp40
 70
     1
102
RTVSPost2010Prop41ColorIndex
 90
       18
102
RTVSPost2010Prop41ColorRGB
 90
        0
102
RTVSPost2010PropOp41
 70
     1
102
RTVSPost2010Prop42
 90
       50
102
RTVSPost2010PropOp42
 70
     1
102
RTVSPost2010Prop43
 90
        3
102
RTVSPost2010PropOp43
 70
     1
102
RTVSPost2010Prop44ColorIndex
 90
        5
102
RTVSPost2010Prop44ColorRGB
 90
      255
102
RTVSPost2010PropOp44
 70
     1
102
RTVSPost2010Prop45
280
     0
102
RTVSPost2010PropOp45
 70
     1
102
RTVSPost2010Prop46
 90
       50
102
RTVSPost2010PropOp46
 70
     1
102
RTVSPost2010Prop47
 90
       50
102
RTVSPost2010PropOp47
 70
     1
102
RTVSPost2010Prop48
 90
       50
102
RTVSPost2010PropOp48
 70
     1
102
RTVSPost2010Prop49
280
     0
102
RTVSPost2010PropOp49
 70
     1
102
RTVSPost2010Prop50
 90
       50
102
RTVSPost2010PropOp50
 70
     1
102
RTVSPost2010Prop51ColorIndex
 90
      256
102
RTVSPost2010Prop51ColorRGB
 90
-16777216
102
RTVSPost2010PropOp51
 70
     0
102
RTVSPost2010Prop52
140
1.0
102
RTVSPost2010PropOp52
 70
     0
102
RTVSPost2010Prop53
 90
        2
102
RTVSPost2010PropOp53
 70
     1
102
RTVSPost2010Prop54
  1
strokes_ogs.tif
102
RTVSPost2010PropOp54
 70
     1
102
RTVSPost2010Prop55
280
     0
102
RTVSPost2010PropOp55
 70
     1
102
RTVSPost2010Prop56
140
1.0
102
RTVSPost2010PropOp56
 70
     1
102
RTVSPost2010Prop57
140
1.0
102
RTVSPost2010PropOp57
 70
     1
102
RTVSPropertyOp0
 70
     1
102
RTVSPropertyOp1
 70
     1
102
RTVSPropertyOp2
 70
     1
102
RTVSPropertyOp3
 70
     1
102
RTVSPropertyOp4
 70
     1
102
RTVSPropertyOp5
 70
     1
102
RTVSPropertyOp6
 70
     1
102
RTVSPropertyOp7
 70
     1
102
RTVSPropertyOp8
 70
     1
102
RTVSPropertyOp9
 70
     1
102
RTVSPropertyOp10
 70
     1
102
RTVSPropertyOp11
 70
     1
102
RTVSPropertyOp12
 70
     1
102
RTVSPropertyOp13
 70
     1
102
RTVSPropertyOp14
 70
     1
102
RTVSPropertyOp15
 70
     1
102
RTVSPropertyOp16
 70
     1
102
RTVSPropertyOp17
 70
     1
102
RTVSPropertyOp18
 70
     1
102
RTVSPropertyOp19
 70
     1
102
RTVSPropertyOp20
 70
     1
102
RTVSPropertyOp21
 70
     1
102
RTVSPropertyOp22
 70
     1
102
RTVSPropertyOp23
 70
     1
102
RTVSPropertyOp24
 70
     1
102
RTVSPropertyOp25
 70
     1
102
RTVSPropertyOp26
 70
     1
102
RTVSPropertyOp27
 70
     1
102
RTVSPropertyOp28
 70
     1
102
RTVSPropertyOp29
 70
     1
102
RTVSPropertyOp30
 70
     1
102
RTVSPropertyOp31
 70
     1
102
RTVSPropertyOp32
 70
     1
102
RTVSPropertyOp33
 70
     1
102
RTVSPropertyOp34
 70
     1
102
RTVSPropertyOp35
 70
     1
102
RTVSPropertyOp36
 70
     1
102
RTVSPropertyOp37
 70
     1
102
RTVSPropertyOp38
 70
     1
102
RTVSPropertyOp39
 70
     1
102
RTVSPropertyOp40
 70
     1
102
RTVSPropertyOp41
 70
     1
102
RTVSPropertyOp42
 70
     1
102
RTVSPropertyOp43
 70
     1
102
RTVSPropertyOp44
 70
     1
102
RTVSPropertyOp45
 70
     1
102
RTVSPropertyOp46
 70
     1
102
RTVSPropertyOp47
 70
     1
102
RTVSPropertyOp48
 70
     1
102
RTVSPropertyOp49
 70
     1
102
RTVSPropertyOp50
 70
     1
102
RTVSPropertyOp51
 70
     0
102
RTVSPropertyOp52
 70
     0
102
RTVSPropertyOp53
 70
     1
102
RTVSPropertyOp54
 70
     1
102
RTVSPropertyOp55
 70
     1
102
RTVSPropertyOp56
 70
     1
102
RTVSPropertyOp57
 70
     1
102
RTVSPropertyOp58
 70
     1
102
RTVSPropertyOp59
 70
     1
102
RTVSPropertyOp60
 70
     1
102
RTVSPropertyOp61
 70
     1
102
RTVSPropertyOp62
 70
     1
  0
XRECORD
  5
C0C4
102
{ACAD_REACTORS
330
C0C3
102
}
330
C0C3
100
AcDbXrecord
280
     1
102
RTVSPost2010Prop28
280
     0
102
RTVSPost2010PropOp28
 70
     1
102
RTVSPost2010Prop29
280
     1
102
RTVSPost2010PropOp29
 70
     1
102
RTVSPost2010Prop30
280
     1
102
RTVSPost2010PropOp30
 70
     1
102
RTVSPost2010Prop31
280
     0
102
RTVSPost2010PropOp31
 70
     1
102
RTVSPost2010Prop32
280
     0
102
RTVSPost2010PropOp32
 70
     1
102
RTVSPost2010Prop33
280
     0
102
RTVSPost2010PropOp33
 70
     1
102
RTVSPost2010Prop34
280
     0
102
RTVSPost2010PropOp34
 70
     1
102
RTVSPost2010Prop35
280
     0
102
RTVSPost2010PropOp35
 70
     1
102
RTVSPost2010Prop36
280
     0
102
RTVSPost2010PropOp36
 70
     1
102
RTVSPost2010Prop37
 90
       50
102
RTVSPost2010PropOp37
 70
     1
102
RTVSPost2010Prop38
140
0.0
102
RTVSPost2010PropOp38
 70
     1
102
RTVSPost2010Prop39
140
1.0
102
RTVSPost2010PropOp39
 70
     1
102
RTVSPost2010Prop40
 90
        0
102
RTVSPost2010PropOp40
 70
     1
102
RTVSPost2010Prop41ColorIndex
 90
       18
102
RTVSPost2010Prop41ColorRGB
 90
        0
102
RTVSPost2010PropOp41
 70
     1
102
RTVSPost2010Prop42
 90
       50
102
RTVSPost2010PropOp42
 70
     1
102
RTVSPost2010Prop43
 90
        3
102
RTVSPost2010PropOp43
 70
     1
102
RTVSPost2010Prop44ColorIndex
 90
        5
102
RTVSPost2010Prop44ColorRGB
 90
      255
102
RTVSPost2010PropOp44
 70
     1
102
RTVSPost2010Prop45
280
     0
102
RTVSPost2010PropOp45
 70
     1
102
RTVSPost2010Prop46
 90
       50
102
RTVSPost2010PropOp46
 70
     1
102
RTVSPost2010Prop47
 90
       50
102
RTVSPost2010PropOp47
 70
     1
102
RTVSPost2010Prop48
 90
       50
102
RTVSPost2010PropOp48
 70
     1
102
RTVSPost2010Prop49
280
     0
102
RTVSPost2010PropOp49
 70
     1
102
RTVSPost2010Prop50
 90
       50
102
RTVSPost2010PropOp50
 70
     1
102
RTVSPost2010Prop51ColorIndex
 90
      256
102
RTVSPost2010Prop51ColorRGB
 90
-16777216
102
RTVSPost2010PropOp51
 70
     0
102
RTVSPost2010Prop52
140
1.0
102
RTVSPost2010PropOp52
 70
     0
102
RTVSPost2010Prop53
 90
        2
102
RTVSPost2010PropOp53
 70
     1
102
RTVSPost2010Prop54
  1
strokes_ogs.tif
102
RTVSPost2010PropOp54
 70
     1
102
RTVSPost2010Prop55
280
     0
102
RTVSPost2010PropOp55
 70
     1
102
RTVSPost2010Prop56
140
1.0
102
RTVSPost2010PropOp56
 70
     1
102
RTVSPost2010Prop57
140
1.0
102
RTVSPost2010PropOp57
 70
     1
102
RTVSPropertyOp0
 70
     1
102
RTVSPropertyOp1
 70
     1
102
RTVSPropertyOp2
 70
     1
102
RTVSPropertyOp3
 70
     1
102
RTVSPropertyOp4
 70
     1
102
RTVSPropertyOp5
 70
     1
102
RTVSPropertyOp6
 70
     1
102
RTVSPropertyOp7
 70
     1
102
RTVSPropertyOp8
 70
     1
102
RTVSPropertyOp9
 70
     1
102
RTVSPropertyOp10
 70
     1
102
RTVSPropertyOp11
 70
     1
102
RTVSPropertyOp12
 70
     1
102
RTVSPropertyOp13
 70
     1
102
RTVSPropertyOp14
 70
     1
102
RTVSPropertyOp15
 70
     1
102
RTVSPropertyOp16
 70
     1
102
RTVSPropertyOp17
 70
     1
102
RTVSPropertyOp18
 70
     1
102
RTVSPropertyOp19
 70
     1
102
RTVSPropertyOp20
 70
     1
102
RTVSPropertyOp21
 70
     1
102
RTVSPropertyOp22
 70
     1
102
RTVSPropertyOp23
 70
     1
102
RTVSPropertyOp24
 70
     1
102
RTVSPropertyOp25
 70
     1
102
RTVSPropertyOp26
 70
     1
102
RTVSPropertyOp27
 70
     1
102
RTVSPropertyOp28
 70
     1
102
RTVSPropertyOp29
 70
     1
102
RTVSPropertyOp30
 70
     1
102
RTVSPropertyOp31
 70
     1
102
RTVSPropertyOp32
 70
     1
102
RTVSPropertyOp33
 70
     1
102
RTVSPropertyOp34
 70
     1
102
RTVSPropertyOp35
 70
     1
102
RTVSPropertyOp36
 70
     1
102
RTVSPropertyOp37
 70
     1
102
RTVSPropertyOp38
 70
     1
102
RTVSPropertyOp39
 70
     1
102
RTVSPropertyOp40
 70
     1
102
RTVSPropertyOp41
 70
     1
102
RTVSPropertyOp42
 70
     1
102
RTVSPropertyOp43
 70
     1
102
RTVSPropertyOp44
 70
     1
102
RTVSPropertyOp45
 70
     1
102
RTVSPropertyOp46
 70
     1
102
RTVSPropertyOp47
 70
     1
102
RTVSPropertyOp48
 70
     1
102
RTVSPropertyOp49
 70
     1
102
RTVSPropertyOp50
 70
     1
102
RTVSPropertyOp51
 70
     0
102
RTVSPropertyOp52
 70
     0
102
RTVSPropertyOp53
 70
     1
102
RTVSPropertyOp54
 70
     1
102
RTVSPropertyOp55
 70
     1
102
RTVSPropertyOp56
 70
     1
102
RTVSPropertyOp57
 70
     1
102
RTVSPropertyOp58
 70
     1
102
RTVSPropertyOp59
 70
     1
102
RTVSPropertyOp60
 70
     1
102
RTVSPropertyOp61
 70
     1
102
RTVSPropertyOp62
 70
     1
  0
XRECORD
  5
C0C8
102
{ACAD_REACTORS
330
C0C7
102
}
330
C0C7
100
AcDbXrecord
280
     1
102
RTVSPost2010Prop28
280
     0
102
RTVSPost2010PropOp28
 70
     1
102
RTVSPost2010Prop29
280
     1
102
RTVSPost2010PropOp29
 70
     1
102
RTVSPost2010Prop30
280
     1
102
RTVSPost2010PropOp30
 70
     1
102
RTVSPost2010Prop31
280
     0
102
RTVSPost2010PropOp31
 70
     1
102
RTVSPost2010Prop32
280
     0
102
RTVSPost2010PropOp32
 70
     1
102
RTVSPost2010Prop33
280
     0
102
RTVSPost2010PropOp33
 70
     1
102
RTVSPost2010Prop34
280
     0
102
RTVSPost2010PropOp34
 70
     1
102
RTVSPost2010Prop35
280
     0
102
RTVSPost2010PropOp35
 70
     1
102
RTVSPost2010Prop36
280
     0
102
RTVSPost2010PropOp36
 70
     1
102
RTVSPost2010Prop37
 90
       50
102
RTVSPost2010PropOp37
 70
     1
102
RTVSPost2010Prop38
140
0.0
102
RTVSPost2010PropOp38
 70
     1
102
RTVSPost2010Prop39
140
1.0
102
RTVSPost2010PropOp39
 70
     1
102
RTVSPost2010Prop40
 90
        0
102
RTVSPost2010PropOp40
 70
     1
102
RTVSPost2010Prop41ColorIndex
 90
       18
102
RTVSPost2010Prop41ColorRGB
 90
        0
102
RTVSPost2010PropOp41
 70
     1
102
RTVSPost2010Prop42
 90
       50
102
RTVSPost2010PropOp42
 70
     1
102
RTVSPost2010Prop43
 90
        3
102
RTVSPost2010PropOp43
 70
     1
102
RTVSPost2010Prop44ColorIndex
 90
        5
102
RTVSPost2010Prop44ColorRGB
 90
      255
102
RTVSPost2010PropOp44
 70
     1
102
RTVSPost2010Prop45
280
     0
102
RTVSPost2010PropOp45
 70
     1
102
RTVSPost2010Prop46
 90
       50
102
RTVSPost2010PropOp46
 70
     1
102
RTVSPost2010Prop47
 90
       50
102
RTVSPost2010PropOp47
 70
     1
102
RTVSPost2010Prop48
 90
       50
102
RTVSPost2010PropOp48
 70
     1
102
RTVSPost2010Prop49
280
     0
102
RTVSPost2010PropOp49
 70
     1
102
RTVSPost2010Prop50
 90
       50
102
RTVSPost2010PropOp50
 70
     1
102
RTVSPost2010Prop51ColorIndex
 90
      256
102
RTVSPost2010Prop51ColorRGB
 90
-16777216
102
RTVSPost2010PropOp51
 70
     0
102
RTVSPost2010Prop52
140
1.0
102
RTVSPost2010PropOp52
 70
     0
102
RTVSPost2010Prop53
 90
        2
102
RTVSPost2010PropOp53
 70
     1
102
RTVSPost2010Prop54
  1
strokes_ogs.tif
102
RTVSPost2010PropOp54
 70
     1
102
RTVSPost2010Prop55
280
     0
102
RTVSPost2010PropOp55
 70
     1
102
RTVSPost2010Prop56
140
1.0
102
RTVSPost2010PropOp56
 70
     1
102
RTVSPost2010Prop57
140
1.0
102
RTVSPost2010PropOp57
 70
     1
102
RTVSPropertyOp0
 70
     1
102
RTVSPropertyOp1
 70
     1
102
RTVSPropertyOp2
 70
     1
102
RTVSPropertyOp3
 70
     1
102
RTVSPropertyOp4
 70
     1
102
RTVSPropertyOp5
 70
     1
102
RTVSPropertyOp6
 70
     1
102
RTVSPropertyOp7
 70
     1
102
RTVSPropertyOp8
 70
     1
102
RTVSPropertyOp9
 70
     1
102
RTVSPropertyOp10
 70
     1
102
RTVSPropertyOp11
 70
     1
102
RTVSPropertyOp12
 70
     1
102
RTVSPropertyOp13
 70
     1
102
RTVSPropertyOp14
 70
     1
102
RTVSPropertyOp15
 70
     1
102
RTVSPropertyOp16
 70
     1
102
RTVSPropertyOp17
 70
     1
102
RTVSPropertyOp18
 70
     1
102
RTVSPropertyOp19
 70
     1
102
RTVSPropertyOp20
 70
     1
102
RTVSPropertyOp21
 70
     1
102
RTVSPropertyOp22
 70
     1
102
RTVSPropertyOp23
 70
     1
102
RTVSPropertyOp24
 70
     1
102
RTVSPropertyOp25
 70
     1
102
RTVSPropertyOp26
 70
     1
102
RTVSPropertyOp27
 70
     1
102
RTVSPropertyOp28
 70
     1
102
RTVSPropertyOp29
 70
     1
102
RTVSPropertyOp30
 70
     1
102
RTVSPropertyOp31
 70
     1
102
RTVSPropertyOp32
 70
     1
102
RTVSPropertyOp33
 70
     1
102
RTVSPropertyOp34
 70
     1
102
RTVSPropertyOp35
 70
     1
102
RTVSPropertyOp36
 70
     1
102
RTVSPropertyOp37
 70
     1
102
RTVSPropertyOp38
 70
     1
102
RTVSPropertyOp39
 70
     1
102
RTVSPropertyOp40
 70
     1
102
RTVSPropertyOp41
 70
     1
102
RTVSPropertyOp42
 70
     1
102
RTVSPropertyOp43
 70
     1
102
RTVSPropertyOp44
 70
     1
102
RTVSPropertyOp45
 70
     1
102
RTVSPropertyOp46
 70
     1
102
RTVSPropertyOp47
 70
     1
102
RTVSPropertyOp48
 70
     1
102
RTVSPropertyOp49
 70
     1
102
RTVSPropertyOp50
 70
     1
102
RTVSPropertyOp51
 70
     0
102
RTVSPropertyOp52
 70
     0
102
RTVSPropertyOp53
 70
     1
102
RTVSPropertyOp54
 70
     1
102
RTVSPropertyOp55
 70
     1
102
RTVSPropertyOp56
 70
     1
102
RTVSPropertyOp57
 70
     1
102
RTVSPropertyOp58
 70
     1
102
RTVSPropertyOp59
 70
     1
102
RTVSPropertyOp60
 70
     1
102
RTVSPropertyOp61
 70
     1
102
RTVSPropertyOp62
 70
     1
  0
XRECORD
  5
C0E2
102
{ACAD_REACTORS
330
C0E1
102
}
330
C0E1
100
AcDbXrecord
280
     1
102
RTVSPost2010Prop28
280
     0
102
RTVSPost2010PropOp28
 70
     1
102
RTVSPost2010Prop29
280
     1
102
RTVSPost2010PropOp29
 70
     1
102
RTVSPost2010Prop30
280
     1
102
RTVSPost2010PropOp30
 70
     1
102
RTVSPost2010Prop31
280
     0
102
RTVSPost2010PropOp31
 70
     1
102
RTVSPost2010Prop32
280
     0
102
RTVSPost2010PropOp32
 70
     1
102
RTVSPost2010Prop33
280
     0
102
RTVSPost2010PropOp33
 70
     1
102
RTVSPost2010Prop34
280
     0
102
RTVSPost2010PropOp34
 70
     1
102
RTVSPost2010Prop35
280
     0
102
RTVSPost2010PropOp35
 70
     1
102
RTVSPost2010Prop36
280
     0
102
RTVSPost2010PropOp36
 70
     1
102
RTVSPost2010Prop37
 90
       50
102
RTVSPost2010PropOp37
 70
     0
102
RTVSPost2010Prop38
140
0.0
102
RTVSPost2010PropOp38
 70
     0
102
RTVSPost2010Prop39
140
1.0
102
RTVSPost2010PropOp39
 70
     0
102
RTVSPost2010Prop40
 90
        0
102
RTVSPost2010PropOp40
 70
     0
102
RTVSPost2010Prop41ColorIndex
 90
       18
102
RTVSPost2010Prop41ColorRGB
 90
        0
102
RTVSPost2010PropOp41
 70
     0
102
RTVSPost2010Prop42
 90
       50
102
RTVSPost2010PropOp42
 70
     0
102
RTVSPost2010Prop43
 90
        3
102
RTVSPost2010PropOp43
 70
     0
102
RTVSPost2010Prop44ColorIndex
 90
        5
102
RTVSPost2010Prop44ColorRGB
 90
      255
102
RTVSPost2010PropOp44
 70
     0
102
RTVSPost2010Prop45
280
     0
102
RTVSPost2010PropOp45
 70
     1
102
RTVSPost2010Prop46
 90
       50
102
RTVSPost2010PropOp46
 70
     0
102
RTVSPost2010Prop47
 90
       50
102
RTVSPost2010PropOp47
 70
     0
102
RTVSPost2010Prop48
 90
       50
102
RTVSPost2010PropOp48
 70
     0
102
RTVSPost2010Prop49
280
     0
102
RTVSPost2010PropOp49
 70
     1
102
RTVSPost2010Prop50
 90
       50
102
RTVSPost2010PropOp50
 70
     0
102
RTVSPost2010Prop51ColorIndex
 90
      256
102
RTVSPost2010Prop51ColorRGB
 90
-16777216
102
RTVSPost2010PropOp51
 70
     0
102
RTVSPost2010Prop52
140
1.0
102
RTVSPost2010PropOp52
 70
     0
102
RTVSPost2010Prop53
 90
        2
102
RTVSPost2010PropOp53
 70
     0
102
RTVSPost2010Prop54
  1
strokes_ogs.tif
102
RTVSPost2010PropOp54
 70
     0
102
RTVSPost2010Prop55
280
     0
102
RTVSPost2010PropOp55
 70
     1
102
RTVSPost2010Prop56
140
1.0
102
RTVSPost2010PropOp56
 70
     0
102
RTVSPost2010Prop57
140
1.0
102
RTVSPost2010PropOp57
 70
     0
102
RTVSPropertyOp0
 70
     0
102
RTVSPropertyOp1
 70
     0
102
RTVSPropertyOp2
 70
     0
102
RTVSPropertyOp3
 70
     0
102
RTVSPropertyOp4
 70
     0
102
RTVSPropertyOp5
 70
     0
102
RTVSPropertyOp6
 70
     0
102
RTVSPropertyOp7
 70
     0
102
RTVSPropertyOp8
 70
     0
102
RTVSPropertyOp9
 70
     0
102
RTVSPropertyOp10
 70
     0
102
RTVSPropertyOp11
 70
     0
102
RTVSPropertyOp12
 70
     0
102
RTVSPropertyOp13
 70
     0
102
RTVSPropertyOp14
 70
     2
102
RTVSPropertyOp15
 70
     0
102
RTVSPropertyOp16
 70
     0
102
RTVSPropertyOp17
 70
     0
102
RTVSPropertyOp18
 70
     0
102
RTVSPropertyOp19
 70
     0
102
RTVSPropertyOp20
 70
     0
102
RTVSPropertyOp21
 70
     0
102
RTVSPropertyOp22
 70
     0
102
RTVSPropertyOp23
 70
     0
102
RTVSPropertyOp24
 70
     0
102
RTVSPropertyOp25
 70
     0
102
RTVSPropertyOp26
 70
     0
102
RTVSPropertyOp27
 70
     0
102
RTVSPropertyOp28
 70
     1
102
RTVSPropertyOp29
 70
     1
102
RTVSPropertyOp30
 70
     1
102
RTVSPropertyOp31
 70
     1
102
RTVSPropertyOp32
 70
     1
102
RTVSPropertyOp33
 70
     1
102
RTVSPropertyOp34
 70
     1
102
RTVSPropertyOp35
 70
     1
102
RTVSPropertyOp36
 70
     1
102
RTVSPropertyOp37
 70
     0
102
RTVSPropertyOp38
 70
     0
102
RTVSPropertyOp39
 70
     0
102
RTVSPropertyOp40
 70
     0
102
RTVSPropertyOp41
 70
     0
102
RTVSPropertyOp42
 70
     0
102
RTVSPropertyOp43
 70
     0
102
RTVSPropertyOp44
 70
     0
102
RTVSPropertyOp45
 70
     1
102
RTVSPropertyOp46
 70
     0
102
RTVSPropertyOp47
 70
     0
102
RTVSPropertyOp48
 70
     0
102
RTVSPropertyOp49
 70
     1
102
RTVSPropertyOp50
 70
     0
102
RTVSPropertyOp51
 70
     0
102
RTVSPropertyOp52
 70
     0
102
RTVSPropertyOp53
 70
     0
102
RTVSPropertyOp54
 70
     0
102
RTVSPropertyOp55
 70
     1
102
RTVSPropertyOp56
 70
     0
102
RTVSPropertyOp57
 70
     0
102
RTVSPropertyOp58
 70
     0
102
RTVSPropertyOp59
 70
     0
102
RTVSPropertyOp60
 70
     0
102
RTVSPropertyOp61
 70
     0
102
RTVSPropertyOp62
 70
     0
  0
XRECORD
  5
C0D0
102
{ACAD_REACTORS
330
C0CF
102
}
330
C0CF
100
AcDbXrecord
280
     1
102
RTVSPost2010Prop28
280
     0
102
RTVSPost2010PropOp28
 70
     1
102
RTVSPost2010Prop29
280
     1
102
RTVSPost2010PropOp29
 70
     1
102
RTVSPost2010Prop30
280
     1
102
RTVSPost2010PropOp30
 70
     1
102
RTVSPost2010Prop31
280
     0
102
RTVSPost2010PropOp31
 70
     1
102
RTVSPost2010Prop32
280
     0
102
RTVSPost2010PropOp32
 70
     1
102
RTVSPost2010Prop33
280
     0
102
RTVSPost2010PropOp33
 70
     1
102
RTVSPost2010Prop34
280
     0
102
RTVSPost2010PropOp34
 70
     1
102
RTVSPost2010Prop35
280
     0
102
RTVSPost2010PropOp35
 70
     1
102
RTVSPost2010Prop36
280
     0
102
RTVSPost2010PropOp36
 70
     1
102
RTVSPost2010Prop37
 90
       50
102
RTVSPost2010PropOp37
 70
     1
102
RTVSPost2010Prop38
140
0.0
102
RTVSPost2010PropOp38
 70
     1
102
RTVSPost2010Prop39
140
1.0
102
RTVSPost2010PropOp39
 70
     1
102
RTVSPost2010Prop40
 90
        0
102
RTVSPost2010PropOp40
 70
     1
102
RTVSPost2010Prop41ColorIndex
 90
       18
102
RTVSPost2010Prop41ColorRGB
 90
        0
102
RTVSPost2010PropOp41
 70
     1
102
RTVSPost2010Prop42
 90
       50
102
RTVSPost2010PropOp42
 70
     1
102
RTVSPost2010Prop43
 90
        3
102
RTVSPost2010PropOp43
 70
     1
102
RTVSPost2010Prop44ColorIndex
 90
        5
102
RTVSPost2010Prop44ColorRGB
 90
      255
102
RTVSPost2010PropOp44
 70
     1
102
RTVSPost2010Prop45
280
     0
102
RTVSPost2010PropOp45
 70
     1
102
RTVSPost2010Prop46
 90
       50
102
RTVSPost2010PropOp46
 70
     1
102
RTVSPost2010Prop47
 90
       50
102
RTVSPost2010PropOp47
 70
     1
102
RTVSPost2010Prop48
 90
       50
102
RTVSPost2010PropOp48
 70
     1
102
RTVSPost2010Prop49
280
     0
102
RTVSPost2010PropOp49
 70
     1
102
RTVSPost2010Prop50
 90
       50
102
RTVSPost2010PropOp50
 70
     1
102
RTVSPost2010Prop51ColorIndex
 90
      256
102
RTVSPost2010Prop51ColorRGB
 90
-16777216
102
RTVSPost2010PropOp51
 70
     0
102
RTVSPost2010Prop52
140
1.0
102
RTVSPost2010PropOp52
 70
     0
102
RTVSPost2010Prop53
 90
        2
102
RTVSPost2010PropOp53
 70
     1
102
RTVSPost2010Prop54
  1
strokes_ogs.tif
102
RTVSPost2010PropOp54
 70
     1
102
RTVSPost2010Prop55
280
     0
102
RTVSPost2010PropOp55
 70
     1
102
RTVSPost2010Prop56
140
1.0
102
RTVSPost2010PropOp56
 70
     1
102
RTVSPost2010Prop57
140
1.0
102
RTVSPost2010PropOp57
 70
     1
102
RTVSPropertyOp0
 70
     1
102
RTVSPropertyOp1
 70
     1
102
RTVSPropertyOp2
 70
     1
102
RTVSPropertyOp3
 70
     1
102
RTVSPropertyOp4
 70
     1
102
RTVSPropertyOp5
 70
     1
102
RTVSPropertyOp6
 70
     1
102
RTVSPropertyOp7
 70
     1
102
RTVSPropertyOp8
 70
     1
102
RTVSPropertyOp9
 70
     1
102
RTVSPropertyOp10
 70
     1
102
RTVSPropertyOp11
 70
     1
102
RTVSPropertyOp12
 70
     1
102
RTVSPropertyOp13
 70
     1
102
RTVSPropertyOp14
 70
     1
102
RTVSPropertyOp15
 70
     1
102
RTVSPropertyOp16
 70
     1
102
RTVSPropertyOp17
 70
     1
102
RTVSPropertyOp18
 70
     1
102
RTVSPropertyOp19
 70
     1
102
RTVSPropertyOp20
 70
     1
102
RTVSPropertyOp21
 70
     1
102
RTVSPropertyOp22
 70
     1
102
RTVSPropertyOp23
 70
     1
102
RTVSPropertyOp24
 70
     1
102
RTVSPropertyOp25
 70
     1
102
RTVSPropertyOp26
 70
     1
102
RTVSPropertyOp27
 70
     1
102
RTVSPropertyOp28
 70
     1
102
RTVSPropertyOp29
 70
     1
102
RTVSPropertyOp30
 70
     1
102
RTVSPropertyOp31
 70
     1
102
RTVSPropertyOp32
 70
     1
102
RTVSPropertyOp33
 70
     1
102
RTVSPropertyOp34
 70
     1
102
RTVSPropertyOp35
 70
     1
102
RTVSPropertyOp36
 70
     1
102
RTVSPropertyOp37
 70
     1
102
RTVSPropertyOp38
 70
     1
102
RTVSPropertyOp39
 70
     1
102
RTVSPropertyOp40
 70
     1
102
RTVSPropertyOp41
 70
     1
102
RTVSPropertyOp42
 70
     1
102
RTVSPropertyOp43
 70
     1
102
RTVSPropertyOp44
 70
     1
102
RTVSPropertyOp45
 70
     1
102
RTVSPropertyOp46
 70
     1
102
RTVSPropertyOp47
 70
     1
102
RTVSPropertyOp48
 70
     1
102
RTVSPropertyOp49
 70
     1
102
RTVSPropertyOp50
 70
     1
102
RTVSPropertyOp51
 70
     0
102
RTVSPropertyOp52
 70
     0
102
RTVSPropertyOp53
 70
     1
102
RTVSPropertyOp54
 70
     1
102
RTVSPropertyOp55
 70
     1
102
RTVSPropertyOp56
 70
     1
102
RTVSPropertyOp57
 70
     1
102
RTVSPropertyOp58
 70
     1
102
RTVSPropertyOp59
 70
     1
102
RTVSPropertyOp60
 70
     1
102
RTVSPropertyOp61
 70
     1
102
RTVSPropertyOp62
 70
     1
  0
XRECORD
  5
C0B4
102
{ACAD_REACTORS
330
C0B3
102
}
330
C0B3
100
AcDbXrecord
280
     1
102
RTVSPost2010Prop28
280
     0
102
RTVSPost2010PropOp28
 70
     1
102
RTVSPost2010Prop29
280
     1
102
RTVSPost2010PropOp29
 70
     1
102
RTVSPost2010Prop30
280
     1
102
RTVSPost2010PropOp30
 70
     1
102
RTVSPost2010Prop31
280
     0
102
RTVSPost2010PropOp31
 70
     1
102
RTVSPost2010Prop32
280
     0
102
RTVSPost2010PropOp32
 70
     1
102
RTVSPost2010Prop33
280
     0
102
RTVSPost2010PropOp33
 70
     1
102
RTVSPost2010Prop34
280
     0
102
RTVSPost2010PropOp34
 70
     1
102
RTVSPost2010Prop35
280
     0
102
RTVSPost2010PropOp35
 70
     1
102
RTVSPost2010Prop36
280
     0
102
RTVSPost2010PropOp36
 70
     1
102
RTVSPost2010Prop37
 90
       50
102
RTVSPost2010PropOp37
 70
     1
102
RTVSPost2010Prop38
140
0.0
102
RTVSPost2010PropOp38
 70
     1
102
RTVSPost2010Prop39
140
1.0
102
RTVSPost2010PropOp39
 70
     1
102
RTVSPost2010Prop40
 90
        0
102
RTVSPost2010PropOp40
 70
     1
102
RTVSPost2010Prop41ColorIndex
 90
       18
102
RTVSPost2010Prop41ColorRGB
 90
        0
102
RTVSPost2010PropOp41
 70
     1
102
RTVSPost2010Prop42
 90
       50
102
RTVSPost2010PropOp42
 70
     1
102
RTVSPost2010Prop43
 90
        3
102
RTVSPost2010PropOp43
 70
     1
102
RTVSPost2010Prop44ColorIndex
 90
        5
102
RTVSPost2010Prop44ColorRGB
 90
      255
102
RTVSPost2010PropOp44
 70
     1
102
RTVSPost2010Prop45
280
     0
102
RTVSPost2010PropOp45
 70
     1
102
RTVSPost2010Prop46
 90
       50
102
RTVSPost2010PropOp46
 70
     1
102
RTVSPost2010Prop47
 90
       50
102
RTVSPost2010PropOp47
 70
     1
102
RTVSPost2010Prop48
 90
       50
102
RTVSPost2010PropOp48
 70
     1
102
RTVSPost2010Prop49
280
     0
102
RTVSPost2010PropOp49
 70
     1
102
RTVSPost2010Prop50
 90
       50
102
RTVSPost2010PropOp50
 70
     1
102
RTVSPost2010Prop51ColorIndex
 90
      256
102
RTVSPost2010Prop51ColorRGB
 90
-16777216
102
RTVSPost2010PropOp51
 70
     0
102
RTVSPost2010Prop52
140
1.0
102
RTVSPost2010PropOp52
 70
     0
102
RTVSPost2010Prop53
 90
        2
102
RTVSPost2010PropOp53
 70
     1
102
RTVSPost2010Prop54
  1
strokes_ogs.tif
102
RTVSPost2010PropOp54
 70
     1
102
RTVSPost2010Prop55
280
     0
102
RTVSPost2010PropOp55
 70
     1
102
RTVSPost2010Prop56
140
1.0
102
RTVSPost2010PropOp56
 70
     1
102
RTVSPost2010Prop57
140
1.0
102
RTVSPost2010PropOp57
 70
     1
102
RTVSPropertyOp0
 70
     1
102
RTVSPropertyOp1
 70
     1
102
RTVSPropertyOp2
 70
     1
102
RTVSPropertyOp3
 70
     1
102
RTVSPropertyOp4
 70
     1
102
RTVSPropertyOp5
 70
     1
102
RTVSPropertyOp6
 70
     1
102
RTVSPropertyOp7
 70
     1
102
RTVSPropertyOp8
 70
     1
102
RTVSPropertyOp9
 70
     1
102
RTVSPropertyOp10
 70
     1
102
RTVSPropertyOp11
 70
     1
102
RTVSPropertyOp12
 70
     1
102
RTVSPropertyOp13
 70
     1
102
RTVSPropertyOp14
 70
     1
102
RTVSPropertyOp15
 70
     1
102
RTVSPropertyOp16
 70
     1
102
RTVSPropertyOp17
 70
     1
102
RTVSPropertyOp18
 70
     1
102
RTVSPropertyOp19
 70
     1
102
RTVSPropertyOp20
 70
     1
102
RTVSPropertyOp21
 70
     1
102
RTVSPropertyOp22
 70
     1
102
RTVSPropertyOp23
 70
     1
102
RTVSPropertyOp24
 70
     1
102
RTVSPropertyOp25
 70
     1
102
RTVSPropertyOp26
 70
     1
102
RTVSPropertyOp27
 70
     1
102
RTVSPropertyOp28
 70
     1
102
RTVSPropertyOp29
 70
     1
102
RTVSPropertyOp30
 70
     1
102
RTVSPropertyOp31
 70
     1
102
RTVSPropertyOp32
 70
     1
102
RTVSPropertyOp33
 70
     1
102
RTVSPropertyOp34
 70
     1
102
RTVSPropertyOp35
 70
     1
102
RTVSPropertyOp36
 70
     1
102
RTVSPropertyOp37
 70
     1
102
RTVSPropertyOp38
 70
     1
102
RTVSPropertyOp39
 70
     1
102
RTVSPropertyOp40
 70
     1
102
RTVSPropertyOp41
 70
     1
102
RTVSPropertyOp42
 70
     1
102
RTVSPropertyOp43
 70
     1
102
RTVSPropertyOp44
 70
     1
102
RTVSPropertyOp45
 70
     1
102
RTVSPropertyOp46
 70
     1
102
RTVSPropertyOp47
 70
     1
102
RTVSPropertyOp48
 70
     1
102
RTVSPropertyOp49
 70
     1
102
RTVSPropertyOp50
 70
     1
102
RTVSPropertyOp51
 70
     0
102
RTVSPropertyOp52
 70
     0
102
RTVSPropertyOp53
 70
     1
102
RTVSPropertyOp54
 70
     1
102
RTVSPropertyOp55
 70
     1
102
RTVSPropertyOp56
 70
     1
102
RTVSPropertyOp57
 70
     1
102
RTVSPropertyOp58
 70
     1
102
RTVSPropertyOp59
 70
     1
102
RTVSPropertyOp60
 70
     1
102
RTVSPropertyOp61
 70
     1
102
RTVSPropertyOp62
 70
     1
  0
XRECORD
  5
C0B6
102
{ACAD_REACTORS
330
C0B5
102
}
330
C0B5
100
AcDbXrecord
280
     1
102
RTVSPost2010Prop28
280
     0
102
RTVSPost2010PropOp28
 70
     1
102
RTVSPost2010Prop29
280
     1
102
RTVSPost2010PropOp29
 70
     1
102
RTVSPost2010Prop30
280
     1
102
RTVSPost2010PropOp30
 70
     1
102
RTVSPost2010Prop31
280
     0
102
RTVSPost2010PropOp31
 70
     1
102
RTVSPost2010Prop32
280
     0
102
RTVSPost2010PropOp32
 70
     1
102
RTVSPost2010Prop33
280
     0
102
RTVSPost2010PropOp33
 70
     1
102
RTVSPost2010Prop34
280
     0
102
RTVSPost2010PropOp34
 70
     1
102
RTVSPost2010Prop35
280
     0
102
RTVSPost2010PropOp35
 70
     1
102
RTVSPost2010Prop36
280
     0
102
RTVSPost2010PropOp36
 70
     1
102
RTVSPost2010Prop37
 90
       50
102
RTVSPost2010PropOp37
 70
     1
102
RTVSPost2010Prop38
140
0.0
102
RTVSPost2010PropOp38
 70
     1
102
RTVSPost2010Prop39
140
1.0
102
RTVSPost2010PropOp39
 70
     1
102
RTVSPost2010Prop40
 90
        0
102
RTVSPost2010PropOp40
 70
     1
102
RTVSPost2010Prop41ColorIndex
 90
       18
102
RTVSPost2010Prop41ColorRGB
 90
        0
102
RTVSPost2010PropOp41
 70
     1
102
RTVSPost2010Prop42
 90
       50
102
RTVSPost2010PropOp42
 70
     1
102
RTVSPost2010Prop43
 90
        3
102
RTVSPost2010PropOp43
 70
     1
102
RTVSPost2010Prop44ColorIndex
 90
        5
102
RTVSPost2010Prop44ColorRGB
 90
      255
102
RTVSPost2010PropOp44
 70
     1
102
RTVSPost2010Prop45
280
     0
102
RTVSPost2010PropOp45
 70
     1
102
RTVSPost2010Prop46
 90
       50
102
RTVSPost2010PropOp46
 70
     1
102
RTVSPost2010Prop47
 90
       50
102
RTVSPost2010PropOp47
 70
     1
102
RTVSPost2010Prop48
 90
       50
102
RTVSPost2010PropOp48
 70
     1
102
RTVSPost2010Prop49
280
     0
102
RTVSPost2010PropOp49
 70
     1
102
RTVSPost2010Prop50
 90
       50
102
RTVSPost2010PropOp50
 70
     1
102
RTVSPost2010Prop51ColorIndex
 90
      256
102
RTVSPost2010Prop51ColorRGB
 90
-16777216
102
RTVSPost2010PropOp51
 70
     0
102
RTVSPost2010Prop52
140
1.0
102
RTVSPost2010PropOp52
 70
     0
102
RTVSPost2010Prop53
 90
        2
102
RTVSPost2010PropOp53
 70
     1
102
RTVSPost2010Prop54
  1
strokes_ogs.tif
102
RTVSPost2010PropOp54
 70
     1
102
RTVSPost2010Prop55
280
     0
102
RTVSPost2010PropOp55
 70
     1
102
RTVSPost2010Prop56
140
1.0
102
RTVSPost2010PropOp56
 70
     1
102
RTVSPost2010Prop57
140
1.0
102
RTVSPost2010PropOp57
 70
     1
102
RTVSPropertyOp0
 70
     1
102
RTVSPropertyOp1
 70
     1
102
RTVSPropertyOp2
 70
     1
102
RTVSPropertyOp3
 70
     1
102
RTVSPropertyOp4
 70
     1
102
RTVSPropertyOp5
 70
     1
102
RTVSPropertyOp6
 70
     1
102
RTVSPropertyOp7
 70
     1
102
RTVSPropertyOp8
 70
     1
102
RTVSPropertyOp9
 70
     1
102
RTVSPropertyOp10
 70
     1
102
RTVSPropertyOp11
 70
     1
102
RTVSPropertyOp12
 70
     1
102
RTVSPropertyOp13
 70
     1
102
RTVSPropertyOp14
 70
     1
102
RTVSPropertyOp15
 70
     1
102
RTVSPropertyOp16
 70
     1
102
RTVSPropertyOp17
 70
     1
102
RTVSPropertyOp18
 70
     1
102
RTVSPropertyOp19
 70
     1
102
RTVSPropertyOp20
 70
     1
102
RTVSPropertyOp21
 70
     1
102
RTVSPropertyOp22
 70
     1
102
RTVSPropertyOp23
 70
     1
102
RTVSPropertyOp24
 70
     1
102
RTVSPropertyOp25
 70
     1
102
RTVSPropertyOp26
 70
     1
102
RTVSPropertyOp27
 70
     1
102
RTVSPropertyOp28
 70
     1
102
RTVSPropertyOp29
 70
     1
102
RTVSPropertyOp30
 70
     1
102
RTVSPropertyOp31
 70
     1
102
RTVSPropertyOp32
 70
     1
102
RTVSPropertyOp33
 70
     1
102
RTVSPropertyOp34
 70
     1
102
RTVSPropertyOp35
 70
     1
102
RTVSPropertyOp36
 70
     1
102
RTVSPropertyOp37
 70
     1
102
RTVSPropertyOp38
 70
     1
102
RTVSPropertyOp39
 70
     1
102
RTVSPropertyOp40
 70
     1
102
RTVSPropertyOp41
 70
     1
102
RTVSPropertyOp42
 70
     1
102
RTVSPropertyOp43
 70
     1
102
RTVSPropertyOp44
 70
     1
102
RTVSPropertyOp45
 70
     1
102
RTVSPropertyOp46
 70
     1
102
RTVSPropertyOp47
 70
     1
102
RTVSPropertyOp48
 70
     1
102
RTVSPropertyOp49
 70
     1
102
RTVSPropertyOp50
 70
     1
102
RTVSPropertyOp51
 70
     0
102
RTVSPropertyOp52
 70
     0
102
RTVSPropertyOp53
 70
     1
102
RTVSPropertyOp54
 70
     1
102
RTVSPropertyOp55
 70
     1
102
RTVSPropertyOp56
 70
     1
102
RTVSPropertyOp57
 70
     1
102
RTVSPropertyOp58
 70
     1
102
RTVSPropertyOp59
 70
     1
102
RTVSPropertyOp60
 70
     1
102
RTVSPropertyOp61
 70
     1
102
RTVSPropertyOp62
 70
     1
  0
XRECORD
  5
C0B8
102
{ACAD_REACTORS
330
C0B7
102
}
330
C0B7
100
AcDbXrecord
280
     1
102
RTVSPost2010Prop28
280
     0
102
RTVSPost2010PropOp28
 70
     1
102
RTVSPost2010Prop29
280
     1
102
RTVSPost2010PropOp29
 70
     1
102
RTVSPost2010Prop30
280
     1
102
RTVSPost2010PropOp30
 70
     1
102
RTVSPost2010Prop31
280
     0
102
RTVSPost2010PropOp31
 70
     1
102
RTVSPost2010Prop32
280
     0
102
RTVSPost2010PropOp32
 70
     1
102
RTVSPost2010Prop33
280
     0
102
RTVSPost2010PropOp33
 70
     1
102
RTVSPost2010Prop34
280
     0
102
RTVSPost2010PropOp34
 70
     1
102
RTVSPost2010Prop35
280
     0
102
RTVSPost2010PropOp35
 70
     1
102
RTVSPost2010Prop36
280
     0
102
RTVSPost2010PropOp36
 70
     1
102
RTVSPost2010Prop37
 90
       50
102
RTVSPost2010PropOp37
 70
     1
102
RTVSPost2010Prop38
140
0.0
102
RTVSPost2010PropOp38
 70
     1
102
RTVSPost2010Prop39
140
1.0
102
RTVSPost2010PropOp39
 70
     1
102
RTVSPost2010Prop40
 90
        0
102
RTVSPost2010PropOp40
 70
     1
102
RTVSPost2010Prop41ColorIndex
 90
       18
102
RTVSPost2010Prop41ColorRGB
 90
        0
102
RTVSPost2010PropOp41
 70
     1
102
RTVSPost2010Prop42
 90
       50
102
RTVSPost2010PropOp42
 70
     1
102
RTVSPost2010Prop43
 90
        3
102
RTVSPost2010PropOp43
 70
     1
102
RTVSPost2010Prop44ColorIndex
 90
        5
102
RTVSPost2010Prop44ColorRGB
 90
      255
102
RTVSPost2010PropOp44
 70
     1
102
RTVSPost2010Prop45
280
     0
102
RTVSPost2010PropOp45
 70
     1
102
RTVSPost2010Prop46
 90
       50
102
RTVSPost2010PropOp46
 70
     1
102
RTVSPost2010Prop47
 90
       50
102
RTVSPost2010PropOp47
 70
     1
102
RTVSPost2010Prop48
 90
       50
102
RTVSPost2010PropOp48
 70
     1
102
RTVSPost2010Prop49
280
     0
102
RTVSPost2010PropOp49
 70
     1
102
RTVSPost2010Prop50
 90
       50
102
RTVSPost2010PropOp50
 70
     1
102
RTVSPost2010Prop51ColorIndex
 90
      256
102
RTVSPost2010Prop51ColorRGB
 90
-16777216
102
RTVSPost2010PropOp51
 70
     0
102
RTVSPost2010Prop52
140
1.0
102
RTVSPost2010PropOp52
 70
     0
102
RTVSPost2010Prop53
 90
        2
102
RTVSPost2010PropOp53
 70
     1
102
RTVSPost2010Prop54
  1
strokes_ogs.tif
102
RTVSPost2010PropOp54
 70
     1
102
RTVSPost2010Prop55
280
     0
102
RTVSPost2010PropOp55
 70
     1
102
RTVSPost2010Prop56
140
1.0
102
RTVSPost2010PropOp56
 70
     1
102
RTVSPost2010Prop57
140
1.0
102
RTVSPost2010PropOp57
 70
     1
102
RTVSPropertyOp0
 70
     1
102
RTVSPropertyOp1
 70
     1
102
RTVSPropertyOp2
 70
     1
102
RTVSPropertyOp3
 70
     1
102
RTVSPropertyOp4
 70
     1
102
RTVSPropertyOp5
 70
     1
102
RTVSPropertyOp6
 70
     1
102
RTVSPropertyOp7
 70
     1
102
RTVSPropertyOp8
 70
     1
102
RTVSPropertyOp9
 70
     1
102
RTVSPropertyOp10
 70
     1
102
RTVSPropertyOp11
 70
     1
102
RTVSPropertyOp12
 70
     1
102
RTVSPropertyOp13
 70
     1
102
RTVSPropertyOp14
 70
     1
102
RTVSPropertyOp15
 70
     1
102
RTVSPropertyOp16
 70
     1
102
RTVSPropertyOp17
 70
     1
102
RTVSPropertyOp18
 70
     1
102
RTVSPropertyOp19
 70
     1
102
RTVSPropertyOp20
 70
     1
102
RTVSPropertyOp21
 70
     1
102
RTVSPropertyOp22
 70
     1
102
RTVSPropertyOp23
 70
     1
102
RTVSPropertyOp24
 70
     1
102
RTVSPropertyOp25
 70
     1
102
RTVSPropertyOp26
 70
     1
102
RTVSPropertyOp27
 70
     1
102
RTVSPropertyOp28
 70
     1
102
RTVSPropertyOp29
 70
     1
102
RTVSPropertyOp30
 70
     1
102
RTVSPropertyOp31
 70
     1
102
RTVSPropertyOp32
 70
     1
102
RTVSPropertyOp33
 70
     1
102
RTVSPropertyOp34
 70
     1
102
RTVSPropertyOp35
 70
     1
102
RTVSPropertyOp36
 70
     1
102
RTVSPropertyOp37
 70
     1
102
RTVSPropertyOp38
 70
     1
102
RTVSPropertyOp39
 70
     1
102
RTVSPropertyOp40
 70
     1
102
RTVSPropertyOp41
 70
     1
102
RTVSPropertyOp42
 70
     1
102
RTVSPropertyOp43
 70
     1
102
RTVSPropertyOp44
 70
     1
102
RTVSPropertyOp45
 70
     1
102
RTVSPropertyOp46
 70
     1
102
RTVSPropertyOp47
 70
     1
102
RTVSPropertyOp48
 70
     1
102
RTVSPropertyOp49
 70
     1
102
RTVSPropertyOp50
 70
     1
102
RTVSPropertyOp51
 70
     0
102
RTVSPropertyOp52
 70
     0
102
RTVSPropertyOp53
 70
     1
102
RTVSPropertyOp54
 70
     1
102
RTVSPropertyOp55
 70
     1
102
RTVSPropertyOp56
 70
     1
102
RTVSPropertyOp57
 70
     1
102
RTVSPropertyOp58
 70
     1
102
RTVSPropertyOp59
 70
     1
102
RTVSPropertyOp60
 70
     1
102
RTVSPropertyOp61
 70
     1
102
RTVSPropertyOp62
 70
     1
  0
XRECORD
  5
C0BA
102
{ACAD_REACTORS
330
C0B9
102
}
330
C0B9
100
AcDbXrecord
280
     1
102
RTVSPost2010Prop28
280
     0
102
RTVSPost2010PropOp28
 70
     1
102
RTVSPost2010Prop29
280
     1
102
RTVSPost2010PropOp29
 70
     1
102
RTVSPost2010Prop30
280
     1
102
RTVSPost2010PropOp30
 70
     1
102
RTVSPost2010Prop31
280
     0
102
RTVSPost2010PropOp31
 70
     1
102
RTVSPost2010Prop32
280
     0
102
RTVSPost2010PropOp32
 70
     1
102
RTVSPost2010Prop33
280
     0
102
RTVSPost2010PropOp33
 70
     1
102
RTVSPost2010Prop34
280
     0
102
RTVSPost2010PropOp34
 70
     1
102
RTVSPost2010Prop35
280
     0
102
RTVSPost2010PropOp35
 70
     1
102
RTVSPost2010Prop36
280
     0
102
RTVSPost2010PropOp36
 70
     1
102
RTVSPost2010Prop37
 90
       50
102
RTVSPost2010PropOp37
 70
     1
102
RTVSPost2010Prop38
140
0.0
102
RTVSPost2010PropOp38
 70
     1
102
RTVSPost2010Prop39
140
1.0
102
RTVSPost2010PropOp39
 70
     1
102
RTVSPost2010Prop40
 90
        0
102
RTVSPost2010PropOp40
 70
     1
102
RTVSPost2010Prop41ColorIndex
 90
       18
102
RTVSPost2010Prop41ColorRGB
 90
        0
102
RTVSPost2010PropOp41
 70
     1
102
RTVSPost2010Prop42
 90
       50
102
RTVSPost2010PropOp42
 70
     1
102
RTVSPost2010Prop43
 90
        3
102
RTVSPost2010PropOp43
 70
     1
102
RTVSPost2010Prop44ColorIndex
 90
        5
102
RTVSPost2010Prop44ColorRGB
 90
      255
102
RTVSPost2010PropOp44
 70
     1
102
RTVSPost2010Prop45
280
     0
102
RTVSPost2010PropOp45
 70
     1
102
RTVSPost2010Prop46
 90
       50
102
RTVSPost2010PropOp46
 70
     1
102
RTVSPost2010Prop47
 90
       50
102
RTVSPost2010PropOp47
 70
     1
102
RTVSPost2010Prop48
 90
       50
102
RTVSPost2010PropOp48
 70
     1
102
RTVSPost2010Prop49
280
     0
102
RTVSPost2010PropOp49
 70
     1
102
RTVSPost2010Prop50
 90
       50
102
RTVSPost2010PropOp50
 70
     1
102
RTVSPost2010Prop51ColorIndex
 90
      256
102
RTVSPost2010Prop51ColorRGB
 90
-16777216
102
RTVSPost2010PropOp51
 70
     0
102
RTVSPost2010Prop52
140
1.0
102
RTVSPost2010PropOp52
 70
     0
102
RTVSPost2010Prop53
 90
        2
102
RTVSPost2010PropOp53
 70
     1
102
RTVSPost2010Prop54
  1
strokes_ogs.tif
102
RTVSPost2010PropOp54
 70
     1
102
RTVSPost2010Prop55
280
     0
102
RTVSPost2010PropOp55
 70
     1
102
RTVSPost2010Prop56
140
1.0
102
RTVSPost2010PropOp56
 70
     1
102
RTVSPost2010Prop57
140
1.0
102
RTVSPost2010PropOp57
 70
     1
102
RTVSPropertyOp0
 70
     1
102
RTVSPropertyOp1
 70
     1
102
RTVSPropertyOp2
 70
     1
102
RTVSPropertyOp3
 70
     1
102
RTVSPropertyOp4
 70
     1
102
RTVSPropertyOp5
 70
     1
102
RTVSPropertyOp6
 70
     1
102
RTVSPropertyOp7
 70
     1
102
RTVSPropertyOp8
 70
     1
102
RTVSPropertyOp9
 70
     1
102
RTVSPropertyOp10
 70
     1
102
RTVSPropertyOp11
 70
     1
102
RTVSPropertyOp12
 70
     1
102
RTVSPropertyOp13
 70
     1
102
RTVSPropertyOp14
 70
     1
102
RTVSPropertyOp15
 70
     1
102
RTVSPropertyOp16
 70
     1
102
RTVSPropertyOp17
 70
     1
102
RTVSPropertyOp18
 70
     1
102
RTVSPropertyOp19
 70
     1
102
RTVSPropertyOp20
 70
     1
102
RTVSPropertyOp21
 70
     1
102
RTVSPropertyOp22
 70
     1
102
RTVSPropertyOp23
 70
     1
102
RTVSPropertyOp24
 70
     1
102
RTVSPropertyOp25
 70
     1
102
RTVSPropertyOp26
 70
     1
102
RTVSPropertyOp27
 70
     1
102
RTVSPropertyOp28
 70
     1
102
RTVSPropertyOp29
 70
     1
102
RTVSPropertyOp30
 70
     1
102
RTVSPropertyOp31
 70
     1
102
RTVSPropertyOp32
 70
     1
102
RTVSPropertyOp33
 70
     1
102
RTVSPropertyOp34
 70
     1
102
RTVSPropertyOp35
 70
     1
102
RTVSPropertyOp36
 70
     1
102
RTVSPropertyOp37
 70
     1
102
RTVSPropertyOp38
 70
     1
102
RTVSPropertyOp39
 70
     1
102
RTVSPropertyOp40
 70
     1
102
RTVSPropertyOp41
 70
     1
102
RTVSPropertyOp42
 70
     1
102
RTVSPropertyOp43
 70
     1
102
RTVSPropertyOp44
 70
     1
102
RTVSPropertyOp45
 70
     1
102
RTVSPropertyOp46
 70
     1
102
RTVSPropertyOp47
 70
     1
102
RTVSPropertyOp48
 70
     1
102
RTVSPropertyOp49
 70
     1
102
RTVSPropertyOp50
 70
     1
102
RTVSPropertyOp51
 70
     0
102
RTVSPropertyOp52
 70
     0
102
RTVSPropertyOp53
 70
     1
102
RTVSPropertyOp54
 70
     1
102
RTVSPropertyOp55
 70
     1
102
RTVSPropertyOp56
 70
     1
102
RTVSPropertyOp57
 70
     1
102
RTVSPropertyOp58
 70
     1
102
RTVSPropertyOp59
 70
     1
102
RTVSPropertyOp60
 70
     1
102
RTVSPropertyOp61
 70
     1
102
RTVSPropertyOp62
 70
     1
  0
XRECORD
  5
C0C2
102
{ACAD_REACTORS
330
C0C1
102
}
330
C0C1
100
AcDbXrecord
280
     1
102
RTVSPost2010Prop28
280
     0
102
RTVSPost2010PropOp28
 70
     1
102
RTVSPost2010Prop29
280
     1
102
RTVSPost2010PropOp29
 70
     1
102
RTVSPost2010Prop30
280
     1
102
RTVSPost2010PropOp30
 70
     1
102
RTVSPost2010Prop31
280
     0
102
RTVSPost2010PropOp31
 70
     1
102
RTVSPost2010Prop32
280
     0
102
RTVSPost2010PropOp32
 70
     1
102
RTVSPost2010Prop33
280
     0
102
RTVSPost2010PropOp33
 70
     1
102
RTVSPost2010Prop34
280
     0
102
RTVSPost2010PropOp34
 70
     1
102
RTVSPost2010Prop35
280
     0
102
RTVSPost2010PropOp35
 70
     1
102
RTVSPost2010Prop36
280
     0
102
RTVSPost2010PropOp36
 70
     1
102
RTVSPost2010Prop37
 90
       50
102
RTVSPost2010PropOp37
 70
     1
102
RTVSPost2010Prop38
140
0.0
102
RTVSPost2010PropOp38
 70
     1
102
RTVSPost2010Prop39
140
1.0
102
RTVSPost2010PropOp39
 70
     1
102
RTVSPost2010Prop40
 90
        0
102
RTVSPost2010PropOp40
 70
     1
102
RTVSPost2010Prop41ColorIndex
 90
       18
102
RTVSPost2010Prop41ColorRGB
 90
        0
102
RTVSPost2010PropOp41
 70
     1
102
RTVSPost2010Prop42
 90
       50
102
RTVSPost2010PropOp42
 70
     1
102
RTVSPost2010Prop43
 90
        3
102
RTVSPost2010PropOp43
 70
     1
102
RTVSPost2010Prop44ColorIndex
 90
        5
102
RTVSPost2010Prop44ColorRGB
 90
      255
102
RTVSPost2010PropOp44
 70
     1
102
RTVSPost2010Prop45
280
     0
102
RTVSPost2010PropOp45
 70
     1
102
RTVSPost2010Prop46
 90
       50
102
RTVSPost2010PropOp46
 70
     1
102
RTVSPost2010Prop47
 90
       50
102
RTVSPost2010PropOp47
 70
     1
102
RTVSPost2010Prop48
 90
       50
102
RTVSPost2010PropOp48
 70
     1
102
RTVSPost2010Prop49
280
     0
102
RTVSPost2010PropOp49
 70
     1
102
RTVSPost2010Prop50
 90
       50
102
RTVSPost2010PropOp50
 70
     1
102
RTVSPost2010Prop51ColorIndex
 90
      256
102
RTVSPost2010Prop51ColorRGB
 90
-16777216
102
RTVSPost2010PropOp51
 70
     0
102
RTVSPost2010Prop52
140
1.0
102
RTVSPost2010PropOp52
 70
     0
102
RTVSPost2010Prop53
 90
        2
102
RTVSPost2010PropOp53
 70
     1
102
RTVSPost2010Prop54
  1
strokes_ogs.tif
102
RTVSPost2010PropOp54
 70
     1
102
RTVSPost2010Prop55
280
     0
102
RTVSPost2010PropOp55
 70
     1
102
RTVSPost2010Prop56
140
1.0
102
RTVSPost2010PropOp56
 70
     1
102
RTVSPost2010Prop57
140
1.0
102
RTVSPost2010PropOp57
 70
     1
102
RTVSPropertyOp0
 70
     1
102
RTVSPropertyOp1
 70
     1
102
RTVSPropertyOp2
 70
     1
102
RTVSPropertyOp3
 70
     1
102
RTVSPropertyOp4
 70
     1
102
RTVSPropertyOp5
 70
     1
102
RTVSPropertyOp6
 70
     1
102
RTVSPropertyOp7
 70
     1
102
RTVSPropertyOp8
 70
     1
102
RTVSPropertyOp9
 70
     1
102
RTVSPropertyOp10
 70
     1
102
RTVSPropertyOp11
 70
     1
102
RTVSPropertyOp12
 70
     1
102
RTVSPropertyOp13
 70
     1
102
RTVSPropertyOp14
 70
     1
102
RTVSPropertyOp15
 70
     1
102
RTVSPropertyOp16
 70
     1
102
RTVSPropertyOp17
 70
     1
102
RTVSPropertyOp18
 70
     1
102
RTVSPropertyOp19
 70
     1
102
RTVSPropertyOp20
 70
     1
102
RTVSPropertyOp21
 70
     1
102
RTVSPropertyOp22
 70
     1
102
RTVSPropertyOp23
 70
     1
102
RTVSPropertyOp24
 70
     1
102
RTVSPropertyOp25
 70
     1
102
RTVSPropertyOp26
 70
     1
102
RTVSPropertyOp27
 70
     1
102
RTVSPropertyOp28
 70
     1
102
RTVSPropertyOp29
 70
     1
102
RTVSPropertyOp30
 70
     1
102
RTVSPropertyOp31
 70
     1
102
RTVSPropertyOp32
 70
     1
102
RTVSPropertyOp33
 70
     1
102
RTVSPropertyOp34
 70
     1
102
RTVSPropertyOp35
 70
     1
102
RTVSPropertyOp36
 70
     1
102
RTVSPropertyOp37
 70
     1
102
RTVSPropertyOp38
 70
     1
102
RTVSPropertyOp39
 70
     1
102
RTVSPropertyOp40
 70
     1
102
RTVSPropertyOp41
 70
     1
102
RTVSPropertyOp42
 70
     1
102
RTVSPropertyOp43
 70
     1
102
RTVSPropertyOp44
 70
     1
102
RTVSPropertyOp45
 70
     1
102
RTVSPropertyOp46
 70
     1
102
RTVSPropertyOp47
 70
     1
102
RTVSPropertyOp48
 70
     1
102
RTVSPropertyOp49
 70
     1
102
RTVSPropertyOp50
 70
     1
102
RTVSPropertyOp51
 70
     0
102
RTVSPropertyOp52
 70
     0
102
RTVSPropertyOp53
 70
     1
102
RTVSPropertyOp54
 70
     1
102
RTVSPropertyOp55
 70
     1
102
RTVSPropertyOp56
 70
     1
102
RTVSPropertyOp57
 70
     1
102
RTVSPropertyOp58
 70
     1
102
RTVSPropertyOp59
 70
     1
102
RTVSPropertyOp60
 70
     1
102
RTVSPropertyOp61
 70
     1
102
RTVSPropertyOp62
 70
     1
  0
XRECORD
  5
C0DE
102
{ACAD_REACTORS
330
C0DD
102
}
330
C0DD
100
AcDbXrecord
280
     1
102
RTVSPost2010Prop28
280
     0
102
RTVSPost2010PropOp28
 70
     1
102
RTVSPost2010Prop29
280
     1
102
RTVSPost2010PropOp29
 70
     1
102
RTVSPost2010Prop30
280
     1
102
RTVSPost2010PropOp30
 70
     1
102
RTVSPost2010Prop31
280
     0
102
RTVSPost2010PropOp31
 70
     1
102
RTVSPost2010Prop32
280
     0
102
RTVSPost2010PropOp32
 70
     1
102
RTVSPost2010Prop33
280
     0
102
RTVSPost2010PropOp33
 70
     1
102
RTVSPost2010Prop34
280
     0
102
RTVSPost2010PropOp34
 70
     1
102
RTVSPost2010Prop35
280
     0
102
RTVSPost2010PropOp35
 70
     1
102
RTVSPost2010Prop36
280
     0
102
RTVSPost2010PropOp36
 70
     1
102
RTVSPost2010Prop37
 90
       50
102
RTVSPost2010PropOp37
 70
     0
102
RTVSPost2010Prop38
140
0.0
102
RTVSPost2010PropOp38
 70
     0
102
RTVSPost2010Prop39
140
1.0
102
RTVSPost2010PropOp39
 70
     0
102
RTVSPost2010Prop40
 90
        0
102
RTVSPost2010PropOp40
 70
     0
102
RTVSPost2010Prop41ColorIndex
 90
       18
102
RTVSPost2010Prop41ColorRGB
 90
        0
102
RTVSPost2010PropOp41
 70
     0
102
RTVSPost2010Prop42
 90
       50
102
RTVSPost2010PropOp42
 70
     0
102
RTVSPost2010Prop43
 90
        3
102
RTVSPost2010PropOp43
 70
     0
102
RTVSPost2010Prop44ColorIndex
 90
        5
102
RTVSPost2010Prop44ColorRGB
 90
      255
102
RTVSPost2010PropOp44
 70
     0
102
RTVSPost2010Prop45
280
     0
102
RTVSPost2010PropOp45
 70
     1
102
RTVSPost2010Prop46
 90
       50
102
RTVSPost2010PropOp46
 70
     0
102
RTVSPost2010Prop47
 90
       50
102
RTVSPost2010PropOp47
 70
     0
102
RTVSPost2010Prop48
 90
       50
102
RTVSPost2010PropOp48
 70
     0
102
RTVSPost2010Prop49
280
     0
102
RTVSPost2010PropOp49
 70
     1
102
RTVSPost2010Prop50
 90
       50
102
RTVSPost2010PropOp50
 70
     0
102
RTVSPost2010Prop51ColorIndex
 90
      256
102
RTVSPost2010Prop51ColorRGB
 90
-16777216
102
RTVSPost2010PropOp51
 70
     0
102
RTVSPost2010Prop52
140
1.0
102
RTVSPost2010PropOp52
 70
     0
102
RTVSPost2010Prop53
 90
        2
102
RTVSPost2010PropOp53
 70
     0
102
RTVSPost2010Prop54
  1
strokes_ogs.tif
102
RTVSPost2010PropOp54
 70
     0
102
RTVSPost2010Prop55
280
     0
102
RTVSPost2010PropOp55
 70
     1
102
RTVSPost2010Prop56
140
1.0
102
RTVSPost2010PropOp56
 70
     0
102
RTVSPost2010Prop57
140
1.0
102
RTVSPost2010PropOp57
 70
     0
102
RTVSPropertyOp0
 70
     0
102
RTVSPropertyOp1
 70
     0
102
RTVSPropertyOp2
 70
     0
102
RTVSPropertyOp3
 70
     0
102
RTVSPropertyOp4
 70
     0
102
RTVSPropertyOp5
 70
     0
102
RTVSPropertyOp6
 70
     0
102
RTVSPropertyOp7
 70
     0
102
RTVSPropertyOp8
 70
     0
102
RTVSPropertyOp9
 70
     0
102
RTVSPropertyOp10
 70
     0
102
RTVSPropertyOp11
 70
     0
102
RTVSPropertyOp12
 70
     0
102
RTVSPropertyOp13
 70
     0
102
RTVSPropertyOp14
 70
     2
102
RTVSPropertyOp15
 70
     0
102
RTVSPropertyOp16
 70
     0
102
RTVSPropertyOp17
 70
     0
102
RTVSPropertyOp18
 70
     0
102
RTVSPropertyOp19
 70
     0
102
RTVSPropertyOp20
 70
     0
102
RTVSPropertyOp21
 70
     0
102
RTVSPropertyOp22
 70
     0
102
RTVSPropertyOp23
 70
     0
102
RTVSPropertyOp24
 70
     0
102
RTVSPropertyOp25
 70
     0
102
RTVSPropertyOp26
 70
     0
102
RTVSPropertyOp27
 70
     0
102
RTVSPropertyOp28
 70
     1
102
RTVSPropertyOp29
 70
     1
102
RTVSPropertyOp30
 70
     1
102
RTVSPropertyOp31
 70
     1
102
RTVSPropertyOp32
 70
     1
102
RTVSPropertyOp33
 70
     1
102
RTVSPropertyOp34
 70
     1
102
RTVSPropertyOp35
 70
     1
102
RTVSPropertyOp36
 70
     1
102
RTVSPropertyOp37
 70
     0
102
RTVSPropertyOp38
 70
     0
102
RTVSPropertyOp39
 70
     0
102
RTVSPropertyOp40
 70
     0
102
RTVSPropertyOp41
 70
     0
102
RTVSPropertyOp42
 70
     0
102
RTVSPropertyOp43
 70
     0
102
RTVSPropertyOp44
 70
     0
102
RTVSPropertyOp45
 70
     1
102
RTVSPropertyOp46
 70
     0
102
RTVSPropertyOp47
 70
     0
102
RTVSPropertyOp48
 70
     0
102
RTVSPropertyOp49
 70
     1
102
RTVSPropertyOp50
 70
     0
102
RTVSPropertyOp51
 70
     0
102
RTVSPropertyOp52
 70
     0
102
RTVSPropertyOp53
 70
     0
102
RTVSPropertyOp54
 70
     0
102
RTVSPropertyOp55
 70
     1
102
RTVSPropertyOp56
 70
     0
102
RTVSPropertyOp57
 70
     0
102
RTVSPropertyOp58
 70
     0
102
RTVSPropertyOp59
 70
     0
102
RTVSPropertyOp60
 70
     0
102
RTVSPropertyOp61
 70
     0
102
RTVSPropertyOp62
 70
     0
  0
XRECORD
  5
C0CE
102
{ACAD_REACTORS
330
C0CD
102
}
330
C0CD
100
AcDbXrecord
280
     1
102
RTVSPost2010Prop28
280
     0
102
RTVSPost2010PropOp28
 70
     1
102
RTVSPost2010Prop29
280
     1
102
RTVSPost2010PropOp29
 70
     1
102
RTVSPost2010Prop30
280
     1
102
RTVSPost2010PropOp30
 70
     1
102
RTVSPost2010Prop31
280
     0
102
RTVSPost2010PropOp31
 70
     1
102
RTVSPost2010Prop32
280
     0
102
RTVSPost2010PropOp32
 70
     1
102
RTVSPost2010Prop33
280
     0
102
RTVSPost2010PropOp33
 70
     1
102
RTVSPost2010Prop34
280
     0
102
RTVSPost2010PropOp34
 70
     1
102
RTVSPost2010Prop35
280
     0
102
RTVSPost2010PropOp35
 70
     1
102
RTVSPost2010Prop36
280
     0
102
RTVSPost2010PropOp36
 70
     1
102
RTVSPost2010Prop37
 90
       50
102
RTVSPost2010PropOp37
 70
     1
102
RTVSPost2010Prop38
140
0.0
102
RTVSPost2010PropOp38
 70
     1
102
RTVSPost2010Prop39
140
1.0
102
RTVSPost2010PropOp39
 70
     1
102
RTVSPost2010Prop40
 90
        0
102
RTVSPost2010PropOp40
 70
     1
102
RTVSPost2010Prop41ColorIndex
 90
       18
102
RTVSPost2010Prop41ColorRGB
 90
        0
102
RTVSPost2010PropOp41
 70
     1
102
RTVSPost2010Prop42
 90
       50
102
RTVSPost2010PropOp42
 70
     1
102
RTVSPost2010Prop43
 90
        3
102
RTVSPost2010PropOp43
 70
     1
102
RTVSPost2010Prop44ColorIndex
 90
        5
102
RTVSPost2010Prop44ColorRGB
 90
      255
102
RTVSPost2010PropOp44
 70
     1
102
RTVSPost2010Prop45
280
     0
102
RTVSPost2010PropOp45
 70
     1
102
RTVSPost2010Prop46
 90
       50
102
RTVSPost2010PropOp46
 70
     1
102
RTVSPost2010Prop47
 90
       50
102
RTVSPost2010PropOp47
 70
     1
102
RTVSPost2010Prop48
 90
       50
102
RTVSPost2010PropOp48
 70
     1
102
RTVSPost2010Prop49
280
     0
102
RTVSPost2010PropOp49
 70
     1
102
RTVSPost2010Prop50
 90
       50
102
RTVSPost2010PropOp50
 70
     1
102
RTVSPost2010Prop51ColorIndex
 90
      256
102
RTVSPost2010Prop51ColorRGB
 90
-16777216
102
RTVSPost2010PropOp51
 70
     0
102
RTVSPost2010Prop52
140
1.0
102
RTVSPost2010PropOp52
 70
     0
102
RTVSPost2010Prop53
 90
        2
102
RTVSPost2010PropOp53
 70
     1
102
RTVSPost2010Prop54
  1
strokes_ogs.tif
102
RTVSPost2010PropOp54
 70
     1
102
RTVSPost2010Prop55
280
     0
102
RTVSPost2010PropOp55
 70
     1
102
RTVSPost2010Prop56
140
1.0
102
RTVSPost2010PropOp56
 70
     1
102
RTVSPost2010Prop57
140
1.0
102
RTVSPost2010PropOp57
 70
     1
102
RTVSPropertyOp0
 70
     1
102
RTVSPropertyOp1
 70
     1
102
RTVSPropertyOp2
 70
     1
102
RTVSPropertyOp3
 70
     1
102
RTVSPropertyOp4
 70
     1
102
RTVSPropertyOp5
 70
     1
102
RTVSPropertyOp6
 70
     1
102
RTVSPropertyOp7
 70
     1
102
RTVSPropertyOp8
 70
     1
102
RTVSPropertyOp9
 70
     1
102
RTVSPropertyOp10
 70
     1
102
RTVSPropertyOp11
 70
     1
102
RTVSPropertyOp12
 70
     1
102
RTVSPropertyOp13
 70
     1
102
RTVSPropertyOp14
 70
     1
102
RTVSPropertyOp15
 70
     1
102
RTVSPropertyOp16
 70
     1
102
RTVSPropertyOp17
 70
     1
102
RTVSPropertyOp18
 70
     1
102
RTVSPropertyOp19
 70
     1
102
RTVSPropertyOp20
 70
     1
102
RTVSPropertyOp21
 70
     1
102
RTVSPropertyOp22
 70
     1
102
RTVSPropertyOp23
 70
     1
102
RTVSPropertyOp24
 70
     1
102
RTVSPropertyOp25
 70
     1
102
RTVSPropertyOp26
 70
     1
102
RTVSPropertyOp27
 70
     1
102
RTVSPropertyOp28
 70
     1
102
RTVSPropertyOp29
 70
     1
102
RTVSPropertyOp30
 70
     1
102
RTVSPropertyOp31
 70
     1
102
RTVSPropertyOp32
 70
     1
102
RTVSPropertyOp33
 70
     1
102
RTVSPropertyOp34
 70
     1
102
RTVSPropertyOp35
 70
     1
102
RTVSPropertyOp36
 70
     1
102
RTVSPropertyOp37
 70
     1
102
RTVSPropertyOp38
 70
     1
102
RTVSPropertyOp39
 70
     1
102
RTVSPropertyOp40
 70
     1
102
RTVSPropertyOp41
 70
     1
102
RTVSPropertyOp42
 70
     1
102
RTVSPropertyOp43
 70
     1
102
RTVSPropertyOp44
 70
     1
102
RTVSPropertyOp45
 70
     1
102
RTVSPropertyOp46
 70
     1
102
RTVSPropertyOp47
 70
     1
102
RTVSPropertyOp48
 70
     1
102
RTVSPropertyOp49
 70
     1
102
RTVSPropertyOp50
 70
     1
102
RTVSPropertyOp51
 70
     0
102
RTVSPropertyOp52
 70
     0
102
RTVSPropertyOp53
 70
     1
102
RTVSPropertyOp54
 70
     1
102
RTVSPropertyOp55
 70
     1
102
RTVSPropertyOp56
 70
     1
102
RTVSPropertyOp57
 70
     1
102
RTVSPropertyOp58
 70
     1
102
RTVSPropertyOp59
 70
     1
102
RTVSPropertyOp60
 70
     1
102
RTVSPropertyOp61
 70
     1
102
RTVSPropertyOp62
 70
     1
  0
XRECORD
  5
C0E0
102
{ACAD_REACTORS
330
C0DF
102
}
330
C0DF
100
AcDbXrecord
280
     1
102
RTVSPost2010Prop28
280
     0
102
RTVSPost2010PropOp28
 70
     1
102
RTVSPost2010Prop29
280
     1
102
RTVSPost2010PropOp29
 70
     1
102
RTVSPost2010Prop30
280
     1
102
RTVSPost2010PropOp30
 70
     1
102
RTVSPost2010Prop31
280
     0
102
RTVSPost2010PropOp31
 70
     1
102
RTVSPost2010Prop32
280
     0
102
RTVSPost2010PropOp32
 70
     1
102
RTVSPost2010Prop33
280
     0
102
RTVSPost2010PropOp33
 70
     1
102
RTVSPost2010Prop34
280
     0
102
RTVSPost2010PropOp34
 70
     1
102
RTVSPost2010Prop35
280
     0
102
RTVSPost2010PropOp35
 70
     1
102
RTVSPost2010Prop36
280
     0
102
RTVSPost2010PropOp36
 70
     1
102
RTVSPost2010Prop37
 90
       50
102
RTVSPost2010PropOp37
 70
     0
102
RTVSPost2010Prop38
140
0.0
102
RTVSPost2010PropOp38
 70
     0
102
RTVSPost2010Prop39
140
1.0
102
RTVSPost2010PropOp39
 70
     0
102
RTVSPost2010Prop40
 90
        0
102
RTVSPost2010PropOp40
 70
     0
102
RTVSPost2010Prop41ColorIndex
 90
       18
102
RTVSPost2010Prop41ColorRGB
 90
        0
102
RTVSPost2010PropOp41
 70
     0
102
RTVSPost2010Prop42
 90
       50
102
RTVSPost2010PropOp42
 70
     0
102
RTVSPost2010Prop43
 90
        3
102
RTVSPost2010PropOp43
 70
     0
102
RTVSPost2010Prop44ColorIndex
 90
        5
102
RTVSPost2010Prop44ColorRGB
 90
      255
102
RTVSPost2010PropOp44
 70
     0
102
RTVSPost2010Prop45
280
     0
102
RTVSPost2010PropOp45
 70
     1
102
RTVSPost2010Prop46
 90
       50
102
RTVSPost2010PropOp46
 70
     0
102
RTVSPost2010Prop47
 90
       50
102
RTVSPost2010PropOp47
 70
     0
102
RTVSPost2010Prop48
 90
       50
102
RTVSPost2010PropOp48
 70
     0
102
RTVSPost2010Prop49
280
     0
102
RTVSPost2010PropOp49
 70
     1
102
RTVSPost2010Prop50
 90
       50
102
RTVSPost2010PropOp50
 70
     0
102
RTVSPost2010Prop51ColorIndex
 90
      256
102
RTVSPost2010Prop51ColorRGB
 90
-16777216
102
RTVSPost2010PropOp51
 70
     0
102
RTVSPost2010Prop52
140
1.0
102
RTVSPost2010PropOp52
 70
     0
102
RTVSPost2010Prop53
 90
        2
102
RTVSPost2010PropOp53
 70
     0
102
RTVSPost2010Prop54
  1
strokes_ogs.tif
102
RTVSPost2010PropOp54
 70
     0
102
RTVSPost2010Prop55
280
     0
102
RTVSPost2010PropOp55
 70
     1
102
RTVSPost2010Prop56
140
1.0
102
RTVSPost2010PropOp56
 70
     0
102
RTVSPost2010Prop57
140
1.0
102
RTVSPost2010PropOp57
 70
     0
102
RTVSPropertyOp0
 70
     0
102
RTVSPropertyOp1
 70
     0
102
RTVSPropertyOp2
 70
     0
102
RTVSPropertyOp3
 70
     0
102
RTVSPropertyOp4
 70
     0
102
RTVSPropertyOp5
 70
     0
102
RTVSPropertyOp6
 70
     0
102
RTVSPropertyOp7
 70
     0
102
RTVSPropertyOp8
 70
     0
102
RTVSPropertyOp9
 70
     0
102
RTVSPropertyOp10
 70
     0
102
RTVSPropertyOp11
 70
     0
102
RTVSPropertyOp12
 70
     0
102
RTVSPropertyOp13
 70
     0
102
RTVSPropertyOp14
 70
     2
102
RTVSPropertyOp15
 70
     0
102
RTVSPropertyOp16
 70
     0
102
RTVSPropertyOp17
 70
     0
102
RTVSPropertyOp18
 70
     0
102
RTVSPropertyOp19
 70
     0
102
RTVSPropertyOp20
 70
     0
102
RTVSPropertyOp21
 70
     0
102
RTVSPropertyOp22
 70
     0
102
RTVSPropertyOp23
 70
     0
102
RTVSPropertyOp24
 70
     0
102
RTVSPropertyOp25
 70
     0
102
RTVSPropertyOp26
 70
     0
102
RTVSPropertyOp27
 70
     0
102
RTVSPropertyOp28
 70
     1
102
RTVSPropertyOp29
 70
     1
102
RTVSPropertyOp30
 70
     1
102
RTVSPropertyOp31
 70
     1
102
RTVSPropertyOp32
 70
     1
102
RTVSPropertyOp33
 70
     1
102
RTVSPropertyOp34
 70
     1
102
RTVSPropertyOp35
 70
     1
102
RTVSPropertyOp36
 70
     1
102
RTVSPropertyOp37
 70
     0
102
RTVSPropertyOp38
 70
     0
102
RTVSPropertyOp39
 70
     0
102
RTVSPropertyOp40
 70
     0
102
RTVSPropertyOp41
 70
     0
102
RTVSPropertyOp42
 70
     0
102
RTVSPropertyOp43
 70
     0
102
RTVSPropertyOp44
 70
     0
102
RTVSPropertyOp45
 70
     1
102
RTVSPropertyOp46
 70
     0
102
RTVSPropertyOp47
 70
     0
102
RTVSPropertyOp48
 70
     0
102
RTVSPropertyOp49
 70
     1
102
RTVSPropertyOp50
 70
     0
102
RTVSPropertyOp51
 70
     0
102
RTVSPropertyOp52
 70
     0
102
RTVSPropertyOp53
 70
     0
102
RTVSPropertyOp54
 70
     0
102
RTVSPropertyOp55
 70
     1
102
RTVSPropertyOp56
 70
     0
102
RTVSPropertyOp57
 70
     0
102
RTVSPropertyOp58
 70
     0
102
RTVSPropertyOp59
 70
     0
102
RTVSPropertyOp60
 70
     0
102
RTVSPropertyOp61
 70
     0
102
RTVSPropertyOp62
 70
     0
  0
XRECORD
  5
C0C6
102
{ACAD_REACTORS
330
C0C5
102
}
330
C0C5
100
AcDbXrecord
280
     1
102
RTVSPost2010Prop28
280
     0
102
RTVSPost2010PropOp28
 70
     1
102
RTVSPost2010Prop29
280
     1
102
RTVSPost2010PropOp29
 70
     1
102
RTVSPost2010Prop30
280
     1
102
RTVSPost2010PropOp30
 70
     1
102
RTVSPost2010Prop31
280
     0
102
RTVSPost2010PropOp31
 70
     1
102
RTVSPost2010Prop32
280
     0
102
RTVSPost2010PropOp32
 70
     1
102
RTVSPost2010Prop33
280
     0
102
RTVSPost2010PropOp33
 70
     1
102
RTVSPost2010Prop34
280
     0
102
RTVSPost2010PropOp34
 70
     1
102
RTVSPost2010Prop35
280
     0
102
RTVSPost2010PropOp35
 70
     1
102
RTVSPost2010Prop36
280
     0
102
RTVSPost2010PropOp36
 70
     1
102
RTVSPost2010Prop37
 90
       50
102
RTVSPost2010PropOp37
 70
     1
102
RTVSPost2010Prop38
140
0.0
102
RTVSPost2010PropOp38
 70
     1
102
RTVSPost2010Prop39
140
1.0
102
RTVSPost2010PropOp39
 70
     1
102
RTVSPost2010Prop40
 90
        0
102
RTVSPost2010PropOp40
 70
     1
102
RTVSPost2010Prop41ColorIndex
 90
       18
102
RTVSPost2010Prop41ColorRGB
 90
        0
102
RTVSPost2010PropOp41
 70
     1
102
RTVSPost2010Prop42
 90
       50
102
RTVSPost2010PropOp42
 70
     1
102
RTVSPost2010Prop43
 90
        3
102
RTVSPost2010PropOp43
 70
     1
102
RTVSPost2010Prop44ColorIndex
 90
        5
102
RTVSPost2010Prop44ColorRGB
 90
      255
102
RTVSPost2010PropOp44
 70
     1
102
RTVSPost2010Prop45
280
     0
102
RTVSPost2010PropOp45
 70
     1
102
RTVSPost2010Prop46
 90
       50
102
RTVSPost2010PropOp46
 70
     1
102
RTVSPost2010Prop47
 90
       50
102
RTVSPost2010PropOp47
 70
     1
102
RTVSPost2010Prop48
 90
       50
102
RTVSPost2010PropOp48
 70
     1
102
RTVSPost2010Prop49
280
     0
102
RTVSPost2010PropOp49
 70
     1
102
RTVSPost2010Prop50
 90
       50
102
RTVSPost2010PropOp50
 70
     1
102
RTVSPost2010Prop51ColorIndex
 90
      256
102
RTVSPost2010Prop51ColorRGB
 90
-16777216
102
RTVSPost2010PropOp51
 70
     0
102
RTVSPost2010Prop52
140
1.0
102
RTVSPost2010PropOp52
 70
     0
102
RTVSPost2010Prop53
 90
        2
102
RTVSPost2010PropOp53
 70
     1
102
RTVSPost2010Prop54
  1
strokes_ogs.tif
102
RTVSPost2010PropOp54
 70
     1
102
RTVSPost2010Prop55
280
     0
102
RTVSPost2010PropOp55
 70
     1
102
RTVSPost2010Prop56
140
1.0
102
RTVSPost2010PropOp56
 70
     1
102
RTVSPost2010Prop57
140
1.0
102
RTVSPost2010PropOp57
 70
     1
102
RTVSPropertyOp0
 70
     1
102
RTVSPropertyOp1
 70
     1
102
RTVSPropertyOp2
 70
     1
102
RTVSPropertyOp3
 70
     1
102
RTVSPropertyOp4
 70
     1
102
RTVSPropertyOp5
 70
     1
102
RTVSPropertyOp6
 70
     1
102
RTVSPropertyOp7
 70
     1
102
RTVSPropertyOp8
 70
     1
102
RTVSPropertyOp9
 70
     1
102
RTVSPropertyOp10
 70
     1
102
RTVSPropertyOp11
 70
     1
102
RTVSPropertyOp12
 70
     1
102
RTVSPropertyOp13
 70
     1
102
RTVSPropertyOp14
 70
     1
102
RTVSPropertyOp15
 70
     1
102
RTVSPropertyOp16
 70
     1
102
RTVSPropertyOp17
 70
     1
102
RTVSPropertyOp18
 70
     1
102
RTVSPropertyOp19
 70
     1
102
RTVSPropertyOp20
 70
     1
102
RTVSPropertyOp21
 70
     1
102
RTVSPropertyOp22
 70
     1
102
RTVSPropertyOp23
 70
     1
102
RTVSPropertyOp24
 70
     1
102
RTVSPropertyOp25
 70
     1
102
RTVSPropertyOp26
 70
     1
102
RTVSPropertyOp27
 70
     1
102
RTVSPropertyOp28
 70
     1
102
RTVSPropertyOp29
 70
     1
102
RTVSPropertyOp30
 70
     1
102
RTVSPropertyOp31
 70
     1
102
RTVSPropertyOp32
 70
     1
102
RTVSPropertyOp33
 70
     1
102
RTVSPropertyOp34
 70
     1
102
RTVSPropertyOp35
 70
     1
102
RTVSPropertyOp36
 70
     1
102
RTVSPropertyOp37
 70
     1
102
RTVSPropertyOp38
 70
     1
102
RTVSPropertyOp39
 70
     1
102
RTVSPropertyOp40
 70
     1
102
RTVSPropertyOp41
 70
     1
102
RTVSPropertyOp42
 70
     1
102
RTVSPropertyOp43
 70
     1
102
RTVSPropertyOp44
 70
     1
102
RTVSPropertyOp45
 70
     1
102
RTVSPropertyOp46
 70
     1
102
RTVSPropertyOp47
 70
     1
102
RTVSPropertyOp48
 70
     1
102
RTVSPropertyOp49
 70
     1
102
RTVSPropertyOp50
 70
     1
102
RTVSPropertyOp51
 70
     0
102
RTVSPropertyOp52
 70
     0
102
RTVSPropertyOp53
 70
     1
102
RTVSPropertyOp54
 70
     1
102
RTVSPropertyOp55
 70
     1
102
RTVSPropertyOp56
 70
     1
102
RTVSPropertyOp57
 70
     1
102
RTVSPropertyOp58
 70
     1
102
RTVSPropertyOp59
 70
     1
102
RTVSPropertyOp60
 70
     1
102
RTVSPropertyOp61
 70
     1
102
RTVSPropertyOp62
 70
     1
  0
XRECORD
  5
C0DC
102
{ACAD_REACTORS
330
C0DB
102
}
330
C0DB
100
AcDbXrecord
280
     1
102
RTVSPost2010Prop28
280
     0
102
RTVSPost2010PropOp28
 70
     1
102
RTVSPost2010Prop29
280
     1
102
RTVSPost2010PropOp29
 70
     1
102
RTVSPost2010Prop30
280
     1
102
RTVSPost2010PropOp30
 70
     1
102
RTVSPost2010Prop31
280
     0
102
RTVSPost2010PropOp31
 70
     1
102
RTVSPost2010Prop32
280
     0
102
RTVSPost2010PropOp32
 70
     1
102
RTVSPost2010Prop33
280
     0
102
RTVSPost2010PropOp33
 70
     1
102
RTVSPost2010Prop34
280
     0
102
RTVSPost2010PropOp34
 70
     1
102
RTVSPost2010Prop35
280
     0
102
RTVSPost2010PropOp35
 70
     1
102
RTVSPost2010Prop36
280
     0
102
RTVSPost2010PropOp36
 70
     1
102
RTVSPost2010Prop37
 90
       50
102
RTVSPost2010PropOp37
 70
     1
102
RTVSPost2010Prop38
140
0.0
102
RTVSPost2010PropOp38
 70
     1
102
RTVSPost2010Prop39
140
1.0
102
RTVSPost2010PropOp39
 70
     1
102
RTVSPost2010Prop40
 90
        0
102
RTVSPost2010PropOp40
 70
     1
102
RTVSPost2010Prop41ColorIndex
 90
       18
102
RTVSPost2010Prop41ColorRGB
 90
        0
102
RTVSPost2010PropOp41
 70
     1
102
RTVSPost2010Prop42
 90
       50
102
RTVSPost2010PropOp42
 70
     1
102
RTVSPost2010Prop43
 90
        3
102
RTVSPost2010PropOp43
 70
     1
102
RTVSPost2010Prop44ColorIndex
 90
        5
102
RTVSPost2010Prop44ColorRGB
 90
      255
102
RTVSPost2010PropOp44
 70
     1
102
RTVSPost2010Prop45
280
     0
102
RTVSPost2010PropOp45
 70
     1
102
RTVSPost2010Prop46
 90
       50
102
RTVSPost2010PropOp46
 70
     1
102
RTVSPost2010Prop47
 90
       50
102
RTVSPost2010PropOp47
 70
     1
102
RTVSPost2010Prop48
 90
       50
102
RTVSPost2010PropOp48
 70
     1
102
RTVSPost2010Prop49
280
     0
102
RTVSPost2010PropOp49
 70
     1
102
RTVSPost2010Prop50
 90
       50
102
RTVSPost2010PropOp50
 70
     1
102
RTVSPost2010Prop51ColorIndex
 90
      256
102
RTVSPost2010Prop51ColorRGB
 90
-16777216
102
RTVSPost2010PropOp51
 70
     0
102
RTVSPost2010Prop52
140
1.0
102
RTVSPost2010PropOp52
 70
     0
102
RTVSPost2010Prop53
 90
        2
102
RTVSPost2010PropOp53
 70
     1
102
RTVSPost2010Prop54
  1
strokes_ogs.tif
102
RTVSPost2010PropOp54
 70
     1
102
RTVSPost2010Prop55
280
     0
102
RTVSPost2010PropOp55
 70
     1
102
RTVSPost2010Prop56
140
1.0
102
RTVSPost2010PropOp56
 70
     1
102
RTVSPost2010Prop57
140
1.0
102
RTVSPost2010PropOp57
 70
     1
102
RTVSPropertyOp0
 70
     1
102
RTVSPropertyOp1
 70
     1
102
RTVSPropertyOp2
 70
     1
102
RTVSPropertyOp3
 70
     1
102
RTVSPropertyOp4
 70
     1
102
RTVSPropertyOp5
 70
     1
102
RTVSPropertyOp6
 70
     1
102
RTVSPropertyOp7
 70
     1
102
RTVSPropertyOp8
 70
     1
102
RTVSPropertyOp9
 70
     1
102
RTVSPropertyOp10
 70
     1
102
RTVSPropertyOp11
 70
     1
102
RTVSPropertyOp12
 70
     1
102
RTVSPropertyOp13
 70
     1
102
RTVSPropertyOp14
 70
     1
102
RTVSPropertyOp15
 70
     1
102
RTVSPropertyOp16
 70
     1
102
RTVSPropertyOp17
 70
     1
102
RTVSPropertyOp18
 70
     1
102
RTVSPropertyOp19
 70
     1
102
RTVSPropertyOp20
 70
     1
102
RTVSPropertyOp21
 70
     1
102
RTVSPropertyOp22
 70
     1
102
RTVSPropertyOp23
 70
     1
102
RTVSPropertyOp24
 70
     1
102
RTVSPropertyOp25
 70
     1
102
RTVSPropertyOp26
 70
     1
102
RTVSPropertyOp27
 70
     1
102
RTVSPropertyOp28
 70
     1
102
RTVSPropertyOp29
 70
     1
102
RTVSPropertyOp30
 70
     1
102
RTVSPropertyOp31
 70
     1
102
RTVSPropertyOp32
 70
     1
102
RTVSPropertyOp33
 70
     1
102
RTVSPropertyOp34
 70
     1
102
RTVSPropertyOp35
 70
     1
102
RTVSPropertyOp36
 70
     1
102
RTVSPropertyOp37
 70
     1
102
RTVSPropertyOp38
 70
     1
102
RTVSPropertyOp39
 70
     1
102
RTVSPropertyOp40
 70
     1
102
RTVSPropertyOp41
 70
     1
102
RTVSPropertyOp42
 70
     1
102
RTVSPropertyOp43
 70
     1
102
RTVSPropertyOp44
 70
     1
102
RTVSPropertyOp45
 70
     1
102
RTVSPropertyOp46
 70
     1
102
RTVSPropertyOp47
 70
     1
102
RTVSPropertyOp48
 70
     1
102
RTVSPropertyOp49
 70
     1
102
RTVSPropertyOp50
 70
     1
102
RTVSPropertyOp51
 70
     0
102
RTVSPropertyOp52
 70
     0
102
RTVSPropertyOp53
 70
     1
102
RTVSPropertyOp54
 70
     1
102
RTVSPropertyOp55
 70
     1
102
RTVSPropertyOp56
 70
     1
102
RTVSPropertyOp57
 70
     1
102
RTVSPropertyOp58
 70
     1
102
RTVSPropertyOp59
 70
     1
102
RTVSPropertyOp60
 70
     1
102
RTVSPropertyOp61
 70
     1
102
RTVSPropertyOp62
 70
     1
  0
XRECORD
  5
C0DA
102
{ACAD_REACTORS
330
C0D9
102
}
330
C0D9
100
AcDbXrecord
280
     1
102
RTVSPost2010Prop28
280
     0
102
RTVSPost2010PropOp28
 70
     1
102
RTVSPost2010Prop29
280
     1
102
RTVSPost2010PropOp29
 70
     1
102
RTVSPost2010Prop30
280
     1
102
RTVSPost2010PropOp30
 70
     1
102
RTVSPost2010Prop31
280
     0
102
RTVSPost2010PropOp31
 70
     1
102
RTVSPost2010Prop32
280
     0
102
RTVSPost2010PropOp32
 70
     1
102
RTVSPost2010Prop33
280
     0
102
RTVSPost2010PropOp33
 70
     1
102
RTVSPost2010Prop34
280
     0
102
RTVSPost2010PropOp34
 70
     1
102
RTVSPost2010Prop35
280
     0
102
RTVSPost2010PropOp35
 70
     1
102
RTVSPost2010Prop36
280
     0
102
RTVSPost2010PropOp36
 70
     1
102
RTVSPost2010Prop37
 90
       50
102
RTVSPost2010PropOp37
 70
     1
102
RTVSPost2010Prop38
140
0.0
102
RTVSPost2010PropOp38
 70
     1
102
RTVSPost2010Prop39
140
1.0
102
RTVSPost2010PropOp39
 70
     1
102
RTVSPost2010Prop40
 90
        0
102
RTVSPost2010PropOp40
 70
     1
102
RTVSPost2010Prop41ColorIndex
 90
       18
102
RTVSPost2010Prop41ColorRGB
 90
        0
102
RTVSPost2010PropOp41
 70
     1
102
RTVSPost2010Prop42
 90
       50
102
RTVSPost2010PropOp42
 70
     1
102
RTVSPost2010Prop43
 90
        3
102
RTVSPost2010PropOp43
 70
     1
102
RTVSPost2010Prop44ColorIndex
 90
        5
102
RTVSPost2010Prop44ColorRGB
 90
      255
102
RTVSPost2010PropOp44
 70
     1
102
RTVSPost2010Prop45
280
     0
102
RTVSPost2010PropOp45
 70
     1
102
RTVSPost2010Prop46
 90
       50
102
RTVSPost2010PropOp46
 70
     1
102
RTVSPost2010Prop47
 90
       50
102
RTVSPost2010PropOp47
 70
     1
102
RTVSPost2010Prop48
 90
       50
102
RTVSPost2010PropOp48
 70
     1
102
RTVSPost2010Prop49
280
     0
102
RTVSPost2010PropOp49
 70
     1
102
RTVSPost2010Prop50
 90
       50
102
RTVSPost2010PropOp50
 70
     1
102
RTVSPost2010Prop51ColorIndex
 90
      256
102
RTVSPost2010Prop51ColorRGB
 90
-16777216
102
RTVSPost2010PropOp51
 70
     0
102
RTVSPost2010Prop52
140
1.0
102
RTVSPost2010PropOp52
 70
     0
102
RTVSPost2010Prop53
 90
        2
102
RTVSPost2010PropOp53
 70
     1
102
RTVSPost2010Prop54
  1
strokes_ogs.tif
102
RTVSPost2010PropOp54
 70
     1
102
RTVSPost2010Prop55
280
     0
102
RTVSPost2010PropOp55
 70
     1
102
RTVSPost2010Prop56
140
1.0
102
RTVSPost2010PropOp56
 70
     1
102
RTVSPost2010Prop57
140
1.0
102
RTVSPost2010PropOp57
 70
     1
102
RTVSPropertyOp0
 70
     1
102
RTVSPropertyOp1
 70
     1
102
RTVSPropertyOp2
 70
     1
102
RTVSPropertyOp3
 70
     1
102
RTVSPropertyOp4
 70
     1
102
RTVSPropertyOp5
 70
     1
102
RTVSPropertyOp6
 70
     1
102
RTVSPropertyOp7
 70
     1
102
RTVSPropertyOp8
 70
     1
102
RTVSPropertyOp9
 70
     1
102
RTVSPropertyOp10
 70
     1
102
RTVSPropertyOp11
 70
     1
102
RTVSPropertyOp12
 70
     1
102
RTVSPropertyOp13
 70
     1
102
RTVSPropertyOp14
 70
     1
102
RTVSPropertyOp15
 70
     1
102
RTVSPropertyOp16
 70
     1
102
RTVSPropertyOp17
 70
     1
102
RTVSPropertyOp18
 70
     1
102
RTVSPropertyOp19
 70
     1
102
RTVSPropertyOp20
 70
     1
102
RTVSPropertyOp21
 70
     1
102
RTVSPropertyOp22
 70
     1
102
RTVSPropertyOp23
 70
     1
102
RTVSPropertyOp24
 70
     1
102
RTVSPropertyOp25
 70
     1
102
RTVSPropertyOp26
 70
     1
102
RTVSPropertyOp27
 70
     1
102
RTVSPropertyOp28
 70
     1
102
RTVSPropertyOp29
 70
     1
102
RTVSPropertyOp30
 70
     1
102
RTVSPropertyOp31
 70
     1
102
RTVSPropertyOp32
 70
     1
102
RTVSPropertyOp33
 70
     1
102
RTVSPropertyOp34
 70
     1
102
RTVSPropertyOp35
 70
     1
102
RTVSPropertyOp36
 70
     1
102
RTVSPropertyOp37
 70
     1
102
RTVSPropertyOp38
 70
     1
102
RTVSPropertyOp39
 70
     1
102
RTVSPropertyOp40
 70
     1
102
RTVSPropertyOp41
 70
     1
102
RTVSPropertyOp42
 70
     1
102
RTVSPropertyOp43
 70
     1
102
RTVSPropertyOp44
 70
     1
102
RTVSPropertyOp45
 70
     1
102
RTVSPropertyOp46
 70
     1
102
RTVSPropertyOp47
 70
     1
102
RTVSPropertyOp48
 70
     1
102
RTVSPropertyOp49
 70
     1
102
RTVSPropertyOp50
 70
     1
102
RTVSPropertyOp51
 70
     0
102
RTVSPropertyOp52
 70
     0
102
RTVSPropertyOp53
 70
     1
102
RTVSPropertyOp54
 70
     1
102
RTVSPropertyOp55
 70
     1
102
RTVSPropertyOp56
 70
     1
102
RTVSPropertyOp57
 70
     1
102
RTVSPropertyOp58
 70
     1
102
RTVSPropertyOp59
 70
     1
102
RTVSPropertyOp60
 70
     1
102
RTVSPropertyOp61
 70
     1
102
RTVSPropertyOp62
 70
     1
  0
XRECORD
  5
C0D4
102
{ACAD_REACTORS
330
C0D3
102
}
330
C0D3
100
AcDbXrecord
280
     1
102
RTVSPost2010Prop28
280
     0
102
RTVSPost2010PropOp28
 70
     1
102
RTVSPost2010Prop29
280
     1
102
RTVSPost2010PropOp29
 70
     1
102
RTVSPost2010Prop30
280
     1
102
RTVSPost2010PropOp30
 70
     1
102
RTVSPost2010Prop31
280
     0
102
RTVSPost2010PropOp31
 70
     1
102
RTVSPost2010Prop32
280
     0
102
RTVSPost2010PropOp32
 70
     1
102
RTVSPost2010Prop33
280
     0
102
RTVSPost2010PropOp33
 70
     1
102
RTVSPost2010Prop34
280
     0
102
RTVSPost2010PropOp34
 70
     1
102
RTVSPost2010Prop35
280
     0
102
RTVSPost2010PropOp35
 70
     1
102
RTVSPost2010Prop36
280
     0
102
RTVSPost2010PropOp36
 70
     1
102
RTVSPost2010Prop37
 90
       50
102
RTVSPost2010PropOp37
 70
     1
102
RTVSPost2010Prop38
140
0.0
102
RTVSPost2010PropOp38
 70
     1
102
RTVSPost2010Prop39
140
1.0
102
RTVSPost2010PropOp39
 70
     1
102
RTVSPost2010Prop40
 90
        0
102
RTVSPost2010PropOp40
 70
     1
102
RTVSPost2010Prop41ColorIndex
 90
       18
102
RTVSPost2010Prop41ColorRGB
 90
        0
102
RTVSPost2010PropOp41
 70
     1
102
RTVSPost2010Prop42
 90
       50
102
RTVSPost2010PropOp42
 70
     1
102
RTVSPost2010Prop43
 90
        3
102
RTVSPost2010PropOp43
 70
     1
102
RTVSPost2010Prop44ColorIndex
 90
        5
102
RTVSPost2010Prop44ColorRGB
 90
      255
102
RTVSPost2010PropOp44
 70
     1
102
RTVSPost2010Prop45
280
     0
102
RTVSPost2010PropOp45
 70
     1
102
RTVSPost2010Prop46
 90
       50
102
RTVSPost2010PropOp46
 70
     1
102
RTVSPost2010Prop47
 90
       50
102
RTVSPost2010PropOp47
 70
     1
102
RTVSPost2010Prop48
 90
       50
102
RTVSPost2010PropOp48
 70
     1
102
RTVSPost2010Prop49
280
     0
102
RTVSPost2010PropOp49
 70
     1
102
RTVSPost2010Prop50
 90
       50
102
RTVSPost2010PropOp50
 70
     1
102
RTVSPost2010Prop51ColorIndex
 90
      256
102
RTVSPost2010Prop51ColorRGB
 90
-16777216
102
RTVSPost2010PropOp51
 70
     0
102
RTVSPost2010Prop52
140
1.0
102
RTVSPost2010PropOp52
 70
     0
102
RTVSPost2010Prop53
 90
        2
102
RTVSPost2010PropOp53
 70
     1
102
RTVSPost2010Prop54
  1
strokes_ogs.tif
102
RTVSPost2010PropOp54
 70
     1
102
RTVSPost2010Prop55
280
     0
102
RTVSPost2010PropOp55
 70
     1
102
RTVSPost2010Prop56
140
1.0
102
RTVSPost2010PropOp56
 70
     1
102
RTVSPost2010Prop57
140
1.0
102
RTVSPost2010PropOp57
 70
     1
102
RTVSPropertyOp0
 70
     1
102
RTVSPropertyOp1
 70
     1
102
RTVSPropertyOp2
 70
     1
102
RTVSPropertyOp3
 70
     1
102
RTVSPropertyOp4
 70
     1
102
RTVSPropertyOp5
 70
     1
102
RTVSPropertyOp6
 70
     1
102
RTVSPropertyOp7
 70
     1
102
RTVSPropertyOp8
 70
     1
102
RTVSPropertyOp9
 70
     1
102
RTVSPropertyOp10
 70
     1
102
RTVSPropertyOp11
 70
     1
102
RTVSPropertyOp12
 70
     1
102
RTVSPropertyOp13
 70
     1
102
RTVSPropertyOp14
 70
     1
102
RTVSPropertyOp15
 70
     1
102
RTVSPropertyOp16
 70
     1
102
RTVSPropertyOp17
 70
     1
102
RTVSPropertyOp18
 70
     1
102
RTVSPropertyOp19
 70
     1
102
RTVSPropertyOp20
 70
     1
102
RTVSPropertyOp21
 70
     1
102
RTVSPropertyOp22
 70
     1
102
RTVSPropertyOp23
 70
     1
102
RTVSPropertyOp24
 70
     1
102
RTVSPropertyOp25
 70
     1
102
RTVSPropertyOp26
 70
     1
102
RTVSPropertyOp27
 70
     1
102
RTVSPropertyOp28
 70
     1
102
RTVSPropertyOp29
 70
     1
102
RTVSPropertyOp30
 70
     1
102
RTVSPropertyOp31
 70
     1
102
RTVSPropertyOp32
 70
     1
102
RTVSPropertyOp33
 70
     1
102
RTVSPropertyOp34
 70
     1
102
RTVSPropertyOp35
 70
     1
102
RTVSPropertyOp36
 70
     1
102
RTVSPropertyOp37
 70
     1
102
RTVSPropertyOp38
 70
     1
102
RTVSPropertyOp39
 70
     1
102
RTVSPropertyOp40
 70
     1
102
RTVSPropertyOp41
 70
     1
102
RTVSPropertyOp42
 70
     1
102
RTVSPropertyOp43
 70
     1
102
RTVSPropertyOp44
 70
     1
102
RTVSPropertyOp45
 70
     1
102
RTVSPropertyOp46
 70
     1
102
RTVSPropertyOp47
 70
     1
102
RTVSPropertyOp48
 70
     1
102
RTVSPropertyOp49
 70
     1
102
RTVSPropertyOp50
 70
     1
102
RTVSPropertyOp51
 70
     0
102
RTVSPropertyOp52
 70
     0
102
RTVSPropertyOp53
 70
     1
102
RTVSPropertyOp54
 70
     1
102
RTVSPropertyOp55
 70
     1
102
RTVSPropertyOp56
 70
     1
102
RTVSPropertyOp57
 70
     1
102
RTVSPropertyOp58
 70
     1
102
RTVSPropertyOp59
 70
     1
102
RTVSPropertyOp60
 70
     1
102
RTVSPropertyOp61
 70
     1
102
RTVSPropertyOp62
 70
     1
  0
XRECORD
  5
C0D6
102
{ACAD_REACTORS
330
C0D5
102
}
330
C0D5
100
AcDbXrecord
280
     1
102
RTVSPost2010Prop28
280
     0
102
RTVSPost2010PropOp28
 70
     1
102
RTVSPost2010Prop29
280
     1
102
RTVSPost2010PropOp29
 70
     1
102
RTVSPost2010Prop30
280
     1
102
RTVSPost2010PropOp30
 70
     1
102
RTVSPost2010Prop31
280
     0
102
RTVSPost2010PropOp31
 70
     1
102
RTVSPost2010Prop32
280
     0
102
RTVSPost2010PropOp32
 70
     1
102
RTVSPost2010Prop33
280
     0
102
RTVSPost2010PropOp33
 70
     1
102
RTVSPost2010Prop34
280
     0
102
RTVSPost2010PropOp34
 70
     1
102
RTVSPost2010Prop35
280
     0
102
RTVSPost2010PropOp35
 70
     1
102
RTVSPost2010Prop36
280
     0
102
RTVSPost2010PropOp36
 70
     1
102
RTVSPost2010Prop37
 90
       50
102
RTVSPost2010PropOp37
 70
     1
102
RTVSPost2010Prop38
140
0.0
102
RTVSPost2010PropOp38
 70
     1
102
RTVSPost2010Prop39
140
1.0
102
RTVSPost2010PropOp39
 70
     1
102
RTVSPost2010Prop40
 90
        0
102
RTVSPost2010PropOp40
 70
     1
102
RTVSPost2010Prop41ColorIndex
 90
       18
102
RTVSPost2010Prop41ColorRGB
 90
        0
102
RTVSPost2010PropOp41
 70
     1
102
RTVSPost2010Prop42
 90
       50
102
RTVSPost2010PropOp42
 70
     1
102
RTVSPost2010Prop43
 90
        3
102
RTVSPost2010PropOp43
 70
     1
102
RTVSPost2010Prop44ColorIndex
 90
        5
102
RTVSPost2010Prop44ColorRGB
 90
      255
102
RTVSPost2010PropOp44
 70
     1
102
RTVSPost2010Prop45
280
     0
102
RTVSPost2010PropOp45
 70
     1
102
RTVSPost2010Prop46
 90
       50
102
RTVSPost2010PropOp46
 70
     1
102
RTVSPost2010Prop47
 90
       50
102
RTVSPost2010PropOp47
 70
     1
102
RTVSPost2010Prop48
 90
       50
102
RTVSPost2010PropOp48
 70
     1
102
RTVSPost2010Prop49
280
     0
102
RTVSPost2010PropOp49
 70
     1
102
RTVSPost2010Prop50
 90
       50
102
RTVSPost2010PropOp50
 70
     1
102
RTVSPost2010Prop51ColorIndex
 90
      256
102
RTVSPost2010Prop51ColorRGB
 90
-16777216
102
RTVSPost2010PropOp51
 70
     0
102
RTVSPost2010Prop52
140
1.0
102
RTVSPost2010PropOp52
 70
     0
102
RTVSPost2010Prop53
 90
        2
102
RTVSPost2010PropOp53
 70
     1
102
RTVSPost2010Prop54
  1
strokes_ogs.tif
102
RTVSPost2010PropOp54
 70
     1
102
RTVSPost2010Prop55
280
     0
102
RTVSPost2010PropOp55
 70
     1
102
RTVSPost2010Prop56
140
1.0
102
RTVSPost2010PropOp56
 70
     1
102
RTVSPost2010Prop57
140
1.0
102
RTVSPost2010PropOp57
 70
     1
102
RTVSPropertyOp0
 70
     1
102
RTVSPropertyOp1
 70
     1
102
RTVSPropertyOp2
 70
     1
102
RTVSPropertyOp3
 70
     1
102
RTVSPropertyOp4
 70
     1
102
RTVSPropertyOp5
 70
     1
102
RTVSPropertyOp6
 70
     1
102
RTVSPropertyOp7
 70
     1
102
RTVSPropertyOp8
 70
     1
102
RTVSPropertyOp9
 70
     1
102
RTVSPropertyOp10
 70
     1
102
RTVSPropertyOp11
 70
     1
102
RTVSPropertyOp12
 70
     1
102
RTVSPropertyOp13
 70
     1
102
RTVSPropertyOp14
 70
     1
102
RTVSPropertyOp15
 70
     1
102
RTVSPropertyOp16
 70
     1
102
RTVSPropertyOp17
 70
     1
102
RTVSPropertyOp18
 70
     1
102
RTVSPropertyOp19
 70
     1
102
RTVSPropertyOp20
 70
     1
102
RTVSPropertyOp21
 70
     1
102
RTVSPropertyOp22
 70
     1
102
RTVSPropertyOp23
 70
     1
102
RTVSPropertyOp24
 70
     1
102
RTVSPropertyOp25
 70
     1
102
RTVSPropertyOp26
 70
     1
102
RTVSPropertyOp27
 70
     1
102
RTVSPropertyOp28
 70
     1
102
RTVSPropertyOp29
 70
     1
102
RTVSPropertyOp30
 70
     1
102
RTVSPropertyOp31
 70
     1
102
RTVSPropertyOp32
 70
     1
102
RTVSPropertyOp33
 70
     1
102
RTVSPropertyOp34
 70
     1
102
RTVSPropertyOp35
 70
     1
102
RTVSPropertyOp36
 70
     1
102
RTVSPropertyOp37
 70
     1
102
RTVSPropertyOp38
 70
     1
102
RTVSPropertyOp39
 70
     1
102
RTVSPropertyOp40
 70
     1
102
RTVSPropertyOp41
 70
     1
102
RTVSPropertyOp42
 70
     1
102
RTVSPropertyOp43
 70
     1
102
RTVSPropertyOp44
 70
     1
102
RTVSPropertyOp45
 70
     1
102
RTVSPropertyOp46
 70
     1
102
RTVSPropertyOp47
 70
     1
102
RTVSPropertyOp48
 70
     1
102
RTVSPropertyOp49
 70
     1
102
RTVSPropertyOp50
 70
     1
102
RTVSPropertyOp51
 70
     0
102
RTVSPropertyOp52
 70
     0
102
RTVSPropertyOp53
 70
     1
102
RTVSPropertyOp54
 70
     1
102
RTVSPropertyOp55
 70
     1
102
RTVSPropertyOp56
 70
     1
102
RTVSPropertyOp57
 70
     1
102
RTVSPropertyOp58
 70
     1
102
RTVSPropertyOp59
 70
     1
102
RTVSPropertyOp60
 70
     1
102
RTVSPropertyOp61
 70
     1
102
RTVSPropertyOp62
 70
     1
  0
XRECORD
  5
C0CC
102
{ACAD_REACTORS
330
C0CB
102
}
330
C0CB
100
AcDbXrecord
280
     1
102
RTVSPost2010Prop28
280
     0
102
RTVSPost2010PropOp28
 70
     1
102
RTVSPost2010Prop29
280
     1
102
RTVSPost2010PropOp29
 70
     1
102
RTVSPost2010Prop30
280
     1
102
RTVSPost2010PropOp30
 70
     1
102
RTVSPost2010Prop31
280
     0
102
RTVSPost2010PropOp31
 70
     1
102
RTVSPost2010Prop32
280
     0
102
RTVSPost2010PropOp32
 70
     1
102
RTVSPost2010Prop33
280
     0
102
RTVSPost2010PropOp33
 70
     1
102
RTVSPost2010Prop34
280
     0
102
RTVSPost2010PropOp34
 70
     1
102
RTVSPost2010Prop35
280
     0
102
RTVSPost2010PropOp35
 70
     1
102
RTVSPost2010Prop36
280
     0
102
RTVSPost2010PropOp36
 70
     1
102
RTVSPost2010Prop37
 90
       50
102
RTVSPost2010PropOp37
 70
     1
102
RTVSPost2010Prop38
140
0.0
102
RTVSPost2010PropOp38
 70
     1
102
RTVSPost2010Prop39
140
1.0
102
RTVSPost2010PropOp39
 70
     1
102
RTVSPost2010Prop40
 90
        0
102
RTVSPost2010PropOp40
 70
     1
102
RTVSPost2010Prop41ColorIndex
 90
       18
102
RTVSPost2010Prop41ColorRGB
 90
        0
102
RTVSPost2010PropOp41
 70
     1
102
RTVSPost2010Prop42
 90
       50
102
RTVSPost2010PropOp42
 70
     1
102
RTVSPost2010Prop43
 90
        3
102
RTVSPost2010PropOp43
 70
     1
102
RTVSPost2010Prop44ColorIndex
 90
        5
102
RTVSPost2010Prop44ColorRGB
 90
      255
102
RTVSPost2010PropOp44
 70
     1
102
RTVSPost2010Prop45
280
     0
102
RTVSPost2010PropOp45
 70
     1
102
RTVSPost2010Prop46
 90
       50
102
RTVSPost2010PropOp46
 70
     1
102
RTVSPost2010Prop47
 90
       50
102
RTVSPost2010PropOp47
 70
     1
102
RTVSPost2010Prop48
 90
       50
102
RTVSPost2010PropOp48
 70
     1
102
RTVSPost2010Prop49
280
     0
102
RTVSPost2010PropOp49
 70
     1
102
RTVSPost2010Prop50
 90
       50
102
RTVSPost2010PropOp50
 70
     1
102
RTVSPost2010Prop51ColorIndex
 90
      256
102
RTVSPost2010Prop51ColorRGB
 90
-16777216
102
RTVSPost2010PropOp51
 70
     0
102
RTVSPost2010Prop52
140
1.0
102
RTVSPost2010PropOp52
 70
     0
102
RTVSPost2010Prop53
 90
        2
102
RTVSPost2010PropOp53
 70
     1
102
RTVSPost2010Prop54
  1
strokes_ogs.tif
102
RTVSPost2010PropOp54
 70
     1
102
RTVSPost2010Prop55
280
     0
102
RTVSPost2010PropOp55
 70
     1
102
RTVSPost2010Prop56
140
1.0
102
RTVSPost2010PropOp56
 70
     1
102
RTVSPost2010Prop57
140
1.0
102
RTVSPost2010PropOp57
 70
     1
102
RTVSPropertyOp0
 70
     1
102
RTVSPropertyOp1
 70
     1
102
RTVSPropertyOp2
 70
     1
102
RTVSPropertyOp3
 70
     1
102
RTVSPropertyOp4
 70
     1
102
RTVSPropertyOp5
 70
     1
102
RTVSPropertyOp6
 70
     1
102
RTVSPropertyOp7
 70
     1
102
RTVSPropertyOp8
 70
     1
102
RTVSPropertyOp9
 70
     1
102
RTVSPropertyOp10
 70
     1
102
RTVSPropertyOp11
 70
     1
102
RTVSPropertyOp12
 70
     1
102
RTVSPropertyOp13
 70
     1
102
RTVSPropertyOp14
 70
     1
102
RTVSPropertyOp15
 70
     1
102
RTVSPropertyOp16
 70
     1
102
RTVSPropertyOp17
 70
     1
102
RTVSPropertyOp18
 70
     1
102
RTVSPropertyOp19
 70
     1
102
RTVSPropertyOp20
 70
     1
102
RTVSPropertyOp21
 70
     1
102
RTVSPropertyOp22
 70
     1
102
RTVSPropertyOp23
 70
     1
102
RTVSPropertyOp24
 70
     1
102
RTVSPropertyOp25
 70
     1
102
RTVSPropertyOp26
 70
     1
102
RTVSPropertyOp27
 70
     1
102
RTVSPropertyOp28
 70
     1
102
RTVSPropertyOp29
 70
     1
102
RTVSPropertyOp30
 70
     1
102
RTVSPropertyOp31
 70
     1
102
RTVSPropertyOp32
 70
     1
102
RTVSPropertyOp33
 70
     1
102
RTVSPropertyOp34
 70
     1
102
RTVSPropertyOp35
 70
     1
102
RTVSPropertyOp36
 70
     1
102
RTVSPropertyOp37
 70
     1
102
RTVSPropertyOp38
 70
     1
102
RTVSPropertyOp39
 70
     1
102
RTVSPropertyOp40
 70
     1
102
RTVSPropertyOp41
 70
     1
102
RTVSPropertyOp42
 70
     1
102
RTVSPropertyOp43
 70
     1
102
RTVSPropertyOp44
 70
     1
102
RTVSPropertyOp45
 70
     1
102
RTVSPropertyOp46
 70
     1
102
RTVSPropertyOp47
 70
     1
102
RTVSPropertyOp48
 70
     1
102
RTVSPropertyOp49
 70
     1
102
RTVSPropertyOp50
 70
     1
102
RTVSPropertyOp51
 70
     0
102
RTVSPropertyOp52
 70
     0
102
RTVSPropertyOp53
 70
     1
102
RTVSPropertyOp54
 70
     1
102
RTVSPropertyOp55
 70
     1
102
RTVSPropertyOp56
 70
     1
102
RTVSPropertyOp57
 70
     1
102
RTVSPropertyOp58
 70
     1
102
RTVSPropertyOp59
 70
     1
102
RTVSPropertyOp60
 70
     1
102
RTVSPropertyOp61
 70
     1
102
RTVSPropertyOp62
 70
     1
  0
XRECORD
  5
C0C0
102
{ACAD_REACTORS
330
C0BF
102
}
330
C0BF
100
AcDbXrecord
280
     1
102
RTVSPost2010Prop28
280
     0
102
RTVSPost2010PropOp28
 70
     1
102
RTVSPost2010Prop29
280
     1
102
RTVSPost2010PropOp29
 70
     1
102
RTVSPost2010Prop30
280
     1
102
RTVSPost2010PropOp30
 70
     1
102
RTVSPost2010Prop31
280
     0
102
RTVSPost2010PropOp31
 70
     1
102
RTVSPost2010Prop32
280
     0
102
RTVSPost2010PropOp32
 70
     1
102
RTVSPost2010Prop33
280
     0
102
RTVSPost2010PropOp33
 70
     1
102
RTVSPost2010Prop34
280
     0
102
RTVSPost2010PropOp34
 70
     1
102
RTVSPost2010Prop35
280
     0
102
RTVSPost2010PropOp35
 70
     1
102
RTVSPost2010Prop36
280
     0
102
RTVSPost2010PropOp36
 70
     1
102
RTVSPost2010Prop37
 90
       50
102
RTVSPost2010PropOp37
 70
     1
102
RTVSPost2010Prop38
140
0.0
102
RTVSPost2010PropOp38
 70
     1
102
RTVSPost2010Prop39
140
1.0
102
RTVSPost2010PropOp39
 70
     1
102
RTVSPost2010Prop40
 90
        0
102
RTVSPost2010PropOp40
 70
     1
102
RTVSPost2010Prop41ColorIndex
 90
       18
102
RTVSPost2010Prop41ColorRGB
 90
        0
102
RTVSPost2010PropOp41
 70
     1
102
RTVSPost2010Prop42
 90
       50
102
RTVSPost2010PropOp42
 70
     1
102
RTVSPost2010Prop43
 90
        3
102
RTVSPost2010PropOp43
 70
     1
102
RTVSPost2010Prop44ColorIndex
 90
        5
102
RTVSPost2010Prop44ColorRGB
 90
      255
102
RTVSPost2010PropOp44
 70
     1
102
RTVSPost2010Prop45
280
     0
102
RTVSPost2010PropOp45
 70
     1
102
RTVSPost2010Prop46
 90
       50
102
RTVSPost2010PropOp46
 70
     1
102
RTVSPost2010Prop47
 90
       50
102
RTVSPost2010PropOp47
 70
     1
102
RTVSPost2010Prop48
 90
       50
102
RTVSPost2010PropOp48
 70
     1
102
RTVSPost2010Prop49
280
     0
102
RTVSPost2010PropOp49
 70
     1
102
RTVSPost2010Prop50
 90
       50
102
RTVSPost2010PropOp50
 70
     1
102
RTVSPost2010Prop51ColorIndex
 90
      256
102
RTVSPost2010Prop51ColorRGB
 90
-16777216
102
RTVSPost2010PropOp51
 70
     0
102
RTVSPost2010Prop52
140
1.0
102
RTVSPost2010PropOp52
 70
     0
102
RTVSPost2010Prop53
 90
        2
102
RTVSPost2010PropOp53
 70
     1
102
RTVSPost2010Prop54
  1
strokes_ogs.tif
102
RTVSPost2010PropOp54
 70
     1
102
RTVSPost2010Prop55
280
     0
102
RTVSPost2010PropOp55
 70
     1
102
RTVSPost2010Prop56
140
1.0
102
RTVSPost2010PropOp56
 70
     1
102
RTVSPost2010Prop57
140
1.0
102
RTVSPost2010PropOp57
 70
     1
102
RTVSPropertyOp0
 70
     1
102
RTVSPropertyOp1
 70
     1
102
RTVSPropertyOp2
 70
     1
102
RTVSPropertyOp3
 70
     1
102
RTVSPropertyOp4
 70
     1
102
RTVSPropertyOp5
 70
     1
102
RTVSPropertyOp6
 70
     1
102
RTVSPropertyOp7
 70
     1
102
RTVSPropertyOp8
 70
     1
102
RTVSPropertyOp9
 70
     1
102
RTVSPropertyOp10
 70
     1
102
RTVSPropertyOp11
 70
     1
102
RTVSPropertyOp12
 70
     1
102
RTVSPropertyOp13
 70
     1
102
RTVSPropertyOp14
 70
     1
102
RTVSPropertyOp15
 70
     1
102
RTVSPropertyOp16
 70
     1
102
RTVSPropertyOp17
 70
     1
102
RTVSPropertyOp18
 70
     1
102
RTVSPropertyOp19
 70
     1
102
RTVSPropertyOp20
 70
     1
102
RTVSPropertyOp21
 70
     1
102
RTVSPropertyOp22
 70
     1
102
RTVSPropertyOp23
 70
     1
102
RTVSPropertyOp24
 70
     1
102
RTVSPropertyOp25
 70
     1
102
RTVSPropertyOp26
 70
     1
102
RTVSPropertyOp27
 70
     1
102
RTVSPropertyOp28
 70
     1
102
RTVSPropertyOp29
 70
     1
102
RTVSPropertyOp30
 70
     1
102
RTVSPropertyOp31
 70
     1
102
RTVSPropertyOp32
 70
     1
102
RTVSPropertyOp33
 70
     1
102
RTVSPropertyOp34
 70
     1
102
RTVSPropertyOp35
 70
     1
102
RTVSPropertyOp36
 70
     1
102
RTVSPropertyOp37
 70
     1
102
RTVSPropertyOp38
 70
     1
102
RTVSPropertyOp39
 70
     1
102
RTVSPropertyOp40
 70
     1
102
RTVSPropertyOp41
 70
     1
102
RTVSPropertyOp42
 70
     1
102
RTVSPropertyOp43
 70
     1
102
RTVSPropertyOp44
 70
     1
102
RTVSPropertyOp45
 70
     1
102
RTVSPropertyOp46
 70
     1
102
RTVSPropertyOp47
 70
     1
102
RTVSPropertyOp48
 70
     1
102
RTVSPropertyOp49
 70
     1
102
RTVSPropertyOp50
 70
     1
102
RTVSPropertyOp51
 70
     0
102
RTVSPropertyOp52
 70
     0
102
RTVSPropertyOp53
 70
     1
102
RTVSPropertyOp54
 70
     1
102
RTVSPropertyOp55
 70
     1
102
RTVSPropertyOp56
 70
     1
102
RTVSPropertyOp57
 70
     1
102
RTVSPropertyOp58
 70
     1
102
RTVSPropertyOp59
 70
     1
102
RTVSPropertyOp60
 70
     1
102
RTVSPropertyOp61
 70
     1
102
RTVSPropertyOp62
 70
     1
  0
XRECORD
  5
C0D8
102
{ACAD_REACTORS
330
C0D7
102
}
330
C0D7
100
AcDbXrecord
280
     1
102
RTVSPost2010Prop28
280
     0
102
RTVSPost2010PropOp28
 70
     1
102
RTVSPost2010Prop29
280
     1
102
RTVSPost2010PropOp29
 70
     1
102
RTVSPost2010Prop30
280
     1
102
RTVSPost2010PropOp30
 70
     1
102
RTVSPost2010Prop31
280
     0
102
RTVSPost2010PropOp31
 70
     1
102
RTVSPost2010Prop32
280
     0
102
RTVSPost2010PropOp32
 70
     1
102
RTVSPost2010Prop33
280
     0
102
RTVSPost2010PropOp33
 70
     1
102
RTVSPost2010Prop34
280
     0
102
RTVSPost2010PropOp34
 70
     1
102
RTVSPost2010Prop35
280
     0
102
RTVSPost2010PropOp35
 70
     1
102
RTVSPost2010Prop36
280
     0
102
RTVSPost2010PropOp36
 70
     1
102
RTVSPost2010Prop37
 90
       50
102
RTVSPost2010PropOp37
 70
     1
102
RTVSPost2010Prop38
140
0.0
102
RTVSPost2010PropOp38
 70
     1
102
RTVSPost2010Prop39
140
1.0
102
RTVSPost2010PropOp39
 70
     1
102
RTVSPost2010Prop40
 90
        0
102
RTVSPost2010PropOp40
 70
     1
102
RTVSPost2010Prop41ColorIndex
 90
       18
102
RTVSPost2010Prop41ColorRGB
 90
        0
102
RTVSPost2010PropOp41
 70
     1
102
RTVSPost2010Prop42
 90
       50
102
RTVSPost2010PropOp42
 70
     1
102
RTVSPost2010Prop43
 90
        3
102
RTVSPost2010PropOp43
 70
     1
102
RTVSPost2010Prop44ColorIndex
 90
        5
102
RTVSPost2010Prop44ColorRGB
 90
      255
102
RTVSPost2010PropOp44
 70
     1
102
RTVSPost2010Prop45
280
     0
102
RTVSPost2010PropOp45
 70
     1
102
RTVSPost2010Prop46
 90
       50
102
RTVSPost2010PropOp46
 70
     1
102
RTVSPost2010Prop47
 90
       50
102
RTVSPost2010PropOp47
 70
     1
102
RTVSPost2010Prop48
 90
       50
102
RTVSPost2010PropOp48
 70
     1
102
RTVSPost2010Prop49
280
     0
102
RTVSPost2010PropOp49
 70
     1
102
RTVSPost2010Prop50
 90
       50
102
RTVSPost2010PropOp50
 70
     1
102
RTVSPost2010Prop51ColorIndex
 90
      256
102
RTVSPost2010Prop51ColorRGB
 90
-16777216
102
RTVSPost2010PropOp51
 70
     0
102
RTVSPost2010Prop52
140
1.0
102
RTVSPost2010PropOp52
 70
     0
102
RTVSPost2010Prop53
 90
        2
102
RTVSPost2010PropOp53
 70
     1
102
RTVSPost2010Prop54
  1
strokes_ogs.tif
102
RTVSPost2010PropOp54
 70
     1
102
RTVSPost2010Prop55
280
     0
102
RTVSPost2010PropOp55
 70
     1
102
RTVSPost2010Prop56
140
1.0
102
RTVSPost2010PropOp56
 70
     1
102
RTVSPost2010Prop57
140
1.0
102
RTVSPost2010PropOp57
 70
     1
102
RTVSPropertyOp0
 70
     1
102
RTVSPropertyOp1
 70
     1
102
RTVSPropertyOp2
 70
     1
102
RTVSPropertyOp3
 70
     1
102
RTVSPropertyOp4
 70
     1
102
RTVSPropertyOp5
 70
     1
102
RTVSPropertyOp6
 70
     1
102
RTVSPropertyOp7
 70
     1
102
RTVSPropertyOp8
 70
     1
102
RTVSPropertyOp9
 70
     1
102
RTVSPropertyOp10
 70
     1
102
RTVSPropertyOp11
 70
     1
102
RTVSPropertyOp12
 70
     1
102
RTVSPropertyOp13
 70
     1
102
RTVSPropertyOp14
 70
     1
102
RTVSPropertyOp15
 70
     1
102
RTVSPropertyOp16
 70
     1
102
RTVSPropertyOp17
 70
     1
102
RTVSPropertyOp18
 70
     1
102
RTVSPropertyOp19
 70
     1
102
RTVSPropertyOp20
 70
     1
102
RTVSPropertyOp21
 70
     1
102
RTVSPropertyOp22
 70
     1
102
RTVSPropertyOp23
 70
     1
102
RTVSPropertyOp24
 70
     1
102
RTVSPropertyOp25
 70
     1
102
RTVSPropertyOp26
 70
     1
102
RTVSPropertyOp27
 70
     1
102
RTVSPropertyOp28
 70
     1
102
RTVSPropertyOp29
 70
     1
102
RTVSPropertyOp30
 70
     1
102
RTVSPropertyOp31
 70
     1
102
RTVSPropertyOp32
 70
     1
102
RTVSPropertyOp33
 70
     1
102
RTVSPropertyOp34
 70
     1
102
RTVSPropertyOp35
 70
     1
102
RTVSPropertyOp36
 70
     1
102
RTVSPropertyOp37
 70
     1
102
RTVSPropertyOp38
 70
     1
102
RTVSPropertyOp39
 70
     1
102
RTVSPropertyOp40
 70
     1
102
RTVSPropertyOp41
 70
     1
102
RTVSPropertyOp42
 70
     1
102
RTVSPropertyOp43
 70
     1
102
RTVSPropertyOp44
 70
     1
102
RTVSPropertyOp45
 70
     1
102
RTVSPropertyOp46
 70
     1
102
RTVSPropertyOp47
 70
     1
102
RTVSPropertyOp48
 70
     1
102
RTVSPropertyOp49
 70
     1
102
RTVSPropertyOp50
 70
     1
102
RTVSPropertyOp51
 70
     0
102
RTVSPropertyOp52
 70
     0
102
RTVSPropertyOp53
 70
     1
102
RTVSPropertyOp54
 70
     1
102
RTVSPropertyOp55
 70
     1
102
RTVSPropertyOp56
 70
     1
102
RTVSPropertyOp57
 70
     1
102
RTVSPropertyOp58
 70
     1
102
RTVSPropertyOp59
 70
     1
102
RTVSPropertyOp60
 70
     1
102
RTVSPropertyOp61
 70
     1
102
RTVSPropertyOp62
 70
     1
  0
ENDSEC
  0
EOF
