  0
SECTION
  2
HEADER
  9
$ACADVER
  1
AC1015
  9
$ACADMAINTVER
 70
    20
  9
$DWGCODEPAGE
  3
ANSI_932
  9
$INSBASE
 10
0.0
 20
0.0
 30
0.0
  9
$EXTMIN
 10
10.0
 20
9.999999999999998
 30
0.0
  9
$EXTMAX
 10
509.7
 20
365.8752779999999
 30
0.0
  9
$LIMMIN
 10
0.0
 20
0.0
  9
$LIMMAX
 10
565.7000000000001
 20
389.990152
  9
$ORTHOMODE
 70
     0
  9
$REGENMODE
 70
     1
  9
$FILLMODE
 70
     1
  9
$QTEXTMODE
 70
     0
  9
$MIRRTEXT
 70
     1
  9
$LTSCALE
 40
20.0
  9
$ATTMODE
 70
     1
  9
$TEXTSIZE
 40
5.0
  9
$TRACEWID
 40
1.0
  9
$TEXTSTYLE
  7
STANDARD
  9
$CLAYER
  8
0
  9
$CELTYPE
  6
BYLAYER
  9
$CECOLOR
 62
   256
  9
$CELTSCALE
 40
1.0
  9
$DISPSILH
 70
     0
  9
$DIMSCALE
 40
1.0
  9
$DIMASZ
 40
3.0
  9
$DIMEXO
 40
1.0
  9
$DIMDLI
 40
10.0
  9
$DIMRND
 40
0.0
  9
$DIMDLE
 40
0.0
  9
$DIMEXE
 40
1.0
  9
$DIMTP
 40
0.0
  9
$DIMTM
 40
0.0
  9
$DIMTXT
 40
3.2
  9
$DIMCEN
 40
0.0
  9
$DIMTSZ
 40
0.0
  9
$DIMTOL
 70
     0
  9
$DIMLIM
 70
     0
  9
$DIMTIH
 70
     0
  9
$DIMTOH
 70
     0
  9
$DIMSE1
 70
     0
  9
$DIMSE2
 70
     0
  9
$DIMTAD
 70
     3
  9
$DIMZIN
 70
     8
  9
$DIMBLK
  1

  9
$DIMASO
 70
     1
  9
$DIMSHO
 70
     1
  9
$DIMPOST
  1

  9
$DIMAPOST
  1

  9
$DIMALT
 70
     0
  9
$DIMALTD
 70
     2
  9
$DIMALTF
 40
25.4
  9
$DIMLFAC
 40
1.0
  9
$DIMTOFL
 70
     1
  9
$DIMTVP
 40
0.0
  9
$DIMTIX
 70
     0
  9
$DIMSOXD
 70
     0
  9
$DIMSAH
 70
     1
  9
$DIMBLK1
  1
OPEN
  9
$DIMBLK2
  1
OPEN
  9
$DIMSTYLE
  2
STANDARD
  9
$DIMCLRD
 70
     0
  9
$DIMCLRE
 70
     0
  9
$DIMCLRT
 70
     0
  9
$DIMTFAC
 40
1.0
  9
$DIMGAP
 40
1.0
  9
$DIMJUST
 70
     0
  9
$DIMSD1
 70
     0
  9
$DIMSD2
 70
     0
  9
$DIMTOLJ
 70
     1
  9
$DIMTZIN
 70
     0
  9
$DIMALTZ
 70
     0
  9
$DIMALTTZ
 70
     0
  9
$DIMUPT
 70
     0
  9
$DIMDEC
 70
     4
  9
$DIMTDEC
 70
     4
  9
$DIMALTU
 70
     2
  9
$DIMALTTD
 70
     2
  9
$DIMTXSTY
  7
STANDARD
  9
$DIMAUNIT
 70
     0
  9
$DIMADEC
 70
     0
  9
$DIMALTRND
 40
0.0
  9
$DIMAZIN
 70
     0
  9
$DIMDSEP
 70
    46
  9
$DIMATFIT
 70
     3
  9
$DIMFRAC
 70
     0
  9
$DIMLDRBLK
  1
OPEN
  9
$DIMLUNIT
 70
     2
  9
$DIMLWD
 70
    -2
  9
$DIMLWE
 70
    -2
  9
$DIMTMOVE
 70
     0
  9
$LUNITS
 70
     2
  9
$LUPREC
 70
     4
  9
$SKETCHINC
 40
1.0
  9
$FILLETRAD
 40
0.0
  9
$AUNITS
 70
     0
  9
$AUPREC
 70
     2
  9
$MENU
  1
.
  9
$ELEVATION
 40
0.0
  9
$PELEVATION
 40
0.0
  9
$THICKNESS
 40
0.0
  9
$LIMCHECK
 70
     0
  9
$CHAMFERA
 40
10.0
  9
$CHAMFERB
 40
10.0
  9
$CHAMFERC
 40
0.0
  9
$CHAMFERD
 40
0.0
  9
$SKPOLY
 70
     0
  9
$TDCREATE
 40
2451301.628910880
  9
$TDUCREATE
 40
2451301.253910880
  9
$TDUPDATE
 40
2457192.688618275
  9
$TDUUPDATE
 40
2457192.313618275
  9
$TDINDWG
 40
0.0000096759
  9
$TDUSRTIMER
 40
0.0000091782
  9
$USRTIMER
 70
     1
  9
$ANGBASE
 50
0.0
  9
$ANGDIR
 70
     0
  9
$PDMODE
 70
     0
  9
$PDSIZE
 40
0.0
  9
$PLINEWID
 40
0.0
  9
$SPLFRAME
 70
     0
  9
$SPLINETYPE
 70
     6
  9
$SPLINESEGS
 70
     8
  9
$HANDSEED
  5
AD98
  9
$SURFTAB1
 70
     6
  9
$SURFTAB2
 70
     6
  9
$SURFTYPE
 70
     6
  9
$SURFU
 70
     6
  9
$SURFV
 70
     6
  9
$UCSBASE
  2

  9
$UCSNAME
  2

  9
$UCSORG
 10
0.0
 20
0.0
 30
0.0
  9
$UCSXDIR
 10
1.0
 20
0.0
 30
0.0
  9
$UCSYDIR
 10
0.0
 20
1.0
 30
0.0
  9
$UCSORTHOREF
  2

  9
$UCSORTHOVIEW
 70
     0
  9
$UCSORGTOP
 10
0.0
 20
0.0
 30
0.0
  9
$UCSORGBOTTOM
 10
0.0
 20
0.0
 30
0.0
  9
$UCSORGLEFT
 10
0.0
 20
0.0
 30
0.0
  9
$UCSORGRIGHT
 10
0.0
 20
0.0
 30
0.0
  9
$UCSORGFRONT
 10
0.0
 20
0.0
 30
0.0
  9
$UCSORGBACK
 10
0.0
 20
0.0
 30
0.0
  9
$PUCSBASE
  2

  9
$PUCSNAME
  2

  9
$PUCSORG
 10
0.0
 20
0.0
 30
0.0
  9
$PUCSXDIR
 10
1.0
 20
0.0
 30
0.0
  9
$PUCSYDIR
 10
0.0
 20
1.0
 30
0.0
  9
$PUCSORTHOREF
  2

  9
$PUCSORTHOVIEW
 70
     0
  9
$PUCSORGTOP
 10
0.0
 20
0.0
 30
0.0
  9
$PUCSORGBOTTOM
 10
0.0
 20
0.0
 30
0.0
  9
$PUCSORGLEFT
 10
0.0
 20
0.0
 30
0.0
  9
$PUCSORGRIGHT
 10
0.0
 20
0.0
 30
0.0
  9
$PUCSORGFRONT
 10
0.0
 20
0.0
 30
0.0
  9
$PUCSORGBACK
 10
0.0
 20
0.0
 30
0.0
  9
$USERI1
 70
     0
  9
$USERI2
 70
     0
  9
$USERI3
 70
     0
  9
$USERI4
 70
     0
  9
$USERI5
 70
     0
  9
$USERR1
 40
0.0
  9
$USERR2
 40
0.0
  9
$USERR3
 40
0.0
  9
$USERR4
 40
0.0
  9
$USERR5
 40
0.0
  9
$WORLDVIEW
 70
     1
  9
$SHADEDGE
 70
     3
  9
$SHADEDIF
 70
    70
  9
$TILEMODE
 70
     1
  9
$MAXACTVP
 70
    16
  9
$PINSBASE
 10
0.0
 20
0.0
 30
0.0
  9
$PLIMCHECK
 70
     0
  9
$PEXTMIN
 10
1.000000000000000E+20
 20
1.000000000000000E+20
 30
1.000000000000000E+20
  9
$PEXTMAX
 10
-1.000000000000000E+20
 20
-1.000000000000000E+20
 30
-1.000000000000000E+20
  9
$PLIMMIN
 10
0.0
 20
0.0
  9
$PLIMMAX
 10
420.0
 20
297.0
  9
$UNITMODE
 70
     0
  9
$VISRETAIN
 70
     0
  9
$PLINEGEN
 70
     0
  9
$PSLTSCALE
 70
     0
  9
$TREEDEPTH
 70
  3020
  9
$CMLSTYLE
  2
STANDARD
  9
$CMLJUST
 70
     0
  9
$CMLSCALE
 40
1.0
  9
$PROXYGRAPHICS
 70
     1
  9
$MEASUREMENT
 70
     0
  9
$CELWEIGHT
370
    -1
  9
$ENDCAPS
280
     0
  9
$JOINSTYLE
280
     0
  9
$LWDISPLAY
290
     0
  9
$INSUNITS
 70
     0
  9
$HYPERLINKBASE
  1

  9
$STYLESHEET
  1

  9
$XEDIT
290
     1
  9
$CEPSNTYPE
380
     0
  9
$PSTYLEMODE
290
     1
  9
$FINGERPRINTGUID
  2
{88A1BB44-77CB-40C1-8922-29DEBF0E96C5}
  9
$VERSIONGUID
  2
{98336791-7B3D-482F-848B-EE05F1ACCF18}
  9
$EXTNAMES
290
     1
  9
$PSVPSCALE
 40
0.0
  9
$OLESTARTUP
290
     0
  0
ENDSEC
  0
SECTION
  2
CLASSES
  0
CLASS
  1
ACDBDICTIONARYWDFLT
  2
AcDbDictionaryWithDefault
  3
ObjectDBX Classes
 90
        0
280
     0
281
     0
  0
CLASS
  1
ACDBPLACEHOLDER
  2
AcDbPlaceHolder
  3
ObjectDBX Classes
 90
        0
280
     0
281
     0
  0
CLASS
  1
LAYOUT
  2
AcDbLayout
  3
ObjectDBX Classes
 90
        0
280
     0
281
     0
  0
CLASS
  1
DICTIONARYVAR
  2
AcDbDictionaryVar
  3
ObjectDBX Classes
 90
        0
280
     0
281
     0
  0
CLASS
  1
MATERIAL
  2
AcDbMaterial
  3
ObjectDBX Classes
 90
     1153
280
     0
281
     0
  0
CLASS
  1
VISUALSTYLE
  2
AcDbVisualStyle
  3
ObjectDBX Classes
 90
     4095
280
     0
281
     0
  0
CLASS
  1
TABLESTYLE
  2
AcDbTableStyle
  3
ObjectDBX Classes
 90
     4095
280
     0
281
     0
  0
CLASS
  1
SCALE
  2
AcDbScale
  3
ObjectDBX Classes
 90
     1153
280
     0
281
     0
  0
CLASS
  1
MLEADERSTYLE
  2
AcDbMLeaderStyle
  3
ACDB_MLEADERSTYLE_CLASS
 90
     4095
280
     0
281
     0
  0
CLASS
  1
ACDBSECTIONVIEWSTYLE
  2
AcDbSectionViewStyle
  3
ObjectDBX Classes
 90
     1025
280
     0
281
     0
  0
CLASS
  1
ACDBDETAILVIEWSTYLE
  2
AcDbDetailViewStyle
  3
ObjectDBX Classes
 90
     1025
280
     0
281
     0
  0
CLASS
  1
CELLSTYLEMAP
  2
AcDbCellStyleMap
  3
ObjectDBX Classes
 90
     1152
280
     0
281
     0
  0
ENDSEC
  0
SECTION
  2
TABLES
  0
TABLE
  2
VPORT
  5
AB11
330
0
100
AcDbSymbolTable
 70
     1
  0
VPORT
  5
ACE1
330
AB11
100
AcDbSymbolTableRecord
100
AcDbViewportTableRecord
  2
*ACTIVE
 70
     0
 10
0.0
 20
0.0
 11
1.0
 21
1.0
 12
367.6681098375431
 22
187.9434056028101
 13
0.0
 23
0.0
 14
10.0
 24
10.0
 15
10.0
 25
10.0
 16
0.0
 26
0.0
 36
1.0
 17
0.0
 27
0.0
 37
0.0
 40
359.8487736738193
 41
2.35006605019815
 42
50.0
 43
0.0
 44
0.0
 50
0.0
 51
0.0
 71
     0
 72
   100
 73
     1
 74
     0
 75
     0
 76
     0
 77
     0
 78
     0
281
     0
 65
     1
110
0.0
120
0.0
130
0.0
111
1.0
121
0.0
131
0.0
112
0.0
122
1.0
132
0.0
 79
     0
146
0.0
1001
ACAD_NAV_VCDISPLAY
1070
     3
  0
ENDTAB
  0
TABLE
  2
LTYPE
  5
AB0E
330
0
100
AcDbSymbolTable
 70
     4
  0
LTYPE
  5
AB1C
330
AB0E
100
AcDbSymbolTableRecord
100
AcDbLinetypeTableRecord
  2
BYBLOCK
 70
     0
  3

 72
    65
 73
     0
 40
0.0
  0
LTYPE
  5
AB1D
330
AB0E
100
AcDbSymbolTableRecord
100
AcDbLinetypeTableRecord
  2
BYLAYER
 70
     0
  3

 72
    65
 73
     0
 40
0.0
  0
LTYPE
  5
AB1E
330
AB0E
100
AcDbSymbolTableRecord
100
AcDbLinetypeTableRecord
  2
CONTINUOUS
 70
     0
  3
Solid line
 72
    65
 73
     0
 40
0.0
  0
LTYPE
  5
AB2C
330
AB0E
100
AcDbSymbolTableRecord
100
AcDbLinetypeTableRecord
  2
DASHED
 70
     0
  3
__ __ __ __ __ __ __ __ __ __ __ __ __ __ __ __
 72
    65
 73
     2
 40
0.75
 49
0.5
 74
     0
 49
-0.25
 74
     0
  0
LTYPE
  5
AB2D
330
AB0E
100
AcDbSymbolTableRecord
100
AcDbLinetypeTableRecord
  2
CENTER
 70
     0
  3
____ _ ____ _ ____ _ ____ _ ____ _ ____ _ ____ 
 72
    65
 73
     4
 40
2.0
 49
1.25
 74
     0
 49
-0.25
 74
     0
 49
0.25
 74
     0
 49
-0.25
 74
     0
  0
LTYPE
  5
AB2E
330
AB0E
100
AcDbSymbolTableRecord
100
AcDbLinetypeTableRecord
  2
PHANTOM
 70
     0
  3
______  __  __  ______  __  __  ______  __  __ 
 72
    65
 73
     6
 40
2.5
 49
1.25
 74
     0
 49
-0.25
 74
     0
 49
0.25
 74
     0
 49
-0.25
 74
     0
 49
0.25
 74
     0
 49
-0.25
 74
     0
  0
ENDTAB
  0
TABLE
  2
LAYER
  5
AB0B
330
0
100
AcDbSymbolTable
 70
     8
  0
LAYER
  5
AB19
102
{ACAD_XDICTIONARY
360
AD3C
102
}
330
AB0B
100
AcDbSymbolTableRecord
100
AcDbLayerTableRecord
  2
0
 70
     0
 62
     7
  6
CONTINUOUS
370
    -3
390
ACEA
  0
LAYER
  5
AB2F
102
{ACAD_XDICTIONARY
360
AD3E
102
}
330
AB0B
100
AcDbSymbolTableRecord
100
AcDbLayerTableRecord
  2
4
 70
     0
 62
     1
  6
CENTER
370
    -3
390
ACEA
  0
LAYER
  5
AB30
102
{ACAD_XDICTIONARY
360
AD40
102
}
330
AB0B
100
AcDbSymbolTableRecord
100
AcDbLayerTableRecord
  2
5
 70
     0
 62
     6
  6
PHANTOM
370
    -3
390
ACEA
  0
LAYER
  5
AB31
102
{ACAD_XDICTIONARY
360
AD42
102
}
330
AB0B
100
AcDbSymbolTableRecord
100
AcDbLayerTableRecord
  2
1
 70
     0
 62
     7
  6
CONTINUOUS
370
    -3
390
ACEA
  0
LAYER
  5
AB32
102
{ACAD_XDICTIONARY
360
AD44
102
}
330
AB0B
100
AcDbSymbolTableRecord
100
AcDbLayerTableRecord
  2
2
 70
     0
 62
     4
  6
CONTINUOUS
370
    -3
390
ACEA
  0
LAYER
  5
AB33
102
{ACAD_XDICTIONARY
360
AD46
102
}
330
AB0B
100
AcDbSymbolTableRecord
100
AcDbLayerTableRecord
  2
3
 70
     0
 62
     2
  6
DASHED
370
    -3
390
ACEA
  0
LAYER
  5
AB34
102
{ACAD_XDICTIONARY
360
AD48
102
}
330
AB0B
100
AcDbSymbolTableRecord
100
AcDbLayerTableRecord
  2
6
 70
     0
 62
     5
  6
CONTINUOUS
370
    -3
390
ACEA
  0
LAYER
  5
AB35
102
{ACAD_XDICTIONARY
360
AD4A
102
}
330
AB0B
100
AcDbSymbolTableRecord
100
AcDbLayerTableRecord
  2
7
 70
     0
 62
     3
  6
CONTINUOUS
370
    -3
390
ACEA
  0
ENDTAB
  0
TABLE
  2
STYLE
  5
AB0C
330
0
100
AcDbSymbolTable
 70
     1
  0
STYLE
  5
AB1A
330
AB0C
100
AcDbSymbolTableRecord
100
AcDbTextStyleTableRecord
  2
STANDARD
 70
     0
 40
0.0
 41
1.0
 50
0.0
 71
     0
 42
5.0
  3
txt
  4

  0
ENDTAB
  0
TABLE
  2
VIEW
  5
AB0F
330
0
100
AcDbSymbolTable
 70
     0
  0
ENDTAB
  0
TABLE
  2
UCS
  5
AB10
330
0
100
AcDbSymbolTable
 70
     0
  0
ENDTAB
  0
TABLE
  2
APPID
  5
AB12
330
0
100
AcDbSymbolTable
 70
     3
  0
APPID
  5
AB1B
330
AB12
100
AcDbSymbolTableRecord
100
AcDbRegAppTableRecord
  2
ACAD
 70
     0
  0
APPID
  5
AD56
330
AB12
100
AcDbSymbolTableRecord
100
AcDbRegAppTableRecord
  2
ACAD_NAV_VCDISPLAY
 70
     0
  0
APPID
  5
AD8F
330
AB12
100
AcDbSymbolTableRecord
100
AcDbRegAppTableRecord
  2
ACAD_MLEADERVER
 70
     0
  0
ENDTAB
  0
TABLE
  2
DIMSTYLE
  5
AB13
330
0
100
AcDbSymbolTable
 70
     1
100
AcDbDimStyleTable
 71
     0
  0
DIMSTYLE
105
AB37
330
AB13
100
AcDbSymbolTableRecord
100
AcDbDimStyleTableRecord
  2
STANDARD
 70
     0
 41
3.0
 42
1.0
 43
10.0
 44
1.0
 73
     0
 74
     0
 77
     3
 78
     8
140
3.2
141
0.0
147
1.0
172
     1
173
     1
284
     8
285
     8
286
     8
340
AB1A
  0
ENDTAB
  0
TABLE
  2
BLOCK_RECORD
  5
AB0A
330
0
100
AcDbSymbolTable
 70
     1
  0
BLOCK_RECORD
  5
AB27
102
{ACAD_XDICTIONARY
360
ACE4
102
}
330
AB0A
100
AcDbSymbolTableRecord
100
AcDbBlockTableRecord
  2
*MODEL_SPACE
340
AD38
  0
BLOCK_RECORD
  5
AB23
102
{ACAD_XDICTIONARY
360
ACE2
102
}
330
AB0A
100
AcDbSymbolTableRecord
100
AcDbBlockTableRecord
  2
*PAPER_SPACE
340
AD39
  0
BLOCK_RECORD
  5
AB3F
330
AB0A
100
AcDbSymbolTableRecord
100
AcDbBlockTableRecord
  2
_OPEN
340
0
  0
ENDTAB
  0
ENDSEC
  0
SECTION
  2
BLOCKS
  0
BLOCK
  5
AB28
330
AB27
100
AcDbEntity
  8
0
100
AcDbBlockBegin
  2
*MODEL_SPACE
 70
     0
 10
0.0
 20
0.0
 30
0.0
  3
*MODEL_SPACE
  1

  0
ENDBLK
  5
AB29
330
AB27
100
AcDbEntity
  8
0
100
AcDbBlockEnd
  0
BLOCK
  5
AB24
330
AB23
100
AcDbEntity
 67
     1
  8
0
100
AcDbBlockBegin
  2
*PAPER_SPACE
 70
     0
 10
0.0
 20
0.0
 30
0.0
  3
*PAPER_SPACE
  1

  0
ENDBLK
  5
AB25
330
AB23
100
AcDbEntity
 67
     1
  8
0
100
AcDbBlockEnd
  0
BLOCK
  5
AB40
330
AB3F
100
AcDbEntity
  8
0
100
AcDbBlockBegin
  2
_OPEN
 70
     0
 10
0.0
 20
0.0
 30
0.0
  3
_OPEN
  1

  0
LINE
  5
AB41
330
AB3F
100
AcDbEntity
  8
0
  6
ByBlock
 62
     0
100
AcDbLine
 10
-1.0
 20
0.166667
 30
0.0
 11
0.0
 21
0.0
 31
0.0
  0
LINE
  5
AB42
330
AB3F
100
AcDbEntity
  8
0
  6
ByBlock
 62
     0
100
AcDbLine
 10
0.0
 20
0.0
 30
0.0
 11
-1.0
 21
-0.166667
 31
0.0
  0
LINE
  5
AB43
330
AB3F
100
AcDbEntity
  8
0
  6
ByBlock
 62
     0
100
AcDbLine
 10
0.0
 20
0.0
 30
0.0
 11
-1.0
 21
0.0
 31
0.0
  0
ENDBLK
  5
AB44
330
AB3F
100
AcDbEntity
  8
0
100
AcDbBlockEnd
  0
ENDSEC
  0
SECTION
  2
ENTITIES
  0
TEXT
  5
AB45
330
AB27
100
AcDbEntity
  8
7
  6
Continuous
100
AcDbText
 10
10.0
 20
18.0
 30
0.0
 40
3.0
  1
TYPE No.607
100
AcDbText
  0
TEXT
  5
AB46
330
AB27
100
AcDbEntity
  8
7
  6
Continuous
100
AcDbText
 10
10.0
 20
26.0
 30
0.0
 40
3.0
  1
CODE No.9407
100
AcDbText
  0
TEXT
  5
AB47
330
AB27
100
AcDbEntity
  8
1
  6
Continuous
100
AcDbText
 10
10.0
 20
10.0
 30
0.0
 40
1.399999999999999
  1
LAYER
100
AcDbText
  0
TEXT
  5
AB48
330
AB27
100
AcDbEntity
  8
1
  6
Continuous
100
AcDbText
 10
17.97951099999998
 20
10.04873699999998
 30
0.0
 40
1.399999999999999
  1
1
100
AcDbText
  0
TEXT
  5
AB49
330
AB27
100
AcDbEntity
  8
7
  6
Continuous
100
AcDbText
 10
29.97951099999999
 20
10.04873699999998
 30
0.0
 40
1.399999999999999
  1
7
100
AcDbText
  0
TEXT
  5
AB4A
330
AB27
100
AcDbEntity
  8
4
  6
CENTER
100
AcDbText
 10
23.97951099999999
 20
10.04873699999998
 30
0.0
 40
1.399999999999999
  1
4
100
AcDbText
  0
TEXT
  5
AB4B
330
AB27
100
AcDbEntity
  8
3
  6
DASHED
100
AcDbText
 10
21.979511
 20
10.04873699999998
 30
0.0
 40
1.399999999999999
  1
3
100
AcDbText
  0
TEXT
  5
AB4C
330
AB27
100
AcDbEntity
  8
2
  6
Continuous
100
AcDbText
 10
19.97951099999999
 20
10.04873699999998
 30
0.0
 40
1.399999999999999
  1
2
100
AcDbText
  0
TEXT
  5
AB4D
330
AB27
100
AcDbEntity
  8
6
  6
Continuous
100
AcDbText
 10
27.979511
 20
10.04873699999998
 30
0.0
 40
1.399999999999999
  1
6
100
AcDbText
  0
TEXT
  5
AB4E
330
AB27
100
AcDbEntity
  8
5
  6
PHANTOM
100
AcDbText
 10
25.97951099999999
 20
10.04873699999998
 30
0.0
 40
1.399999999999999
  1
5
100
AcDbText
  0
LINE
  5
AB4F
330
AB27
100
AcDbEntity
  8
1
  6
Continuous
100
AcDbLine
 10
219.005131
 20
360.768266
 30
0.0
 11
222.4029299999999
 21
362.759117
 31
0.0
  0
ARC
  5
AB50
330
AB27
100
AcDbEntity
  8
1
  6
Continuous
100
AcDbCircle
 10
226.6999999999999
 20
355.425278
 30
0.0
 40
8.5
100
AcDbArc
 50
0.0
 51
120.3670439999998
  0
ARC
  5
AB51
330
AB27
100
AcDbEntity
  8
1
  6
Continuous
100
AcDbCircle
 10
217.7412879999998
 20
362.9252779999998
 30
0.0
 40
2.5
100
AcDbArc
 50
197.6325919999999
 51
300.367044
  0
ARC
  5
AB52
330
AB27
100
AcDbEntity
  8
1
  6
Continuous
100
AcDbCircle
 10
192.2204419999999
 20
362.975278
 30
0.0
 40
7.5
100
AcDbArc
 50
270.0
 51
302.264873
  0
LINE
  5
AB53
330
AB27
100
AcDbEntity
  8
1
  6
Continuous
100
AcDbLine
 10
219.005131
 20
314.0822889999999
 30
0.0
 11
222.4029299999999
 21
312.0914389999999
 31
0.0
  0
ARC
  5
AB54
330
AB27
100
AcDbEntity
  8
1
  6
Continuous
100
AcDbCircle
 10
226.6999999999999
 20
319.4252779999998
 30
0.0
 40
8.5
100
AcDbArc
 50
239.6329559999998
 51
0.0
  0
ARC
  5
AB55
330
AB27
100
AcDbEntity
  8
1
  6
Continuous
100
AcDbCircle
 10
217.7412879999998
 20
311.925278
 30
0.0
 40
2.5
100
AcDbArc
 50
59.632956
 51
162.367408
  0
ARC
  5
AB56
330
AB27
100
AcDbEntity
  8
1
  6
Continuous
100
AcDbCircle
 10
192.2204419999999
 20
311.8752779999999
 30
0.0
 40
7.5
100
AcDbArc
 50
57.73512700000001
 51
90.0
  0
LINE
  5
AB57
330
AB27
100
AcDbEntity
  8
1
  6
Continuous
100
AcDbLine
 10
235.1999999999999
 20
355.425278
 30
0.0
 11
235.1999999999999
 21
319.4252779999998
 31
0.0
  0
LINE
  5
AB58
330
AB27
100
AcDbEntity
  8
1
  6
Continuous
100
AcDbLine
 10
154.3948679999998
 20
314.0822889999999
 30
0.0
 11
150.9970689999998
 21
312.0914389999999
 31
0.0
  0
ARC
  5
AB59
330
AB27
100
AcDbEntity
  8
1
  6
Continuous
100
AcDbCircle
 10
146.6999999999998
 20
319.4252779999998
 30
0.0
 40
8.5
100
AcDbArc
 50
180.0
 51
300.367044
  0
ARC
  5
AB5A
330
AB27
100
AcDbEntity
  8
1
  6
Continuous
100
AcDbCircle
 10
155.658712
 20
311.925278
 30
0.0
 40
2.5
100
AcDbArc
 50
17.632592
 51
120.3670439999998
  0
LINE
  5
AB5B
330
AB27
100
AcDbEntity
  8
1
  6
Continuous
100
AcDbLine
 10
192.2204419999999
 20
319.375278
 30
0.0
 11
181.1795579999999
 21
319.375278
 31
0.0
  0
ARC
  5
AB5C
330
AB27
100
AcDbEntity
  8
1
  6
Continuous
100
AcDbCircle
 10
181.1795579999999
 20
311.8752779999999
 30
0.0
 40
7.5
100
AcDbArc
 50
90.0
 51
122.2648729999998
  0
LINE
  5
AB5D
330
AB27
100
AcDbEntity
  8
1
  6
Continuous
100
AcDbLine
 10
138.1999999999998
 20
355.425278
 30
0.0
 11
138.1999999999998
 21
319.4252779999998
 31
0.0
  0
LINE
  5
AB5E
330
AB27
100
AcDbEntity
  8
1
  6
Continuous
100
AcDbLine
 10
154.3948679999998
 20
360.768266
 30
0.0
 11
150.9970689999998
 21
362.759117
 31
0.0
  0
ARC
  5
AB5F
330
AB27
100
AcDbEntity
  8
1
  6
Continuous
100
AcDbCircle
 10
146.6999999999998
 20
355.425278
 30
0.0
 40
8.5
100
AcDbArc
 50
59.632956
 51
180.0
  0
ARC
  5
AB60
330
AB27
100
AcDbEntity
  8
1
  6
Continuous
100
AcDbCircle
 10
155.658712
 20
362.9252779999998
 30
0.0
 40
2.5
100
AcDbArc
 50
239.6329559999998
 51
342.367408
  0
LINE
  5
AB61
330
AB27
100
AcDbEntity
  8
1
  6
Continuous
100
AcDbLine
 10
192.2204419999999
 20
355.475278
 30
0.0
 11
181.1795579999999
 21
355.475278
 31
0.0
  0
ARC
  5
AB62
330
AB27
100
AcDbEntity
  8
1
  6
Continuous
100
AcDbCircle
 10
181.1795579999999
 20
362.975278
 30
0.0
 40
7.5
100
AcDbArc
 50
237.735127
 51
270.0
  0
CIRCLE
  5
AB63
330
AB27
100
AcDbEntity
  8
1
  6
Continuous
100
AcDbCircle
 10
146.6999999999998
 20
355.425278
 30
0.0
 40
4.25
  0
CIRCLE
  5
AB64
330
AB27
100
AcDbEntity
  8
1
  6
Continuous
100
AcDbCircle
 10
226.6999999999999
 20
355.425278
 30
0.0
 40
4.25
  0
CIRCLE
  5
AB65
330
AB27
100
AcDbEntity
  8
1
  6
Continuous
100
AcDbCircle
 10
226.6999999999999
 20
319.4252779999998
 30
0.0
 40
4.25
  0
CIRCLE
  5
AB66
330
AB27
100
AcDbEntity
  8
1
  6
Continuous
100
AcDbCircle
 10
146.6999999999998
 20
319.4252779999998
 30
0.0
 40
4.25
  0
LINE
  5
AB67
330
AB27
100
AcDbEntity
  8
1
  6
Continuous
100
AcDbLine
 10
138.1999999999998
 20
264.0626389999998
 30
0.0
 11
235.1999999999999
 21
264.0626389999998
 31
0.0
  0
LINE
  5
AB68
330
AB27
100
AcDbEntity
  8
1
  6
Continuous
100
AcDbLine
 10
138.1999999999998
 20
261.7626389999999
 30
0.0
 11
153.2
 21
261.7626389999999
 31
0.0
  0
LINE
  5
AB69
330
AB27
100
AcDbEntity
  8
1
  6
Continuous
100
AcDbLine
 10
138.1999999999998
 20
264.0626389999998
 30
0.0
 11
138.1999999999998
 21
261.7626389999999
 31
0.0
  0
LINE
  5
AB6A
330
AB27
100
AcDbEntity
  8
1
  6
Continuous
100
AcDbLine
 10
157.0835909999999
 20
261.0206149999999
 30
0.0
 11
175.049225
 21
188.1887129999999
 31
0.0
  0
ARC
  5
AB6B
330
AB27
100
AcDbEntity
  8
1
  6
Continuous
100
AcDbCircle
 10
153.2
 20
260.0626389999998
 30
0.0
 40
4.0
100
AcDbArc
 50
13.856671
 51
90.0
  0
ARC
  5
AB6C
330
AB27
100
AcDbEntity
  8
1
  6
Continuous
100
AcDbCircle
 10
153.2
 20
257.0383379999999
 30
0.0
 40
4.724301999999998
100
AcDbArc
 50
13.856671
 51
90.0
  0
LINE
  5
AB6D
330
AB27
100
AcDbEntity
  8
1
  6
Continuous
100
AcDbLine
 10
235.1999999999999
 20
261.7626389999999
 30
0.0
 11
220.1999999999999
 21
261.7626389999999
 31
0.0
  0
LINE
  5
AB6E
330
AB27
100
AcDbEntity
  8
1
  6
Continuous
100
AcDbLine
 10
235.1999999999999
 20
264.0626389999998
 30
0.0
 11
235.1999999999999
 21
261.7626389999999
 31
0.0
  0
LINE
  5
AB6F
330
AB27
100
AcDbEntity
  8
1
  6
Continuous
100
AcDbLine
 10
216.316408
 20
261.0206149999999
 30
0.0
 11
198.350774
 21
188.1887129999999
 31
0.0
  0
ARC
  5
AB70
330
AB27
100
AcDbEntity
  8
1
  6
Continuous
100
AcDbCircle
 10
220.1999999999999
 20
260.0626389999998
 30
0.0
 40
4.0
100
AcDbArc
 50
90.0
 51
166.1433289999999
  0
ARC
  5
AB71
330
AB27
100
AcDbEntity
  8
1
  6
Continuous
100
AcDbCircle
 10
220.1999999999999
 20
257.0383379999999
 30
0.0
 40
4.724301999999998
100
AcDbArc
 50
90.0
 51
166.1433289999999
  0
ARC
  5
AB72
330
AB27
100
AcDbEntity
  8
1
  6
Continuous
100
AcDbCircle
 10
186.6999999999999
 20
191.062639
 30
0.0
 40
12.0
100
AcDbArc
 50
193.856671
 51
346.1433289999998
  0
CIRCLE
  5
AB73
330
AB27
100
AcDbEntity
  8
1
  6
Continuous
100
AcDbCircle
 10
186.6999999999999
 20
191.062639
 30
0.0
 40
7.0
  0
ARC
  5
AB74
330
AB27
100
AcDbEntity
  8
1
  6
Continuous
100
AcDbCircle
 10
186.6999999999999
 20
191.062639
 30
0.0
 40
50.0
100
AcDbArc
 50
117.743212
 51
62.256788
  0
ARC
  5
AB75
330
AB27
100
AcDbEntity
  8
1
  6
Continuous
100
AcDbCircle
 10
158.0412579999999
 20
348.5261779999998
 30
0.0
 40
35.84362
100
AcDbArc
 50
270.0
 51
302.264873
  0
ARC
  5
AB76
330
AB27
100
AcDbEntity
  8
1
  6
Continuous
100
AcDbCircle
 10
215.358741
 20
348.5261779999998
 30
0.0
 40
35.84362
100
AcDbArc
 50
237.735127
 51
270.0
  0
ARC
  5
AB77
330
AB27
100
AcDbEntity
  8
1
  6
Continuous
100
AcDbCircle
 10
158.0412579999999
 20
326.3243779999999
 30
0.0
 40
35.84362
100
AcDbArc
 50
57.73512700000001
 51
90.0
  0
ARC
  5
AB78
330
AB27
100
AcDbEntity
  8
1
  6
Continuous
100
AcDbCircle
 10
215.358741
 20
326.3243779999999
 30
0.0
 40
35.84362
100
AcDbArc
 50
90.0
 51
122.2648729999998
  0
ARC
  5
AB79
330
AB27
100
AcDbEntity
  8
1
  6
Continuous
100
AcDbCircle
 10
186.6999999999999
 20
191.062639
 30
0.0
 40
41.0
100
AcDbArc
 50
120.875319
 51
59.12468099999998
  0
LINE
  5
AB7A
330
AB27
100
AcDbEntity
  8
1
  6
Continuous
100
AcDbLine
 10
179.0
 20
355.7989609999999
 30
0.0
 11
179.0
 21
357.475278
 31
0.0
  0
LINE
  5
AB7B
330
AB27
100
AcDbEntity
  8
1
  6
Continuous
100
AcDbLine
 10
194.4
 20
355.7989609999999
 30
0.0
 11
194.4
 21
357.475278
 31
0.0
  0
LINE
  5
AB7C
330
AB27
100
AcDbEntity
  8
1
  6
Continuous
100
AcDbLine
 10
182.6999999999999
 20
362.475278
 30
0.0
 11
182.6999999999999
 21
363.2752779999998
 31
0.0
  0
LINE
  5
AB7D
330
AB27
100
AcDbEntity
  8
1
  6
Continuous
100
AcDbLine
 10
183.3
 20
363.8752779999999
 30
0.0
 11
182.6999999999999
 21
363.2752779999998
 31
0.0
  0
LINE
  5
AB7E
330
AB27
100
AcDbEntity
  8
1
  6
Continuous
100
AcDbLine
 10
182.6999999999999
 20
363.2752779999998
 30
0.0
 11
190.7
 21
363.2752779999998
 31
0.0
  0
LINE
  5
AB7F
330
AB27
100
AcDbEntity
  8
1
  6
Continuous
100
AcDbLine
 10
190.0999999999999
 20
363.8752779999999
 30
0.0
 11
183.3
 21
363.8752779999999
 31
0.0
  0
LINE
  5
AB80
330
AB27
100
AcDbEntity
  8
1
  6
Continuous
100
AcDbLine
 10
190.7
 20
362.475278
 30
0.0
 11
190.7
 21
363.2752779999998
 31
0.0
  0
LINE
  5
AB81
330
AB27
100
AcDbEntity
  8
1
  6
Continuous
100
AcDbLine
 10
190.0999999999999
 20
363.8752779999999
 30
0.0
 11
190.7
 21
363.2752779999998
 31
0.0
  0
CIRCLE
  5
AB82
330
AB27
100
AcDbEntity
  8
1
  6
Continuous
100
AcDbCircle
 10
212.8
 20
191.062639
 30
0.0
 40
3.7
  0
CIRCLE
  5
AB83
330
AB27
100
AcDbEntity
  8
1
  6
Continuous
100
AcDbCircle
 10
186.6999999999999
 20
164.9626389999999
 30
0.0
 40
3.7
  0
CIRCLE
  5
AB84
330
AB27
100
AcDbEntity
  8
1
  6
Continuous
100
AcDbCircle
 10
160.5999999999999
 20
191.062639
 30
0.0
 40
3.7
  0
LINE
  5
AB85
330
AB27
100
AcDbEntity
  8
1
  6
Continuous
100
AcDbLine
 10
181.1795579999999
 20
201.2421709999999
 30
0.0
 11
181.1795579999999
 21
260.2626389999999
 31
0.0
  0
LINE
  5
AB86
330
AB27
100
AcDbEntity
  8
1
  6
Continuous
100
AcDbLine
 10
192.2204419999999
 20
201.2421709999999
 30
0.0
 11
192.2204419999999
 21
260.2626389999999
 31
0.0
  0
ARC
  5
AB87
330
AB27
100
AcDbEntity
  8
1
  6
Continuous
100
AcDbCircle
 10
186.6999999999999
 20
191.062639
 30
0.0
 40
30.0
100
AcDbArc
 50
127.43485
 51
52.56515
  0
ARC
  5
AB88
330
AB27
100
AcDbEntity
  8
1
  6
Continuous
100
AcDbCircle
 10
186.6999999999999
 20
191.062639
 30
0.0
 40
21.49999999999999
100
AcDbArc
 50
137.783903
 51
42.216097
  0
LINE
  5
AB89
330
AB27
100
AcDbEntity
  8
2
  6
Continuous
100
AcDbLine
 10
183.3764999999999
 20
362.475278
 30
0.0
 11
183.3764999999999
 21
363.8752779999999
 31
0.0
  0
LINE
  5
AB8A
330
AB27
100
AcDbEntity
  8
2
  6
Continuous
100
AcDbLine
 10
190.0235
 20
362.475278
 30
0.0
 11
190.0235
 21
363.8752779999999
 31
0.0
  0
LINE
  5
AB8B
330
AB27
100
AcDbEntity
  8
4
  6
CENTER
100
AcDbLine
 10
133.6999999999999
 20
337.4252779999999
 30
0.0
 11
239.6999999999999
 21
337.4252779999999
 31
0.0
  0
LINE
  5
AB8C
330
AB27
100
AcDbEntity
  8
4
  6
CENTER
100
AcDbLine
 10
186.6999999999999
 20
365.8752779999999
 30
0.0
 11
186.6999999999999
 21
311.8163
 31
0.0
  0
LINE
  5
AB8D
330
AB27
100
AcDbEntity
  8
4
  6
CENTER
100
AcDbLine
 10
139.4499999999998
 20
355.425278
 30
0.0
 11
153.9499999999998
 21
355.425278
 31
0.0
  0
LINE
  5
AB8E
330
AB27
100
AcDbEntity
  8
4
  6
CENTER
100
AcDbLine
 10
146.6999999999998
 20
348.1752779999998
 30
0.0
 11
146.6999999999998
 21
362.6752779999998
 31
0.0
  0
LINE
  5
AB8F
330
AB27
100
AcDbEntity
  8
4
  6
CENTER
100
AcDbLine
 10
219.45
 20
355.425278
 30
0.0
 11
233.95
 21
355.425278
 31
0.0
  0
LINE
  5
AB90
330
AB27
100
AcDbEntity
  8
4
  6
CENTER
100
AcDbLine
 10
226.6999999999999
 20
348.1752779999998
 30
0.0
 11
226.6999999999999
 21
362.6752779999998
 31
0.0
  0
LINE
  5
AB91
330
AB27
100
AcDbEntity
  8
4
  6
CENTER
100
AcDbLine
 10
219.45
 20
319.4252779999998
 30
0.0
 11
233.95
 21
319.4252779999998
 31
0.0
  0
LINE
  5
AB92
330
AB27
100
AcDbEntity
  8
4
  6
CENTER
100
AcDbLine
 10
226.6999999999999
 20
312.175278
 30
0.0
 11
226.6999999999999
 21
326.675278
 31
0.0
  0
LINE
  5
AB93
330
AB27
100
AcDbEntity
  8
4
  6
CENTER
100
AcDbLine
 10
139.4499999999998
 20
319.4252779999998
 30
0.0
 11
153.9499999999998
 21
319.4252779999998
 31
0.0
  0
LINE
  5
AB94
330
AB27
100
AcDbEntity
  8
4
  6
CENTER
100
AcDbLine
 10
146.6999999999998
 20
312.175278
 30
0.0
 11
146.6999999999998
 21
326.675278
 31
0.0
  0
LINE
  5
AB95
330
AB27
100
AcDbEntity
  8
4
  6
CENTER
100
AcDbLine
 10
133.6999999999999
 20
191.062639
 30
0.0
 11
239.6999999999999
 21
191.062639
 31
0.0
  0
LINE
  5
AB96
330
AB27
100
AcDbEntity
  8
4
  6
CENTER
100
AcDbLine
 10
186.6999999999999
 20
138.0626389999999
 30
0.0
 11
186.6999999999999
 21
266.78665
 31
0.0
  0
LINE
  5
AB97
330
AB27
100
AcDbEntity
  8
4
  6
CENTER
100
AcDbLine
 10
146.6999999999998
 20
267.342058
 30
0.0
 11
146.6999999999998
 21
258.4635449999999
 31
0.0
  0
LINE
  5
AB98
330
AB27
100
AcDbEntity
  8
4
  6
CENTER
100
AcDbLine
 10
226.6999999999999
 20
267.342058
 30
0.0
 11
226.6999999999999
 21
258.4635449999999
 31
0.0
  0
ARC
  5
AB99
330
AB27
100
AcDbEntity
  8
1
  6
Continuous
100
AcDbCircle
 10
230.969323
 20
331.4252779999999
 30
0.0
 40
5.0
100
AcDbArc
 50
327.793789
 51
346.1134599999998
  0
ARC
  5
AB9A
330
AB27
100
AcDbEntity
  8
1
  6
Continuous
100
AcDbCircle
 10
206.6999999999999
 20
337.4252779999999
 30
0.0
 40
30.0
100
AcDbArc
 50
346.1134599999998
 51
13.89237399999999
  0
ARC
  5
AB9B
330
AB27
100
AcDbEntity
  8
1
  6
Continuous
100
AcDbCircle
 10
230.969323
 20
343.425278
 30
0.0
 40
5.0
100
AcDbArc
 50
13.88654
 51
32.20621099999998
  0
ARC
  5
AB9C
330
AB27
100
AcDbEntity
  8
1
  6
Continuous
100
AcDbCircle
 10
142.430677
 20
331.4252779999999
 30
0.0
 40
5.0
100
AcDbArc
 50
193.88654
 51
212.206211
  0
ARC
  5
AB9D
330
AB27
100
AcDbEntity
  8
1
  6
Continuous
100
AcDbCircle
 10
166.6999999999999
 20
337.4252779999999
 30
0.0
 40
30.0
100
AcDbArc
 50
166.107626
 51
193.88654
  0
ARC
  5
AB9E
330
AB27
100
AcDbEntity
  8
1
  6
Continuous
100
AcDbCircle
 10
142.430677
 20
343.425278
 30
0.0
 40
5.0
100
AcDbArc
 50
147.7937889999998
 51
166.11346
  0
LINE
  5
AB9F
330
AB27
100
AcDbEntity
  8
1
  6
Continuous
100
AcDbLine
 10
505.1999999999998
 20
264.0626389999998
 30
0.0
 11
408.1999999999998
 21
264.0626389999998
 31
0.0
  0
LINE
  5
ABA0
330
AB27
100
AcDbEntity
  8
4
  6
CENTER
100
AcDbLine
 10
509.7
 20
191.062639
 30
0.0
 11
403.6999999999999
 21
191.062639
 31
0.0
  0
ARC
  5
ABA1
330
AB27
100
AcDbEntity
  8
1
  6
Continuous
100
AcDbCircle
 10
456.7
 20
191.062639
 30
0.0
 40
41.0
100
AcDbArc
 50
120.875319
 51
59.12468099999998
  0
ARC
  5
ABA2
330
AB27
100
AcDbEntity
  8
1
  6
Continuous
100
AcDbCircle
 10
456.7
 20
191.062639
 30
0.0
 40
50.0
100
AcDbArc
 50
117.743212
 51
62.256788
  0
LINE
  5
ABA3
330
AB27
100
AcDbEntity
  8
1
  6
Continuous
100
AcDbLine
 10
486.3164089999998
 20
261.0206149999999
 30
0.0
 11
468.350775
 21
188.1887129999999
 31
0.0
  0
ARC
  5
ABA4
330
AB27
100
AcDbEntity
  8
1
  6
Continuous
100
AcDbCircle
 10
456.7
 20
191.062639
 30
0.0
 40
21.49999999999999
100
AcDbArc
 50
137.783903
 51
42.216097
  0
ARC
  5
ABA5
330
AB27
100
AcDbEntity
  8
1
  6
Continuous
100
AcDbCircle
 10
456.7
 20
191.062639
 30
0.0
 40
30.0
100
AcDbArc
 50
127.43485
 51
52.56515
  0
CIRCLE
  5
ABA6
330
AB27
100
AcDbEntity
  8
1
  6
Continuous
100
AcDbCircle
 10
482.8
 20
191.062639
 30
0.0
 40
3.7
  0
LINE
  5
ABA7
330
AB27
100
AcDbEntity
  8
1
  6
Continuous
100
AcDbLine
 10
505.1999999999998
 20
261.7626389999999
 30
0.0
 11
490.2
 21
261.7626389999999
 31
0.0
  0
LINE
  5
ABA8
330
AB27
100
AcDbEntity
  8
1
  6
Continuous
100
AcDbLine
 10
505.1999999999998
 20
264.0626389999998
 30
0.0
 11
505.1999999999998
 21
261.7626389999999
 31
0.0
  0
ARC
  5
ABA9
330
AB27
100
AcDbEntity
  8
1
  6
Continuous
100
AcDbCircle
 10
490.2
 20
257.0383379999999
 30
0.0
 40
4.724301999999998
100
AcDbArc
 50
90.0
 51
166.1433289999999
  0
LINE
  5
ABAA
330
AB27
100
AcDbEntity
  8
4
  6
CENTER
100
AcDbLine
 10
496.6999999999998
 20
267.342058
 30
0.0
 11
496.6999999999998
 21
258.4635449999999
 31
0.0
  0
ARC
  5
ABAB
330
AB27
100
AcDbEntity
  8
1
  6
Continuous
100
AcDbCircle
 10
490.2
 20
260.0626389999998
 30
0.0
 40
4.0
100
AcDbArc
 50
90.0
 51
166.1433289999999
  0
LINE
  5
ABAC
330
AB27
100
AcDbEntity
  8
1
  6
Continuous
100
AcDbLine
 10
427.083592
 20
261.0206149999999
 30
0.0
 11
445.0492259999998
 21
188.1887129999999
 31
0.0
  0
LINE
  5
ABAD
330
AB27
100
AcDbEntity
  8
1
  6
Continuous
100
AcDbLine
 10
451.179558
 20
201.2421709999999
 30
0.0
 11
451.179558
 21
260.2626389999999
 31
0.0
  0
LINE
  5
ABAE
330
AB27
100
AcDbEntity
  8
1
  6
Continuous
100
AcDbLine
 10
462.220442
 20
201.2421709999999
 30
0.0
 11
462.220442
 21
260.2626389999999
 31
0.0
  0
LINE
  5
ABAF
330
AB27
100
AcDbEntity
  8
4
  6
CENTER
100
AcDbLine
 10
456.7
 20
138.0626389999999
 30
0.0
 11
456.7
 21
266.78665
 31
0.0
  0
CIRCLE
  5
ABB0
330
AB27
100
AcDbEntity
  8
1
  6
Continuous
100
AcDbCircle
 10
456.7
 20
164.9626389999999
 30
0.0
 40
3.7
  0
ARC
  5
ABB1
330
AB27
100
AcDbEntity
  8
1
  6
Continuous
100
AcDbCircle
 10
456.7
 20
191.062639
 30
0.0
 40
12.0
100
AcDbArc
 50
193.856671
 51
346.1433289999998
  0
CIRCLE
  5
ABB2
330
AB27
100
AcDbEntity
  8
1
  6
Continuous
100
AcDbCircle
 10
430.6
 20
191.062639
 30
0.0
 40
3.7
  0
LINE
  5
ABB3
330
AB27
100
AcDbEntity
  8
1
  6
Continuous
100
AcDbLine
 10
408.1999999999998
 20
261.7626389999999
 30
0.0
 11
423.2
 21
261.7626389999999
 31
0.0
  0
ARC
  5
ABB4
330
AB27
100
AcDbEntity
  8
1
  6
Continuous
100
AcDbCircle
 10
423.2
 20
257.0383379999999
 30
0.0
 40
4.724301999999998
100
AcDbArc
 50
13.856671
 51
90.0
  0
ARC
  5
ABB5
330
AB27
100
AcDbEntity
  8
1
  6
Continuous
100
AcDbCircle
 10
423.2
 20
260.0626389999998
 30
0.0
 40
4.0
100
AcDbArc
 50
13.856671
 51
90.0
  0
LINE
  5
ABB6
330
AB27
100
AcDbEntity
  8
1
  6
Continuous
100
AcDbLine
 10
408.1999999999998
 20
264.0626389999998
 30
0.0
 11
408.1999999999998
 21
261.7626389999999
 31
0.0
  0
LINE
  5
ABB7
330
AB27
100
AcDbEntity
  8
4
  6
CENTER
100
AcDbLine
 10
416.6999999999998
 20
267.342058
 30
0.0
 11
416.6999999999998
 21
258.4635449999999
 31
0.0
  0
ARC
  5
ABB8
330
AB27
100
AcDbEntity
  8
1
  6
Continuous
100
AcDbCircle
 10
55.837856
 20
195.0802469999999
 30
0.0
 40
19.0
100
AcDbArc
 50
142.818892
 51
165.4165309999999
  0
ARC
  5
ABB9
330
AB27
100
AcDbEntity
  8
1
  6
Continuous
100
AcDbCircle
 10
124.948359
 20
214.0626389999999
 30
0.0
 40
97.99107800000001
100
AcDbArc
 50
180.0
 51
194.781008
  0
ARC
  5
ABBA
330
AB27
100
AcDbEntity
  8
1
  6
Continuous
100
AcDbCircle
 10
124.948359
 20
214.0626389999999
 30
0.0
 40
95.69107800000001
100
AcDbArc
 50
180.0
 51
194.781008
  0
LINE
  5
ABBB
330
AB27
100
AcDbEntity
  8
1
  6
Continuous
100
AcDbLine
 10
35.95000000000001
 20
179.0626389999999
 30
0.0
 11
35.95000000000001
 21
260.2626389999999
 31
0.0
  0
ARC
  5
ABBC
330
AB27
100
AcDbEntity
  8
1
  6
Continuous
100
AcDbCircle
 10
47.562145
 20
195.0802469999999
 30
0.0
 40
19.0
100
AcDbArc
 50
14.583469
 51
37.181108
  0
ARC
  5
ABBD
330
AB27
100
AcDbEntity
  8
1
  6
Continuous
100
AcDbCircle
 10
-21.548359
 20
214.0626389999999
 30
0.0
 40
97.99107800000001
100
AcDbArc
 50
345.218992
 51
0.0
  0
ARC
  5
ABBE
330
AB27
100
AcDbEntity
  8
1
  6
Continuous
100
AcDbCircle
 10
-21.548359
 20
214.0626389999999
 30
0.0
 40
95.69107800000001
100
AcDbArc
 50
345.218992
 51
0.0
  0
LINE
  5
ABBF
330
AB27
100
AcDbEntity
  8
1
  6
Continuous
100
AcDbLine
 10
67.45
 20
179.0626389999999
 30
0.0
 11
67.45
 21
260.2626389999999
 31
0.0
  0
LINE
  5
ABC0
330
AB27
100
AcDbEntity
  8
1
  6
Continuous
100
AcDbLine
 10
62.7
 20
146.793317
 30
0.0
 11
62.7
 21
235.331962
 31
0.0
  0
LINE
  5
ABC1
330
AB27
100
AcDbEntity
  8
1
  6
Continuous
100
AcDbLine
 10
40.7
 20
146.793317
 30
0.0
 11
40.7
 21
235.331962
 31
0.0
  0
LINE
  5
ABC2
330
AB27
100
AcDbEntity
  8
4
  6
CENTER
100
AcDbLine
 10
51.7
 20
267.0626389999998
 30
0.0
 11
51.7
 21
138.0626389999999
 31
0.0
  0
LINE
  5
ABC3
330
AB27
100
AcDbEntity
  8
4
  6
CENTER
100
AcDbLine
 10
77.30897799999998
 20
191.062639
 30
0.0
 11
22.01726499999999
 21
191.062639
 31
0.0
  0
ARC
  5
ABC4
330
AB27
100
AcDbEntity
  8
1
  6
Continuous
100
AcDbCircle
 10
51.7
 20
171.0626389999999
 30
0.0
 40
30.0
100
AcDbArc
 50
256.1134599999999
 51
283.892374
  0
ARC
  5
ABC5
330
AB27
100
AcDbEntity
  8
1
  6
Continuous
100
AcDbCircle
 10
57.7
 20
146.793316
 30
0.0
 40
5.0
100
AcDbArc
 50
283.8865399999999
 51
0.0
  0
ARC
  5
ABC6
330
AB27
100
AcDbEntity
  8
1
  6
Continuous
100
AcDbCircle
 10
45.7
 20
146.793316
 30
0.0
 40
5.0
100
AcDbArc
 50
180.0
 51
256.1134599999999
  0
ARC
  5
ABC7
330
AB27
100
AcDbEntity
  8
1
  6
Continuous
100
AcDbCircle
 10
43.66121999999999
 20
196.8566479999998
 30
0.0
 40
30.549731
100
AcDbArc
 50
331.8520689999999
 51
345.218992
  0
ARC
  5
ABC8
330
AB27
100
AcDbEntity
  8
1
  6
Continuous
100
AcDbCircle
 10
43.66121999999999
 20
196.8566479999998
 30
0.0
 40
28.249731
100
AcDbArc
 50
331.8520689999999
 51
345.218992
  0
LINE
  5
ABC9
330
AB27
100
AcDbEntity
  8
1
  6
Continuous
100
AcDbLine
 10
66.95
 20
198.5626399999999
 30
0.0
 11
66.95
 21
183.5626389999999
 31
0.0
  0
LINE
  5
ABCA
330
AB27
100
AcDbEntity
  8
1
  6
Continuous
100
AcDbLine
 10
65.95
 20
199.86426
 30
0.0
 11
65.95
 21
182.2610189999998
 31
0.0
  0
ARC
  5
ABCB
330
AB27
100
AcDbEntity
  8
1
  6
Continuous
100
AcDbCircle
 10
76.919444
 20
179.0626389999999
 30
0.0
 40
7.169444
100
AcDbArc
 50
151.852069
 51
180.0
  0
ARC
  5
ABCC
330
AB27
100
AcDbEntity
  8
1
  6
Continuous
100
AcDbCircle
 10
65.0037
 20
184.022983
 30
0.0
 40
2.0
100
AcDbArc
 50
298.2389669999998
 51
346.6928189999999
  0
LINE
  5
ABCD
330
AB27
100
AcDbEntity
  8
1
  6
Continuous
100
AcDbLine
 10
67.45
 20
179.0626389999999
 30
0.0
 11
69.75
 21
179.0626389999999
 31
0.0
  0
ARC
  5
ABCE
330
AB27
100
AcDbEntity
  8
1
  6
Continuous
100
AcDbCircle
 10
76.919444
 20
179.0626389999999
 30
0.0
 40
9.469443999999999
100
AcDbArc
 50
151.852069
 51
180.0
  0
ARC
  5
ABCF
330
AB27
100
AcDbEntity
  8
1
  6
Continuous
100
AcDbCircle
 10
47.562145
 20
187.0450319999999
 30
0.0
 40
19.0
100
AcDbArc
 50
322.818892
 51
345.416531
  0
ARC
  5
ABD0
330
AB27
100
AcDbEntity
  8
1
  6
Continuous
100
AcDbCircle
 10
65.0037
 20
198.1022959999999
 30
0.0
 40
2.0
100
AcDbArc
 50
13.30718099999998
 51
61.761033
  0
LINE
  5
ABD1
330
AB27
100
AcDbEntity
  8
1
  6
Continuous
100
AcDbLine
 10
67.45
 20
185.5626389999999
 30
0.0
 11
66.95
 21
185.5626389999999
 31
0.0
  0
LINE
  5
ABD2
330
AB27
100
AcDbEntity
  8
1
  6
Continuous
100
AcDbLine
 10
67.45
 20
196.5626389999999
 30
0.0
 11
66.95
 21
196.5626389999999
 31
0.0
  0
ARC
  5
ABD3
330
AB27
100
AcDbEntity
  8
1
  6
Continuous
100
AcDbCircle
 10
59.73878
 20
196.8566479999998
 30
0.0
 40
30.549731
100
AcDbArc
 50
194.781008
 51
208.147931
  0
ARC
  5
ABD4
330
AB27
100
AcDbEntity
  8
1
  6
Continuous
100
AcDbCircle
 10
59.73878
 20
196.8566479999998
 30
0.0
 40
28.249731
100
AcDbArc
 50
194.781008
 51
208.147931
  0
LINE
  5
ABD5
330
AB27
100
AcDbEntity
  8
1
  6
Continuous
100
AcDbLine
 10
36.45
 20
198.5626399999999
 30
0.0
 11
36.45
 21
183.5626389999999
 31
0.0
  0
LINE
  5
ABD6
330
AB27
100
AcDbEntity
  8
1
  6
Continuous
100
AcDbLine
 10
37.45
 20
199.864257
 30
0.0
 11
37.45
 21
182.2610189999998
 31
0.0
  0
ARC
  5
ABD7
330
AB27
100
AcDbEntity
  8
1
  6
Continuous
100
AcDbCircle
 10
55.837856
 20
187.0450319999999
 30
0.0
 40
19.0
100
AcDbArc
 50
194.583469
 51
217.1811079999999
  0
LINE
  5
ABD8
330
AB27
100
AcDbEntity
  8
1
  6
Continuous
100
AcDbLine
 10
35.95000000000001
 20
179.0626389999999
 30
0.0
 11
33.65
 21
179.0626389999999
 31
0.0
  0
ARC
  5
ABD9
330
AB27
100
AcDbEntity
  8
1
  6
Continuous
100
AcDbCircle
 10
26.480556
 20
179.0626389999999
 30
0.0
 40
7.169444
100
AcDbArc
 50
0.0
 51
28.147931
  0
ARC
  5
ABDA
330
AB27
100
AcDbEntity
  8
1
  6
Continuous
100
AcDbCircle
 10
38.39629999999999
 20
184.022983
 30
0.0
 40
2.0
100
AcDbArc
 50
193.3071809999999
 51
241.761033
  0
ARC
  5
ABDB
330
AB27
100
AcDbEntity
  8
1
  6
Continuous
100
AcDbCircle
 10
26.480556
 20
179.0626389999999
 30
0.0
 40
9.469443999999999
100
AcDbArc
 50
0.0
 51
28.147931
  0
ARC
  5
ABDC
330
AB27
100
AcDbEntity
  8
1
  6
Continuous
100
AcDbCircle
 10
38.39629999999999
 20
198.1022959999999
 30
0.0
 40
2.0
100
AcDbArc
 50
118.2389669999998
 51
166.6928189999999
  0
LINE
  5
ABDD
330
AB27
100
AcDbEntity
  8
1
  6
Continuous
100
AcDbLine
 10
35.95000000000001
 20
185.5626389999999
 30
0.0
 11
36.45
 21
185.5626389999999
 31
0.0
  0
LINE
  5
ABDE
330
AB27
100
AcDbEntity
  8
1
  6
Continuous
100
AcDbLine
 10
35.95000000000001
 20
196.5626389999999
 30
0.0
 11
36.45
 21
196.5626389999999
 31
0.0
  0
LINE
  5
ABDF
330
AB27
100
AcDbEntity
  8
1
  6
Continuous
100
AcDbLine
 10
26.95727999999999
 20
259.062639
 30
0.0
 11
26.95727999999999
 21
214.0626389999999
 31
0.0
  0
LINE
  5
ABE0
330
AB27
100
AcDbEntity
  8
1
  6
Continuous
100
AcDbLine
 10
29.25727999999999
 20
259.062639
 30
0.0
 11
29.25727999999999
 21
214.0626389999999
 31
0.0
  0
LINE
  5
ABE1
330
AB27
100
AcDbEntity
  8
1
  6
Continuous
100
AcDbLine
 10
76.44271999999998
 20
259.062639
 30
0.0
 11
76.44271999999998
 21
214.0626389999999
 31
0.0
  0
LINE
  5
ABE2
330
AB27
100
AcDbEntity
  8
1
  6
Continuous
100
AcDbLine
 10
74.14271999999998
 20
259.062639
 30
0.0
 11
74.14271999999998
 21
214.0626389999999
 31
0.0
  0
ARC
  5
ABE3
330
AB27
100
AcDbEntity
  8
1
  6
Continuous
100
AcDbCircle
 10
51.7
 20
211.0626389999999
 30
0.0
 40
30.0
100
AcDbArc
 50
76.10762599999998
 51
103.8865399999999
  0
ARC
  5
ABE4
330
AB27
100
AcDbEntity
  8
1
  6
Continuous
100
AcDbCircle
 10
57.7
 20
235.331962
 30
0.0
 40
5.0
100
AcDbArc
 50
0.0
 51
76.11346000000001
  0
ARC
  5
ABE5
330
AB27
100
AcDbEntity
  8
1
  6
Continuous
100
AcDbCircle
 10
45.7
 20
235.331962
 30
0.0
 40
5.0
100
AcDbArc
 50
103.8865399999999
 51
180.0
  0
LINE
  5
ABE6
330
AB27
100
AcDbEntity
  8
1
  6
Continuous
100
AcDbLine
 10
78.2
 20
264.0626389999998
 30
0.0
 11
25.2
 21
264.0626389999998
 31
0.0
  0
LINE
  5
ABE7
330
AB27
100
AcDbEntity
  8
1
  6
Continuous
100
AcDbLine
 10
78.2
 20
261.7626389999999
 30
0.0
 11
25.2
 21
261.7626389999999
 31
0.0
  0
ARC
  5
ABE8
330
AB27
100
AcDbEntity
  8
1
  6
Continuous
100
AcDbCircle
 10
71.44271999999998
 20
259.062639
 30
0.0
 40
5.0
100
AcDbArc
 50
0.0
 51
32.683639
  0
ARC
  5
ABE9
330
AB27
100
AcDbEntity
  8
1
  6
Continuous
100
AcDbCircle
 10
71.44271999999998
 20
259.062639
 30
0.0
 40
2.7
100
AcDbArc
 50
0.0
 51
90.0
  0
LINE
  5
ABEA
330
AB27
100
AcDbEntity
  8
1
  6
Continuous
100
AcDbLine
 10
78.2
 20
264.0626389999998
 30
0.0
 11
78.2
 21
261.7626389999999
 31
0.0
  0
ARC
  5
ABEB
330
AB27
100
AcDbEntity
  8
1
  6
Continuous
100
AcDbCircle
 10
65.95
 20
260.2626389999999
 30
0.0
 40
1.5
100
AcDbArc
 50
0.0
 51
90.0
  0
LINE
  5
ABEC
330
AB27
100
AcDbEntity
  8
4
  6
CENTER
100
AcDbLine
 10
69.7
 20
266.5678119999999
 30
0.0
 11
69.7
 21
258.950446
 31
0.0
  0
ARC
  5
ABED
330
AB27
100
AcDbEntity
  8
1
  6
Continuous
100
AcDbCircle
 10
31.95727999999999
 20
259.062639
 30
0.0
 40
5.0
100
AcDbArc
 50
147.316361
 51
180.0
  0
ARC
  5
ABEE
330
AB27
100
AcDbEntity
  8
1
  6
Continuous
100
AcDbCircle
 10
31.95727999999999
 20
259.062639
 30
0.0
 40
2.7
100
AcDbArc
 50
90.0
 51
180.0
  0
ARC
  5
ABEF
330
AB27
100
AcDbEntity
  8
1
  6
Continuous
100
AcDbCircle
 10
37.45
 20
260.2626389999999
 30
0.0
 40
1.5
100
AcDbArc
 50
90.0
 51
180.0
  0
LINE
  5
ABF0
330
AB27
100
AcDbEntity
  8
1
  6
Continuous
100
AcDbLine
 10
25.2
 20
264.0626389999998
 30
0.0
 11
25.2
 21
261.7626389999999
 31
0.0
  0
LINE
  5
ABF1
330
AB27
100
AcDbEntity
  8
4
  6
CENTER
100
AcDbLine
 10
33.7
 20
266.5678119999999
 30
0.0
 11
33.7
 21
258.950446
 31
0.0
  0
ARC
  5
ABF2
330
AB27
100
AcDbEntity
  8
1
  6
Continuous
100
AcDbCircle
 10
158.0412579999999
 20
78.8009
 30
0.0
 40
35.84362
100
AcDbArc
 50
270.0
 51
302.264873
  0
ARC
  5
ABF3
330
AB27
100
AcDbEntity
  8
1
  6
Continuous
100
AcDbCircle
 10
158.0412579999999
 20
56.59909999999999
 30
0.0
 40
35.84362
100
AcDbArc
 50
57.73512700000001
 51
90.0
  0
LINE
  5
ABF4
330
AB27
100
AcDbEntity
  8
4
  6
CENTER
100
AcDbLine
 10
133.6999999999999
 20
67.7
 30
0.0
 11
239.6999999999999
 21
67.7
 31
0.0
  0
ARC
  5
ABF5
330
AB27
100
AcDbEntity
  8
1
  6
Continuous
100
AcDbCircle
 10
166.6999999999999
 20
67.7
 30
0.0
 40
30.0
100
AcDbArc
 50
166.11346
 51
193.892374
  0
LINE
  5
ABF6
330
AB27
100
AcDbEntity
  8
1
  6
Continuous
100
AcDbLine
 10
138.1999999999998
 20
49.7
 30
0.0
 11
138.1999999999998
 21
59.03515999999999
 31
0.0
  0
LINE
  5
ABF7
330
AB27
100
AcDbEntity
  8
4
  6
CENTER
100
AcDbLine
 10
146.6999999999998
 20
92.94999999999999
 30
0.0
 11
146.6999999999998
 21
78.45
 31
0.0
  0
ARC
  5
ABF8
330
AB27
100
AcDbEntity
  8
1
  6
Continuous
100
AcDbCircle
 10
146.6999999999998
 20
85.7
 30
0.0
 40
8.5
100
AcDbArc
 50
59.632956
 51
180.0
  0
CIRCLE
  5
ABF9
330
AB27
100
AcDbEntity
  8
1
  6
Continuous
100
AcDbCircle
 10
146.6999999999998
 20
85.7
 30
0.0
 40
4.25
  0
LINE
  5
ABFA
330
AB27
100
AcDbEntity
  8
1
  6
Continuous
100
AcDbLine
 10
154.3948679999998
 20
91.04298900000001
 30
0.0
 11
150.9970689999998
 21
93.033839
 31
0.0
  0
ARC
  5
ABFB
330
AB27
100
AcDbEntity
  8
1
  6
Continuous
100
AcDbCircle
 10
155.658712
 20
93.2
 30
0.0
 40
2.5
100
AcDbArc
 50
239.6329559999998
 51
342.367408
  0
LINE
  5
ABFC
330
AB27
100
AcDbEntity
  8
4
  6
CENTER
100
AcDbLine
 10
139.4499999999998
 20
85.7
 30
0.0
 11
153.9499999999998
 21
85.7
 31
0.0
  0
ARC
  5
ABFD
330
AB27
100
AcDbEntity
  8
1
  6
Continuous
100
AcDbCircle
 10
155.658712
 20
42.2
 30
0.0
 40
2.5
100
AcDbArc
 50
17.632592
 51
120.3670439999998
  0
ARC
  5
ABFE
330
AB27
100
AcDbEntity
  8
1
  6
Continuous
100
AcDbCircle
 10
146.6999999999998
 20
49.7
 30
0.0
 40
8.5
100
AcDbArc
 50
180.0
 51
300.367044
  0
LINE
  5
ABFF
330
AB27
100
AcDbEntity
  8
4
  6
CENTER
100
AcDbLine
 10
146.6999999999998
 20
56.95
 30
0.0
 11
146.6999999999998
 21
42.45
 31
0.0
  0
LINE
  5
AC00
330
AB27
100
AcDbEntity
  8
4
  6
CENTER
100
AcDbLine
 10
139.4499999999998
 20
49.7
 30
0.0
 11
153.9499999999998
 21
49.7
 31
0.0
  0
CIRCLE
  5
AC01
330
AB27
100
AcDbEntity
  8
1
  6
Continuous
100
AcDbCircle
 10
146.6999999999998
 20
49.7
 30
0.0
 40
4.25
  0
LINE
  5
AC02
330
AB27
100
AcDbEntity
  8
1
  6
Continuous
100
AcDbLine
 10
154.3948679999998
 20
44.35701199999999
 30
0.0
 11
150.9970689999998
 21
42.36616099999999
 31
0.0
  0
ARC
  5
AC03
330
AB27
100
AcDbEntity
  8
1
  6
Continuous
100
AcDbCircle
 10
226.6999999999999
 20
49.7
 30
0.0
 40
8.5
100
AcDbArc
 50
239.6329559999998
 51
0.0
  0
LINE
  5
AC04
330
AB27
100
AcDbEntity
  8
4
  6
CENTER
100
AcDbLine
 10
219.45
 20
49.7
 30
0.0
 11
233.95
 21
49.7
 31
0.0
  0
ARC
  5
AC05
330
AB27
100
AcDbEntity
  8
1
  6
Continuous
100
AcDbCircle
 10
226.6999999999999
 20
85.7
 30
0.0
 40
8.5
100
AcDbArc
 50
0.0
 51
120.3670439999998
  0
CIRCLE
  5
AC06
330
AB27
100
AcDbEntity
  8
1
  6
Continuous
100
AcDbCircle
 10
226.6999999999999
 20
85.7
 30
0.0
 40
4.25
  0
LINE
  5
AC07
330
AB27
100
AcDbEntity
  8
4
  6
CENTER
100
AcDbLine
 10
219.45
 20
85.7
 30
0.0
 11
233.95
 21
85.7
 31
0.0
  0
CIRCLE
  5
AC08
330
AB27
100
AcDbEntity
  8
1
  6
Continuous
100
AcDbCircle
 10
226.6999999999999
 20
49.7
 30
0.0
 40
4.25
  0
LINE
  5
AC09
330
AB27
100
AcDbEntity
  8
4
  6
CENTER
100
AcDbLine
 10
186.6999999999999
 20
39.25
 30
0.0
 11
186.6999999999999
 21
93.308978
 31
0.0
  0
LINE
  5
AC0A
330
AB27
100
AcDbEntity
  8
1
  6
Continuous
100
AcDbLine
 10
192.2204419999999
 20
85.75000000000001
 30
0.0
 11
181.1795579999999
 21
85.75000000000001
 31
0.0
  0
ARC
  5
AC0B
330
AB27
100
AcDbEntity
  8
1
  6
Continuous
100
AcDbCircle
 10
181.1795579999999
 20
93.25000000000001
 30
0.0
 40
7.5
100
AcDbArc
 50
237.735127
 51
270.0
  0
ARC
  5
AC0C
330
AB27
100
AcDbEntity
  8
1
  6
Continuous
100
AcDbCircle
 10
215.358741
 20
56.59909999999999
 30
0.0
 40
35.84362
100
AcDbArc
 50
90.0
 51
122.2648729999998
  0
LINE
  5
AC0D
330
AB27
100
AcDbEntity
  8
1
  6
Continuous
100
AcDbLine
 10
219.005131
 20
91.04298900000001
 30
0.0
 11
222.4029299999999
 21
93.033839
 31
0.0
  0
ARC
  5
AC0E
330
AB27
100
AcDbEntity
  8
1
  6
Continuous
100
AcDbCircle
 10
217.7412879999998
 20
93.2
 30
0.0
 40
2.5
100
AcDbArc
 50
197.6325919999999
 51
300.367044
  0
ARC
  5
AC0F
330
AB27
100
AcDbEntity
  8
1
  6
Continuous
100
AcDbCircle
 10
192.2204419999999
 20
93.25000000000001
 30
0.0
 40
7.5
100
AcDbArc
 50
270.0
 51
302.264873
  0
LINE
  5
AC10
330
AB27
100
AcDbEntity
  8
1
  6
Continuous
100
AcDbLine
 10
192.2204419999999
 20
49.64999999999999
 30
0.0
 11
181.1795579999999
 21
49.64999999999999
 31
0.0
  0
ARC
  5
AC11
330
AB27
100
AcDbEntity
  8
1
  6
Continuous
100
AcDbCircle
 10
181.1795579999999
 20
42.14999999999998
 30
0.0
 40
7.5
100
AcDbArc
 50
90.0
 51
122.2648729999998
  0
ARC
  5
AC12
330
AB27
100
AcDbEntity
  8
1
  6
Continuous
100
AcDbCircle
 10
217.7412879999998
 20
42.2
 30
0.0
 40
2.5
100
AcDbArc
 50
59.632956
 51
162.367408
  0
ARC
  5
AC13
330
AB27
100
AcDbEntity
  8
1
  6
Continuous
100
AcDbCircle
 10
215.358741
 20
78.8009
 30
0.0
 40
35.84362
100
AcDbArc
 50
237.735127
 51
270.0
  0
ARC
  5
AC14
330
AB27
100
AcDbEntity
  8
1
  6
Continuous
100
AcDbCircle
 10
192.2204419999999
 20
42.14999999999998
 30
0.0
 40
7.5
100
AcDbArc
 50
57.73512700000001
 51
90.0
  0
LINE
  5
AC15
330
AB27
100
AcDbEntity
  8
1
  6
Continuous
100
AcDbLine
 10
219.005131
 20
44.35701199999999
 30
0.0
 11
222.4029299999999
 21
42.36616099999999
 31
0.0
  0
ARC
  5
AC16
330
AB27
100
AcDbEntity
  8
1
  6
Continuous
100
AcDbCircle
 10
206.6999999999999
 20
67.7
 30
0.0
 40
30.0
100
AcDbArc
 50
346.107626
 51
13.88654
  0
LINE
  5
AC17
330
AB27
100
AcDbEntity
  8
1
  6
Continuous
100
AcDbLine
 10
235.1999999999999
 20
49.7
 30
0.0
 11
235.1999999999999
 21
59.03515999999999
 31
0.0
  0
LINE
  5
AC18
330
AB27
100
AcDbEntity
  8
4
  6
CENTER
100
AcDbLine
 10
226.6999999999999
 20
92.94999999999999
 30
0.0
 11
226.6999999999999
 21
78.45
 31
0.0
  0
LINE
  5
AC19
330
AB27
100
AcDbEntity
  8
4
  6
CENTER
100
AcDbLine
 10
226.6999999999999
 20
56.95
 30
0.0
 11
226.6999999999999
 21
42.45
 31
0.0
  0
CIRCLE
  5
AC1A
330
AB27
100
AcDbEntity
  8
1
  6
Continuous
100
AcDbCircle
 10
456.7
 20
191.062639
 30
0.0
 40
4.0
  0
CIRCLE
  5
AC1B
330
AB27
100
AcDbEntity
  8
2
  6
Continuous
100
AcDbCircle
 10
456.7
 20
191.062639
 30
0.0
 40
3.3235
  0
CIRCLE
  5
AC1C
330
AB27
100
AcDbEntity
  8
1
  6
Continuous
100
AcDbCircle
 10
456.7
 20
191.062639
 30
0.0
 40
7.7
  0
ARC
  5
AC1D
330
AB27
100
AcDbEntity
  8
1
  6
Continuous
100
AcDbCircle
 10
230.969323
 20
61.7
 30
0.0
 40
5.0
100
AcDbArc
 50
270.0
 51
346.1134599999998
  0
LINE
  5
AC1E
330
AB27
100
AcDbEntity
  8
1
  6
Continuous
100
AcDbLine
 10
142.430678
 20
56.7
 30
0.0
 11
230.969323
 21
56.7
 31
0.0
  0
LINE
  5
AC1F
330
AB27
100
AcDbEntity
  8
1
  6
Continuous
100
AcDbLine
 10
142.430678
 20
78.7
 30
0.0
 11
230.969323
 21
78.7
 31
0.0
  0
ARC
  5
AC20
330
AB27
100
AcDbEntity
  8
1
  6
Continuous
100
AcDbCircle
 10
230.969323
 20
73.7
 30
0.0
 40
5.0
100
AcDbArc
 50
13.88654
 51
90.0
  0
ARC
  5
AC21
330
AB27
100
AcDbEntity
  8
1
  6
Continuous
100
AcDbCircle
 10
142.430677
 20
73.7
 30
0.0
 40
5.0
100
AcDbArc
 50
90.0
 51
166.11346
  0
ARC
  5
AC22
330
AB27
100
AcDbEntity
  8
1
  6
Continuous
100
AcDbCircle
 10
142.430677
 20
61.7
 30
0.0
 40
5.0
100
AcDbArc
 50
193.88654
 51
270.0
  0
LINE
  5
AC23
330
AB27
100
AcDbEntity
  8
1
  6
Continuous
100
AcDbLine
 10
235.1999999999999
 20
76.36484
 30
0.0
 11
235.1999999999999
 21
85.7
 31
0.0
  0
LINE
  5
AC24
330
AB27
100
AcDbEntity
  8
1
  6
Continuous
100
AcDbLine
 10
138.1999999999998
 20
76.36484
 30
0.0
 11
138.1999999999998
 21
85.7
 31
0.0
  0
LINE
  5
AC25
330
AB27
100
AcDbEntity
  8
1
  6
Continuous
100
AcDbLine
 10
192.2204419999999
 20
83.45
 30
0.0
 11
181.1795579999999
 21
83.45
 31
0.0
  0
ARC
  5
AC26
330
AB27
100
AcDbEntity
  8
1
  6
Continuous
100
AcDbCircle
 10
218.0450879999999
 20
50.878586
 30
0.0
 40
39.822573
100
AcDbArc
 50
90.43710500000001
 51
121.1393049999999
  0
ARC
  5
AC27
330
AB27
100
AcDbEntity
  8
1
  6
Continuous
100
AcDbCircle
 10
192.2204419999999
 20
93.25000000000001
 30
0.0
 40
9.8
100
AcDbArc
 50
270.0
 51
302.264873
  0
ARC
  5
AC28
330
AB27
100
AcDbEntity
  8
1
  6
Continuous
100
AcDbCircle
 10
181.1795579999999
 20
93.25000000000001
 30
0.0
 40
9.8
100
AcDbArc
 50
237.735127
 51
270.0
  0
ARC
  5
AC29
330
AB27
100
AcDbEntity
  8
1
  6
Continuous
100
AcDbCircle
 10
155.1587519999999
 20
50.18482999999999
 30
0.0
 40
40.51825499999997
100
AcDbArc
 50
59.130587
 51
89.293002
  0
ARC
  5
AC2A
330
AB27
100
AcDbEntity
  8
1
  6
Continuous
100
AcDbCircle
 10
218.0450879999999
 20
84.52141399999998
 30
0.0
 40
39.822573
100
AcDbArc
 50
238.8606949999999
 51
269.562895
  0
ARC
  5
AC2B
330
AB27
100
AcDbEntity
  8
1
  6
Continuous
100
AcDbCircle
 10
192.2204419999999
 20
42.14999999999998
 30
0.0
 40
9.8
100
AcDbArc
 50
57.73512700000001
 51
90.0
  0
LINE
  5
AC2C
330
AB27
100
AcDbEntity
  8
1
  6
Continuous
100
AcDbLine
 10
192.2204419999999
 20
51.95
 30
0.0
 11
181.1795579999999
 21
51.95
 31
0.0
  0
ARC
  5
AC2D
330
AB27
100
AcDbEntity
  8
1
  6
Continuous
100
AcDbCircle
 10
181.1795579999999
 20
42.14999999999998
 30
0.0
 40
9.8
100
AcDbArc
 50
90.0
 51
122.2648729999998
  0
ARC
  5
AC2E
330
AB27
100
AcDbEntity
  8
1
  6
Continuous
100
AcDbCircle
 10
155.1587519999999
 20
85.21517000000001
 30
0.0
 40
40.51825499999997
100
AcDbArc
 50
270.7069979999999
 51
300.869413
  0
ARC
  5
AC2F
330
AB27
100
AcDbEntity
  8
1
  6
Continuous
100
AcDbCircle
 10
190.717607
 20
71.837856
 30
0.0
 40
19.0
100
AcDbArc
 50
284.583469
 51
307.1811079999998
  0
ARC
  5
AC30
330
AB27
100
AcDbEntity
  8
1
  6
Continuous
100
AcDbCircle
 10
190.717607
 20
63.562145
 30
0.0
 40
19.0
100
AcDbArc
 50
52.81889200000001
 51
75.41653100000002
  0
ARC
  5
AC31
330
AB27
100
AcDbEntity
  8
1
  6
Continuous
100
AcDbCircle
 10
182.682392
 20
63.562145
 30
0.0
 40
19.0
100
AcDbArc
 50
104.5834689999998
 51
127.181108
  0
LINE
  5
AC32
330
AB27
100
AcDbEntity
  8
1
  6
Continuous
100
AcDbLine
 10
179.1999989999999
 20
52.45
 30
0.0
 11
194.1999999999999
 21
52.45
 31
0.0
  0
LINE
  5
AC33
330
AB27
100
AcDbEntity
  8
1
  6
Continuous
100
AcDbLine
 10
177.898382
 20
53.45
 30
0.0
 11
195.50162
 21
53.45
 31
0.0
  0
LINE
  5
AC34
330
AB27
100
AcDbEntity
  8
1
  6
Continuous
100
AcDbLine
 10
192.1999999999999
 20
51.95
 30
0.0
 11
192.1999999999999
 21
52.45
 31
0.0
  0
LINE
  5
AC35
330
AB27
100
AcDbEntity
  8
1
  6
Continuous
100
AcDbLine
 10
181.1999999999999
 20
51.95
 30
0.0
 11
181.1999999999999
 21
52.45
 31
0.0
  0
ARC
  5
AC36
330
AB27
100
AcDbEntity
  8
1
  6
Continuous
100
AcDbCircle
 10
193.739656
 20
54.3963
 30
0.0
 40
2.0
100
AcDbArc
 50
283.307181
 51
331.7610329999999
  0
ARC
  5
AC37
330
AB27
100
AcDbEntity
  8
1
  6
Continuous
100
AcDbCircle
 10
179.6603429999999
 20
54.3963
 30
0.0
 40
2.0
100
AcDbArc
 50
208.2389669999999
 51
256.692819
  0
ARC
  5
AC38
330
AB27
100
AcDbEntity
  8
1
  6
Continuous
100
AcDbCircle
 10
182.682392
 20
71.837856
 30
0.0
 40
19.0
100
AcDbArc
 50
232.818892
 51
255.416531
  0
LINE
  5
AC39
330
AB27
100
AcDbEntity
  8
1
  6
Continuous
100
AcDbLine
 10
179.1999989999999
 20
82.94999999999998
 30
0.0
 11
194.1999999999999
 21
82.94999999999998
 31
0.0
  0
LINE
  5
AC3A
330
AB27
100
AcDbEntity
  8
1
  6
Continuous
100
AcDbLine
 10
177.898379
 20
81.95
 30
0.0
 11
195.50162
 21
81.95
 31
0.0
  0
LINE
  5
AC3B
330
AB27
100
AcDbEntity
  8
1
  6
Continuous
100
AcDbLine
 10
192.1999999999999
 20
83.45
 30
0.0
 11
192.1999999999999
 21
82.94999999999998
 31
0.0
  0
LINE
  5
AC3C
330
AB27
100
AcDbEntity
  8
1
  6
Continuous
100
AcDbLine
 10
181.1999999999999
 20
83.45
 30
0.0
 11
181.1999999999999
 21
82.94999999999998
 31
0.0
  0
ARC
  5
AC3D
330
AB27
100
AcDbEntity
  8
1
  6
Continuous
100
AcDbCircle
 10
193.739656
 20
81.00369999999998
 30
0.0
 40
2.0
100
AcDbArc
 50
28.238967
 51
76.692819
  0
ARC
  5
AC3E
330
AB27
100
AcDbEntity
  8
1
  6
Continuous
100
AcDbCircle
 10
179.6603429999999
 20
81.00369999999998
 30
0.0
 40
2.0
100
AcDbArc
 50
103.307181
 51
151.761033
  0
LINE
  5
AC3F
330
AB27
100
AcDbEntity
  8
1
  6
Continuous
100
AcDbLine
 10
450.6999999999998
 20
194.5267409999999
 30
0.0
 11
450.6999999999998
 21
187.598537
 31
0.0
  0
LINE
  5
AC40
330
AB27
100
AcDbEntity
  8
1
  6
Continuous
100
AcDbLine
 10
462.6999999999998
 20
194.5267409999999
 30
0.0
 11
462.6999999999998
 21
187.598537
 31
0.0
  0
CIRCLE
  5
AC41
330
AB27
100
AcDbEntity
  8
1
  6
Continuous
100
AcDbCircle
 10
456.7
 20
191.062639
 30
0.0
 40
6.0
  0
LINE
  5
AC42
330
AB27
100
AcDbEntity
  8
1
  6
Continuous
100
AcDbLine
 10
456.7
 20
184.1344359999999
 30
0.0
 11
462.6999999999998
 21
187.598537
 31
0.0
  0
LINE
  5
AC43
330
AB27
100
AcDbEntity
  8
1
  6
Continuous
100
AcDbLine
 10
456.7
 20
184.1344359999999
 30
0.0
 11
450.6999999999998
 21
187.598537
 31
0.0
  0
LINE
  5
AC44
330
AB27
100
AcDbEntity
  8
1
  6
Continuous
100
AcDbLine
 10
462.6999999999998
 20
194.5267409999999
 30
0.0
 11
456.7
 21
197.9908419999999
 31
0.0
  0
LINE
  5
AC45
330
AB27
100
AcDbEntity
  8
1
  6
Continuous
100
AcDbLine
 10
450.6999999999998
 20
194.5267409999999
 30
0.0
 11
456.7
 21
197.9908419999999
 31
0.0
  0
ARC
  5
AC46
330
AB27
100
AcDbEntity
  8
1
  6
Continuous
100
AcDbCircle
 10
183.6999999999999
 20
353.8102139999999
 30
0.0
 40
8.665063999999999
100
AcDbArc
 50
69.743842
 51
110.256158
  0
ARC
  5
AC47
330
AB27
100
AcDbEntity
  8
1
  6
Continuous
100
AcDbCircle
 10
183.6999999999999
 20
366.1403419999999
 30
0.0
 40
8.665063999999999
100
AcDbArc
 50
249.7438419999999
 51
290.256158
  0
LINE
  5
AC48
330
AB27
100
AcDbEntity
  8
1
  6
Continuous
100
AcDbLine
 10
192.6999999999999
 20
362.475278
 30
0.0
 11
180.7
 21
362.475278
 31
0.0
  0
LINE
  5
AC49
330
AB27
100
AcDbEntity
  8
1
  6
Continuous
100
AcDbLine
 10
194.4
 20
357.475278
 30
0.0
 11
179.0
 21
357.475278
 31
0.0
  0
LINE
  5
AC4A
330
AB27
100
AcDbEntity
  8
1
  6
Continuous
100
AcDbLine
 10
180.7
 20
357.475278
 30
0.0
 11
180.7
 21
362.475278
 31
0.0
  0
ARC
  5
AC4B
330
AB27
100
AcDbEntity
  8
1
  6
Continuous
100
AcDbCircle
 10
189.7
 20
353.8102139999999
 30
0.0
 40
8.665063999999999
100
AcDbArc
 50
69.743842
 51
110.256158
  0
ARC
  5
AC4C
330
AB27
100
AcDbEntity
  8
1
  6
Continuous
100
AcDbCircle
 10
189.7
 20
366.1403419999999
 30
0.0
 40
8.665063999999999
100
AcDbArc
 50
249.7438419999999
 51
290.256158
  0
LINE
  5
AC4D
330
AB27
100
AcDbEntity
  8
1
  6
Continuous
100
AcDbLine
 10
192.6999999999999
 20
357.475278
 30
0.0
 11
192.6999999999999
 21
362.475278
 31
0.0
  0
LINE
  5
AC4E
330
AB27
100
AcDbEntity
  8
1
  6
Continuous
100
AcDbLine
 10
186.6999999999999
 20
361.9393799999999
 30
0.0
 11
186.6999999999999
 21
358.0111759999998
 31
0.0
  0
LINE
  5
AC4F
330
AB27
100
AcDbEntity
  8
1
  6
Continuous
100
AcDbLine
 10
184.6999999999999
 20
357.475278
 30
0.0
 11
186.6999999999999
 21
355.475278
 31
0.0
  0
LINE
  5
AC50
330
AB27
100
AcDbEntity
  8
1
  6
Continuous
100
AcDbLine
 10
186.6999999999999
 20
357.475278
 30
0.0
 11
188.7
 21
355.475278
 31
0.0
  0
ARC
  5
AC51
330
AB27
100
AcDbEntity
  8
1
  6
Continuous
100
AcDbCircle
 10
186.6999999999999
 20
324.8752779999999
 30
0.0
 40
10.5
100
AcDbArc
 50
228.1896849999998
 51
311.810315
  0
LINE
  5
AC52
330
AB27
100
AcDbEntity
  8
1
  6
Continuous
100
AcDbLine
 10
193.6999999999999
 20
317.0490399999998
 30
0.0
 11
179.6999999999999
 21
317.0490399999998
 31
0.0
  0
LINE
  5
AC53
330
AB27
100
AcDbEntity
  8
1
  6
Continuous
100
AcDbLine
 10
179.6999999999999
 20
317.0490399999998
 30
0.0
 11
179.6999999999999
 21
319.22789
 31
0.0
  0
LINE
  5
AC54
330
AB27
100
AcDbEntity
  8
1
  6
Continuous
100
AcDbLine
 10
193.6999999999999
 20
317.0490399999998
 30
0.0
 11
193.6999999999999
 21
319.22789
 31
0.0
  0
LINE
  5
AC55
330
AB27
100
AcDbEntity
  8
1
  6
Continuous
100
AcDbLine
 10
72.076238
 20
185.6373419999999
 30
0.0
 11
72.076238
 21
184.0626389999999
 31
0.0
  0
ARC
  5
AC56
330
AB27
100
AcDbEntity
  8
1
  6
Continuous
100
AcDbCircle
 10
64.25
 20
191.062639
 30
0.0
 40
10.5
100
AcDbArc
 50
318.189685
 51
15.832185
  0
LINE
  5
AC57
330
AB27
100
AcDbEntity
  8
1
  6
Continuous
100
AcDbLine
 10
72.076238
 20
184.0626389999999
 30
0.0
 11
71.40287499999998
 21
184.0626389999999
 31
0.0
  0
LINE
  5
AC58
330
AB27
100
AcDbEntity
  8
1
  6
Continuous
100
AcDbLine
 10
31.65
 20
184.843884
 30
0.0
 11
31.65
 21
183.362639
 31
0.0
  0
LINE
  5
AC59
330
AB27
100
AcDbEntity
  8
1
  6
Continuous
100
AcDbLine
 10
26.65
 20
187.0626389999999
 30
0.0
 11
25.85
 21
187.0626389999999
 31
0.0
  0
LINE
  5
AC5A
330
AB27
100
AcDbEntity
  8
2
  6
Continuous
100
AcDbLine
 10
26.65
 20
187.7391389999999
 30
0.0
 11
25.25
 21
187.7391389999999
 31
0.0
  0
LINE
  5
AC5B
330
AB27
100
AcDbEntity
  8
2
  6
Continuous
100
AcDbLine
 10
26.65
 20
194.386139
 30
0.0
 11
25.25
 21
194.386139
 31
0.0
  0
LINE
  5
AC5C
330
AB27
100
AcDbEntity
  8
1
  6
Continuous
100
AcDbLine
 10
26.65
 20
195.062639
 30
0.0
 11
25.85
 21
195.062639
 31
0.0
  0
LINE
  5
AC5D
330
AB27
100
AcDbEntity
  8
1
  6
Continuous
100
AcDbLine
 10
25.25
 20
194.4626389999999
 30
0.0
 11
25.85
 21
195.062639
 31
0.0
  0
LINE
  5
AC5E
330
AB27
100
AcDbEntity
  8
1
  6
Continuous
100
AcDbLine
 10
25.25
 20
187.662639
 30
0.0
 11
25.85
 21
187.0626389999999
 31
0.0
  0
LINE
  5
AC5F
330
AB27
100
AcDbEntity
  8
1
  6
Continuous
100
AcDbLine
 10
25.85
 20
187.0626389999999
 30
0.0
 11
25.85
 21
195.062639
 31
0.0
  0
LINE
  5
AC60
330
AB27
100
AcDbEntity
  8
1
  6
Continuous
100
AcDbLine
 10
25.25
 20
194.4626389999999
 30
0.0
 11
25.25
 21
187.662639
 31
0.0
  0
LINE
  5
AC61
330
AB27
100
AcDbEntity
  8
1
  6
Continuous
100
AcDbLine
 10
32.33079199999998
 20
183.362639
 30
0.0
 11
31.65
 21
183.362639
 31
0.0
  0
LINE
  5
AC62
330
AB27
100
AcDbEntity
  8
1
  6
Continuous
100
AcDbLine
 10
26.65
 20
185.062639
 30
0.0
 11
26.65
 21
197.0626389999999
 31
0.0
  0
ARC
  5
AC63
330
AB27
100
AcDbEntity
  8
1
  6
Continuous
100
AcDbCircle
 10
38.114102
 20
191.062639
 30
0.0
 40
11.464102
100
AcDbArc
 50
162.412046
 51
197.5879539999999
  0
LINE
  5
AC64
330
AB27
100
AcDbEntity
  8
1
  6
Continuous
100
AcDbLine
 10
27.185898
 20
197.9908419999999
 30
0.0
 11
26.65
 21
197.0626389999999
 31
0.0
  0
LINE
  5
AC65
330
AB27
100
AcDbEntity
  8
1
  6
Continuous
100
AcDbLine
 10
28.284256
 20
197.9908419999999
 30
0.0
 11
27.185898
 21
197.9908419999999
 31
0.0
  0
LINE
  5
AC66
330
AB27
100
AcDbEntity
  8
1
  6
Continuous
100
AcDbLine
 10
28.924403
 20
194.5267409999999
 30
0.0
 11
27.185898
 21
194.5267409999999
 31
0.0
  0
ARC
  5
AC67
330
AB27
100
AcDbEntity
  8
1
  6
Continuous
100
AcDbCircle
 10
29.716987
 20
196.258791
 30
0.0
 40
3.066986999999998
100
AcDbArc
 50
154.3842469999999
 51
214.384247
  0
ARC
  5
AC68
330
AB27
100
AcDbEntity
  8
1
  6
Continuous
100
AcDbCircle
 10
29.716987
 20
185.866487
 30
0.0
 40
3.066986999999998
100
AcDbArc
 50
145.615753
 51
205.615753
  0
ARC
  5
AC69
330
AB27
100
AcDbEntity
  8
1
  6
Continuous
100
AcDbCircle
 10
28.583013
 20
185.866487
 30
0.0
 40
3.066986999999998
100
AcDbArc
 50
334.384247
 51
345.2190759999999
  0
LINE
  5
AC6A
330
AB27
100
AcDbEntity
  8
1
  6
Continuous
100
AcDbLine
 10
30.625665
 20
187.598537
 30
0.0
 11
27.185898
 21
187.598537
 31
0.0
  0
LINE
  5
AC6B
330
AB27
100
AcDbEntity
  8
1
  6
Continuous
100
AcDbLine
 10
31.11410199999999
 20
184.1344359999999
 30
0.0
 11
27.185898
 21
184.1344359999999
 31
0.0
  0
LINE
  5
AC6C
330
AB27
100
AcDbEntity
  8
1
  6
Continuous
100
AcDbLine
 10
31.11410199999999
 20
184.1344359999999
 30
0.0
 11
31.59644699999999
 21
184.969883
 31
0.0
  0
LINE
  5
AC6D
330
AB27
100
AcDbEntity
  8
1
  6
Continuous
100
AcDbLine
 10
27.185898
 20
184.1344359999999
 30
0.0
 11
26.65
 21
185.062639
 31
0.0
  0
ARC
  5
AC6E
330
AB27
100
AcDbEntity
  8
1
  6
Continuous
100
AcDbCircle
 10
317.562144
 20
187.0450319999999
 30
0.0
 40
19.0
100
AcDbArc
 50
322.818892
 51
345.416531
  0
ARC
  5
AC6F
330
AB27
100
AcDbEntity
  8
1
  6
Continuous
100
AcDbCircle
 10
325.8378549999998
 20
187.0450319999999
 30
0.0
 40
19.0
100
AcDbArc
 50
194.583469
 51
217.1811079999999
  0
LINE
  5
AC70
330
AB27
100
AcDbEntity
  8
4
  6
CENTER
100
AcDbLine
 10
321.7
 20
267.0626389999998
 30
0.0
 11
321.7
 21
138.0626389999999
 31
0.0
  0
LINE
  5
AC71
330
AB27
100
AcDbEntity
  8
1
  6
Continuous
100
AcDbLine
 10
332.6999999999998
 20
146.793317
 30
0.0
 11
332.6999999999998
 21
235.331962
 31
0.0
  0
LINE
  5
AC72
330
AB27
100
AcDbEntity
  8
1
  6
Continuous
100
AcDbLine
 10
310.6999999999998
 20
146.793317
 30
0.0
 11
310.6999999999998
 21
235.331962
 31
0.0
  0
ARC
  5
AC73
330
AB27
100
AcDbEntity
  8
1
  6
Continuous
100
AcDbCircle
 10
321.7
 20
171.0626389999999
 30
0.0
 40
30.0
100
AcDbArc
 50
256.1076259999999
 51
283.8865399999999
  0
ARC
  5
AC74
330
AB27
100
AcDbEntity
  8
1
  6
Continuous
100
AcDbCircle
 10
327.7
 20
146.793316
 30
0.0
 40
5.0
100
AcDbArc
 50
283.8865399999999
 51
0.0
  0
ARC
  5
AC75
330
AB27
100
AcDbEntity
  8
1
  6
Continuous
100
AcDbCircle
 10
315.7
 20
146.793316
 30
0.0
 40
5.0
100
AcDbArc
 50
180.0
 51
256.1134599999999
  0
LINE
  5
AC76
330
AB27
100
AcDbEntity
  8
4
  6
CENTER
100
AcDbLine
 10
339.6999999999998
 20
266.5678119999999
 30
0.0
 11
339.6999999999998
 21
258.950446
 31
0.0
  0
LINE
  5
AC77
330
AB27
100
AcDbEntity
  8
1
  6
Continuous
100
AcDbLine
 10
348.1999999999999
 20
264.0626389999998
 30
0.0
 11
348.1999999999999
 21
261.7626389999999
 31
0.0
  0
LINE
  5
AC78
330
AB27
100
AcDbEntity
  8
4
  6
CENTER
100
AcDbLine
 10
303.6999999999999
 20
266.5678119999999
 30
0.0
 11
303.6999999999999
 21
258.950446
 31
0.0
  0
LINE
  5
AC79
330
AB27
100
AcDbEntity
  8
1
  6
Continuous
100
AcDbLine
 10
295.1999999999998
 20
264.0626389999998
 30
0.0
 11
295.1999999999998
 21
261.7626389999999
 31
0.0
  0
LINE
  5
AC7A
330
AB27
100
AcDbEntity
  8
4
  6
CENTER
100
AcDbLine
 10
296.091022
 20
191.062639
 30
0.0
 11
351.3827350000001
 21
191.062639
 31
0.0
  0
LINE
  5
AC7B
330
AB27
100
AcDbEntity
  8
1
  6
Continuous
100
AcDbLine
 10
295.1999999999998
 20
261.7626389999999
 30
0.0
 11
348.1999999999999
 21
261.7626389999999
 31
0.0
  0
ARC
  5
AC7C
330
AB27
100
AcDbEntity
  8
1
  6
Continuous
100
AcDbCircle
 10
325.8378549999998
 20
195.0802469999999
 30
0.0
 40
19.0
100
AcDbArc
 50
142.818892
 51
165.4165309999999
  0
LINE
  5
AC7D
330
AB27
100
AcDbEntity
  8
1
  6
Continuous
100
AcDbLine
 10
344.14272
 20
259.062639
 30
0.0
 11
344.14272
 21
214.0626389999999
 31
0.0
  0
LINE
  5
AC7E
330
AB27
100
AcDbEntity
  8
1
  6
Continuous
100
AcDbLine
 10
346.44272
 20
259.062639
 30
0.0
 11
346.44272
 21
214.0626389999999
 31
0.0
  0
LINE
  5
AC7F
330
AB27
100
AcDbEntity
  8
1
  6
Continuous
100
AcDbLine
 10
337.4499999999998
 20
179.0626389999999
 30
0.0
 11
337.4499999999998
 21
260.2626389999999
 31
0.0
  0
LINE
  5
AC80
330
AB27
100
AcDbEntity
  8
1
  6
Continuous
100
AcDbLine
 10
341.069208
 20
183.362639
 30
0.0
 11
341.7499999999999
 21
183.362639
 31
0.0
  0
ARC
  5
AC81
330
AB27
100
AcDbEntity
  8
1
  6
Continuous
100
AcDbCircle
 10
313.66122
 20
196.8566479999998
 30
0.0
 40
30.549731
100
AcDbArc
 50
331.8520689999999
 51
345.218992
  0
ARC
  5
AC82
330
AB27
100
AcDbEntity
  8
1
  6
Continuous
100
AcDbCircle
 10
248.451641
 20
214.0626389999999
 30
0.0
 40
95.69107800000001
100
AcDbArc
 50
345.218992
 51
0.0
  0
ARC
  5
AC83
330
AB27
100
AcDbEntity
  8
1
  6
Continuous
100
AcDbCircle
 10
248.451641
 20
214.0626389999999
 30
0.0
 40
97.99107800000001
100
AcDbArc
 50
345.218992
 51
0.0
  0
LINE
  5
AC84
330
AB27
100
AcDbEntity
  8
1
  6
Continuous
100
AcDbLine
 10
345.115744
 20
197.9908419999999
 30
0.0
 11
346.214102
 21
197.9908419999999
 31
0.0
  0
LINE
  5
AC85
330
AB27
100
AcDbEntity
  8
1
  6
Continuous
100
AcDbLine
 10
344.475597
 20
194.5267409999999
 30
0.0
 11
346.214102
 21
194.5267409999999
 31
0.0
  0
LINE
  5
AC86
330
AB27
100
AcDbEntity
  8
1
  6
Continuous
100
AcDbLine
 10
342.774335
 20
187.598537
 30
0.0
 11
346.214102
 21
187.598537
 31
0.0
  0
ARC
  5
AC87
330
AB27
100
AcDbEntity
  8
1
  6
Continuous
100
AcDbCircle
 10
344.816987
 20
185.866487
 30
0.0
 40
3.066986999999998
100
AcDbArc
 50
194.7809239999999
 51
205.615753
  0
LINE
  5
AC88
330
AB27
100
AcDbEntity
  8
1
  6
Continuous
100
AcDbLine
 10
346.214102
 20
184.1344359999999
 30
0.0
 11
346.75
 21
185.062639
 31
0.0
  0
LINE
  5
AC89
330
AB27
100
AcDbEntity
  8
1
  6
Continuous
100
AcDbLine
 10
342.2858979999999
 20
184.1344359999999
 30
0.0
 11
341.8035529999999
 21
184.969883
 31
0.0
  0
LINE
  5
AC8A
330
AB27
100
AcDbEntity
  8
1
  6
Continuous
100
AcDbLine
 10
342.2858979999999
 20
184.1344359999999
 30
0.0
 11
346.214102
 21
184.1344359999999
 31
0.0
  0
ARC
  5
AC8B
330
AB27
100
AcDbEntity
  8
1
  6
Continuous
100
AcDbCircle
 10
343.683013
 20
185.866487
 30
0.0
 40
3.066986999999998
100
AcDbArc
 50
334.384247
 51
34.38424699999998
  0
ARC
  5
AC8C
330
AB27
100
AcDbEntity
  8
1
  6
Continuous
100
AcDbCircle
 10
343.683013
 20
196.258791
 30
0.0
 40
3.066986999999998
100
AcDbArc
 50
325.6157529999999
 51
25.615753
  0
LINE
  5
AC8D
330
AB27
100
AcDbEntity
  8
1
  6
Continuous
100
AcDbLine
 10
346.214102
 20
197.9908419999999
 30
0.0
 11
346.75
 21
197.0626389999999
 31
0.0
  0
ARC
  5
AC8E
330
AB27
100
AcDbEntity
  8
1
  6
Continuous
100
AcDbCircle
 10
335.2858979999999
 20
191.062639
 30
0.0
 40
11.464102
100
AcDbArc
 50
342.4120459999999
 51
17.587954
  0
LINE
  5
AC8F
330
AB27
100
AcDbEntity
  8
1
  6
Continuous
100
AcDbLine
 10
346.75
 20
185.062639
 30
0.0
 11
346.75
 21
197.0626389999999
 31
0.0
  0
LINE
  5
AC90
330
AB27
100
AcDbEntity
  8
1
  6
Continuous
100
AcDbLine
 10
341.7499999999999
 20
184.843884
 30
0.0
 11
341.7499999999999
 21
183.362639
 31
0.0
  0
LINE
  5
AC91
330
AB27
100
AcDbEntity
  8
1
  6
Continuous
100
AcDbLine
 10
346.75
 20
187.0626389999999
 30
0.0
 11
347.55
 21
187.0626389999999
 31
0.0
  0
LINE
  5
AC92
330
AB27
100
AcDbEntity
  8
2
  6
Continuous
100
AcDbLine
 10
346.75
 20
187.7391389999999
 30
0.0
 11
348.15
 21
187.7391389999999
 31
0.0
  0
LINE
  5
AC93
330
AB27
100
AcDbEntity
  8
1
  6
Continuous
100
AcDbLine
 10
348.15
 20
187.662639
 30
0.0
 11
347.55
 21
187.0626389999999
 31
0.0
  0
LINE
  5
AC94
330
AB27
100
AcDbEntity
  8
2
  6
Continuous
100
AcDbLine
 10
346.75
 20
194.386139
 30
0.0
 11
348.15
 21
194.386139
 31
0.0
  0
LINE
  5
AC95
330
AB27
100
AcDbEntity
  8
1
  6
Continuous
100
AcDbLine
 10
346.75
 20
195.062639
 30
0.0
 11
347.55
 21
195.062639
 31
0.0
  0
LINE
  5
AC96
330
AB27
100
AcDbEntity
  8
1
  6
Continuous
100
AcDbLine
 10
348.15
 20
194.4626389999999
 30
0.0
 11
347.55
 21
195.062639
 31
0.0
  0
LINE
  5
AC97
330
AB27
100
AcDbEntity
  8
1
  6
Continuous
100
AcDbLine
 10
347.55
 20
187.0626389999999
 30
0.0
 11
347.55
 21
195.062639
 31
0.0
  0
LINE
  5
AC98
330
AB27
100
AcDbEntity
  8
1
  6
Continuous
100
AcDbLine
 10
348.15
 20
194.4626389999999
 30
0.0
 11
348.15
 21
187.662639
 31
0.0
  0
LINE
  5
AC99
330
AB27
100
AcDbEntity
  8
1
  6
Continuous
100
AcDbLine
 10
335.95
 20
199.864257
 30
0.0
 11
335.95
 21
182.2610189999998
 31
0.0
  0
LINE
  5
AC9A
330
AB27
100
AcDbEntity
  8
1
  6
Continuous
100
AcDbLine
 10
336.9499999999998
 20
198.5626399999999
 30
0.0
 11
336.9499999999998
 21
183.5626389999999
 31
0.0
  0
LINE
  5
AC9B
330
AB27
100
AcDbEntity
  8
1
  6
Continuous
100
AcDbLine
 10
337.4499999999998
 20
196.5626389999999
 30
0.0
 11
336.9499999999998
 21
196.5626389999999
 31
0.0
  0
LINE
  5
AC9C
330
AB27
100
AcDbEntity
  8
1
  6
Continuous
100
AcDbLine
 10
337.4499999999998
 20
185.5626389999999
 30
0.0
 11
336.9499999999998
 21
185.5626389999999
 31
0.0
  0
ARC
  5
AC9D
330
AB27
100
AcDbEntity
  8
1
  6
Continuous
100
AcDbCircle
 10
346.9194439999998
 20
179.0626389999999
 30
0.0
 40
9.469443999999999
100
AcDbArc
 50
151.852069
 51
180.0
  0
ARC
  5
AC9E
330
AB27
100
AcDbEntity
  8
1
  6
Continuous
100
AcDbCircle
 10
335.0036999999999
 20
184.022983
 30
0.0
 40
2.0
100
AcDbArc
 50
298.2389669999998
 51
346.6928189999999
  0
ARC
  5
AC9F
330
AB27
100
AcDbEntity
  8
1
  6
Continuous
100
AcDbCircle
 10
346.9194439999998
 20
179.0626389999999
 30
0.0
 40
7.169444
100
AcDbArc
 50
151.852069
 51
180.0
  0
LINE
  5
ACA0
330
AB27
100
AcDbEntity
  8
1
  6
Continuous
100
AcDbLine
 10
337.4499999999998
 20
179.0626389999999
 30
0.0
 11
339.7499999999999
 21
179.0626389999999
 31
0.0
  0
ARC
  5
ACA1
330
AB27
100
AcDbEntity
  8
1
  6
Continuous
100
AcDbCircle
 10
313.66122
 20
196.8566479999998
 30
0.0
 40
28.249731
100
AcDbArc
 50
331.8520689999999
 51
345.218992
  0
ARC
  5
ACA2
330
AB27
100
AcDbEntity
  8
1
  6
Continuous
100
AcDbCircle
 10
335.0036999999999
 20
198.1022959999999
 30
0.0
 40
2.0
100
AcDbArc
 50
13.30718099999998
 51
61.761033
  0
ARC
  5
ACA3
330
AB27
100
AcDbEntity
  8
1
  6
Continuous
100
AcDbCircle
 10
317.562144
 20
195.0802469999999
 30
0.0
 40
19.0
100
AcDbArc
 50
14.583469
 51
37.181108
  0
ARC
  5
ACA4
330
AB27
100
AcDbEntity
  8
1
  6
Continuous
100
AcDbCircle
 10
341.4427199999999
 20
259.062639
 30
0.0
 40
2.7
100
AcDbArc
 50
0.0
 51
90.0
  0
ARC
  5
ACA5
330
AB27
100
AcDbEntity
  8
1
  6
Continuous
100
AcDbCircle
 10
341.4427199999999
 20
259.062639
 30
0.0
 40
5.0
100
AcDbArc
 50
0.0
 51
32.683639
  0
ARC
  5
ACA6
330
AB27
100
AcDbEntity
  8
1
  6
Continuous
100
AcDbCircle
 10
321.7
 20
211.0626389999999
 30
0.0
 40
30.0
100
AcDbArc
 50
76.11346000000001
 51
103.892374
  0
ARC
  5
ACA7
330
AB27
100
AcDbEntity
  8
1
  6
Continuous
100
AcDbCircle
 10
327.7
 20
235.331962
 30
0.0
 40
5.0
100
AcDbArc
 50
0.0
 51
76.11346000000001
  0
ARC
  5
ACA8
330
AB27
100
AcDbEntity
  8
1
  6
Continuous
100
AcDbCircle
 10
315.7
 20
235.331962
 30
0.0
 40
5.0
100
AcDbArc
 50
103.8865399999999
 51
180.0
  0
ARC
  5
ACA9
330
AB27
100
AcDbEntity
  8
1
  6
Continuous
100
AcDbCircle
 10
335.95
 20
260.2626389999999
 30
0.0
 40
1.5
100
AcDbArc
 50
0.0
 51
90.0
  0
LINE
  5
ACAA
330
AB27
100
AcDbEntity
  8
1
  6
Continuous
100
AcDbLine
 10
299.2572799999999
 20
259.062639
 30
0.0
 11
299.2572799999999
 21
214.0626389999999
 31
0.0
  0
LINE
  5
ACAB
330
AB27
100
AcDbEntity
  8
1
  6
Continuous
100
AcDbLine
 10
296.9572799999999
 20
259.062639
 30
0.0
 11
296.9572799999999
 21
214.0626389999999
 31
0.0
  0
LINE
  5
ACAC
330
AB27
100
AcDbEntity
  8
1
  6
Continuous
100
AcDbLine
 10
305.9499999999998
 20
179.0626389999999
 30
0.0
 11
305.9499999999998
 21
260.2626389999999
 31
0.0
  0
LINE
  5
ACAD
330
AB27
100
AcDbEntity
  8
1
  6
Continuous
100
AcDbLine
 10
307.45
 20
199.86426
 30
0.0
 11
307.45
 21
182.2610189999998
 31
0.0
  0
LINE
  5
ACAE
330
AB27
100
AcDbEntity
  8
1
  6
Continuous
100
AcDbLine
 10
306.4499999999998
 20
198.5626399999999
 30
0.0
 11
306.4499999999998
 21
183.5626389999999
 31
0.0
  0
ARC
  5
ACAF
330
AB27
100
AcDbEntity
  8
1
  6
Continuous
100
AcDbCircle
 10
394.9483589999999
 20
214.0626389999999
 30
0.0
 40
95.69107800000001
100
AcDbArc
 50
180.0
 51
194.781008
  0
ARC
  5
ACB0
330
AB27
100
AcDbEntity
  8
1
  6
Continuous
100
AcDbCircle
 10
394.9483589999999
 20
214.0626389999999
 30
0.0
 40
97.99107800000001
100
AcDbArc
 50
180.0
 51
194.781008
  0
LINE
  5
ACB1
330
AB27
100
AcDbEntity
  8
1
  6
Continuous
100
AcDbLine
 10
301.3237619999998
 20
184.0626389999999
 30
0.0
 11
301.9971249999999
 21
184.0626389999999
 31
0.0
  0
LINE
  5
ACB2
330
AB27
100
AcDbEntity
  8
1
  6
Continuous
100
AcDbLine
 10
301.3237619999998
 20
185.6373419999999
 30
0.0
 11
301.3237619999998
 21
184.0626389999999
 31
0.0
  0
ARC
  5
ACB3
330
AB27
100
AcDbEntity
  8
1
  6
Continuous
100
AcDbCircle
 10
309.1499999999999
 20
191.062639
 30
0.0
 40
10.5
100
AcDbArc
 50
164.1678149999999
 51
221.810315
  0
LINE
  5
ACB4
330
AB27
100
AcDbEntity
  8
1
  6
Continuous
100
AcDbLine
 10
305.9499999999998
 20
196.5626389999999
 30
0.0
 11
306.4499999999998
 21
196.5626389999999
 31
0.0
  0
LINE
  5
ACB5
330
AB27
100
AcDbEntity
  8
1
  6
Continuous
100
AcDbLine
 10
305.9499999999998
 20
185.5626389999999
 30
0.0
 11
306.4499999999998
 21
185.5626389999999
 31
0.0
  0
ARC
  5
ACB6
330
AB27
100
AcDbEntity
  8
1
  6
Continuous
100
AcDbCircle
 10
296.4805559999998
 20
179.0626389999999
 30
0.0
 40
9.469443999999999
100
AcDbArc
 50
0.0
 51
28.147931
  0
LINE
  5
ACB7
330
AB27
100
AcDbEntity
  8
1
  6
Continuous
100
AcDbLine
 10
305.9499999999998
 20
179.0626389999999
 30
0.0
 11
303.6499999999999
 21
179.0626389999999
 31
0.0
  0
ARC
  5
ACB8
330
AB27
100
AcDbEntity
  8
1
  6
Continuous
100
AcDbCircle
 10
308.3963
 20
184.022983
 30
0.0
 40
2.0
100
AcDbArc
 50
193.3071809999999
 51
241.761033
  0
ARC
  5
ACB9
330
AB27
100
AcDbEntity
  8
1
  6
Continuous
100
AcDbCircle
 10
296.4805559999998
 20
179.0626389999999
 30
0.0
 40
7.169444
100
AcDbArc
 50
0.0
 51
28.147931
  0
ARC
  5
ACBA
330
AB27
100
AcDbEntity
  8
1
  6
Continuous
100
AcDbCircle
 10
329.7387799999999
 20
196.8566479999998
 30
0.0
 40
28.249731
100
AcDbArc
 50
194.781008
 51
208.147931
  0
ARC
  5
ACBB
330
AB27
100
AcDbEntity
  8
1
  6
Continuous
100
AcDbCircle
 10
329.7387799999999
 20
196.8566479999998
 30
0.0
 40
30.549731
100
AcDbArc
 50
194.781008
 51
208.147931
  0
ARC
  5
ACBC
330
AB27
100
AcDbEntity
  8
1
  6
Continuous
100
AcDbCircle
 10
308.3963
 20
198.1022959999999
 30
0.0
 40
2.0
100
AcDbArc
 50
118.2389669999998
 51
166.6928189999999
  0
ARC
  5
ACBD
330
AB27
100
AcDbEntity
  8
1
  6
Continuous
100
AcDbCircle
 10
307.45
 20
260.2626389999999
 30
0.0
 40
1.5
100
AcDbArc
 50
90.0
 51
180.0
  0
ARC
  5
ACBE
330
AB27
100
AcDbEntity
  8
1
  6
Continuous
100
AcDbCircle
 10
301.9572799999999
 20
259.062639
 30
0.0
 40
2.7
100
AcDbArc
 50
90.0
 51
180.0
  0
ARC
  5
ACBF
330
AB27
100
AcDbEntity
  8
1
  6
Continuous
100
AcDbCircle
 10
301.9572799999999
 20
259.062639
 30
0.0
 40
5.0
100
AcDbArc
 50
147.316361
 51
180.0
  0
LINE
  5
ACC0
330
AB27
100
AcDbEntity
  8
1
  6
Continuous
100
AcDbLine
 10
295.1999999999998
 20
264.0626389999998
 30
0.0
 11
348.1999999999999
 21
264.0626389999998
 31
0.0
  0
LINE
  5
ACC1
330
AB27
100
AcDbEntity
  8
1
  6
Continuous
100
AcDbLine
 10
193.6999999999999
 20
88.076238
 30
0.0
 11
179.6999999999999
 21
88.076238
 31
0.0
  0
ARC
  5
ACC2
330
AB27
100
AcDbEntity
  8
1
  6
Continuous
100
AcDbCircle
 10
186.6999999999999
 20
80.25
 30
0.0
 40
10.5
100
AcDbArc
 50
48.189685
 51
131.810315
  0
LINE
  5
ACC3
330
AB27
100
AcDbEntity
  8
1
  6
Continuous
100
AcDbLine
 10
179.6999999999999
 20
88.076238
 30
0.0
 11
179.6999999999999
 21
85.89738800000002
 31
0.0
  0
LINE
  5
ACC4
330
AB27
100
AcDbEntity
  8
1
  6
Continuous
100
AcDbLine
 10
193.6999999999999
 20
88.076238
 30
0.0
 11
193.6999999999999
 21
85.89738800000002
 31
0.0
  0
ARC
  5
ACC5
330
AB27
100
AcDbEntity
  8
1
  6
Continuous
100
AcDbCircle
 10
189.7
 20
38.984936
 30
0.0
 40
8.665063999999999
100
AcDbArc
 50
69.743842
 51
110.256158
  0
ARC
  5
ACC6
330
AB27
100
AcDbEntity
  8
1
  6
Continuous
100
AcDbCircle
 10
189.7
 20
51.315064
 30
0.0
 40
8.665063999999999
100
AcDbArc
 50
249.7438419999999
 51
290.256158
  0
LINE
  5
ACC7
330
AB27
100
AcDbEntity
  8
1
  6
Continuous
100
AcDbLine
 10
194.4
 20
47.64999999999999
 30
0.0
 11
179.0
 21
47.64999999999999
 31
0.0
  0
LINE
  5
ACC8
330
AB27
100
AcDbEntity
  8
1
  6
Continuous
100
AcDbLine
 10
192.6999999999999
 20
42.64999999999999
 30
0.0
 11
180.7
 21
42.64999999999999
 31
0.0
  0
LINE
  5
ACC9
330
AB27
100
AcDbEntity
  8
2
  6
Continuous
100
AcDbLine
 10
190.0235
 20
42.64999999999999
 30
0.0
 11
190.0235
 21
41.25
 31
0.0
  0
LINE
  5
ACCA
330
AB27
100
AcDbEntity
  8
1
  6
Continuous
100
AcDbLine
 10
190.7
 20
42.64999999999999
 30
0.0
 11
190.7
 21
41.85
 31
0.0
  0
LINE
  5
ACCB
330
AB27
100
AcDbEntity
  8
1
  6
Continuous
100
AcDbLine
 10
190.0999999999999
 20
41.25
 30
0.0
 11
190.7
 21
41.85
 31
0.0
  0
LINE
  5
ACCC
330
AB27
100
AcDbEntity
  8
1
  6
Continuous
100
AcDbLine
 10
182.6999999999999
 20
41.85
 30
0.0
 11
190.7
 21
41.85
 31
0.0
  0
LINE
  5
ACCD
330
AB27
100
AcDbEntity
  8
1
  6
Continuous
100
AcDbLine
 10
190.0999999999999
 20
41.25
 30
0.0
 11
183.3
 21
41.25
 31
0.0
  0
LINE
  5
ACCE
330
AB27
100
AcDbEntity
  8
1
  6
Continuous
100
AcDbLine
 10
186.6999999999999
 20
47.64999999999999
 30
0.0
 11
184.6999999999999
 21
49.64999999999999
 31
0.0
  0
LINE
  5
ACCF
330
AB27
100
AcDbEntity
  8
1
  6
Continuous
100
AcDbLine
 10
188.7
 20
47.64999999999999
 30
0.0
 11
186.6999999999999
 21
49.64999999999999
 31
0.0
  0
LINE
  5
ACD0
330
AB27
100
AcDbEntity
  8
1
  6
Continuous
100
AcDbLine
 10
186.6999999999999
 20
43.185898
 30
0.0
 11
186.6999999999999
 21
47.114102
 31
0.0
  0
LINE
  5
ACD1
330
AB27
100
AcDbEntity
  8
1
  6
Continuous
100
AcDbLine
 10
180.7
 20
47.64999999999999
 30
0.0
 11
180.7
 21
42.64999999999999
 31
0.0
  0
ARC
  5
ACD2
330
AB27
100
AcDbEntity
  8
1
  6
Continuous
100
AcDbCircle
 10
183.6999999999999
 20
38.984936
 30
0.0
 40
8.665063999999999
100
AcDbArc
 50
69.743842
 51
110.256158
  0
ARC
  5
ACD3
330
AB27
100
AcDbEntity
  8
1
  6
Continuous
100
AcDbCircle
 10
183.6999999999999
 20
51.315064
 30
0.0
 40
8.665063999999999
100
AcDbArc
 50
249.7438419999999
 51
290.256158
  0
LINE
  5
ACD4
330
AB27
100
AcDbEntity
  8
1
  6
Continuous
100
AcDbLine
 10
179.0
 20
49.32631699999999
 30
0.0
 11
179.0
 21
47.64999999999999
 31
0.0
  0
LINE
  5
ACD5
330
AB27
100
AcDbEntity
  8
1
  6
Continuous
100
AcDbLine
 10
192.6999999999999
 20
47.64999999999999
 30
0.0
 11
192.6999999999999
 21
42.64999999999999
 31
0.0
  0
LINE
  5
ACD6
330
AB27
100
AcDbEntity
  8
1
  6
Continuous
100
AcDbLine
 10
194.4
 20
49.32631699999999
 30
0.0
 11
194.4
 21
47.64999999999999
 31
0.0
  0
LINE
  5
ACD7
330
AB27
100
AcDbEntity
  8
2
  6
Continuous
100
AcDbLine
 10
183.3764999999999
 20
42.64999999999999
 30
0.0
 11
183.3764999999999
 21
41.25
 31
0.0
  0
LINE
  5
ACD8
330
AB27
100
AcDbEntity
  8
1
  6
Continuous
100
AcDbLine
 10
182.6999999999999
 20
42.64999999999999
 30
0.0
 11
182.6999999999999
 21
41.85
 31
0.0
  0
LINE
  5
ACD9
330
AB27
100
AcDbEntity
  8
1
  6
Continuous
100
AcDbLine
 10
183.3
 20
41.25
 30
0.0
 11
182.6999999999999
 21
41.85
 31
0.0
  0
ENDSEC
  0
SECTION
  2
OBJECTS
  0
DICTIONARY
  5
AB15
330
0
100
AcDbDictionary
281
     1
  3
ACAD_CIP_PREVIOUS_PRODUCT_INFO
350
AD3B
  3
ACAD_COLOR
350
AD1D
  3
ACAD_DETAILVIEWSTYLE
350
AD36
  3
ACAD_GROUP
350
AB16
  3
ACAD_LAYOUT
350
AB22
  3
ACAD_MATERIAL
350
ACEB
  3
ACAD_MLEADERSTYLE
350
AD32
  3
ACAD_MLINESTYLE
350
AB1F
  3
ACAD_PLOTSETTINGS
350
AB21
  3
ACAD_PLOTSTYLENAME
350
ACE9
  3
ACAD_SCALELIST
350
AD20
  3
ACAD_SECTIONVIEWSTYLE
350
AD34
  3
ACAD_TABLESTYLE
350
AD1E
  3
ACAD_VISUALSTYLE
350
AD04
  3
ACDB_RECOMPOSE_DATA
350
AD59
  3
AcDbVariableDictionary
350
AD4C
  3
DWGPROPS
350
AD5A
  0
DICTIONARY
  5
AD3C
330
AB19
100
AcDbDictionary
280
     1
281
     1
  3
ADSK_XREC_LAYER_RECONCILED
360
AD3D
  0
DICTIONARY
  5
AD3E
330
AB2F
100
AcDbDictionary
280
     1
281
     1
  3
ADSK_XREC_LAYER_RECONCILED
360
AD3F
  0
DICTIONARY
  5
AD40
330
AB30
100
AcDbDictionary
280
     1
281
     1
  3
ADSK_XREC_LAYER_RECONCILED
360
AD41
  0
DICTIONARY
  5
AD42
330
AB31
100
AcDbDictionary
280
     1
281
     1
  3
ADSK_XREC_LAYER_RECONCILED
360
AD43
  0
DICTIONARY
  5
AD44
330
AB32
100
AcDbDictionary
280
     1
281
     1
  3
ADSK_XREC_LAYER_RECONCILED
360
AD45
  0
DICTIONARY
  5
AD46
330
AB33
100
AcDbDictionary
280
     1
281
     1
  3
ADSK_XREC_LAYER_RECONCILED
360
AD47
  0
DICTIONARY
  5
AD48
330
AB34
100
AcDbDictionary
280
     1
281
     1
  3
ADSK_XREC_LAYER_RECONCILED
360
AD49
  0
DICTIONARY
  5
AD4A
330
AB35
100
AcDbDictionary
280
     1
281
     1
  3
ADSK_XREC_LAYER_RECONCILED
360
AD4B
  0
DICTIONARY
  5
ACE4
330
AB27
100
AcDbDictionary
281
     1
  3
ACAD_LAYOUTSELFREF
350
ACE5
  0
DICTIONARY
  5
ACE2
330
AB23
100
AcDbDictionary
281
     1
  3
ACAD_LAYOUTSELFREF
350
ACE3
  0
XRECORD
  5
AD3B
102
{ACAD_REACTORS
330
AB15
102
}
330
AB15
100
AcDbXrecord
280
     1
300
ACDLT
300
2014
300
ACDLT_F_S
  0
DICTIONARY
  5
AD1D
102
{ACAD_REACTORS
330
AB15
102
}
330
AB15
100
AcDbDictionary
281
     1
  0
DICTIONARY
  5
AD36
102
{ACAD_REACTORS
330
AB15
102
}
330
AB15
100
AcDbDictionary
281
     1
  3
Imperial24
350
AD37
  0
DICTIONARY
  5
AB16
102
{ACAD_REACTORS
330
AB15
102
}
330
AB15
100
AcDbDictionary
281
     1
  0
DICTIONARY
  5
AB22
102
{ACAD_REACTORS
330
AB15
102
}
330
AB15
100
AcDbDictionary
281
     1
  3
Model
350
AD38
  3
レイアウト1
350
AD39
  0
DICTIONARY
  5
ACEB
102
{ACAD_REACTORS
330
AB15
102
}
330
AB15
100
AcDbDictionary
281
     1
  3
ByBlock
350
ACF4
  3
ByLayer
350
ACEC
  3
Global
350
ACFC
  0
DICTIONARY
  5
AD32
102
{ACAD_REACTORS
330
AB15
102
}
330
AB15
100
AcDbDictionary
281
     1
  3
Standard
350
AD33
  0
DICTIONARY
  5
AB1F
102
{ACAD_REACTORS
330
AB15
102
}
330
AB15
100
AcDbDictionary
281
     1
  3
STANDARD
350
AB20
  0
DICTIONARY
  5
AB21
102
{ACAD_REACTORS
330
AB15
102
}
330
AB15
100
AcDbDictionary
281
     1
  0
ACDBDICTIONARYWDFLT
  5
ACE9
102
{ACAD_REACTORS
330
AB15
102
}
330
AB15
100
AcDbDictionary
281
     1
  3
Normal
350
ACEA
100
AcDbDictionaryWithDefault
340
ACEA
  0
DICTIONARY
  5
AD20
102
{ACAD_REACTORS
330
AB15
102
}
330
AB15
100
AcDbDictionary
281
     1
  3
A0
350
AD21
  3
A1
350
AD22
  3
A2
350
AD23
  3
A3
350
AD24
  3
A4
350
AD25
  3
A5
350
AD26
  3
A6
350
AD27
  3
A7
350
AD28
  3
A8
350
AD29
  3
A9
350
AD2A
  3
B0
350
AD2B
  3
B1
350
AD2C
  3
B2
350
AD2D
  3
B3
350
AD2E
  3
B4
350
AD2F
  3
B5
350
AD30
  3
B6
350
AD31
  0
DICTIONARY
  5
AD34
102
{ACAD_REACTORS
330
AB15
102
}
330
AB15
100
AcDbDictionary
281
     1
  3
Imperial24
350
AD35
  0
DICTIONARY
  5
AD1E
102
{ACAD_REACTORS
330
AB15
102
}
330
AB15
100
AcDbDictionary
281
     1
  3
Standard
350
AD1F
  0
DICTIONARY
  5
AD04
102
{ACAD_REACTORS
330
AB15
102
}
330
AB15
100
AcDbDictionary
281
     1
  3
2dWireframe
350
AD0A
  3
Basic
350
AD09
  3
Brighten
350
AD10
  3
ColorChange
350
AD14
  3
Conceptual
350
AD0D
  3
Dim
350
AD0F
  3
EdgeColorOff
350
AD1C
  3
Facepattern
350
AD13
  3
Flat
350
AD05
  3
FlatWithEdges
350
AD06
  3
Gouraud
350
AD07
  3
GouraudWithEdges
350
AD08
  3
Hidden
350
AD0C
  3
JitterOff
350
AD1A
  3
Linepattern
350
AD12
  3
OverhangOff
350
AD1B
  3
Realistic
350
AD0E
  3
Shaded
350
AD19
  3
Shaded with edges
350
AD18
  3
Shades of Gray
350
AD15
  3
Sketchy
350
AD16
  3
Thicken
350
AD11
  3
Wireframe
350
AD0B
  3
X-Ray
350
AD17
  0
XRECORD
  5
AD59
102
{ACAD_REACTORS
330
AB15
102
}
330
AB15
100
AcDbXrecord
280
     1
 90
        1
330
AD1F
  0
DICTIONARY
  5
AD4C
102
{ACAD_REACTORS
330
AB15
102
}
330
AB15
100
AcDbDictionary
281
     1
  3
CANNOSCALE
350
AD51
  3
CMLEADERSTYLE
350
AD4E
  3
CTABLESTYLE
350
AD4D
  3
CVIEWDETAILSTYLE
350
AD4F
  3
CVIEWSECTIONSTYLE
350
AD50
  3
DIMASSOC
350
AD54
  3
INDEXCTL
350
AD53
  3
SORTENTS
350
AD52
  3
XCLIPFRAME
350
AD55
  0
XRECORD
  5
AD5A
102
{ACAD_REACTORS
330
AB15
102
}
330
AB15
100
AcDbXrecord
280
     1
  1
DWGPROPS COOKIE
  2

  3

  4

  6

  7

  8
Yoshitsune
  9

300
=
301
=
302
=
303
=
304
=
305
=
306
=
307
=
308
=
309
=
 40
0.0000090162037037
 41
2451301.62891088
 42
2457192.688618275
  1

 90
        0
  0
XRECORD
  5
AD3D
102
{ACAD_REACTORS
330
AD3C
102
}
330
AD3C
100
AcDbXrecord
280
     1
290
     1
  0
XRECORD
  5
AD3F
102
{ACAD_REACTORS
330
AD3E
102
}
330
AD3E
100
AcDbXrecord
280
     1
290
     1
  0
XRECORD
  5
AD41
102
{ACAD_REACTORS
330
AD40
102
}
330
AD40
100
AcDbXrecord
280
     1
290
     1
  0
XRECORD
  5
AD43
102
{ACAD_REACTORS
330
AD42
102
}
330
AD42
100
AcDbXrecord
280
     1
290
     1
  0
XRECORD
  5
AD45
102
{ACAD_REACTORS
330
AD44
102
}
330
AD44
100
AcDbXrecord
280
     1
290
     1
  0
XRECORD
  5
AD47
102
{ACAD_REACTORS
330
AD46
102
}
330
AD46
100
AcDbXrecord
280
     1
290
     1
  0
XRECORD
  5
AD49
102
{ACAD_REACTORS
330
AD48
102
}
330
AD48
100
AcDbXrecord
280
     1
290
     1
  0
XRECORD
  5
AD4B
102
{ACAD_REACTORS
330
AD4A
102
}
330
AD4A
100
AcDbXrecord
280
     1
290
     1
  0
XRECORD
  5
ACE5
102
{ACAD_REACTORS
330
ACE4
102
}
330
ACE4
100
AcDbXrecord
280
     1
340
AB27
  0
XRECORD
  5
ACE3
102
{ACAD_REACTORS
330
ACE2
102
}
330
ACE2
100
AcDbXrecord
280
     1
340
AB23
  0
ACDBDETAILVIEWSTYLE
  5
AD37
102
{ACAD_XDICTIONARY
360
AD92
102
}
102
{ACAD_REACTORS
330
AD36
102
}
330
AD36
100
AcDbModelDocViewStyle
 70
     0
  3
Imperial24
290
     0
100
AcDbDetailViewStyle
 70
     0
 71
     0
 90
        3
 71
     1
340
AB1A
 40
0.24
340
0
 40
0.24
300

 40
0.36
280
     3
 71
     2
340
AB1E
 90
       25
 71
     3
340
AB1A
 40
0.24
 90
        1
 40
0.75
 90
        1
300
%<\AcVar ViewType \f "%tc1">% %<\AcVar ViewDetailId>%\PSCALE %<\AcVar ViewScale \f "%sn">%
 71
     4
340
AB1E
 90
       25
340
AB1E
 90
       25
280
     0
  0
LAYOUT
  5
AD38
102
{ACAD_XDICTIONARY
360
AD94
102
}
102
{ACAD_REACTORS
330
AB22
102
}
330
AB22
100
AcDbPlotSettings
  1

  2
Canon LBP9100C
  4

  6

 40
0.0
 41
0.0
 42
0.0
 43
0.0
 44
0.0
 45
0.0
 46
0.0
 47
0.0
 48
0.0
 49
0.0
140
0.0
141
0.0
142
1.0
143
1.0
 70
  1712
 72
     0
 73
     0
 74
     0
  7

 75
     0
147
1.0
148
0.0
149
0.0
100
AcDbLayout
  1
Model
 70
     1
 71
     0
 10
0.0
 20
0.0
 11
12.0
 21
9.0
 12
0.0
 22
0.0
 32
0.0
 14
0.0
 24
0.0
 34
0.0
 15
0.0
 25
0.0
 35
0.0
146
0.0
 13
0.0
 23
0.0
 33
0.0
 16
1.0
 26
0.0
 36
0.0
 17
0.0
 27
1.0
 37
0.0
 76
     0
330
AB27
331
ACE1
  0
LAYOUT
  5
AD39
102
{ACAD_XDICTIONARY
360
AD96
102
}
102
{ACAD_REACTORS
330
AB22
102
}
330
AB22
100
AcDbPlotSettings
  1

  2
Canon LBP9100C
  4

  6

 40
0.0
 41
0.0
 42
0.0
 43
0.0
 44
0.0
 45
0.0
 46
0.0
 47
0.0
 48
0.0
 49
0.0
140
0.0
141
0.0
142
1.0
143
1.0
 70
   688
 72
     0
 73
     0
 74
     5
  7

 75
    16
147
1.0
148
0.0
149
0.0
100
AcDbLayout
  1
レイアウト1
 70
     0
 71
     1
 10
0.0
 20
0.0
 11
420.0
 21
297.0
 12
0.0
 22
0.0
 32
0.0
 14
1.000000000000000E+20
 24
1.000000000000000E+20
 34
1.000000000000000E+20
 15
-1.000000000000000E+20
 25
-1.000000000000000E+20
 35
-1.000000000000000E+20
146
0.0
 13
0.0
 23
0.0
 33
0.0
 16
1.0
 26
0.0
 36
0.0
 17
0.0
 27
1.0
 37
0.0
 76
     0
330
AB23
  0
MATERIAL
  5
ACF4
102
{ACAD_XDICTIONARY
360
ACF5
102
}
102
{ACAD_REACTORS
330
ACEB
102
}
330
ACEB
100
AcDbMaterial
  1
ByBlock
 72
     0
 43
0.0208333333333333
 43
0.0
 43
0.0
 43
0.0
 43
0.0
 43
0.0208333333333333
 43
0.0
 43
0.0
 43
0.0
 43
0.0
 43
1.0
 43
0.0
 43
0.0
 43
0.0
 43
0.0
 43
1.0
 77
     0
 47
0.0208333333333333
 47
0.0
 47
0.0
 47
0.0
 47
0.0
 47
0.0208333333333333
 47
0.0
 47
0.0
 47
0.0
 47
0.0
 47
1.0
 47
0.0
 47
0.0
 47
0.0
 47
0.0
 47
1.0
171
     0
 49
0.0208333333333333
 49
0.0
 49
0.0
 49
0.0
 49
0.0
 49
0.0208333333333333
 49
0.0
 49
0.0
 49
0.0
 49
0.0
 49
1.0
 49
0.0
 49
0.0
 49
0.0
 49
0.0
 49
1.0
175
     0
142
0.0208333333333333
142
0.0
142
0.0
142
0.0
142
0.0
142
0.0208333333333333
142
0.0
142
0.0
142
0.0
142
0.0
142
1.0
142
0.0
142
0.0
142
0.0
142
0.0
142
1.0
179
     0
144
0.0208333333333333
144
0.0
144
0.0
144
0.0
144
0.0
144
0.0208333333333333
144
0.0
144
0.0
144
0.0
144
0.0
144
1.0
144
0.0
144
0.0
144
0.0
144
0.0
144
1.0
147
0.0208333333333333
147
0.0
147
0.0
147
0.0
147
0.0
147
0.0208333333333333
147
0.0
147
0.0
147
0.0
147
0.0
147
1.0
147
0.0
147
0.0
147
0.0
147
0.0
147
1.0
  0
MATERIAL
  5
ACEC
102
{ACAD_XDICTIONARY
360
ACED
102
}
102
{ACAD_REACTORS
330
ACEB
102
}
330
ACEB
100
AcDbMaterial
  1
ByLayer
 72
     0
 43
0.0208333333333333
 43
0.0
 43
0.0
 43
0.0
 43
0.0
 43
0.0208333333333333
 43
0.0
 43
0.0
 43
0.0
 43
0.0
 43
1.0
 43
0.0
 43
0.0
 43
0.0
 43
0.0
 43
1.0
 77
     0
 47
0.0208333333333333
 47
0.0
 47
0.0
 47
0.0
 47
0.0
 47
0.0208333333333333
 47
0.0
 47
0.0
 47
0.0
 47
0.0
 47
1.0
 47
0.0
 47
0.0
 47
0.0
 47
0.0
 47
1.0
171
     0
 49
0.0208333333333333
 49
0.0
 49
0.0
 49
0.0
 49
0.0
 49
0.0208333333333333
 49
0.0
 49
0.0
 49
0.0
 49
0.0
 49
1.0
 49
0.0
 49
0.0
 49
0.0
 49
0.0
 49
1.0
175
     0
142
0.0208333333333333
142
0.0
142
0.0
142
0.0
142
0.0
142
0.0208333333333333
142
0.0
142
0.0
142
0.0
142
0.0
142
1.0
142
0.0
142
0.0
142
0.0
142
0.0
142
1.0
179
     0
144
0.0208333333333333
144
0.0
144
0.0
144
0.0
144
0.0
144
0.0208333333333333
144
0.0
144
0.0
144
0.0
144
0.0
144
1.0
144
0.0
144
0.0
144
0.0
144
0.0
144
1.0
147
0.0208333333333333
147
0.0
147
0.0
147
0.0
147
0.0
147
0.0208333333333333
147
0.0
147
0.0
147
0.0
147
0.0
147
1.0
147
0.0
147
0.0
147
0.0
147
0.0
147
1.0
  0
MATERIAL
  5
ACFC
102
{ACAD_XDICTIONARY
360
ACFD
102
}
102
{ACAD_REACTORS
330
ACEB
102
}
330
ACEB
100
AcDbMaterial
  1
Global
 72
     0
 43
0.0208333333333333
 43
0.0
 43
0.0
 43
0.0
 43
0.0
 43
0.0208333333333333
 43
0.0
 43
0.0
 43
0.0
 43
0.0
 43
1.0
 43
0.0
 43
0.0
 43
0.0
 43
0.0
 43
1.0
 77
     0
 47
0.0208333333333333
 47
0.0
 47
0.0
 47
0.0
 47
0.0
 47
0.0208333333333333
 47
0.0
 47
0.0
 47
0.0
 47
0.0
 47
1.0
 47
0.0
 47
0.0
 47
0.0
 47
0.0
 47
1.0
171
     0
 49
0.0208333333333333
 49
0.0
 49
0.0
 49
0.0
 49
0.0
 49
0.0208333333333333
 49
0.0
 49
0.0
 49
0.0
 49
0.0
 49
1.0
 49
0.0
 49
0.0
 49
0.0
 49
0.0
 49
1.0
175
     0
142
0.0208333333333333
142
0.0
142
0.0
142
0.0
142
0.0
142
0.0208333333333333
142
0.0
142
0.0
142
0.0
142
0.0
142
1.0
142
0.0
142
0.0
142
0.0
142
0.0
142
1.0
179
     0
144
0.0208333333333333
144
0.0
144
0.0
144
0.0
144
0.0
144
0.0208333333333333
144
0.0
144
0.0
144
0.0
144
0.0
144
1.0
144
0.0
144
0.0
144
0.0
144
0.0
144
1.0
147
0.0208333333333333
147
0.0
147
0.0
147
0.0
147
0.0
147
0.0208333333333333
147
0.0
147
0.0
147
0.0
147
0.0
147
1.0
147
0.0
147
0.0
147
0.0
147
0.0
147
1.0
  0
MLEADERSTYLE
  5
AD33
102
{ACAD_REACTORS
330
AD32
102
}
330
AD32
100
AcDbMLeaderStyle
170
     2
171
     1
172
     0
 90
        2
 40
0.0
 41
0.0
173
     1
 91
-1056964608
340
AB1C
 92
       -2
290
     1
 42
0.09
291
     1
 43
0.36
  3
Standard
 44
0.18
300

342
AB1A
174
     1
178
     6
175
     1
176
     0
 93
-1056964608
 45
0.18
292
     0
297
     0
 46
0.18
 94
-1056964608
 47
1.0
 49
1.0
140
1.0
293
     1
141
0.0
294
     1
177
     0
142
1.0
295
     0
296
     0
143
0.125
1001
ACAD_MLEADERVER
1070
     2
  0
MLINESTYLE
  5
AB20
102
{ACAD_REACTORS
330
AB1F
102
}
330
AB1F
100
AcDbMlineStyle
  2
STANDARD
 70
     0
  3

 62
   256
 51
90.0
 52
90.0
 71
     2
 49
0.5
 62
   256
  6
BYLAYER
 49
-0.5
 62
   256
  6
BYLAYER
  0
ACDBPLACEHOLDER
  5
ACEA
102
{ACAD_REACTORS
330
ACE9
102
}
330
ACE9
  0
SCALE
  5
AD21
102
{ACAD_REACTORS
330
AD20
102
}
330
AD20
100
AcDbScale
 70
     0
300
1:1
140
1.0
141
1.0
290
     1
  0
SCALE
  5
AD22
102
{ACAD_REACTORS
330
AD20
102
}
330
AD20
100
AcDbScale
 70
     0
300
1/128" = 1'-0"
140
0.0078125
141
12.0
290
     0
  0
SCALE
  5
AD23
102
{ACAD_REACTORS
330
AD20
102
}
330
AD20
100
AcDbScale
 70
     0
300
1/64" = 1'-0"
140
0.015625
141
12.0
290
     0
  0
SCALE
  5
AD24
102
{ACAD_REACTORS
330
AD20
102
}
330
AD20
100
AcDbScale
 70
     0
300
1/32" = 1'-0"
140
0.03125
141
12.0
290
     0
  0
SCALE
  5
AD25
102
{ACAD_REACTORS
330
AD20
102
}
330
AD20
100
AcDbScale
 70
     0
300
1/16" = 1'-0"
140
0.0625
141
12.0
290
     0
  0
SCALE
  5
AD26
102
{ACAD_REACTORS
330
AD20
102
}
330
AD20
100
AcDbScale
 70
     0
300
3/32" = 1'-0"
140
0.09375
141
12.0
290
     0
  0
SCALE
  5
AD27
102
{ACAD_REACTORS
330
AD20
102
}
330
AD20
100
AcDbScale
 70
     0
300
1/8" = 1'-0"
140
0.125
141
12.0
290
     0
  0
SCALE
  5
AD28
102
{ACAD_REACTORS
330
AD20
102
}
330
AD20
100
AcDbScale
 70
     0
300
3/16" = 1'-0"
140
0.1875
141
12.0
290
     0
  0
SCALE
  5
AD29
102
{ACAD_REACTORS
330
AD20
102
}
330
AD20
100
AcDbScale
 70
     0
300
1/4" = 1'-0"
140
0.25
141
12.0
290
     0
  0
SCALE
  5
AD2A
102
{ACAD_REACTORS
330
AD20
102
}
330
AD20
100
AcDbScale
 70
     0
300
3/8" = 1'-0"
140
0.375
141
12.0
290
     0
  0
SCALE
  5
AD2B
102
{ACAD_REACTORS
330
AD20
102
}
330
AD20
100
AcDbScale
 70
     0
300
1/2" = 1'-0"
140
0.5
141
12.0
290
     0
  0
SCALE
  5
AD2C
102
{ACAD_REACTORS
330
AD20
102
}
330
AD20
100
AcDbScale
 70
     0
300
3/4" = 1'-0"
140
0.75
141
12.0
290
     0
  0
SCALE
  5
AD2D
102
{ACAD_REACTORS
330
AD20
102
}
330
AD20
100
AcDbScale
 70
     0
300
1" = 1'-0"
140
1.0
141
12.0
290
     0
  0
SCALE
  5
AD2E
102
{ACAD_REACTORS
330
AD20
102
}
330
AD20
100
AcDbScale
 70
     0
300
1-1/2" = 1'-0"
140
1.5
141
12.0
290
     0
  0
SCALE
  5
AD2F
102
{ACAD_REACTORS
330
AD20
102
}
330
AD20
100
AcDbScale
 70
     0
300
3" = 1'-0"
140
3.0
141
12.0
290
     0
  0
SCALE
  5
AD30
102
{ACAD_REACTORS
330
AD20
102
}
330
AD20
100
AcDbScale
 70
     0
300
6" = 1'-0"
140
6.0
141
12.0
290
     0
  0
SCALE
  5
AD31
102
{ACAD_REACTORS
330
AD20
102
}
330
AD20
100
AcDbScale
 70
     0
300
1'-0" = 1'-0"
140
12.0
141
12.0
290
     0
  0
ACDBSECTIONVIEWSTYLE
  5
AD35
102
{ACAD_XDICTIONARY
360
AD90
102
}
102
{ACAD_REACTORS
330
AD34
102
}
330
AD34
100
AcDbModelDocViewStyle
 70
     0
  3
Imperial24
290
     0
100
AcDbSectionViewStyle
 70
     0
 71
     0
 90
       78
 71
     1
340
AB1A
 40
0.24
340
0
340
0
 40
0.24
300
I, O, Q, S, X, Z
 40
0.48
 90
        3
 40
0.18
 90
        1
 71
     2
340
AB1E
 90
       25
340
AB1E
 90
       50
 40
0.24
 40
0.0
 40
0.24
 71
     3
340
AB1A
 40
0.24
 90
        1
 40
0.75
 90
        1
300
%<\AcVar ViewType \f "%tc1">% %<\AcVar ViewSectionStartId>%-%<\AcVar ViewSectionEndId>%\PSCALE %<\AcVar ViewScale \f "%sn">%
 71
     4
300
ANSI31
 40
1.0
 90
        0
290
     0
290
     0
 90
        6
 40
0.0
 40
1.570796326794896
 40
0.2617993877991494
 40
1.308996938995747
 40
-0.2617993877991494
 40
1.832595714594046
  0
TABLESTYLE
  5
AD1F
102
{ACAD_XDICTIONARY
360
AD57
102
}
102
{ACAD_REACTORS
330
AD1E
102
}
330
AD1E
100
AcDbTableStyle
  3
Standard
 70
     0
 71
     0
 40
0.06
 41
0.06
280
     0
281
     0
  7
STANDARD
140
0.18
170
     2
 62
     0
 63
     7
283
     0
274
    -2
284
     1
 64
     0
275
    -2
285
     1
 65
     0
276
    -2
286
     1
 66
     0
277
    -2
287
     1
 67
     0
278
    -2
288
     1
 68
     0
279
    -2
289
     1
 69
     0
  7
STANDARD
140
0.25
170
     5
 62
     0
 63
     7
283
     0
274
    -2
284
     1
 64
     0
275
    -2
285
     1
 65
     0
276
    -2
286
     1
 66
     0
277
    -2
287
     1
 67
     0
278
    -2
288
     1
 68
     0
279
    -2
289
     1
 69
     0
  7
STANDARD
140
0.18
170
     5
 62
     0
 63
     7
283
     0
274
    -2
284
     1
 64
     0
275
    -2
285
     1
 65
     0
276
    -2
286
     1
 66
     0
277
    -2
287
     1
 67
     0
278
    -2
288
     1
 68
     0
279
    -2
289
     1
 69
     0
  0
VISUALSTYLE
  5
AD0A
102
{ACAD_XDICTIONARY
360
AD68
102
}
102
{ACAD_REACTORS
330
AD04
102
}
330
AD04
100
AcDbVisualStyle
  2
2dWireframe
 70
     4
 71
     0
 72
     2
 73
     0
 90
        0
 40
-0.6
 41
-30.0
 62
     5
 63
     7
 74
     1
 91
        4
 64
     7
 65
   257
 75
     1
175
     1
 42
1.0
 92
        0
 66
   257
 43
1.0
 76
     1
 77
     6
 78
     2
 67
     7
 79
     5
170
     0
171
     0
290
     0
174
     0
 93
        1
 44
0.0
173
     0
291
     0
 45
0.0
1001
ACAD
1000
AcDbSavedByObjectVersion
1070
     0
  0
VISUALSTYLE
  5
AD09
102
{ACAD_XDICTIONARY
360
AD66
102
}
102
{ACAD_REACTORS
330
AD04
102
}
330
AD04
100
AcDbVisualStyle
  2
Basic
 70
     7
 71
     1
 72
     0
 73
     1
 90
        0
 40
-0.6
 41
-30.0
 62
     5
 63
     7
 74
     0
 91
        4
 64
     7
 65
   257
 75
     1
175
     1
 42
1.0
 92
        8
 66
     7
 43
1.0
 76
     1
 77
     6
 78
     2
 67
     7
 79
     5
170
     0
171
     0
290
     0
174
     0
 93
        1
 44
0.0
173
     0
291
     1
 45
0.0
1001
ACAD
1000
AcDbSavedByObjectVersion
1070
     0
  0
VISUALSTYLE
  5
AD10
102
{ACAD_XDICTIONARY
360
AD74
102
}
102
{ACAD_REACTORS
330
AD04
102
}
330
AD04
100
AcDbVisualStyle
  2
Brighten
 70
    12
 71
     2
 72
     2
 73
     0
 90
        0
 40
-0.6
 41
-30.0
 62
     5
 63
     7
 74
     1
 91
        4
 64
     7
 65
   257
 75
     1
175
     1
 42
1.0
 92
        8
 66
     7
 43
1.0
 76
     1
 77
     6
 78
     2
 67
     7
 79
     5
170
     0
171
     0
290
     0
174
     0
 93
        1
 44
50.0
173
     0
291
     1
 45
0.0
1001
ACAD
1000
AcDbSavedByObjectVersion
1070
     0
  0
VISUALSTYLE
  5
AD14
102
{ACAD_XDICTIONARY
360
AD7C
102
}
102
{ACAD_REACTORS
330
AD04
102
}
330
AD04
100
AcDbVisualStyle
  2
ColorChange
 70
    16
 71
     2
 72
     2
 73
     3
 90
        0
 40
-0.6
 41
-30.0
 62
     5
 63
     8
 74
     1
 91
        4
 64
     7
 65
   257
 75
     1
175
     1
 42
1.0
 92
        8
 66
     8
 43
1.0
 76
     1
 77
     6
 78
     2
 67
     7
 79
     5
170
     0
171
     0
290
     0
174
     0
 93
        1
 44
0.0
173
     0
291
     1
 45
0.0
1001
ACAD
1000
AcDbSavedByObjectVersion
1070
     0
  0
VISUALSTYLE
  5
AD0D
102
{ACAD_XDICTIONARY
360
AD6E
102
}
102
{ACAD_REACTORS
330
AD04
102
}
330
AD04
100
AcDbVisualStyle
  2
Conceptual
 70
     9
 71
     3
 72
     2
 73
     0
 90
        0
 40
-0.6
 41
-30.0
 62
     5
 63
     7
 74
     2
 91
        2
 64
     7
 65
   257
 75
     1
175
     1
 42
179.0
 92
        8
 66
     7
 43
1.0
 76
     1
 77
     6
 78
     2
 67
     7
 79
     3
170
     0
171
     0
290
     0
174
     0
 93
        1
 44
0.0
173
     0
291
     0
 45
0.0
1001
ACAD
1000
AcDbSavedByObjectVersion
1070
     0
  0
VISUALSTYLE
  5
AD0F
102
{ACAD_XDICTIONARY
360
AD72
102
}
102
{ACAD_REACTORS
330
AD04
102
}
330
AD04
100
AcDbVisualStyle
  2
Dim
 70
    11
 71
     2
 72
     2
 73
     0
 90
        0
 40
-0.6
 41
-30.0
 62
     5
 63
     7
 74
     1
 91
        4
 64
     7
 65
   257
 75
     1
175
     1
 42
1.0
 92
        8
 66
     7
 43
1.0
 76
     1
 77
     6
 78
     2
 67
     7
 79
     5
170
     0
171
     0
290
     0
174
     0
 93
        1
 44
-50.0
173
     0
291
     1
 45
0.0
1001
ACAD
1000
AcDbSavedByObjectVersion
1070
     0
  0
VISUALSTYLE
  5
AD1C
102
{ACAD_XDICTIONARY
360
AD8C
102
}
102
{ACAD_REACTORS
330
AD04
102
}
330
AD04
100
AcDbVisualStyle
  2
EdgeColorOff
 70
    22
 71
     2
 72
     2
 73
     0
 90
        0
 40
-0.6
 41
-30.0
 62
     5
 63
     7
 74
     1
 91
        4
 64
     7
 65
   257
 75
     1
175
     1
 42
1.0
 92
        8
 66
     7
 43
1.0
 76
     1
 77
     6
 78
     2
 67
     7
 79
     5
170
     0
171
     0
290
     0
174
     0
 93
        1
 44
0.0
173
     0
291
     1
 45
0.0
1001
ACAD
1000
AcDbSavedByObjectVersion
1070
     0
  0
VISUALSTYLE
  5
AD13
102
{ACAD_XDICTIONARY
360
AD7A
102
}
102
{ACAD_REACTORS
330
AD04
102
}
330
AD04
100
AcDbVisualStyle
  2
Facepattern
 70
    15
 71
     2
 72
     2
 73
     0
 90
        0
 40
-0.6
 41
-30.0
 62
     5
 63
     7
 74
     1
 91
        4
 64
     7
 65
   257
 75
     1
175
     1
 42
1.0
 92
        8
 66
     7
 43
1.0
 76
     1
 77
     6
 78
     2
 67
     7
 79
     5
170
     0
171
     0
290
     0
174
     0
 93
        1
 44
0.0
173
     0
291
     1
 45
0.0
1001
ACAD
1000
AcDbSavedByObjectVersion
1070
     0
  0
VISUALSTYLE
  5
AD05
102
{ACAD_XDICTIONARY
360
AD5E
102
}
102
{ACAD_REACTORS
330
AD04
102
}
330
AD04
100
AcDbVisualStyle
  2
Flat
 70
     0
 71
     2
 72
     1
 73
     1
 90
        2
 40
-0.6
 41
30.0
 62
     5
 63
     7
 74
     0
 91
        0
 64
     7
 65
   257
 75
     1
175
     1
 42
1.0
 92
        8
 66
     7
 43
1.0
 76
     1
 77
     6
 78
     2
 67
     7
 79
     5
170
     0
171
     0
290
     0
174
     0
 93
       13
 44
0.0
173
     0
291
     1
 45
0.0
1001
ACAD
1000
AcDbSavedByObjectVersion
1070
     0
  0
VISUALSTYLE
  5
AD06
102
{ACAD_XDICTIONARY
360
AD60
102
}
102
{ACAD_REACTORS
330
AD04
102
}
330
AD04
100
AcDbVisualStyle
  2
FlatWithEdges
 70
     1
 71
     2
 72
     1
 73
     1
 90
        2
 40
-0.6
 41
30.0
 62
     5
 63
     7
 74
     1
 91
        0
 64
     7
 65
   257
 75
     1
175
     1
 42
1.0
 92
        0
 66
   257
 43
1.0
 76
     1
 77
     6
 78
     2
 67
     7
 79
     5
170
     0
171
     0
290
     0
174
     0
 93
       13
 44
0.0
173
     0
291
     1
 45
0.0
1001
ACAD
1000
AcDbSavedByObjectVersion
1070
     0
  0
VISUALSTYLE
  5
AD07
102
{ACAD_XDICTIONARY
360
AD62
102
}
102
{ACAD_REACTORS
330
AD04
102
}
330
AD04
100
AcDbVisualStyle
  2
Gouraud
 70
     2
 71
     2
 72
     2
 73
     1
 90
        2
 40
-0.6
 41
30.0
 62
     5
 63
     7
 74
     0
 91
        0
 64
     7
 65
   257
 75
     1
175
     1
 42
1.0
 92
        0
 66
     7
 43
1.0
 76
     1
 77
     6
 78
     2
 67
     7
 79
     5
170
     0
171
     0
290
     0
174
     0
 93
       13
 44
0.0
173
     0
291
     1
 45
0.0
1001
ACAD
1000
AcDbSavedByObjectVersion
1070
     0
  0
VISUALSTYLE
  5
AD08
102
{ACAD_XDICTIONARY
360
AD64
102
}
102
{ACAD_REACTORS
330
AD04
102
}
330
AD04
100
AcDbVisualStyle
  2
GouraudWithEdges
 70
     3
 71
     2
 72
     2
 73
     1
 90
        2
 40
-0.6
 41
30.0
 62
     5
 63
     7
 74
     1
 91
        0
 64
     7
 65
   257
 75
     1
175
     1
 42
1.0
 92
        0
 66
   257
 43
1.0
 76
     1
 77
     6
 78
     2
 67
     7
 79
     5
170
     0
171
     0
290
     0
174
     0
 93
       13
 44
0.0
173
     0
291
     1
 45
0.0
1001
ACAD
1000
AcDbSavedByObjectVersion
1070
     0
  0
VISUALSTYLE
  5
AD0C
102
{ACAD_XDICTIONARY
360
AD6C
102
}
102
{ACAD_REACTORS
330
AD04
102
}
330
AD04
100
AcDbVisualStyle
  2
Hidden
 70
     6
 71
     1
 72
     2
 73
     2
 90
        0
 40
-0.6
 41
-30.0
 62
     5
 63
     7
 74
     2
 91
        2
 64
     7
 65
   257
 75
     2
175
     1
 42
40.0
 92
        0
 66
   257
 43
1.0
 76
     1
 77
     6
 78
     2
 67
     7
 79
     3
170
     0
171
     0
290
     0
174
     0
 93
        1
 44
0.0
173
     0
291
     0
 45
0.0
1001
ACAD
1000
AcDbSavedByObjectVersion
1070
     0
  0
VISUALSTYLE
  5
AD1A
102
{ACAD_XDICTIONARY
360
AD88
102
}
102
{ACAD_REACTORS
330
AD04
102
}
330
AD04
100
AcDbVisualStyle
  2
JitterOff
 70
    20
 71
     2
 72
     2
 73
     0
 90
        0
 40
-0.6
 41
-30.0
 62
     5
 63
     7
 74
     1
 91
        4
 64
     7
 65
   257
 75
     1
175
     1
 42
1.0
 92
       10
 66
     7
 43
1.0
 76
     1
 77
     6
 78
     2
 67
     7
 79
     5
170
     0
171
     0
290
     0
174
     0
 93
        1
 44
0.0
173
     0
291
     1
 45
0.0
1001
ACAD
1000
AcDbSavedByObjectVersion
1070
     0
  0
VISUALSTYLE
  5
AD12
102
{ACAD_XDICTIONARY
360
AD78
102
}
102
{ACAD_REACTORS
330
AD04
102
}
330
AD04
100
AcDbVisualStyle
  2
Linepattern
 70
    14
 71
     2
 72
     2
 73
     0
 90
        0
 40
-0.6
 41
-30.0
 62
     5
 63
     7
 74
     1
 91
        4
 64
     7
 65
   257
 75
     7
175
     7
 42
1.0
 92
        8
 66
     7
 43
1.0
 76
     1
 77
     6
 78
     2
 67
     7
 79
     5
170
     0
171
     0
290
     0
174
     0
 93
        1
 44
0.0
173
     0
291
     1
 45
0.0
1001
ACAD
1000
AcDbSavedByObjectVersion
1070
     0
  0
VISUALSTYLE
  5
AD1B
102
{ACAD_XDICTIONARY
360
AD8A
102
}
102
{ACAD_REACTORS
330
AD04
102
}
330
AD04
100
AcDbVisualStyle
  2
OverhangOff
 70
    21
 71
     2
 72
     2
 73
     0
 90
        0
 40
-0.6
 41
-30.0
 62
     5
 63
     7
 74
     1
 91
        4
 64
     7
 65
   257
 75
     1
175
     1
 42
1.0
 92
        9
 66
     7
 43
1.0
 76
     1
 77
     6
 78
     2
 67
     7
 79
     5
170
     0
171
     0
290
     0
174
     0
 93
        1
 44
0.0
173
     0
291
     1
 45
0.0
1001
ACAD
1000
AcDbSavedByObjectVersion
1070
     0
  0
VISUALSTYLE
  5
AD0E
102
{ACAD_XDICTIONARY
360
AD70
102
}
102
{ACAD_REACTORS
330
AD04
102
}
330
AD04
100
AcDbVisualStyle
  2
Realistic
 70
     8
 71
     2
 72
     3
 73
     0
 90
        2
 40
-0.6
 41
30.0
 62
     5
 63
     7
 74
     0
 91
        0
 64
     7
 65
   257
 75
     1
175
     1
 42
1.0
 92
        8
 66
   257
 43
1.0
 76
     1
 77
     6
 78
     2
 67
     7
 79
     3
170
     0
171
     0
290
     0
174
     0
 93
       13
 44
0.0
173
     0
291
     0
 45
0.0
1001
ACAD
1000
AcDbSavedByObjectVersion
1070
     0
  0
VISUALSTYLE
  5
AD19
102
{ACAD_XDICTIONARY
360
AD86
102
}
102
{ACAD_REACTORS
330
AD04
102
}
330
AD04
100
AcDbVisualStyle
  2
Shaded
 70
    27
 71
     2
 72
     2
 73
     1
 90
        2
 40
-0.6
 41
30.0
 62
     5
 63
     7
 74
     0
 91
        4
 64
     7
 65
   257
 75
     1
175
     1
 42
1.0
 92
        8
 66
   257
 43
1.0
 76
     1
 77
     6
 78
     2
 67
     8
 79
     3
170
     0
171
     0
290
     0
174
     0
 93
        5
 44
0.0
173
     0
291
     0
 45
0.0
1001
ACAD
1000
AcDbSavedByObjectVersion
1070
     0
  0
VISUALSTYLE
  5
AD18
102
{ACAD_XDICTIONARY
360
AD84
102
}
102
{ACAD_REACTORS
330
AD04
102
}
330
AD04
100
AcDbVisualStyle
  2
Shaded with edges
 70
    26
 71
     2
 72
     2
 73
     1
 90
        2
 40
-0.6
 41
30.0
 62
     5
 63
     7
 74
     1
 91
       10
 64
     7
 65
   257
 75
     2
175
     1
 42
1.0
 92
        8
 66
   257
 43
1.0
 76
     1
 77
     6
 78
     2
 67
     7
 79
     3
170
     0
171
     0
290
     0
174
     0
 93
        5
 44
0.0
173
     0
291
     0
 45
0.0
1001
ACAD
1000
AcDbSavedByObjectVersion
1070
     0
  0
VISUALSTYLE
  5
AD15
102
{ACAD_XDICTIONARY
360
AD7E
102
}
102
{ACAD_REACTORS
330
AD04
102
}
330
AD04
100
AcDbVisualStyle
  2
Shades of Gray
 70
    23
 71
     2
 72
     2
 73
     3
 90
        0
 40
-0.6
 41
-30.0
 62
     5
 63
     7
 74
     2
 91
        2
 64
     7
 65
     7
 75
     1
175
     1
 42
40.0
 92
        8
 66
     7
 43
1.0
 76
     1
 77
     6
 78
     2
 67
     7
 79
     3
170
     0
171
     0
290
     0
174
     0
 93
        1
 44
0.0
173
     0
291
     0
 45
0.0
1001
ACAD
1000
AcDbSavedByObjectVersion
1070
     0
  0
VISUALSTYLE
  5
AD16
102
{ACAD_XDICTIONARY
360
AD80
102
}
102
{ACAD_REACTORS
330
AD04
102
}
330
AD04
100
AcDbVisualStyle
  2
Sketchy
 70
    24
 71
     1
 72
     2
 73
     2
 90
        0
 40
-0.6
 41
-30.0
 62
     5
 63
     7
 74
     2
 91
        2
 64
     7
 65
     7
 75
     1
175
     1
 42
40.0
 92
       11
 66
     7
 43
1.0
 76
     1
 77
     6
 78
     2
 67
     7
 79
     6
170
     0
171
     0
290
     0
174
     0
 93
        1
 44
0.0
173
     0
291
     0
 45
0.0
1001
ACAD
1000
AcDbSavedByObjectVersion
1070
     0
  0
VISUALSTYLE
  5
AD11
102
{ACAD_XDICTIONARY
360
AD76
102
}
102
{ACAD_REACTORS
330
AD04
102
}
330
AD04
100
AcDbVisualStyle
  2
Thicken
 70
    13
 71
     2
 72
     2
 73
     0
 90
        0
 40
-0.6
 41
-30.0
 62
     5
 63
     7
 74
     1
 91
        4
 64
     7
 65
   257
 75
     1
175
     1
 42
1.0
 92
       12
 66
     7
 43
1.0
 76
     1
 77
     6
 78
     2
 67
     7
 79
     5
170
     0
171
     0
290
     0
174
     0
 93
        1
 44
0.0
173
     0
291
     1
 45
0.0
1001
ACAD
1000
AcDbSavedByObjectVersion
1070
     0
  0
VISUALSTYLE
  5
AD0B
102
{ACAD_XDICTIONARY
360
AD6A
102
}
102
{ACAD_REACTORS
330
AD04
102
}
330
AD04
100
AcDbVisualStyle
  2
Wireframe
 70
     5
 71
     0
 72
     2
 73
     0
 90
        0
 40
-0.6
 41
-30.0
 62
     5
 63
     7
 74
     1
 91
        4
 64
     7
 65
   257
 75
     1
175
     1
 42
1.0
 92
        0
 66
   257
 43
1.0
 76
     1
 77
     6
 78
     2
 67
     7
 79
     3
170
     0
171
     0
290
     0
174
     0
 93
        1
 44
0.0
173
     0
291
     0
 45
0.0
1001
ACAD
1000
AcDbSavedByObjectVersion
1070
     0
  0
VISUALSTYLE
  5
AD17
102
{ACAD_XDICTIONARY
360
AD82
102
}
102
{ACAD_REACTORS
330
AD04
102
}
330
AD04
100
AcDbVisualStyle
  2
X-Ray
 70
    25
 71
     2
 72
     2
 73
     1
 90
        1
 40
0.5
 41
-30.0
 62
     5
 63
     7
 74
     1
 91
        0
 64
     7
 65
   257
 75
     1
175
     1
 42
1.0
 92
        8
 66
     7
 43
1.0
 76
     1
 77
     6
 78
     2
 67
     7
 79
     3
170
     0
171
     0
290
     0
174
     0
 93
       13
 44
0.0
173
     0
291
     0
 45
0.0
1001
ACAD
1000
AcDbSavedByObjectVersion
1070
     0
  0
DICTIONARYVAR
  5
AD51
102
{ACAD_REACTORS
330
AD4C
102
}
330
AD4C
100
DictionaryVariables
280
     0
  1
1:1
  0
DICTIONARYVAR
  5
AD4E
102
{ACAD_REACTORS
330
AD4C
102
}
330
AD4C
100
DictionaryVariables
280
     0
  1
STANDARD
  0
DICTIONARYVAR
  5
AD4D
102
{ACAD_REACTORS
330
AD4C
102
}
330
AD4C
100
DictionaryVariables
280
     0
  1
STANDARD
  0
DICTIONARYVAR
  5
AD4F
102
{ACAD_REACTORS
330
AD4C
102
}
330
AD4C
100
DictionaryVariables
280
     0
  1
Imperial24
  0
DICTIONARYVAR
  5
AD50
102
{ACAD_REACTORS
330
AD4C
102
}
330
AD4C
100
DictionaryVariables
280
     0
  1
Imperial24
  0
DICTIONARYVAR
  5
AD54
102
{ACAD_REACTORS
330
AD4C
102
}
330
AD4C
100
DictionaryVariables
280
     0
  1
1
  0
DICTIONARYVAR
  5
AD53
102
{ACAD_REACTORS
330
AD4C
102
}
330
AD4C
100
DictionaryVariables
280
     0
  1
0
  0
DICTIONARYVAR
  5
AD52
102
{ACAD_REACTORS
330
AD4C
102
}
330
AD4C
100
DictionaryVariables
280
     0
  1
127
  0
DICTIONARYVAR
  5
AD55
102
{ACAD_REACTORS
330
AD4C
102
}
330
AD4C
100
DictionaryVariables
280
     0
  1
2
  0
DICTIONARY
  5
AD92
330
AD37
100
AcDbDictionary
280
     1
281
     1
  3
ACAD_XREC_ROUNDTRIP
360
AD93
  0
DICTIONARY
  5
AD94
330
AD38
100
AcDbDictionary
280
     1
281
     1
  3
ACAD_XREC_ROUNDTRIP
360
AD95
  0
DICTIONARY
  5
AD96
330
AD39
100
AcDbDictionary
280
     1
281
     1
  3
ACAD_XREC_ROUNDTRIP
360
AD97
  0
DICTIONARY
  5
ACF5
330
ACF4
100
AcDbDictionary
280
     1
281
     1
  3
ACAD_XREC_ROUNDTRIP
360
AD5C
  3
BUMPTILE
360
ACF7
  3
DIFFUSETILE
360
ACF6
  3
OPACITYTILE
360
ACFA
  3
REFLECTIONTILE
360
ACF9
  3
REFRACTIONTILE
360
ACFB
  3
SPECULARTILE
360
ACF8
  0
DICTIONARY
  5
ACED
330
ACEC
100
AcDbDictionary
280
     1
281
     1
  3
ACAD_XREC_ROUNDTRIP
360
AD5B
  3
BUMPTILE
360
ACEF
  3
DIFFUSETILE
360
ACEE
  3
OPACITYTILE
360
ACF2
  3
REFLECTIONTILE
360
ACF1
  3
REFRACTIONTILE
360
ACF3
  3
SPECULARTILE
360
ACF0
  0
DICTIONARY
  5
ACFD
330
ACFC
100
AcDbDictionary
280
     1
281
     1
  3
ACAD_XREC_ROUNDTRIP
360
AD5D
  3
BUMPTILE
360
ACFF
  3
DIFFUSETILE
360
ACFE
  3
OPACITYTILE
360
AD02
  3
REFLECTIONTILE
360
AD01
  3
REFRACTIONTILE
360
AD03
  3
SPECULARTILE
360
AD00
  0
DICTIONARY
  5
AD90
330
AD35
100
AcDbDictionary
280
     1
281
     1
  3
ACAD_XREC_ROUNDTRIP
360
AD91
  0
DICTIONARY
  5
AD57
330
AD1F
100
AcDbDictionary
280
     1
281
     1
  3
ACAD_ROUNDTRIP_2008_TABLESTYLE_CELLSTYLEMAP
360
AD58
  3
ACAD_XREC_ROUNDTRIP
360
AD8E
  0
DICTIONARY
  5
AD68
330
AD0A
100
AcDbDictionary
280
     1
281
     1
  3
ACAD_XREC_ROUNDTRIP
360
AD69
  0
DICTIONARY
  5
AD66
330
AD09
100
AcDbDictionary
280
     1
281
     1
  3
ACAD_XREC_ROUNDTRIP
360
AD67
  0
DICTIONARY
  5
AD74
330
AD10
100
AcDbDictionary
280
     1
281
     1
  3
ACAD_XREC_ROUNDTRIP
360
AD75
  0
DICTIONARY
  5
AD7C
330
AD14
100
AcDbDictionary
280
     1
281
     1
  3
ACAD_XREC_ROUNDTRIP
360
AD7D
  0
DICTIONARY
  5
AD6E
330
AD0D
100
AcDbDictionary
280
     1
281
     1
  3
ACAD_XREC_ROUNDTRIP
360
AD6F
  0
DICTIONARY
  5
AD72
330
AD0F
100
AcDbDictionary
280
     1
281
     1
  3
ACAD_XREC_ROUNDTRIP
360
AD73
  0
DICTIONARY
  5
AD8C
330
AD1C
100
AcDbDictionary
280
     1
281
     1
  3
ACAD_XREC_ROUNDTRIP
360
AD8D
  0
DICTIONARY
  5
AD7A
330
AD13
100
AcDbDictionary
280
     1
281
     1
  3
ACAD_XREC_ROUNDTRIP
360
AD7B
  0
DICTIONARY
  5
AD5E
330
AD05
100
AcDbDictionary
280
     1
281
     1
  3
ACAD_XREC_ROUNDTRIP
360
AD5F
  0
DICTIONARY
  5
AD60
330
AD06
100
AcDbDictionary
280
     1
281
     1
  3
ACAD_XREC_ROUNDTRIP
360
AD61
  0
DICTIONARY
  5
AD62
330
AD07
100
AcDbDictionary
280
     1
281
     1
  3
ACAD_XREC_ROUNDTRIP
360
AD63
  0
DICTIONARY
  5
AD64
330
AD08
100
AcDbDictionary
280
     1
281
     1
  3
ACAD_XREC_ROUNDTRIP
360
AD65
  0
DICTIONARY
  5
AD6C
330
AD0C
100
AcDbDictionary
280
     1
281
     1
  3
ACAD_XREC_ROUNDTRIP
360
AD6D
  0
DICTIONARY
  5
AD88
330
AD1A
100
AcDbDictionary
280
     1
281
     1
  3
ACAD_XREC_ROUNDTRIP
360
AD89
  0
DICTIONARY
  5
AD78
330
AD12
100
AcDbDictionary
280
     1
281
     1
  3
ACAD_XREC_ROUNDTRIP
360
AD79
  0
DICTIONARY
  5
AD8A
330
AD1B
100
AcDbDictionary
280
     1
281
     1
  3
ACAD_XREC_ROUNDTRIP
360
AD8B
  0
DICTIONARY
  5
AD70
330
AD0E
100
AcDbDictionary
280
     1
281
     1
  3
ACAD_XREC_ROUNDTRIP
360
AD71
  0
DICTIONARY
  5
AD86
330
AD19
100
AcDbDictionary
280
     1
281
     1
  3
ACAD_XREC_ROUNDTRIP
360
AD87
  0
DICTIONARY
  5
AD84
330
AD18
100
AcDbDictionary
280
     1
281
     1
  3
ACAD_XREC_ROUNDTRIP
360
AD85
  0
DICTIONARY
  5
AD7E
330
AD15
100
AcDbDictionary
280
     1
281
     1
  3
ACAD_XREC_ROUNDTRIP
360
AD7F
  0
DICTIONARY
  5
AD80
330
AD16
100
AcDbDictionary
280
     1
281
     1
  3
ACAD_XREC_ROUNDTRIP
360
AD81
  0
DICTIONARY
  5
AD76
330
AD11
100
AcDbDictionary
280
     1
281
     1
  3
ACAD_XREC_ROUNDTRIP
360
AD77
  0
DICTIONARY
  5
AD6A
330
AD0B
100
AcDbDictionary
280
     1
281
     1
  3
ACAD_XREC_ROUNDTRIP
360
AD6B
  0
DICTIONARY
  5
AD82
330
AD17
100
AcDbDictionary
280
     1
281
     1
  3
ACAD_XREC_ROUNDTRIP
360
AD83
  0
XRECORD
  5
AD93
102
{ACAD_REACTORS
330
AD92
102
}
330
AD92
100
AcDbXrecord
280
     1
102
DISPLAYNAME
  1
Imperial24
102
FLAGS
 90
        0
  0
XRECORD
  5
AD95
102
{ACAD_REACTORS
330
AD94
102
}
330
AD94
100
AcDbXrecord
280
     1
102
SHADEPLOT
 70
     0
102
SHADEPLOTRESLEVEL
 70
     2
102
SHADEPLOTCUSTOMDPI
 70
   300
  0
XRECORD
  5
AD97
102
{ACAD_REACTORS
330
AD96
102
}
330
AD96
100
AcDbXrecord
280
     1
102
SHADEPLOT
 70
     0
102
SHADEPLOTRESLEVEL
 70
     2
102
SHADEPLOTCUSTOMDPI
 70
   300
  0
XRECORD
  5
AD5C
102
{ACAD_REACTORS
330
ACF5
102
}
330
ACF5
100
AcDbXrecord
280
     1
102
MATERIAL
148
0.0
149
0.0
149
0.0
 93
        0
 94
      127
282
     0
 72
     0
 77
     0
171
     0
175
     0
179
     0
273
     0
  0
XRECORD
  5
ACF7
102
{ACAD_REACTORS
330
ACF5
102
}
330
ACF5
100
AcDbXrecord
280
     1
270
     1
271
     1
  0
XRECORD
  5
ACF6
102
{ACAD_REACTORS
330
ACF5
102
}
330
ACF5
100
AcDbXrecord
280
     1
270
     1
271
     1
  0
XRECORD
  5
ACFA
102
{ACAD_REACTORS
330
ACF5
102
}
330
ACF5
100
AcDbXrecord
280
     1
270
     1
271
     1
  0
XRECORD
  5
ACF9
102
{ACAD_REACTORS
330
ACF5
102
}
330
ACF5
100
AcDbXrecord
280
     1
270
     1
271
     1
  0
XRECORD
  5
ACFB
102
{ACAD_REACTORS
330
ACF5
102
}
330
ACF5
100
AcDbXrecord
280
     1
270
     1
271
     1
  0
XRECORD
  5
ACF8
102
{ACAD_REACTORS
330
ACF5
102
}
330
ACF5
100
AcDbXrecord
280
     1
270
     1
271
     1
  0
XRECORD
  5
AD5B
102
{ACAD_REACTORS
330
ACED
102
}
330
ACED
100
AcDbXrecord
280
     1
102
MATERIAL
148
0.0
149
0.0
149
0.0
 93
        0
 94
      127
282
     0
 72
     0
 77
     0
171
     0
175
     0
179
     0
273
     0
  0
XRECORD
  5
ACEF
102
{ACAD_REACTORS
330
ACED
102
}
330
ACED
100
AcDbXrecord
280
     1
270
     1
271
     1
  0
XRECORD
  5
ACEE
102
{ACAD_REACTORS
330
ACED
102
}
330
ACED
100
AcDbXrecord
280
     1
270
     1
271
     1
  0
XRECORD
  5
ACF2
102
{ACAD_REACTORS
330
ACED
102
}
330
ACED
100
AcDbXrecord
280
     1
270
     1
271
     1
  0
XRECORD
  5
ACF1
102
{ACAD_REACTORS
330
ACED
102
}
330
ACED
100
AcDbXrecord
280
     1
270
     1
271
     1
  0
XRECORD
  5
ACF3
102
{ACAD_REACTORS
330
ACED
102
}
330
ACED
100
AcDbXrecord
280
     1
270
     1
271
     1
  0
XRECORD
  5
ACF0
102
{ACAD_REACTORS
330
ACED
102
}
330
ACED
100
AcDbXrecord
280
     1
270
     1
271
     1
  0
XRECORD
  5
AD5D
102
{ACAD_REACTORS
330
ACFD
102
}
330
ACFD
100
AcDbXrecord
280
     1
102
MATERIAL
148
0.0
149
0.0
149
0.0
 93
        0
 94
      127
282
     0
 72
     0
 77
     0
171
     0
175
     0
179
     0
273
     0
  0
XRECORD
  5
ACFF
102
{ACAD_REACTORS
330
ACFD
102
}
330
ACFD
100
AcDbXrecord
280
     1
270
     1
271
     1
  0
XRECORD
  5
ACFE
102
{ACAD_REACTORS
330
ACFD
102
}
330
ACFD
100
AcDbXrecord
280
     1
270
     1
271
     1
  0
XRECORD
  5
AD02
102
{ACAD_REACTORS
330
ACFD
102
}
330
ACFD
100
AcDbXrecord
280
     1
270
     1
271
     1
  0
XRECORD
  5
AD01
102
{ACAD_REACTORS
330
ACFD
102
}
330
ACFD
100
AcDbXrecord
280
     1
270
     1
271
     1
  0
XRECORD
  5
AD03
102
{ACAD_REACTORS
330
ACFD
102
}
330
ACFD
100
AcDbXrecord
280
     1
270
     1
271
     1
  0
XRECORD
  5
AD00
102
{ACAD_REACTORS
330
ACFD
102
}
330
ACFD
100
AcDbXrecord
280
     1
270
     1
271
     1
  0
XRECORD
  5
AD91
102
{ACAD_REACTORS
330
AD90
102
}
330
AD90
100
AcDbXrecord
280
     1
102
DISPLAYNAME
  1
Imperial24
102
FLAGS
 90
        0
  0
CELLSTYLEMAP
  5
AD58
102
{ACAD_REACTORS
330
AD57
102
}
330
AD57
100
AcDbCellStyleMap
 90
        3
300
CELLSTYLE
  1
TABLEFORMAT_BEGIN
 90
        5
170
     1
 91
        0
 92
    32768
 62
   257
 93
        1
300
CONTENTFORMAT
  1
CONTENTFORMAT_BEGIN
 90
        0
 91
        0
 92
      512
 93
        0
300

 40
0.0
140
1.0
 94
        5
 62
     0
340
AB1A
144
0.25
309
CONTENTFORMAT_END
171
     0
 94
        0
309
TABLEFORMAT_END
  1
CELLSTYLE_BEGIN
 90
        1
 91
        1
300
_TITLE
309
CELLSTYLE_END
300
CELLSTYLE
  1
TABLEFORMAT_BEGIN
 90
        5
170
     1
 91
        0
 92
        0
 62
   257
 93
        1
300
CONTENTFORMAT
  1
CONTENTFORMAT_BEGIN
 90
        0
 91
        0
 92
      512
 93
        0
300

 40
0.0
140
1.0
 94
        5
 62
     0
340
AB1A
144
0.18
309
CONTENTFORMAT_END
171
     0
 94
        0
309
TABLEFORMAT_END
  1
CELLSTYLE_BEGIN
 90
        2
 91
        1
300
_HEADER
309
CELLSTYLE_END
300
CELLSTYLE
  1
TABLEFORMAT_BEGIN
 90
        5
170
     1
 91
        0
 92
        0
 62
   257
 93
        1
300
CONTENTFORMAT
  1
CONTENTFORMAT_BEGIN
 90
        0
 91
        0
 92
      512
 93
        0
300

 40
0.0
140
1.0
 94
        2
 62
     0
340
AB1A
144
0.18
309
CONTENTFORMAT_END
171
     0
 94
        0
309
TABLEFORMAT_END
  1
CELLSTYLE_BEGIN
 90
        3
 91
        2
300
_DATA
309
CELLSTYLE_END
  0
XRECORD
  5
AD8E
102
{ACAD_REACTORS
330
AD57
102
}
330
AD57
100
AcDbXrecord
280
     1
102
ACAD_ROUNDTRIP_PRE2007_TABLESTYLE
 90
      512
 91
        0
  1

 92
      512
 93
        0
  2

 94
      512
 95
        0
  3

  0
XRECORD
  5
AD69
102
{ACAD_REACTORS
330
AD68
102
}
330
AD68
100
AcDbXrecord
280
     1
102
RTVSPost2010Prop28
280
     1
102
RTVSPost2010PropOp28
 70
     1
102
RTVSPost2010Prop29
280
     1
102
RTVSPost2010PropOp29
 70
     1
102
RTVSPost2010Prop30
280
     0
102
RTVSPost2010PropOp30
 70
     1
102
RTVSPost2010Prop31
280
     0
102
RTVSPost2010PropOp31
 70
     1
102
RTVSPost2010Prop32
280
     0
102
RTVSPost2010PropOp32
 70
     1
102
RTVSPost2010Prop33
280
     0
102
RTVSPost2010PropOp33
 70
     1
102
RTVSPost2010Prop34
280
     0
102
RTVSPost2010PropOp34
 70
     1
102
RTVSPost2010Prop35
280
     0
102
RTVSPost2010PropOp35
 70
     1
102
RTVSPost2010Prop36
280
     0
102
RTVSPost2010PropOp36
 70
     1
102
RTVSPost2010Prop37
 90
       50
102
RTVSPost2010PropOp37
 70
     1
102
RTVSPost2010Prop38
140
0.0
102
RTVSPost2010PropOp38
 70
     1
102
RTVSPost2010Prop39
140
1.0
102
RTVSPost2010PropOp39
 70
     1
102
RTVSPost2010Prop40
 90
        0
102
RTVSPost2010PropOp40
 70
     1
102
RTVSPost2010Prop41ColorIndex
 90
       18
102
RTVSPost2010Prop41ColorRGB
 90
        0
102
RTVSPost2010PropOp41
 70
     1
102
RTVSPost2010Prop42
 90
       50
102
RTVSPost2010PropOp42
 70
     1
102
RTVSPost2010Prop43
 90
        3
102
RTVSPost2010PropOp43
 70
     1
102
RTVSPost2010Prop44ColorIndex
 90
        5
102
RTVSPost2010Prop44ColorRGB
 90
      255
102
RTVSPost2010PropOp44
 70
     1
102
RTVSPost2010Prop45
280
     0
102
RTVSPost2010PropOp45
 70
     1
102
RTVSPost2010Prop46
 90
       50
102
RTVSPost2010PropOp46
 70
     1
102
RTVSPost2010Prop47
 90
       50
102
RTVSPost2010PropOp47
 70
     1
102
RTVSPost2010Prop48
 90
       50
102
RTVSPost2010PropOp48
 70
     1
102
RTVSPost2010Prop49
280
     0
102
RTVSPost2010PropOp49
 70
     1
102
RTVSPost2010Prop50
 90
       50
102
RTVSPost2010PropOp50
 70
     1
102
RTVSPost2010Prop51ColorIndex
 90
      256
102
RTVSPost2010Prop51ColorRGB
 90
-16777216
102
RTVSPost2010PropOp51
 70
     0
102
RTVSPost2010Prop52
140
1.0
102
RTVSPost2010PropOp52
 70
     0
102
RTVSPost2010Prop53
 90
        2
102
RTVSPost2010PropOp53
 70
     1
102
RTVSPost2010Prop54
  1
strokes_ogs.tif
102
RTVSPost2010PropOp54
 70
     1
102
RTVSPost2010Prop55
280
     0
102
RTVSPost2010PropOp55
 70
     1
102
RTVSPost2010Prop56
140
1.0
102
RTVSPost2010PropOp56
 70
     1
102
RTVSPost2010Prop57
140
1.0
102
RTVSPost2010PropOp57
 70
     1
102
RTVSPropertyOp0
 70
     1
102
RTVSPropertyOp1
 70
     1
102
RTVSPropertyOp2
 70
     1
102
RTVSPropertyOp3
 70
     1
102
RTVSPropertyOp4
 70
     1
102
RTVSPropertyOp5
 70
     1
102
RTVSPropertyOp6
 70
     1
102
RTVSPropertyOp7
 70
     1
102
RTVSPropertyOp8
 70
     1
102
RTVSPropertyOp9
 70
     1
102
RTVSPropertyOp10
 70
     1
102
RTVSPropertyOp11
 70
     1
102
RTVSPropertyOp12
 70
     1
102
RTVSPropertyOp13
 70
     1
102
RTVSPropertyOp14
 70
     1
102
RTVSPropertyOp15
 70
     1
102
RTVSPropertyOp16
 70
     1
102
RTVSPropertyOp17
 70
     1
102
RTVSPropertyOp18
 70
     1
102
RTVSPropertyOp19
 70
     1
102
RTVSPropertyOp20
 70
     1
102
RTVSPropertyOp21
 70
     1
102
RTVSPropertyOp22
 70
     1
102
RTVSPropertyOp23
 70
     1
102
RTVSPropertyOp24
 70
     1
102
RTVSPropertyOp25
 70
     1
102
RTVSPropertyOp26
 70
     1
102
RTVSPropertyOp27
 70
     1
102
RTVSPropertyOp28
 70
     1
102
RTVSPropertyOp29
 70
     1
102
RTVSPropertyOp30
 70
     1
102
RTVSPropertyOp31
 70
     1
102
RTVSPropertyOp32
 70
     1
102
RTVSPropertyOp33
 70
     1
102
RTVSPropertyOp34
 70
     1
102
RTVSPropertyOp35
 70
     1
102
RTVSPropertyOp36
 70
     1
102
RTVSPropertyOp37
 70
     1
102
RTVSPropertyOp38
 70
     1
102
RTVSPropertyOp39
 70
     1
102
RTVSPropertyOp40
 70
     1
102
RTVSPropertyOp41
 70
     1
102
RTVSPropertyOp42
 70
     1
102
RTVSPropertyOp43
 70
     1
102
RTVSPropertyOp44
 70
     1
102
RTVSPropertyOp45
 70
     1
102
RTVSPropertyOp46
 70
     1
102
RTVSPropertyOp47
 70
     1
102
RTVSPropertyOp48
 70
     1
102
RTVSPropertyOp49
 70
     1
102
RTVSPropertyOp50
 70
     1
102
RTVSPropertyOp51
 70
     0
102
RTVSPropertyOp52
 70
     0
102
RTVSPropertyOp53
 70
     1
102
RTVSPropertyOp54
 70
     1
102
RTVSPropertyOp55
 70
     1
102
RTVSPropertyOp56
 70
     1
102
RTVSPropertyOp57
 70
     1
102
RTVSPropertyOp58
 70
     1
102
RTVSPropertyOp59
 70
     1
102
RTVSPropertyOp60
 70
     1
102
RTVSPropertyOp61
 70
     1
102
RTVSPropertyOp62
 70
     1
  0
XRECORD
  5
AD67
102
{ACAD_REACTORS
330
AD66
102
}
330
AD66
100
AcDbXrecord
280
     1
102
RTVSPost2010Prop28
280
     0
102
RTVSPost2010PropOp28
 70
     1
102
RTVSPost2010Prop29
280
     1
102
RTVSPost2010PropOp29
 70
     1
102
RTVSPost2010Prop30
280
     1
102
RTVSPost2010PropOp30
 70
     1
102
RTVSPost2010Prop31
280
     0
102
RTVSPost2010PropOp31
 70
     1
102
RTVSPost2010Prop32
280
     0
102
RTVSPost2010PropOp32
 70
     1
102
RTVSPost2010Prop33
280
     0
102
RTVSPost2010PropOp33
 70
     1
102
RTVSPost2010Prop34
280
     0
102
RTVSPost2010PropOp34
 70
     1
102
RTVSPost2010Prop35
280
     0
102
RTVSPost2010PropOp35
 70
     1
102
RTVSPost2010Prop36
280
     0
102
RTVSPost2010PropOp36
 70
     1
102
RTVSPost2010Prop37
 90
       50
102
RTVSPost2010PropOp37
 70
     1
102
RTVSPost2010Prop38
140
0.0
102
RTVSPost2010PropOp38
 70
     1
102
RTVSPost2010Prop39
140
1.0
102
RTVSPost2010PropOp39
 70
     1
102
RTVSPost2010Prop40
 90
        0
102
RTVSPost2010PropOp40
 70
     1
102
RTVSPost2010Prop41ColorIndex
 90
       18
102
RTVSPost2010Prop41ColorRGB
 90
        0
102
RTVSPost2010PropOp41
 70
     1
102
RTVSPost2010Prop42
 90
       50
102
RTVSPost2010PropOp42
 70
     1
102
RTVSPost2010Prop43
 90
        3
102
RTVSPost2010PropOp43
 70
     1
102
RTVSPost2010Prop44ColorIndex
 90
        5
102
RTVSPost2010Prop44ColorRGB
 90
      255
102
RTVSPost2010PropOp44
 70
     1
102
RTVSPost2010Prop45
280
     0
102
RTVSPost2010PropOp45
 70
     1
102
RTVSPost2010Prop46
 90
       50
102
RTVSPost2010PropOp46
 70
     1
102
RTVSPost2010Prop47
 90
       50
102
RTVSPost2010PropOp47
 70
     1
102
RTVSPost2010Prop48
 90
       50
102
RTVSPost2010PropOp48
 70
     1
102
RTVSPost2010Prop49
280
     0
102
RTVSPost2010PropOp49
 70
     1
102
RTVSPost2010Prop50
 90
       50
102
RTVSPost2010PropOp50
 70
     1
102
RTVSPost2010Prop51ColorIndex
 90
      256
102
RTVSPost2010Prop51ColorRGB
 90
-16777216
102
RTVSPost2010PropOp51
 70
     0
102
RTVSPost2010Prop52
140
1.0
102
RTVSPost2010PropOp52
 70
     0
102
RTVSPost2010Prop53
 90
        2
102
RTVSPost2010PropOp53
 70
     1
102
RTVSPost2010Prop54
  1
strokes_ogs.tif
102
RTVSPost2010PropOp54
 70
     1
102
RTVSPost2010Prop55
280
     0
102
RTVSPost2010PropOp55
 70
     1
102
RTVSPost2010Prop56
140
1.0
102
RTVSPost2010PropOp56
 70
     1
102
RTVSPost2010Prop57
140
1.0
102
RTVSPost2010PropOp57
 70
     1
102
RTVSPropertyOp0
 70
     1
102
RTVSPropertyOp1
 70
     1
102
RTVSPropertyOp2
 70
     1
102
RTVSPropertyOp3
 70
     1
102
RTVSPropertyOp4
 70
     1
102
RTVSPropertyOp5
 70
     1
102
RTVSPropertyOp6
 70
     1
102
RTVSPropertyOp7
 70
     1
102
RTVSPropertyOp8
 70
     1
102
RTVSPropertyOp9
 70
     1
102
RTVSPropertyOp10
 70
     1
102
RTVSPropertyOp11
 70
     1
102
RTVSPropertyOp12
 70
     1
102
RTVSPropertyOp13
 70
     1
102
RTVSPropertyOp14
 70
     1
102
RTVSPropertyOp15
 70
     1
102
RTVSPropertyOp16
 70
     1
102
RTVSPropertyOp17
 70
     1
102
RTVSPropertyOp18
 70
     1
102
RTVSPropertyOp19
 70
     1
102
RTVSPropertyOp20
 70
     1
102
RTVSPropertyOp21
 70
     1
102
RTVSPropertyOp22
 70
     1
102
RTVSPropertyOp23
 70
     1
102
RTVSPropertyOp24
 70
     1
102
RTVSPropertyOp25
 70
     1
102
RTVSPropertyOp26
 70
     1
102
RTVSPropertyOp27
 70
     1
102
RTVSPropertyOp28
 70
     1
102
RTVSPropertyOp29
 70
     1
102
RTVSPropertyOp30
 70
     1
102
RTVSPropertyOp31
 70
     1
102
RTVSPropertyOp32
 70
     1
102
RTVSPropertyOp33
 70
     1
102
RTVSPropertyOp34
 70
     1
102
RTVSPropertyOp35
 70
     1
102
RTVSPropertyOp36
 70
     1
102
RTVSPropertyOp37
 70
     1
102
RTVSPropertyOp38
 70
     1
102
RTVSPropertyOp39
 70
     1
102
RTVSPropertyOp40
 70
     1
102
RTVSPropertyOp41
 70
     1
102
RTVSPropertyOp42
 70
     1
102
RTVSPropertyOp43
 70
     1
102
RTVSPropertyOp44
 70
     1
102
RTVSPropertyOp45
 70
     1
102
RTVSPropertyOp46
 70
     1
102
RTVSPropertyOp47
 70
     1
102
RTVSPropertyOp48
 70
     1
102
RTVSPropertyOp49
 70
     1
102
RTVSPropertyOp50
 70
     1
102
RTVSPropertyOp51
 70
     0
102
RTVSPropertyOp52
 70
     0
102
RTVSPropertyOp53
 70
     1
102
RTVSPropertyOp54
 70
     1
102
RTVSPropertyOp55
 70
     1
102
RTVSPropertyOp56
 70
     1
102
RTVSPropertyOp57
 70
     1
102
RTVSPropertyOp58
 70
     1
102
RTVSPropertyOp59
 70
     1
102
RTVSPropertyOp60
 70
     1
102
RTVSPropertyOp61
 70
     1
102
RTVSPropertyOp62
 70
     1
  0
XRECORD
  5
AD75
102
{ACAD_REACTORS
330
AD74
102
}
330
AD74
100
AcDbXrecord
280
     1
102
RTVSPost2010Prop28
280
     0
102
RTVSPost2010PropOp28
 70
     1
102
RTVSPost2010Prop29
280
     1
102
RTVSPost2010PropOp29
 70
     1
102
RTVSPost2010Prop30
280
     1
102
RTVSPost2010PropOp30
 70
     1
102
RTVSPost2010Prop31
280
     0
102
RTVSPost2010PropOp31
 70
     1
102
RTVSPost2010Prop32
280
     0
102
RTVSPost2010PropOp32
 70
     1
102
RTVSPost2010Prop33
280
     0
102
RTVSPost2010PropOp33
 70
     1
102
RTVSPost2010Prop34
280
     0
102
RTVSPost2010PropOp34
 70
     1
102
RTVSPost2010Prop35
280
     0
102
RTVSPost2010PropOp35
 70
     1
102
RTVSPost2010Prop36
280
     0
102
RTVSPost2010PropOp36
 70
     1
102
RTVSPost2010Prop37
 90
       50
102
RTVSPost2010PropOp37
 70
     1
102
RTVSPost2010Prop38
140
0.0
102
RTVSPost2010PropOp38
 70
     1
102
RTVSPost2010Prop39
140
1.0
102
RTVSPost2010PropOp39
 70
     1
102
RTVSPost2010Prop40
 90
        0
102
RTVSPost2010PropOp40
 70
     1
102
RTVSPost2010Prop41ColorIndex
 90
       18
102
RTVSPost2010Prop41ColorRGB
 90
        0
102
RTVSPost2010PropOp41
 70
     1
102
RTVSPost2010Prop42
 90
       50
102
RTVSPost2010PropOp42
 70
     1
102
RTVSPost2010Prop43
 90
        3
102
RTVSPost2010PropOp43
 70
     1
102
RTVSPost2010Prop44ColorIndex
 90
        5
102
RTVSPost2010Prop44ColorRGB
 90
      255
102
RTVSPost2010PropOp44
 70
     1
102
RTVSPost2010Prop45
280
     0
102
RTVSPost2010PropOp45
 70
     1
102
RTVSPost2010Prop46
 90
       50
102
RTVSPost2010PropOp46
 70
     1
102
RTVSPost2010Prop47
 90
       50
102
RTVSPost2010PropOp47
 70
     1
102
RTVSPost2010Prop48
 90
       50
102
RTVSPost2010PropOp48
 70
     1
102
RTVSPost2010Prop49
280
     0
102
RTVSPost2010PropOp49
 70
     1
102
RTVSPost2010Prop50
 90
       50
102
RTVSPost2010PropOp50
 70
     1
102
RTVSPost2010Prop51ColorIndex
 90
      256
102
RTVSPost2010Prop51ColorRGB
 90
-16777216
102
RTVSPost2010PropOp51
 70
     0
102
RTVSPost2010Prop52
140
1.0
102
RTVSPost2010PropOp52
 70
     0
102
RTVSPost2010Prop53
 90
        2
102
RTVSPost2010PropOp53
 70
     1
102
RTVSPost2010Prop54
  1
strokes_ogs.tif
102
RTVSPost2010PropOp54
 70
     1
102
RTVSPost2010Prop55
280
     0
102
RTVSPost2010PropOp55
 70
     1
102
RTVSPost2010Prop56
140
1.0
102
RTVSPost2010PropOp56
 70
     1
102
RTVSPost2010Prop57
140
1.0
102
RTVSPost2010PropOp57
 70
     1
102
RTVSPropertyOp0
 70
     1
102
RTVSPropertyOp1
 70
     1
102
RTVSPropertyOp2
 70
     1
102
RTVSPropertyOp3
 70
     1
102
RTVSPropertyOp4
 70
     1
102
RTVSPropertyOp5
 70
     1
102
RTVSPropertyOp6
 70
     1
102
RTVSPropertyOp7
 70
     1
102
RTVSPropertyOp8
 70
     1
102
RTVSPropertyOp9
 70
     1
102
RTVSPropertyOp10
 70
     1
102
RTVSPropertyOp11
 70
     1
102
RTVSPropertyOp12
 70
     1
102
RTVSPropertyOp13
 70
     1
102
RTVSPropertyOp14
 70
     1
102
RTVSPropertyOp15
 70
     1
102
RTVSPropertyOp16
 70
     1
102
RTVSPropertyOp17
 70
     1
102
RTVSPropertyOp18
 70
     1
102
RTVSPropertyOp19
 70
     1
102
RTVSPropertyOp20
 70
     1
102
RTVSPropertyOp21
 70
     1
102
RTVSPropertyOp22
 70
     1
102
RTVSPropertyOp23
 70
     1
102
RTVSPropertyOp24
 70
     1
102
RTVSPropertyOp25
 70
     1
102
RTVSPropertyOp26
 70
     1
102
RTVSPropertyOp27
 70
     1
102
RTVSPropertyOp28
 70
     1
102
RTVSPropertyOp29
 70
     1
102
RTVSPropertyOp30
 70
     1
102
RTVSPropertyOp31
 70
     1
102
RTVSPropertyOp32
 70
     1
102
RTVSPropertyOp33
 70
     1
102
RTVSPropertyOp34
 70
     1
102
RTVSPropertyOp35
 70
     1
102
RTVSPropertyOp36
 70
     1
102
RTVSPropertyOp37
 70
     1
102
RTVSPropertyOp38
 70
     1
102
RTVSPropertyOp39
 70
     1
102
RTVSPropertyOp40
 70
     1
102
RTVSPropertyOp41
 70
     1
102
RTVSPropertyOp42
 70
     1
102
RTVSPropertyOp43
 70
     1
102
RTVSPropertyOp44
 70
     1
102
RTVSPropertyOp45
 70
     1
102
RTVSPropertyOp46
 70
     1
102
RTVSPropertyOp47
 70
     1
102
RTVSPropertyOp48
 70
     1
102
RTVSPropertyOp49
 70
     1
102
RTVSPropertyOp50
 70
     1
102
RTVSPropertyOp51
 70
     0
102
RTVSPropertyOp52
 70
     0
102
RTVSPropertyOp53
 70
     1
102
RTVSPropertyOp54
 70
     1
102
RTVSPropertyOp55
 70
     1
102
RTVSPropertyOp56
 70
     1
102
RTVSPropertyOp57
 70
     1
102
RTVSPropertyOp58
 70
     1
102
RTVSPropertyOp59
 70
     1
102
RTVSPropertyOp60
 70
     1
102
RTVSPropertyOp61
 70
     1
102
RTVSPropertyOp62
 70
     1
  0
XRECORD
  5
AD7D
102
{ACAD_REACTORS
330
AD7C
102
}
330
AD7C
100
AcDbXrecord
280
     1
102
RTVSPost2010Prop28
280
     0
102
RTVSPost2010PropOp28
 70
     1
102
RTVSPost2010Prop29
280
     1
102
RTVSPost2010PropOp29
 70
     1
102
RTVSPost2010Prop30
280
     1
102
RTVSPost2010PropOp30
 70
     1
102
RTVSPost2010Prop31
280
     0
102
RTVSPost2010PropOp31
 70
     1
102
RTVSPost2010Prop32
280
     0
102
RTVSPost2010PropOp32
 70
     1
102
RTVSPost2010Prop33
280
     0
102
RTVSPost2010PropOp33
 70
     1
102
RTVSPost2010Prop34
280
     0
102
RTVSPost2010PropOp34
 70
     1
102
RTVSPost2010Prop35
280
     0
102
RTVSPost2010PropOp35
 70
     1
102
RTVSPost2010Prop36
280
     0
102
RTVSPost2010PropOp36
 70
     1
102
RTVSPost2010Prop37
 90
       50
102
RTVSPost2010PropOp37
 70
     1
102
RTVSPost2010Prop38
140
0.0
102
RTVSPost2010PropOp38
 70
     1
102
RTVSPost2010Prop39
140
1.0
102
RTVSPost2010PropOp39
 70
     1
102
RTVSPost2010Prop40
 90
        0
102
RTVSPost2010PropOp40
 70
     1
102
RTVSPost2010Prop41ColorIndex
 90
       18
102
RTVSPost2010Prop41ColorRGB
 90
        0
102
RTVSPost2010PropOp41
 70
     1
102
RTVSPost2010Prop42
 90
       50
102
RTVSPost2010PropOp42
 70
     1
102
RTVSPost2010Prop43
 90
        3
102
RTVSPost2010PropOp43
 70
     1
102
RTVSPost2010Prop44ColorIndex
 90
        5
102
RTVSPost2010Prop44ColorRGB
 90
      255
102
RTVSPost2010PropOp44
 70
     1
102
RTVSPost2010Prop45
280
     0
102
RTVSPost2010PropOp45
 70
     1
102
RTVSPost2010Prop46
 90
       50
102
RTVSPost2010PropOp46
 70
     1
102
RTVSPost2010Prop47
 90
       50
102
RTVSPost2010PropOp47
 70
     1
102
RTVSPost2010Prop48
 90
       50
102
RTVSPost2010PropOp48
 70
     1
102
RTVSPost2010Prop49
280
     0
102
RTVSPost2010PropOp49
 70
     1
102
RTVSPost2010Prop50
 90
       50
102
RTVSPost2010PropOp50
 70
     1
102
RTVSPost2010Prop51ColorIndex
 90
      256
102
RTVSPost2010Prop51ColorRGB
 90
-16777216
102
RTVSPost2010PropOp51
 70
     0
102
RTVSPost2010Prop52
140
1.0
102
RTVSPost2010PropOp52
 70
     0
102
RTVSPost2010Prop53
 90
        2
102
RTVSPost2010PropOp53
 70
     1
102
RTVSPost2010Prop54
  1
strokes_ogs.tif
102
RTVSPost2010PropOp54
 70
     1
102
RTVSPost2010Prop55
280
     0
102
RTVSPost2010PropOp55
 70
     1
102
RTVSPost2010Prop56
140
1.0
102
RTVSPost2010PropOp56
 70
     1
102
RTVSPost2010Prop57
140
1.0
102
RTVSPost2010PropOp57
 70
     1
102
RTVSPropertyOp0
 70
     1
102
RTVSPropertyOp1
 70
     1
102
RTVSPropertyOp2
 70
     1
102
RTVSPropertyOp3
 70
     1
102
RTVSPropertyOp4
 70
     1
102
RTVSPropertyOp5
 70
     1
102
RTVSPropertyOp6
 70
     1
102
RTVSPropertyOp7
 70
     1
102
RTVSPropertyOp8
 70
     1
102
RTVSPropertyOp9
 70
     1
102
RTVSPropertyOp10
 70
     1
102
RTVSPropertyOp11
 70
     1
102
RTVSPropertyOp12
 70
     1
102
RTVSPropertyOp13
 70
     1
102
RTVSPropertyOp14
 70
     1
102
RTVSPropertyOp15
 70
     1
102
RTVSPropertyOp16
 70
     1
102
RTVSPropertyOp17
 70
     1
102
RTVSPropertyOp18
 70
     1
102
RTVSPropertyOp19
 70
     1
102
RTVSPropertyOp20
 70
     1
102
RTVSPropertyOp21
 70
     1
102
RTVSPropertyOp22
 70
     1
102
RTVSPropertyOp23
 70
     1
102
RTVSPropertyOp24
 70
     1
102
RTVSPropertyOp25
 70
     1
102
RTVSPropertyOp26
 70
     1
102
RTVSPropertyOp27
 70
     1
102
RTVSPropertyOp28
 70
     1
102
RTVSPropertyOp29
 70
     1
102
RTVSPropertyOp30
 70
     1
102
RTVSPropertyOp31
 70
     1
102
RTVSPropertyOp32
 70
     1
102
RTVSPropertyOp33
 70
     1
102
RTVSPropertyOp34
 70
     1
102
RTVSPropertyOp35
 70
     1
102
RTVSPropertyOp36
 70
     1
102
RTVSPropertyOp37
 70
     1
102
RTVSPropertyOp38
 70
     1
102
RTVSPropertyOp39
 70
     1
102
RTVSPropertyOp40
 70
     1
102
RTVSPropertyOp41
 70
     1
102
RTVSPropertyOp42
 70
     1
102
RTVSPropertyOp43
 70
     1
102
RTVSPropertyOp44
 70
     1
102
RTVSPropertyOp45
 70
     1
102
RTVSPropertyOp46
 70
     1
102
RTVSPropertyOp47
 70
     1
102
RTVSPropertyOp48
 70
     1
102
RTVSPropertyOp49
 70
     1
102
RTVSPropertyOp50
 70
     1
102
RTVSPropertyOp51
 70
     0
102
RTVSPropertyOp52
 70
     0
102
RTVSPropertyOp53
 70
     1
102
RTVSPropertyOp54
 70
     1
102
RTVSPropertyOp55
 70
     1
102
RTVSPropertyOp56
 70
     1
102
RTVSPropertyOp57
 70
     1
102
RTVSPropertyOp58
 70
     1
102
RTVSPropertyOp59
 70
     1
102
RTVSPropertyOp60
 70
     1
102
RTVSPropertyOp61
 70
     1
102
RTVSPropertyOp62
 70
     1
  0
XRECORD
  5
AD6F
102
{ACAD_REACTORS
330
AD6E
102
}
330
AD6E
100
AcDbXrecord
280
     1
102
RTVSPost2010Prop28
280
     0
102
RTVSPost2010PropOp28
 70
     1
102
RTVSPost2010Prop29
280
     1
102
RTVSPost2010PropOp29
 70
     1
102
RTVSPost2010Prop30
280
     1
102
RTVSPost2010PropOp30
 70
     1
102
RTVSPost2010Prop31
280
     0
102
RTVSPost2010PropOp31
 70
     1
102
RTVSPost2010Prop32
280
     0
102
RTVSPost2010PropOp32
 70
     1
102
RTVSPost2010Prop33
280
     0
102
RTVSPost2010PropOp33
 70
     1
102
RTVSPost2010Prop34
280
     0
102
RTVSPost2010PropOp34
 70
     1
102
RTVSPost2010Prop35
280
     0
102
RTVSPost2010PropOp35
 70
     1
102
RTVSPost2010Prop36
280
     0
102
RTVSPost2010PropOp36
 70
     1
102
RTVSPost2010Prop37
 90
       50
102
RTVSPost2010PropOp37
 70
     1
102
RTVSPost2010Prop38
140
0.0
102
RTVSPost2010PropOp38
 70
     1
102
RTVSPost2010Prop39
140
1.0
102
RTVSPost2010PropOp39
 70
     1
102
RTVSPost2010Prop40
 90
        0
102
RTVSPost2010PropOp40
 70
     1
102
RTVSPost2010Prop41ColorIndex
 90
       18
102
RTVSPost2010Prop41ColorRGB
 90
        0
102
RTVSPost2010PropOp41
 70
     1
102
RTVSPost2010Prop42
 90
       50
102
RTVSPost2010PropOp42
 70
     1
102
RTVSPost2010Prop43
 90
        3
102
RTVSPost2010PropOp43
 70
     1
102
RTVSPost2010Prop44ColorIndex
 90
        5
102
RTVSPost2010Prop44ColorRGB
 90
      255
102
RTVSPost2010PropOp44
 70
     1
102
RTVSPost2010Prop45
280
     0
102
RTVSPost2010PropOp45
 70
     1
102
RTVSPost2010Prop46
 90
       50
102
RTVSPost2010PropOp46
 70
     1
102
RTVSPost2010Prop47
 90
       50
102
RTVSPost2010PropOp47
 70
     1
102
RTVSPost2010Prop48
 90
       50
102
RTVSPost2010PropOp48
 70
     1
102
RTVSPost2010Prop49
280
     0
102
RTVSPost2010PropOp49
 70
     1
102
RTVSPost2010Prop50
 90
       50
102
RTVSPost2010PropOp50
 70
     1
102
RTVSPost2010Prop51ColorIndex
 90
      256
102
RTVSPost2010Prop51ColorRGB
 90
-16777216
102
RTVSPost2010PropOp51
 70
     0
102
RTVSPost2010Prop52
140
1.0
102
RTVSPost2010PropOp52
 70
     0
102
RTVSPost2010Prop53
 90
        2
102
RTVSPost2010PropOp53
 70
     1
102
RTVSPost2010Prop54
  1
strokes_ogs.tif
102
RTVSPost2010PropOp54
 70
     1
102
RTVSPost2010Prop55
280
     0
102
RTVSPost2010PropOp55
 70
     1
102
RTVSPost2010Prop56
140
1.0
102
RTVSPost2010PropOp56
 70
     1
102
RTVSPost2010Prop57
140
1.0
102
RTVSPost2010PropOp57
 70
     1
102
RTVSPropertyOp0
 70
     1
102
RTVSPropertyOp1
 70
     1
102
RTVSPropertyOp2
 70
     1
102
RTVSPropertyOp3
 70
     1
102
RTVSPropertyOp4
 70
     1
102
RTVSPropertyOp5
 70
     1
102
RTVSPropertyOp6
 70
     1
102
RTVSPropertyOp7
 70
     1
102
RTVSPropertyOp8
 70
     1
102
RTVSPropertyOp9
 70
     1
102
RTVSPropertyOp10
 70
     1
102
RTVSPropertyOp11
 70
     1
102
RTVSPropertyOp12
 70
     1
102
RTVSPropertyOp13
 70
     1
102
RTVSPropertyOp14
 70
     1
102
RTVSPropertyOp15
 70
     1
102
RTVSPropertyOp16
 70
     1
102
RTVSPropertyOp17
 70
     1
102
RTVSPropertyOp18
 70
     1
102
RTVSPropertyOp19
 70
     1
102
RTVSPropertyOp20
 70
     1
102
RTVSPropertyOp21
 70
     1
102
RTVSPropertyOp22
 70
     1
102
RTVSPropertyOp23
 70
     1
102
RTVSPropertyOp24
 70
     1
102
RTVSPropertyOp25
 70
     1
102
RTVSPropertyOp26
 70
     1
102
RTVSPropertyOp27
 70
     1
102
RTVSPropertyOp28
 70
     1
102
RTVSPropertyOp29
 70
     1
102
RTVSPropertyOp30
 70
     1
102
RTVSPropertyOp31
 70
     1
102
RTVSPropertyOp32
 70
     1
102
RTVSPropertyOp33
 70
     1
102
RTVSPropertyOp34
 70
     1
102
RTVSPropertyOp35
 70
     1
102
RTVSPropertyOp36
 70
     1
102
RTVSPropertyOp37
 70
     1
102
RTVSPropertyOp38
 70
     1
102
RTVSPropertyOp39
 70
     1
102
RTVSPropertyOp40
 70
     1
102
RTVSPropertyOp41
 70
     1
102
RTVSPropertyOp42
 70
     1
102
RTVSPropertyOp43
 70
     1
102
RTVSPropertyOp44
 70
     1
102
RTVSPropertyOp45
 70
     1
102
RTVSPropertyOp46
 70
     1
102
RTVSPropertyOp47
 70
     1
102
RTVSPropertyOp48
 70
     1
102
RTVSPropertyOp49
 70
     1
102
RTVSPropertyOp50
 70
     1
102
RTVSPropertyOp51
 70
     0
102
RTVSPropertyOp52
 70
     0
102
RTVSPropertyOp53
 70
     1
102
RTVSPropertyOp54
 70
     1
102
RTVSPropertyOp55
 70
     1
102
RTVSPropertyOp56
 70
     1
102
RTVSPropertyOp57
 70
     1
102
RTVSPropertyOp58
 70
     1
102
RTVSPropertyOp59
 70
     1
102
RTVSPropertyOp60
 70
     1
102
RTVSPropertyOp61
 70
     1
102
RTVSPropertyOp62
 70
     1
  0
XRECORD
  5
AD73
102
{ACAD_REACTORS
330
AD72
102
}
330
AD72
100
AcDbXrecord
280
     1
102
RTVSPost2010Prop28
280
     0
102
RTVSPost2010PropOp28
 70
     1
102
RTVSPost2010Prop29
280
     1
102
RTVSPost2010PropOp29
 70
     1
102
RTVSPost2010Prop30
280
     1
102
RTVSPost2010PropOp30
 70
     1
102
RTVSPost2010Prop31
280
     0
102
RTVSPost2010PropOp31
 70
     1
102
RTVSPost2010Prop32
280
     0
102
RTVSPost2010PropOp32
 70
     1
102
RTVSPost2010Prop33
280
     0
102
RTVSPost2010PropOp33
 70
     1
102
RTVSPost2010Prop34
280
     0
102
RTVSPost2010PropOp34
 70
     1
102
RTVSPost2010Prop35
280
     0
102
RTVSPost2010PropOp35
 70
     1
102
RTVSPost2010Prop36
280
     0
102
RTVSPost2010PropOp36
 70
     1
102
RTVSPost2010Prop37
 90
       50
102
RTVSPost2010PropOp37
 70
     1
102
RTVSPost2010Prop38
140
0.0
102
RTVSPost2010PropOp38
 70
     1
102
RTVSPost2010Prop39
140
1.0
102
RTVSPost2010PropOp39
 70
     1
102
RTVSPost2010Prop40
 90
        0
102
RTVSPost2010PropOp40
 70
     1
102
RTVSPost2010Prop41ColorIndex
 90
       18
102
RTVSPost2010Prop41ColorRGB
 90
        0
102
RTVSPost2010PropOp41
 70
     1
102
RTVSPost2010Prop42
 90
       50
102
RTVSPost2010PropOp42
 70
     1
102
RTVSPost2010Prop43
 90
        3
102
RTVSPost2010PropOp43
 70
     1
102
RTVSPost2010Prop44ColorIndex
 90
        5
102
RTVSPost2010Prop44ColorRGB
 90
      255
102
RTVSPost2010PropOp44
 70
     1
102
RTVSPost2010Prop45
280
     0
102
RTVSPost2010PropOp45
 70
     1
102
RTVSPost2010Prop46
 90
       50
102
RTVSPost2010PropOp46
 70
     1
102
RTVSPost2010Prop47
 90
       50
102
RTVSPost2010PropOp47
 70
     1
102
RTVSPost2010Prop48
 90
       50
102
RTVSPost2010PropOp48
 70
     1
102
RTVSPost2010Prop49
280
     0
102
RTVSPost2010PropOp49
 70
     1
102
RTVSPost2010Prop50
 90
       50
102
RTVSPost2010PropOp50
 70
     1
102
RTVSPost2010Prop51ColorIndex
 90
      256
102
RTVSPost2010Prop51ColorRGB
 90
-16777216
102
RTVSPost2010PropOp51
 70
     0
102
RTVSPost2010Prop52
140
1.0
102
RTVSPost2010PropOp52
 70
     0
102
RTVSPost2010Prop53
 90
        2
102
RTVSPost2010PropOp53
 70
     1
102
RTVSPost2010Prop54
  1
strokes_ogs.tif
102
RTVSPost2010PropOp54
 70
     1
102
RTVSPost2010Prop55
280
     0
102
RTVSPost2010PropOp55
 70
     1
102
RTVSPost2010Prop56
140
1.0
102
RTVSPost2010PropOp56
 70
     1
102
RTVSPost2010Prop57
140
1.0
102
RTVSPost2010PropOp57
 70
     1
102
RTVSPropertyOp0
 70
     1
102
RTVSPropertyOp1
 70
     1
102
RTVSPropertyOp2
 70
     1
102
RTVSPropertyOp3
 70
     1
102
RTVSPropertyOp4
 70
     1
102
RTVSPropertyOp5
 70
     1
102
RTVSPropertyOp6
 70
     1
102
RTVSPropertyOp7
 70
     1
102
RTVSPropertyOp8
 70
     1
102
RTVSPropertyOp9
 70
     1
102
RTVSPropertyOp10
 70
     1
102
RTVSPropertyOp11
 70
     1
102
RTVSPropertyOp12
 70
     1
102
RTVSPropertyOp13
 70
     1
102
RTVSPropertyOp14
 70
     1
102
RTVSPropertyOp15
 70
     1
102
RTVSPropertyOp16
 70
     1
102
RTVSPropertyOp17
 70
     1
102
RTVSPropertyOp18
 70
     1
102
RTVSPropertyOp19
 70
     1
102
RTVSPropertyOp20
 70
     1
102
RTVSPropertyOp21
 70
     1
102
RTVSPropertyOp22
 70
     1
102
RTVSPropertyOp23
 70
     1
102
RTVSPropertyOp24
 70
     1
102
RTVSPropertyOp25
 70
     1
102
RTVSPropertyOp26
 70
     1
102
RTVSPropertyOp27
 70
     1
102
RTVSPropertyOp28
 70
     1
102
RTVSPropertyOp29
 70
     1
102
RTVSPropertyOp30
 70
     1
102
RTVSPropertyOp31
 70
     1
102
RTVSPropertyOp32
 70
     1
102
RTVSPropertyOp33
 70
     1
102
RTVSPropertyOp34
 70
     1
102
RTVSPropertyOp35
 70
     1
102
RTVSPropertyOp36
 70
     1
102
RTVSPropertyOp37
 70
     1
102
RTVSPropertyOp38
 70
     1
102
RTVSPropertyOp39
 70
     1
102
RTVSPropertyOp40
 70
     1
102
RTVSPropertyOp41
 70
     1
102
RTVSPropertyOp42
 70
     1
102
RTVSPropertyOp43
 70
     1
102
RTVSPropertyOp44
 70
     1
102
RTVSPropertyOp45
 70
     1
102
RTVSPropertyOp46
 70
     1
102
RTVSPropertyOp47
 70
     1
102
RTVSPropertyOp48
 70
     1
102
RTVSPropertyOp49
 70
     1
102
RTVSPropertyOp50
 70
     1
102
RTVSPropertyOp51
 70
     0
102
RTVSPropertyOp52
 70
     0
102
RTVSPropertyOp53
 70
     1
102
RTVSPropertyOp54
 70
     1
102
RTVSPropertyOp55
 70
     1
102
RTVSPropertyOp56
 70
     1
102
RTVSPropertyOp57
 70
     1
102
RTVSPropertyOp58
 70
     1
102
RTVSPropertyOp59
 70
     1
102
RTVSPropertyOp60
 70
     1
102
RTVSPropertyOp61
 70
     1
102
RTVSPropertyOp62
 70
     1
  0
XRECORD
  5
AD8D
102
{ACAD_REACTORS
330
AD8C
102
}
330
AD8C
100
AcDbXrecord
280
     1
102
RTVSPost2010Prop28
280
     0
102
RTVSPost2010PropOp28
 70
     1
102
RTVSPost2010Prop29
280
     1
102
RTVSPost2010PropOp29
 70
     1
102
RTVSPost2010Prop30
280
     1
102
RTVSPost2010PropOp30
 70
     1
102
RTVSPost2010Prop31
280
     0
102
RTVSPost2010PropOp31
 70
     1
102
RTVSPost2010Prop32
280
     0
102
RTVSPost2010PropOp32
 70
     1
102
RTVSPost2010Prop33
280
     0
102
RTVSPost2010PropOp33
 70
     1
102
RTVSPost2010Prop34
280
     0
102
RTVSPost2010PropOp34
 70
     1
102
RTVSPost2010Prop35
280
     0
102
RTVSPost2010PropOp35
 70
     1
102
RTVSPost2010Prop36
280
     0
102
RTVSPost2010PropOp36
 70
     1
102
RTVSPost2010Prop37
 90
       50
102
RTVSPost2010PropOp37
 70
     0
102
RTVSPost2010Prop38
140
0.0
102
RTVSPost2010PropOp38
 70
     0
102
RTVSPost2010Prop39
140
1.0
102
RTVSPost2010PropOp39
 70
     0
102
RTVSPost2010Prop40
 90
        0
102
RTVSPost2010PropOp40
 70
     0
102
RTVSPost2010Prop41ColorIndex
 90
       18
102
RTVSPost2010Prop41ColorRGB
 90
        0
102
RTVSPost2010PropOp41
 70
     0
102
RTVSPost2010Prop42
 90
       50
102
RTVSPost2010PropOp42
 70
     0
102
RTVSPost2010Prop43
 90
        3
102
RTVSPost2010PropOp43
 70
     0
102
RTVSPost2010Prop44ColorIndex
 90
        5
102
RTVSPost2010Prop44ColorRGB
 90
      255
102
RTVSPost2010PropOp44
 70
     0
102
RTVSPost2010Prop45
280
     0
102
RTVSPost2010PropOp45
 70
     1
102
RTVSPost2010Prop46
 90
       50
102
RTVSPost2010PropOp46
 70
     0
102
RTVSPost2010Prop47
 90
       50
102
RTVSPost2010PropOp47
 70
     0
102
RTVSPost2010Prop48
 90
       50
102
RTVSPost2010PropOp48
 70
     0
102
RTVSPost2010Prop49
280
     0
102
RTVSPost2010PropOp49
 70
     1
102
RTVSPost2010Prop50
 90
       50
102
RTVSPost2010PropOp50
 70
     0
102
RTVSPost2010Prop51ColorIndex
 90
      256
102
RTVSPost2010Prop51ColorRGB
 90
-16777216
102
RTVSPost2010PropOp51
 70
     0
102
RTVSPost2010Prop52
140
1.0
102
RTVSPost2010PropOp52
 70
     0
102
RTVSPost2010Prop53
 90
        2
102
RTVSPost2010PropOp53
 70
     0
102
RTVSPost2010Prop54
  1
strokes_ogs.tif
102
RTVSPost2010PropOp54
 70
     0
102
RTVSPost2010Prop55
280
     0
102
RTVSPost2010PropOp55
 70
     1
102
RTVSPost2010Prop56
140
1.0
102
RTVSPost2010PropOp56
 70
     0
102
RTVSPost2010Prop57
140
1.0
102
RTVSPost2010PropOp57
 70
     0
102
RTVSPropertyOp0
 70
     0
102
RTVSPropertyOp1
 70
     0
102
RTVSPropertyOp2
 70
     0
102
RTVSPropertyOp3
 70
     0
102
RTVSPropertyOp4
 70
     0
102
RTVSPropertyOp5
 70
     0
102
RTVSPropertyOp6
 70
     0
102
RTVSPropertyOp7
 70
     0
102
RTVSPropertyOp8
 70
     0
102
RTVSPropertyOp9
 70
     0
102
RTVSPropertyOp10
 70
     0
102
RTVSPropertyOp11
 70
     0
102
RTVSPropertyOp12
 70
     0
102
RTVSPropertyOp13
 70
     0
102
RTVSPropertyOp14
 70
     2
102
RTVSPropertyOp15
 70
     0
102
RTVSPropertyOp16
 70
     0
102
RTVSPropertyOp17
 70
     0
102
RTVSPropertyOp18
 70
     0
102
RTVSPropertyOp19
 70
     0
102
RTVSPropertyOp20
 70
     0
102
RTVSPropertyOp21
 70
     0
102
RTVSPropertyOp22
 70
     0
102
RTVSPropertyOp23
 70
     0
102
RTVSPropertyOp24
 70
     0
102
RTVSPropertyOp25
 70
     0
102
RTVSPropertyOp26
 70
     0
102
RTVSPropertyOp27
 70
     0
102
RTVSPropertyOp28
 70
     1
102
RTVSPropertyOp29
 70
     1
102
RTVSPropertyOp30
 70
     1
102
RTVSPropertyOp31
 70
     1
102
RTVSPropertyOp32
 70
     1
102
RTVSPropertyOp33
 70
     1
102
RTVSPropertyOp34
 70
     1
102
RTVSPropertyOp35
 70
     1
102
RTVSPropertyOp36
 70
     1
102
RTVSPropertyOp37
 70
     0
102
RTVSPropertyOp38
 70
     0
102
RTVSPropertyOp39
 70
     0
102
RTVSPropertyOp40
 70
     0
102
RTVSPropertyOp41
 70
     0
102
RTVSPropertyOp42
 70
     0
102
RTVSPropertyOp43
 70
     0
102
RTVSPropertyOp44
 70
     0
102
RTVSPropertyOp45
 70
     1
102
RTVSPropertyOp46
 70
     0
102
RTVSPropertyOp47
 70
     0
102
RTVSPropertyOp48
 70
     0
102
RTVSPropertyOp49
 70
     1
102
RTVSPropertyOp50
 70
     0
102
RTVSPropertyOp51
 70
     0
102
RTVSPropertyOp52
 70
     0
102
RTVSPropertyOp53
 70
     0
102
RTVSPropertyOp54
 70
     0
102
RTVSPropertyOp55
 70
     1
102
RTVSPropertyOp56
 70
     0
102
RTVSPropertyOp57
 70
     0
102
RTVSPropertyOp58
 70
     0
102
RTVSPropertyOp59
 70
     0
102
RTVSPropertyOp60
 70
     0
102
RTVSPropertyOp61
 70
     0
102
RTVSPropertyOp62
 70
     0
  0
XRECORD
  5
AD7B
102
{ACAD_REACTORS
330
AD7A
102
}
330
AD7A
100
AcDbXrecord
280
     1
102
RTVSPost2010Prop28
280
     0
102
RTVSPost2010PropOp28
 70
     1
102
RTVSPost2010Prop29
280
     1
102
RTVSPost2010PropOp29
 70
     1
102
RTVSPost2010Prop30
280
     1
102
RTVSPost2010PropOp30
 70
     1
102
RTVSPost2010Prop31
280
     0
102
RTVSPost2010PropOp31
 70
     1
102
RTVSPost2010Prop32
280
     0
102
RTVSPost2010PropOp32
 70
     1
102
RTVSPost2010Prop33
280
     0
102
RTVSPost2010PropOp33
 70
     1
102
RTVSPost2010Prop34
280
     0
102
RTVSPost2010PropOp34
 70
     1
102
RTVSPost2010Prop35
280
     0
102
RTVSPost2010PropOp35
 70
     1
102
RTVSPost2010Prop36
280
     0
102
RTVSPost2010PropOp36
 70
     1
102
RTVSPost2010Prop37
 90
       50
102
RTVSPost2010PropOp37
 70
     1
102
RTVSPost2010Prop38
140
0.0
102
RTVSPost2010PropOp38
 70
     1
102
RTVSPost2010Prop39
140
1.0
102
RTVSPost2010PropOp39
 70
     1
102
RTVSPost2010Prop40
 90
        0
102
RTVSPost2010PropOp40
 70
     1
102
RTVSPost2010Prop41ColorIndex
 90
       18
102
RTVSPost2010Prop41ColorRGB
 90
        0
102
RTVSPost2010PropOp41
 70
     1
102
RTVSPost2010Prop42
 90
       50
102
RTVSPost2010PropOp42
 70
     1
102
RTVSPost2010Prop43
 90
        3
102
RTVSPost2010PropOp43
 70
     1
102
RTVSPost2010Prop44ColorIndex
 90
        5
102
RTVSPost2010Prop44ColorRGB
 90
      255
102
RTVSPost2010PropOp44
 70
     1
102
RTVSPost2010Prop45
280
     0
102
RTVSPost2010PropOp45
 70
     1
102
RTVSPost2010Prop46
 90
       50
102
RTVSPost2010PropOp46
 70
     1
102
RTVSPost2010Prop47
 90
       50
102
RTVSPost2010PropOp47
 70
     1
102
RTVSPost2010Prop48
 90
       50
102
RTVSPost2010PropOp48
 70
     1
102
RTVSPost2010Prop49
280
     0
102
RTVSPost2010PropOp49
 70
     1
102
RTVSPost2010Prop50
 90
       50
102
RTVSPost2010PropOp50
 70
     1
102
RTVSPost2010Prop51ColorIndex
 90
      256
102
RTVSPost2010Prop51ColorRGB
 90
-16777216
102
RTVSPost2010PropOp51
 70
     0
102
RTVSPost2010Prop52
140
1.0
102
RTVSPost2010PropOp52
 70
     0
102
RTVSPost2010Prop53
 90
        2
102
RTVSPost2010PropOp53
 70
     1
102
RTVSPost2010Prop54
  1
strokes_ogs.tif
102
RTVSPost2010PropOp54
 70
     1
102
RTVSPost2010Prop55
280
     0
102
RTVSPost2010PropOp55
 70
     1
102
RTVSPost2010Prop56
140
1.0
102
RTVSPost2010PropOp56
 70
     1
102
RTVSPost2010Prop57
140
1.0
102
RTVSPost2010PropOp57
 70
     1
102
RTVSPropertyOp0
 70
     1
102
RTVSPropertyOp1
 70
     1
102
RTVSPropertyOp2
 70
     1
102
RTVSPropertyOp3
 70
     1
102
RTVSPropertyOp4
 70
     1
102
RTVSPropertyOp5
 70
     1
102
RTVSPropertyOp6
 70
     1
102
RTVSPropertyOp7
 70
     1
102
RTVSPropertyOp8
 70
     1
102
RTVSPropertyOp9
 70
     1
102
RTVSPropertyOp10
 70
     1
102
RTVSPropertyOp11
 70
     1
102
RTVSPropertyOp12
 70
     1
102
RTVSPropertyOp13
 70
     1
102
RTVSPropertyOp14
 70
     1
102
RTVSPropertyOp15
 70
     1
102
RTVSPropertyOp16
 70
     1
102
RTVSPropertyOp17
 70
     1
102
RTVSPropertyOp18
 70
     1
102
RTVSPropertyOp19
 70
     1
102
RTVSPropertyOp20
 70
     1
102
RTVSPropertyOp21
 70
     1
102
RTVSPropertyOp22
 70
     1
102
RTVSPropertyOp23
 70
     1
102
RTVSPropertyOp24
 70
     1
102
RTVSPropertyOp25
 70
     1
102
RTVSPropertyOp26
 70
     1
102
RTVSPropertyOp27
 70
     1
102
RTVSPropertyOp28
 70
     1
102
RTVSPropertyOp29
 70
     1
102
RTVSPropertyOp30
 70
     1
102
RTVSPropertyOp31
 70
     1
102
RTVSPropertyOp32
 70
     1
102
RTVSPropertyOp33
 70
     1
102
RTVSPropertyOp34
 70
     1
102
RTVSPropertyOp35
 70
     1
102
RTVSPropertyOp36
 70
     1
102
RTVSPropertyOp37
 70
     1
102
RTVSPropertyOp38
 70
     1
102
RTVSPropertyOp39
 70
     1
102
RTVSPropertyOp40
 70
     1
102
RTVSPropertyOp41
 70
     1
102
RTVSPropertyOp42
 70
     1
102
RTVSPropertyOp43
 70
     1
102
RTVSPropertyOp44
 70
     1
102
RTVSPropertyOp45
 70
     1
102
RTVSPropertyOp46
 70
     1
102
RTVSPropertyOp47
 70
     1
102
RTVSPropertyOp48
 70
     1
102
RTVSPropertyOp49
 70
     1
102
RTVSPropertyOp50
 70
     1
102
RTVSPropertyOp51
 70
     0
102
RTVSPropertyOp52
 70
     0
102
RTVSPropertyOp53
 70
     1
102
RTVSPropertyOp54
 70
     1
102
RTVSPropertyOp55
 70
     1
102
RTVSPropertyOp56
 70
     1
102
RTVSPropertyOp57
 70
     1
102
RTVSPropertyOp58
 70
     1
102
RTVSPropertyOp59
 70
     1
102
RTVSPropertyOp60
 70
     1
102
RTVSPropertyOp61
 70
     1
102
RTVSPropertyOp62
 70
     1
  0
XRECORD
  5
AD5F
102
{ACAD_REACTORS
330
AD5E
102
}
330
AD5E
100
AcDbXrecord
280
     1
102
RTVSPost2010Prop28
280
     0
102
RTVSPost2010PropOp28
 70
     1
102
RTVSPost2010Prop29
280
     1
102
RTVSPost2010PropOp29
 70
     1
102
RTVSPost2010Prop30
280
     1
102
RTVSPost2010PropOp30
 70
     1
102
RTVSPost2010Prop31
280
     0
102
RTVSPost2010PropOp31
 70
     1
102
RTVSPost2010Prop32
280
     0
102
RTVSPost2010PropOp32
 70
     1
102
RTVSPost2010Prop33
280
     0
102
RTVSPost2010PropOp33
 70
     1
102
RTVSPost2010Prop34
280
     0
102
RTVSPost2010PropOp34
 70
     1
102
RTVSPost2010Prop35
280
     0
102
RTVSPost2010PropOp35
 70
     1
102
RTVSPost2010Prop36
280
     0
102
RTVSPost2010PropOp36
 70
     1
102
RTVSPost2010Prop37
 90
       50
102
RTVSPost2010PropOp37
 70
     1
102
RTVSPost2010Prop38
140
0.0
102
RTVSPost2010PropOp38
 70
     1
102
RTVSPost2010Prop39
140
1.0
102
RTVSPost2010PropOp39
 70
     1
102
RTVSPost2010Prop40
 90
        0
102
RTVSPost2010PropOp40
 70
     1
102
RTVSPost2010Prop41ColorIndex
 90
       18
102
RTVSPost2010Prop41ColorRGB
 90
        0
102
RTVSPost2010PropOp41
 70
     1
102
RTVSPost2010Prop42
 90
       50
102
RTVSPost2010PropOp42
 70
     1
102
RTVSPost2010Prop43
 90
        3
102
RTVSPost2010PropOp43
 70
     1
102
RTVSPost2010Prop44ColorIndex
 90
        5
102
RTVSPost2010Prop44ColorRGB
 90
      255
102
RTVSPost2010PropOp44
 70
     1
102
RTVSPost2010Prop45
280
     0
102
RTVSPost2010PropOp45
 70
     1
102
RTVSPost2010Prop46
 90
       50
102
RTVSPost2010PropOp46
 70
     1
102
RTVSPost2010Prop47
 90
       50
102
RTVSPost2010PropOp47
 70
     1
102
RTVSPost2010Prop48
 90
       50
102
RTVSPost2010PropOp48
 70
     1
102
RTVSPost2010Prop49
280
     0
102
RTVSPost2010PropOp49
 70
     1
102
RTVSPost2010Prop50
 90
       50
102
RTVSPost2010PropOp50
 70
     1
102
RTVSPost2010Prop51ColorIndex
 90
      256
102
RTVSPost2010Prop51ColorRGB
 90
-16777216
102
RTVSPost2010PropOp51
 70
     0
102
RTVSPost2010Prop52
140
1.0
102
RTVSPost2010PropOp52
 70
     0
102
RTVSPost2010Prop53
 90
        2
102
RTVSPost2010PropOp53
 70
     1
102
RTVSPost2010Prop54
  1
strokes_ogs.tif
102
RTVSPost2010PropOp54
 70
     1
102
RTVSPost2010Prop55
280
     0
102
RTVSPost2010PropOp55
 70
     1
102
RTVSPost2010Prop56
140
1.0
102
RTVSPost2010PropOp56
 70
     1
102
RTVSPost2010Prop57
140
1.0
102
RTVSPost2010PropOp57
 70
     1
102
RTVSPropertyOp0
 70
     1
102
RTVSPropertyOp1
 70
     1
102
RTVSPropertyOp2
 70
     1
102
RTVSPropertyOp3
 70
     1
102
RTVSPropertyOp4
 70
     1
102
RTVSPropertyOp5
 70
     1
102
RTVSPropertyOp6
 70
     1
102
RTVSPropertyOp7
 70
     1
102
RTVSPropertyOp8
 70
     1
102
RTVSPropertyOp9
 70
     1
102
RTVSPropertyOp10
 70
     1
102
RTVSPropertyOp11
 70
     1
102
RTVSPropertyOp12
 70
     1
102
RTVSPropertyOp13
 70
     1
102
RTVSPropertyOp14
 70
     1
102
RTVSPropertyOp15
 70
     1
102
RTVSPropertyOp16
 70
     1
102
RTVSPropertyOp17
 70
     1
102
RTVSPropertyOp18
 70
     1
102
RTVSPropertyOp19
 70
     1
102
RTVSPropertyOp20
 70
     1
102
RTVSPropertyOp21
 70
     1
102
RTVSPropertyOp22
 70
     1
102
RTVSPropertyOp23
 70
     1
102
RTVSPropertyOp24
 70
     1
102
RTVSPropertyOp25
 70
     1
102
RTVSPropertyOp26
 70
     1
102
RTVSPropertyOp27
 70
     1
102
RTVSPropertyOp28
 70
     1
102
RTVSPropertyOp29
 70
     1
102
RTVSPropertyOp30
 70
     1
102
RTVSPropertyOp31
 70
     1
102
RTVSPropertyOp32
 70
     1
102
RTVSPropertyOp33
 70
     1
102
RTVSPropertyOp34
 70
     1
102
RTVSPropertyOp35
 70
     1
102
RTVSPropertyOp36
 70
     1
102
RTVSPropertyOp37
 70
     1
102
RTVSPropertyOp38
 70
     1
102
RTVSPropertyOp39
 70
     1
102
RTVSPropertyOp40
 70
     1
102
RTVSPropertyOp41
 70
     1
102
RTVSPropertyOp42
 70
     1
102
RTVSPropertyOp43
 70
     1
102
RTVSPropertyOp44
 70
     1
102
RTVSPropertyOp45
 70
     1
102
RTVSPropertyOp46
 70
     1
102
RTVSPropertyOp47
 70
     1
102
RTVSPropertyOp48
 70
     1
102
RTVSPropertyOp49
 70
     1
102
RTVSPropertyOp50
 70
     1
102
RTVSPropertyOp51
 70
     0
102
RTVSPropertyOp52
 70
     0
102
RTVSPropertyOp53
 70
     1
102
RTVSPropertyOp54
 70
     1
102
RTVSPropertyOp55
 70
     1
102
RTVSPropertyOp56
 70
     1
102
RTVSPropertyOp57
 70
     1
102
RTVSPropertyOp58
 70
     1
102
RTVSPropertyOp59
 70
     1
102
RTVSPropertyOp60
 70
     1
102
RTVSPropertyOp61
 70
     1
102
RTVSPropertyOp62
 70
     1
  0
XRECORD
  5
AD61
102
{ACAD_REACTORS
330
AD60
102
}
330
AD60
100
AcDbXrecord
280
     1
102
RTVSPost2010Prop28
280
     0
102
RTVSPost2010PropOp28
 70
     1
102
RTVSPost2010Prop29
280
     1
102
RTVSPost2010PropOp29
 70
     1
102
RTVSPost2010Prop30
280
     1
102
RTVSPost2010PropOp30
 70
     1
102
RTVSPost2010Prop31
280
     0
102
RTVSPost2010PropOp31
 70
     1
102
RTVSPost2010Prop32
280
     0
102
RTVSPost2010PropOp32
 70
     1
102
RTVSPost2010Prop33
280
     0
102
RTVSPost2010PropOp33
 70
     1
102
RTVSPost2010Prop34
280
     0
102
RTVSPost2010PropOp34
 70
     1
102
RTVSPost2010Prop35
280
     0
102
RTVSPost2010PropOp35
 70
     1
102
RTVSPost2010Prop36
280
     0
102
RTVSPost2010PropOp36
 70
     1
102
RTVSPost2010Prop37
 90
       50
102
RTVSPost2010PropOp37
 70
     1
102
RTVSPost2010Prop38
140
0.0
102
RTVSPost2010PropOp38
 70
     1
102
RTVSPost2010Prop39
140
1.0
102
RTVSPost2010PropOp39
 70
     1
102
RTVSPost2010Prop40
 90
        0
102
RTVSPost2010PropOp40
 70
     1
102
RTVSPost2010Prop41ColorIndex
 90
       18
102
RTVSPost2010Prop41ColorRGB
 90
        0
102
RTVSPost2010PropOp41
 70
     1
102
RTVSPost2010Prop42
 90
       50
102
RTVSPost2010PropOp42
 70
     1
102
RTVSPost2010Prop43
 90
        3
102
RTVSPost2010PropOp43
 70
     1
102
RTVSPost2010Prop44ColorIndex
 90
        5
102
RTVSPost2010Prop44ColorRGB
 90
      255
102
RTVSPost2010PropOp44
 70
     1
102
RTVSPost2010Prop45
280
     0
102
RTVSPost2010PropOp45
 70
     1
102
RTVSPost2010Prop46
 90
       50
102
RTVSPost2010PropOp46
 70
     1
102
RTVSPost2010Prop47
 90
       50
102
RTVSPost2010PropOp47
 70
     1
102
RTVSPost2010Prop48
 90
       50
102
RTVSPost2010PropOp48
 70
     1
102
RTVSPost2010Prop49
280
     0
102
RTVSPost2010PropOp49
 70
     1
102
RTVSPost2010Prop50
 90
       50
102
RTVSPost2010PropOp50
 70
     1
102
RTVSPost2010Prop51ColorIndex
 90
      256
102
RTVSPost2010Prop51ColorRGB
 90
-16777216
102
RTVSPost2010PropOp51
 70
     0
102
RTVSPost2010Prop52
140
1.0
102
RTVSPost2010PropOp52
 70
     0
102
RTVSPost2010Prop53
 90
        2
102
RTVSPost2010PropOp53
 70
     1
102
RTVSPost2010Prop54
  1
strokes_ogs.tif
102
RTVSPost2010PropOp54
 70
     1
102
RTVSPost2010Prop55
280
     0
102
RTVSPost2010PropOp55
 70
     1
102
RTVSPost2010Prop56
140
1.0
102
RTVSPost2010PropOp56
 70
     1
102
RTVSPost2010Prop57
140
1.0
102
RTVSPost2010PropOp57
 70
     1
102
RTVSPropertyOp0
 70
     1
102
RTVSPropertyOp1
 70
     1
102
RTVSPropertyOp2
 70
     1
102
RTVSPropertyOp3
 70
     1
102
RTVSPropertyOp4
 70
     1
102
RTVSPropertyOp5
 70
     1
102
RTVSPropertyOp6
 70
     1
102
RTVSPropertyOp7
 70
     1
102
RTVSPropertyOp8
 70
     1
102
RTVSPropertyOp9
 70
     1
102
RTVSPropertyOp10
 70
     1
102
RTVSPropertyOp11
 70
     1
102
RTVSPropertyOp12
 70
     1
102
RTVSPropertyOp13
 70
     1
102
RTVSPropertyOp14
 70
     1
102
RTVSPropertyOp15
 70
     1
102
RTVSPropertyOp16
 70
     1
102
RTVSPropertyOp17
 70
     1
102
RTVSPropertyOp18
 70
     1
102
RTVSPropertyOp19
 70
     1
102
RTVSPropertyOp20
 70
     1
102
RTVSPropertyOp21
 70
     1
102
RTVSPropertyOp22
 70
     1
102
RTVSPropertyOp23
 70
     1
102
RTVSPropertyOp24
 70
     1
102
RTVSPropertyOp25
 70
     1
102
RTVSPropertyOp26
 70
     1
102
RTVSPropertyOp27
 70
     1
102
RTVSPropertyOp28
 70
     1
102
RTVSPropertyOp29
 70
     1
102
RTVSPropertyOp30
 70
     1
102
RTVSPropertyOp31
 70
     1
102
RTVSPropertyOp32
 70
     1
102
RTVSPropertyOp33
 70
     1
102
RTVSPropertyOp34
 70
     1
102
RTVSPropertyOp35
 70
     1
102
RTVSPropertyOp36
 70
     1
102
RTVSPropertyOp37
 70
     1
102
RTVSPropertyOp38
 70
     1
102
RTVSPropertyOp39
 70
     1
102
RTVSPropertyOp40
 70
     1
102
RTVSPropertyOp41
 70
     1
102
RTVSPropertyOp42
 70
     1
102
RTVSPropertyOp43
 70
     1
102
RTVSPropertyOp44
 70
     1
102
RTVSPropertyOp45
 70
     1
102
RTVSPropertyOp46
 70
     1
102
RTVSPropertyOp47
 70
     1
102
RTVSPropertyOp48
 70
     1
102
RTVSPropertyOp49
 70
     1
102
RTVSPropertyOp50
 70
     1
102
RTVSPropertyOp51
 70
     0
102
RTVSPropertyOp52
 70
     0
102
RTVSPropertyOp53
 70
     1
102
RTVSPropertyOp54
 70
     1
102
RTVSPropertyOp55
 70
     1
102
RTVSPropertyOp56
 70
     1
102
RTVSPropertyOp57
 70
     1
102
RTVSPropertyOp58
 70
     1
102
RTVSPropertyOp59
 70
     1
102
RTVSPropertyOp60
 70
     1
102
RTVSPropertyOp61
 70
     1
102
RTVSPropertyOp62
 70
     1
  0
XRECORD
  5
AD63
102
{ACAD_REACTORS
330
AD62
102
}
330
AD62
100
AcDbXrecord
280
     1
102
RTVSPost2010Prop28
280
     0
102
RTVSPost2010PropOp28
 70
     1
102
RTVSPost2010Prop29
280
     1
102
RTVSPost2010PropOp29
 70
     1
102
RTVSPost2010Prop30
280
     1
102
RTVSPost2010PropOp30
 70
     1
102
RTVSPost2010Prop31
280
     0
102
RTVSPost2010PropOp31
 70
     1
102
RTVSPost2010Prop32
280
     0
102
RTVSPost2010PropOp32
 70
     1
102
RTVSPost2010Prop33
280
     0
102
RTVSPost2010PropOp33
 70
     1
102
RTVSPost2010Prop34
280
     0
102
RTVSPost2010PropOp34
 70
     1
102
RTVSPost2010Prop35
280
     0
102
RTVSPost2010PropOp35
 70
     1
102
RTVSPost2010Prop36
280
     0
102
RTVSPost2010PropOp36
 70
     1
102
RTVSPost2010Prop37
 90
       50
102
RTVSPost2010PropOp37
 70
     1
102
RTVSPost2010Prop38
140
0.0
102
RTVSPost2010PropOp38
 70
     1
102
RTVSPost2010Prop39
140
1.0
102
RTVSPost2010PropOp39
 70
     1
102
RTVSPost2010Prop40
 90
        0
102
RTVSPost2010PropOp40
 70
     1
102
RTVSPost2010Prop41ColorIndex
 90
       18
102
RTVSPost2010Prop41ColorRGB
 90
        0
102
RTVSPost2010PropOp41
 70
     1
102
RTVSPost2010Prop42
 90
       50
102
RTVSPost2010PropOp42
 70
     1
102
RTVSPost2010Prop43
 90
        3
102
RTVSPost2010PropOp43
 70
     1
102
RTVSPost2010Prop44ColorIndex
 90
        5
102
RTVSPost2010Prop44ColorRGB
 90
      255
102
RTVSPost2010PropOp44
 70
     1
102
RTVSPost2010Prop45
280
     0
102
RTVSPost2010PropOp45
 70
     1
102
RTVSPost2010Prop46
 90
       50
102
RTVSPost2010PropOp46
 70
     1
102
RTVSPost2010Prop47
 90
       50
102
RTVSPost2010PropOp47
 70
     1
102
RTVSPost2010Prop48
 90
       50
102
RTVSPost2010PropOp48
 70
     1
102
RTVSPost2010Prop49
280
     0
102
RTVSPost2010PropOp49
 70
     1
102
RTVSPost2010Prop50
 90
       50
102
RTVSPost2010PropOp50
 70
     1
102
RTVSPost2010Prop51ColorIndex
 90
      256
102
RTVSPost2010Prop51ColorRGB
 90
-16777216
102
RTVSPost2010PropOp51
 70
     0
102
RTVSPost2010Prop52
140
1.0
102
RTVSPost2010PropOp52
 70
     0
102
RTVSPost2010Prop53
 90
        2
102
RTVSPost2010PropOp53
 70
     1
102
RTVSPost2010Prop54
  1
strokes_ogs.tif
102
RTVSPost2010PropOp54
 70
     1
102
RTVSPost2010Prop55
280
     0
102
RTVSPost2010PropOp55
 70
     1
102
RTVSPost2010Prop56
140
1.0
102
RTVSPost2010PropOp56
 70
     1
102
RTVSPost2010Prop57
140
1.0
102
RTVSPost2010PropOp57
 70
     1
102
RTVSPropertyOp0
 70
     1
102
RTVSPropertyOp1
 70
     1
102
RTVSPropertyOp2
 70
     1
102
RTVSPropertyOp3
 70
     1
102
RTVSPropertyOp4
 70
     1
102
RTVSPropertyOp5
 70
     1
102
RTVSPropertyOp6
 70
     1
102
RTVSPropertyOp7
 70
     1
102
RTVSPropertyOp8
 70
     1
102
RTVSPropertyOp9
 70
     1
102
RTVSPropertyOp10
 70
     1
102
RTVSPropertyOp11
 70
     1
102
RTVSPropertyOp12
 70
     1
102
RTVSPropertyOp13
 70
     1
102
RTVSPropertyOp14
 70
     1
102
RTVSPropertyOp15
 70
     1
102
RTVSPropertyOp16
 70
     1
102
RTVSPropertyOp17
 70
     1
102
RTVSPropertyOp18
 70
     1
102
RTVSPropertyOp19
 70
     1
102
RTVSPropertyOp20
 70
     1
102
RTVSPropertyOp21
 70
     1
102
RTVSPropertyOp22
 70
     1
102
RTVSPropertyOp23
 70
     1
102
RTVSPropertyOp24
 70
     1
102
RTVSPropertyOp25
 70
     1
102
RTVSPropertyOp26
 70
     1
102
RTVSPropertyOp27
 70
     1
102
RTVSPropertyOp28
 70
     1
102
RTVSPropertyOp29
 70
     1
102
RTVSPropertyOp30
 70
     1
102
RTVSPropertyOp31
 70
     1
102
RTVSPropertyOp32
 70
     1
102
RTVSPropertyOp33
 70
     1
102
RTVSPropertyOp34
 70
     1
102
RTVSPropertyOp35
 70
     1
102
RTVSPropertyOp36
 70
     1
102
RTVSPropertyOp37
 70
     1
102
RTVSPropertyOp38
 70
     1
102
RTVSPropertyOp39
 70
     1
102
RTVSPropertyOp40
 70
     1
102
RTVSPropertyOp41
 70
     1
102
RTVSPropertyOp42
 70
     1
102
RTVSPropertyOp43
 70
     1
102
RTVSPropertyOp44
 70
     1
102
RTVSPropertyOp45
 70
     1
102
RTVSPropertyOp46
 70
     1
102
RTVSPropertyOp47
 70
     1
102
RTVSPropertyOp48
 70
     1
102
RTVSPropertyOp49
 70
     1
102
RTVSPropertyOp50
 70
     1
102
RTVSPropertyOp51
 70
     0
102
RTVSPropertyOp52
 70
     0
102
RTVSPropertyOp53
 70
     1
102
RTVSPropertyOp54
 70
     1
102
RTVSPropertyOp55
 70
     1
102
RTVSPropertyOp56
 70
     1
102
RTVSPropertyOp57
 70
     1
102
RTVSPropertyOp58
 70
     1
102
RTVSPropertyOp59
 70
     1
102
RTVSPropertyOp60
 70
     1
102
RTVSPropertyOp61
 70
     1
102
RTVSPropertyOp62
 70
     1
  0
XRECORD
  5
AD65
102
{ACAD_REACTORS
330
AD64
102
}
330
AD64
100
AcDbXrecord
280
     1
102
RTVSPost2010Prop28
280
     0
102
RTVSPost2010PropOp28
 70
     1
102
RTVSPost2010Prop29
280
     1
102
RTVSPost2010PropOp29
 70
     1
102
RTVSPost2010Prop30
280
     1
102
RTVSPost2010PropOp30
 70
     1
102
RTVSPost2010Prop31
280
     0
102
RTVSPost2010PropOp31
 70
     1
102
RTVSPost2010Prop32
280
     0
102
RTVSPost2010PropOp32
 70
     1
102
RTVSPost2010Prop33
280
     0
102
RTVSPost2010PropOp33
 70
     1
102
RTVSPost2010Prop34
280
     0
102
RTVSPost2010PropOp34
 70
     1
102
RTVSPost2010Prop35
280
     0
102
RTVSPost2010PropOp35
 70
     1
102
RTVSPost2010Prop36
280
     0
102
RTVSPost2010PropOp36
 70
     1
102
RTVSPost2010Prop37
 90
       50
102
RTVSPost2010PropOp37
 70
     1
102
RTVSPost2010Prop38
140
0.0
102
RTVSPost2010PropOp38
 70
     1
102
RTVSPost2010Prop39
140
1.0
102
RTVSPost2010PropOp39
 70
     1
102
RTVSPost2010Prop40
 90
        0
102
RTVSPost2010PropOp40
 70
     1
102
RTVSPost2010Prop41ColorIndex
 90
       18
102
RTVSPost2010Prop41ColorRGB
 90
        0
102
RTVSPost2010PropOp41
 70
     1
102
RTVSPost2010Prop42
 90
       50
102
RTVSPost2010PropOp42
 70
     1
102
RTVSPost2010Prop43
 90
        3
102
RTVSPost2010PropOp43
 70
     1
102
RTVSPost2010Prop44ColorIndex
 90
        5
102
RTVSPost2010Prop44ColorRGB
 90
      255
102
RTVSPost2010PropOp44
 70
     1
102
RTVSPost2010Prop45
280
     0
102
RTVSPost2010PropOp45
 70
     1
102
RTVSPost2010Prop46
 90
       50
102
RTVSPost2010PropOp46
 70
     1
102
RTVSPost2010Prop47
 90
       50
102
RTVSPost2010PropOp47
 70
     1
102
RTVSPost2010Prop48
 90
       50
102
RTVSPost2010PropOp48
 70
     1
102
RTVSPost2010Prop49
280
     0
102
RTVSPost2010PropOp49
 70
     1
102
RTVSPost2010Prop50
 90
       50
102
RTVSPost2010PropOp50
 70
     1
102
RTVSPost2010Prop51ColorIndex
 90
      256
102
RTVSPost2010Prop51ColorRGB
 90
-16777216
102
RTVSPost2010PropOp51
 70
     0
102
RTVSPost2010Prop52
140
1.0
102
RTVSPost2010PropOp52
 70
     0
102
RTVSPost2010Prop53
 90
        2
102
RTVSPost2010PropOp53
 70
     1
102
RTVSPost2010Prop54
  1
strokes_ogs.tif
102
RTVSPost2010PropOp54
 70
     1
102
RTVSPost2010Prop55
280
     0
102
RTVSPost2010PropOp55
 70
     1
102
RTVSPost2010Prop56
140
1.0
102
RTVSPost2010PropOp56
 70
     1
102
RTVSPost2010Prop57
140
1.0
102
RTVSPost2010PropOp57
 70
     1
102
RTVSPropertyOp0
 70
     1
102
RTVSPropertyOp1
 70
     1
102
RTVSPropertyOp2
 70
     1
102
RTVSPropertyOp3
 70
     1
102
RTVSPropertyOp4
 70
     1
102
RTVSPropertyOp5
 70
     1
102
RTVSPropertyOp6
 70
     1
102
RTVSPropertyOp7
 70
     1
102
RTVSPropertyOp8
 70
     1
102
RTVSPropertyOp9
 70
     1
102
RTVSPropertyOp10
 70
     1
102
RTVSPropertyOp11
 70
     1
102
RTVSPropertyOp12
 70
     1
102
RTVSPropertyOp13
 70
     1
102
RTVSPropertyOp14
 70
     1
102
RTVSPropertyOp15
 70
     1
102
RTVSPropertyOp16
 70
     1
102
RTVSPropertyOp17
 70
     1
102
RTVSPropertyOp18
 70
     1
102
RTVSPropertyOp19
 70
     1
102
RTVSPropertyOp20
 70
     1
102
RTVSPropertyOp21
 70
     1
102
RTVSPropertyOp22
 70
     1
102
RTVSPropertyOp23
 70
     1
102
RTVSPropertyOp24
 70
     1
102
RTVSPropertyOp25
 70
     1
102
RTVSPropertyOp26
 70
     1
102
RTVSPropertyOp27
 70
     1
102
RTVSPropertyOp28
 70
     1
102
RTVSPropertyOp29
 70
     1
102
RTVSPropertyOp30
 70
     1
102
RTVSPropertyOp31
 70
     1
102
RTVSPropertyOp32
 70
     1
102
RTVSPropertyOp33
 70
     1
102
RTVSPropertyOp34
 70
     1
102
RTVSPropertyOp35
 70
     1
102
RTVSPropertyOp36
 70
     1
102
RTVSPropertyOp37
 70
     1
102
RTVSPropertyOp38
 70
     1
102
RTVSPropertyOp39
 70
     1
102
RTVSPropertyOp40
 70
     1
102
RTVSPropertyOp41
 70
     1
102
RTVSPropertyOp42
 70
     1
102
RTVSPropertyOp43
 70
     1
102
RTVSPropertyOp44
 70
     1
102
RTVSPropertyOp45
 70
     1
102
RTVSPropertyOp46
 70
     1
102
RTVSPropertyOp47
 70
     1
102
RTVSPropertyOp48
 70
     1
102
RTVSPropertyOp49
 70
     1
102
RTVSPropertyOp50
 70
     1
102
RTVSPropertyOp51
 70
     0
102
RTVSPropertyOp52
 70
     0
102
RTVSPropertyOp53
 70
     1
102
RTVSPropertyOp54
 70
     1
102
RTVSPropertyOp55
 70
     1
102
RTVSPropertyOp56
 70
     1
102
RTVSPropertyOp57
 70
     1
102
RTVSPropertyOp58
 70
     1
102
RTVSPropertyOp59
 70
     1
102
RTVSPropertyOp60
 70
     1
102
RTVSPropertyOp61
 70
     1
102
RTVSPropertyOp62
 70
     1
  0
XRECORD
  5
AD6D
102
{ACAD_REACTORS
330
AD6C
102
}
330
AD6C
100
AcDbXrecord
280
     1
102
RTVSPost2010Prop28
280
     0
102
RTVSPost2010PropOp28
 70
     1
102
RTVSPost2010Prop29
280
     1
102
RTVSPost2010PropOp29
 70
     1
102
RTVSPost2010Prop30
280
     1
102
RTVSPost2010PropOp30
 70
     1
102
RTVSPost2010Prop31
280
     0
102
RTVSPost2010PropOp31
 70
     1
102
RTVSPost2010Prop32
280
     0
102
RTVSPost2010PropOp32
 70
     1
102
RTVSPost2010Prop33
280
     0
102
RTVSPost2010PropOp33
 70
     1
102
RTVSPost2010Prop34
280
     0
102
RTVSPost2010PropOp34
 70
     1
102
RTVSPost2010Prop35
280
     0
102
RTVSPost2010PropOp35
 70
     1
102
RTVSPost2010Prop36
280
     0
102
RTVSPost2010PropOp36
 70
     1
102
RTVSPost2010Prop37
 90
       50
102
RTVSPost2010PropOp37
 70
     1
102
RTVSPost2010Prop38
140
0.0
102
RTVSPost2010PropOp38
 70
     1
102
RTVSPost2010Prop39
140
1.0
102
RTVSPost2010PropOp39
 70
     1
102
RTVSPost2010Prop40
 90
        0
102
RTVSPost2010PropOp40
 70
     1
102
RTVSPost2010Prop41ColorIndex
 90
       18
102
RTVSPost2010Prop41ColorRGB
 90
        0
102
RTVSPost2010PropOp41
 70
     1
102
RTVSPost2010Prop42
 90
       50
102
RTVSPost2010PropOp42
 70
     1
102
RTVSPost2010Prop43
 90
        3
102
RTVSPost2010PropOp43
 70
     1
102
RTVSPost2010Prop44ColorIndex
 90
        5
102
RTVSPost2010Prop44ColorRGB
 90
      255
102
RTVSPost2010PropOp44
 70
     1
102
RTVSPost2010Prop45
280
     0
102
RTVSPost2010PropOp45
 70
     1
102
RTVSPost2010Prop46
 90
       50
102
RTVSPost2010PropOp46
 70
     1
102
RTVSPost2010Prop47
 90
       50
102
RTVSPost2010PropOp47
 70
     1
102
RTVSPost2010Prop48
 90
       50
102
RTVSPost2010PropOp48
 70
     1
102
RTVSPost2010Prop49
280
     0
102
RTVSPost2010PropOp49
 70
     1
102
RTVSPost2010Prop50
 90
       50
102
RTVSPost2010PropOp50
 70
     1
102
RTVSPost2010Prop51ColorIndex
 90
      256
102
RTVSPost2010Prop51ColorRGB
 90
-16777216
102
RTVSPost2010PropOp51
 70
     0
102
RTVSPost2010Prop52
140
1.0
102
RTVSPost2010PropOp52
 70
     0
102
RTVSPost2010Prop53
 90
        2
102
RTVSPost2010PropOp53
 70
     1
102
RTVSPost2010Prop54
  1
strokes_ogs.tif
102
RTVSPost2010PropOp54
 70
     1
102
RTVSPost2010Prop55
280
     0
102
RTVSPost2010PropOp55
 70
     1
102
RTVSPost2010Prop56
140
1.0
102
RTVSPost2010PropOp56
 70
     1
102
RTVSPost2010Prop57
140
1.0
102
RTVSPost2010PropOp57
 70
     1
102
RTVSPropertyOp0
 70
     1
102
RTVSPropertyOp1
 70
     1
102
RTVSPropertyOp2
 70
     1
102
RTVSPropertyOp3
 70
     1
102
RTVSPropertyOp4
 70
     1
102
RTVSPropertyOp5
 70
     1
102
RTVSPropertyOp6
 70
     1
102
RTVSPropertyOp7
 70
     1
102
RTVSPropertyOp8
 70
     1
102
RTVSPropertyOp9
 70
     1
102
RTVSPropertyOp10
 70
     1
102
RTVSPropertyOp11
 70
     1
102
RTVSPropertyOp12
 70
     1
102
RTVSPropertyOp13
 70
     1
102
RTVSPropertyOp14
 70
     1
102
RTVSPropertyOp15
 70
     1
102
RTVSPropertyOp16
 70
     1
102
RTVSPropertyOp17
 70
     1
102
RTVSPropertyOp18
 70
     1
102
RTVSPropertyOp19
 70
     1
102
RTVSPropertyOp20
 70
     1
102
RTVSPropertyOp21
 70
     1
102
RTVSPropertyOp22
 70
     1
102
RTVSPropertyOp23
 70
     1
102
RTVSPropertyOp24
 70
     1
102
RTVSPropertyOp25
 70
     1
102
RTVSPropertyOp26
 70
     1
102
RTVSPropertyOp27
 70
     1
102
RTVSPropertyOp28
 70
     1
102
RTVSPropertyOp29
 70
     1
102
RTVSPropertyOp30
 70
     1
102
RTVSPropertyOp31
 70
     1
102
RTVSPropertyOp32
 70
     1
102
RTVSPropertyOp33
 70
     1
102
RTVSPropertyOp34
 70
     1
102
RTVSPropertyOp35
 70
     1
102
RTVSPropertyOp36
 70
     1
102
RTVSPropertyOp37
 70
     1
102
RTVSPropertyOp38
 70
     1
102
RTVSPropertyOp39
 70
     1
102
RTVSPropertyOp40
 70
     1
102
RTVSPropertyOp41
 70
     1
102
RTVSPropertyOp42
 70
     1
102
RTVSPropertyOp43
 70
     1
102
RTVSPropertyOp44
 70
     1
102
RTVSPropertyOp45
 70
     1
102
RTVSPropertyOp46
 70
     1
102
RTVSPropertyOp47
 70
     1
102
RTVSPropertyOp48
 70
     1
102
RTVSPropertyOp49
 70
     1
102
RTVSPropertyOp50
 70
     1
102
RTVSPropertyOp51
 70
     0
102
RTVSPropertyOp52
 70
     0
102
RTVSPropertyOp53
 70
     1
102
RTVSPropertyOp54
 70
     1
102
RTVSPropertyOp55
 70
     1
102
RTVSPropertyOp56
 70
     1
102
RTVSPropertyOp57
 70
     1
102
RTVSPropertyOp58
 70
     1
102
RTVSPropertyOp59
 70
     1
102
RTVSPropertyOp60
 70
     1
102
RTVSPropertyOp61
 70
     1
102
RTVSPropertyOp62
 70
     1
  0
XRECORD
  5
AD89
102
{ACAD_REACTORS
330
AD88
102
}
330
AD88
100
AcDbXrecord
280
     1
102
RTVSPost2010Prop28
280
     0
102
RTVSPost2010PropOp28
 70
     1
102
RTVSPost2010Prop29
280
     1
102
RTVSPost2010PropOp29
 70
     1
102
RTVSPost2010Prop30
280
     1
102
RTVSPost2010PropOp30
 70
     1
102
RTVSPost2010Prop31
280
     0
102
RTVSPost2010PropOp31
 70
     1
102
RTVSPost2010Prop32
280
     0
102
RTVSPost2010PropOp32
 70
     1
102
RTVSPost2010Prop33
280
     0
102
RTVSPost2010PropOp33
 70
     1
102
RTVSPost2010Prop34
280
     0
102
RTVSPost2010PropOp34
 70
     1
102
RTVSPost2010Prop35
280
     0
102
RTVSPost2010PropOp35
 70
     1
102
RTVSPost2010Prop36
280
     0
102
RTVSPost2010PropOp36
 70
     1
102
RTVSPost2010Prop37
 90
       50
102
RTVSPost2010PropOp37
 70
     0
102
RTVSPost2010Prop38
140
0.0
102
RTVSPost2010PropOp38
 70
     0
102
RTVSPost2010Prop39
140
1.0
102
RTVSPost2010PropOp39
 70
     0
102
RTVSPost2010Prop40
 90
        0
102
RTVSPost2010PropOp40
 70
     0
102
RTVSPost2010Prop41ColorIndex
 90
       18
102
RTVSPost2010Prop41ColorRGB
 90
        0
102
RTVSPost2010PropOp41
 70
     0
102
RTVSPost2010Prop42
 90
       50
102
RTVSPost2010PropOp42
 70
     0
102
RTVSPost2010Prop43
 90
        3
102
RTVSPost2010PropOp43
 70
     0
102
RTVSPost2010Prop44ColorIndex
 90
        5
102
RTVSPost2010Prop44ColorRGB
 90
      255
102
RTVSPost2010PropOp44
 70
     0
102
RTVSPost2010Prop45
280
     0
102
RTVSPost2010PropOp45
 70
     1
102
RTVSPost2010Prop46
 90
       50
102
RTVSPost2010PropOp46
 70
     0
102
RTVSPost2010Prop47
 90
       50
102
RTVSPost2010PropOp47
 70
     0
102
RTVSPost2010Prop48
 90
       50
102
RTVSPost2010PropOp48
 70
     0
102
RTVSPost2010Prop49
280
     0
102
RTVSPost2010PropOp49
 70
     1
102
RTVSPost2010Prop50
 90
       50
102
RTVSPost2010PropOp50
 70
     0
102
RTVSPost2010Prop51ColorIndex
 90
      256
102
RTVSPost2010Prop51ColorRGB
 90
-16777216
102
RTVSPost2010PropOp51
 70
     0
102
RTVSPost2010Prop52
140
1.0
102
RTVSPost2010PropOp52
 70
     0
102
RTVSPost2010Prop53
 90
        2
102
RTVSPost2010PropOp53
 70
     0
102
RTVSPost2010Prop54
  1
strokes_ogs.tif
102
RTVSPost2010PropOp54
 70
     0
102
RTVSPost2010Prop55
280
     0
102
RTVSPost2010PropOp55
 70
     1
102
RTVSPost2010Prop56
140
1.0
102
RTVSPost2010PropOp56
 70
     0
102
RTVSPost2010Prop57
140
1.0
102
RTVSPost2010PropOp57
 70
     0
102
RTVSPropertyOp0
 70
     0
102
RTVSPropertyOp1
 70
     0
102
RTVSPropertyOp2
 70
     0
102
RTVSPropertyOp3
 70
     0
102
RTVSPropertyOp4
 70
     0
102
RTVSPropertyOp5
 70
     0
102
RTVSPropertyOp6
 70
     0
102
RTVSPropertyOp7
 70
     0
102
RTVSPropertyOp8
 70
     0
102
RTVSPropertyOp9
 70
     0
102
RTVSPropertyOp10
 70
     0
102
RTVSPropertyOp11
 70
     0
102
RTVSPropertyOp12
 70
     0
102
RTVSPropertyOp13
 70
     0
102
RTVSPropertyOp14
 70
     2
102
RTVSPropertyOp15
 70
     0
102
RTVSPropertyOp16
 70
     0
102
RTVSPropertyOp17
 70
     0
102
RTVSPropertyOp18
 70
     0
102
RTVSPropertyOp19
 70
     0
102
RTVSPropertyOp20
 70
     0
102
RTVSPropertyOp21
 70
     0
102
RTVSPropertyOp22
 70
     0
102
RTVSPropertyOp23
 70
     0
102
RTVSPropertyOp24
 70
     0
102
RTVSPropertyOp25
 70
     0
102
RTVSPropertyOp26
 70
     0
102
RTVSPropertyOp27
 70
     0
102
RTVSPropertyOp28
 70
     1
102
RTVSPropertyOp29
 70
     1
102
RTVSPropertyOp30
 70
     1
102
RTVSPropertyOp31
 70
     1
102
RTVSPropertyOp32
 70
     1
102
RTVSPropertyOp33
 70
     1
102
RTVSPropertyOp34
 70
     1
102
RTVSPropertyOp35
 70
     1
102
RTVSPropertyOp36
 70
     1
102
RTVSPropertyOp37
 70
     0
102
RTVSPropertyOp38
 70
     0
102
RTVSPropertyOp39
 70
     0
102
RTVSPropertyOp40
 70
     0
102
RTVSPropertyOp41
 70
     0
102
RTVSPropertyOp42
 70
     0
102
RTVSPropertyOp43
 70
     0
102
RTVSPropertyOp44
 70
     0
102
RTVSPropertyOp45
 70
     1
102
RTVSPropertyOp46
 70
     0
102
RTVSPropertyOp47
 70
     0
102
RTVSPropertyOp48
 70
     0
102
RTVSPropertyOp49
 70
     1
102
RTVSPropertyOp50
 70
     0
102
RTVSPropertyOp51
 70
     0
102
RTVSPropertyOp52
 70
     0
102
RTVSPropertyOp53
 70
     0
102
RTVSPropertyOp54
 70
     0
102
RTVSPropertyOp55
 70
     1
102
RTVSPropertyOp56
 70
     0
102
RTVSPropertyOp57
 70
     0
102
RTVSPropertyOp58
 70
     0
102
RTVSPropertyOp59
 70
     0
102
RTVSPropertyOp60
 70
     0
102
RTVSPropertyOp61
 70
     0
102
RTVSPropertyOp62
 70
     0
  0
XRECORD
  5
AD79
102
{ACAD_REACTORS
330
AD78
102
}
330
AD78
100
AcDbXrecord
280
     1
102
RTVSPost2010Prop28
280
     0
102
RTVSPost2010PropOp28
 70
     1
102
RTVSPost2010Prop29
280
     1
102
RTVSPost2010PropOp29
 70
     1
102
RTVSPost2010Prop30
280
     1
102
RTVSPost2010PropOp30
 70
     1
102
RTVSPost2010Prop31
280
     0
102
RTVSPost2010PropOp31
 70
     1
102
RTVSPost2010Prop32
280
     0
102
RTVSPost2010PropOp32
 70
     1
102
RTVSPost2010Prop33
280
     0
102
RTVSPost2010PropOp33
 70
     1
102
RTVSPost2010Prop34
280
     0
102
RTVSPost2010PropOp34
 70
     1
102
RTVSPost2010Prop35
280
     0
102
RTVSPost2010PropOp35
 70
     1
102
RTVSPost2010Prop36
280
     0
102
RTVSPost2010PropOp36
 70
     1
102
RTVSPost2010Prop37
 90
       50
102
RTVSPost2010PropOp37
 70
     1
102
RTVSPost2010Prop38
140
0.0
102
RTVSPost2010PropOp38
 70
     1
102
RTVSPost2010Prop39
140
1.0
102
RTVSPost2010PropOp39
 70
     1
102
RTVSPost2010Prop40
 90
        0
102
RTVSPost2010PropOp40
 70
     1
102
RTVSPost2010Prop41ColorIndex
 90
       18
102
RTVSPost2010Prop41ColorRGB
 90
        0
102
RTVSPost2010PropOp41
 70
     1
102
RTVSPost2010Prop42
 90
       50
102
RTVSPost2010PropOp42
 70
     1
102
RTVSPost2010Prop43
 90
        3
102
RTVSPost2010PropOp43
 70
     1
102
RTVSPost2010Prop44ColorIndex
 90
        5
102
RTVSPost2010Prop44ColorRGB
 90
      255
102
RTVSPost2010PropOp44
 70
     1
102
RTVSPost2010Prop45
280
     0
102
RTVSPost2010PropOp45
 70
     1
102
RTVSPost2010Prop46
 90
       50
102
RTVSPost2010PropOp46
 70
     1
102
RTVSPost2010Prop47
 90
       50
102
RTVSPost2010PropOp47
 70
     1
102
RTVSPost2010Prop48
 90
       50
102
RTVSPost2010PropOp48
 70
     1
102
RTVSPost2010Prop49
280
     0
102
RTVSPost2010PropOp49
 70
     1
102
RTVSPost2010Prop50
 90
       50
102
RTVSPost2010PropOp50
 70
     1
102
RTVSPost2010Prop51ColorIndex
 90
      256
102
RTVSPost2010Prop51ColorRGB
 90
-16777216
102
RTVSPost2010PropOp51
 70
     0
102
RTVSPost2010Prop52
140
1.0
102
RTVSPost2010PropOp52
 70
     0
102
RTVSPost2010Prop53
 90
        2
102
RTVSPost2010PropOp53
 70
     1
102
RTVSPost2010Prop54
  1
strokes_ogs.tif
102
RTVSPost2010PropOp54
 70
     1
102
RTVSPost2010Prop55
280
     0
102
RTVSPost2010PropOp55
 70
     1
102
RTVSPost2010Prop56
140
1.0
102
RTVSPost2010PropOp56
 70
     1
102
RTVSPost2010Prop57
140
1.0
102
RTVSPost2010PropOp57
 70
     1
102
RTVSPropertyOp0
 70
     1
102
RTVSPropertyOp1
 70
     1
102
RTVSPropertyOp2
 70
     1
102
RTVSPropertyOp3
 70
     1
102
RTVSPropertyOp4
 70
     1
102
RTVSPropertyOp5
 70
     1
102
RTVSPropertyOp6
 70
     1
102
RTVSPropertyOp7
 70
     1
102
RTVSPropertyOp8
 70
     1
102
RTVSPropertyOp9
 70
     1
102
RTVSPropertyOp10
 70
     1
102
RTVSPropertyOp11
 70
     1
102
RTVSPropertyOp12
 70
     1
102
RTVSPropertyOp13
 70
     1
102
RTVSPropertyOp14
 70
     1
102
RTVSPropertyOp15
 70
     1
102
RTVSPropertyOp16
 70
     1
102
RTVSPropertyOp17
 70
     1
102
RTVSPropertyOp18
 70
     1
102
RTVSPropertyOp19
 70
     1
102
RTVSPropertyOp20
 70
     1
102
RTVSPropertyOp21
 70
     1
102
RTVSPropertyOp22
 70
     1
102
RTVSPropertyOp23
 70
     1
102
RTVSPropertyOp24
 70
     1
102
RTVSPropertyOp25
 70
     1
102
RTVSPropertyOp26
 70
     1
102
RTVSPropertyOp27
 70
     1
102
RTVSPropertyOp28
 70
     1
102
RTVSPropertyOp29
 70
     1
102
RTVSPropertyOp30
 70
     1
102
RTVSPropertyOp31
 70
     1
102
RTVSPropertyOp32
 70
     1
102
RTVSPropertyOp33
 70
     1
102
RTVSPropertyOp34
 70
     1
102
RTVSPropertyOp35
 70
     1
102
RTVSPropertyOp36
 70
     1
102
RTVSPropertyOp37
 70
     1
102
RTVSPropertyOp38
 70
     1
102
RTVSPropertyOp39
 70
     1
102
RTVSPropertyOp40
 70
     1
102
RTVSPropertyOp41
 70
     1
102
RTVSPropertyOp42
 70
     1
102
RTVSPropertyOp43
 70
     1
102
RTVSPropertyOp44
 70
     1
102
RTVSPropertyOp45
 70
     1
102
RTVSPropertyOp46
 70
     1
102
RTVSPropertyOp47
 70
     1
102
RTVSPropertyOp48
 70
     1
102
RTVSPropertyOp49
 70
     1
102
RTVSPropertyOp50
 70
     1
102
RTVSPropertyOp51
 70
     0
102
RTVSPropertyOp52
 70
     0
102
RTVSPropertyOp53
 70
     1
102
RTVSPropertyOp54
 70
     1
102
RTVSPropertyOp55
 70
     1
102
RTVSPropertyOp56
 70
     1
102
RTVSPropertyOp57
 70
     1
102
RTVSPropertyOp58
 70
     1
102
RTVSPropertyOp59
 70
     1
102
RTVSPropertyOp60
 70
     1
102
RTVSPropertyOp61
 70
     1
102
RTVSPropertyOp62
 70
     1
  0
XRECORD
  5
AD8B
102
{ACAD_REACTORS
330
AD8A
102
}
330
AD8A
100
AcDbXrecord
280
     1
102
RTVSPost2010Prop28
280
     0
102
RTVSPost2010PropOp28
 70
     1
102
RTVSPost2010Prop29
280
     1
102
RTVSPost2010PropOp29
 70
     1
102
RTVSPost2010Prop30
280
     1
102
RTVSPost2010PropOp30
 70
     1
102
RTVSPost2010Prop31
280
     0
102
RTVSPost2010PropOp31
 70
     1
102
RTVSPost2010Prop32
280
     0
102
RTVSPost2010PropOp32
 70
     1
102
RTVSPost2010Prop33
280
     0
102
RTVSPost2010PropOp33
 70
     1
102
RTVSPost2010Prop34
280
     0
102
RTVSPost2010PropOp34
 70
     1
102
RTVSPost2010Prop35
280
     0
102
RTVSPost2010PropOp35
 70
     1
102
RTVSPost2010Prop36
280
     0
102
RTVSPost2010PropOp36
 70
     1
102
RTVSPost2010Prop37
 90
       50
102
RTVSPost2010PropOp37
 70
     0
102
RTVSPost2010Prop38
140
0.0
102
RTVSPost2010PropOp38
 70
     0
102
RTVSPost2010Prop39
140
1.0
102
RTVSPost2010PropOp39
 70
     0
102
RTVSPost2010Prop40
 90
        0
102
RTVSPost2010PropOp40
 70
     0
102
RTVSPost2010Prop41ColorIndex
 90
       18
102
RTVSPost2010Prop41ColorRGB
 90
        0
102
RTVSPost2010PropOp41
 70
     0
102
RTVSPost2010Prop42
 90
       50
102
RTVSPost2010PropOp42
 70
     0
102
RTVSPost2010Prop43
 90
        3
102
RTVSPost2010PropOp43
 70
     0
102
RTVSPost2010Prop44ColorIndex
 90
        5
102
RTVSPost2010Prop44ColorRGB
 90
      255
102
RTVSPost2010PropOp44
 70
     0
102
RTVSPost2010Prop45
280
     0
102
RTVSPost2010PropOp45
 70
     1
102
RTVSPost2010Prop46
 90
       50
102
RTVSPost2010PropOp46
 70
     0
102
RTVSPost2010Prop47
 90
       50
102
RTVSPost2010PropOp47
 70
     0
102
RTVSPost2010Prop48
 90
       50
102
RTVSPost2010PropOp48
 70
     0
102
RTVSPost2010Prop49
280
     0
102
RTVSPost2010PropOp49
 70
     1
102
RTVSPost2010Prop50
 90
       50
102
RTVSPost2010PropOp50
 70
     0
102
RTVSPost2010Prop51ColorIndex
 90
      256
102
RTVSPost2010Prop51ColorRGB
 90
-16777216
102
RTVSPost2010PropOp51
 70
     0
102
RTVSPost2010Prop52
140
1.0
102
RTVSPost2010PropOp52
 70
     0
102
RTVSPost2010Prop53
 90
        2
102
RTVSPost2010PropOp53
 70
     0
102
RTVSPost2010Prop54
  1
strokes_ogs.tif
102
RTVSPost2010PropOp54
 70
     0
102
RTVSPost2010Prop55
280
     0
102
RTVSPost2010PropOp55
 70
     1
102
RTVSPost2010Prop56
140
1.0
102
RTVSPost2010PropOp56
 70
     0
102
RTVSPost2010Prop57
140
1.0
102
RTVSPost2010PropOp57
 70
     0
102
RTVSPropertyOp0
 70
     0
102
RTVSPropertyOp1
 70
     0
102
RTVSPropertyOp2
 70
     0
102
RTVSPropertyOp3
 70
     0
102
RTVSPropertyOp4
 70
     0
102
RTVSPropertyOp5
 70
     0
102
RTVSPropertyOp6
 70
     0
102
RTVSPropertyOp7
 70
     0
102
RTVSPropertyOp8
 70
     0
102
RTVSPropertyOp9
 70
     0
102
RTVSPropertyOp10
 70
     0
102
RTVSPropertyOp11
 70
     0
102
RTVSPropertyOp12
 70
     0
102
RTVSPropertyOp13
 70
     0
102
RTVSPropertyOp14
 70
     2
102
RTVSPropertyOp15
 70
     0
102
RTVSPropertyOp16
 70
     0
102
RTVSPropertyOp17
 70
     0
102
RTVSPropertyOp18
 70
     0
102
RTVSPropertyOp19
 70
     0
102
RTVSPropertyOp20
 70
     0
102
RTVSPropertyOp21
 70
     0
102
RTVSPropertyOp22
 70
     0
102
RTVSPropertyOp23
 70
     0
102
RTVSPropertyOp24
 70
     0
102
RTVSPropertyOp25
 70
     0
102
RTVSPropertyOp26
 70
     0
102
RTVSPropertyOp27
 70
     0
102
RTVSPropertyOp28
 70
     1
102
RTVSPropertyOp29
 70
     1
102
RTVSPropertyOp30
 70
     1
102
RTVSPropertyOp31
 70
     1
102
RTVSPropertyOp32
 70
     1
102
RTVSPropertyOp33
 70
     1
102
RTVSPropertyOp34
 70
     1
102
RTVSPropertyOp35
 70
     1
102
RTVSPropertyOp36
 70
     1
102
RTVSPropertyOp37
 70
     0
102
RTVSPropertyOp38
 70
     0
102
RTVSPropertyOp39
 70
     0
102
RTVSPropertyOp40
 70
     0
102
RTVSPropertyOp41
 70
     0
102
RTVSPropertyOp42
 70
     0
102
RTVSPropertyOp43
 70
     0
102
RTVSPropertyOp44
 70
     0
102
RTVSPropertyOp45
 70
     1
102
RTVSPropertyOp46
 70
     0
102
RTVSPropertyOp47
 70
     0
102
RTVSPropertyOp48
 70
     0
102
RTVSPropertyOp49
 70
     1
102
RTVSPropertyOp50
 70
     0
102
RTVSPropertyOp51
 70
     0
102
RTVSPropertyOp52
 70
     0
102
RTVSPropertyOp53
 70
     0
102
RTVSPropertyOp54
 70
     0
102
RTVSPropertyOp55
 70
     1
102
RTVSPropertyOp56
 70
     0
102
RTVSPropertyOp57
 70
     0
102
RTVSPropertyOp58
 70
     0
102
RTVSPropertyOp59
 70
     0
102
RTVSPropertyOp60
 70
     0
102
RTVSPropertyOp61
 70
     0
102
RTVSPropertyOp62
 70
     0
  0
XRECORD
  5
AD71
102
{ACAD_REACTORS
330
AD70
102
}
330
AD70
100
AcDbXrecord
280
     1
102
RTVSPost2010Prop28
280
     0
102
RTVSPost2010PropOp28
 70
     1
102
RTVSPost2010Prop29
280
     1
102
RTVSPost2010PropOp29
 70
     1
102
RTVSPost2010Prop30
280
     1
102
RTVSPost2010PropOp30
 70
     1
102
RTVSPost2010Prop31
280
     0
102
RTVSPost2010PropOp31
 70
     1
102
RTVSPost2010Prop32
280
     0
102
RTVSPost2010PropOp32
 70
     1
102
RTVSPost2010Prop33
280
     0
102
RTVSPost2010PropOp33
 70
     1
102
RTVSPost2010Prop34
280
     0
102
RTVSPost2010PropOp34
 70
     1
102
RTVSPost2010Prop35
280
     0
102
RTVSPost2010PropOp35
 70
     1
102
RTVSPost2010Prop36
280
     0
102
RTVSPost2010PropOp36
 70
     1
102
RTVSPost2010Prop37
 90
       50
102
RTVSPost2010PropOp37
 70
     1
102
RTVSPost2010Prop38
140
0.0
102
RTVSPost2010PropOp38
 70
     1
102
RTVSPost2010Prop39
140
1.0
102
RTVSPost2010PropOp39
 70
     1
102
RTVSPost2010Prop40
 90
        0
102
RTVSPost2010PropOp40
 70
     1
102
RTVSPost2010Prop41ColorIndex
 90
       18
102
RTVSPost2010Prop41ColorRGB
 90
        0
102
RTVSPost2010PropOp41
 70
     1
102
RTVSPost2010Prop42
 90
       50
102
RTVSPost2010PropOp42
 70
     1
102
RTVSPost2010Prop43
 90
        3
102
RTVSPost2010PropOp43
 70
     1
102
RTVSPost2010Prop44ColorIndex
 90
        5
102
RTVSPost2010Prop44ColorRGB
 90
      255
102
RTVSPost2010PropOp44
 70
     1
102
RTVSPost2010Prop45
280
     0
102
RTVSPost2010PropOp45
 70
     1
102
RTVSPost2010Prop46
 90
       50
102
RTVSPost2010PropOp46
 70
     1
102
RTVSPost2010Prop47
 90
       50
102
RTVSPost2010PropOp47
 70
     1
102
RTVSPost2010Prop48
 90
       50
102
RTVSPost2010PropOp48
 70
     1
102
RTVSPost2010Prop49
280
     0
102
RTVSPost2010PropOp49
 70
     1
102
RTVSPost2010Prop50
 90
       50
102
RTVSPost2010PropOp50
 70
     1
102
RTVSPost2010Prop51ColorIndex
 90
      256
102
RTVSPost2010Prop51ColorRGB
 90
-16777216
102
RTVSPost2010PropOp51
 70
     0
102
RTVSPost2010Prop52
140
1.0
102
RTVSPost2010PropOp52
 70
     0
102
RTVSPost2010Prop53
 90
        2
102
RTVSPost2010PropOp53
 70
     1
102
RTVSPost2010Prop54
  1
strokes_ogs.tif
102
RTVSPost2010PropOp54
 70
     1
102
RTVSPost2010Prop55
280
     0
102
RTVSPost2010PropOp55
 70
     1
102
RTVSPost2010Prop56
140
1.0
102
RTVSPost2010PropOp56
 70
     1
102
RTVSPost2010Prop57
140
1.0
102
RTVSPost2010PropOp57
 70
     1
102
RTVSPropertyOp0
 70
     1
102
RTVSPropertyOp1
 70
     1
102
RTVSPropertyOp2
 70
     1
102
RTVSPropertyOp3
 70
     1
102
RTVSPropertyOp4
 70
     1
102
RTVSPropertyOp5
 70
     1
102
RTVSPropertyOp6
 70
     1
102
RTVSPropertyOp7
 70
     1
102
RTVSPropertyOp8
 70
     1
102
RTVSPropertyOp9
 70
     1
102
RTVSPropertyOp10
 70
     1
102
RTVSPropertyOp11
 70
     1
102
RTVSPropertyOp12
 70
     1
102
RTVSPropertyOp13
 70
     1
102
RTVSPropertyOp14
 70
     1
102
RTVSPropertyOp15
 70
     1
102
RTVSPropertyOp16
 70
     1
102
RTVSPropertyOp17
 70
     1
102
RTVSPropertyOp18
 70
     1
102
RTVSPropertyOp19
 70
     1
102
RTVSPropertyOp20
 70
     1
102
RTVSPropertyOp21
 70
     1
102
RTVSPropertyOp22
 70
     1
102
RTVSPropertyOp23
 70
     1
102
RTVSPropertyOp24
 70
     1
102
RTVSPropertyOp25
 70
     1
102
RTVSPropertyOp26
 70
     1
102
RTVSPropertyOp27
 70
     1
102
RTVSPropertyOp28
 70
     1
102
RTVSPropertyOp29
 70
     1
102
RTVSPropertyOp30
 70
     1
102
RTVSPropertyOp31
 70
     1
102
RTVSPropertyOp32
 70
     1
102
RTVSPropertyOp33
 70
     1
102
RTVSPropertyOp34
 70
     1
102
RTVSPropertyOp35
 70
     1
102
RTVSPropertyOp36
 70
     1
102
RTVSPropertyOp37
 70
     1
102
RTVSPropertyOp38
 70
     1
102
RTVSPropertyOp39
 70
     1
102
RTVSPropertyOp40
 70
     1
102
RTVSPropertyOp41
 70
     1
102
RTVSPropertyOp42
 70
     1
102
RTVSPropertyOp43
 70
     1
102
RTVSPropertyOp44
 70
     1
102
RTVSPropertyOp45
 70
     1
102
RTVSPropertyOp46
 70
     1
102
RTVSPropertyOp47
 70
     1
102
RTVSPropertyOp48
 70
     1
102
RTVSPropertyOp49
 70
     1
102
RTVSPropertyOp50
 70
     1
102
RTVSPropertyOp51
 70
     0
102
RTVSPropertyOp52
 70
     0
102
RTVSPropertyOp53
 70
     1
102
RTVSPropertyOp54
 70
     1
102
RTVSPropertyOp55
 70
     1
102
RTVSPropertyOp56
 70
     1
102
RTVSPropertyOp57
 70
     1
102
RTVSPropertyOp58
 70
     1
102
RTVSPropertyOp59
 70
     1
102
RTVSPropertyOp60
 70
     1
102
RTVSPropertyOp61
 70
     1
102
RTVSPropertyOp62
 70
     1
  0
XRECORD
  5
AD87
102
{ACAD_REACTORS
330
AD86
102
}
330
AD86
100
AcDbXrecord
280
     1
102
RTVSPost2010Prop28
280
     0
102
RTVSPost2010PropOp28
 70
     1
102
RTVSPost2010Prop29
280
     1
102
RTVSPost2010PropOp29
 70
     1
102
RTVSPost2010Prop30
280
     1
102
RTVSPost2010PropOp30
 70
     1
102
RTVSPost2010Prop31
280
     0
102
RTVSPost2010PropOp31
 70
     1
102
RTVSPost2010Prop32
280
     0
102
RTVSPost2010PropOp32
 70
     1
102
RTVSPost2010Prop33
280
     0
102
RTVSPost2010PropOp33
 70
     1
102
RTVSPost2010Prop34
280
     0
102
RTVSPost2010PropOp34
 70
     1
102
RTVSPost2010Prop35
280
     0
102
RTVSPost2010PropOp35
 70
     1
102
RTVSPost2010Prop36
280
     0
102
RTVSPost2010PropOp36
 70
     1
102
RTVSPost2010Prop37
 90
       50
102
RTVSPost2010PropOp37
 70
     1
102
RTVSPost2010Prop38
140
0.0
102
RTVSPost2010PropOp38
 70
     1
102
RTVSPost2010Prop39
140
1.0
102
RTVSPost2010PropOp39
 70
     1
102
RTVSPost2010Prop40
 90
        0
102
RTVSPost2010PropOp40
 70
     1
102
RTVSPost2010Prop41ColorIndex
 90
       18
102
RTVSPost2010Prop41ColorRGB
 90
        0
102
RTVSPost2010PropOp41
 70
     1
102
RTVSPost2010Prop42
 90
       50
102
RTVSPost2010PropOp42
 70
     1
102
RTVSPost2010Prop43
 90
        3
102
RTVSPost2010PropOp43
 70
     1
102
RTVSPost2010Prop44ColorIndex
 90
        5
102
RTVSPost2010Prop44ColorRGB
 90
      255
102
RTVSPost2010PropOp44
 70
     1
102
RTVSPost2010Prop45
280
     0
102
RTVSPost2010PropOp45
 70
     1
102
RTVSPost2010Prop46
 90
       50
102
RTVSPost2010PropOp46
 70
     1
102
RTVSPost2010Prop47
 90
       50
102
RTVSPost2010PropOp47
 70
     1
102
RTVSPost2010Prop48
 90
       50
102
RTVSPost2010PropOp48
 70
     1
102
RTVSPost2010Prop49
280
     0
102
RTVSPost2010PropOp49
 70
     1
102
RTVSPost2010Prop50
 90
       50
102
RTVSPost2010PropOp50
 70
     1
102
RTVSPost2010Prop51ColorIndex
 90
      256
102
RTVSPost2010Prop51ColorRGB
 90
-16777216
102
RTVSPost2010PropOp51
 70
     0
102
RTVSPost2010Prop52
140
1.0
102
RTVSPost2010PropOp52
 70
     0
102
RTVSPost2010Prop53
 90
        2
102
RTVSPost2010PropOp53
 70
     1
102
RTVSPost2010Prop54
  1
strokes_ogs.tif
102
RTVSPost2010PropOp54
 70
     1
102
RTVSPost2010Prop55
280
     0
102
RTVSPost2010PropOp55
 70
     1
102
RTVSPost2010Prop56
140
1.0
102
RTVSPost2010PropOp56
 70
     1
102
RTVSPost2010Prop57
140
1.0
102
RTVSPost2010PropOp57
 70
     1
102
RTVSPropertyOp0
 70
     1
102
RTVSPropertyOp1
 70
     1
102
RTVSPropertyOp2
 70
     1
102
RTVSPropertyOp3
 70
     1
102
RTVSPropertyOp4
 70
     1
102
RTVSPropertyOp5
 70
     1
102
RTVSPropertyOp6
 70
     1
102
RTVSPropertyOp7
 70
     1
102
RTVSPropertyOp8
 70
     1
102
RTVSPropertyOp9
 70
     1
102
RTVSPropertyOp10
 70
     1
102
RTVSPropertyOp11
 70
     1
102
RTVSPropertyOp12
 70
     1
102
RTVSPropertyOp13
 70
     1
102
RTVSPropertyOp14
 70
     1
102
RTVSPropertyOp15
 70
     1
102
RTVSPropertyOp16
 70
     1
102
RTVSPropertyOp17
 70
     1
102
RTVSPropertyOp18
 70
     1
102
RTVSPropertyOp19
 70
     1
102
RTVSPropertyOp20
 70
     1
102
RTVSPropertyOp21
 70
     1
102
RTVSPropertyOp22
 70
     1
102
RTVSPropertyOp23
 70
     1
102
RTVSPropertyOp24
 70
     1
102
RTVSPropertyOp25
 70
     1
102
RTVSPropertyOp26
 70
     1
102
RTVSPropertyOp27
 70
     1
102
RTVSPropertyOp28
 70
     1
102
RTVSPropertyOp29
 70
     1
102
RTVSPropertyOp30
 70
     1
102
RTVSPropertyOp31
 70
     1
102
RTVSPropertyOp32
 70
     1
102
RTVSPropertyOp33
 70
     1
102
RTVSPropertyOp34
 70
     1
102
RTVSPropertyOp35
 70
     1
102
RTVSPropertyOp36
 70
     1
102
RTVSPropertyOp37
 70
     1
102
RTVSPropertyOp38
 70
     1
102
RTVSPropertyOp39
 70
     1
102
RTVSPropertyOp40
 70
     1
102
RTVSPropertyOp41
 70
     1
102
RTVSPropertyOp42
 70
     1
102
RTVSPropertyOp43
 70
     1
102
RTVSPropertyOp44
 70
     1
102
RTVSPropertyOp45
 70
     1
102
RTVSPropertyOp46
 70
     1
102
RTVSPropertyOp47
 70
     1
102
RTVSPropertyOp48
 70
     1
102
RTVSPropertyOp49
 70
     1
102
RTVSPropertyOp50
 70
     1
102
RTVSPropertyOp51
 70
     0
102
RTVSPropertyOp52
 70
     0
102
RTVSPropertyOp53
 70
     1
102
RTVSPropertyOp54
 70
     1
102
RTVSPropertyOp55
 70
     1
102
RTVSPropertyOp56
 70
     1
102
RTVSPropertyOp57
 70
     1
102
RTVSPropertyOp58
 70
     1
102
RTVSPropertyOp59
 70
     1
102
RTVSPropertyOp60
 70
     1
102
RTVSPropertyOp61
 70
     1
102
RTVSPropertyOp62
 70
     1
  0
XRECORD
  5
AD85
102
{ACAD_REACTORS
330
AD84
102
}
330
AD84
100
AcDbXrecord
280
     1
102
RTVSPost2010Prop28
280
     0
102
RTVSPost2010PropOp28
 70
     1
102
RTVSPost2010Prop29
280
     1
102
RTVSPost2010PropOp29
 70
     1
102
RTVSPost2010Prop30
280
     1
102
RTVSPost2010PropOp30
 70
     1
102
RTVSPost2010Prop31
280
     0
102
RTVSPost2010PropOp31
 70
     1
102
RTVSPost2010Prop32
280
     0
102
RTVSPost2010PropOp32
 70
     1
102
RTVSPost2010Prop33
280
     0
102
RTVSPost2010PropOp33
 70
     1
102
RTVSPost2010Prop34
280
     0
102
RTVSPost2010PropOp34
 70
     1
102
RTVSPost2010Prop35
280
     0
102
RTVSPost2010PropOp35
 70
     1
102
RTVSPost2010Prop36
280
     0
102
RTVSPost2010PropOp36
 70
     1
102
RTVSPost2010Prop37
 90
       50
102
RTVSPost2010PropOp37
 70
     1
102
RTVSPost2010Prop38
140
0.0
102
RTVSPost2010PropOp38
 70
     1
102
RTVSPost2010Prop39
140
1.0
102
RTVSPost2010PropOp39
 70
     1
102
RTVSPost2010Prop40
 90
        0
102
RTVSPost2010PropOp40
 70
     1
102
RTVSPost2010Prop41ColorIndex
 90
       18
102
RTVSPost2010Prop41ColorRGB
 90
        0
102
RTVSPost2010PropOp41
 70
     1
102
RTVSPost2010Prop42
 90
       50
102
RTVSPost2010PropOp42
 70
     1
102
RTVSPost2010Prop43
 90
        3
102
RTVSPost2010PropOp43
 70
     1
102
RTVSPost2010Prop44ColorIndex
 90
        5
102
RTVSPost2010Prop44ColorRGB
 90
      255
102
RTVSPost2010PropOp44
 70
     1
102
RTVSPost2010Prop45
280
     0
102
RTVSPost2010PropOp45
 70
     1
102
RTVSPost2010Prop46
 90
       50
102
RTVSPost2010PropOp46
 70
     1
102
RTVSPost2010Prop47
 90
       50
102
RTVSPost2010PropOp47
 70
     1
102
RTVSPost2010Prop48
 90
       50
102
RTVSPost2010PropOp48
 70
     1
102
RTVSPost2010Prop49
280
     0
102
RTVSPost2010PropOp49
 70
     1
102
RTVSPost2010Prop50
 90
       50
102
RTVSPost2010PropOp50
 70
     1
102
RTVSPost2010Prop51ColorIndex
 90
      256
102
RTVSPost2010Prop51ColorRGB
 90
-16777216
102
RTVSPost2010PropOp51
 70
     0
102
RTVSPost2010Prop52
140
1.0
102
RTVSPost2010PropOp52
 70
     0
102
RTVSPost2010Prop53
 90
        2
102
RTVSPost2010PropOp53
 70
     1
102
RTVSPost2010Prop54
  1
strokes_ogs.tif
102
RTVSPost2010PropOp54
 70
     1
102
RTVSPost2010Prop55
280
     0
102
RTVSPost2010PropOp55
 70
     1
102
RTVSPost2010Prop56
140
1.0
102
RTVSPost2010PropOp56
 70
     1
102
RTVSPost2010Prop57
140
1.0
102
RTVSPost2010PropOp57
 70
     1
102
RTVSPropertyOp0
 70
     1
102
RTVSPropertyOp1
 70
     1
102
RTVSPropertyOp2
 70
     1
102
RTVSPropertyOp3
 70
     1
102
RTVSPropertyOp4
 70
     1
102
RTVSPropertyOp5
 70
     1
102
RTVSPropertyOp6
 70
     1
102
RTVSPropertyOp7
 70
     1
102
RTVSPropertyOp8
 70
     1
102
RTVSPropertyOp9
 70
     1
102
RTVSPropertyOp10
 70
     1
102
RTVSPropertyOp11
 70
     1
102
RTVSPropertyOp12
 70
     1
102
RTVSPropertyOp13
 70
     1
102
RTVSPropertyOp14
 70
     1
102
RTVSPropertyOp15
 70
     1
102
RTVSPropertyOp16
 70
     1
102
RTVSPropertyOp17
 70
     1
102
RTVSPropertyOp18
 70
     1
102
RTVSPropertyOp19
 70
     1
102
RTVSPropertyOp20
 70
     1
102
RTVSPropertyOp21
 70
     1
102
RTVSPropertyOp22
 70
     1
102
RTVSPropertyOp23
 70
     1
102
RTVSPropertyOp24
 70
     1
102
RTVSPropertyOp25
 70
     1
102
RTVSPropertyOp26
 70
     1
102
RTVSPropertyOp27
 70
     1
102
RTVSPropertyOp28
 70
     1
102
RTVSPropertyOp29
 70
     1
102
RTVSPropertyOp30
 70
     1
102
RTVSPropertyOp31
 70
     1
102
RTVSPropertyOp32
 70
     1
102
RTVSPropertyOp33
 70
     1
102
RTVSPropertyOp34
 70
     1
102
RTVSPropertyOp35
 70
     1
102
RTVSPropertyOp36
 70
     1
102
RTVSPropertyOp37
 70
     1
102
RTVSPropertyOp38
 70
     1
102
RTVSPropertyOp39
 70
     1
102
RTVSPropertyOp40
 70
     1
102
RTVSPropertyOp41
 70
     1
102
RTVSPropertyOp42
 70
     1
102
RTVSPropertyOp43
 70
     1
102
RTVSPropertyOp44
 70
     1
102
RTVSPropertyOp45
 70
     1
102
RTVSPropertyOp46
 70
     1
102
RTVSPropertyOp47
 70
     1
102
RTVSPropertyOp48
 70
     1
102
RTVSPropertyOp49
 70
     1
102
RTVSPropertyOp50
 70
     1
102
RTVSPropertyOp51
 70
     0
102
RTVSPropertyOp52
 70
     0
102
RTVSPropertyOp53
 70
     1
102
RTVSPropertyOp54
 70
     1
102
RTVSPropertyOp55
 70
     1
102
RTVSPropertyOp56
 70
     1
102
RTVSPropertyOp57
 70
     1
102
RTVSPropertyOp58
 70
     1
102
RTVSPropertyOp59
 70
     1
102
RTVSPropertyOp60
 70
     1
102
RTVSPropertyOp61
 70
     1
102
RTVSPropertyOp62
 70
     1
  0
XRECORD
  5
AD7F
102
{ACAD_REACTORS
330
AD7E
102
}
330
AD7E
100
AcDbXrecord
280
     1
102
RTVSPost2010Prop28
280
     0
102
RTVSPost2010PropOp28
 70
     1
102
RTVSPost2010Prop29
280
     1
102
RTVSPost2010PropOp29
 70
     1
102
RTVSPost2010Prop30
280
     1
102
RTVSPost2010PropOp30
 70
     1
102
RTVSPost2010Prop31
280
     0
102
RTVSPost2010PropOp31
 70
     1
102
RTVSPost2010Prop32
280
     0
102
RTVSPost2010PropOp32
 70
     1
102
RTVSPost2010Prop33
280
     0
102
RTVSPost2010PropOp33
 70
     1
102
RTVSPost2010Prop34
280
     0
102
RTVSPost2010PropOp34
 70
     1
102
RTVSPost2010Prop35
280
     0
102
RTVSPost2010PropOp35
 70
     1
102
RTVSPost2010Prop36
280
     0
102
RTVSPost2010PropOp36
 70
     1
102
RTVSPost2010Prop37
 90
       50
102
RTVSPost2010PropOp37
 70
     1
102
RTVSPost2010Prop38
140
0.0
102
RTVSPost2010PropOp38
 70
     1
102
RTVSPost2010Prop39
140
1.0
102
RTVSPost2010PropOp39
 70
     1
102
RTVSPost2010Prop40
 90
        0
102
RTVSPost2010PropOp40
 70
     1
102
RTVSPost2010Prop41ColorIndex
 90
       18
102
RTVSPost2010Prop41ColorRGB
 90
        0
102
RTVSPost2010PropOp41
 70
     1
102
RTVSPost2010Prop42
 90
       50
102
RTVSPost2010PropOp42
 70
     1
102
RTVSPost2010Prop43
 90
        3
102
RTVSPost2010PropOp43
 70
     1
102
RTVSPost2010Prop44ColorIndex
 90
        5
102
RTVSPost2010Prop44ColorRGB
 90
      255
102
RTVSPost2010PropOp44
 70
     1
102
RTVSPost2010Prop45
280
     0
102
RTVSPost2010PropOp45
 70
     1
102
RTVSPost2010Prop46
 90
       50
102
RTVSPost2010PropOp46
 70
     1
102
RTVSPost2010Prop47
 90
       50
102
RTVSPost2010PropOp47
 70
     1
102
RTVSPost2010Prop48
 90
       50
102
RTVSPost2010PropOp48
 70
     1
102
RTVSPost2010Prop49
280
     0
102
RTVSPost2010PropOp49
 70
     1
102
RTVSPost2010Prop50
 90
       50
102
RTVSPost2010PropOp50
 70
     1
102
RTVSPost2010Prop51ColorIndex
 90
      256
102
RTVSPost2010Prop51ColorRGB
 90
-16777216
102
RTVSPost2010PropOp51
 70
     0
102
RTVSPost2010Prop52
140
1.0
102
RTVSPost2010PropOp52
 70
     0
102
RTVSPost2010Prop53
 90
        2
102
RTVSPost2010PropOp53
 70
     1
102
RTVSPost2010Prop54
  1
strokes_ogs.tif
102
RTVSPost2010PropOp54
 70
     1
102
RTVSPost2010Prop55
280
     0
102
RTVSPost2010PropOp55
 70
     1
102
RTVSPost2010Prop56
140
1.0
102
RTVSPost2010PropOp56
 70
     1
102
RTVSPost2010Prop57
140
1.0
102
RTVSPost2010PropOp57
 70
     1
102
RTVSPropertyOp0
 70
     1
102
RTVSPropertyOp1
 70
     1
102
RTVSPropertyOp2
 70
     1
102
RTVSPropertyOp3
 70
     1
102
RTVSPropertyOp4
 70
     1
102
RTVSPropertyOp5
 70
     1
102
RTVSPropertyOp6
 70
     1
102
RTVSPropertyOp7
 70
     1
102
RTVSPropertyOp8
 70
     1
102
RTVSPropertyOp9
 70
     1
102
RTVSPropertyOp10
 70
     1
102
RTVSPropertyOp11
 70
     1
102
RTVSPropertyOp12
 70
     1
102
RTVSPropertyOp13
 70
     1
102
RTVSPropertyOp14
 70
     1
102
RTVSPropertyOp15
 70
     1
102
RTVSPropertyOp16
 70
     1
102
RTVSPropertyOp17
 70
     1
102
RTVSPropertyOp18
 70
     1
102
RTVSPropertyOp19
 70
     1
102
RTVSPropertyOp20
 70
     1
102
RTVSPropertyOp21
 70
     1
102
RTVSPropertyOp22
 70
     1
102
RTVSPropertyOp23
 70
     1
102
RTVSPropertyOp24
 70
     1
102
RTVSPropertyOp25
 70
     1
102
RTVSPropertyOp26
 70
     1
102
RTVSPropertyOp27
 70
     1
102
RTVSPropertyOp28
 70
     1
102
RTVSPropertyOp29
 70
     1
102
RTVSPropertyOp30
 70
     1
102
RTVSPropertyOp31
 70
     1
102
RTVSPropertyOp32
 70
     1
102
RTVSPropertyOp33
 70
     1
102
RTVSPropertyOp34
 70
     1
102
RTVSPropertyOp35
 70
     1
102
RTVSPropertyOp36
 70
     1
102
RTVSPropertyOp37
 70
     1
102
RTVSPropertyOp38
 70
     1
102
RTVSPropertyOp39
 70
     1
102
RTVSPropertyOp40
 70
     1
102
RTVSPropertyOp41
 70
     1
102
RTVSPropertyOp42
 70
     1
102
RTVSPropertyOp43
 70
     1
102
RTVSPropertyOp44
 70
     1
102
RTVSPropertyOp45
 70
     1
102
RTVSPropertyOp46
 70
     1
102
RTVSPropertyOp47
 70
     1
102
RTVSPropertyOp48
 70
     1
102
RTVSPropertyOp49
 70
     1
102
RTVSPropertyOp50
 70
     1
102
RTVSPropertyOp51
 70
     0
102
RTVSPropertyOp52
 70
     0
102
RTVSPropertyOp53
 70
     1
102
RTVSPropertyOp54
 70
     1
102
RTVSPropertyOp55
 70
     1
102
RTVSPropertyOp56
 70
     1
102
RTVSPropertyOp57
 70
     1
102
RTVSPropertyOp58
 70
     1
102
RTVSPropertyOp59
 70
     1
102
RTVSPropertyOp60
 70
     1
102
RTVSPropertyOp61
 70
     1
102
RTVSPropertyOp62
 70
     1
  0
XRECORD
  5
AD81
102
{ACAD_REACTORS
330
AD80
102
}
330
AD80
100
AcDbXrecord
280
     1
102
RTVSPost2010Prop28
280
     0
102
RTVSPost2010PropOp28
 70
     1
102
RTVSPost2010Prop29
280
     1
102
RTVSPost2010PropOp29
 70
     1
102
RTVSPost2010Prop30
280
     1
102
RTVSPost2010PropOp30
 70
     1
102
RTVSPost2010Prop31
280
     0
102
RTVSPost2010PropOp31
 70
     1
102
RTVSPost2010Prop32
280
     0
102
RTVSPost2010PropOp32
 70
     1
102
RTVSPost2010Prop33
280
     0
102
RTVSPost2010PropOp33
 70
     1
102
RTVSPost2010Prop34
280
     0
102
RTVSPost2010PropOp34
 70
     1
102
RTVSPost2010Prop35
280
     0
102
RTVSPost2010PropOp35
 70
     1
102
RTVSPost2010Prop36
280
     0
102
RTVSPost2010PropOp36
 70
     1
102
RTVSPost2010Prop37
 90
       50
102
RTVSPost2010PropOp37
 70
     1
102
RTVSPost2010Prop38
140
0.0
102
RTVSPost2010PropOp38
 70
     1
102
RTVSPost2010Prop39
140
1.0
102
RTVSPost2010PropOp39
 70
     1
102
RTVSPost2010Prop40
 90
        0
102
RTVSPost2010PropOp40
 70
     1
102
RTVSPost2010Prop41ColorIndex
 90
       18
102
RTVSPost2010Prop41ColorRGB
 90
        0
102
RTVSPost2010PropOp41
 70
     1
102
RTVSPost2010Prop42
 90
       50
102
RTVSPost2010PropOp42
 70
     1
102
RTVSPost2010Prop43
 90
        3
102
RTVSPost2010PropOp43
 70
     1
102
RTVSPost2010Prop44ColorIndex
 90
        5
102
RTVSPost2010Prop44ColorRGB
 90
      255
102
RTVSPost2010PropOp44
 70
     1
102
RTVSPost2010Prop45
280
     0
102
RTVSPost2010PropOp45
 70
     1
102
RTVSPost2010Prop46
 90
       50
102
RTVSPost2010PropOp46
 70
     1
102
RTVSPost2010Prop47
 90
       50
102
RTVSPost2010PropOp47
 70
     1
102
RTVSPost2010Prop48
 90
       50
102
RTVSPost2010PropOp48
 70
     1
102
RTVSPost2010Prop49
280
     0
102
RTVSPost2010PropOp49
 70
     1
102
RTVSPost2010Prop50
 90
       50
102
RTVSPost2010PropOp50
 70
     1
102
RTVSPost2010Prop51ColorIndex
 90
      256
102
RTVSPost2010Prop51ColorRGB
 90
-16777216
102
RTVSPost2010PropOp51
 70
     0
102
RTVSPost2010Prop52
140
1.0
102
RTVSPost2010PropOp52
 70
     0
102
RTVSPost2010Prop53
 90
        2
102
RTVSPost2010PropOp53
 70
     1
102
RTVSPost2010Prop54
  1
strokes_ogs.tif
102
RTVSPost2010PropOp54
 70
     1
102
RTVSPost2010Prop55
280
     0
102
RTVSPost2010PropOp55
 70
     1
102
RTVSPost2010Prop56
140
1.0
102
RTVSPost2010PropOp56
 70
     1
102
RTVSPost2010Prop57
140
1.0
102
RTVSPost2010PropOp57
 70
     1
102
RTVSPropertyOp0
 70
     1
102
RTVSPropertyOp1
 70
     1
102
RTVSPropertyOp2
 70
     1
102
RTVSPropertyOp3
 70
     1
102
RTVSPropertyOp4
 70
     1
102
RTVSPropertyOp5
 70
     1
102
RTVSPropertyOp6
 70
     1
102
RTVSPropertyOp7
 70
     1
102
RTVSPropertyOp8
 70
     1
102
RTVSPropertyOp9
 70
     1
102
RTVSPropertyOp10
 70
     1
102
RTVSPropertyOp11
 70
     1
102
RTVSPropertyOp12
 70
     1
102
RTVSPropertyOp13
 70
     1
102
RTVSPropertyOp14
 70
     1
102
RTVSPropertyOp15
 70
     1
102
RTVSPropertyOp16
 70
     1
102
RTVSPropertyOp17
 70
     1
102
RTVSPropertyOp18
 70
     1
102
RTVSPropertyOp19
 70
     1
102
RTVSPropertyOp20
 70
     1
102
RTVSPropertyOp21
 70
     1
102
RTVSPropertyOp22
 70
     1
102
RTVSPropertyOp23
 70
     1
102
RTVSPropertyOp24
 70
     1
102
RTVSPropertyOp25
 70
     1
102
RTVSPropertyOp26
 70
     1
102
RTVSPropertyOp27
 70
     1
102
RTVSPropertyOp28
 70
     1
102
RTVSPropertyOp29
 70
     1
102
RTVSPropertyOp30
 70
     1
102
RTVSPropertyOp31
 70
     1
102
RTVSPropertyOp32
 70
     1
102
RTVSPropertyOp33
 70
     1
102
RTVSPropertyOp34
 70
     1
102
RTVSPropertyOp35
 70
     1
102
RTVSPropertyOp36
 70
     1
102
RTVSPropertyOp37
 70
     1
102
RTVSPropertyOp38
 70
     1
102
RTVSPropertyOp39
 70
     1
102
RTVSPropertyOp40
 70
     1
102
RTVSPropertyOp41
 70
     1
102
RTVSPropertyOp42
 70
     1
102
RTVSPropertyOp43
 70
     1
102
RTVSPropertyOp44
 70
     1
102
RTVSPropertyOp45
 70
     1
102
RTVSPropertyOp46
 70
     1
102
RTVSPropertyOp47
 70
     1
102
RTVSPropertyOp48
 70
     1
102
RTVSPropertyOp49
 70
     1
102
RTVSPropertyOp50
 70
     1
102
RTVSPropertyOp51
 70
     0
102
RTVSPropertyOp52
 70
     0
102
RTVSPropertyOp53
 70
     1
102
RTVSPropertyOp54
 70
     1
102
RTVSPropertyOp55
 70
     1
102
RTVSPropertyOp56
 70
     1
102
RTVSPropertyOp57
 70
     1
102
RTVSPropertyOp58
 70
     1
102
RTVSPropertyOp59
 70
     1
102
RTVSPropertyOp60
 70
     1
102
RTVSPropertyOp61
 70
     1
102
RTVSPropertyOp62
 70
     1
  0
XRECORD
  5
AD77
102
{ACAD_REACTORS
330
AD76
102
}
330
AD76
100
AcDbXrecord
280
     1
102
RTVSPost2010Prop28
280
     0
102
RTVSPost2010PropOp28
 70
     1
102
RTVSPost2010Prop29
280
     1
102
RTVSPost2010PropOp29
 70
     1
102
RTVSPost2010Prop30
280
     1
102
RTVSPost2010PropOp30
 70
     1
102
RTVSPost2010Prop31
280
     0
102
RTVSPost2010PropOp31
 70
     1
102
RTVSPost2010Prop32
280
     0
102
RTVSPost2010PropOp32
 70
     1
102
RTVSPost2010Prop33
280
     0
102
RTVSPost2010PropOp33
 70
     1
102
RTVSPost2010Prop34
280
     0
102
RTVSPost2010PropOp34
 70
     1
102
RTVSPost2010Prop35
280
     0
102
RTVSPost2010PropOp35
 70
     1
102
RTVSPost2010Prop36
280
     0
102
RTVSPost2010PropOp36
 70
     1
102
RTVSPost2010Prop37
 90
       50
102
RTVSPost2010PropOp37
 70
     1
102
RTVSPost2010Prop38
140
0.0
102
RTVSPost2010PropOp38
 70
     1
102
RTVSPost2010Prop39
140
1.0
102
RTVSPost2010PropOp39
 70
     1
102
RTVSPost2010Prop40
 90
        0
102
RTVSPost2010PropOp40
 70
     1
102
RTVSPost2010Prop41ColorIndex
 90
       18
102
RTVSPost2010Prop41ColorRGB
 90
        0
102
RTVSPost2010PropOp41
 70
     1
102
RTVSPost2010Prop42
 90
       50
102
RTVSPost2010PropOp42
 70
     1
102
RTVSPost2010Prop43
 90
        3
102
RTVSPost2010PropOp43
 70
     1
102
RTVSPost2010Prop44ColorIndex
 90
        5
102
RTVSPost2010Prop44ColorRGB
 90
      255
102
RTVSPost2010PropOp44
 70
     1
102
RTVSPost2010Prop45
280
     0
102
RTVSPost2010PropOp45
 70
     1
102
RTVSPost2010Prop46
 90
       50
102
RTVSPost2010PropOp46
 70
     1
102
RTVSPost2010Prop47
 90
       50
102
RTVSPost2010PropOp47
 70
     1
102
RTVSPost2010Prop48
 90
       50
102
RTVSPost2010PropOp48
 70
     1
102
RTVSPost2010Prop49
280
     0
102
RTVSPost2010PropOp49
 70
     1
102
RTVSPost2010Prop50
 90
       50
102
RTVSPost2010PropOp50
 70
     1
102
RTVSPost2010Prop51ColorIndex
 90
      256
102
RTVSPost2010Prop51ColorRGB
 90
-16777216
102
RTVSPost2010PropOp51
 70
     0
102
RTVSPost2010Prop52
140
1.0
102
RTVSPost2010PropOp52
 70
     0
102
RTVSPost2010Prop53
 90
        2
102
RTVSPost2010PropOp53
 70
     1
102
RTVSPost2010Prop54
  1
strokes_ogs.tif
102
RTVSPost2010PropOp54
 70
     1
102
RTVSPost2010Prop55
280
     0
102
RTVSPost2010PropOp55
 70
     1
102
RTVSPost2010Prop56
140
1.0
102
RTVSPost2010PropOp56
 70
     1
102
RTVSPost2010Prop57
140
1.0
102
RTVSPost2010PropOp57
 70
     1
102
RTVSPropertyOp0
 70
     1
102
RTVSPropertyOp1
 70
     1
102
RTVSPropertyOp2
 70
     1
102
RTVSPropertyOp3
 70
     1
102
RTVSPropertyOp4
 70
     1
102
RTVSPropertyOp5
 70
     1
102
RTVSPropertyOp6
 70
     1
102
RTVSPropertyOp7
 70
     1
102
RTVSPropertyOp8
 70
     1
102
RTVSPropertyOp9
 70
     1
102
RTVSPropertyOp10
 70
     1
102
RTVSPropertyOp11
 70
     1
102
RTVSPropertyOp12
 70
     1
102
RTVSPropertyOp13
 70
     1
102
RTVSPropertyOp14
 70
     1
102
RTVSPropertyOp15
 70
     1
102
RTVSPropertyOp16
 70
     1
102
RTVSPropertyOp17
 70
     1
102
RTVSPropertyOp18
 70
     1
102
RTVSPropertyOp19
 70
     1
102
RTVSPropertyOp20
 70
     1
102
RTVSPropertyOp21
 70
     1
102
RTVSPropertyOp22
 70
     1
102
RTVSPropertyOp23
 70
     1
102
RTVSPropertyOp24
 70
     1
102
RTVSPropertyOp25
 70
     1
102
RTVSPropertyOp26
 70
     1
102
RTVSPropertyOp27
 70
     1
102
RTVSPropertyOp28
 70
     1
102
RTVSPropertyOp29
 70
     1
102
RTVSPropertyOp30
 70
     1
102
RTVSPropertyOp31
 70
     1
102
RTVSPropertyOp32
 70
     1
102
RTVSPropertyOp33
 70
     1
102
RTVSPropertyOp34
 70
     1
102
RTVSPropertyOp35
 70
     1
102
RTVSPropertyOp36
 70
     1
102
RTVSPropertyOp37
 70
     1
102
RTVSPropertyOp38
 70
     1
102
RTVSPropertyOp39
 70
     1
102
RTVSPropertyOp40
 70
     1
102
RTVSPropertyOp41
 70
     1
102
RTVSPropertyOp42
 70
     1
102
RTVSPropertyOp43
 70
     1
102
RTVSPropertyOp44
 70
     1
102
RTVSPropertyOp45
 70
     1
102
RTVSPropertyOp46
 70
     1
102
RTVSPropertyOp47
 70
     1
102
RTVSPropertyOp48
 70
     1
102
RTVSPropertyOp49
 70
     1
102
RTVSPropertyOp50
 70
     1
102
RTVSPropertyOp51
 70
     0
102
RTVSPropertyOp52
 70
     0
102
RTVSPropertyOp53
 70
     1
102
RTVSPropertyOp54
 70
     1
102
RTVSPropertyOp55
 70
     1
102
RTVSPropertyOp56
 70
     1
102
RTVSPropertyOp57
 70
     1
102
RTVSPropertyOp58
 70
     1
102
RTVSPropertyOp59
 70
     1
102
RTVSPropertyOp60
 70
     1
102
RTVSPropertyOp61
 70
     1
102
RTVSPropertyOp62
 70
     1
  0
XRECORD
  5
AD6B
102
{ACAD_REACTORS
330
AD6A
102
}
330
AD6A
100
AcDbXrecord
280
     1
102
RTVSPost2010Prop28
280
     0
102
RTVSPost2010PropOp28
 70
     1
102
RTVSPost2010Prop29
280
     1
102
RTVSPost2010PropOp29
 70
     1
102
RTVSPost2010Prop30
280
     1
102
RTVSPost2010PropOp30
 70
     1
102
RTVSPost2010Prop31
280
     0
102
RTVSPost2010PropOp31
 70
     1
102
RTVSPost2010Prop32
280
     0
102
RTVSPost2010PropOp32
 70
     1
102
RTVSPost2010Prop33
280
     0
102
RTVSPost2010PropOp33
 70
     1
102
RTVSPost2010Prop34
280
     0
102
RTVSPost2010PropOp34
 70
     1
102
RTVSPost2010Prop35
280
     0
102
RTVSPost2010PropOp35
 70
     1
102
RTVSPost2010Prop36
280
     0
102
RTVSPost2010PropOp36
 70
     1
102
RTVSPost2010Prop37
 90
       50
102
RTVSPost2010PropOp37
 70
     1
102
RTVSPost2010Prop38
140
0.0
102
RTVSPost2010PropOp38
 70
     1
102
RTVSPost2010Prop39
140
1.0
102
RTVSPost2010PropOp39
 70
     1
102
RTVSPost2010Prop40
 90
        0
102
RTVSPost2010PropOp40
 70
     1
102
RTVSPost2010Prop41ColorIndex
 90
       18
102
RTVSPost2010Prop41ColorRGB
 90
        0
102
RTVSPost2010PropOp41
 70
     1
102
RTVSPost2010Prop42
 90
       50
102
RTVSPost2010PropOp42
 70
     1
102
RTVSPost2010Prop43
 90
        3
102
RTVSPost2010PropOp43
 70
     1
102
RTVSPost2010Prop44ColorIndex
 90
        5
102
RTVSPost2010Prop44ColorRGB
 90
      255
102
RTVSPost2010PropOp44
 70
     1
102
RTVSPost2010Prop45
280
     0
102
RTVSPost2010PropOp45
 70
     1
102
RTVSPost2010Prop46
 90
       50
102
RTVSPost2010PropOp46
 70
     1
102
RTVSPost2010Prop47
 90
       50
102
RTVSPost2010PropOp47
 70
     1
102
RTVSPost2010Prop48
 90
       50
102
RTVSPost2010PropOp48
 70
     1
102
RTVSPost2010Prop49
280
     0
102
RTVSPost2010PropOp49
 70
     1
102
RTVSPost2010Prop50
 90
       50
102
RTVSPost2010PropOp50
 70
     1
102
RTVSPost2010Prop51ColorIndex
 90
      256
102
RTVSPost2010Prop51ColorRGB
 90
-16777216
102
RTVSPost2010PropOp51
 70
     0
102
RTVSPost2010Prop52
140
1.0
102
RTVSPost2010PropOp52
 70
     0
102
RTVSPost2010Prop53
 90
        2
102
RTVSPost2010PropOp53
 70
     1
102
RTVSPost2010Prop54
  1
strokes_ogs.tif
102
RTVSPost2010PropOp54
 70
     1
102
RTVSPost2010Prop55
280
     0
102
RTVSPost2010PropOp55
 70
     1
102
RTVSPost2010Prop56
140
1.0
102
RTVSPost2010PropOp56
 70
     1
102
RTVSPost2010Prop57
140
1.0
102
RTVSPost2010PropOp57
 70
     1
102
RTVSPropertyOp0
 70
     1
102
RTVSPropertyOp1
 70
     1
102
RTVSPropertyOp2
 70
     1
102
RTVSPropertyOp3
 70
     1
102
RTVSPropertyOp4
 70
     1
102
RTVSPropertyOp5
 70
     1
102
RTVSPropertyOp6
 70
     1
102
RTVSPropertyOp7
 70
     1
102
RTVSPropertyOp8
 70
     1
102
RTVSPropertyOp9
 70
     1
102
RTVSPropertyOp10
 70
     1
102
RTVSPropertyOp11
 70
     1
102
RTVSPropertyOp12
 70
     1
102
RTVSPropertyOp13
 70
     1
102
RTVSPropertyOp14
 70
     1
102
RTVSPropertyOp15
 70
     1
102
RTVSPropertyOp16
 70
     1
102
RTVSPropertyOp17
 70
     1
102
RTVSPropertyOp18
 70
     1
102
RTVSPropertyOp19
 70
     1
102
RTVSPropertyOp20
 70
     1
102
RTVSPropertyOp21
 70
     1
102
RTVSPropertyOp22
 70
     1
102
RTVSPropertyOp23
 70
     1
102
RTVSPropertyOp24
 70
     1
102
RTVSPropertyOp25
 70
     1
102
RTVSPropertyOp26
 70
     1
102
RTVSPropertyOp27
 70
     1
102
RTVSPropertyOp28
 70
     1
102
RTVSPropertyOp29
 70
     1
102
RTVSPropertyOp30
 70
     1
102
RTVSPropertyOp31
 70
     1
102
RTVSPropertyOp32
 70
     1
102
RTVSPropertyOp33
 70
     1
102
RTVSPropertyOp34
 70
     1
102
RTVSPropertyOp35
 70
     1
102
RTVSPropertyOp36
 70
     1
102
RTVSPropertyOp37
 70
     1
102
RTVSPropertyOp38
 70
     1
102
RTVSPropertyOp39
 70
     1
102
RTVSPropertyOp40
 70
     1
102
RTVSPropertyOp41
 70
     1
102
RTVSPropertyOp42
 70
     1
102
RTVSPropertyOp43
 70
     1
102
RTVSPropertyOp44
 70
     1
102
RTVSPropertyOp45
 70
     1
102
RTVSPropertyOp46
 70
     1
102
RTVSPropertyOp47
 70
     1
102
RTVSPropertyOp48
 70
     1
102
RTVSPropertyOp49
 70
     1
102
RTVSPropertyOp50
 70
     1
102
RTVSPropertyOp51
 70
     0
102
RTVSPropertyOp52
 70
     0
102
RTVSPropertyOp53
 70
     1
102
RTVSPropertyOp54
 70
     1
102
RTVSPropertyOp55
 70
     1
102
RTVSPropertyOp56
 70
     1
102
RTVSPropertyOp57
 70
     1
102
RTVSPropertyOp58
 70
     1
102
RTVSPropertyOp59
 70
     1
102
RTVSPropertyOp60
 70
     1
102
RTVSPropertyOp61
 70
     1
102
RTVSPropertyOp62
 70
     1
  0
XRECORD
  5
AD83
102
{ACAD_REACTORS
330
AD82
102
}
330
AD82
100
AcDbXrecord
280
     1
102
RTVSPost2010Prop28
280
     0
102
RTVSPost2010PropOp28
 70
     1
102
RTVSPost2010Prop29
280
     1
102
RTVSPost2010PropOp29
 70
     1
102
RTVSPost2010Prop30
280
     1
102
RTVSPost2010PropOp30
 70
     1
102
RTVSPost2010Prop31
280
     0
102
RTVSPost2010PropOp31
 70
     1
102
RTVSPost2010Prop32
280
     0
102
RTVSPost2010PropOp32
 70
     1
102
RTVSPost2010Prop33
280
     0
102
RTVSPost2010PropOp33
 70
     1
102
RTVSPost2010Prop34
280
     0
102
RTVSPost2010PropOp34
 70
     1
102
RTVSPost2010Prop35
280
     0
102
RTVSPost2010PropOp35
 70
     1
102
RTVSPost2010Prop36
280
     0
102
RTVSPost2010PropOp36
 70
     1
102
RTVSPost2010Prop37
 90
       50
102
RTVSPost2010PropOp37
 70
     1
102
RTVSPost2010Prop38
140
0.0
102
RTVSPost2010PropOp38
 70
     1
102
RTVSPost2010Prop39
140
1.0
102
RTVSPost2010PropOp39
 70
     1
102
RTVSPost2010Prop40
 90
        0
102
RTVSPost2010PropOp40
 70
     1
102
RTVSPost2010Prop41ColorIndex
 90
       18
102
RTVSPost2010Prop41ColorRGB
 90
        0
102
RTVSPost2010PropOp41
 70
     1
102
RTVSPost2010Prop42
 90
       50
102
RTVSPost2010PropOp42
 70
     1
102
RTVSPost2010Prop43
 90
        3
102
RTVSPost2010PropOp43
 70
     1
102
RTVSPost2010Prop44ColorIndex
 90
        5
102
RTVSPost2010Prop44ColorRGB
 90
      255
102
RTVSPost2010PropOp44
 70
     1
102
RTVSPost2010Prop45
280
     0
102
RTVSPost2010PropOp45
 70
     1
102
RTVSPost2010Prop46
 90
       50
102
RTVSPost2010PropOp46
 70
     1
102
RTVSPost2010Prop47
 90
       50
102
RTVSPost2010PropOp47
 70
     1
102
RTVSPost2010Prop48
 90
       50
102
RTVSPost2010PropOp48
 70
     1
102
RTVSPost2010Prop49
280
     0
102
RTVSPost2010PropOp49
 70
     1
102
RTVSPost2010Prop50
 90
       50
102
RTVSPost2010PropOp50
 70
     1
102
RTVSPost2010Prop51ColorIndex
 90
      256
102
RTVSPost2010Prop51ColorRGB
 90
-16777216
102
RTVSPost2010PropOp51
 70
     0
102
RTVSPost2010Prop52
140
1.0
102
RTVSPost2010PropOp52
 70
     0
102
RTVSPost2010Prop53
 90
        2
102
RTVSPost2010PropOp53
 70
     1
102
RTVSPost2010Prop54
  1
strokes_ogs.tif
102
RTVSPost2010PropOp54
 70
     1
102
RTVSPost2010Prop55
280
     0
102
RTVSPost2010PropOp55
 70
     1
102
RTVSPost2010Prop56
140
1.0
102
RTVSPost2010PropOp56
 70
     1
102
RTVSPost2010Prop57
140
1.0
102
RTVSPost2010PropOp57
 70
     1
102
RTVSPropertyOp0
 70
     1
102
RTVSPropertyOp1
 70
     1
102
RTVSPropertyOp2
 70
     1
102
RTVSPropertyOp3
 70
     1
102
RTVSPropertyOp4
 70
     1
102
RTVSPropertyOp5
 70
     1
102
RTVSPropertyOp6
 70
     1
102
RTVSPropertyOp7
 70
     1
102
RTVSPropertyOp8
 70
     1
102
RTVSPropertyOp9
 70
     1
102
RTVSPropertyOp10
 70
     1
102
RTVSPropertyOp11
 70
     1
102
RTVSPropertyOp12
 70
     1
102
RTVSPropertyOp13
 70
     1
102
RTVSPropertyOp14
 70
     1
102
RTVSPropertyOp15
 70
     1
102
RTVSPropertyOp16
 70
     1
102
RTVSPropertyOp17
 70
     1
102
RTVSPropertyOp18
 70
     1
102
RTVSPropertyOp19
 70
     1
102
RTVSPropertyOp20
 70
     1
102
RTVSPropertyOp21
 70
     1
102
RTVSPropertyOp22
 70
     1
102
RTVSPropertyOp23
 70
     1
102
RTVSPropertyOp24
 70
     1
102
RTVSPropertyOp25
 70
     1
102
RTVSPropertyOp26
 70
     1
102
RTVSPropertyOp27
 70
     1
102
RTVSPropertyOp28
 70
     1
102
RTVSPropertyOp29
 70
     1
102
RTVSPropertyOp30
 70
     1
102
RTVSPropertyOp31
 70
     1
102
RTVSPropertyOp32
 70
     1
102
RTVSPropertyOp33
 70
     1
102
RTVSPropertyOp34
 70
     1
102
RTVSPropertyOp35
 70
     1
102
RTVSPropertyOp36
 70
     1
102
RTVSPropertyOp37
 70
     1
102
RTVSPropertyOp38
 70
     1
102
RTVSPropertyOp39
 70
     1
102
RTVSPropertyOp40
 70
     1
102
RTVSPropertyOp41
 70
     1
102
RTVSPropertyOp42
 70
     1
102
RTVSPropertyOp43
 70
     1
102
RTVSPropertyOp44
 70
     1
102
RTVSPropertyOp45
 70
     1
102
RTVSPropertyOp46
 70
     1
102
RTVSPropertyOp47
 70
     1
102
RTVSPropertyOp48
 70
     1
102
RTVSPropertyOp49
 70
     1
102
RTVSPropertyOp50
 70
     1
102
RTVSPropertyOp51
 70
     0
102
RTVSPropertyOp52
 70
     0
102
RTVSPropertyOp53
 70
     1
102
RTVSPropertyOp54
 70
     1
102
RTVSPropertyOp55
 70
     1
102
RTVSPropertyOp56
 70
     1
102
RTVSPropertyOp57
 70
     1
102
RTVSPropertyOp58
 70
     1
102
RTVSPropertyOp59
 70
     1
102
RTVSPropertyOp60
 70
     1
102
RTVSPropertyOp61
 70
     1
102
RTVSPropertyOp62
 70
     1
  0
ENDSEC
  0
EOF
