  0
SECTION
  2
HEADER
  9
$ACADVER
  1
AC1015
  9
$ACADMAINTVER
 70
    20
  9
$DWGCODEPAGE
  3
ANSI_932
  9
$INSBASE
 10
0.0
 20
0.0
 30
0.0
  9
$EXTMIN
 10
9.9999975266385
 20
10.0
 30
0.0
  9
$EXTMAX
 10
650.7575467909207
 20
520.1023484055244
 30
0.0
  9
$LIMMIN
 10
0.0000015376081137
 20
-0.0000001931532552
  9
$LIMMAX
 10
792.0000015376082
 20
545.9999998068466
  9
$ORTHOMODE
 70
     1
  9
$REGENMODE
 70
     1
  9
$FILLMODE
 70
     1
  9
$QTEXTMODE
 70
     0
  9
$MIRRTEXT
 70
     1
  9
$LTSCALE
 40
1.0
  9
$ATTMODE
 70
     1
  9
$TEXTSIZE
 40
2.5
  9
$TRACEWID
 40
1.0
  9
$TEXTSTYLE
  7
STANDARD
  9
$CLAYER
  8
0
  9
$CELTYPE
  6
BYLAYER
  9
$CECOLOR
 62
   256
  9
$CELTSCALE
 40
1.0
  9
$DISPSILH
 70
     0
  9
$DIMSCALE
 40
1.0
  9
$DIMASZ
 40
3.0
  9
$DIMEXO
 40
1.0
  9
$DIMDLI
 40
10.0
  9
$DIMRND
 40
0.0
  9
$DIMDLE
 40
0.0
  9
$DIMEXE
 40
1.0
  9
$DIMTP
 40
0.0
  9
$DIMTM
 40
0.0
  9
$DIMTXT
 40
3.2
  9
$DIMCEN
 40
0.0
  9
$DIMTSZ
 40
0.0
  9
$DIMTOL
 70
     0
  9
$DIMLIM
 70
     0
  9
$DIMTIH
 70
     0
  9
$DIMTOH
 70
     0
  9
$DIMSE1
 70
     0
  9
$DIMSE2
 70
     0
  9
$DIMTAD
 70
     3
  9
$DIMZIN
 70
     8
  9
$DIMBLK
  1

  9
$DIMASO
 70
     1
  9
$DIMSHO
 70
     1
  9
$DIMPOST
  1

  9
$DIMAPOST
  1

  9
$DIMALT
 70
     0
  9
$DIMALTD
 70
     2
  9
$DIMALTF
 40
25.4
  9
$DIMLFAC
 40
1.0
  9
$DIMTOFL
 70
     1
  9
$DIMTVP
 40
0.0
  9
$DIMTIX
 70
     0
  9
$DIMSOXD
 70
     0
  9
$DIMSAH
 70
     1
  9
$DIMBLK1
  1
OPEN
  9
$DIMBLK2
  1
OPEN
  9
$DIMSTYLE
  2
STANDARD
  9
$DIMCLRD
 70
     0
  9
$DIMCLRE
 70
     0
  9
$DIMCLRT
 70
     0
  9
$DIMTFAC
 40
1.0
  9
$DIMGAP
 40
1.0
  9
$DIMJUST
 70
     0
  9
$DIMSD1
 70
     0
  9
$DIMSD2
 70
     0
  9
$DIMTOLJ
 70
     1
  9
$DIMTZIN
 70
     0
  9
$DIMALTZ
 70
     0
  9
$DIMALTTZ
 70
     0
  9
$DIMUPT
 70
     0
  9
$DIMDEC
 70
     3
  9
$DIMTDEC
 70
     3
  9
$DIMALTU
 70
     2
  9
$DIMALTTD
 70
     2
  9
$DIMTXSTY
  7
STANDARD
  9
$DIMAUNIT
 70
     0
  9
$DIMADEC
 70
     0
  9
$DIMALTRND
 40
0.0
  9
$DIMAZIN
 70
     0
  9
$DIMDSEP
 70
    46
  9
$DIMATFIT
 70
     3
  9
$DIMFRAC
 70
     0
  9
$DIMLDRBLK
  1
OPEN
  9
$DIMLUNIT
 70
     2
  9
$DIMLWD
 70
    -2
  9
$DIMLWE
 70
    -2
  9
$DIMTMOVE
 70
     0
  9
$LUNITS
 70
     2
  9
$LUPREC
 70
     4
  9
$SKETCHINC
 40
1.0
  9
$FILLETRAD
 40
3.0
  9
$AUNITS
 70
     0
  9
$AUPREC
 70
     0
  9
$MENU
  1
.
  9
$ELEVATION
 40
0.0
  9
$PELEVATION
 40
0.0
  9
$THICKNESS
 40
0.0
  9
$LIMCHECK
 70
     0
  9
$CHAMFERA
 40
10.0
  9
$CHAMFERB
 40
10.0
  9
$CHAMFERC
 40
20.0
  9
$CHAMFERD
 40
0.0
  9
$SKPOLY
 70
     0
  9
$TDCREATE
 40
2454526.717009005
  9
$TDUCREATE
 40
2454526.342009005
  9
$TDUPDATE
 40
2457192.688685972
  9
$TDUUPDATE
 40
2457192.313685972
  9
$TDINDWG
 40
0.1247308333
  9
$TDUSRTIMER
 40
0.1247308218
  9
$USRTIMER
 70
     1
  9
$ANGBASE
 50
0.0
  9
$ANGDIR
 70
     0
  9
$PDMODE
 70
     0
  9
$PDSIZE
 40
0.0
  9
$PLINEWID
 40
0.0
  9
$SPLFRAME
 70
     0
  9
$SPLINETYPE
 70
     6
  9
$SPLINESEGS
 70
     8
  9
$HANDSEED
  5
4053
  9
$SURFTAB1
 70
     6
  9
$SURFTAB2
 70
     6
  9
$SURFTYPE
 70
     6
  9
$SURFU
 70
     6
  9
$SURFV
 70
     6
  9
$UCSBASE
  2

  9
$UCSNAME
  2

  9
$UCSORG
 10
0.0
 20
0.0
 30
0.0
  9
$UCSXDIR
 10
1.0
 20
0.0
 30
0.0
  9
$UCSYDIR
 10
0.0
 20
1.0
 30
0.0
  9
$UCSORTHOREF
  2

  9
$UCSORTHOVIEW
 70
     0
  9
$UCSORGTOP
 10
0.0
 20
0.0
 30
0.0
  9
$UCSORGBOTTOM
 10
0.0
 20
0.0
 30
0.0
  9
$UCSORGLEFT
 10
0.0
 20
0.0
 30
0.0
  9
$UCSORGRIGHT
 10
0.0
 20
0.0
 30
0.0
  9
$UCSORGFRONT
 10
0.0
 20
0.0
 30
0.0
  9
$UCSORGBACK
 10
0.0
 20
0.0
 30
0.0
  9
$PUCSBASE
  2

  9
$PUCSNAME
  2

  9
$PUCSORG
 10
0.0
 20
0.0
 30
0.0
  9
$PUCSXDIR
 10
1.0
 20
0.0
 30
0.0
  9
$PUCSYDIR
 10
0.0
 20
1.0
 30
0.0
  9
$PUCSORTHOREF
  2

  9
$PUCSORTHOVIEW
 70
     0
  9
$PUCSORGTOP
 10
0.0
 20
0.0
 30
0.0
  9
$PUCSORGBOTTOM
 10
0.0
 20
0.0
 30
0.0
  9
$PUCSORGLEFT
 10
0.0
 20
0.0
 30
0.0
  9
$PUCSORGRIGHT
 10
0.0
 20
0.0
 30
0.0
  9
$PUCSORGFRONT
 10
0.0
 20
0.0
 30
0.0
  9
$PUCSORGBACK
 10
0.0
 20
0.0
 30
0.0
  9
$USERI1
 70
     0
  9
$USERI2
 70
     0
  9
$USERI3
 70
     0
  9
$USERI4
 70
     0
  9
$USERI5
 70
     0
  9
$USERR1
 40
0.0
  9
$USERR2
 40
0.0
  9
$USERR3
 40
0.0
  9
$USERR4
 40
0.0
  9
$USERR5
 40
0.0
  9
$WORLDVIEW
 70
     1
  9
$SHADEDGE
 70
     3
  9
$SHADEDIF
 70
    70
  9
$TILEMODE
 70
     1
  9
$MAXACTVP
 70
    48
  9
$PINSBASE
 10
0.0
 20
0.0
 30
0.0
  9
$PLIMCHECK
 70
     0
  9
$PEXTMIN
 10
1.000000000000000E+20
 20
1.000000000000000E+20
 30
1.000000000000000E+20
  9
$PEXTMAX
 10
-1.000000000000000E+20
 20
-1.000000000000000E+20
 30
-1.000000000000000E+20
  9
$PLIMMIN
 10
0.0
 20
0.0
  9
$PLIMMAX
 10
420.0
 20
297.0
  9
$UNITMODE
 70
     0
  9
$VISRETAIN
 70
     1
  9
$PLINEGEN
 70
     0
  9
$PSLTSCALE
 70
     1
  9
$TREEDEPTH
 70
  3020
  9
$CMLSTYLE
  2
STANDARD
  9
$CMLJUST
 70
     0
  9
$CMLSCALE
 40
20.0
  9
$PROXYGRAPHICS
 70
     1
  9
$MEASUREMENT
 70
     0
  9
$CELWEIGHT
370
    -1
  9
$ENDCAPS
280
     0
  9
$JOINSTYLE
280
     0
  9
$LWDISPLAY
290
     0
  9
$INSUNITS
 70
     0
  9
$HYPERLINKBASE
  1

  9
$STYLESHEET
  1

  9
$XEDIT
290
     1
  9
$CEPSNTYPE
380
     0
  9
$PSTYLEMODE
290
     1
  9
$FINGERPRINTGUID
  2
{E5992B40-81F6-472E-98CD-0BD5C13FBFF8}
  9
$VERSIONGUID
  2
{3EFEE257-BDC5-4206-93FA-5419BCC1CC63}
  9
$EXTNAMES
290
     1
  9
$PSVPSCALE
 40
0.0
  9
$OLESTARTUP
290
     0
  0
ENDSEC
  0
SECTION
  2
CLASSES
  0
CLASS
  1
ACDBDICTIONARYWDFLT
  2
AcDbDictionaryWithDefault
  3
ObjectDBX Classes
 90
        0
280
     0
281
     0
  0
CLASS
  1
ACDBPLACEHOLDER
  2
AcDbPlaceHolder
  3
ObjectDBX Classes
 90
        0
280
     0
281
     0
  0
CLASS
  1
LAYOUT
  2
AcDbLayout
  3
ObjectDBX Classes
 90
        0
280
     0
281
     0
  0
CLASS
  1
DICTIONARYVAR
  2
AcDbDictionaryVar
  3
ObjectDBX Classes
 90
        0
280
     0
281
     0
  0
CLASS
  1
MATERIAL
  2
AcDbMaterial
  3
ObjectDBX Classes
 90
     1153
280
     0
281
     0
  0
CLASS
  1
VISUALSTYLE
  2
AcDbVisualStyle
  3
ObjectDBX Classes
 90
     4095
280
     0
281
     0
  0
CLASS
  1
TABLESTYLE
  2
AcDbTableStyle
  3
ObjectDBX Classes
 90
     4095
280
     0
281
     0
  0
CLASS
  1
SCALE
  2
AcDbScale
  3
ObjectDBX Classes
 90
     1153
280
     0
281
     0
  0
CLASS
  1
MLEADERSTYLE
  2
AcDbMLeaderStyle
  3
ACDB_MLEADERSTYLE_CLASS
 90
     4095
280
     0
281
     0
  0
CLASS
  1
ACDBSECTIONVIEWSTYLE
  2
AcDbSectionViewStyle
  3
ObjectDBX Classes
 90
     1025
280
     0
281
     0
  0
CLASS
  1
ACDBDETAILVIEWSTYLE
  2
AcDbDetailViewStyle
  3
ObjectDBX Classes
 90
     1025
280
     0
281
     0
  0
CLASS
  1
CELLSTYLEMAP
  2
AcDbCellStyleMap
  3
ObjectDBX Classes
 90
     1152
280
     0
281
     0
  0
ENDSEC
  0
SECTION
  2
TABLES
  0
TABLE
  2
VPORT
  5
8
330
0
100
AcDbSymbolTable
 70
     1
  0
VPORT
  5
3F9D
330
8
100
AcDbSymbolTableRecord
100
AcDbViewportTableRecord
  2
*ACTIVE
 70
     0
 10
0.0
 20
0.0
 11
1.0
 21
1.0
 12
526.7254423321258
 22
265.0436106879802
 13
0.0
 23
0.0
 14
10.0
 24
10.0
 15
10.0
 25
10.0
 16
0.0
 26
0.0
 36
1.0
 17
0.0
 27
0.0
 37
0.0
 40
514.1527332085749
 41
2.35006605019815
 42
50.0
 43
0.0
 44
0.0
 50
0.0
 51
0.0
 71
     0
 72
   100
 73
     1
 74
     0
 75
     0
 76
     0
 77
     0
 78
     0
281
     0
 65
     1
110
0.0
120
0.0
130
0.0
111
1.0
121
0.0
131
0.0
112
0.0
122
1.0
132
0.0
 79
     0
146
0.0
1001
ACAD_NAV_VCDISPLAY
1070
     3
  0
ENDTAB
  0
TABLE
  2
LTYPE
  5
5
330
0
100
AcDbSymbolTable
 70
     4
  0
LTYPE
  5
12
330
5
100
AcDbSymbolTableRecord
100
AcDbLinetypeTableRecord
  2
BYBLOCK
 70
     0
  3

 72
    65
 73
     0
 40
0.0
  0
LTYPE
  5
13
330
5
100
AcDbSymbolTableRecord
100
AcDbLinetypeTableRecord
  2
BYLAYER
 70
     0
  3

 72
    65
 73
     0
 40
0.0
  0
LTYPE
  5
14
330
5
100
AcDbSymbolTableRecord
100
AcDbLinetypeTableRecord
  2
CONTINUOUS
 70
     0
  3
Solid line
 72
    65
 73
     0
 40
0.0
  0
LTYPE
  5
4B
330
5
100
AcDbSymbolTableRecord
100
AcDbLinetypeTableRecord
  2
DASHED
 70
     0
  3
Dashed __ __ __ __ __ __ __ __ __ __ __ __ __ _
 72
    65
 73
     2
 40
19.04999999999999
 49
12.7
 74
     0
 49
-6.349999999999998
 74
     0
  0
LTYPE
  5
4C
330
5
100
AcDbSymbolTableRecord
100
AcDbLinetypeTableRecord
  2
CENTER
 70
     0
  3
Center ____ _ ____ _ ____ _ ____ _ ____ _ ____
 72
    65
 73
     4
 40
50.8
 49
31.75
 74
     0
 49
-6.349999999999998
 74
     0
 49
6.349999999999998
 74
     0
 49
-6.349999999999998
 74
     0
  0
LTYPE
  5
4D
330
5
100
AcDbSymbolTableRecord
100
AcDbLinetypeTableRecord
  2
PHANTOM
 70
     0
  3
Phantom ______  __  __  ______  __  __  ______
 72
    65
 73
     6
 40
63.5
 49
31.75
 74
     0
 49
-6.349999999999998
 74
     0
 49
6.349999999999998
 74
     0
 49
-6.349999999999998
 74
     0
 49
6.349999999999998
 74
     0
 49
-6.349999999999998
 74
     0
  0
ENDTAB
  0
TABLE
  2
LAYER
  5
2
330
0
100
AcDbSymbolTable
 70
     8
  0
LAYER
  5
E
102
{ACAD_XDICTIONARY
360
3FF7
102
}
330
2
100
AcDbSymbolTableRecord
100
AcDbLayerTableRecord
  2
0
 70
     0
 62
     7
  6
CONTINUOUS
370
    -3
390
3FA6
  0
LAYER
  5
4E
102
{ACAD_XDICTIONARY
360
3FF9
102
}
330
2
100
AcDbSymbolTableRecord
100
AcDbLayerTableRecord
  2
4
 70
     0
 62
     1
  6
CENTER
370
    -3
390
3FA6
  0
LAYER
  5
4F
102
{ACAD_XDICTIONARY
360
3FFB
102
}
330
2
100
AcDbSymbolTableRecord
100
AcDbLayerTableRecord
  2
5
 70
     0
 62
     6
  6
PHANTOM
370
    -3
390
3FA6
  0
LAYER
  5
50
102
{ACAD_XDICTIONARY
360
3FFD
102
}
330
2
100
AcDbSymbolTableRecord
100
AcDbLayerTableRecord
  2
1
 70
     0
 62
     7
  6
CONTINUOUS
370
    -3
390
3FA6
  0
LAYER
  5
51
102
{ACAD_XDICTIONARY
360
3FFF
102
}
330
2
100
AcDbSymbolTableRecord
100
AcDbLayerTableRecord
  2
2
 70
     0
 62
     4
  6
CONTINUOUS
370
    -3
390
3FA6
  0
LAYER
  5
52
102
{ACAD_XDICTIONARY
360
4001
102
}
330
2
100
AcDbSymbolTableRecord
100
AcDbLayerTableRecord
  2
3
 70
     0
 62
     2
  6
DASHED
370
    -3
390
3FA6
  0
LAYER
  5
53
102
{ACAD_XDICTIONARY
360
4003
102
}
330
2
100
AcDbSymbolTableRecord
100
AcDbLayerTableRecord
  2
6
 70
     0
 62
     5
  6
CONTINUOUS
370
    -3
390
3FA6
  0
LAYER
  5
54
102
{ACAD_XDICTIONARY
360
4005
102
}
330
2
100
AcDbSymbolTableRecord
100
AcDbLayerTableRecord
  2
7
 70
     0
 62
     3
  6
CONTINUOUS
370
    -3
390
3FA6
  0
ENDTAB
  0
TABLE
  2
STYLE
  5
3
330
0
100
AcDbSymbolTable
 70
     1
  0
STYLE
  5
F
330
3
100
AcDbSymbolTableRecord
100
AcDbTextStyleTableRecord
  2
STANDARD
 70
     0
 40
0.0
 41
1.0
 50
0.0
 71
     0
 42
2.5
  3
simplex.shx
  4

  0
ENDTAB
  0
TABLE
  2
VIEW
  5
6
330
0
100
AcDbSymbolTable
 70
     0
  0
ENDTAB
  0
TABLE
  2
UCS
  5
7
330
0
100
AcDbSymbolTable
 70
     0
  0
ENDTAB
  0
TABLE
  2
APPID
  5
9
330
0
100
AcDbSymbolTable
 70
     5
  0
APPID
  5
10
330
9
100
AcDbSymbolTableRecord
100
AcDbRegAppTableRecord
  2
ACAD
 70
     0
  0
APPID
  5
3E
330
9
100
AcDbSymbolTableRecord
100
AcDbRegAppTableRecord
  2
CONTENTTABDATA
 70
     0
  0
APPID
  5
3F
330
9
100
AcDbSymbolTableRecord
100
AcDbRegAppTableRecord
  2
CONTENTCURRENTTAB
 70
     0
  0
APPID
  5
4011
330
9
100
AcDbSymbolTableRecord
100
AcDbRegAppTableRecord
  2
ACAD_NAV_VCDISPLAY
 70
     0
  0
APPID
  5
404A
330
9
100
AcDbSymbolTableRecord
100
AcDbRegAppTableRecord
  2
ACAD_MLEADERVER
 70
     0
  0
ENDTAB
  0
TABLE
  2
DIMSTYLE
  5
A
330
0
100
AcDbSymbolTable
 70
     1
100
AcDbDimStyleTable
 71
     0
  0
DIMSTYLE
105
1D
330
A
100
AcDbSymbolTableRecord
100
AcDbDimStyleTableRecord
  2
STANDARD
 70
     0
 41
3.0
 42
1.0
 43
10.0
 44
1.0
 73
     0
 74
     0
 77
     3
 78
     8
140
3.2
141
0.0
147
1.0
172
     1
173
     1
271
     3
272
     3
340
F
341
2E
343
2E
344
2E
  0
ENDTAB
  0
TABLE
  2
BLOCK_RECORD
  5
1
330
0
100
AcDbSymbolTable
 70
     1
  0
BLOCK_RECORD
  5
18
102
{ACAD_XDICTIONARY
360
3FA0
102
}
330
1
100
AcDbSymbolTableRecord
100
AcDbBlockTableRecord
  2
*MODEL_SPACE
340
3FF4
  0
BLOCK_RECORD
  5
15
102
{ACAD_XDICTIONARY
360
3F9E
102
}
330
1
100
AcDbSymbolTableRecord
100
AcDbBlockTableRecord
  2
*PAPER_SPACE
340
3FF5
  0
BLOCK_RECORD
  5
2E
330
1
100
AcDbSymbolTableRecord
100
AcDbBlockTableRecord
  2
_OPEN
340
0
  0
ENDTAB
  0
ENDSEC
  0
SECTION
  2
BLOCKS
  0
BLOCK
  5
19
330
18
100
AcDbEntity
  8
0
100
AcDbBlockBegin
  2
*MODEL_SPACE
 70
     0
 10
0.0
 20
0.0
 30
0.0
  3
*MODEL_SPACE
  1

  0
ENDBLK
  5
1A
330
18
100
AcDbEntity
  8
0
100
AcDbBlockEnd
  0
BLOCK
  5
16
330
15
100
AcDbEntity
 67
     1
  8
0
100
AcDbBlockBegin
  2
*PAPER_SPACE
 70
     0
 10
0.0
 20
0.0
 30
0.0
  3
*PAPER_SPACE
  1

  0
ENDBLK
  5
17
330
15
100
AcDbEntity
 67
     1
  8
0
100
AcDbBlockEnd
  0
BLOCK
  5
2F
330
2E
100
AcDbEntity
  8
0
100
AcDbBlockBegin
  2
_OPEN
 70
     0
 10
0.0
 20
0.0
 30
0.0
  3
_OPEN
  1

  0
LINE
  5
30
330
2E
100
AcDbEntity
  8
0
  6
ByBlock
 62
     0
100
AcDbLine
 10
-1.0
 20
0.1666666666666666
 30
0.0
 11
0.0
 21
0.0
 31
0.0
  0
LINE
  5
31
330
2E
100
AcDbEntity
  8
0
  6
ByBlock
 62
     0
100
AcDbLine
 10
0.0
 20
0.0
 30
0.0
 11
-1.0
 21
-0.1666666666666666
 31
0.0
  0
LINE
  5
32
330
2E
100
AcDbEntity
  8
0
  6
ByBlock
 62
     0
100
AcDbLine
 10
0.0
 20
0.0
 30
0.0
 11
-1.0
 21
0.0
 31
0.0
  0
ENDBLK
  5
33
330
2E
100
AcDbEntity
  8
0
100
AcDbBlockEnd
  0
ENDSEC
  0
SECTION
  2
ENTITIES
  0
TEXT
  5
63
330
18
100
AcDbEntity
  8
4
  6
CENTER
 48
0.25
100
AcDbText
 10
23.97950852663849
 20
10.0
 30
0.0
 40
1.399999999999999
  1
4
100
AcDbText
  0
TEXT
  5
64
330
18
100
AcDbEntity
  8
7
  6
Continuous
 48
0.25
100
AcDbText
 10
9.999997526638502
 20
26.0000007607689
 30
0.0
 40
3.0
  1
CODE No.9835
100
AcDbText
  0
TEXT
  5
65
330
18
100
AcDbEntity
  8
7
  6
Continuous
 48
0.25
100
AcDbText
 10
9.999997526638502
 20
18.00000076076889
 30
0.0
 40
3.0
  1
TYPE No.607X-N
100
AcDbText
  0
TEXT
  5
66
330
18
100
AcDbEntity
  8
1
  6
Continuous
 48
0.25
100
AcDbText
 10
9.999997526638502
 20
10.00000076076889
 30
0.0
 40
1.399999999999999
  1
LAYER
100
AcDbText
  0
TEXT
  5
67
330
18
100
AcDbEntity
  8
2
  6
Continuous
 48
0.25
100
AcDbText
 10
19.9795085266385
 20
10.0
 30
0.0
 40
1.399999999999999
  1
2
100
AcDbText
  0
TEXT
  5
68
330
18
100
AcDbEntity
  8
3
  6
DASHED
 48
0.25
100
AcDbText
 10
21.9795085266385
 20
10.0
 30
0.0
 40
1.399999999999999
  1
3
100
AcDbText
  0
TEXT
  5
69
330
18
100
AcDbEntity
  8
1
  6
Continuous
 48
0.25
100
AcDbText
 10
17.9795085266385
 20
10.0
 30
0.0
 40
1.399999999999999
  1
1
100
AcDbText
  0
TEXT
  5
6A
330
18
100
AcDbEntity
  8
5
  6
PHANTOM
 48
0.25
100
AcDbText
 10
25.9795085266385
 20
10.0
 30
0.0
 40
1.399999999999999
  1
5
100
AcDbText
  0
TEXT
  5
6B
330
18
100
AcDbEntity
  8
6
  6
Continuous
 48
0.25
100
AcDbText
 10
27.9795085266385
 20
10.0
 30
0.0
 40
1.399999999999999
  1
6
100
AcDbText
  0
TEXT
  5
6C
330
18
100
AcDbEntity
  8
7
  6
Continuous
 48
0.25
100
AcDbText
 10
29.9795085266385
 20
10.0
 30
0.0
 40
1.399999999999999
  1
7
100
AcDbText
  0
ARC
  5
33D0
330
18
100
AcDbEntity
  8
1
  6
Continuous
100
AcDbCircle
 10
239.8588304417013
 20
252.7624119305174
 30
0.0
 40
21.0
100
AcDbArc
 50
186.0519919999999
 51
353.948008
  0
LINE
  5
33E4
330
18
100
AcDbEntity
  8
1
  6
Continuous
100
AcDbLine
 10
239.8588304417013
 20
258.5359149305174
 30
0.0
 11
234.8588304417013
 21
255.6491639305174
 31
0.0
  0
LINE
  5
33E5
330
18
100
AcDbEntity
  8
1
  6
Continuous
100
AcDbLine
 10
239.8588304417013
 20
246.9889099305174
 30
0.0
 11
234.8588304417013
 21
249.8756609305174
 31
0.0
  0
CIRCLE
  5
33E6
330
18
100
AcDbEntity
  8
1
  6
Continuous
100
AcDbCircle
 10
239.8588304417013
 20
252.7624119305174
 30
0.0
 40
11.5
  0
ARC
  5
33E7
330
18
100
AcDbEntity
  8
1
  6
Continuous
100
AcDbCircle
 10
239.8588304417013
 20
252.7624119305174
 30
0.0
 40
23.0
100
AcDbArc
 50
161.9808530000002
 51
18.01914699999977
  0
ARC
  5
33E8
330
18
100
AcDbEntity
  8
1
  6
Continuous
100
AcDbCircle
 10
239.8588304417013
 20
252.7624119305174
 30
0.0
 40
24.0
100
AcDbArc
 50
157.096443000001
 51
22.90355699999894
  0
ARC
  5
33E9
330
18
100
AcDbEntity
  8
1
  6
Continuous
100
AcDbCircle
 10
239.8588304417013
 20
252.7624119305174
 30
0.0
 40
50.0
100
AcDbArc
 50
120.8860549999968
 51
59.11394500000312
  0
LINE
  5
33EA
330
18
100
AcDbEntity
  8
4
  6
CENTER
 48
0.7
100
AcDbLine
 10
182.8588304417013
 20
252.7624119305174
 30
0.0
 11
296.8588304417013
 21
252.7624119305174
 31
0.0
  0
CIRCLE
  5
33EB
330
18
100
AcDbEntity
  8
1
  6
Continuous
100
AcDbCircle
 10
239.8588304417013
 20
252.7624119305174
 30
0.0
 40
12.0
  0
ARC
  5
33EC
330
18
100
AcDbEntity
  8
1
  6
Continuous
100
AcDbCircle
 10
229.6088304417013
 20
323.3931849305174
 30
0.0
 40
28.869234
100
AcDbArc
 50
70.21694499999981
 51
83.21353999999772
  0
LINE
  5
33ED
330
18
100
AcDbEntity
  8
1
  6
Continuous
100
AcDbLine
 10
232.8052464417013
 20
352.2624189305174
 30
0.0
 11
246.9124144417013
 21
352.2624189305174
 31
0.0
  0
LINE
  5
33EE
330
18
100
AcDbEntity
  8
1
  6
Continuous
100
AcDbLine
 10
247.6375844417012
 20
338.9938009305174
 30
0.0
 11
232.0800804417012
 21
338.9938009305174
 31
0.0
  0
LINE
  5
33EF
330
18
100
AcDbEntity
  8
1
  6
Continuous
100
AcDbLine
 10
233.6088304417013
 20
346.4133949305174
 30
0.0
 11
246.1088304417013
 21
346.4133949305174
 31
0.0
  0
LINE
  5
33F0
330
18
100
AcDbEntity
  8
1
  6
Continuous
100
AcDbLine
 10
233.6088274417013
 20
350.5585829305173
 30
0.0
 11
246.1088344417013
 21
350.5585829305173
 31
0.0
  0
LINE
  5
33F1
330
18
100
AcDbEntity
  8
1
  6
Continuous
100
AcDbLine
 10
277.3309664417013
 20
334.7624119305174
 30
0.0
 11
202.3866944417013
 21
334.7624119305174
 31
0.0
  0
LINE
  5
33F2
330
18
100
AcDbEntity
  8
1
  6
Continuous
100
AcDbLine
 10
218.9758714417013
 20
250.5483639305174
 30
0.0
 11
213.8755504417013
 21
298.6547079305174
 31
0.0
  0
LINE
  5
33F3
330
18
100
AcDbEntity
  8
1
  6
Continuous
100
AcDbLine
 10
234.8588304417013
 20
249.8756609305174
 30
0.0
 11
234.8588304417013
 21
255.6491639305174
 31
0.0
  0
LINE
  5
33F4
330
18
100
AcDbEntity
  8
1
  6
Continuous
100
AcDbLine
 10
196.8588304417013
 20
310.7624119305175
 30
0.0
 11
196.8588304417013
 21
321.0303609305173
 31
0.0
  0
LINE
  5
33F5
330
18
100
AcDbEntity
  8
1
  6
Continuous
100
AcDbLine
 10
213.8588304417013
 20
298.9709999305174
 30
0.0
 11
213.8588304417013
 21
328.7624119305174
 31
0.0
  0
LINE
  5
33F6
330
18
100
AcDbEntity
  8
1
  6
Continuous
100
AcDbLine
 10
207.4620304417013
 20
307.7624119305174
 30
0.0
 11
199.8588304417013
 21
307.7624119305174
 31
0.0
  0
LINE
  5
33F7
330
18
100
AcDbEntity
  8
1
  6
Continuous
100
AcDbLine
 10
199.8588304417013
 20
307.7624119305174
 30
0.0
 11
206.1493304417012
 21
307.7624119305174
 31
0.0
  0
ARC
  5
33F8
330
18
100
AcDbEntity
  8
1
  6
Continuous
100
AcDbCircle
 10
199.8588304417013
 20
310.7624119305175
 30
0.0
 40
3.0
100
AcDbArc
 50
180.0
 51
270.0
  0
ARC
  5
33FC
330
18
100
AcDbEntity
  8
1
  6
Continuous
100
AcDbCircle
 10
-86.14116955829876
 20
300.0373399305173
 30
0.0
 40
300.0
100
AcDbArc
 50
0.0
 51
1.07405399999971
  0
ARC
  5
33FD
330
18
100
AcDbEntity
  8
1
  6
Continuous
100
AcDbCircle
 10
216.8588304417013
 20
298.9709999305174
 30
0.0
 40
3.0
100
AcDbArc
 50
180.0
 51
186.0519919999999
  0
ARC
  5
33FE
330
18
100
AcDbEntity
  8
1
  6
Continuous
100
AcDbCircle
 10
205.2749454417013
 20
291.1070949305174
 30
0.0
 40
16.917822
100
AcDbArc
 50
59.91230199999854
 51
76.3116500000039
  0
ARC
  5
33FF
330
18
100
AcDbEntity
  8
1
  6
Continuous
100
AcDbCircle
 10
207.4620304417013
 20
300.0868159305174
 30
0.0
 40
7.675596
100
AcDbArc
 50
76.3116500000039
 51
90.0
  0
ARC
  5
3400
330
18
100
AcDbEntity
  8
1
  6
Continuous
100
AcDbCircle
 10
213.7061394417013
 20
305.6588679305174
 30
0.0
 40
0.1
100
AcDbArc
 50
1.07405399999971
 51
59.91230199999854
  0
LINE
  5
3415
330
18
100
AcDbEntity
  8
1
  6
Continuous
100
AcDbLine
 10
196.8588304417013
 20
321.7624119305174
 30
0.0
 11
212.8588304417013
 21
321.7624119305174
 31
0.0
  0
LINE
  5
3416
330
18
100
AcDbEntity
  8
1
  6
Continuous
100
AcDbLine
 10
196.8588304417013
 20
327.7624119305174
 30
0.0
 11
212.8588304417013
 21
327.7624119305174
 31
0.0
  0
LINE
  5
3417
330
18
100
AcDbEntity
  8
1
  6
Continuous
100
AcDbLine
 10
189.8588304417013
 20
352.7624119305174
 30
0.0
 11
231.4088304417012
 21
352.7624119305174
 31
0.0
  0
LINE
  5
3418
330
18
100
AcDbEntity
  8
1
  6
Continuous
100
AcDbLine
 10
231.5800774417013
 20
347.7624119305175
 30
0.0
 11
189.8588304417013
 21
347.7624119305175
 31
0.0
  0
ARC
  5
3419
330
18
100
AcDbEntity
  8
1
  6
Continuous
100
AcDbCircle
 10
206.8588304417013
 20
338.7624119305174
 30
0.0
 40
6.0
100
AcDbArc
 50
180.0
 51
221.8103149999995
  0
LINE
  5
341A
330
18
100
AcDbEntity
  8
1
  6
Continuous
100
AcDbLine
 10
195.8588304417013
 20
326.7624119305175
 30
0.0
 11
195.8588304417013
 21
322.7624119305175
 31
0.0
  0
ARC
  5
341B
330
18
100
AcDbEntity
  8
1
  6
Continuous
100
AcDbCircle
 10
195.8588304417013
 20
321.0303609305173
 30
0.0
 40
1.0
100
AcDbArc
 50
0.0
 51
60.00000000000006
  0
ARC
  5
341C
330
18
100
AcDbEntity
  8
1
  6
Continuous
100
AcDbCircle
 10
196.8588304417013
 20
322.7624119305175
 30
0.0
 40
1.0
100
AcDbArc
 50
240.0
 51
270.0
  0
ARC
  5
341D
330
18
100
AcDbEntity
  8
1
  6
Continuous
100
AcDbCircle
 10
196.8588304417013
 20
322.7624119305175
 30
0.0
 40
1.0
100
AcDbArc
 50
180.0
 51
240.0
  0
ARC
  5
341E
330
18
100
AcDbEntity
  8
1
  6
Continuous
100
AcDbCircle
 10
195.8588304417013
 20
328.4944629305174
 30
0.0
 40
1.0
100
AcDbArc
 50
299.9999999999999
 51
0.0
  0
ARC
  5
341F
330
18
100
AcDbEntity
  8
1
  6
Continuous
100
AcDbCircle
 10
202.8588304417013
 20
328.7624119305174
 30
0.0
 40
6.0
100
AcDbArc
 50
90.0
 51
180.0
  0
ARC
  5
3420
330
18
100
AcDbEntity
  8
1
  6
Continuous
100
AcDbCircle
 10
196.8588304417013
 20
326.7624119305175
 30
0.0
 40
1.0
100
AcDbArc
 50
119.9999999999999
 51
180.0
  0
ARC
  5
3421
330
18
100
AcDbEntity
  8
1
  6
Continuous
100
AcDbCircle
 10
196.8588304417013
 20
326.7624119305175
 30
0.0
 40
1.0
100
AcDbArc
 50
90.0
 51
119.9999999999999
  0
LINE
  5
3422
330
18
100
AcDbEntity
  8
1
  6
Continuous
100
AcDbLine
 10
196.8588304417013
 20
328.4944629305174
 30
0.0
 11
196.8588304417013
 21
328.7624119305174
 31
0.0
  0
LINE
  5
3423
330
18
100
AcDbEntity
  8
4
  6
CENTER
 48
0.2
100
AcDbLine
 10
200.8588304417013
 20
356.7624119305174
 30
0.0
 11
200.8588304417013
 21
343.7624119305175
 31
0.0
  0
LINE
  5
3424
330
18
100
AcDbEntity
  8
1
  6
Continuous
100
AcDbLine
 10
189.8588304417013
 20
352.7624119305174
 30
0.0
 11
189.8588304417013
 21
346.4133949305174
 31
0.0
  0
LINE
  5
3425
330
18
100
AcDbEntity
  8
1
  6
Continuous
100
AcDbLine
 10
189.8588304417013
 20
346.4133949305174
 30
0.0
 11
200.8588304417013
 21
338.9938009305174
 31
0.0
  0
LINE
  5
3426
330
18
100
AcDbEntity
  8
1
  6
Continuous
100
AcDbLine
 10
200.8588304417013
 20
338.7624119305174
 30
0.0
 11
200.8588304417013
 21
344.7624119305174
 31
0.0
  0
ARC
  5
3427
330
18
100
AcDbEntity
  8
1
  6
Continuous
100
AcDbCircle
 10
197.8588304417013
 20
344.7624119305174
 30
0.0
 40
3.0
100
AcDbArc
 50
0.0
 51
90.0
  0
ARC
  5
3428
330
18
100
AcDbEntity
  8
1
  6
Continuous
100
AcDbCircle
 10
212.8588304417013
 20
320.7624119305175
 30
0.0
 40
1.0
100
AcDbArc
 50
0.0
 51
90.0
  0
ARC
  5
3429
330
18
100
AcDbEntity
  8
1
  6
Continuous
100
AcDbCircle
 10
212.8588304417013
 20
328.7624119305174
 30
0.0
 40
1.0
100
AcDbArc
 50
270.0
 51
0.0
  0
ARC
  5
342A
330
18
100
AcDbEntity
  8
1
  6
Continuous
100
AcDbCircle
 10
219.8588304417013
 20
328.7624119305174
 30
0.0
 40
6.0
100
AcDbArc
 50
90.0
 51
180.0
  0
LINE
  5
342C
330
18
100
AcDbEntity
  8
1
  6
Continuous
100
AcDbLine
 10
231.5800804417012
 20
346.9724179305174
 30
0.0
 11
231.5800804417012
 21
340.4938009305174
 31
0.0
  0
ARC
  5
342D
330
18
100
AcDbEntity
  8
1
  6
Continuous
100
AcDbCircle
 10
230.5800804417013
 20
339.9938009305174
 30
0.0
 40
1.0
100
AcDbArc
 50
270.0
 51
0.0
  0
ARC
  5
342E
330
18
100
AcDbEntity
  8
1
  6
Continuous
100
AcDbCircle
 10
233.6088304417013
 20
348.6133949305174
 30
0.0
 40
2.2
100
AcDbArc
 50
202.7561809999988
 51
270.0
  0
ARC
  5
342F
330
18
100
AcDbEntity
  8
1
  6
Continuous
100
AcDbCircle
 10
231.4088304417012
 20
350.5624119305173
 30
0.0
 40
2.2
100
AcDbArc
 50
359.9002750000007
 51
90.0
  0
ARC
  5
3430
330
18
100
AcDbEntity
  8
1
  6
Continuous
100
AcDbCircle
 10
231.4088304417012
 20
350.5624119305173
 30
0.0
 40
2.2
100
AcDbArc
 50
359.9002750000007
 51
0.0
  0
LINE
  5
3431
330
18
100
AcDbEntity
  8
1
  6
Continuous
100
AcDbLine
 10
260.7417904417013
 20
250.5483639305174
 30
0.0
 11
265.8421104417013
 21
298.6547079305174
 31
0.0
  0
LINE
  5
3432
330
18
100
AcDbEntity
  8
4
  6
CENTER
 48
0.7
100
AcDbLine
 10
239.8588304417013
 20
195.7624119305173
 30
0.0
 11
239.8588304417013
 21
359.2624189305174
 31
0.0
  0
LINE
  5
3434
330
18
100
AcDbEntity
  8
1
  6
Continuous
100
AcDbLine
 10
244.8588304417013
 20
255.6491639305174
 30
0.0
 11
239.8588304417013
 21
258.5359149305174
 31
0.0
  0
LINE
  5
3435
330
18
100
AcDbEntity
  8
1
  6
Continuous
100
AcDbLine
 10
244.8588304417013
 20
249.8756609305174
 30
0.0
 11
244.8588304417013
 21
255.6491639305174
 31
0.0
  0
LINE
  5
3436
330
18
100
AcDbEntity
  8
1
  6
Continuous
100
AcDbLine
 10
244.8588304417013
 20
249.8756609305174
 30
0.0
 11
239.8588304417013
 21
246.9889099305174
 31
0.0
  0
LINE
  5
3437
330
18
100
AcDbEntity
  8
1
  6
Continuous
100
AcDbLine
 10
282.8588304417014
 20
310.7624119305175
 30
0.0
 11
282.8588304417014
 21
321.0303609305173
 31
0.0
  0
LINE
  5
3438
330
18
100
AcDbEntity
  8
1
  6
Continuous
100
AcDbLine
 10
265.8588304417013
 20
298.9709999305174
 30
0.0
 11
265.8588304417013
 21
328.7624119305174
 31
0.0
  0
ARC
  5
3439
330
18
100
AcDbEntity
  8
1
  6
Continuous
100
AcDbCircle
 10
272.2556304417013
 20
300.0868159305174
 30
0.0
 40
7.675596
100
AcDbArc
 50
90.0
 51
103.688349999996
  0
ARC
  5
345E
330
18
100
AcDbEntity
  8
1
  6
Continuous
100
AcDbCircle
 10
565.8588304417012
 20
300.0373399305173
 30
0.0
 40
300.0
100
AcDbArc
 50
178.9259460000002
 51
180.0
  0
ARC
  5
3462
330
18
100
AcDbEntity
  8
1
  6
Continuous
100
AcDbCircle
 10
262.8588304417013
 20
298.9709999305174
 30
0.0
 40
3.0
100
AcDbArc
 50
353.948008
 51
0.0
  0
ARC
  5
3463
330
18
100
AcDbEntity
  8
1
  6
Continuous
100
AcDbCircle
 10
262.8588304417013
 20
298.9709999305174
 30
0.0
 40
3.0
100
AcDbArc
 50
353.948008
 51
0.0
  0
ARC
  5
3464
330
18
100
AcDbEntity
  8
1
  6
Continuous
100
AcDbCircle
 10
262.8588304417013
 20
298.9709999305174
 30
0.0
 40
3.0
100
AcDbArc
 50
353.948008
 51
0.0
  0
ARC
  5
3467
330
18
100
AcDbEntity
  8
1
  6
Continuous
100
AcDbCircle
 10
274.4427164417013
 20
291.1070949305174
 30
0.0
 40
16.917822
100
AcDbArc
 50
103.688349999996
 51
120.0876980000014
  0
ARC
  5
3468
330
18
100
AcDbEntity
  8
1
  6
Continuous
100
AcDbCircle
 10
266.0115224417014
 20
305.6588679305174
 30
0.0
 40
0.1
100
AcDbArc
 50
120.0876980000014
 51
178.9259460000002
  0
LINE
  5
3469
330
18
100
AcDbEntity
  8
1
  6
Continuous
100
AcDbLine
 10
272.2556304417013
 20
307.7624119305174
 30
0.0
 11
279.8588304417013
 21
307.7624119305174
 31
0.0
  0
ARC
  5
346A
330
18
100
AcDbEntity
  8
1
  6
Continuous
100
AcDbCircle
 10
279.8588304417013
 20
310.7624119305175
 30
0.0
 40
3.0
100
AcDbArc
 50
270.0
 51
0.0
  0
LINE
  5
346B
330
18
100
AcDbEntity
  8
1
  6
Continuous
100
AcDbLine
 10
266.8588304417014
 20
321.7624119305174
 30
0.0
 11
282.8588304417014
 21
321.7624119305174
 31
0.0
  0
LINE
  5
346C
330
18
100
AcDbEntity
  8
1
  6
Continuous
100
AcDbLine
 10
266.8588304417014
 20
327.7624119305174
 30
0.0
 11
282.8588304417014
 21
327.7624119305174
 31
0.0
  0
LINE
  5
346D
330
18
100
AcDbEntity
  8
1
  6
Continuous
100
AcDbLine
 10
248.3088304417012
 20
352.7624119305174
 30
0.0
 11
289.8588304417014
 21
352.7624119305174
 31
0.0
  0
LINE
  5
346E
330
18
100
AcDbEntity
  8
1
  6
Continuous
100
AcDbLine
 10
248.1375844417012
 20
347.7624119305175
 30
0.0
 11
289.8588304417014
 21
347.7624119305175
 31
0.0
  0
ARC
  5
3472
330
18
100
AcDbEntity
  8
1
  6
Continuous
100
AcDbCircle
 10
266.8588304417014
 20
320.7624119305175
 30
0.0
 40
1.0
100
AcDbArc
 50
90.0
 51
180.0
  0
ARC
  5
3473
330
18
100
AcDbEntity
  8
1
  6
Continuous
100
AcDbCircle
 10
259.8588304417013
 20
328.7624119305174
 30
0.0
 40
6.0
100
AcDbArc
 50
0.0
 51
90.0
  0
ARC
  5
3474
330
18
100
AcDbEntity
  8
1
  6
Continuous
100
AcDbCircle
 10
266.8588304417014
 20
328.7624119305174
 30
0.0
 40
1.0
100
AcDbArc
 50
180.0
 51
270.0
  0
LINE
  5
3475
330
18
100
AcDbEntity
  8
1
  6
Continuous
100
AcDbLine
 10
248.1375844417012
 20
346.9724179305174
 30
0.0
 11
248.1375844417012
 21
340.4938009305174
 31
0.0
  0
ARC
  5
3476
330
18
100
AcDbEntity
  8
1
  6
Continuous
100
AcDbCircle
 10
249.1375844417012
 20
339.9938009305174
 30
0.0
 40
1.0
100
AcDbArc
 50
180.0
 51
270.0
  0
ARC
  5
3477
330
18
100
AcDbEntity
  8
1
  6
Continuous
100
AcDbCircle
 10
246.1088344417013
 20
348.6133949305174
 30
0.0
 40
2.2
100
AcDbArc
 50
270.0
 51
337.2438190000011
  0
ARC
  5
3478
330
18
100
AcDbEntity
  8
1
  6
Continuous
100
AcDbCircle
 10
250.1088304417013
 20
323.3931849305174
 30
0.0
 40
28.869234
100
AcDbArc
 50
96.78646000000229
 51
109.7830550000001
  0
ARC
  5
3479
330
18
100
AcDbEntity
  8
1
  6
Continuous
100
AcDbCircle
 10
248.3088304417012
 20
350.5624119305173
 30
0.0
 40
2.2
100
AcDbArc
 50
90.0
 51
180.0997249999992
  0
ARC
  5
347A
330
18
100
AcDbEntity
  8
1
  6
Continuous
100
AcDbCircle
 10
272.8588304417014
 20
338.7624119305174
 30
0.0
 40
6.0
100
AcDbArc
 50
318.1896850000004
 51
0.0
  0
LINE
  5
347B
330
18
100
AcDbEntity
  8
1
  6
Continuous
100
AcDbLine
 10
283.8588304417013
 20
324.7624119305175
 30
0.0
 11
283.8588304417013
 21
326.7624119305175
 31
0.0
  0
LINE
  5
347C
330
18
100
AcDbEntity
  8
1
  6
Continuous
100
AcDbLine
 10
283.8588304417013
 20
326.7624119305175
 30
0.0
 11
283.8588304417013
 21
322.7624119305175
 31
0.0
  0
ARC
  5
347D
330
18
100
AcDbEntity
  8
1
  6
Continuous
100
AcDbCircle
 10
282.8588304417014
 20
322.7624119305175
 30
0.0
 40
1.0
100
AcDbArc
 50
270.0
 51
299.9999999999999
  0
ARC
  5
347E
330
18
100
AcDbEntity
  8
1
  6
Continuous
100
AcDbCircle
 10
283.8588304417013
 20
321.0303609305173
 30
0.0
 40
1.0
100
AcDbArc
 50
119.9999999999999
 51
180.0
  0
ARC
  5
347F
330
18
100
AcDbEntity
  8
1
  6
Continuous
100
AcDbCircle
 10
282.8588304417014
 20
322.7624119305175
 30
0.0
 40
1.0
100
AcDbArc
 50
299.9999999999999
 51
0.0
  0
ARC
  5
3480
330
18
100
AcDbEntity
  8
1
  6
Continuous
100
AcDbCircle
 10
276.8588304417014
 20
328.7624119305174
 30
0.0
 40
6.0
100
AcDbArc
 50
0.0
 51
90.0
  0
ARC
  5
3481
330
18
100
AcDbEntity
  8
1
  6
Continuous
100
AcDbCircle
 10
282.8588304417014
 20
326.7624119305175
 30
0.0
 40
1.0
100
AcDbArc
 50
60.00000000000006
 51
90.0
  0
ARC
  5
3482
330
18
100
AcDbEntity
  8
1
  6
Continuous
100
AcDbCircle
 10
283.8588304417013
 20
328.4944629305174
 30
0.0
 40
1.0
100
AcDbArc
 50
180.0
 51
240.0
  0
LINE
  5
3483
330
18
100
AcDbEntity
  8
1
  6
Continuous
100
AcDbLine
 10
282.8588304417014
 20
328.4944629305174
 30
0.0
 11
282.8588304417014
 21
328.7624119305174
 31
0.0
  0
ARC
  5
3484
330
18
100
AcDbEntity
  8
1
  6
Continuous
100
AcDbCircle
 10
282.8588304417014
 20
326.7624119305175
 30
0.0
 40
1.0
100
AcDbArc
 50
0.0
 51
60.00000000000006
  0
LINE
  5
3485
330
18
100
AcDbEntity
  8
1
  6
Continuous
100
AcDbLine
 10
289.8588304417014
 20
346.4133949305174
 30
0.0
 11
278.8588304417014
 21
338.9938009305174
 31
0.0
  0
LINE
  5
3486
330
18
100
AcDbEntity
  8
4
  6
CENTER
 48
0.2
100
AcDbLine
 10
278.8588304417014
 20
356.7624119305174
 30
0.0
 11
278.8588304417014
 21
343.7624119305175
 31
0.0
  0
ARC
  5
3487
330
18
100
AcDbEntity
  8
1
  6
Continuous
100
AcDbCircle
 10
281.8588304417014
 20
344.7624119305174
 30
0.0
 40
3.0
100
AcDbArc
 50
90.0
 51
180.0
  0
LINE
  5
3488
330
18
100
AcDbEntity
  8
1
  6
Continuous
100
AcDbLine
 10
278.8588304417014
 20
338.7624119305174
 30
0.0
 11
278.8588304417014
 21
344.7624119305174
 31
0.0
  0
LINE
  5
3489
330
18
100
AcDbEntity
  8
1
  6
Continuous
100
AcDbLine
 10
289.8588304417014
 20
352.7624119305174
 30
0.0
 11
289.8588304417014
 21
346.4133949305174
 31
0.0
  0
CIRCLE
  5
348A
330
18
100
AcDbEntity
  8
1
  6
Continuous
100
AcDbCircle
 10
239.8588304417013
 20
463.1023484055242
 30
0.0
 40
20.5
  0
LINE
  5
348B
330
18
100
AcDbEntity
  8
1
  6
Continuous
100
AcDbLine
 10
239.8588304417013
 20
439.4309874055243
 30
0.0
 11
219.3588304417013
 21
451.2666684055242
 31
0.0
  0
LINE
  5
348C
330
18
100
AcDbEntity
  8
1
  6
Continuous
100
AcDbLine
 10
219.3588304417013
 20
474.9380294055242
 30
0.0
 11
239.8588304417013
 21
486.7737094055242
 31
0.0
  0
CIRCLE
  5
348D
330
18
100
AcDbEntity
  8
1
  6
Continuous
100
AcDbCircle
 10
239.8588304417013
 20
463.1023484055242
 30
0.0
 40
31.69999999999999
  0
CIRCLE
  5
348E
330
18
100
AcDbEntity
  8
1
  6
Continuous
100
AcDbCircle
 10
239.8588304417013
 20
463.1023484055242
 30
0.0
 40
34.0
  0
CIRCLE
  5
348F
330
18
100
AcDbEntity
  8
1
  6
Continuous
100
AcDbCircle
 10
239.8588304417013
 20
463.1023484055242
 30
0.0
 40
34.0
  0
LINE
  5
3490
330
18
100
AcDbEntity
  8
4
  6
CENTER
 48
0.7
100
AcDbLine
 10
182.8588304417013
 20
463.1023484055242
 30
0.0
 11
296.8588304417013
 21
463.1023484055242
 31
0.0
  0
LINE
  5
3491
330
18
100
AcDbEntity
  8
1
  6
Continuous
100
AcDbLine
 10
278.8588304417014
 20
513.1023484055242
 30
0.0
 11
200.8588304417013
 21
513.1023484055242
 31
0.0
  0
LINE
  5
3492
330
18
100
AcDbEntity
  8
1
  6
Continuous
100
AcDbLine
 10
200.8588304417013
 20
413.1023484055242
 30
0.0
 11
278.8588304417014
 21
413.1023484055242
 31
0.0
  0
LINE
  5
3493
330
18
100
AcDbEntity
  8
1
  6
Continuous
100
AcDbLine
 10
219.3588304417013
 20
451.2666684055242
 30
0.0
 11
219.3588304417013
 21
474.9380294055242
 31
0.0
  0
LINE
  5
3494
330
18
100
AcDbEntity
  8
1
  6
Continuous
100
AcDbLine
 10
189.8588304417013
 20
502.1023484055243
 30
0.0
 11
189.8588304417013
 21
424.1023484055244
 31
0.0
  0
ARC
  5
3495
330
18
100
AcDbEntity
  8
1
  6
Continuous
100
AcDbCircle
 10
200.8588304417013
 20
424.1023484055244
 30
0.0
 40
11.0
100
AcDbArc
 50
180.0
 51
270.0
  0
LINE
  5
3496
330
18
100
AcDbEntity
  8
4
  6
CENTER
 48
0.2
100
AcDbLine
 10
191.6088304417013
 20
424.1023484055244
 30
0.0
 11
210.1088304417013
 21
424.1023484055244
 31
0.0
  0
ARC
  5
3497
330
18
100
AcDbEntity
  8
1
  6
Continuous
100
AcDbCircle
 10
201.7807854417012
 20
450.8523484055244
 30
0.0
 40
6.0
100
AcDbArc
 50
17.83338299999941
 51
90.0
  0
CIRCLE
  5
3498
330
18
100
AcDbEntity
  8
1
  6
Continuous
100
AcDbCircle
 10
200.8588304417013
 20
424.1023484055244
 30
0.0
 40
5.25
  0
LINE
  5
3499
330
18
100
AcDbEntity
  8
4
  6
CENTER
 48
0.2
100
AcDbLine
 10
200.8588304417013
 20
414.8523484055242
 30
0.0
 11
200.8588304417013
 21
433.3523484055243
 31
0.0
  0
LINE
  5
349A
330
18
100
AcDbEntity
  8
1
  6
Continuous
100
AcDbLine
 10
189.8588304417013
 20
456.8523484055242
 30
0.0
 11
201.7807854417012
 21
456.8523484055242
 31
0.0
  0
LINE
  5
349B
330
18
100
AcDbEntity
  8
1
  6
Continuous
100
AcDbLine
 10
233.6088304417013
 20
413.1023484055242
 30
0.0
 11
233.6088304417013
 21
425.0243034055244
 31
0.0
  0
ARC
  5
349C
330
18
100
AcDbEntity
  8
1
  6
Continuous
100
AcDbCircle
 10
227.6088304417013
 20
425.0243034055244
 30
0.0
 40
6.0
100
AcDbArc
 50
0.0
 51
72.16661700000227
  0
LINE
  5
349D
330
18
100
AcDbEntity
  8
4
  6
CENTER
 48
0.2
100
AcDbLine
 10
200.8588304417013
 20
492.8523484055244
 30
0.0
 11
200.8588304417013
 21
511.3523484055242
 31
0.0
  0
LINE
  5
349E
330
18
100
AcDbEntity
  8
1
  6
Continuous
100
AcDbLine
 10
233.6088304417013
 20
513.1023484055242
 30
0.0
 11
233.6088304417013
 21
501.1803934055243
 31
0.0
  0
ARC
  5
349F
330
18
100
AcDbEntity
  8
1
  6
Continuous
100
AcDbCircle
 10
200.8588304417013
 20
502.1023484055243
 30
0.0
 40
11.0
100
AcDbArc
 50
90.0
 51
180.0
  0
CIRCLE
  5
34A0
330
18
100
AcDbEntity
  8
1
  6
Continuous
100
AcDbCircle
 10
200.8588304417013
 20
502.1023484055243
 30
0.0
 40
5.25
  0
LINE
  5
34A1
330
18
100
AcDbEntity
  8
4
  6
CENTER
 48
0.2
100
AcDbLine
 10
191.6088304417013
 20
502.1023484055243
 30
0.0
 11
210.1088304417013
 21
502.1023484055243
 31
0.0
  0
ARC
  5
34A2
330
18
100
AcDbEntity
  8
1
  6
Continuous
100
AcDbCircle
 10
201.7807854417012
 20
475.3523484055243
 30
0.0
 40
6.0
100
AcDbArc
 50
270.0
 51
342.1666170000006
  0
LINE
  5
34A3
330
18
100
AcDbEntity
  8
1
  6
Continuous
100
AcDbLine
 10
189.8588304417013
 20
469.3523484055242
 30
0.0
 11
201.7807854417012
 21
469.3523484055242
 31
0.0
  0
ARC
  5
34A4
330
18
100
AcDbEntity
  8
1
  6
Continuous
100
AcDbCircle
 10
227.6088304417013
 20
501.1803934055243
 30
0.0
 40
6.0
100
AcDbArc
 50
287.8333829999977
 51
0.0
  0
LINE
  5
34A5
330
18
100
AcDbEntity
  8
1
  6
Continuous
100
AcDbLine
 10
260.3588304417014
 20
451.2666684055242
 30
0.0
 11
260.3588304417014
 21
474.9380294055242
 31
0.0
  0
LINE
  5
34A6
330
18
100
AcDbEntity
  8
4
  6
CENTER
 48
0.7
100
AcDbLine
 10
239.8588304417013
 20
406.1023484055243
 30
0.0
 11
239.8588304417013
 21
520.1023484055244
 31
0.0
  0
LINE
  5
34A7
330
18
100
AcDbEntity
  8
1
  6
Continuous
100
AcDbLine
 10
289.8588304417014
 20
424.1023484055244
 30
0.0
 11
289.8588304417014
 21
502.1023484055243
 31
0.0
  0
ARC
  5
34A8
330
18
100
AcDbEntity
  8
1
  6
Continuous
100
AcDbCircle
 10
278.8588304417014
 20
424.1023484055244
 30
0.0
 40
11.0
100
AcDbArc
 50
270.0
 51
0.0
  0
LINE
  5
34A9
330
18
100
AcDbEntity
  8
4
  6
CENTER
 48
0.2
100
AcDbLine
 10
269.6088304417013
 20
424.1023484055244
 30
0.0
 11
288.1088304417014
 21
424.1023484055244
 31
0.0
  0
LINE
  5
34AA
330
18
100
AcDbEntity
  8
1
  6
Continuous
100
AcDbLine
 10
246.1088304417013
 20
413.1023484055242
 30
0.0
 11
246.1088304417013
 21
425.0243034055244
 31
0.0
  0
ARC
  5
34AB
330
18
100
AcDbEntity
  8
1
  6
Continuous
100
AcDbCircle
 10
252.1088304417013
 20
425.0243034055244
 30
0.0
 40
6.0
100
AcDbArc
 50
107.8333829999977
 51
180.0
  0
LINE
  5
34AC
330
18
100
AcDbEntity
  8
1
  6
Continuous
100
AcDbLine
 10
239.8588304417013
 20
439.4309874055243
 30
0.0
 11
260.3588304417014
 21
451.2666684055242
 31
0.0
  0
LINE
  5
34AD
330
18
100
AcDbEntity
  8
4
  6
CENTER
 48
0.2
100
AcDbLine
 10
278.8588304417014
 20
414.8523484055242
 30
0.0
 11
278.8588304417014
 21
433.3523484055243
 31
0.0
  0
CIRCLE
  5
34AE
330
18
100
AcDbEntity
  8
1
  6
Continuous
100
AcDbCircle
 10
278.8588304417014
 20
424.1023484055244
 30
0.0
 40
5.25
  0
LINE
  5
34AF
330
18
100
AcDbEntity
  8
1
  6
Continuous
100
AcDbLine
 10
289.8588304417014
 20
456.8523484055242
 30
0.0
 11
277.9368754417013
 21
456.8523484055242
 31
0.0
  0
ARC
  5
34B0
330
18
100
AcDbEntity
  8
1
  6
Continuous
100
AcDbCircle
 10
277.9368754417013
 20
450.8523484055244
 30
0.0
 40
6.0
100
AcDbArc
 50
90.0
 51
162.1666170000005
  0
LINE
  5
34B1
330
18
100
AcDbEntity
  8
4
  6
CENTER
 48
0.2
100
AcDbLine
 10
278.8588304417014
 20
492.8523484055244
 30
0.0
 11
278.8588304417014
 21
511.3523484055242
 31
0.0
  0
CIRCLE
  5
34B2
330
18
100
AcDbEntity
  8
1
  6
Continuous
100
AcDbCircle
 10
278.8588304417014
 20
502.1023484055243
 30
0.0
 40
5.25
  0
LINE
  5
34B3
330
18
100
AcDbEntity
  8
1
  6
Continuous
100
AcDbLine
 10
246.1088304417013
 20
513.1023484055242
 30
0.0
 11
246.1088304417013
 21
501.1803934055243
 31
0.0
  0
ARC
  5
34B4
330
18
100
AcDbEntity
  8
1
  6
Continuous
100
AcDbCircle
 10
278.8588304417014
 20
502.1023484055243
 30
0.0
 40
11.0
100
AcDbArc
 50
0.0
 51
90.0
  0
LINE
  5
34B5
330
18
100
AcDbEntity
  8
4
  6
CENTER
 48
0.2
100
AcDbLine
 10
269.6088304417013
 20
502.1023484055243
 30
0.0
 11
288.1088304417014
 21
502.1023484055243
 31
0.0
  0
LINE
  5
34B6
330
18
100
AcDbEntity
  8
1
  6
Continuous
100
AcDbLine
 10
260.3588304417014
 20
474.9380294055242
 30
0.0
 11
239.8588304417013
 21
486.7737094055242
 31
0.0
  0
ARC
  5
34B7
330
18
100
AcDbEntity
  8
1
  6
Continuous
100
AcDbCircle
 10
252.1088304417013
 20
501.1803934055243
 30
0.0
 40
6.0
100
AcDbArc
 50
180.0
 51
252.1666170000023
  0
LINE
  5
34B8
330
18
100
AcDbEntity
  8
1
  6
Continuous
100
AcDbLine
 10
289.8588304417014
 20
469.3523484055242
 30
0.0
 11
277.9368754417013
 21
469.3523484055242
 31
0.0
  0
ARC
  5
34B9
330
18
100
AcDbEntity
  8
1
  6
Continuous
100
AcDbCircle
 10
277.9368754417013
 20
475.3523484055243
 30
0.0
 40
6.0
100
AcDbArc
 50
197.8333829999994
 51
270.0
  0
LINE
  5
34BA
330
18
100
AcDbEntity
  8
1
  6
Continuous
100
AcDbLine
 10
425.258188616311
 20
352.7624189305174
 30
0.0
 11
466.808188616311
 21
352.7624189305174
 31
0.0
  0
LINE
  5
34BB
330
18
100
AcDbEntity
  8
1
  6
Continuous
100
AcDbLine
 10
425.086941616311
 20
347.7624189305174
 30
0.0
 11
466.808188616311
 21
347.7624189305174
 31
0.0
  0
LINE
  5
34BC
330
18
100
AcDbEntity
  8
1
  6
Continuous
100
AcDbLine
 10
466.808188616311
 20
346.4134019305173
 30
0.0
 11
455.8081886163111
 21
338.9938079305174
 31
0.0
  0
LINE
  5
34BD
330
18
100
AcDbEntity
  8
1
  6
Continuous
100
AcDbLine
 10
448.3081886163111
 20
297.7624119305175
 30
0.0
 11
448.3081886163111
 21
234.7624119305174
 31
0.0
  0
LINE
  5
34BE
330
18
100
AcDbEntity
  8
1
  6
Continuous
100
AcDbLine
 10
385.308188616311
 20
297.7624119305175
 30
0.0
 11
385.308188616311
 21
234.7624119305174
 31
0.0
  0
LINE
  5
34BF
330
18
100
AcDbEntity
  8
1
  6
Continuous
100
AcDbLine
 10
373.3081886163111
 20
328.7624119305174
 30
0.0
 11
373.3081886163111
 21
234.7624119305174
 31
0.0
  0
LINE
  5
34C0
330
18
100
AcDbEntity
  8
1
  6
Continuous
100
AcDbLine
 10
460.3081886163111
 20
328.7624119305174
 30
0.0
 11
460.3081886163111
 21
234.7624119305174
 31
0.0
  0
LINE
  5
34C1
330
18
100
AcDbEntity
  8
1
  6
Continuous
100
AcDbLine
 10
447.8081886163111
 20
271.0791969305174
 30
0.0
 11
447.8081886163111
 21
234.4456279305174
 31
0.0
  0
LINE
  5
34C2
330
18
100
AcDbEntity
  8
1
  6
Continuous
100
AcDbLine
 10
445.808188616311
 20
210.1525089305174
 30
0.0
 11
445.808188616311
 21
295.3723159305174
 31
0.0
  0
LINE
  5
34C3
330
18
100
AcDbEntity
  8
1
  6
Continuous
100
AcDbLine
 10
417.8081886163111
 20
298.4282329305174
 30
0.0
 11
417.8081886163111
 21
207.0965919305174
 31
0.0
  0
LINE
  5
34C4
330
18
100
AcDbEntity
  8
1
  6
Continuous
100
AcDbLine
 10
385.8081886163111
 20
271.0791969305174
 30
0.0
 11
385.8081886163111
 21
234.4456279305174
 31
0.0
  0
LINE
  5
34C5
330
18
100
AcDbEntity
  8
1
  6
Continuous
100
AcDbLine
 10
387.8081886163111
 20
210.1525089305174
 30
0.0
 11
387.8081886163111
 21
295.3723159305174
 31
0.0
  0
LINE
  5
34C6
330
18
100
AcDbEntity
  8
1
  6
Continuous
100
AcDbLine
 10
415.8081886163111
 20
298.4282329305174
 30
0.0
 11
415.8081886163111
 21
207.0965919305174
 31
0.0
  0
LINE
  5
34C7
330
18
100
AcDbEntity
  8
4
  6
CENTER
 48
0.7
100
AcDbLine
 10
416.808188616311
 20
359.2624189305174
 30
0.0
 11
416.8081886163109
 21
195.7624119305173
 31
0.0
  0
ARC
  5
34C8
330
18
100
AcDbEntity
  8
1
  6
Continuous
100
AcDbCircle
 10
401.8081886163111
 20
272.7624119305175
 30
0.0
 40
70.0
100
AcDbArc
 50
263.6206300000003
 51
279.0847199999989
  0
LINE
  5
34C9
330
18
100
AcDbEntity
  8
4
  6
CENTER
 48
0.7
100
AcDbLine
 10
366.308188616311
 20
252.7624119305174
 30
0.0
 11
467.308188616311
 21
252.7624119305174
 31
0.0
  0
ARC
  5
34CA
330
18
100
AcDbEntity
  8
1
  6
Continuous
100
AcDbCircle
 10
394.8081886163111
 20
210.1525089305174
 30
0.0
 40
7.0
100
AcDbArc
 50
180.0
 51
263.6206300000003
  0
ARC
  5
34CB
330
18
100
AcDbEntity
  8
1
  6
Continuous
100
AcDbCircle
 10
382.3081886163111
 20
234.7624119305174
 30
0.0
 40
3.0
100
AcDbArc
 50
270.0
 51
0.0
  0
ARC
  5
34CC
330
18
100
AcDbEntity
  8
1
  6
Continuous
100
AcDbCircle
 10
376.3081886163111
 20
234.7624119305174
 30
0.0
 40
3.0
100
AcDbArc
 50
180.0
 51
270.0
  0
LINE
  5
34CD
330
18
100
AcDbEntity
  8
1
  6
Continuous
100
AcDbLine
 10
376.3081886163111
 20
231.7624119305174
 30
0.0
 11
382.3081886163111
 21
231.7624119305174
 31
0.0
  0
LINE
  5
34CE
330
18
100
AcDbEntity
  8
1
  6
Continuous
100
AcDbLine
 10
386.751481616311
 20
233.5943669305174
 30
0.0
 11
387.8081886163111
 21
230.5915919305174
 31
0.0
  0
ARC
  5
34CF
330
18
100
AcDbEntity
  8
1
  6
Continuous
100
AcDbCircle
 10
385.8081866163111
 20
233.2624119305175
 30
0.0
 40
1.0
100
AcDbArc
 50
19.38747200000011
 51
80.40585800000023
  0
ARC
  5
34D0
330
18
100
AcDbEntity
  8
1
  6
Continuous
100
AcDbCircle
 10
386.008188616311
 20
234.4456279305174
 30
0.0
 40
0.2
100
AcDbArc
 50
180.0
 51
260.4058580000002
  0
LINE
  5
34D1
330
18
100
AcDbEntity
  8
1
  6
Continuous
100
AcDbLine
 10
385.308188616311
 20
244.2874119305174
 30
0.0
 11
385.8081886163111
 21
244.2874119305174
 31
0.0
  0
LINE
  5
34D2
330
18
100
AcDbEntity
  8
1
  6
Continuous
100
AcDbLine
 10
385.308188616311
 20
261.2374119305174
 30
0.0
 11
385.8081886163111
 21
261.2374119305174
 31
0.0
  0
ARC
  5
34D5
330
18
100
AcDbEntity
  8
1
  6
Continuous
100
AcDbCircle
 10
431.8081886163111
 20
272.7624119305175
 30
0.0
 40
70.0
100
AcDbArc
 50
260.915280000001
 51
276.3793699999995
  0
ARC
  5
34D6
330
18
100
AcDbEntity
  8
1
  6
Continuous
100
AcDbCircle
 10
421.308188616311
 20
207.0965919305174
 30
0.0
 40
3.5
100
AcDbArc
 50
180.0
 51
260.915280000001
  0
ARC
  5
34D8
330
18
100
AcDbEntity
  8
1
  6
Continuous
100
AcDbCircle
 10
412.308188616311
 20
207.0965919305174
 30
0.0
 40
3.5
100
AcDbArc
 50
279.0847199999989
 51
0.0
  0
ARC
  5
34DA
330
18
100
AcDbEntity
  8
1
  6
Continuous
100
AcDbCircle
 10
438.8081886163111
 20
210.1525089305174
 30
0.0
 40
7.0
100
AcDbArc
 50
276.3793699999995
 51
0.0
  0
LINE
  5
34DC
330
18
100
AcDbEntity
  8
1
  6
Continuous
100
AcDbLine
 10
416.808188616311
 20
240.5624319305174
 30
0.0
 11
416.808188616311
 21
264.9624119305173
 31
0.0
  0
LINE
  5
34DD
330
18
100
AcDbEntity
  8
1
  6
Continuous
100
AcDbLine
 10
417.8081886163111
 20
240.0624319305174
 30
0.0
 11
417.308188616311
 21
240.0624319305174
 31
0.0
  0
LINE
  5
34DE
330
18
100
AcDbEntity
  8
1
  6
Continuous
100
AcDbLine
 10
416.808188616311
 20
240.5624319305174
 30
0.0
 11
417.308188616311
 21
240.0624319305174
 31
0.0
  0
LINE
  5
34DF
330
18
100
AcDbEntity
  8
1
  6
Continuous
100
AcDbLine
 10
415.8081886163111
 20
240.0624319305174
 30
0.0
 11
416.308188616311
 21
240.0624319305174
 31
0.0
  0
LINE
  5
34E0
330
18
100
AcDbEntity
  8
1
  6
Continuous
100
AcDbLine
 10
416.808188616311
 20
240.5624319305174
 30
0.0
 11
416.308188616311
 21
240.0624319305174
 31
0.0
  0
LINE
  5
34E1
330
18
100
AcDbEntity
  8
1
  6
Continuous
100
AcDbLine
 10
417.8081886163111
 20
265.4624119305174
 30
0.0
 11
417.308188616311
 21
265.4624119305174
 31
0.0
  0
LINE
  5
34E2
330
18
100
AcDbEntity
  8
1
  6
Continuous
100
AcDbLine
 10
417.308188616311
 20
265.4624119305174
 30
0.0
 11
416.808188616311
 21
264.9624119305173
 31
0.0
  0
LINE
  5
34E3
330
18
100
AcDbEntity
  8
1
  6
Continuous
100
AcDbLine
 10
415.8081886163111
 20
265.4624119305174
 30
0.0
 11
416.308188616311
 21
265.4624119305174
 31
0.0
  0
LINE
  5
34E4
330
18
100
AcDbEntity
  8
1
  6
Continuous
100
AcDbLine
 10
416.308188616311
 20
265.4624119305174
 30
0.0
 11
416.808188616311
 21
264.9624119305173
 31
0.0
  0
ARC
  5
34E5
330
18
100
AcDbEntity
  8
1
  6
Continuous
100
AcDbCircle
 10
451.3081886163111
 20
234.7624119305174
 30
0.0
 40
3.0
100
AcDbArc
 50
180.0
 51
270.0
  0
LINE
  5
34E6
330
18
100
AcDbEntity
  8
1
  6
Continuous
100
AcDbLine
 10
446.864894616311
 20
233.5943669305174
 30
0.0
 11
445.808188616311
 21
230.5915919305174
 31
0.0
  0
ARC
  5
34E7
330
18
100
AcDbEntity
  8
1
  6
Continuous
100
AcDbCircle
 10
447.608188616311
 20
234.4456279305174
 30
0.0
 40
0.2
100
AcDbArc
 50
279.5941419999997
 51
0.0
  0
ARC
  5
34E8
330
18
100
AcDbEntity
  8
1
  6
Continuous
100
AcDbCircle
 10
447.808189616311
 20
233.2624119305175
 30
0.0
 40
1.0
100
AcDbArc
 50
99.59414199999978
 51
160.6125279999998
  0
LINE
  5
34E9
330
18
100
AcDbEntity
  8
1
  6
Continuous
100
AcDbLine
 10
448.3081886163111
 20
244.2874119305174
 30
0.0
 11
447.8081886163111
 21
244.2874119305174
 31
0.0
  0
ARC
  5
34EA
330
18
100
AcDbEntity
  8
1
  6
Continuous
100
AcDbCircle
 10
457.3081886163111
 20
234.7624119305174
 30
0.0
 40
3.0
100
AcDbArc
 50
270.0
 51
0.0
  0
LINE
  5
34EB
330
18
100
AcDbEntity
  8
1
  6
Continuous
100
AcDbLine
 10
451.3081886163111
 20
231.7624119305174
 30
0.0
 11
457.3081886163111
 21
231.7624119305174
 31
0.0
  0
LINE
  5
34EC
330
18
100
AcDbEntity
  8
1
  6
Continuous
100
AcDbLine
 10
448.3081886163111
 20
261.2374119305174
 30
0.0
 11
447.8081886163111
 21
261.2374119305174
 31
0.0
  0
LINE
  5
34ED
330
18
100
AcDbEntity
  8
1
  6
Continuous
100
AcDbLine
 10
395.308188616311
 20
307.7624119305174
 30
0.0
 11
438.308188616311
 21
307.7624119305174
 31
0.0
  0
LINE
  5
34EE
330
18
100
AcDbEntity
  8
1
  6
Continuous
100
AcDbLine
 10
385.5703906163109
 20
321.7624119305174
 30
0.0
 11
448.045985616311
 21
321.7624119305174
 31
0.0
  0
LINE
  5
34EF
330
18
100
AcDbEntity
  8
1
  6
Continuous
100
AcDbLine
 10
385.5703906163109
 20
327.7624119305174
 30
0.0
 11
448.045985616311
 21
327.7624119305174
 31
0.0
  0
LINE
  5
34F0
330
18
100
AcDbEntity
  8
1
  6
Continuous
100
AcDbLine
 10
454.308188616311
 20
334.7624119305174
 30
0.0
 11
379.3081886163111
 21
334.7624119305174
 31
0.0
  0
ARC
  5
34F1
330
18
100
AcDbEntity
  8
1
  6
Continuous
100
AcDbCircle
 10
401.8081886163111
 20
232.7624119305174
 30
0.0
 40
70.0
100
AcDbArc
 50
80.91528000000101
 51
96.37936999999958
  0
LINE
  5
34F2
330
18
100
AcDbEntity
  8
1
  6
Continuous
100
AcDbLine
 10
366.8081886163111
 20
352.7624189305174
 30
0.0
 11
408.358188616311
 21
352.7624189305174
 31
0.0
  0
LINE
  5
34F3
330
18
100
AcDbEntity
  8
1
  6
Continuous
100
AcDbLine
 10
408.529434616311
 20
347.7624189305174
 30
0.0
 11
366.8081886163111
 21
347.7624189305174
 31
0.0
  0
LINE
  5
34F5
330
18
100
AcDbEntity
  8
1
  6
Continuous
100
AcDbLine
 10
385.5703906163109
 20
307.7624119305174
 30
0.0
 11
385.5703906163109
 21
321.7624119305174
 31
0.0
  0
LINE
  5
34F6
330
18
100
AcDbEntity
  8
1
  6
Continuous
100
AcDbLine
 10
386.751481616311
 20
271.9304569305174
 30
0.0
 11
387.8081886163111
 21
274.9332329305174
 31
0.0
  0
ARC
  5
34F7
330
18
100
AcDbEntity
  8
1
  6
Continuous
100
AcDbCircle
 10
385.8081866163111
 20
272.2624119305174
 30
0.0
 40
1.0
100
AcDbArc
 50
279.5941419999997
 51
340.6125279999999
  0
ARC
  5
34F8
330
18
100
AcDbEntity
  8
1
  6
Continuous
100
AcDbCircle
 10
386.008188616311
 20
271.0791969305174
 30
0.0
 40
0.2
100
AcDbArc
 50
99.59414199999978
 51
180.0
  0
ARC
  5
34F9
330
18
100
AcDbEntity
  8
1
  6
Continuous
100
AcDbCircle
 10
395.308188616311
 20
297.7624119305175
 30
0.0
 40
10.0
100
AcDbArc
 50
90.0
 51
180.0
  0
LINE
  5
34FA
330
18
100
AcDbEntity
  8
1
  6
Continuous
100
AcDbLine
 10
376.3081886163111
 20
298.8124119305174
 30
0.0
 11
382.3081886163111
 21
298.8124119305174
 31
0.0
  0
ARC
  5
34FB
330
18
100
AcDbEntity
  8
1
  6
Continuous
100
AcDbCircle
 10
394.8081886163111
 20
295.3723159305174
 30
0.0
 40
7.0
100
AcDbArc
 50
96.37936999999958
 51
180.0
  0
LINE
  5
34FC
330
18
100
AcDbEntity
  8
1
  6
Continuous
100
AcDbLine
 10
366.8081886163111
 20
346.4134019305173
 30
0.0
 11
377.8081886163111
 21
338.9938079305174
 31
0.0
  0
LINE
  5
34FD
330
18
100
AcDbEntity
  8
1
  6
Continuous
100
AcDbLine
 10
366.8081886163111
 20
352.7624189305174
 30
0.0
 11
366.8081886163111
 21
346.4134019305173
 31
0.0
  0
ARC
  5
34FE
330
18
100
AcDbEntity
  8
1
  6
Continuous
100
AcDbCircle
 10
383.8081886163111
 20
338.7624189305174
 30
0.0
 40
6.0
100
AcDbArc
 50
180.0
 51
221.8103149999995
  0
ARC
  5
34FF
330
18
100
AcDbEntity
  8
1
  6
Continuous
100
AcDbCircle
 10
385.5703906163109
 20
322.9278089305174
 30
0.0
 40
1.165397
100
AcDbArc
 50
180.0
 51
270.0
  0
ARC
  5
3500
330
18
100
AcDbEntity
  8
1
  6
Continuous
100
AcDbCircle
 10
385.5703906163109
 20
326.5970149305174
 30
0.0
 40
1.165397
100
AcDbArc
 50
90.0
 51
180.0
  0
LINE
  5
3501
330
18
100
AcDbEntity
  8
1
  6
Continuous
100
AcDbLine
 10
384.4049936163111
 20
326.5970149305174
 30
0.0
 11
384.4049936163111
 21
322.9278089305174
 31
0.0
  0
ARC
  5
3502
330
18
100
AcDbEntity
  8
1
  6
Continuous
100
AcDbCircle
 10
379.3081886163111
 20
328.7624119305174
 30
0.0
 40
6.0
100
AcDbArc
 50
90.0
 51
180.0
  0
LINE
  5
3503
330
18
100
AcDbEntity
  8
1
  6
Continuous
100
AcDbLine
 10
385.5703906163109
 20
327.7624119305174
 30
0.0
 11
385.5703906163109
 21
328.7624119305174
 31
0.0
  0
LINE
  5
3504
330
18
100
AcDbEntity
  8
4
  6
CENTER
 48
0.2
100
AcDbLine
 10
377.8081886163111
 20
356.7624189305174
 30
0.0
 11
377.8081886163111
 21
343.7624189305174
 31
0.0
  0
ARC
  5
3505
330
18
100
AcDbEntity
  8
1
  6
Continuous
100
AcDbCircle
 10
374.808188616311
 20
344.7624189305174
 30
0.0
 40
3.0
100
AcDbArc
 50
0.0
 51
90.0
  0
LINE
  5
3506
330
18
100
AcDbEntity
  8
1
  6
Continuous
100
AcDbLine
 10
377.8081886163111
 20
338.7624189305174
 30
0.0
 11
377.8081886163111
 21
344.7624189305174
 31
0.0
  0
LINE
  5
3507
330
18
100
AcDbEntity
  8
1
  6
Continuous
100
AcDbLine
 10
448.045985616311
 20
307.7624119305174
 30
0.0
 11
448.045985616311
 21
321.7624119305174
 31
0.0
  0
ARC
  5
3508
330
18
100
AcDbEntity
  8
1
  6
Continuous
100
AcDbCircle
 10
431.8081886163111
 20
232.7624119305174
 30
0.0
 40
70.0
100
AcDbArc
 50
83.62063000000039
 51
99.084719999999
  0
ARC
  5
3509
330
18
100
AcDbEntity
  8
1
  6
Continuous
100
AcDbCircle
 10
421.308188616311
 20
298.4282329305174
 30
0.0
 40
3.5
100
AcDbArc
 50
99.084719999999
 51
180.0
  0
ARC
  5
350A
330
18
100
AcDbEntity
  8
1
  6
Continuous
100
AcDbCircle
 10
412.308188616311
 20
298.4282329305174
 30
0.0
 40
3.5
100
AcDbArc
 50
0.0
 51
80.91528000000101
  0
LINE
  5
350B
330
18
100
AcDbEntity
  8
1
  6
Continuous
100
AcDbLine
 10
446.864894616311
 20
271.9304569305174
 30
0.0
 11
445.808188616311
 21
274.9332329305174
 31
0.0
  0
ARC
  5
350C
330
18
100
AcDbEntity
  8
1
  6
Continuous
100
AcDbCircle
 10
447.808189616311
 20
272.2624119305174
 30
0.0
 40
1.0
100
AcDbArc
 50
199.3874720000001
 51
260.4058580000002
  0
ARC
  5
350D
330
18
100
AcDbEntity
  8
1
  6
Continuous
100
AcDbCircle
 10
447.608188616311
 20
271.0791969305174
 30
0.0
 40
0.2
100
AcDbArc
 50
0.0
 51
80.40585800000023
  0
ARC
  5
350E
330
18
100
AcDbEntity
  8
1
  6
Continuous
100
AcDbCircle
 10
438.308188616311
 20
297.7624119305175
 30
0.0
 40
10.0
100
AcDbArc
 50
0.0
 51
90.0
  0
ARC
  5
350F
330
18
100
AcDbEntity
  8
1
  6
Continuous
100
AcDbCircle
 10
438.8081886163111
 20
295.3723159305174
 30
0.0
 40
7.0
100
AcDbArc
 50
0.0
 51
83.62063000000039
  0
LINE
  5
3510
330
18
100
AcDbEntity
  8
1
  6
Continuous
100
AcDbLine
 10
457.3081886163111
 20
298.8124119305174
 30
0.0
 11
451.3081886163111
 21
298.8124119305174
 31
0.0
  0
ARC
  5
3511
330
18
100
AcDbEntity
  8
1
  6
Continuous
100
AcDbCircle
 10
416.808188616311
 20
314.0837839305175
 30
0.0
 40
38.17863499999999
100
AcDbArc
 50
80.10102099999746
 51
99.89897900000251
  0
LINE
  5
3512
330
18
100
AcDbEntity
  8
1
  6
Continuous
100
AcDbLine
 10
416.808188616311
 20
352.2624189305174
 30
0.0
 11
423.8617646163111
 21
352.2624189305174
 31
0.0
  0
LINE
  5
3513
330
18
100
AcDbEntity
  8
1
  6
Continuous
100
AcDbLine
 10
424.586941616311
 20
338.9938079305174
 30
0.0
 11
409.029437616311
 21
338.9938079305174
 31
0.0
  0
LINE
  5
3514
330
18
100
AcDbEntity
  8
1
  6
Continuous
100
AcDbLine
 10
410.558188616311
 20
346.4134019305173
 30
0.0
 11
423.058188616311
 21
346.4134019305173
 31
0.0
  0
LINE
  5
3515
330
18
100
AcDbEntity
  8
1
  6
Continuous
100
AcDbLine
 10
410.5581846163111
 20
350.5585899305174
 30
0.0
 11
423.0581916163108
 21
350.5585899305174
 31
0.0
  0
ARC
  5
3516
330
18
100
AcDbEntity
  8
1
  6
Continuous
100
AcDbCircle
 10
410.558188616311
 20
348.6134019305173
 30
0.0
 40
2.2
100
AcDbArc
 50
202.7561809999988
 51
270.0
  0
LINE
  5
3517
330
18
100
AcDbEntity
  8
1
  6
Continuous
100
AcDbLine
 10
408.529437616311
 20
346.9724249305174
 30
0.0
 11
408.529437616311
 21
340.4938079305174
 31
0.0
  0
ARC
  5
3518
330
18
100
AcDbEntity
  8
1
  6
Continuous
100
AcDbCircle
 10
407.529437616311
 20
339.9938079305174
 30
0.0
 40
1.0
100
AcDbArc
 50
270.0
 51
0.0
  0
ARC
  5
3519
330
18
100
AcDbEntity
  8
1
  6
Continuous
100
AcDbCircle
 10
408.358188616311
 20
350.5624189305174
 30
0.0
 40
2.2
100
AcDbArc
 50
359.9002750000007
 51
90.0
  0
LINE
  5
351A
330
18
100
AcDbEntity
  8
1
  6
Continuous
100
AcDbLine
 10
416.808188616311
 20
352.2624189305174
 30
0.0
 11
409.754612616311
 21
352.2624189305174
 31
0.0
  0
ARC
  5
351B
330
18
100
AcDbEntity
  8
1
  6
Continuous
100
AcDbCircle
 10
408.358188616311
 20
350.5624189305174
 30
0.0
 40
2.2
100
AcDbArc
 50
359.9002750000007
 51
0.0
  0
ARC
  5
351C
330
18
100
AcDbEntity
  8
1
  6
Continuous
100
AcDbCircle
 10
426.086941616311
 20
339.9938079305174
 30
0.0
 40
1.0
100
AcDbArc
 50
180.0
 51
270.0
  0
LINE
  5
351D
330
18
100
AcDbEntity
  8
1
  6
Continuous
100
AcDbLine
 10
425.086941616311
 20
346.9724249305174
 30
0.0
 11
425.086941616311
 21
340.4938079305174
 31
0.0
  0
ARC
  5
351E
330
18
100
AcDbEntity
  8
1
  6
Continuous
100
AcDbCircle
 10
423.0581916163108
 20
348.6134019305173
 30
0.0
 40
2.2
100
AcDbArc
 50
270.0
 51
337.2438190000011
  0
ARC
  5
351F
330
18
100
AcDbEntity
  8
1
  6
Continuous
100
AcDbCircle
 10
425.258188616311
 20
350.5624189305174
 30
0.0
 40
2.2
100
AcDbArc
 50
90.0
 51
180.0997249999992
  0
ARC
  5
3520
330
18
100
AcDbEntity
  8
1
  6
Continuous
100
AcDbCircle
 10
449.808188616311
 20
338.7624189305174
 30
0.0
 40
6.0
100
AcDbArc
 50
318.1896850000004
 51
0.0
  0
LINE
  5
3521
330
18
100
AcDbEntity
  8
1
  6
Continuous
100
AcDbLine
 10
449.2113826163111
 20
326.5970149305174
 30
0.0
 11
449.2113826163111
 21
322.9278089305174
 31
0.0
  0
ARC
  5
3522
330
18
100
AcDbEntity
  8
1
  6
Continuous
100
AcDbCircle
 10
448.045985616311
 20
322.9278089305174
 30
0.0
 40
1.165397
100
AcDbArc
 50
270.0
 51
0.0
  0
ARC
  5
3523
330
18
100
AcDbEntity
  8
1
  6
Continuous
100
AcDbCircle
 10
448.045985616311
 20
326.5970149305174
 30
0.0
 40
1.165397
100
AcDbArc
 50
0.0
 51
90.0
  0
LINE
  5
3524
330
18
100
AcDbEntity
  8
1
  6
Continuous
100
AcDbLine
 10
448.045985616311
 20
327.7624119305174
 30
0.0
 11
448.045985616311
 21
328.7624119305174
 31
0.0
  0
ARC
  5
3525
330
18
100
AcDbEntity
  8
1
  6
Continuous
100
AcDbCircle
 10
454.308188616311
 20
328.7624119305174
 30
0.0
 40
6.0
100
AcDbArc
 50
0.0
 51
90.0
  0
LINE
  5
3526
330
18
100
AcDbEntity
  8
4
  6
CENTER
 48
0.2
100
AcDbLine
 10
455.8081886163111
 20
356.7624189305174
 30
0.0
 11
455.8081886163111
 21
343.7624189305174
 31
0.0
  0
ARC
  5
3527
330
18
100
AcDbEntity
  8
1
  6
Continuous
100
AcDbCircle
 10
458.808188616311
 20
344.7624189305174
 30
0.0
 40
3.0
100
AcDbArc
 50
90.0
 51
180.0
  0
LINE
  5
3528
330
18
100
AcDbEntity
  8
1
  6
Continuous
100
AcDbLine
 10
455.8081886163111
 20
338.7624189305174
 30
0.0
 11
455.8081886163111
 21
344.7624189305174
 31
0.0
  0
LINE
  5
3529
330
18
100
AcDbEntity
  8
1
  6
Continuous
100
AcDbLine
 10
466.808188616311
 20
352.7624189305174
 30
0.0
 11
466.808188616311
 21
346.4134019305173
 31
0.0
  0
LINE
  5
36C8
330
18
100
AcDbEntity
  8
1
  6
Continuous
100
AcDbLine
 10
585.4787927909207
 20
347.7624119305175
 30
0.0
 11
543.7575467909207
 21
347.7624119305175
 31
0.0
  0
LINE
  5
36C9
330
18
100
AcDbEntity
  8
1
  6
Continuous
100
AcDbLine
 10
585.3075467909209
 20
352.7624119305174
 30
0.0
 11
543.7575467909207
 21
352.7624119305174
 31
0.0
  0
LINE
  5
36CA
330
18
100
AcDbEntity
  8
1
  6
Continuous
100
AcDbLine
 10
566.7575467909207
 20
327.7624119305174
 30
0.0
 11
550.7575467909207
 21
327.7624119305174
 31
0.0
  0
LINE
  5
36CB
330
18
100
AcDbEntity
  8
1
  6
Continuous
100
AcDbLine
 10
566.7575467909207
 20
321.7624119305174
 30
0.0
 11
550.7575467909207
 21
321.7624119305174
 31
0.0
  0
ARC
  5
36CC
330
18
100
AcDbEntity
  8
1
  6
Continuous
100
AcDbCircle
 10
561.3607467909209
 20
300.0868159305174
 30
0.0
 40
7.675596
100
AcDbArc
 50
76.31165000000392
 51
90.0
  0
LINE
  5
36CD
330
18
100
AcDbEntity
  8
1
  6
Continuous
100
AcDbLine
 10
556.2854107909209
 20
334.7624119305174
 30
0.0
 11
631.2296827909207
 21
334.7624119305174
 31
0.0
  0
ARC
  5
36CE
330
18
100
AcDbEntity
  8
1
  6
Continuous
100
AcDbCircle
 10
593.7575467909207
 20
252.7624119305174
 30
0.0
 40
50.0
100
AcDbArc
 50
120.8860549999968
 51
59.11394500000312
  0
LINE
  5
36CF
330
18
100
AcDbEntity
  8
4
  6
CENTER
 48
0.7
100
AcDbLine
 10
650.7575467909207
 20
252.7624119305174
 30
0.0
 11
536.7575467909207
 21
252.7624119305174
 31
0.0
  0
LINE
  5
36D2
330
18
100
AcDbEntity
  8
1
  6
Continuous
100
AcDbLine
 10
572.8745867909207
 20
250.5483639305174
 30
0.0
 11
567.7742667909207
 21
298.6547079305174
 31
0.0
  0
LINE
  5
36D4
330
18
100
AcDbEntity
  8
1
  6
Continuous
100
AcDbLine
 10
614.6405057909207
 20
250.5483639305174
 30
0.0
 11
619.7408267909207
 21
298.6547079305174
 31
0.0
  0
CIRCLE
  5
36D5
330
18
100
AcDbEntity
  8
1
  6
Continuous
100
AcDbCircle
 10
593.7575467909207
 20
252.7624119305174
 30
0.0
 40
12.0
  0
ARC
  5
36D6
330
18
100
AcDbEntity
  8
1
  6
Continuous
100
AcDbCircle
 10
593.7575467909207
 20
252.7624119305174
 30
0.0
 40
24.0
100
AcDbArc
 50
157.096443000001
 51
22.90355699999895
  0
ARC
  5
36D7
330
18
100
AcDbEntity
  8
1
  6
Continuous
100
AcDbCircle
 10
593.7575467909207
 20
252.7624119305174
 30
0.0
 40
23.0
100
AcDbArc
 50
161.9808530000002
 51
18.01914699999979
  0
CIRCLE
  5
36D8
330
18
100
AcDbEntity
  8
1
  6
Continuous
100
AcDbCircle
 10
593.7575467909207
 20
252.7624119305174
 30
0.0
 40
11.5
  0
LINE
  5
36D9
330
18
100
AcDbEntity
  8
4
  6
CENTER
 48
0.7
100
AcDbLine
 10
593.7575467909207
 20
195.7624119305173
 30
0.0
 11
593.7575467909207
 21
359.2624189305174
 31
0.0
  0
ARC
  5
36DC
330
18
100
AcDbEntity
  8
1
  6
Continuous
100
AcDbCircle
 10
593.7575467909207
 20
252.7624119305174
 30
0.0
 40
21.0
100
AcDbArc
 50
186.0519919999999
 51
353.948008
  0
ARC
  5
36DE
330
18
100
AcDbEntity
  8
1
  6
Continuous
100
AcDbCircle
 10
626.7575467909209
 20
338.7624119305174
 30
0.0
 40
6.0
100
AcDbArc
 50
318.1896850000004
 51
0.000000000000007
  0
LINE
  5
36DF
330
18
100
AcDbEntity
  8
1
  6
Continuous
100
AcDbLine
 10
636.7575467909207
 20
327.7624119305174
 30
0.0
 11
620.7575467909207
 21
327.7624119305174
 31
0.0
  0
LINE
  5
36E0
330
18
100
AcDbEntity
  8
1
  6
Continuous
100
AcDbLine
 10
636.7575467909207
 20
321.7624119305174
 30
0.0
 11
620.7575467909207
 21
321.7624119305174
 31
0.0
  0
ARC
  5
36E1
330
18
100
AcDbEntity
  8
1
  6
Continuous
100
AcDbCircle
 10
628.3414317909207
 20
291.1070949305174
 30
0.0
 40
16.917822
100
AcDbArc
 50
103.688349999996
 51
120.0876980000014
  0
LINE
  5
36E2
330
18
100
AcDbEntity
  8
1
  6
Continuous
100
AcDbLine
 10
636.7575467909207
 20
310.7624119305175
 30
0.0
 11
636.7575467909207
 21
321.0303609305173
 31
0.0
  0
LINE
  5
36E3
330
18
100
AcDbEntity
  8
1
  6
Continuous
100
AcDbLine
 10
633.7575467909207
 20
307.7624119305174
 30
0.0
 11
627.4670467909209
 21
307.7624119305174
 31
0.0
  0
LINE
  5
36E4
330
18
100
AcDbEntity
  8
1
  6
Continuous
100
AcDbLine
 10
626.1543467909207
 20
307.7624119305174
 30
0.0
 11
633.7575467909207
 21
307.7624119305174
 31
0.0
  0
ARC
  5
36E5
330
18
100
AcDbEntity
  8
1
  6
Continuous
100
AcDbCircle
 10
633.7575467909207
 20
310.7624119305175
 30
0.0
 40
3.0
100
AcDbArc
 50
270.0
 51
0.000000000000007
  0
ARC
  5
36E6
330
18
100
AcDbEntity
  8
1
  6
Continuous
100
AcDbCircle
 10
626.1543467909207
 20
300.0868159305174
 30
0.0
 40
7.675596
100
AcDbArc
 50
90.0
 51
103.688349999996
  0
ARC
  5
36E7
330
18
100
AcDbEntity
  8
1
  6
Continuous
100
AcDbCircle
 10
636.7575467909207
 20
326.7624119305175
 30
0.0
 40
1.0
100
AcDbArc
 50
0.000000000000007
 51
60.00000000000006
  0
ARC
  5
36E8
330
18
100
AcDbEntity
  8
1
  6
Continuous
100
AcDbCircle
 10
636.7575467909207
 20
322.7624119305175
 30
0.0
 40
1.0
100
AcDbArc
 50
299.9999999999999
 51
0.000000000000007
  0
ARC
  5
36E9
330
18
100
AcDbEntity
  8
1
  6
Continuous
100
AcDbCircle
 10
636.7575467909207
 20
322.7624119305175
 30
0.0
 40
1.0
100
AcDbArc
 50
270.0
 51
299.9999999999999
  0
ARC
  5
36EA
330
18
100
AcDbEntity
  8
1
  6
Continuous
100
AcDbCircle
 10
637.7575467909207
 20
321.0303609305173
 30
0.0
 40
1.0
100
AcDbArc
 50
119.9999999999999
 51
180.0
  0
LINE
  5
36EB
330
18
100
AcDbEntity
  8
1
  6
Continuous
100
AcDbLine
 10
637.7575467909207
 20
326.7624119305175
 30
0.0
 11
637.7575467909207
 21
322.7624119305175
 31
0.0
  0
ARC
  5
36EC
330
18
100
AcDbEntity
  8
1
  6
Continuous
100
AcDbCircle
 10
630.7575467909209
 20
328.7624119305174
 30
0.0
 40
6.0
100
AcDbArc
 50
0.000000000000007
 51
90.0
  0
LINE
  5
36ED
330
18
100
AcDbEntity
  8
1
  6
Continuous
100
AcDbLine
 10
636.7575467909207
 20
328.4944629305174
 30
0.0
 11
636.7575467909207
 21
328.7624119305174
 31
0.0
  0
ARC
  5
36EE
330
18
100
AcDbEntity
  8
1
  6
Continuous
100
AcDbCircle
 10
636.7575467909207
 20
326.7624119305175
 30
0.0
 40
1.0
100
AcDbArc
 50
60.00000000000006
 51
90.0
  0
ARC
  5
36EF
330
18
100
AcDbEntity
  8
1
  6
Continuous
100
AcDbCircle
 10
637.7575467909207
 20
328.4944629305174
 30
0.0
 40
1.0
100
AcDbArc
 50
180.0
 51
240.0000000000001
  0
LINE
  5
36F2
330
18
100
AcDbEntity
  8
1
  6
Continuous
100
AcDbLine
 10
619.7575467909207
 20
298.9709999305174
 30
0.0
 11
619.7575467909207
 21
328.7624119305174
 31
0.0
  0
ARC
  5
36F3
330
18
100
AcDbEntity
  8
1
  6
Continuous
100
AcDbCircle
 10
619.9102377909207
 20
305.6588679305174
 30
0.0
 40
0.1
100
AcDbArc
 50
120.0876980000014
 51
178.9259460000002
  0
ARC
  5
36F4
330
18
100
AcDbEntity
  8
1
  6
Continuous
100
AcDbCircle
 10
616.7575467909207
 20
298.9709999305174
 30
0.0
 40
3.0
100
AcDbArc
 50
353.948008
 51
0.000000000000007
  0
ARC
  5
36F5
330
18
100
AcDbEntity
  8
1
  6
Continuous
100
AcDbCircle
 10
919.757546790921
 20
300.0373399305173
 30
0.0
 40
300.0
100
AcDbArc
 50
178.9259460000002
 51
180.0
  0
ARC
  5
36F6
330
18
100
AcDbEntity
  8
1
  6
Continuous
100
AcDbCircle
 10
620.7575467909207
 20
320.7624119305175
 30
0.0
 40
1.0
100
AcDbArc
 50
90.0
 51
180.0
  0
ARC
  5
36F7
330
18
100
AcDbEntity
  8
1
  6
Continuous
100
AcDbCircle
 10
613.7575467909207
 20
328.7624119305174
 30
0.0
 40
6.0
100
AcDbArc
 50
0.000000000000007
 51
90.0
  0
ARC
  5
36F8
330
18
100
AcDbEntity
  8
1
  6
Continuous
100
AcDbCircle
 10
620.7575467909207
 20
328.7624119305174
 30
0.0
 40
1.0
100
AcDbArc
 50
180.0
 51
270.0
  0
LINE
  5
36F9
330
18
100
AcDbEntity
  8
1
  6
Continuous
100
AcDbLine
 10
567.7575467909207
 20
298.9709999305174
 30
0.0
 11
567.7575467909207
 21
328.7624119305174
 31
0.0
  0
ARC
  5
36FA
330
18
100
AcDbEntity
  8
1
  6
Continuous
100
AcDbCircle
 10
559.1736607909207
 20
291.1070949305174
 30
0.0
 40
16.917822
100
AcDbArc
 50
59.91230199999857
 51
76.31165000000392
  0
ARC
  5
36FB
330
18
100
AcDbEntity
  8
1
  6
Continuous
100
AcDbCircle
 10
567.6048547909207
 20
305.6588679305174
 30
0.0
 40
0.1
100
AcDbArc
 50
1.07405399999971
 51
59.91230199999857
  0
ARC
  5
36FC
330
18
100
AcDbEntity
  8
1
  6
Continuous
100
AcDbCircle
 10
570.7575467909207
 20
298.9709999305174
 30
0.0
 40
3.0
100
AcDbArc
 50
180.0
 51
186.0519919999999
  0
ARC
  5
36FD
330
18
100
AcDbEntity
  8
1
  6
Continuous
100
AcDbCircle
 10
570.7575467909207
 20
298.9709999305174
 30
0.0
 40
3.0
100
AcDbArc
 50
180.0
 51
186.0519919999999
  0
ARC
  5
36FE
330
18
100
AcDbEntity
  8
1
  6
Continuous
100
AcDbCircle
 10
570.7575467909207
 20
298.9709999305174
 30
0.0
 40
3.0
100
AcDbArc
 50
180.0
 51
186.0519919999999
  0
ARC
  5
36FF
330
18
100
AcDbEntity
  8
1
  6
Continuous
100
AcDbCircle
 10
267.7575467909209
 20
300.0373399305173
 30
0.0
 40
300.0
100
AcDbArc
 50
0.000000000000007
 51
1.07405399999971
  0
ARC
  5
3700
330
18
100
AcDbEntity
  8
1
  6
Continuous
100
AcDbCircle
 10
566.7575467909207
 20
320.7624119305175
 30
0.0
 40
1.0
100
AcDbArc
 50
0.000000000000007
 51
90.0
  0
ARC
  5
3701
330
18
100
AcDbEntity
  8
1
  6
Continuous
100
AcDbCircle
 10
573.7575467909207
 20
328.7624119305174
 30
0.0
 40
6.0
100
AcDbArc
 50
90.0
 51
180.0
  0
ARC
  5
3702
330
18
100
AcDbEntity
  8
1
  6
Continuous
100
AcDbCircle
 10
566.7575467909207
 20
328.7624119305174
 30
0.0
 40
1.0
100
AcDbArc
 50
270.0
 51
0.000000000000007
  0
LINE
  5
3703
330
18
100
AcDbEntity
  8
1
  6
Continuous
100
AcDbLine
 10
602.0362997909207
 20
347.7624119305175
 30
0.0
 11
643.7575467909207
 21
347.7624119305175
 31
0.0
  0
LINE
  5
3704
330
18
100
AcDbEntity
  8
1
  6
Continuous
100
AcDbLine
 10
643.7575467909207
 20
352.7624119305174
 30
0.0
 11
602.2075467909209
 21
352.7624119305174
 31
0.0
  0
LINE
  5
3705
330
18
100
AcDbEntity
  8
1
  6
Continuous
100
AcDbLine
 10
643.7575467909207
 20
346.4133949305174
 30
0.0
 11
632.7575467909207
 21
338.9938009305174
 31
0.0
  0
LINE
  5
3706
330
18
100
AcDbEntity
  8
1
  6
Continuous
100
AcDbLine
 10
643.7575467909207
 20
352.7624119305174
 30
0.0
 11
643.7575467909207
 21
346.4133949305174
 31
0.0
  0
LINE
  5
3707
330
18
100
AcDbEntity
  8
4
  6
CENTER
 48
0.2
100
AcDbLine
 10
632.7575467909207
 20
356.7624119305174
 30
0.0
 11
632.7575467909207
 21
343.7624119305175
 31
0.0
  0
ARC
  5
3708
330
18
100
AcDbEntity
  8
1
  6
Continuous
100
AcDbCircle
 10
635.7575467909207
 20
344.7624119305174
 30
0.0
 40
3.0
100
AcDbArc
 50
90.0
 51
180.0
  0
LINE
  5
3709
330
18
100
AcDbEntity
  8
1
  6
Continuous
100
AcDbLine
 10
632.7575467909207
 20
338.7624119305174
 30
0.0
 11
632.7575467909207
 21
344.7624119305174
 31
0.0
  0
ARC
  5
370A
330
18
100
AcDbEntity
  8
1
  6
Continuous
100
AcDbCircle
 10
583.5075467909207
 20
323.3931849305174
 30
0.0
 40
28.869234
100
AcDbArc
 50
70.21694499999985
 51
83.21353999999772
  0
LINE
  5
370B
330
18
100
AcDbEntity
  8
1
  6
Continuous
100
AcDbLine
 10
600.0075497909207
 20
350.5585829305173
 30
0.0
 11
587.5075427909207
 21
350.5585829305173
 31
0.0
  0
LINE
  5
370C
330
18
100
AcDbEntity
  8
1
  6
Continuous
100
AcDbLine
 10
600.0075467909207
 20
346.4133949305174
 30
0.0
 11
587.5075467909207
 21
346.4133949305174
 31
0.0
  0
LINE
  5
370D
330
18
100
AcDbEntity
  8
1
  6
Continuous
100
AcDbLine
 10
585.9787927909207
 20
338.9938009305174
 30
0.0
 11
601.5362967909209
 21
338.9938009305174
 31
0.0
  0
LINE
  5
370E
330
18
100
AcDbEntity
  8
1
  6
Continuous
100
AcDbLine
 10
600.8111307909207
 20
352.2624189305174
 30
0.0
 11
586.7039627909207
 21
352.2624189305174
 31
0.0
  0
ARC
  5
370F
330
18
100
AcDbEntity
  8
1
  6
Continuous
100
AcDbCircle
 10
600.0075467909207
 20
348.6133949305174
 30
0.0
 40
2.2
100
AcDbArc
 50
270.0
 51
337.2438190000011
  0
ARC
  5
3710
330
18
100
AcDbEntity
  8
1
  6
Continuous
100
AcDbCircle
 10
603.0362967909209
 20
339.9938009305174
 30
0.0
 40
1.0
100
AcDbArc
 50
180.0
 51
270.0
  0
LINE
  5
3711
330
18
100
AcDbEntity
  8
1
  6
Continuous
100
AcDbLine
 10
602.0362967909209
 20
346.9724179305174
 30
0.0
 11
602.0362967909209
 21
340.4938009305174
 31
0.0
  0
ARC
  5
3712
330
18
100
AcDbEntity
  8
1
  6
Continuous
100
AcDbCircle
 10
602.2075467909209
 20
350.5624119305173
 30
0.0
 40
2.2
100
AcDbArc
 50
90.0
 51
180.0997249999992
  0
ARC
  5
3713
330
18
100
AcDbEntity
  8
1
  6
Continuous
100
AcDbCircle
 10
602.2075467909209
 20
350.5624119305173
 30
0.0
 40
2.2
100
AcDbArc
 50
180.0
 51
180.0997249999992
  0
ARC
  5
3714
330
18
100
AcDbEntity
  8
1
  6
Continuous
100
AcDbCircle
 10
604.0075467909209
 20
323.3931849305174
 30
0.0
 40
28.869234
100
AcDbArc
 50
96.78646000000229
 51
109.7830550000001
  0
ARC
  5
3715
330
18
100
AcDbEntity
  8
1
  6
Continuous
100
AcDbCircle
 10
587.5075427909207
 20
348.6133949305174
 30
0.0
 40
2.2
100
AcDbArc
 50
202.7561809999988
 51
270.0
  0
ARC
  5
3716
330
18
100
AcDbEntity
  8
1
  6
Continuous
100
AcDbCircle
 10
584.4787927909209
 20
339.9938009305174
 30
0.0
 40
1.0
100
AcDbArc
 50
270.0
 51
0.000000000000007
  0
LINE
  5
3717
330
18
100
AcDbEntity
  8
1
  6
Continuous
100
AcDbLine
 10
585.4787927909207
 20
346.9724179305174
 30
0.0
 11
585.4787927909207
 21
340.4938009305174
 31
0.0
  0
ARC
  5
3718
330
18
100
AcDbEntity
  8
1
  6
Continuous
100
AcDbCircle
 10
585.3075467909209
 20
350.5624119305173
 30
0.0
 40
2.2
100
AcDbArc
 50
359.9002750000007
 51
90.0
  0
ARC
  5
3719
330
18
100
AcDbEntity
  8
1
  6
Continuous
100
AcDbCircle
 10
560.7575467909207
 20
338.7624119305174
 30
0.0
 40
6.0
100
AcDbArc
 50
180.0
 51
221.8103149999995
  0
LINE
  5
371A
330
18
100
AcDbEntity
  8
1
  6
Continuous
100
AcDbLine
 10
550.7575467909207
 20
310.7624119305175
 30
0.0
 11
550.7575467909207
 21
321.0303609305173
 31
0.0
  0
LINE
  5
371B
330
18
100
AcDbEntity
  8
1
  6
Continuous
100
AcDbLine
 10
561.3607467909209
 20
307.7624119305174
 30
0.0
 11
553.7575467909207
 21
307.7624119305174
 31
0.0
  0
ARC
  5
371C
330
18
100
AcDbEntity
  8
1
  6
Continuous
100
AcDbCircle
 10
553.7575467909207
 20
310.7624119305175
 30
0.0
 40
3.0
100
AcDbArc
 50
180.0
 51
270.0
  0
ARC
  5
371D
330
18
100
AcDbEntity
  8
1
  6
Continuous
100
AcDbCircle
 10
550.7575467909207
 20
326.7624119305175
 30
0.0
 40
1.0
100
AcDbArc
 50
119.9999999999999
 51
180.0
  0
ARC
  5
371E
330
18
100
AcDbEntity
  8
1
  6
Continuous
100
AcDbCircle
 10
550.7575467909207
 20
322.7624119305175
 30
0.0
 40
1.0
100
AcDbArc
 50
180.0
 51
240.0000000000001
  0
ARC
  5
371F
330
18
100
AcDbEntity
  8
1
  6
Continuous
100
AcDbCircle
 10
549.7575467909207
 20
321.0303609305173
 30
0.0
 40
1.0
100
AcDbArc
 50
0.000000000000007
 51
60.00000000000006
  0
ARC
  5
3720
330
18
100
AcDbEntity
  8
1
  6
Continuous
100
AcDbCircle
 10
550.7575467909207
 20
322.7624119305175
 30
0.0
 40
1.0
100
AcDbArc
 50
240.0000000000001
 51
270.0
  0
LINE
  5
3721
330
18
100
AcDbEntity
  8
1
  6
Continuous
100
AcDbLine
 10
549.7575467909207
 20
326.7624119305175
 30
0.0
 11
549.7575467909207
 21
322.7624119305175
 31
0.0
  0
LINE
  5
3722
330
18
100
AcDbEntity
  8
1
  6
Continuous
100
AcDbLine
 10
549.7575467909207
 20
324.7624119305175
 30
0.0
 11
549.7575467909207
 21
326.7624119305175
 31
0.0
  0
ARC
  5
3723
330
18
100
AcDbEntity
  8
1
  6
Continuous
100
AcDbCircle
 10
556.7575467909207
 20
328.7624119305174
 30
0.0
 40
6.0
100
AcDbArc
 50
90.0
 51
180.0
  0
LINE
  5
3724
330
18
100
AcDbEntity
  8
1
  6
Continuous
100
AcDbLine
 10
550.7575467909207
 20
328.4944629305174
 30
0.0
 11
550.7575467909207
 21
328.7624119305174
 31
0.0
  0
ARC
  5
3725
330
18
100
AcDbEntity
  8
1
  6
Continuous
100
AcDbCircle
 10
549.7575467909207
 20
328.4944629305174
 30
0.0
 40
1.0
100
AcDbArc
 50
299.9999999999999
 51
0.000000000000007
  0
ARC
  5
3726
330
18
100
AcDbEntity
  8
1
  6
Continuous
100
AcDbCircle
 10
550.7575467909207
 20
326.7624119305175
 30
0.0
 40
1.0
100
AcDbArc
 50
90.0
 51
119.9999999999999
  0
LINE
  5
3728
330
18
100
AcDbEntity
  8
1
  6
Continuous
100
AcDbLine
 10
543.7575467909207
 20
346.4133949305174
 30
0.0
 11
554.7575467909207
 21
338.9938009305174
 31
0.0
  0
LINE
  5
3729
330
18
100
AcDbEntity
  8
4
  6
CENTER
 48
0.2
100
AcDbLine
 10
554.7575467909207
 20
356.7624119305174
 30
0.0
 11
554.7575467909207
 21
343.7624119305175
 31
0.0
  0
ARC
  5
372A
330
18
100
AcDbEntity
  8
1
  6
Continuous
100
AcDbCircle
 10
551.7575467909209
 20
344.7624119305174
 30
0.0
 40
3.0
100
AcDbArc
 50
0.000000000000007
 51
90.0
  0
LINE
  5
372B
330
18
100
AcDbEntity
  8
1
  6
Continuous
100
AcDbLine
 10
554.7575467909207
 20
338.7624119305174
 30
0.0
 11
554.7575467909207
 21
344.7624119305174
 31
0.0
  0
LINE
  5
372C
330
18
100
AcDbEntity
  8
1
  6
Continuous
100
AcDbLine
 10
543.7575467909207
 20
352.7624119305174
 30
0.0
 11
543.7575467909207
 21
346.4133949305174
 31
0.0
  0
LINE
  5
37C2
330
18
100
AcDbEntity
  8
1
  6
Continuous
100
AcDbLine
 10
63.90947226709158
 20
298.4282329305174
 30
0.0
 11
63.90947226709158
 21
207.0965919305174
 31
0.0
  0
LINE
  5
37C3
330
18
100
AcDbEntity
  8
1
  6
Continuous
100
AcDbLine
 10
61.9094722670916
 20
298.4282329305174
 30
0.0
 11
61.9094722670916
 21
207.0965919305174
 31
0.0
  0
LINE
  5
37C4
330
18
100
AcDbEntity
  8
1
  6
Continuous
100
AcDbLine
 10
62.9094722670916
 20
240.5624319305174
 30
0.0
 11
62.9094722670916
 21
264.9624119305173
 31
0.0
  0
LINE
  5
37C5
330
18
100
AcDbEntity
  8
1
  6
Continuous
100
AcDbLine
 10
91.90947226709161
 20
210.1525089305174
 30
0.0
 11
91.90947226709161
 21
295.3723159305174
 31
0.0
  0
LINE
  5
37C6
330
18
100
AcDbEntity
  8
1
  6
Continuous
100
AcDbLine
 10
93.90947226709156
 20
271.0791969305174
 30
0.0
 11
93.90947226709156
 21
234.4456279305174
 31
0.0
  0
LINE
  5
37C7
330
18
100
AcDbEntity
  8
1
  6
Continuous
100
AcDbLine
 10
33.90947226709158
 20
210.1525089305174
 30
0.0
 11
33.90947226709158
 21
295.3723159305174
 31
0.0
  0
LINE
  5
37C8
330
18
100
AcDbEntity
  8
1
  6
Continuous
100
AcDbLine
 10
31.90947226709158
 20
271.0791969305174
 30
0.0
 11
31.90947226709158
 21
234.4456279305174
 31
0.0
  0
LINE
  5
37C9
330
18
100
AcDbEntity
  8
1
  6
Continuous
100
AcDbLine
 10
19.40947226709157
 20
328.7624119305174
 30
0.0
 11
19.40947226709157
 21
234.7624119305174
 31
0.0
  0
LINE
  5
37CA
330
18
100
AcDbEntity
  8
1
  6
Continuous
100
AcDbLine
 10
106.4094722670915
 20
328.7624119305174
 30
0.0
 11
106.4094722670915
 21
234.7624119305174
 31
0.0
  0
LINE
  5
37CB
330
18
100
AcDbEntity
  8
1
  6
Continuous
100
AcDbLine
 10
94.40947226709161
 20
297.7624119305175
 30
0.0
 11
94.40947226709161
 21
234.7624119305174
 31
0.0
  0
LINE
  5
37CC
330
18
100
AcDbEntity
  8
1
  6
Continuous
100
AcDbLine
 10
31.40947226709158
 20
297.7624119305175
 30
0.0
 11
31.40947226709158
 21
234.7624119305174
 31
0.0
  0
LINE
  5
37CD
330
18
100
AcDbEntity
  8
4
  6
CENTER
 48
0.7
100
AcDbLine
 10
62.9094722670916
 20
359.2624189305174
 30
0.0
 11
62.9094722670917
 21
195.7624119305173
 31
0.0
  0
ARC
  5
37D0
330
18
100
AcDbEntity
  8
1
  6
Continuous
100
AcDbCircle
 10
77.9094722670916
 20
272.7624119305175
 30
0.0
 40
70.0
100
AcDbArc
 50
260.915280000001
 51
276.3793699999995
  0
ARC
  5
37D3
330
18
100
AcDbEntity
  8
1
  6
Continuous
100
AcDbCircle
 10
84.90947226709158
 20
210.1525089305174
 30
0.0
 40
7.0
100
AcDbArc
 50
276.3793699999995
 51
0.000000000000007
  0
LINE
  5
37D5
330
18
100
AcDbEntity
  8
1
  6
Continuous
100
AcDbLine
 10
92.96617926709163
 20
233.5943669305174
 30
0.0
 11
91.90947226709161
 21
230.5915919305174
 31
0.0
  0
LINE
  5
37D6
330
18
100
AcDbEntity
  8
1
  6
Continuous
100
AcDbLine
 10
103.4094722670915
 20
231.7624119305174
 30
0.0
 11
97.4094722670916
 21
231.7624119305174
 31
0.0
  0
ARC
  5
37D7
330
18
100
AcDbEntity
  8
1
  6
Continuous
100
AcDbCircle
 10
103.4094722670915
 20
234.7624119305174
 30
0.0
 40
3.0
100
AcDbArc
 50
270.0
 51
0.000000000000007
  0
ARC
  5
37D8
330
18
100
AcDbEntity
  8
1
  6
Continuous
100
AcDbCircle
 10
93.70947226709166
 20
234.4456279305174
 30
0.0
 40
0.2
100
AcDbArc
 50
279.5941419999997
 51
0.000000000000007
  0
ARC
  5
37D9
330
18
100
AcDbEntity
  8
1
  6
Continuous
100
AcDbCircle
 10
93.90947426709159
 20
233.2624119305175
 30
0.0
 40
1.0
100
AcDbArc
 50
99.59414199999978
 51
160.6125279999998
  0
ARC
  5
37DA
330
18
100
AcDbEntity
  8
1
  6
Continuous
100
AcDbCircle
 10
97.4094722670916
 20
234.7624119305174
 30
0.0
 40
3.0
100
AcDbArc
 50
180.0
 51
270.0
  0
LINE
  5
37DB
330
18
100
AcDbEntity
  8
1
  6
Continuous
100
AcDbLine
 10
94.40947226709161
 20
244.2874119305174
 30
0.0
 11
93.90947226709156
 21
244.2874119305174
 31
0.0
  0
LINE
  5
37DC
330
18
100
AcDbEntity
  8
1
  6
Continuous
100
AcDbLine
 10
28.40947226709158
 20
231.7624119305174
 30
0.0
 11
22.40947226709158
 21
231.7624119305174
 31
0.0
  0
ARC
  5
37DD
330
18
100
AcDbEntity
  8
1
  6
Continuous
100
AcDbCircle
 10
40.90947226709158
 20
210.1525089305174
 30
0.0
 40
7.0
100
AcDbArc
 50
180.0
 51
263.6206300000003
  0
ARC
  5
37DE
330
18
100
AcDbEntity
  8
1
  6
Continuous
100
AcDbCircle
 10
47.90947226709159
 20
272.7624119305175
 30
0.0
 40
70.0
100
AcDbArc
 50
263.6206300000003
 51
279.0847199999989
  0
ARC
  5
37DF
330
18
100
AcDbEntity
  8
1
  6
Continuous
100
AcDbCircle
 10
58.40947226709158
 20
207.0965919305174
 30
0.0
 40
3.5
100
AcDbArc
 50
279.0847199999989
 51
0.000000000000007
  0
ARC
  5
37E0
330
18
100
AcDbEntity
  8
1
  6
Continuous
100
AcDbCircle
 10
67.4094722670916
 20
207.0965919305174
 30
0.0
 40
3.5
100
AcDbArc
 50
180.0
 51
260.915280000001
  0
LINE
  5
37E1
330
18
100
AcDbEntity
  8
1
  6
Continuous
100
AcDbLine
 10
62.9094722670916
 20
240.5624319305174
 30
0.0
 11
62.4094722670916
 21
240.0624319305174
 31
0.0
  0
LINE
  5
37E2
330
18
100
AcDbEntity
  8
1
  6
Continuous
100
AcDbLine
 10
61.9094722670916
 20
240.0624319305174
 30
0.0
 11
62.4094722670916
 21
240.0624319305174
 31
0.0
  0
LINE
  5
37E3
330
18
100
AcDbEntity
  8
1
  6
Continuous
100
AcDbLine
 10
63.90947226709158
 20
240.0624319305174
 30
0.0
 11
63.40947226709158
 21
240.0624319305174
 31
0.0
  0
LINE
  5
37E4
330
18
100
AcDbEntity
  8
1
  6
Continuous
100
AcDbLine
 10
62.9094722670916
 20
240.5624319305174
 30
0.0
 11
63.40947226709158
 21
240.0624319305174
 31
0.0
  0
LINE
  5
37E5
330
18
100
AcDbEntity
  8
1
  6
Continuous
100
AcDbLine
 10
32.85276626709162
 20
233.5943669305174
 30
0.0
 11
33.90947226709158
 21
230.5915919305174
 31
0.0
  0
ARC
  5
37E6
330
18
100
AcDbEntity
  8
1
  6
Continuous
100
AcDbCircle
 10
28.40947226709158
 20
234.7624119305174
 30
0.0
 40
3.0
100
AcDbArc
 50
270.0
 51
0.000000000000007
  0
ARC
  5
37E7
330
18
100
AcDbEntity
  8
1
  6
Continuous
100
AcDbCircle
 10
32.10947226709162
 20
234.4456279305174
 30
0.0
 40
0.2
100
AcDbArc
 50
180.0
 51
260.4058580000002
  0
ARC
  5
37E8
330
18
100
AcDbEntity
  8
1
  6
Continuous
100
AcDbCircle
 10
31.9094712670917
 20
233.2624119305175
 30
0.0
 40
1.0
100
AcDbArc
 50
19.38747200000013
 51
80.40585800000025
  0
LINE
  5
37E9
330
18
100
AcDbEntity
  8
1
  6
Continuous
100
AcDbLine
 10
31.40947226709158
 20
244.2874119305174
 30
0.0
 11
31.90947226709158
 21
244.2874119305174
 31
0.0
  0
ARC
  5
37EA
330
18
100
AcDbEntity
  8
1
  6
Continuous
100
AcDbCircle
 10
22.40947226709158
 20
234.7624119305174
 30
0.0
 40
3.0
100
AcDbArc
 50
180.0
 51
270.0
  0
ARC
  5
37EB
330
18
100
AcDbEntity
  8
1
  6
Continuous
100
AcDbCircle
 10
84.40947226709161
 20
297.7624119305175
 30
0.0
 40
10.0
100
AcDbArc
 50
0.000000000000007
 51
90.0
  0
ARC
  5
37EC
330
18
100
AcDbEntity
  8
1
  6
Continuous
100
AcDbCircle
 10
77.9094722670916
 20
232.7624119305174
 30
0.0
 40
70.0
100
AcDbArc
 50
83.62063000000043
 51
99.084719999999
  0
LINE
  5
37ED
330
18
100
AcDbEntity
  8
1
  6
Continuous
100
AcDbLine
 10
94.1472702670917
 20
327.7624119305174
 30
0.0
 11
31.67167526709159
 21
327.7624119305174
 31
0.0
  0
LINE
  5
37EE
330
18
100
AcDbEntity
  8
1
  6
Continuous
100
AcDbLine
 10
94.1472702670917
 20
321.7624119305174
 30
0.0
 11
31.67167526709159
 21
321.7624119305174
 31
0.0
  0
LINE
  5
37EF
330
18
100
AcDbEntity
  8
1
  6
Continuous
100
AcDbLine
 10
25.40947226709159
 20
334.7624119305174
 30
0.0
 11
100.4094722670915
 21
334.7624119305174
 31
0.0
  0
LINE
  5
37F0
330
18
100
AcDbEntity
  8
4
  6
CENTER
 48
0.7
100
AcDbLine
 10
113.4094722670917
 20
252.7624119305174
 30
0.0
 11
12.40947226709158
 21
252.7624119305174
 31
0.0
  0
LINE
  5
37F1
330
18
100
AcDbEntity
  8
1
  6
Continuous
100
AcDbLine
 10
71.18822626709164
 20
347.7624189305174
 30
0.0
 11
112.9094722670915
 21
347.7624189305174
 31
0.0
  0
LINE
  5
37F2
330
18
100
AcDbEntity
  8
1
  6
Continuous
100
AcDbLine
 10
112.9094722670915
 20
352.7624189305174
 30
0.0
 11
71.35947226709163
 21
352.7624189305174
 31
0.0
  0
ARC
  5
37F5
330
18
100
AcDbEntity
  8
1
  6
Continuous
100
AcDbCircle
 10
95.90947226709159
 20
338.7624189305174
 30
0.0
 40
6.0
100
AcDbArc
 50
318.1896850000004
 51
0.000000000000007
  0
LINE
  5
37F6
330
18
100
AcDbEntity
  8
1
  6
Continuous
100
AcDbLine
 10
92.96617926709163
 20
271.9304569305174
 30
0.0
 11
91.90947226709161
 21
274.9332329305174
 31
0.0
  0
LINE
  5
37F7
330
18
100
AcDbEntity
  8
1
  6
Continuous
100
AcDbLine
 10
94.40947226709161
 20
261.2374119305174
 30
0.0
 11
93.90947226709156
 21
261.2374119305174
 31
0.0
  0
ARC
  5
37F8
330
18
100
AcDbEntity
  8
1
  6
Continuous
100
AcDbCircle
 10
93.70947226709166
 20
271.0791969305174
 30
0.0
 40
0.2
100
AcDbArc
 50
0.000000000000007
 51
80.40585800000025
  0
ARC
  5
37F9
330
18
100
AcDbEntity
  8
1
  6
Continuous
100
AcDbCircle
 10
93.90947426709159
 20
272.2624119305174
 30
0.0
 40
1.0
100
AcDbArc
 50
199.3874720000001
 51
260.4058580000002
  0
LINE
  5
37FA
330
18
100
AcDbEntity
  8
1
  6
Continuous
100
AcDbLine
 10
94.1472702670917
 20
307.7624119305174
 30
0.0
 11
94.1472702670917
 21
321.7624119305174
 31
0.0
  0
LINE
  5
37FB
330
18
100
AcDbEntity
  8
1
  6
Continuous
100
AcDbLine
 10
103.4094722670915
 20
298.8124119305174
 30
0.0
 11
97.4094722670916
 21
298.8124119305174
 31
0.0
  0
ARC
  5
37FC
330
18
100
AcDbEntity
  8
1
  6
Continuous
100
AcDbCircle
 10
84.90947226709158
 20
295.3723159305174
 30
0.0
 40
7.0
100
AcDbArc
 50
0.000000000000007
 51
83.62063000000043
  0
ARC
  5
37FD
330
18
100
AcDbEntity
  8
1
  6
Continuous
100
AcDbCircle
 10
100.4094722670915
 20
328.7624119305174
 30
0.0
 40
6.0
100
AcDbArc
 50
0.000000000000007
 51
90.0
  0
ARC
  5
37FE
330
18
100
AcDbEntity
  8
1
  6
Continuous
100
AcDbCircle
 10
94.1472702670917
 20
326.5970149305174
 30
0.0
 40
1.165397
100
AcDbArc
 50
0.000000000000007
 51
90.0
  0
ARC
  5
37FF
330
18
100
AcDbEntity
  8
1
  6
Continuous
100
AcDbCircle
 10
94.1472702670917
 20
322.9278089305174
 30
0.0
 40
1.165397
100
AcDbArc
 50
270.0
 51
0.000000000000007
  0
LINE
  5
3800
330
18
100
AcDbEntity
  8
1
  6
Continuous
100
AcDbLine
 10
95.31266726709169
 20
326.5970149305174
 30
0.0
 11
95.31266726709169
 21
322.9278089305174
 31
0.0
  0
LINE
  5
3801
330
18
100
AcDbEntity
  8
1
  6
Continuous
100
AcDbLine
 10
94.1472702670917
 20
327.7624119305174
 30
0.0
 11
94.1472702670917
 21
328.7624119305174
 31
0.0
  0
LINE
  5
3802
330
18
100
AcDbEntity
  8
1
  6
Continuous
100
AcDbLine
 10
112.9094722670915
 20
352.7624189305174
 30
0.0
 11
112.9094722670915
 21
346.4134019305173
 31
0.0
  0
LINE
  5
3803
330
18
100
AcDbEntity
  8
4
  6
CENTER
 48
0.2
100
AcDbLine
 10
101.9094722670915
 20
356.7624189305174
 30
0.0
 11
101.9094722670915
 21
343.7624189305174
 31
0.0
  0
LINE
  5
3804
330
18
100
AcDbEntity
  8
1
  6
Continuous
100
AcDbLine
 10
112.9094722670915
 20
346.4134019305173
 30
0.0
 11
101.9094722670915
 21
338.9938079305174
 31
0.0
  0
LINE
  5
3805
330
18
100
AcDbEntity
  8
1
  6
Continuous
100
AcDbLine
 10
101.9094722670915
 20
338.7624189305174
 30
0.0
 11
101.9094722670915
 21
344.7624189305174
 31
0.0
  0
ARC
  5
3806
330
18
100
AcDbEntity
  8
1
  6
Continuous
100
AcDbCircle
 10
104.9094722670915
 20
344.7624189305174
 30
0.0
 40
3.0
100
AcDbArc
 50
90.0
 51
180.0
  0
ARC
  5
3807
330
18
100
AcDbEntity
  8
1
  6
Continuous
100
AcDbCircle
 10
29.90947226709158
 20
338.7624189305174
 30
0.0
 40
6.0
100
AcDbArc
 50
180.0
 51
221.8103149999995
  0
ARC
  5
3808
330
18
100
AcDbEntity
  8
1
  6
Continuous
100
AcDbCircle
 10
25.40947226709159
 20
328.7624119305174
 30
0.0
 40
6.0
100
AcDbArc
 50
90.0
 51
180.0
  0
LINE
  5
3809
330
18
100
AcDbEntity
  8
1
  6
Continuous
100
AcDbLine
 10
22.40947226709158
 20
298.8124119305174
 30
0.0
 11
28.40947226709158
 21
298.8124119305174
 31
0.0
  0
LINE
  5
380A
330
18
100
AcDbEntity
  8
1
  6
Continuous
100
AcDbLine
 10
62.4094722670916
 20
265.4624119305174
 30
0.0
 11
62.9094722670916
 21
264.9624119305173
 31
0.0
  0
LINE
  5
380B
330
18
100
AcDbEntity
  8
1
  6
Continuous
100
AcDbLine
 10
61.9094722670916
 20
265.4624119305174
 30
0.0
 11
62.4094722670916
 21
265.4624119305174
 31
0.0
  0
LINE
  5
380C
330
18
100
AcDbEntity
  8
1
  6
Continuous
100
AcDbLine
 10
63.90947226709158
 20
265.4624119305174
 30
0.0
 11
63.40947226709158
 21
265.4624119305174
 31
0.0
  0
LINE
  5
380D
330
18
100
AcDbEntity
  8
1
  6
Continuous
100
AcDbLine
 10
63.40947226709158
 20
265.4624119305174
 30
0.0
 11
62.9094722670916
 21
264.9624119305173
 31
0.0
  0
LINE
  5
380E
330
18
100
AcDbEntity
  8
1
  6
Continuous
100
AcDbLine
 10
32.85276626709162
 20
271.9304569305174
 30
0.0
 11
33.90947226709158
 21
274.9332329305174
 31
0.0
  0
LINE
  5
380F
330
18
100
AcDbEntity
  8
1
  6
Continuous
100
AcDbLine
 10
31.40947226709158
 20
261.2374119305174
 30
0.0
 11
31.90947226709158
 21
261.2374119305174
 31
0.0
  0
ARC
  5
3810
330
18
100
AcDbEntity
  8
1
  6
Continuous
100
AcDbCircle
 10
32.10947226709162
 20
271.0791969305174
 30
0.0
 40
0.2
100
AcDbArc
 50
99.59414199999978
 51
180.0
  0
ARC
  5
3811
330
18
100
AcDbEntity
  8
1
  6
Continuous
100
AcDbCircle
 10
31.9094712670917
 20
272.2624119305174
 30
0.0
 40
1.0
100
AcDbArc
 50
279.5941419999997
 51
340.6125279999999
  0
ARC
  5
3812
330
18
100
AcDbEntity
  8
1
  6
Continuous
100
AcDbCircle
 10
47.90947226709159
 20
232.7624119305174
 30
0.0
 40
70.0
100
AcDbArc
 50
80.91528000000103
 51
96.37936999999958
  0
LINE
  5
3813
330
18
100
AcDbEntity
  8
1
  6
Continuous
100
AcDbLine
 10
84.40947226709161
 20
307.7624119305174
 30
0.0
 11
41.40947226709157
 21
307.7624119305174
 31
0.0
  0
ARC
  5
3814
330
18
100
AcDbEntity
  8
1
  6
Continuous
100
AcDbCircle
 10
58.40947226709158
 20
298.4282329305174
 30
0.0
 40
3.5
100
AcDbArc
 50
0.000000000000007
 51
80.91528000000103
  0
ARC
  5
3815
330
18
100
AcDbEntity
  8
1
  6
Continuous
100
AcDbCircle
 10
67.4094722670916
 20
298.4282329305174
 30
0.0
 40
3.5
100
AcDbArc
 50
99.084719999999
 51
180.0
  0
LINE
  5
3816
330
18
100
AcDbEntity
  8
1
  6
Continuous
100
AcDbLine
 10
31.67167526709159
 20
307.7624119305174
 30
0.0
 11
31.67167526709159
 21
321.7624119305174
 31
0.0
  0
ARC
  5
3817
330
18
100
AcDbEntity
  8
1
  6
Continuous
100
AcDbCircle
 10
41.40947226709157
 20
297.7624119305175
 30
0.0
 40
10.0
100
AcDbArc
 50
90.0
 51
180.0
  0
ARC
  5
3818
330
18
100
AcDbEntity
  8
1
  6
Continuous
100
AcDbCircle
 10
40.90947226709158
 20
295.3723159305174
 30
0.0
 40
7.0
100
AcDbArc
 50
96.37936999999958
 51
180.0
  0
ARC
  5
3819
330
18
100
AcDbEntity
  8
1
  6
Continuous
100
AcDbCircle
 10
31.67167526709159
 20
326.5970149305174
 30
0.0
 40
1.165397
100
AcDbArc
 50
90.0
 51
180.0
  0
ARC
  5
381A
330
18
100
AcDbEntity
  8
1
  6
Continuous
100
AcDbCircle
 10
31.67167526709159
 20
322.9278089305174
 30
0.0
 40
1.165397
100
AcDbArc
 50
180.0
 51
270.0
  0
LINE
  5
381B
330
18
100
AcDbEntity
  8
1
  6
Continuous
100
AcDbLine
 10
30.5062782670916
 20
326.5970149305174
 30
0.0
 11
30.5062782670916
 21
322.9278089305174
 31
0.0
  0
LINE
  5
381C
330
18
100
AcDbEntity
  8
1
  6
Continuous
100
AcDbLine
 10
31.67167526709159
 20
327.7624119305174
 30
0.0
 11
31.67167526709159
 21
328.7624119305174
 31
0.0
  0
LINE
  5
381D
330
18
100
AcDbEntity
  8
1
  6
Continuous
100
AcDbLine
 10
12.90947226709158
 20
346.4134019305173
 30
0.0
 11
23.90947226709158
 21
338.9938079305174
 31
0.0
  0
ARC
  5
381E
330
18
100
AcDbEntity
  8
1
  6
Continuous
100
AcDbCircle
 10
20.90947226709158
 20
344.7624189305174
 30
0.0
 40
3.0
100
AcDbArc
 50
0.000000000000007
 51
90.0
  0
LINE
  5
381F
330
18
100
AcDbEntity
  8
1
  6
Continuous
100
AcDbLine
 10
54.63071926709165
 20
347.7624189305174
 30
0.0
 11
12.90947226709158
 21
347.7624189305174
 31
0.0
  0
LINE
  5
3820
330
18
100
AcDbEntity
  8
1
  6
Continuous
100
AcDbLine
 10
54.45947226709165
 20
352.7624189305174
 30
0.0
 11
12.90947226709158
 21
352.7624189305174
 31
0.0
  0
ARC
  5
3821
330
18
100
AcDbEntity
  8
1
  6
Continuous
100
AcDbCircle
 10
53.63071926709165
 20
339.9938079305174
 30
0.0
 40
1.0
100
AcDbArc
 50
270.0
 51
0.000000000000007
  0
ARC
  5
3822
330
18
100
AcDbEntity
  8
1
  6
Continuous
100
AcDbCircle
 10
62.9094722670916
 20
314.0837839305175
 30
0.0
 40
38.17863499999999
100
AcDbArc
 50
80.10102099999748
 51
99.89897900000251
  0
LINE
  5
3823
330
18
100
AcDbEntity
  8
1
  6
Continuous
100
AcDbLine
 10
62.9094722670916
 20
352.2624189305174
 30
0.0
 11
69.9630482670916
 21
352.2624189305174
 31
0.0
  0
LINE
  5
3824
330
18
100
AcDbEntity
  8
1
  6
Continuous
100
AcDbLine
 10
55.13071926709165
 20
338.9938079305174
 30
0.0
 11
70.68822326709164
 21
338.9938079305174
 31
0.0
  0
ARC
  5
3825
330
18
100
AcDbEntity
  8
1
  6
Continuous
100
AcDbCircle
 10
69.1594722670916
 20
348.6134019305173
 30
0.0
 40
2.2
100
AcDbArc
 50
270.0
 51
337.2438190000011
  0
ARC
  5
3826
330
18
100
AcDbEntity
  8
1
  6
Continuous
100
AcDbCircle
 10
71.35947226709163
 20
350.5624189305174
 30
0.0
 40
2.2
100
AcDbArc
 50
90.0
 51
180.0997249999992
  0
ARC
  5
3827
330
18
100
AcDbEntity
  8
1
  6
Continuous
100
AcDbCircle
 10
72.18822326709164
 20
339.9938079305174
 30
0.0
 40
1.0
100
AcDbArc
 50
180.0
 51
270.0
  0
LINE
  5
3828
330
18
100
AcDbEntity
  8
1
  6
Continuous
100
AcDbLine
 10
71.18822326709164
 20
346.9724249305174
 30
0.0
 11
71.18822326709164
 21
340.4938079305174
 31
0.0
  0
LINE
  5
3829
330
18
100
AcDbEntity
  8
1
  6
Continuous
100
AcDbLine
 10
69.1594722670916
 20
346.4134019305173
 30
0.0
 11
56.6594722670916
 21
346.4134019305173
 31
0.0
  0
LINE
  5
382A
330
18
100
AcDbEntity
  8
1
  6
Continuous
100
AcDbLine
 10
54.63071926709165
 20
346.9724249305174
 30
0.0
 11
54.63071926709165
 21
340.4938079305174
 31
0.0
  0
ARC
  5
382B
330
18
100
AcDbEntity
  8
1
  6
Continuous
100
AcDbCircle
 10
56.65946926709171
 20
348.6134019305173
 30
0.0
 40
2.2
100
AcDbArc
 50
202.7561809999988
 51
270.0
  0
LINE
  5
382C
330
18
100
AcDbEntity
  8
1
  6
Continuous
100
AcDbLine
 10
62.9094722670916
 20
352.2624189305174
 30
0.0
 11
55.85589626709158
 21
352.2624189305174
 31
0.0
  0
LINE
  5
382D
330
18
100
AcDbEntity
  8
1
  6
Continuous
100
AcDbLine
 10
69.15947626709158
 20
350.5585899305174
 30
0.0
 11
56.65946926709171
 21
350.5585899305174
 31
0.0
  0
ARC
  5
382E
330
18
100
AcDbEntity
  8
1
  6
Continuous
100
AcDbCircle
 10
71.35947226709163
 20
350.5624189305174
 30
0.0
 40
2.2
100
AcDbArc
 50
180.0
 51
180.0997249999992
  0
ARC
  5
382F
330
18
100
AcDbEntity
  8
1
  6
Continuous
100
AcDbCircle
 10
54.45947226709165
 20
350.5624189305174
 30
0.0
 40
2.2
100
AcDbArc
 50
359.9002750000007
 51
90.0
  0
LINE
  5
3830
330
18
100
AcDbEntity
  8
4
  6
CENTER
 48
0.2
100
AcDbLine
 10
23.90947226709158
 20
356.7624189305174
 30
0.0
 11
23.90947226709158
 21
343.7624189305174
 31
0.0
  0
LINE
  5
3831
330
18
100
AcDbEntity
  8
1
  6
Continuous
100
AcDbLine
 10
23.90947226709158
 20
338.7624189305174
 30
0.0
 11
23.90947226709158
 21
344.7624189305174
 31
0.0
  0
LINE
  5
3833
330
18
100
AcDbEntity
  8
1
  6
Continuous
100
AcDbLine
 10
12.90947226709158
 20
352.7624189305174
 30
0.0
 11
12.90947226709158
 21
346.4134019305173
 31
0.0
  0
CIRCLE
  5
38E0
330
18
100
AcDbEntity
  8
1
  6
Continuous
100
AcDbCircle
 10
278.8588304417014
 20
130.9224824555105
 30
0.0
 40
5.25
  0
ARC
  5
38E1
330
18
100
AcDbEntity
  8
1
  6
Continuous
100
AcDbCircle
 10
278.8588304417014
 20
130.9224824555105
 30
0.0
 40
11.0
100
AcDbArc
 50
0.0
 51
90.00000000000005
  0
LINE
  5
38E2
330
18
100
AcDbEntity
  8
4
  6
CENTER
 48
0.2
100
AcDbLine
 10
278.8588304417014
 20
140.1724824555105
 30
0.0
 11
278.8588304417014
 21
121.6724824555105
 31
0.0
  0
CIRCLE
  5
38E6
330
18
100
AcDbEntity
  8
1
  6
Continuous
100
AcDbCircle
 10
200.8588304417013
 20
130.9224824555105
 30
0.0
 40
5.25
  0
ARC
  5
38E7
330
18
100
AcDbEntity
  8
1
  6
Continuous
100
AcDbCircle
 10
200.8588304417013
 20
130.9224824555105
 30
0.0
 40
11.0
100
AcDbArc
 50
90.00000000000005
 51
180.0
  0
LINE
  5
38E8
330
18
100
AcDbEntity
  8
4
  6
CENTER
 48
0.2
100
AcDbLine
 10
200.8588304417013
 20
140.1724824555105
 30
0.0
 11
200.8588304417013
 21
121.6724824555105
 31
0.0
  0
LINE
  5
38E9
330
18
100
AcDbEntity
  8
4
  6
CENTER
 48
0.7
100
AcDbLine
 10
239.8588304417013
 20
148.9224824555105
 30
0.0
 11
239.8588304417013
 21
34.92248245551059
 31
0.0
  0
LINE
  5
38EB
330
18
100
AcDbEntity
  8
1
  6
Continuous
100
AcDbLine
 10
200.8588304417013
 20
141.9224824555105
 30
0.0
 11
278.8588304417014
 21
141.9224824555105
 31
0.0
  0
LINE
  5
38EC
330
18
100
AcDbEntity
  8
4
  6
CENTER
 48
0.2
100
AcDbLine
 10
269.6088304417013
 20
130.9224824555105
 30
0.0
 11
288.1088304417014
 21
130.9224824555105
 31
0.0
  0
LINE
  5
38ED
330
18
100
AcDbEntity
  8
1
  6
Continuous
100
AcDbLine
 10
278.8588304417014
 20
41.92248245551057
 30
0.0
 11
200.8588304417013
 21
41.92248245551057
 31
0.0
  0
LINE
  5
38F1
330
18
100
AcDbEntity
  8
4
  6
CENTER
 48
0.7
100
AcDbLine
 10
182.8588304417013
 20
91.92248245551061
 30
0.0
 11
296.8588304417013
 21
91.92248245551063
 31
0.0
  0
LINE
  5
38F2
330
18
100
AcDbEntity
  8
4
  6
CENTER
 48
0.2
100
AcDbLine
 10
269.6088304417013
 20
52.9224824555106
 30
0.0
 11
288.1088304417014
 21
52.9224824555106
 31
0.0
  0
ARC
  5
38F7
330
18
100
AcDbEntity
  8
1
  6
Continuous
100
AcDbCircle
 10
200.8588304417013
 20
52.9224824555106
 30
0.0
 40
11.0
100
AcDbArc
 50
180.0
 51
270.0
  0
LINE
  5
38F8
330
18
100
AcDbEntity
  8
4
  6
CENTER
 48
0.2
100
AcDbLine
 10
200.8588304417013
 20
62.1724824555106
 30
0.0
 11
200.8588304417013
 21
43.67248245551059
 31
0.0
  0
LINE
  5
38F9
330
18
100
AcDbEntity
  8
4
  6
CENTER
 48
0.2
100
AcDbLine
 10
191.6088304417013
 20
52.9224824555106
 30
0.0
 11
210.1088304417013
 21
52.9224824555106
 31
0.0
  0
LINE
  5
38FA
330
18
100
AcDbEntity
  8
4
  6
CENTER
 48
0.2
100
AcDbLine
 10
191.6088304417013
 20
130.9224824555105
 30
0.0
 11
210.1088304417013
 21
130.9224824555105
 31
0.0
  0
LINE
  5
38FB
330
18
100
AcDbEntity
  8
1
  6
Continuous
100
AcDbLine
 10
189.8588304417013
 20
52.9224824555106
 30
0.0
 11
189.8588304417013
 21
130.9224824555105
 31
0.0
  0
CIRCLE
  5
3900
330
18
100
AcDbEntity
  8
1
  6
Continuous
100
AcDbCircle
 10
200.8588304417013
 20
52.9224824555106
 30
0.0
 40
5.25
  0
ARC
  5
390C
330
18
100
AcDbEntity
  8
1
  6
Continuous
100
AcDbCircle
 10
278.8588304417014
 20
52.9224824555106
 30
0.0
 40
11.0
100
AcDbArc
 50
270.0
 51
0.0
  0
LINE
  5
390E
330
18
100
AcDbEntity
  8
4
  6
CENTER
 48
0.2
100
AcDbLine
 10
278.8588304417014
 20
62.1724824555106
 30
0.0
 11
278.8588304417014
 21
43.67248245551059
 31
0.0
  0
LINE
  5
390F
330
18
100
AcDbEntity
  8
1
  6
Continuous
100
AcDbLine
 10
289.8588304417014
 20
130.9224824555105
 30
0.0
 11
289.8588304417014
 21
52.9224824555106
 31
0.0
  0
CIRCLE
  5
3915
330
18
100
AcDbEntity
  8
1
  6
Continuous
100
AcDbCircle
 10
278.8588304417014
 20
52.9224824555106
 30
0.0
 40
5.25
  0
CIRCLE
  5
39AA
330
18
100
AcDbEntity
  8
1
  6
Continuous
100
AcDbCircle
 10
593.7575467909207
 20
252.7624119305175
 30
0.0
 40
5.5
  0
LINE
  5
39AB
330
18
100
AcDbEntity
  8
1
  6
Continuous
100
AcDbLine
 10
285.5246514417012
 20
92.92248245551062
 30
0.0
 11
194.1930104417012
 21
92.92248245551062
 31
0.0
  0
LINE
  5
39AC
330
18
100
AcDbEntity
  8
1
  6
Continuous
100
AcDbLine
 10
285.5246514417012
 20
90.9224824555106
 30
0.0
 11
194.1930104417012
 21
90.9224824555106
 31
0.0
  0
LINE
  5
39AD
330
18
100
AcDbEntity
  8
1
  6
Continuous
100
AcDbLine
 10
227.6588504417012
 20
91.92248245551061
 30
0.0
 11
252.0588304417012
 21
91.92248245551061
 31
0.0
  0
LINE
  5
39AE
330
18
100
AcDbEntity
  8
1
  6
Continuous
100
AcDbLine
 10
197.2489274417013
 20
120.9224824555106
 30
0.0
 11
282.4687344417012
 21
120.9224824555106
 31
0.0
  0
LINE
  5
39AF
330
18
100
AcDbEntity
  8
1
  6
Continuous
100
AcDbLine
 10
258.1756154417013
 20
122.9224824555106
 30
0.0
 11
221.5420464417012
 21
122.9224824555106
 31
0.0
  0
LINE
  5
39B0
330
18
100
AcDbEntity
  8
1
  6
Continuous
100
AcDbLine
 10
197.2489274417013
 20
62.92248245551061
 30
0.0
 11
282.4687344417012
 21
62.92248245551061
 31
0.0
  0
LINE
  5
39B1
330
18
100
AcDbEntity
  8
1
  6
Continuous
100
AcDbLine
 10
258.1756154417013
 20
60.9224824555106
 30
0.0
 11
221.5420464417012
 21
60.9224824555106
 31
0.0
  0
LINE
  5
39B2
330
18
100
AcDbEntity
  8
1
  6
Continuous
100
AcDbLine
 10
262.8588304417013
 20
123.4224824555106
 30
0.0
 11
216.8588304417013
 21
123.4224824555106
 31
0.0
  0
LINE
  5
39B3
330
18
100
AcDbEntity
  8
1
  6
Continuous
100
AcDbLine
 10
262.8588304417012
 20
60.42248245551061
 30
0.0
 11
216.8588304417013
 21
60.42248245551061
 31
0.0
  0
ARC
  5
39B5
330
18
100
AcDbEntity
  8
1
  6
Continuous
100
AcDbCircle
 10
259.8588304417013
 20
106.9224824555105
 30
0.0
 40
70.0
100
AcDbArc
 50
173.6206300000004
 51
189.0847199999989
  0
ARC
  5
39B8
330
18
100
AcDbEntity
  8
1
  6
Continuous
100
AcDbCircle
 10
197.2489274417013
 20
113.9224824555105
 30
0.0
 40
7.0
100
AcDbArc
 50
89.99999999999998
 51
173.6206300000004
  0
LINE
  5
39BA
330
18
100
AcDbEntity
  8
1
  6
Continuous
100
AcDbLine
 10
220.6907854417013
 20
121.9791894555106
 30
0.0
 11
217.6880104417012
 21
120.9224824555106
 31
0.0
  0
ARC
  5
39BD
330
18
100
AcDbEntity
  8
1
  6
Continuous
100
AcDbCircle
 10
221.5420464417012
 20
122.7224824555106
 30
0.0
 40
0.2
100
AcDbArc
 50
89.99999999999998
 51
170.4058580000002
  0
ARC
  5
39BE
330
18
100
AcDbEntity
  8
1
  6
Continuous
100
AcDbCircle
 10
220.3588304417013
 20
122.9224844555105
 30
0.0
 40
1.0
100
AcDbArc
 50
289.3874720000001
 51
350.4058580000001
  0
LINE
  5
39C0
330
18
100
AcDbEntity
  8
1
  6
Continuous
100
AcDbLine
 10
231.3838304417013
 20
123.4224824555106
 30
0.0
 11
231.3838304417013
 21
122.9224824555106
 31
0.0
  0
ARC
  5
39C2
330
18
100
AcDbEntity
  8
1
  6
Continuous
100
AcDbCircle
 10
197.2489274417013
 20
69.9224824555106
 30
0.0
 40
7.0
100
AcDbArc
 50
186.3793699999996
 51
270.0
  0
ARC
  5
39C3
330
18
100
AcDbEntity
  8
1
  6
Continuous
100
AcDbCircle
 10
259.8588304417013
 20
76.9224824555106
 30
0.0
 40
70.0
100
AcDbArc
 50
170.915280000001
 51
186.3793699999996
  0
ARC
  5
39C4
330
18
100
AcDbEntity
  8
1
  6
Continuous
100
AcDbCircle
 10
194.1930104417012
 20
87.42248245551058
 30
0.0
 40
3.5
100
AcDbArc
 50
89.99999999999998
 51
170.915280000001
  0
ARC
  5
39C5
330
18
100
AcDbEntity
  8
1
  6
Continuous
100
AcDbCircle
 10
194.1930104417012
 20
96.42248245551058
 30
0.0
 40
3.5
100
AcDbArc
 50
189.0847199999989
 51
270.0
  0
LINE
  5
39C6
330
18
100
AcDbEntity
  8
1
  6
Continuous
100
AcDbLine
 10
227.6588504417012
 20
91.92248245551061
 30
0.0
 11
227.1588504417012
 21
91.42248245551062
 31
0.0
  0
LINE
  5
39C7
330
18
100
AcDbEntity
  8
1
  6
Continuous
100
AcDbLine
 10
227.1588504417012
 20
90.9224824555106
 30
0.0
 11
227.1588504417012
 21
91.42248245551062
 31
0.0
  0
LINE
  5
39C8
330
18
100
AcDbEntity
  8
1
  6
Continuous
100
AcDbLine
 10
227.1588504417012
 20
92.92248245551062
 30
0.0
 11
227.1588504417012
 21
92.42248245551062
 31
0.0
  0
LINE
  5
39C9
330
18
100
AcDbEntity
  8
1
  6
Continuous
100
AcDbLine
 10
227.6588504417012
 20
91.92248245551061
 30
0.0
 11
227.1588504417012
 21
92.42248245551062
 31
0.0
  0
LINE
  5
39CA
330
18
100
AcDbEntity
  8
1
  6
Continuous
100
AcDbLine
 10
220.6907854417012
 20
61.86577645551064
 30
0.0
 11
217.6880104417012
 21
62.92248245551061
 31
0.0
  0
ARC
  5
39CC
330
18
100
AcDbEntity
  8
1
  6
Continuous
100
AcDbCircle
 10
221.5420464417012
 20
61.12248245551064
 30
0.0
 40
0.2
100
AcDbArc
 50
189.5941419999997
 51
270.0
  0
ARC
  5
39CD
330
18
100
AcDbEntity
  8
1
  6
Continuous
100
AcDbCircle
 10
220.3588304417013
 20
60.92248145551071
 30
0.0
 40
1.0
100
AcDbArc
 50
9.594141999999752
 51
70.61252799999987
  0
LINE
  5
39CE
330
18
100
AcDbEntity
  8
1
  6
Continuous
100
AcDbLine
 10
231.3838304417013
 20
60.42248245551061
 30
0.0
 11
231.3838304417013
 21
60.9224824555106
 31
0.0
  0
ARC
  5
39D1
330
18
100
AcDbEntity
  8
1
  6
Continuous
100
AcDbCircle
 10
219.8588304417013
 20
106.9224824555105
 30
0.0
 40
70.0
100
AcDbArc
 50
350.915280000001
 51
6.379369999999567
  0
LINE
  5
39D3
330
18
100
AcDbEntity
  8
1
  6
Continuous
100
AcDbLine
 10
259.0268754417012
 20
121.9791894555106
 30
0.0
 11
262.0296514417012
 21
120.9224824555106
 31
0.0
  0
LINE
  5
39D4
330
18
100
AcDbEntity
  8
1
  6
Continuous
100
AcDbLine
 10
248.3338304417012
 20
123.4224824555106
 30
0.0
 11
248.3338304417012
 21
122.9224824555106
 31
0.0
  0
ARC
  5
39D5
330
18
100
AcDbEntity
  8
1
  6
Continuous
100
AcDbCircle
 10
258.1756154417013
 20
122.7224824555106
 30
0.0
 40
0.2
100
AcDbArc
 50
9.594141999999752
 51
89.99999999999998
  0
ARC
  5
39D6
330
18
100
AcDbEntity
  8
1
  6
Continuous
100
AcDbCircle
 10
259.3588304417013
 20
122.9224844555105
 30
0.0
 40
1.0
100
AcDbArc
 50
189.5941419999997
 51
250.6125279999999
  0
ARC
  5
39D8
330
18
100
AcDbEntity
  8
1
  6
Continuous
100
AcDbCircle
 10
282.4687344417012
 20
113.9224824555105
 30
0.0
 40
7.0
100
AcDbArc
 50
6.379369999999567
 51
89.99999999999998
  0
LINE
  5
39DA
330
18
100
AcDbEntity
  8
1
  6
Continuous
100
AcDbLine
 10
252.5588304417012
 20
91.42248245551062
 30
0.0
 11
252.0588304417012
 21
91.92248245551061
 31
0.0
  0
LINE
  5
39DB
330
18
100
AcDbEntity
  8
1
  6
Continuous
100
AcDbLine
 10
252.5588304417012
 20
90.9224824555106
 30
0.0
 11
252.5588304417012
 21
91.42248245551062
 31
0.0
  0
LINE
  5
39DC
330
18
100
AcDbEntity
  8
1
  6
Continuous
100
AcDbLine
 10
252.5588304417012
 20
92.92248245551062
 30
0.0
 11
252.5588304417012
 21
92.42248245551062
 31
0.0
  0
LINE
  5
39DD
330
18
100
AcDbEntity
  8
1
  6
Continuous
100
AcDbLine
 10
252.5588304417012
 20
92.42248245551062
 30
0.0
 11
252.0588304417012
 21
91.92248245551061
 31
0.0
  0
LINE
  5
39DE
330
18
100
AcDbEntity
  8
1
  6
Continuous
100
AcDbLine
 10
259.0268754417012
 20
61.86577645551064
 30
0.0
 11
262.0296514417012
 21
62.92248245551061
 31
0.0
  0
LINE
  5
39DF
330
18
100
AcDbEntity
  8
1
  6
Continuous
100
AcDbLine
 10
248.3338304417012
 20
60.42248245551061
 30
0.0
 11
248.3338304417012
 21
60.9224824555106
 31
0.0
  0
ARC
  5
39E0
330
18
100
AcDbEntity
  8
1
  6
Continuous
100
AcDbCircle
 10
258.1756154417013
 20
61.12248245551064
 30
0.0
 40
0.2
100
AcDbArc
 50
270.0
 51
350.4058580000001
  0
ARC
  5
39E1
330
18
100
AcDbEntity
  8
1
  6
Continuous
100
AcDbCircle
 10
259.3588304417013
 20
60.92248145551071
 30
0.0
 40
1.0
100
AcDbArc
 50
109.387472
 51
170.4058580000002
  0
ARC
  5
39E2
330
18
100
AcDbEntity
  8
1
  6
Continuous
100
AcDbCircle
 10
219.8588304417013
 20
76.9224824555106
 30
0.0
 40
70.0
100
AcDbArc
 50
353.6206300000003
 51
9.084719999998963
  0
ARC
  5
39E4
330
18
100
AcDbEntity
  8
1
  6
Continuous
100
AcDbCircle
 10
285.5246514417012
 20
87.42248245551058
 30
0.0
 40
3.5
100
AcDbArc
 50
9.084719999998963
 51
89.99999999999998
  0
ARC
  5
39E5
330
18
100
AcDbEntity
  8
1
  6
Continuous
100
AcDbCircle
 10
285.5246514417012
 20
96.42248245551058
 30
0.0
 40
3.5
100
AcDbArc
 50
270.0
 51
350.915280000001
  0
ARC
  5
39E7
330
18
100
AcDbEntity
  8
1
  6
Continuous
100
AcDbCircle
 10
282.4687344417012
 20
69.9224824555106
 30
0.0
 40
7.0
100
AcDbArc
 50
270.0
 51
353.6206300000003
  0
LINE
  5
39E8
330
18
100
AcDbEntity
  8
1
  6
Continuous
100
AcDbLine
 10
262.8588304417013
 20
48.4224824555106
 30
0.0
 11
216.8588304417013
 21
48.4224824555106
 31
0.0
  0
LINE
  5
39E9
330
18
100
AcDbEntity
  8
1
  6
Continuous
100
AcDbLine
 10
262.8588304417013
 20
135.4224824555105
 30
0.0
 11
216.8588304417013
 21
135.4224824555105
 31
0.0
  0
LINE
  5
3A3E
330
18
100
AcDbEntity
  8
1
  6
Continuous
100
AcDbLine
 10
265.8588304417013
 20
126.4224824555106
 30
0.0
 11
265.8588304417013
 21
132.4224824555105
 31
0.0
  0
LINE
  5
3A3F
330
18
100
AcDbEntity
  8
1
  6
Continuous
100
AcDbLine
 10
213.8588304417013
 20
126.4224824555106
 30
0.0
 11
213.8588304417013
 21
132.4224824555105
 31
0.0
  0
LINE
  5
3A40
330
18
100
AcDbEntity
  8
1
  6
Continuous
100
AcDbLine
 10
265.8588304417013
 20
51.42248245551065
 30
0.0
 11
265.8588304417012
 21
57.42248245551062
 31
0.0
  0
LINE
  5
3A41
330
18
100
AcDbEntity
  8
1
  6
Continuous
100
AcDbLine
 10
213.8588304417013
 20
51.42248245551062
 30
0.0
 11
213.8588304417013
 21
57.42248245551062
 31
0.0
  0
ARC
  5
3A42
330
18
100
AcDbEntity
  8
1
  6
Continuous
100
AcDbCircle
 10
216.8588304417013
 20
51.42248245551062
 30
0.0
 40
3.0
100
AcDbArc
 50
180.0
 51
270.0
  0
ARC
  5
3A43
330
18
100
AcDbEntity
  8
1
  6
Continuous
100
AcDbCircle
 10
216.8588304417013
 20
57.42248245551062
 30
0.0
 40
3.0
100
AcDbArc
 50
90.0
 51
180.0
  0
ARC
  5
3A44
330
18
100
AcDbEntity
  8
1
  6
Continuous
100
AcDbCircle
 10
262.8588304417012
 20
57.42248245551062
 30
0.0
 40
3.0
100
AcDbArc
 50
0.0
 51
90.0
  0
ARC
  5
3A45
330
18
100
AcDbEntity
  8
1
  6
Continuous
100
AcDbCircle
 10
262.8588304417013
 20
51.42248245551062
 30
0.0
 40
3.0
100
AcDbArc
 50
270.0
 51
0.0000000000004326
  0
ARC
  5
3A46
330
18
100
AcDbEntity
  8
1
  6
Continuous
100
AcDbCircle
 10
262.8588304417013
 20
132.4224824555105
 30
0.0
 40
3.0
100
AcDbArc
 50
0.0
 51
90.0
  0
ARC
  5
3A47
330
18
100
AcDbEntity
  8
1
  6
Continuous
100
AcDbCircle
 10
262.8588304417013
 20
126.4224824555106
 30
0.0
 40
3.0
100
AcDbArc
 50
270.0
 51
0.0
  0
ARC
  5
3A48
330
18
100
AcDbEntity
  8
1
  6
Continuous
100
AcDbCircle
 10
216.8588304417013
 20
132.4224824555105
 30
0.0
 40
3.0
100
AcDbArc
 50
90.0
 51
180.0
  0
ARC
  5
3A49
330
18
100
AcDbEntity
  8
1
  6
Continuous
100
AcDbCircle
 10
216.8588304417013
 20
126.4224824555106
 30
0.0
 40
3.0
100
AcDbArc
 50
180.0
 51
270.0
  0
ARC
  5
3A4C
330
18
100
AcDbEntity
  8
1
  6
Continuous
100
AcDbCircle
 10
231.6650804417013
 20
91.92248245551063
 30
0.0
 40
34.80624999999997
100
AcDbArc
 50
115.1753867632975
 51
123.5728168584453
  0
ARC
  5
3A4E
330
18
100
AcDbEntity
  8
1
  6
Continuous
100
AcDbCircle
 10
230.6650804417013
 20
91.92248245551061
 30
0.0
 40
34.80624999999997
100
AcDbArc
 50
114.7741393082395
 51
123.5728168584453
  0
ARC
  5
3A4F
330
18
100
AcDbEntity
  8
1
  6
Continuous
100
AcDbCircle
 10
249.0525804417013
 20
91.92248245551061
 30
0.0
 40
34.80624999999997
100
AcDbArc
 50
294.7741393082395
 51
303.5728168584453
  0
ARC
  5
3A50
330
18
100
AcDbEntity
  8
1
  6
Continuous
100
AcDbCircle
 10
248.0525804417013
 20
91.92248245551063
 30
0.0
 40
34.80624999999997
100
AcDbArc
 50
295.1753867632975
 51
303.5728168584453
  0
ARC
  5
3A52
330
18
100
AcDbEntity
  8
1
  6
Continuous
100
AcDbCircle
 10
248.0525804417013
 20
91.92248245551063
 30
0.0
 40
34.80624999999997
100
AcDbArc
 50
358.3536386478253
 51
1.646361352174704
  0
ARC
  5
3A53
330
18
100
AcDbEntity
  8
1
  6
Continuous
100
AcDbCircle
 10
249.0525804417013
 20
91.92248245551061
 30
0.0
 40
34.80624999999997
100
AcDbArc
 50
358.3536386478253
 51
1.646361352174704
  0
ARC
  5
3A54
330
18
100
AcDbEntity
  8
1
  6
Continuous
100
AcDbCircle
 10
248.0525804417013
 20
91.92248245551063
 30
0.0
 40
34.80624999999997
100
AcDbArc
 50
56.42718314155461
 51
64.82461323670243
  0
ARC
  5
3A55
330
18
100
AcDbEntity
  8
1
  6
Continuous
100
AcDbCircle
 10
249.0525804417013
 20
91.92248245551061
 30
0.0
 40
34.80624999999997
100
AcDbArc
 50
56.42718314155462
 51
65.22586069176043
  0
ARC
  5
3A56
330
18
100
AcDbEntity
  8
1
  6
Continuous
100
AcDbCircle
 10
230.6650804417013
 20
91.92248245551061
 30
0.0
 40
34.80624999999997
100
AcDbArc
 50
178.3536386478252
 51
181.6463613521747
  0
ARC
  5
3A57
330
18
100
AcDbEntity
  8
1
  6
Continuous
100
AcDbCircle
 10
231.6650804417013
 20
91.92248245551063
 30
0.0
 40
34.80624999999997
100
AcDbArc
 50
178.3536386478252
 51
181.6463613521747
  0
ARC
  5
3A58
330
18
100
AcDbEntity
  8
1
  6
Continuous
100
AcDbCircle
 10
231.6650804417013
 20
91.92248245551063
 30
0.0
 40
34.80624999999997
100
AcDbArc
 50
236.4271831415546
 51
244.8246132367024
  0
ARC
  5
3A59
330
18
100
AcDbEntity
  8
1
  6
Continuous
100
AcDbCircle
 10
230.6650804417013
 20
91.92248245551061
 30
0.0
 40
34.80624999999997
100
AcDbArc
 50
236.4271831415546
 51
245.2258606917604
  0
LINE
  5
3A5A
330
18
100
AcDbEntity
  8
1
  6
Continuous
100
AcDbLine
 10
248.1375844417012
 20
141.9224824555105
 30
0.0
 11
248.1375844417012
 21
135.4224824555105
 31
0.0
  0
LINE
  5
3A5B
330
18
100
AcDbEntity
  8
1
  6
Continuous
100
AcDbLine
 10
231.5800804417012
 20
141.9224824555105
 30
0.0
 11
231.5800804417012
 21
135.4224824555105
 31
0.0
  0
LINE
  5
3A5C
330
18
100
AcDbEntity
  8
1
  6
Continuous
100
AcDbLine
 10
189.8588304417014
 20
100.2012364555105
 30
0.0
 11
190.1822572466346
 21
100.2012364555105
 31
0.0
  0
LINE
  5
3A5D
330
18
100
AcDbEntity
  8
1
  6
Continuous
100
AcDbLine
 10
189.8588304417014
 20
83.64373245551053
 30
0.0
 11
190.1822576324888
 21
83.64373245551053
 31
0.0
  0
LINE
  5
3A5E
330
18
100
AcDbEntity
  8
1
  6
Continuous
100
AcDbLine
 10
231.5800764417013
 20
41.92248245551065
 30
0.0
 11
231.5800764417013
 21
48.42248245551065
 31
0.0
  0
LINE
  5
3A5F
330
18
100
AcDbEntity
  8
1
  6
Continuous
100
AcDbLine
 10
248.1375804417014
 20
41.92248245551065
 30
0.0
 11
248.1375804417014
 21
48.4224824555106
 31
0.0
  0
LINE
  5
3A60
330
18
100
AcDbEntity
  8
1
  6
Continuous
100
AcDbLine
 10
289.8588304417012
 20
83.64372845551056
 30
0.0
 11
289.535403636768
 21
83.64372845551056
 31
0.0
  0
LINE
  5
3A61
330
18
100
AcDbEntity
  8
1
  6
Continuous
100
AcDbLine
 10
289.8588304417012
 20
100.2012324555105
 30
0.0
 11
289.5354032509138
 21
100.2012324555105
 31
0.0
  0
ENDSEC
  0
SECTION
  2
OBJECTS
  0
DICTIONARY
  5
C
330
0
100
AcDbDictionary
281
     1
  3
ACAD_CIP_PREVIOUS_PRODUCT_INFO
350
3FF6
  3
ACAD_COLOR
350
3FD9
  3
ACAD_DETAILVIEWSTYLE
350
3FF2
  3
ACAD_GROUP
350
D
  3
ACAD_LAYOUT
350
94
  3
ACAD_MATERIAL
350
3FA7
  3
ACAD_MLEADERSTYLE
350
3FEE
  3
ACAD_MLINESTYLE
350
1B
  3
ACAD_PLOTSETTINGS
350
95
  3
ACAD_PLOTSTYLENAME
350
3FA5
  3
ACAD_SCALELIST
350
3FDC
  3
ACAD_SECTIONVIEWSTYLE
350
3FF0
  3
ACAD_TABLESTYLE
350
3FDA
  3
ACAD_VISUALSTYLE
350
3FC0
  3
ACDB_RECOMPOSE_DATA
350
4014
  3
AcDbVariableDictionary
350
4007
  3
CONTENTDICTIONARY
350
3D
  3
DWGPROPS
350
4015
  0
DICTIONARY
  5
3FF7
330
E
100
AcDbDictionary
280
     1
281
     1
  3
ADSK_XREC_LAYER_RECONCILED
360
3FF8
  0
DICTIONARY
  5
3FF9
330
4E
100
AcDbDictionary
280
     1
281
     1
  3
ADSK_XREC_LAYER_RECONCILED
360
3FFA
  0
DICTIONARY
  5
3FFB
330
4F
100
AcDbDictionary
280
     1
281
     1
  3
ADSK_XREC_LAYER_RECONCILED
360
3FFC
  0
DICTIONARY
  5
3FFD
330
50
100
AcDbDictionary
280
     1
281
     1
  3
ADSK_XREC_LAYER_RECONCILED
360
3FFE
  0
DICTIONARY
  5
3FFF
330
51
100
AcDbDictionary
280
     1
281
     1
  3
ADSK_XREC_LAYER_RECONCILED
360
4000
  0
DICTIONARY
  5
4001
330
52
100
AcDbDictionary
280
     1
281
     1
  3
ADSK_XREC_LAYER_RECONCILED
360
4002
  0
DICTIONARY
  5
4003
330
53
100
AcDbDictionary
280
     1
281
     1
  3
ADSK_XREC_LAYER_RECONCILED
360
4004
  0
DICTIONARY
  5
4005
330
54
100
AcDbDictionary
280
     1
281
     1
  3
ADSK_XREC_LAYER_RECONCILED
360
4006
  0
DICTIONARY
  5
3FA0
330
18
100
AcDbDictionary
281
     1
  3
ACAD_LAYOUTSELFREF
350
3FA1
  0
DICTIONARY
  5
3F9E
330
15
100
AcDbDictionary
281
     1
  3
ACAD_LAYOUTSELFREF
350
3F9F
  0
XRECORD
  5
3FF6
102
{ACAD_REACTORS
330
C
102
}
330
C
100
AcDbXrecord
280
     1
300
ACDLT
300
2014
300
ACDLT_F_S
  0
DICTIONARY
  5
3FD9
102
{ACAD_REACTORS
330
C
102
}
330
C
100
AcDbDictionary
281
     1
  0
DICTIONARY
  5
3FF2
102
{ACAD_REACTORS
330
C
102
}
330
C
100
AcDbDictionary
281
     1
  3
Imperial24
350
3FF3
  0
DICTIONARY
  5
D
102
{ACAD_REACTORS
330
C
102
}
330
C
100
AcDbDictionary
281
     1
  0
DICTIONARY
  5
94
102
{ACAD_REACTORS
330
C
102
}
330
C
100
AcDbDictionary
281
     1
  3
Model
350
3FF4
  3
レイアウト1
350
3FF5
  0
DICTIONARY
  5
3FA7
102
{ACAD_REACTORS
330
C
102
}
330
C
100
AcDbDictionary
281
     1
  3
ByBlock
350
3FB0
  3
ByLayer
350
3FA8
  3
Global
350
3FB8
  0
DICTIONARY
  5
3FEE
102
{ACAD_REACTORS
330
C
102
}
330
C
100
AcDbDictionary
281
     1
  3
Standard
350
3FEF
  0
DICTIONARY
  5
1B
102
{ACAD_REACTORS
330
C
102
}
330
C
100
AcDbDictionary
281
     1
  3
STANDARD
350
1C
  0
DICTIONARY
  5
95
102
{ACAD_REACTORS
330
C
102
}
330
C
100
AcDbDictionary
281
     1
  0
ACDBDICTIONARYWDFLT
  5
3FA5
102
{ACAD_REACTORS
330
C
102
}
330
C
100
AcDbDictionary
281
     1
  3
Normal
350
3FA6
100
AcDbDictionaryWithDefault
340
3FA6
  0
DICTIONARY
  5
3FDC
102
{ACAD_REACTORS
330
C
102
}
330
C
100
AcDbDictionary
281
     1
  3
A0
350
3FDD
  3
A1
350
3FDE
  3
A2
350
3FDF
  3
A3
350
3FE0
  3
A4
350
3FE1
  3
A5
350
3FE2
  3
A6
350
3FE3
  3
A7
350
3FE4
  3
A8
350
3FE5
  3
A9
350
3FE6
  3
B0
350
3FE7
  3
B1
350
3FE8
  3
B2
350
3FE9
  3
B3
350
3FEA
  3
B4
350
3FEB
  3
B5
350
3FEC
  3
B6
350
3FED
  0
DICTIONARY
  5
3FF0
102
{ACAD_REACTORS
330
C
102
}
330
C
100
AcDbDictionary
281
     1
  3
Imperial24
350
3FF1
  0
DICTIONARY
  5
3FDA
102
{ACAD_REACTORS
330
C
102
}
330
C
100
AcDbDictionary
281
     1
  3
Standard
350
3FDB
  0
DICTIONARY
  5
3FC0
102
{ACAD_REACTORS
330
C
102
}
330
C
100
AcDbDictionary
281
     1
  3
2dWireframe
350
3FC6
  3
Basic
350
3FC5
  3
Brighten
350
3FCC
  3
ColorChange
350
3FD0
  3
Conceptual
350
3FC9
  3
Dim
350
3FCB
  3
EdgeColorOff
350
3FD8
  3
Facepattern
350
3FCF
  3
Flat
350
3FC1
  3
FlatWithEdges
350
3FC2
  3
Gouraud
350
3FC3
  3
GouraudWithEdges
350
3FC4
  3
Hidden
350
3FC8
  3
JitterOff
350
3FD6
  3
Linepattern
350
3FCE
  3
OverhangOff
350
3FD7
  3
Realistic
350
3FCA
  3
Shaded
350
3FD5
  3
Shaded with edges
350
3FD4
  3
Shades of Gray
350
3FD1
  3
Sketchy
350
3FD2
  3
Thicken
350
3FCD
  3
Wireframe
350
3FC7
  3
X-Ray
350
3FD3
  0
XRECORD
  5
4014
102
{ACAD_REACTORS
330
C
102
}
330
C
100
AcDbXrecord
280
     1
 90
        1
330
3FDB
  0
DICTIONARY
  5
4007
102
{ACAD_REACTORS
330
C
102
}
330
C
100
AcDbDictionary
281
     1
  3
CANNOSCALE
350
400C
  3
CMLEADERSTYLE
350
4009
  3
CTABLESTYLE
350
4008
  3
CVIEWDETAILSTYLE
350
400A
  3
CVIEWSECTIONSTYLE
350
400B
  3
DIMASSOC
350
400F
  3
INDEXCTL
350
400E
  3
SORTENTS
350
400D
  3
XCLIPFRAME
350
4010
  0
DICTIONARY
  5
3D
102
{ACAD_REACTORS
330
C
102
}
330
C
100
AcDbDictionary
281
     1
  0
XRECORD
  5
4015
102
{ACAD_REACTORS
330
C
102
}
330
C
100
AcDbXrecord
280
     1
  1
DWGPROPS COOKIE
  2

  3

  4

  6

  7

  8
Yoshitsune
  9

300
=
301
=
302
=
303
=
304
=
305
=
306
=
307
=
308
=
309
=
 40
0.124730150462963
 41
2454526.717009005
 42
2457192.688685972
  1

 90
        0
  0
XRECORD
  5
3FF8
102
{ACAD_REACTORS
330
3FF7
102
}
330
3FF7
100
AcDbXrecord
280
     1
290
     1
  0
XRECORD
  5
3FFA
102
{ACAD_REACTORS
330
3FF9
102
}
330
3FF9
100
AcDbXrecord
280
     1
290
     1
  0
XRECORD
  5
3FFC
102
{ACAD_REACTORS
330
3FFB
102
}
330
3FFB
100
AcDbXrecord
280
     1
290
     1
  0
XRECORD
  5
3FFE
102
{ACAD_REACTORS
330
3FFD
102
}
330
3FFD
100
AcDbXrecord
280
     1
290
     1
  0
XRECORD
  5
4000
102
{ACAD_REACTORS
330
3FFF
102
}
330
3FFF
100
AcDbXrecord
280
     1
290
     1
  0
XRECORD
  5
4002
102
{ACAD_REACTORS
330
4001
102
}
330
4001
100
AcDbXrecord
280
     1
290
     1
  0
XRECORD
  5
4004
102
{ACAD_REACTORS
330
4003
102
}
330
4003
100
AcDbXrecord
280
     1
290
     1
  0
XRECORD
  5
4006
102
{ACAD_REACTORS
330
4005
102
}
330
4005
100
AcDbXrecord
280
     1
290
     1
  0
XRECORD
  5
3FA1
102
{ACAD_REACTORS
330
3FA0
102
}
330
3FA0
100
AcDbXrecord
280
     1
340
18
  0
XRECORD
  5
3F9F
102
{ACAD_REACTORS
330
3F9E
102
}
330
3F9E
100
AcDbXrecord
280
     1
340
15
  0
ACDBDETAILVIEWSTYLE
  5
3FF3
102
{ACAD_XDICTIONARY
360
404D
102
}
102
{ACAD_REACTORS
330
3FF2
102
}
330
3FF2
100
AcDbModelDocViewStyle
 70
     0
  3
Imperial24
290
     0
100
AcDbDetailViewStyle
 70
     0
 71
     0
 90
        3
 71
     1
340
F
 40
0.24
340
0
 40
0.24
300

 40
0.36
280
     3
 71
     2
340
14
 90
       25
 71
     3
340
F
 40
0.24
 90
        1
 40
0.75
 90
        1
300
%<\AcVar ViewType \f "%tc1">% %<\AcVar ViewDetailId>%\PSCALE %<\AcVar ViewScale \f "%sn">%
 71
     4
340
14
 90
       25
340
14
 90
       25
280
     0
  0
LAYOUT
  5
3FF4
102
{ACAD_XDICTIONARY
360
404F
102
}
102
{ACAD_REACTORS
330
94
102
}
330
94
100
AcDbPlotSettings
  1

  2
Canon LBP9100C
  4

  6

 40
0.0
 41
0.0
 42
0.0
 43
0.0
 44
0.0
 45
0.0
 46
0.0
 47
0.0
 48
0.0
 49
0.0
140
0.0
141
0.0
142
1.0
143
1.0
 70
  1712
 72
     0
 73
     0
 74
     0
  7

 75
     0
147
1.0
148
0.0
149
0.0
100
AcDbLayout
  1
Model
 70
     1
 71
     0
 10
0.0
 20
0.0
 11
12.0
 21
9.0
 12
0.0
 22
0.0
 32
0.0
 14
0.0
 24
0.0
 34
0.0
 15
0.0
 25
0.0
 35
0.0
146
0.0
 13
0.0
 23
0.0
 33
0.0
 16
1.0
 26
0.0
 36
0.0
 17
0.0
 27
1.0
 37
0.0
 76
     0
330
18
331
3F9D
  0
LAYOUT
  5
3FF5
102
{ACAD_XDICTIONARY
360
4051
102
}
102
{ACAD_REACTORS
330
94
102
}
330
94
100
AcDbPlotSettings
  1

  2
Canon LBP9100C
  4

  6

 40
0.0
 41
0.0
 42
0.0
 43
0.0
 44
0.0
 45
0.0
 46
0.0
 47
0.0
 48
0.0
 49
0.0
140
0.0
141
0.0
142
1.0
143
1.0
 70
   688
 72
     0
 73
     0
 74
     5
  7

 75
    16
147
1.0
148
0.0
149
0.0
100
AcDbLayout
  1
レイアウト1
 70
     1
 71
     1
 10
0.0
 20
0.0
 11
420.0
 21
297.0
 12
0.0
 22
0.0
 32
0.0
 14
1.000000000000000E+20
 24
1.000000000000000E+20
 34
1.000000000000000E+20
 15
-1.000000000000000E+20
 25
-1.000000000000000E+20
 35
-1.000000000000000E+20
146
0.0
 13
0.0
 23
0.0
 33
0.0
 16
1.0
 26
0.0
 36
0.0
 17
0.0
 27
1.0
 37
0.0
 76
     0
330
15
  0
MATERIAL
  5
3FB0
102
{ACAD_XDICTIONARY
360
3FB1
102
}
102
{ACAD_REACTORS
330
3FA7
102
}
330
3FA7
100
AcDbMaterial
  1
ByBlock
 72
     0
 43
0.0208333333333333
 43
0.0
 43
0.0
 43
0.0
 43
0.0
 43
0.0208333333333333
 43
0.0
 43
0.0
 43
0.0
 43
0.0
 43
1.0
 43
0.0
 43
0.0
 43
0.0
 43
0.0
 43
1.0
 77
     0
 47
0.0208333333333333
 47
0.0
 47
0.0
 47
0.0
 47
0.0
 47
0.0208333333333333
 47
0.0
 47
0.0
 47
0.0
 47
0.0
 47
1.0
 47
0.0
 47
0.0
 47
0.0
 47
0.0
 47
1.0
171
     0
 49
0.0208333333333333
 49
0.0
 49
0.0
 49
0.0
 49
0.0
 49
0.0208333333333333
 49
0.0
 49
0.0
 49
0.0
 49
0.0
 49
1.0
 49
0.0
 49
0.0
 49
0.0
 49
0.0
 49
1.0
175
     0
142
0.0208333333333333
142
0.0
142
0.0
142
0.0
142
0.0
142
0.0208333333333333
142
0.0
142
0.0
142
0.0
142
0.0
142
1.0
142
0.0
142
0.0
142
0.0
142
0.0
142
1.0
179
     0
144
0.0208333333333333
144
0.0
144
0.0
144
0.0
144
0.0
144
0.0208333333333333
144
0.0
144
0.0
144
0.0
144
0.0
144
1.0
144
0.0
144
0.0
144
0.0
144
0.0
144
1.0
147
0.0208333333333333
147
0.0
147
0.0
147
0.0
147
0.0
147
0.0208333333333333
147
0.0
147
0.0
147
0.0
147
0.0
147
1.0
147
0.0
147
0.0
147
0.0
147
0.0
147
1.0
  0
MATERIAL
  5
3FA8
102
{ACAD_XDICTIONARY
360
3FA9
102
}
102
{ACAD_REACTORS
330
3FA7
102
}
330
3FA7
100
AcDbMaterial
  1
ByLayer
 72
     0
 43
0.0208333333333333
 43
0.0
 43
0.0
 43
0.0
 43
0.0
 43
0.0208333333333333
 43
0.0
 43
0.0
 43
0.0
 43
0.0
 43
1.0
 43
0.0
 43
0.0
 43
0.0
 43
0.0
 43
1.0
 77
     0
 47
0.0208333333333333
 47
0.0
 47
0.0
 47
0.0
 47
0.0
 47
0.0208333333333333
 47
0.0
 47
0.0
 47
0.0
 47
0.0
 47
1.0
 47
0.0
 47
0.0
 47
0.0
 47
0.0
 47
1.0
171
     0
 49
0.0208333333333333
 49
0.0
 49
0.0
 49
0.0
 49
0.0
 49
0.0208333333333333
 49
0.0
 49
0.0
 49
0.0
 49
0.0
 49
1.0
 49
0.0
 49
0.0
 49
0.0
 49
0.0
 49
1.0
175
     0
142
0.0208333333333333
142
0.0
142
0.0
142
0.0
142
0.0
142
0.0208333333333333
142
0.0
142
0.0
142
0.0
142
0.0
142
1.0
142
0.0
142
0.0
142
0.0
142
0.0
142
1.0
179
     0
144
0.0208333333333333
144
0.0
144
0.0
144
0.0
144
0.0
144
0.0208333333333333
144
0.0
144
0.0
144
0.0
144
0.0
144
1.0
144
0.0
144
0.0
144
0.0
144
0.0
144
1.0
147
0.0208333333333333
147
0.0
147
0.0
147
0.0
147
0.0
147
0.0208333333333333
147
0.0
147
0.0
147
0.0
147
0.0
147
1.0
147
0.0
147
0.0
147
0.0
147
0.0
147
1.0
  0
MATERIAL
  5
3FB8
102
{ACAD_XDICTIONARY
360
3FB9
102
}
102
{ACAD_REACTORS
330
3FA7
102
}
330
3FA7
100
AcDbMaterial
  1
Global
 72
     0
 43
0.0208333333333333
 43
0.0
 43
0.0
 43
0.0
 43
0.0
 43
0.0208333333333333
 43
0.0
 43
0.0
 43
0.0
 43
0.0
 43
1.0
 43
0.0
 43
0.0
 43
0.0
 43
0.0
 43
1.0
 77
     0
 47
0.0208333333333333
 47
0.0
 47
0.0
 47
0.0
 47
0.0
 47
0.0208333333333333
 47
0.0
 47
0.0
 47
0.0
 47
0.0
 47
1.0
 47
0.0
 47
0.0
 47
0.0
 47
0.0
 47
1.0
171
     0
 49
0.0208333333333333
 49
0.0
 49
0.0
 49
0.0
 49
0.0
 49
0.0208333333333333
 49
0.0
 49
0.0
 49
0.0
 49
0.0
 49
1.0
 49
0.0
 49
0.0
 49
0.0
 49
0.0
 49
1.0
175
     0
142
0.0208333333333333
142
0.0
142
0.0
142
0.0
142
0.0
142
0.0208333333333333
142
0.0
142
0.0
142
0.0
142
0.0
142
1.0
142
0.0
142
0.0
142
0.0
142
0.0
142
1.0
179
     0
144
0.0208333333333333
144
0.0
144
0.0
144
0.0
144
0.0
144
0.0208333333333333
144
0.0
144
0.0
144
0.0
144
0.0
144
1.0
144
0.0
144
0.0
144
0.0
144
0.0
144
1.0
147
0.0208333333333333
147
0.0
147
0.0
147
0.0
147
0.0
147
0.0208333333333333
147
0.0
147
0.0
147
0.0
147
0.0
147
1.0
147
0.0
147
0.0
147
0.0
147
0.0
147
1.0
  0
MLEADERSTYLE
  5
3FEF
102
{ACAD_REACTORS
330
3FEE
102
}
330
3FEE
100
AcDbMLeaderStyle
170
     2
171
     1
172
     0
 90
        2
 40
0.0
 41
0.0
173
     1
 91
-1056964608
340
12
 92
       -2
290
     1
 42
0.09
291
     1
 43
0.36
  3
Standard
 44
0.18
300

342
F
174
     1
178
     6
175
     1
176
     0
 93
-1056964608
 45
0.18
292
     0
297
     0
 46
0.18
 94
-1056964608
 47
1.0
 49
1.0
140
1.0
293
     1
141
0.0
294
     1
177
     0
142
1.0
295
     0
296
     0
143
0.125
1001
ACAD_MLEADERVER
1070
     2
  0
MLINESTYLE
  5
1C
102
{ACAD_REACTORS
330
1B
102
}
330
1B
100
AcDbMlineStyle
  2
STANDARD
 70
     0
  3

 62
   256
 51
90.0
 52
90.0
 71
     2
 49
0.5
 62
   256
  6
BYLAYER
 49
-0.5
 62
   256
  6
BYLAYER
  0
ACDBPLACEHOLDER
  5
3FA6
102
{ACAD_REACTORS
330
3FA5
102
}
330
3FA5
  0
SCALE
  5
3FDD
102
{ACAD_REACTORS
330
3FDC
102
}
330
3FDC
100
AcDbScale
 70
     0
300
1:1
140
1.0
141
1.0
290
     1
  0
SCALE
  5
3FDE
102
{ACAD_REACTORS
330
3FDC
102
}
330
3FDC
100
AcDbScale
 70
     0
300
1/128" = 1'-0"
140
0.0078125
141
12.0
290
     0
  0
SCALE
  5
3FDF
102
{ACAD_REACTORS
330
3FDC
102
}
330
3FDC
100
AcDbScale
 70
     0
300
1/64" = 1'-0"
140
0.015625
141
12.0
290
     0
  0
SCALE
  5
3FE0
102
{ACAD_REACTORS
330
3FDC
102
}
330
3FDC
100
AcDbScale
 70
     0
300
1/32" = 1'-0"
140
0.03125
141
12.0
290
     0
  0
SCALE
  5
3FE1
102
{ACAD_REACTORS
330
3FDC
102
}
330
3FDC
100
AcDbScale
 70
     0
300
1/16" = 1'-0"
140
0.0625
141
12.0
290
     0
  0
SCALE
  5
3FE2
102
{ACAD_REACTORS
330
3FDC
102
}
330
3FDC
100
AcDbScale
 70
     0
300
3/32" = 1'-0"
140
0.09375
141
12.0
290
     0
  0
SCALE
  5
3FE3
102
{ACAD_REACTORS
330
3FDC
102
}
330
3FDC
100
AcDbScale
 70
     0
300
1/8" = 1'-0"
140
0.125
141
12.0
290
     0
  0
SCALE
  5
3FE4
102
{ACAD_REACTORS
330
3FDC
102
}
330
3FDC
100
AcDbScale
 70
     0
300
3/16" = 1'-0"
140
0.1875
141
12.0
290
     0
  0
SCALE
  5
3FE5
102
{ACAD_REACTORS
330
3FDC
102
}
330
3FDC
100
AcDbScale
 70
     0
300
1/4" = 1'-0"
140
0.25
141
12.0
290
     0
  0
SCALE
  5
3FE6
102
{ACAD_REACTORS
330
3FDC
102
}
330
3FDC
100
AcDbScale
 70
     0
300
3/8" = 1'-0"
140
0.375
141
12.0
290
     0
  0
SCALE
  5
3FE7
102
{ACAD_REACTORS
330
3FDC
102
}
330
3FDC
100
AcDbScale
 70
     0
300
1/2" = 1'-0"
140
0.5
141
12.0
290
     0
  0
SCALE
  5
3FE8
102
{ACAD_REACTORS
330
3FDC
102
}
330
3FDC
100
AcDbScale
 70
     0
300
3/4" = 1'-0"
140
0.75
141
12.0
290
     0
  0
SCALE
  5
3FE9
102
{ACAD_REACTORS
330
3FDC
102
}
330
3FDC
100
AcDbScale
 70
     0
300
1" = 1'-0"
140
1.0
141
12.0
290
     0
  0
SCALE
  5
3FEA
102
{ACAD_REACTORS
330
3FDC
102
}
330
3FDC
100
AcDbScale
 70
     0
300
1-1/2" = 1'-0"
140
1.5
141
12.0
290
     0
  0
SCALE
  5
3FEB
102
{ACAD_REACTORS
330
3FDC
102
}
330
3FDC
100
AcDbScale
 70
     0
300
3" = 1'-0"
140
3.0
141
12.0
290
     0
  0
SCALE
  5
3FEC
102
{ACAD_REACTORS
330
3FDC
102
}
330
3FDC
100
AcDbScale
 70
     0
300
6" = 1'-0"
140
6.0
141
12.0
290
     0
  0
SCALE
  5
3FED
102
{ACAD_REACTORS
330
3FDC
102
}
330
3FDC
100
AcDbScale
 70
     0
300
1'-0" = 1'-0"
140
12.0
141
12.0
290
     0
  0
ACDBSECTIONVIEWSTYLE
  5
3FF1
102
{ACAD_XDICTIONARY
360
404B
102
}
102
{ACAD_REACTORS
330
3FF0
102
}
330
3FF0
100
AcDbModelDocViewStyle
 70
     0
  3
Imperial24
290
     0
100
AcDbSectionViewStyle
 70
     0
 71
     0
 90
       78
 71
     1
340
F
 40
0.24
340
0
340
0
 40
0.24
300
I, O, Q, S, X, Z
 40
0.48
 90
        3
 40
0.18
 90
        1
 71
     2
340
14
 90
       25
340
14
 90
       50
 40
0.24
 40
0.0
 40
0.24
 71
     3
340
F
 40
0.24
 90
        1
 40
0.75
 90
        1
300
%<\AcVar ViewType \f "%tc1">% %<\AcVar ViewSectionStartId>%-%<\AcVar ViewSectionEndId>%\PSCALE %<\AcVar ViewScale \f "%sn">%
 71
     4
300
ANSI31
 40
1.0
 90
        0
290
     0
290
     0
 90
        6
 40
0.0
 40
1.570796326794896
 40
0.2617993877991494
 40
1.308996938995747
 40
-0.2617993877991494
 40
1.832595714594046
  0
TABLESTYLE
  5
3FDB
102
{ACAD_XDICTIONARY
360
4012
102
}
102
{ACAD_REACTORS
330
3FDA
102
}
330
3FDA
100
AcDbTableStyle
  3
Standard
 70
     0
 71
     0
 40
0.06
 41
0.06
280
     0
281
     0
  7
STANDARD
140
0.18
170
     2
 62
     0
 63
     7
283
     0
274
    -2
284
     1
 64
     0
275
    -2
285
     1
 65
     0
276
    -2
286
     1
 66
     0
277
    -2
287
     1
 67
     0
278
    -2
288
     1
 68
     0
279
    -2
289
     1
 69
     0
  7
STANDARD
140
0.25
170
     5
 62
     0
 63
     7
283
     0
274
    -2
284
     1
 64
     0
275
    -2
285
     1
 65
     0
276
    -2
286
     1
 66
     0
277
    -2
287
     1
 67
     0
278
    -2
288
     1
 68
     0
279
    -2
289
     1
 69
     0
  7
STANDARD
140
0.18
170
     5
 62
     0
 63
     7
283
     0
274
    -2
284
     1
 64
     0
275
    -2
285
     1
 65
     0
276
    -2
286
     1
 66
     0
277
    -2
287
     1
 67
     0
278
    -2
288
     1
 68
     0
279
    -2
289
     1
 69
     0
  0
VISUALSTYLE
  5
3FC6
102
{ACAD_XDICTIONARY
360
4023
102
}
102
{ACAD_REACTORS
330
3FC0
102
}
330
3FC0
100
AcDbVisualStyle
  2
2dWireframe
 70
     4
 71
     0
 72
     2
 73
     0
 90
        0
 40
-0.6
 41
-30.0
 62
     5
 63
     7
 74
     1
 91
        4
 64
     7
 65
   257
 75
     1
175
     1
 42
1.0
 92
        0
 66
   257
 43
1.0
 76
     1
 77
     6
 78
     2
 67
     7
 79
     5
170
     0
171
     0
290
     0
174
     0
 93
        1
 44
0.0
173
     0
291
     0
 45
0.0
1001
ACAD
1000
AcDbSavedByObjectVersion
1070
     0
  0
VISUALSTYLE
  5
3FC5
102
{ACAD_XDICTIONARY
360
4021
102
}
102
{ACAD_REACTORS
330
3FC0
102
}
330
3FC0
100
AcDbVisualStyle
  2
Basic
 70
     7
 71
     1
 72
     0
 73
     1
 90
        0
 40
-0.6
 41
-30.0
 62
     5
 63
     7
 74
     0
 91
        4
 64
     7
 65
   257
 75
     1
175
     1
 42
1.0
 92
        8
 66
     7
 43
1.0
 76
     1
 77
     6
 78
     2
 67
     7
 79
     5
170
     0
171
     0
290
     0
174
     0
 93
        1
 44
0.0
173
     0
291
     1
 45
0.0
1001
ACAD
1000
AcDbSavedByObjectVersion
1070
     0
  0
VISUALSTYLE
  5
3FCC
102
{ACAD_XDICTIONARY
360
402F
102
}
102
{ACAD_REACTORS
330
3FC0
102
}
330
3FC0
100
AcDbVisualStyle
  2
Brighten
 70
    12
 71
     2
 72
     2
 73
     0
 90
        0
 40
-0.6
 41
-30.0
 62
     5
 63
     7
 74
     1
 91
        4
 64
     7
 65
   257
 75
     1
175
     1
 42
1.0
 92
        8
 66
     7
 43
1.0
 76
     1
 77
     6
 78
     2
 67
     7
 79
     5
170
     0
171
     0
290
     0
174
     0
 93
        1
 44
50.0
173
     0
291
     1
 45
0.0
1001
ACAD
1000
AcDbSavedByObjectVersion
1070
     0
  0
VISUALSTYLE
  5
3FD0
102
{ACAD_XDICTIONARY
360
4037
102
}
102
{ACAD_REACTORS
330
3FC0
102
}
330
3FC0
100
AcDbVisualStyle
  2
ColorChange
 70
    16
 71
     2
 72
     2
 73
     3
 90
        0
 40
-0.6
 41
-30.0
 62
     5
 63
     8
 74
     1
 91
        4
 64
     7
 65
   257
 75
     1
175
     1
 42
1.0
 92
        8
 66
     8
 43
1.0
 76
     1
 77
     6
 78
     2
 67
     7
 79
     5
170
     0
171
     0
290
     0
174
     0
 93
        1
 44
0.0
173
     0
291
     1
 45
0.0
1001
ACAD
1000
AcDbSavedByObjectVersion
1070
     0
  0
VISUALSTYLE
  5
3FC9
102
{ACAD_XDICTIONARY
360
4029
102
}
102
{ACAD_REACTORS
330
3FC0
102
}
330
3FC0
100
AcDbVisualStyle
  2
Conceptual
 70
     9
 71
     3
 72
     2
 73
     0
 90
        0
 40
-0.6
 41
-30.0
 62
     5
 63
     7
 74
     2
 91
        2
 64
     7
 65
   257
 75
     1
175
     1
 42
179.0
 92
        8
 66
     7
 43
1.0
 76
     1
 77
     6
 78
     2
 67
     7
 79
     3
170
     0
171
     0
290
     0
174
     0
 93
        1
 44
0.0
173
     0
291
     0
 45
0.0
1001
ACAD
1000
AcDbSavedByObjectVersion
1070
     0
  0
VISUALSTYLE
  5
3FCB
102
{ACAD_XDICTIONARY
360
402D
102
}
102
{ACAD_REACTORS
330
3FC0
102
}
330
3FC0
100
AcDbVisualStyle
  2
Dim
 70
    11
 71
     2
 72
     2
 73
     0
 90
        0
 40
-0.6
 41
-30.0
 62
     5
 63
     7
 74
     1
 91
        4
 64
     7
 65
   257
 75
     1
175
     1
 42
1.0
 92
        8
 66
     7
 43
1.0
 76
     1
 77
     6
 78
     2
 67
     7
 79
     5
170
     0
171
     0
290
     0
174
     0
 93
        1
 44
-50.0
173
     0
291
     1
 45
0.0
1001
ACAD
1000
AcDbSavedByObjectVersion
1070
     0
  0
VISUALSTYLE
  5
3FD8
102
{ACAD_XDICTIONARY
360
4047
102
}
102
{ACAD_REACTORS
330
3FC0
102
}
330
3FC0
100
AcDbVisualStyle
  2
EdgeColorOff
 70
    22
 71
     2
 72
     2
 73
     0
 90
        0
 40
-0.6
 41
-30.0
 62
     5
 63
     7
 74
     1
 91
        4
 64
     7
 65
   257
 75
     1
175
     1
 42
1.0
 92
        8
 66
     7
 43
1.0
 76
     1
 77
     6
 78
     2
 67
     7
 79
     5
170
     0
171
     0
290
     0
174
     0
 93
        1
 44
0.0
173
     0
291
     1
 45
0.0
1001
ACAD
1000
AcDbSavedByObjectVersion
1070
     0
  0
VISUALSTYLE
  5
3FCF
102
{ACAD_XDICTIONARY
360
4035
102
}
102
{ACAD_REACTORS
330
3FC0
102
}
330
3FC0
100
AcDbVisualStyle
  2
Facepattern
 70
    15
 71
     2
 72
     2
 73
     0
 90
        0
 40
-0.6
 41
-30.0
 62
     5
 63
     7
 74
     1
 91
        4
 64
     7
 65
   257
 75
     1
175
     1
 42
1.0
 92
        8
 66
     7
 43
1.0
 76
     1
 77
     6
 78
     2
 67
     7
 79
     5
170
     0
171
     0
290
     0
174
     0
 93
        1
 44
0.0
173
     0
291
     1
 45
0.0
1001
ACAD
1000
AcDbSavedByObjectVersion
1070
     0
  0
VISUALSTYLE
  5
3FC1
102
{ACAD_XDICTIONARY
360
4019
102
}
102
{ACAD_REACTORS
330
3FC0
102
}
330
3FC0
100
AcDbVisualStyle
  2
Flat
 70
     0
 71
     2
 72
     1
 73
     1
 90
        2
 40
-0.6
 41
30.0
 62
     5
 63
     7
 74
     0
 91
        0
 64
     7
 65
   257
 75
     1
175
     1
 42
1.0
 92
        8
 66
     7
 43
1.0
 76
     1
 77
     6
 78
     2
 67
     7
 79
     5
170
     0
171
     0
290
     0
174
     0
 93
       13
 44
0.0
173
     0
291
     1
 45
0.0
1001
ACAD
1000
AcDbSavedByObjectVersion
1070
     0
  0
VISUALSTYLE
  5
3FC2
102
{ACAD_XDICTIONARY
360
401B
102
}
102
{ACAD_REACTORS
330
3FC0
102
}
330
3FC0
100
AcDbVisualStyle
  2
FlatWithEdges
 70
     1
 71
     2
 72
     1
 73
     1
 90
        2
 40
-0.6
 41
30.0
 62
     5
 63
     7
 74
     1
 91
        0
 64
     7
 65
   257
 75
     1
175
     1
 42
1.0
 92
        0
 66
   257
 43
1.0
 76
     1
 77
     6
 78
     2
 67
     7
 79
     5
170
     0
171
     0
290
     0
174
     0
 93
       13
 44
0.0
173
     0
291
     1
 45
0.0
1001
ACAD
1000
AcDbSavedByObjectVersion
1070
     0
  0
VISUALSTYLE
  5
3FC3
102
{ACAD_XDICTIONARY
360
401D
102
}
102
{ACAD_REACTORS
330
3FC0
102
}
330
3FC0
100
AcDbVisualStyle
  2
Gouraud
 70
     2
 71
     2
 72
     2
 73
     1
 90
        2
 40
-0.6
 41
30.0
 62
     5
 63
     7
 74
     0
 91
        0
 64
     7
 65
   257
 75
     1
175
     1
 42
1.0
 92
        0
 66
     7
 43
1.0
 76
     1
 77
     6
 78
     2
 67
     7
 79
     5
170
     0
171
     0
290
     0
174
     0
 93
       13
 44
0.0
173
     0
291
     1
 45
0.0
1001
ACAD
1000
AcDbSavedByObjectVersion
1070
     0
  0
VISUALSTYLE
  5
3FC4
102
{ACAD_XDICTIONARY
360
401F
102
}
102
{ACAD_REACTORS
330
3FC0
102
}
330
3FC0
100
AcDbVisualStyle
  2
GouraudWithEdges
 70
     3
 71
     2
 72
     2
 73
     1
 90
        2
 40
-0.6
 41
30.0
 62
     5
 63
     7
 74
     1
 91
        0
 64
     7
 65
   257
 75
     1
175
     1
 42
1.0
 92
        0
 66
   257
 43
1.0
 76
     1
 77
     6
 78
     2
 67
     7
 79
     5
170
     0
171
     0
290
     0
174
     0
 93
       13
 44
0.0
173
     0
291
     1
 45
0.0
1001
ACAD
1000
AcDbSavedByObjectVersion
1070
     0
  0
VISUALSTYLE
  5
3FC8
102
{ACAD_XDICTIONARY
360
4027
102
}
102
{ACAD_REACTORS
330
3FC0
102
}
330
3FC0
100
AcDbVisualStyle
  2
Hidden
 70
     6
 71
     1
 72
     2
 73
     2
 90
        0
 40
-0.6
 41
-30.0
 62
     5
 63
     7
 74
     2
 91
        2
 64
     7
 65
   257
 75
     2
175
     1
 42
40.0
 92
        0
 66
   257
 43
1.0
 76
     1
 77
     6
 78
     2
 67
     7
 79
     3
170
     0
171
     0
290
     0
174
     0
 93
        1
 44
0.0
173
     0
291
     0
 45
0.0
1001
ACAD
1000
AcDbSavedByObjectVersion
1070
     0
  0
VISUALSTYLE
  5
3FD6
102
{ACAD_XDICTIONARY
360
4043
102
}
102
{ACAD_REACTORS
330
3FC0
102
}
330
3FC0
100
AcDbVisualStyle
  2
JitterOff
 70
    20
 71
     2
 72
     2
 73
     0
 90
        0
 40
-0.6
 41
-30.0
 62
     5
 63
     7
 74
     1
 91
        4
 64
     7
 65
   257
 75
     1
175
     1
 42
1.0
 92
       10
 66
     7
 43
1.0
 76
     1
 77
     6
 78
     2
 67
     7
 79
     5
170
     0
171
     0
290
     0
174
     0
 93
        1
 44
0.0
173
     0
291
     1
 45
0.0
1001
ACAD
1000
AcDbSavedByObjectVersion
1070
     0
  0
VISUALSTYLE
  5
3FCE
102
{ACAD_XDICTIONARY
360
4033
102
}
102
{ACAD_REACTORS
330
3FC0
102
}
330
3FC0
100
AcDbVisualStyle
  2
Linepattern
 70
    14
 71
     2
 72
     2
 73
     0
 90
        0
 40
-0.6
 41
-30.0
 62
     5
 63
     7
 74
     1
 91
        4
 64
     7
 65
   257
 75
     7
175
     7
 42
1.0
 92
        8
 66
     7
 43
1.0
 76
     1
 77
     6
 78
     2
 67
     7
 79
     5
170
     0
171
     0
290
     0
174
     0
 93
        1
 44
0.0
173
     0
291
     1
 45
0.0
1001
ACAD
1000
AcDbSavedByObjectVersion
1070
     0
  0
VISUALSTYLE
  5
3FD7
102
{ACAD_XDICTIONARY
360
4045
102
}
102
{ACAD_REACTORS
330
3FC0
102
}
330
3FC0
100
AcDbVisualStyle
  2
OverhangOff
 70
    21
 71
     2
 72
     2
 73
     0
 90
        0
 40
-0.6
 41
-30.0
 62
     5
 63
     7
 74
     1
 91
        4
 64
     7
 65
   257
 75
     1
175
     1
 42
1.0
 92
        9
 66
     7
 43
1.0
 76
     1
 77
     6
 78
     2
 67
     7
 79
     5
170
     0
171
     0
290
     0
174
     0
 93
        1
 44
0.0
173
     0
291
     1
 45
0.0
1001
ACAD
1000
AcDbSavedByObjectVersion
1070
     0
  0
VISUALSTYLE
  5
3FCA
102
{ACAD_XDICTIONARY
360
402B
102
}
102
{ACAD_REACTORS
330
3FC0
102
}
330
3FC0
100
AcDbVisualStyle
  2
Realistic
 70
     8
 71
     2
 72
     3
 73
     0
 90
        2
 40
-0.6
 41
30.0
 62
     5
 63
     7
 74
     0
 91
        0
 64
     7
 65
   257
 75
     1
175
     1
 42
1.0
 92
        8
 66
   257
 43
1.0
 76
     1
 77
     6
 78
     2
 67
     7
 79
     3
170
     0
171
     0
290
     0
174
     0
 93
       13
 44
0.0
173
     0
291
     0
 45
0.0
1001
ACAD
1000
AcDbSavedByObjectVersion
1070
     0
  0
VISUALSTYLE
  5
3FD5
102
{ACAD_XDICTIONARY
360
4041
102
}
102
{ACAD_REACTORS
330
3FC0
102
}
330
3FC0
100
AcDbVisualStyle
  2
Shaded
 70
    27
 71
     2
 72
     2
 73
     1
 90
        2
 40
-0.6
 41
30.0
 62
     5
 63
     7
 74
     0
 91
        4
 64
     7
 65
   257
 75
     1
175
     1
 42
1.0
 92
        8
 66
   257
 43
1.0
 76
     1
 77
     6
 78
     2
 67
     8
 79
     3
170
     0
171
     0
290
     0
174
     0
 93
        5
 44
0.0
173
     0
291
     0
 45
0.0
1001
ACAD
1000
AcDbSavedByObjectVersion
1070
     0
  0
VISUALSTYLE
  5
3FD4
102
{ACAD_XDICTIONARY
360
403F
102
}
102
{ACAD_REACTORS
330
3FC0
102
}
330
3FC0
100
AcDbVisualStyle
  2
Shaded with edges
 70
    26
 71
     2
 72
     2
 73
     1
 90
        2
 40
-0.6
 41
30.0
 62
     5
 63
     7
 74
     1
 91
       10
 64
     7
 65
   257
 75
     2
175
     1
 42
1.0
 92
        8
 66
   257
 43
1.0
 76
     1
 77
     6
 78
     2
 67
     7
 79
     3
170
     0
171
     0
290
     0
174
     0
 93
        5
 44
0.0
173
     0
291
     0
 45
0.0
1001
ACAD
1000
AcDbSavedByObjectVersion
1070
     0
  0
VISUALSTYLE
  5
3FD1
102
{ACAD_XDICTIONARY
360
4039
102
}
102
{ACAD_REACTORS
330
3FC0
102
}
330
3FC0
100
AcDbVisualStyle
  2
Shades of Gray
 70
    23
 71
     2
 72
     2
 73
     3
 90
        0
 40
-0.6
 41
-30.0
 62
     5
 63
     7
 74
     2
 91
        2
 64
     7
 65
     7
 75
     1
175
     1
 42
40.0
 92
        8
 66
     7
 43
1.0
 76
     1
 77
     6
 78
     2
 67
     7
 79
     3
170
     0
171
     0
290
     0
174
     0
 93
        1
 44
0.0
173
     0
291
     0
 45
0.0
1001
ACAD
1000
AcDbSavedByObjectVersion
1070
     0
  0
VISUALSTYLE
  5
3FD2
102
{ACAD_XDICTIONARY
360
403B
102
}
102
{ACAD_REACTORS
330
3FC0
102
}
330
3FC0
100
AcDbVisualStyle
  2
Sketchy
 70
    24
 71
     1
 72
     2
 73
     2
 90
        0
 40
-0.6
 41
-30.0
 62
     5
 63
     7
 74
     2
 91
        2
 64
     7
 65
     7
 75
     1
175
     1
 42
40.0
 92
       11
 66
     7
 43
1.0
 76
     1
 77
     6
 78
     2
 67
     7
 79
     6
170
     0
171
     0
290
     0
174
     0
 93
        1
 44
0.0
173
     0
291
     0
 45
0.0
1001
ACAD
1000
AcDbSavedByObjectVersion
1070
     0
  0
VISUALSTYLE
  5
3FCD
102
{ACAD_XDICTIONARY
360
4031
102
}
102
{ACAD_REACTORS
330
3FC0
102
}
330
3FC0
100
AcDbVisualStyle
  2
Thicken
 70
    13
 71
     2
 72
     2
 73
     0
 90
        0
 40
-0.6
 41
-30.0
 62
     5
 63
     7
 74
     1
 91
        4
 64
     7
 65
   257
 75
     1
175
     1
 42
1.0
 92
       12
 66
     7
 43
1.0
 76
     1
 77
     6
 78
     2
 67
     7
 79
     5
170
     0
171
     0
290
     0
174
     0
 93
        1
 44
0.0
173
     0
291
     1
 45
0.0
1001
ACAD
1000
AcDbSavedByObjectVersion
1070
     0
  0
VISUALSTYLE
  5
3FC7
102
{ACAD_XDICTIONARY
360
4025
102
}
102
{ACAD_REACTORS
330
3FC0
102
}
330
3FC0
100
AcDbVisualStyle
  2
Wireframe
 70
     5
 71
     0
 72
     2
 73
     0
 90
        0
 40
-0.6
 41
-30.0
 62
     5
 63
     7
 74
     1
 91
        4
 64
     7
 65
   257
 75
     1
175
     1
 42
1.0
 92
        0
 66
   257
 43
1.0
 76
     1
 77
     6
 78
     2
 67
     7
 79
     3
170
     0
171
     0
290
     0
174
     0
 93
        1
 44
0.0
173
     0
291
     0
 45
0.0
1001
ACAD
1000
AcDbSavedByObjectVersion
1070
     0
  0
VISUALSTYLE
  5
3FD3
102
{ACAD_XDICTIONARY
360
403D
102
}
102
{ACAD_REACTORS
330
3FC0
102
}
330
3FC0
100
AcDbVisualStyle
  2
X-Ray
 70
    25
 71
     2
 72
     2
 73
     1
 90
        1
 40
0.5
 41
-30.0
 62
     5
 63
     7
 74
     1
 91
        0
 64
     7
 65
   257
 75
     1
175
     1
 42
1.0
 92
        8
 66
     7
 43
1.0
 76
     1
 77
     6
 78
     2
 67
     7
 79
     3
170
     0
171
     0
290
     0
174
     0
 93
       13
 44
0.0
173
     0
291
     0
 45
0.0
1001
ACAD
1000
AcDbSavedByObjectVersion
1070
     0
  0
DICTIONARYVAR
  5
400C
102
{ACAD_REACTORS
330
4007
102
}
330
4007
100
DictionaryVariables
280
     0
  1
1:1
  0
DICTIONARYVAR
  5
4009
102
{ACAD_REACTORS
330
4007
102
}
330
4007
100
DictionaryVariables
280
     0
  1
STANDARD
  0
DICTIONARYVAR
  5
4008
102
{ACAD_REACTORS
330
4007
102
}
330
4007
100
DictionaryVariables
280
     0
  1
STANDARD
  0
DICTIONARYVAR
  5
400A
102
{ACAD_REACTORS
330
4007
102
}
330
4007
100
DictionaryVariables
280
     0
  1
Imperial24
  0
DICTIONARYVAR
  5
400B
102
{ACAD_REACTORS
330
4007
102
}
330
4007
100
DictionaryVariables
280
     0
  1
Imperial24
  0
DICTIONARYVAR
  5
400F
102
{ACAD_REACTORS
330
4007
102
}
330
4007
100
DictionaryVariables
280
     0
  1
1
  0
DICTIONARYVAR
  5
400E
102
{ACAD_REACTORS
330
4007
102
}
330
4007
100
DictionaryVariables
280
     0
  1
0
  0
DICTIONARYVAR
  5
400D
102
{ACAD_REACTORS
330
4007
102
}
330
4007
100
DictionaryVariables
280
     0
  1
127
  0
DICTIONARYVAR
  5
4010
102
{ACAD_REACTORS
330
4007
102
}
330
4007
100
DictionaryVariables
280
     0
  1
2
  0
DICTIONARY
  5
404D
330
3FF3
100
AcDbDictionary
280
     1
281
     1
  3
ACAD_XREC_ROUNDTRIP
360
404E
  0
DICTIONARY
  5
404F
330
3FF4
100
AcDbDictionary
280
     1
281
     1
  3
ACAD_XREC_ROUNDTRIP
360
4050
  0
DICTIONARY
  5
4051
330
3FF5
100
AcDbDictionary
280
     1
281
     1
  3
ACAD_XREC_ROUNDTRIP
360
4052
  0
DICTIONARY
  5
3FB1
330
3FB0
100
AcDbDictionary
280
     1
281
     1
  3
ACAD_XREC_ROUNDTRIP
360
4017
  3
BUMPTILE
360
3FB3
  3
DIFFUSETILE
360
3FB2
  3
OPACITYTILE
360
3FB6
  3
REFLECTIONTILE
360
3FB5
  3
REFRACTIONTILE
360
3FB7
  3
SPECULARTILE
360
3FB4
  0
DICTIONARY
  5
3FA9
330
3FA8
100
AcDbDictionary
280
     1
281
     1
  3
ACAD_XREC_ROUNDTRIP
360
4016
  3
BUMPTILE
360
3FAB
  3
DIFFUSETILE
360
3FAA
  3
OPACITYTILE
360
3FAE
  3
REFLECTIONTILE
360
3FAD
  3
REFRACTIONTILE
360
3FAF
  3
SPECULARTILE
360
3FAC
  0
DICTIONARY
  5
3FB9
330
3FB8
100
AcDbDictionary
280
     1
281
     1
  3
ACAD_XREC_ROUNDTRIP
360
4018
  3
BUMPTILE
360
3FBB
  3
DIFFUSETILE
360
3FBA
  3
OPACITYTILE
360
3FBE
  3
REFLECTIONTILE
360
3FBD
  3
REFRACTIONTILE
360
3FBF
  3
SPECULARTILE
360
3FBC
  0
DICTIONARY
  5
404B
330
3FF1
100
AcDbDictionary
280
     1
281
     1
  3
ACAD_XREC_ROUNDTRIP
360
404C
  0
DICTIONARY
  5
4012
330
3FDB
100
AcDbDictionary
280
     1
281
     1
  3
ACAD_ROUNDTRIP_2008_TABLESTYLE_CELLSTYLEMAP
360
4013
  3
ACAD_XREC_ROUNDTRIP
360
4049
  0
DICTIONARY
  5
4023
330
3FC6
100
AcDbDictionary
280
     1
281
     1
  3
ACAD_XREC_ROUNDTRIP
360
4024
  0
DICTIONARY
  5
4021
330
3FC5
100
AcDbDictionary
280
     1
281
     1
  3
ACAD_XREC_ROUNDTRIP
360
4022
  0
DICTIONARY
  5
402F
330
3FCC
100
AcDbDictionary
280
     1
281
     1
  3
ACAD_XREC_ROUNDTRIP
360
4030
  0
DICTIONARY
  5
4037
330
3FD0
100
AcDbDictionary
280
     1
281
     1
  3
ACAD_XREC_ROUNDTRIP
360
4038
  0
DICTIONARY
  5
4029
330
3FC9
100
AcDbDictionary
280
     1
281
     1
  3
ACAD_XREC_ROUNDTRIP
360
402A
  0
DICTIONARY
  5
402D
330
3FCB
100
AcDbDictionary
280
     1
281
     1
  3
ACAD_XREC_ROUNDTRIP
360
402E
  0
DICTIONARY
  5
4047
330
3FD8
100
AcDbDictionary
280
     1
281
     1
  3
ACAD_XREC_ROUNDTRIP
360
4048
  0
DICTIONARY
  5
4035
330
3FCF
100
AcDbDictionary
280
     1
281
     1
  3
ACAD_XREC_ROUNDTRIP
360
4036
  0
DICTIONARY
  5
4019
330
3FC1
100
AcDbDictionary
280
     1
281
     1
  3
ACAD_XREC_ROUNDTRIP
360
401A
  0
DICTIONARY
  5
401B
330
3FC2
100
AcDbDictionary
280
     1
281
     1
  3
ACAD_XREC_ROUNDTRIP
360
401C
  0
DICTIONARY
  5
401D
330
3FC3
100
AcDbDictionary
280
     1
281
     1
  3
ACAD_XREC_ROUNDTRIP
360
401E
  0
DICTIONARY
  5
401F
330
3FC4
100
AcDbDictionary
280
     1
281
     1
  3
ACAD_XREC_ROUNDTRIP
360
4020
  0
DICTIONARY
  5
4027
330
3FC8
100
AcDbDictionary
280
     1
281
     1
  3
ACAD_XREC_ROUNDTRIP
360
4028
  0
DICTIONARY
  5
4043
330
3FD6
100
AcDbDictionary
280
     1
281
     1
  3
ACAD_XREC_ROUNDTRIP
360
4044
  0
DICTIONARY
  5
4033
330
3FCE
100
AcDbDictionary
280
     1
281
     1
  3
ACAD_XREC_ROUNDTRIP
360
4034
  0
DICTIONARY
  5
4045
330
3FD7
100
AcDbDictionary
280
     1
281
     1
  3
ACAD_XREC_ROUNDTRIP
360
4046
  0
DICTIONARY
  5
402B
330
3FCA
100
AcDbDictionary
280
     1
281
     1
  3
ACAD_XREC_ROUNDTRIP
360
402C
  0
DICTIONARY
  5
4041
330
3FD5
100
AcDbDictionary
280
     1
281
     1
  3
ACAD_XREC_ROUNDTRIP
360
4042
  0
DICTIONARY
  5
403F
330
3FD4
100
AcDbDictionary
280
     1
281
     1
  3
ACAD_XREC_ROUNDTRIP
360
4040
  0
DICTIONARY
  5
4039
330
3FD1
100
AcDbDictionary
280
     1
281
     1
  3
ACAD_XREC_ROUNDTRIP
360
403A
  0
DICTIONARY
  5
403B
330
3FD2
100
AcDbDictionary
280
     1
281
     1
  3
ACAD_XREC_ROUNDTRIP
360
403C
  0
DICTIONARY
  5
4031
330
3FCD
100
AcDbDictionary
280
     1
281
     1
  3
ACAD_XREC_ROUNDTRIP
360
4032
  0
DICTIONARY
  5
4025
330
3FC7
100
AcDbDictionary
280
     1
281
     1
  3
ACAD_XREC_ROUNDTRIP
360
4026
  0
DICTIONARY
  5
403D
330
3FD3
100
AcDbDictionary
280
     1
281
     1
  3
ACAD_XREC_ROUNDTRIP
360
403E
  0
XRECORD
  5
404E
102
{ACAD_REACTORS
330
404D
102
}
330
404D
100
AcDbXrecord
280
     1
102
DISPLAYNAME
  1
Imperial24
102
FLAGS
 90
        0
  0
XRECORD
  5
4050
102
{ACAD_REACTORS
330
404F
102
}
330
404F
100
AcDbXrecord
280
     1
102
SHADEPLOT
 70
     0
102
SHADEPLOTRESLEVEL
 70
     2
102
SHADEPLOTCUSTOMDPI
 70
   300
  0
XRECORD
  5
4052
102
{ACAD_REACTORS
330
4051
102
}
330
4051
100
AcDbXrecord
280
     1
102
SHADEPLOT
 70
     0
102
SHADEPLOTRESLEVEL
 70
     2
102
SHADEPLOTCUSTOMDPI
 70
   300
  0
XRECORD
  5
4017
102
{ACAD_REACTORS
330
3FB1
102
}
330
3FB1
100
AcDbXrecord
280
     1
102
MATERIAL
148
0.0
149
0.0
149
0.0
 93
        0
 94
      127
282
     0
 72
     0
 77
     0
171
     0
175
     0
179
     0
273
     0
  0
XRECORD
  5
3FB3
102
{ACAD_REACTORS
330
3FB1
102
}
330
3FB1
100
AcDbXrecord
280
     1
270
     1
271
     1
  0
XRECORD
  5
3FB2
102
{ACAD_REACTORS
330
3FB1
102
}
330
3FB1
100
AcDbXrecord
280
     1
270
     1
271
     1
  0
XRECORD
  5
3FB6
102
{ACAD_REACTORS
330
3FB1
102
}
330
3FB1
100
AcDbXrecord
280
     1
270
     1
271
     1
  0
XRECORD
  5
3FB5
102
{ACAD_REACTORS
330
3FB1
102
}
330
3FB1
100
AcDbXrecord
280
     1
270
     1
271
     1
  0
XRECORD
  5
3FB7
102
{ACAD_REACTORS
330
3FB1
102
}
330
3FB1
100
AcDbXrecord
280
     1
270
     1
271
     1
  0
XRECORD
  5
3FB4
102
{ACAD_REACTORS
330
3FB1
102
}
330
3FB1
100
AcDbXrecord
280
     1
270
     1
271
     1
  0
XRECORD
  5
4016
102
{ACAD_REACTORS
330
3FA9
102
}
330
3FA9
100
AcDbXrecord
280
     1
102
MATERIAL
148
0.0
149
0.0
149
0.0
 93
        0
 94
      127
282
     0
 72
     0
 77
     0
171
     0
175
     0
179
     0
273
     0
  0
XRECORD
  5
3FAB
102
{ACAD_REACTORS
330
3FA9
102
}
330
3FA9
100
AcDbXrecord
280
     1
270
     1
271
     1
  0
XRECORD
  5
3FAA
102
{ACAD_REACTORS
330
3FA9
102
}
330
3FA9
100
AcDbXrecord
280
     1
270
     1
271
     1
  0
XRECORD
  5
3FAE
102
{ACAD_REACTORS
330
3FA9
102
}
330
3FA9
100
AcDbXrecord
280
     1
270
     1
271
     1
  0
XRECORD
  5
3FAD
102
{ACAD_REACTORS
330
3FA9
102
}
330
3FA9
100
AcDbXrecord
280
     1
270
     1
271
     1
  0
XRECORD
  5
3FAF
102
{ACAD_REACTORS
330
3FA9
102
}
330
3FA9
100
AcDbXrecord
280
     1
270
     1
271
     1
  0
XRECORD
  5
3FAC
102
{ACAD_REACTORS
330
3FA9
102
}
330
3FA9
100
AcDbXrecord
280
     1
270
     1
271
     1
  0
XRECORD
  5
4018
102
{ACAD_REACTORS
330
3FB9
102
}
330
3FB9
100
AcDbXrecord
280
     1
102
MATERIAL
148
0.0
149
0.0
149
0.0
 93
        0
 94
      127
282
     0
 72
     0
 77
     0
171
     0
175
     0
179
     0
273
     0
  0
XRECORD
  5
3FBB
102
{ACAD_REACTORS
330
3FB9
102
}
330
3FB9
100
AcDbXrecord
280
     1
270
     1
271
     1
  0
XRECORD
  5
3FBA
102
{ACAD_REACTORS
330
3FB9
102
}
330
3FB9
100
AcDbXrecord
280
     1
270
     1
271
     1
  0
XRECORD
  5
3FBE
102
{ACAD_REACTORS
330
3FB9
102
}
330
3FB9
100
AcDbXrecord
280
     1
270
     1
271
     1
  0
XRECORD
  5
3FBD
102
{ACAD_REACTORS
330
3FB9
102
}
330
3FB9
100
AcDbXrecord
280
     1
270
     1
271
     1
  0
XRECORD
  5
3FBF
102
{ACAD_REACTORS
330
3FB9
102
}
330
3FB9
100
AcDbXrecord
280
     1
270
     1
271
     1
  0
XRECORD
  5
3FBC
102
{ACAD_REACTORS
330
3FB9
102
}
330
3FB9
100
AcDbXrecord
280
     1
270
     1
271
     1
  0
XRECORD
  5
404C
102
{ACAD_REACTORS
330
404B
102
}
330
404B
100
AcDbXrecord
280
     1
102
DISPLAYNAME
  1
Imperial24
102
FLAGS
 90
        0
  0
CELLSTYLEMAP
  5
4013
102
{ACAD_REACTORS
330
4012
102
}
330
4012
100
AcDbCellStyleMap
 90
        3
300
CELLSTYLE
  1
TABLEFORMAT_BEGIN
 90
        5
170
     1
 91
        0
 92
    32768
 62
   257
 93
        1
300
CONTENTFORMAT
  1
CONTENTFORMAT_BEGIN
 90
        0
 91
        0
 92
      512
 93
        0
300

 40
0.0
140
1.0
 94
        5
 62
     0
340
F
144
0.25
309
CONTENTFORMAT_END
171
     0
 94
        0
309
TABLEFORMAT_END
  1
CELLSTYLE_BEGIN
 90
        1
 91
        1
300
_TITLE
309
CELLSTYLE_END
300
CELLSTYLE
  1
TABLEFORMAT_BEGIN
 90
        5
170
     1
 91
        0
 92
        0
 62
   257
 93
        1
300
CONTENTFORMAT
  1
CONTENTFORMAT_BEGIN
 90
        0
 91
        0
 92
      512
 93
        0
300

 40
0.0
140
1.0
 94
        5
 62
     0
340
F
144
0.18
309
CONTENTFORMAT_END
171
     0
 94
        0
309
TABLEFORMAT_END
  1
CELLSTYLE_BEGIN
 90
        2
 91
        1
300
_HEADER
309
CELLSTYLE_END
300
CELLSTYLE
  1
TABLEFORMAT_BEGIN
 90
        5
170
     1
 91
        0
 92
        0
 62
   257
 93
        1
300
CONTENTFORMAT
  1
CONTENTFORMAT_BEGIN
 90
        0
 91
        0
 92
      512
 93
        0
300

 40
0.0
140
1.0
 94
        2
 62
     0
340
F
144
0.18
309
CONTENTFORMAT_END
171
     0
 94
        0
309
TABLEFORMAT_END
  1
CELLSTYLE_BEGIN
 90
        3
 91
        2
300
_DATA
309
CELLSTYLE_END
  0
XRECORD
  5
4049
102
{ACAD_REACTORS
330
4012
102
}
330
4012
100
AcDbXrecord
280
     1
102
ACAD_ROUNDTRIP_PRE2007_TABLESTYLE
 90
      512
 91
        0
  1

 92
      512
 93
        0
  2

 94
      512
 95
        0
  3

  0
XRECORD
  5
4024
102
{ACAD_REACTORS
330
4023
102
}
330
4023
100
AcDbXrecord
280
     1
102
RTVSPost2010Prop28
280
     1
102
RTVSPost2010PropOp28
 70
     1
102
RTVSPost2010Prop29
280
     1
102
RTVSPost2010PropOp29
 70
     1
102
RTVSPost2010Prop30
280
     0
102
RTVSPost2010PropOp30
 70
     1
102
RTVSPost2010Prop31
280
     0
102
RTVSPost2010PropOp31
 70
     1
102
RTVSPost2010Prop32
280
     0
102
RTVSPost2010PropOp32
 70
     1
102
RTVSPost2010Prop33
280
     0
102
RTVSPost2010PropOp33
 70
     1
102
RTVSPost2010Prop34
280
     0
102
RTVSPost2010PropOp34
 70
     1
102
RTVSPost2010Prop35
280
     0
102
RTVSPost2010PropOp35
 70
     1
102
RTVSPost2010Prop36
280
     0
102
RTVSPost2010PropOp36
 70
     1
102
RTVSPost2010Prop37
 90
       50
102
RTVSPost2010PropOp37
 70
     1
102
RTVSPost2010Prop38
140
0.0
102
RTVSPost2010PropOp38
 70
     1
102
RTVSPost2010Prop39
140
1.0
102
RTVSPost2010PropOp39
 70
     1
102
RTVSPost2010Prop40
 90
        0
102
RTVSPost2010PropOp40
 70
     1
102
RTVSPost2010Prop41ColorIndex
 90
       18
102
RTVSPost2010Prop41ColorRGB
 90
        0
102
RTVSPost2010PropOp41
 70
     1
102
RTVSPost2010Prop42
 90
       50
102
RTVSPost2010PropOp42
 70
     1
102
RTVSPost2010Prop43
 90
        3
102
RTVSPost2010PropOp43
 70
     1
102
RTVSPost2010Prop44ColorIndex
 90
        5
102
RTVSPost2010Prop44ColorRGB
 90
      255
102
RTVSPost2010PropOp44
 70
     1
102
RTVSPost2010Prop45
280
     0
102
RTVSPost2010PropOp45
 70
     1
102
RTVSPost2010Prop46
 90
       50
102
RTVSPost2010PropOp46
 70
     1
102
RTVSPost2010Prop47
 90
       50
102
RTVSPost2010PropOp47
 70
     1
102
RTVSPost2010Prop48
 90
       50
102
RTVSPost2010PropOp48
 70
     1
102
RTVSPost2010Prop49
280
     0
102
RTVSPost2010PropOp49
 70
     1
102
RTVSPost2010Prop50
 90
       50
102
RTVSPost2010PropOp50
 70
     1
102
RTVSPost2010Prop51ColorIndex
 90
      256
102
RTVSPost2010Prop51ColorRGB
 90
-16777216
102
RTVSPost2010PropOp51
 70
     0
102
RTVSPost2010Prop52
140
1.0
102
RTVSPost2010PropOp52
 70
     0
102
RTVSPost2010Prop53
 90
        2
102
RTVSPost2010PropOp53
 70
     1
102
RTVSPost2010Prop54
  1
strokes_ogs.tif
102
RTVSPost2010PropOp54
 70
     1
102
RTVSPost2010Prop55
280
     0
102
RTVSPost2010PropOp55
 70
     1
102
RTVSPost2010Prop56
140
1.0
102
RTVSPost2010PropOp56
 70
     1
102
RTVSPost2010Prop57
140
1.0
102
RTVSPost2010PropOp57
 70
     1
102
RTVSPropertyOp0
 70
     1
102
RTVSPropertyOp1
 70
     1
102
RTVSPropertyOp2
 70
     1
102
RTVSPropertyOp3
 70
     1
102
RTVSPropertyOp4
 70
     1
102
RTVSPropertyOp5
 70
     1
102
RTVSPropertyOp6
 70
     1
102
RTVSPropertyOp7
 70
     1
102
RTVSPropertyOp8
 70
     1
102
RTVSPropertyOp9
 70
     1
102
RTVSPropertyOp10
 70
     1
102
RTVSPropertyOp11
 70
     1
102
RTVSPropertyOp12
 70
     1
102
RTVSPropertyOp13
 70
     1
102
RTVSPropertyOp14
 70
     1
102
RTVSPropertyOp15
 70
     1
102
RTVSPropertyOp16
 70
     1
102
RTVSPropertyOp17
 70
     1
102
RTVSPropertyOp18
 70
     1
102
RTVSPropertyOp19
 70
     1
102
RTVSPropertyOp20
 70
     1
102
RTVSPropertyOp21
 70
     1
102
RTVSPropertyOp22
 70
     1
102
RTVSPropertyOp23
 70
     1
102
RTVSPropertyOp24
 70
     1
102
RTVSPropertyOp25
 70
     1
102
RTVSPropertyOp26
 70
     1
102
RTVSPropertyOp27
 70
     1
102
RTVSPropertyOp28
 70
     1
102
RTVSPropertyOp29
 70
     1
102
RTVSPropertyOp30
 70
     1
102
RTVSPropertyOp31
 70
     1
102
RTVSPropertyOp32
 70
     1
102
RTVSPropertyOp33
 70
     1
102
RTVSPropertyOp34
 70
     1
102
RTVSPropertyOp35
 70
     1
102
RTVSPropertyOp36
 70
     1
102
RTVSPropertyOp37
 70
     1
102
RTVSPropertyOp38
 70
     1
102
RTVSPropertyOp39
 70
     1
102
RTVSPropertyOp40
 70
     1
102
RTVSPropertyOp41
 70
     1
102
RTVSPropertyOp42
 70
     1
102
RTVSPropertyOp43
 70
     1
102
RTVSPropertyOp44
 70
     1
102
RTVSPropertyOp45
 70
     1
102
RTVSPropertyOp46
 70
     1
102
RTVSPropertyOp47
 70
     1
102
RTVSPropertyOp48
 70
     1
102
RTVSPropertyOp49
 70
     1
102
RTVSPropertyOp50
 70
     1
102
RTVSPropertyOp51
 70
     0
102
RTVSPropertyOp52
 70
     0
102
RTVSPropertyOp53
 70
     1
102
RTVSPropertyOp54
 70
     1
102
RTVSPropertyOp55
 70
     1
102
RTVSPropertyOp56
 70
     1
102
RTVSPropertyOp57
 70
     1
102
RTVSPropertyOp58
 70
     1
102
RTVSPropertyOp59
 70
     1
102
RTVSPropertyOp60
 70
     1
102
RTVSPropertyOp61
 70
     1
102
RTVSPropertyOp62
 70
     1
  0
XRECORD
  5
4022
102
{ACAD_REACTORS
330
4021
102
}
330
4021
100
AcDbXrecord
280
     1
102
RTVSPost2010Prop28
280
     0
102
RTVSPost2010PropOp28
 70
     1
102
RTVSPost2010Prop29
280
     1
102
RTVSPost2010PropOp29
 70
     1
102
RTVSPost2010Prop30
280
     1
102
RTVSPost2010PropOp30
 70
     1
102
RTVSPost2010Prop31
280
     0
102
RTVSPost2010PropOp31
 70
     1
102
RTVSPost2010Prop32
280
     0
102
RTVSPost2010PropOp32
 70
     1
102
RTVSPost2010Prop33
280
     0
102
RTVSPost2010PropOp33
 70
     1
102
RTVSPost2010Prop34
280
     0
102
RTVSPost2010PropOp34
 70
     1
102
RTVSPost2010Prop35
280
     0
102
RTVSPost2010PropOp35
 70
     1
102
RTVSPost2010Prop36
280
     0
102
RTVSPost2010PropOp36
 70
     1
102
RTVSPost2010Prop37
 90
       50
102
RTVSPost2010PropOp37
 70
     1
102
RTVSPost2010Prop38
140
0.0
102
RTVSPost2010PropOp38
 70
     1
102
RTVSPost2010Prop39
140
1.0
102
RTVSPost2010PropOp39
 70
     1
102
RTVSPost2010Prop40
 90
        0
102
RTVSPost2010PropOp40
 70
     1
102
RTVSPost2010Prop41ColorIndex
 90
       18
102
RTVSPost2010Prop41ColorRGB
 90
        0
102
RTVSPost2010PropOp41
 70
     1
102
RTVSPost2010Prop42
 90
       50
102
RTVSPost2010PropOp42
 70
     1
102
RTVSPost2010Prop43
 90
        3
102
RTVSPost2010PropOp43
 70
     1
102
RTVSPost2010Prop44ColorIndex
 90
        5
102
RTVSPost2010Prop44ColorRGB
 90
      255
102
RTVSPost2010PropOp44
 70
     1
102
RTVSPost2010Prop45
280
     0
102
RTVSPost2010PropOp45
 70
     1
102
RTVSPost2010Prop46
 90
       50
102
RTVSPost2010PropOp46
 70
     1
102
RTVSPost2010Prop47
 90
       50
102
RTVSPost2010PropOp47
 70
     1
102
RTVSPost2010Prop48
 90
       50
102
RTVSPost2010PropOp48
 70
     1
102
RTVSPost2010Prop49
280
     0
102
RTVSPost2010PropOp49
 70
     1
102
RTVSPost2010Prop50
 90
       50
102
RTVSPost2010PropOp50
 70
     1
102
RTVSPost2010Prop51ColorIndex
 90
      256
102
RTVSPost2010Prop51ColorRGB
 90
-16777216
102
RTVSPost2010PropOp51
 70
     0
102
RTVSPost2010Prop52
140
1.0
102
RTVSPost2010PropOp52
 70
     0
102
RTVSPost2010Prop53
 90
        2
102
RTVSPost2010PropOp53
 70
     1
102
RTVSPost2010Prop54
  1
strokes_ogs.tif
102
RTVSPost2010PropOp54
 70
     1
102
RTVSPost2010Prop55
280
     0
102
RTVSPost2010PropOp55
 70
     1
102
RTVSPost2010Prop56
140
1.0
102
RTVSPost2010PropOp56
 70
     1
102
RTVSPost2010Prop57
140
1.0
102
RTVSPost2010PropOp57
 70
     1
102
RTVSPropertyOp0
 70
     1
102
RTVSPropertyOp1
 70
     1
102
RTVSPropertyOp2
 70
     1
102
RTVSPropertyOp3
 70
     1
102
RTVSPropertyOp4
 70
     1
102
RTVSPropertyOp5
 70
     1
102
RTVSPropertyOp6
 70
     1
102
RTVSPropertyOp7
 70
     1
102
RTVSPropertyOp8
 70
     1
102
RTVSPropertyOp9
 70
     1
102
RTVSPropertyOp10
 70
     1
102
RTVSPropertyOp11
 70
     1
102
RTVSPropertyOp12
 70
     1
102
RTVSPropertyOp13
 70
     1
102
RTVSPropertyOp14
 70
     1
102
RTVSPropertyOp15
 70
     1
102
RTVSPropertyOp16
 70
     1
102
RTVSPropertyOp17
 70
     1
102
RTVSPropertyOp18
 70
     1
102
RTVSPropertyOp19
 70
     1
102
RTVSPropertyOp20
 70
     1
102
RTVSPropertyOp21
 70
     1
102
RTVSPropertyOp22
 70
     1
102
RTVSPropertyOp23
 70
     1
102
RTVSPropertyOp24
 70
     1
102
RTVSPropertyOp25
 70
     1
102
RTVSPropertyOp26
 70
     1
102
RTVSPropertyOp27
 70
     1
102
RTVSPropertyOp28
 70
     1
102
RTVSPropertyOp29
 70
     1
102
RTVSPropertyOp30
 70
     1
102
RTVSPropertyOp31
 70
     1
102
RTVSPropertyOp32
 70
     1
102
RTVSPropertyOp33
 70
     1
102
RTVSPropertyOp34
 70
     1
102
RTVSPropertyOp35
 70
     1
102
RTVSPropertyOp36
 70
     1
102
RTVSPropertyOp37
 70
     1
102
RTVSPropertyOp38
 70
     1
102
RTVSPropertyOp39
 70
     1
102
RTVSPropertyOp40
 70
     1
102
RTVSPropertyOp41
 70
     1
102
RTVSPropertyOp42
 70
     1
102
RTVSPropertyOp43
 70
     1
102
RTVSPropertyOp44
 70
     1
102
RTVSPropertyOp45
 70
     1
102
RTVSPropertyOp46
 70
     1
102
RTVSPropertyOp47
 70
     1
102
RTVSPropertyOp48
 70
     1
102
RTVSPropertyOp49
 70
     1
102
RTVSPropertyOp50
 70
     1
102
RTVSPropertyOp51
 70
     0
102
RTVSPropertyOp52
 70
     0
102
RTVSPropertyOp53
 70
     1
102
RTVSPropertyOp54
 70
     1
102
RTVSPropertyOp55
 70
     1
102
RTVSPropertyOp56
 70
     1
102
RTVSPropertyOp57
 70
     1
102
RTVSPropertyOp58
 70
     1
102
RTVSPropertyOp59
 70
     1
102
RTVSPropertyOp60
 70
     1
102
RTVSPropertyOp61
 70
     1
102
RTVSPropertyOp62
 70
     1
  0
XRECORD
  5
4030
102
{ACAD_REACTORS
330
402F
102
}
330
402F
100
AcDbXrecord
280
     1
102
RTVSPost2010Prop28
280
     0
102
RTVSPost2010PropOp28
 70
     1
102
RTVSPost2010Prop29
280
     1
102
RTVSPost2010PropOp29
 70
     1
102
RTVSPost2010Prop30
280
     1
102
RTVSPost2010PropOp30
 70
     1
102
RTVSPost2010Prop31
280
     0
102
RTVSPost2010PropOp31
 70
     1
102
RTVSPost2010Prop32
280
     0
102
RTVSPost2010PropOp32
 70
     1
102
RTVSPost2010Prop33
280
     0
102
RTVSPost2010PropOp33
 70
     1
102
RTVSPost2010Prop34
280
     0
102
RTVSPost2010PropOp34
 70
     1
102
RTVSPost2010Prop35
280
     0
102
RTVSPost2010PropOp35
 70
     1
102
RTVSPost2010Prop36
280
     0
102
RTVSPost2010PropOp36
 70
     1
102
RTVSPost2010Prop37
 90
       50
102
RTVSPost2010PropOp37
 70
     1
102
RTVSPost2010Prop38
140
0.0
102
RTVSPost2010PropOp38
 70
     1
102
RTVSPost2010Prop39
140
1.0
102
RTVSPost2010PropOp39
 70
     1
102
RTVSPost2010Prop40
 90
        0
102
RTVSPost2010PropOp40
 70
     1
102
RTVSPost2010Prop41ColorIndex
 90
       18
102
RTVSPost2010Prop41ColorRGB
 90
        0
102
RTVSPost2010PropOp41
 70
     1
102
RTVSPost2010Prop42
 90
       50
102
RTVSPost2010PropOp42
 70
     1
102
RTVSPost2010Prop43
 90
        3
102
RTVSPost2010PropOp43
 70
     1
102
RTVSPost2010Prop44ColorIndex
 90
        5
102
RTVSPost2010Prop44ColorRGB
 90
      255
102
RTVSPost2010PropOp44
 70
     1
102
RTVSPost2010Prop45
280
     0
102
RTVSPost2010PropOp45
 70
     1
102
RTVSPost2010Prop46
 90
       50
102
RTVSPost2010PropOp46
 70
     1
102
RTVSPost2010Prop47
 90
       50
102
RTVSPost2010PropOp47
 70
     1
102
RTVSPost2010Prop48
 90
       50
102
RTVSPost2010PropOp48
 70
     1
102
RTVSPost2010Prop49
280
     0
102
RTVSPost2010PropOp49
 70
     1
102
RTVSPost2010Prop50
 90
       50
102
RTVSPost2010PropOp50
 70
     1
102
RTVSPost2010Prop51ColorIndex
 90
      256
102
RTVSPost2010Prop51ColorRGB
 90
-16777216
102
RTVSPost2010PropOp51
 70
     0
102
RTVSPost2010Prop52
140
1.0
102
RTVSPost2010PropOp52
 70
     0
102
RTVSPost2010Prop53
 90
        2
102
RTVSPost2010PropOp53
 70
     1
102
RTVSPost2010Prop54
  1
strokes_ogs.tif
102
RTVSPost2010PropOp54
 70
     1
102
RTVSPost2010Prop55
280
     0
102
RTVSPost2010PropOp55
 70
     1
102
RTVSPost2010Prop56
140
1.0
102
RTVSPost2010PropOp56
 70
     1
102
RTVSPost2010Prop57
140
1.0
102
RTVSPost2010PropOp57
 70
     1
102
RTVSPropertyOp0
 70
     1
102
RTVSPropertyOp1
 70
     1
102
RTVSPropertyOp2
 70
     1
102
RTVSPropertyOp3
 70
     1
102
RTVSPropertyOp4
 70
     1
102
RTVSPropertyOp5
 70
     1
102
RTVSPropertyOp6
 70
     1
102
RTVSPropertyOp7
 70
     1
102
RTVSPropertyOp8
 70
     1
102
RTVSPropertyOp9
 70
     1
102
RTVSPropertyOp10
 70
     1
102
RTVSPropertyOp11
 70
     1
102
RTVSPropertyOp12
 70
     1
102
RTVSPropertyOp13
 70
     1
102
RTVSPropertyOp14
 70
     1
102
RTVSPropertyOp15
 70
     1
102
RTVSPropertyOp16
 70
     1
102
RTVSPropertyOp17
 70
     1
102
RTVSPropertyOp18
 70
     1
102
RTVSPropertyOp19
 70
     1
102
RTVSPropertyOp20
 70
     1
102
RTVSPropertyOp21
 70
     1
102
RTVSPropertyOp22
 70
     1
102
RTVSPropertyOp23
 70
     1
102
RTVSPropertyOp24
 70
     1
102
RTVSPropertyOp25
 70
     1
102
RTVSPropertyOp26
 70
     1
102
RTVSPropertyOp27
 70
     1
102
RTVSPropertyOp28
 70
     1
102
RTVSPropertyOp29
 70
     1
102
RTVSPropertyOp30
 70
     1
102
RTVSPropertyOp31
 70
     1
102
RTVSPropertyOp32
 70
     1
102
RTVSPropertyOp33
 70
     1
102
RTVSPropertyOp34
 70
     1
102
RTVSPropertyOp35
 70
     1
102
RTVSPropertyOp36
 70
     1
102
RTVSPropertyOp37
 70
     1
102
RTVSPropertyOp38
 70
     1
102
RTVSPropertyOp39
 70
     1
102
RTVSPropertyOp40
 70
     1
102
RTVSPropertyOp41
 70
     1
102
RTVSPropertyOp42
 70
     1
102
RTVSPropertyOp43
 70
     1
102
RTVSPropertyOp44
 70
     1
102
RTVSPropertyOp45
 70
     1
102
RTVSPropertyOp46
 70
     1
102
RTVSPropertyOp47
 70
     1
102
RTVSPropertyOp48
 70
     1
102
RTVSPropertyOp49
 70
     1
102
RTVSPropertyOp50
 70
     1
102
RTVSPropertyOp51
 70
     0
102
RTVSPropertyOp52
 70
     0
102
RTVSPropertyOp53
 70
     1
102
RTVSPropertyOp54
 70
     1
102
RTVSPropertyOp55
 70
     1
102
RTVSPropertyOp56
 70
     1
102
RTVSPropertyOp57
 70
     1
102
RTVSPropertyOp58
 70
     1
102
RTVSPropertyOp59
 70
     1
102
RTVSPropertyOp60
 70
     1
102
RTVSPropertyOp61
 70
     1
102
RTVSPropertyOp62
 70
     1
  0
XRECORD
  5
4038
102
{ACAD_REACTORS
330
4037
102
}
330
4037
100
AcDbXrecord
280
     1
102
RTVSPost2010Prop28
280
     0
102
RTVSPost2010PropOp28
 70
     1
102
RTVSPost2010Prop29
280
     1
102
RTVSPost2010PropOp29
 70
     1
102
RTVSPost2010Prop30
280
     1
102
RTVSPost2010PropOp30
 70
     1
102
RTVSPost2010Prop31
280
     0
102
RTVSPost2010PropOp31
 70
     1
102
RTVSPost2010Prop32
280
     0
102
RTVSPost2010PropOp32
 70
     1
102
RTVSPost2010Prop33
280
     0
102
RTVSPost2010PropOp33
 70
     1
102
RTVSPost2010Prop34
280
     0
102
RTVSPost2010PropOp34
 70
     1
102
RTVSPost2010Prop35
280
     0
102
RTVSPost2010PropOp35
 70
     1
102
RTVSPost2010Prop36
280
     0
102
RTVSPost2010PropOp36
 70
     1
102
RTVSPost2010Prop37
 90
       50
102
RTVSPost2010PropOp37
 70
     1
102
RTVSPost2010Prop38
140
0.0
102
RTVSPost2010PropOp38
 70
     1
102
RTVSPost2010Prop39
140
1.0
102
RTVSPost2010PropOp39
 70
     1
102
RTVSPost2010Prop40
 90
        0
102
RTVSPost2010PropOp40
 70
     1
102
RTVSPost2010Prop41ColorIndex
 90
       18
102
RTVSPost2010Prop41ColorRGB
 90
        0
102
RTVSPost2010PropOp41
 70
     1
102
RTVSPost2010Prop42
 90
       50
102
RTVSPost2010PropOp42
 70
     1
102
RTVSPost2010Prop43
 90
        3
102
RTVSPost2010PropOp43
 70
     1
102
RTVSPost2010Prop44ColorIndex
 90
        5
102
RTVSPost2010Prop44ColorRGB
 90
      255
102
RTVSPost2010PropOp44
 70
     1
102
RTVSPost2010Prop45
280
     0
102
RTVSPost2010PropOp45
 70
     1
102
RTVSPost2010Prop46
 90
       50
102
RTVSPost2010PropOp46
 70
     1
102
RTVSPost2010Prop47
 90
       50
102
RTVSPost2010PropOp47
 70
     1
102
RTVSPost2010Prop48
 90
       50
102
RTVSPost2010PropOp48
 70
     1
102
RTVSPost2010Prop49
280
     0
102
RTVSPost2010PropOp49
 70
     1
102
RTVSPost2010Prop50
 90
       50
102
RTVSPost2010PropOp50
 70
     1
102
RTVSPost2010Prop51ColorIndex
 90
      256
102
RTVSPost2010Prop51ColorRGB
 90
-16777216
102
RTVSPost2010PropOp51
 70
     0
102
RTVSPost2010Prop52
140
1.0
102
RTVSPost2010PropOp52
 70
     0
102
RTVSPost2010Prop53
 90
        2
102
RTVSPost2010PropOp53
 70
     1
102
RTVSPost2010Prop54
  1
strokes_ogs.tif
102
RTVSPost2010PropOp54
 70
     1
102
RTVSPost2010Prop55
280
     0
102
RTVSPost2010PropOp55
 70
     1
102
RTVSPost2010Prop56
140
1.0
102
RTVSPost2010PropOp56
 70
     1
102
RTVSPost2010Prop57
140
1.0
102
RTVSPost2010PropOp57
 70
     1
102
RTVSPropertyOp0
 70
     1
102
RTVSPropertyOp1
 70
     1
102
RTVSPropertyOp2
 70
     1
102
RTVSPropertyOp3
 70
     1
102
RTVSPropertyOp4
 70
     1
102
RTVSPropertyOp5
 70
     1
102
RTVSPropertyOp6
 70
     1
102
RTVSPropertyOp7
 70
     1
102
RTVSPropertyOp8
 70
     1
102
RTVSPropertyOp9
 70
     1
102
RTVSPropertyOp10
 70
     1
102
RTVSPropertyOp11
 70
     1
102
RTVSPropertyOp12
 70
     1
102
RTVSPropertyOp13
 70
     1
102
RTVSPropertyOp14
 70
     1
102
RTVSPropertyOp15
 70
     1
102
RTVSPropertyOp16
 70
     1
102
RTVSPropertyOp17
 70
     1
102
RTVSPropertyOp18
 70
     1
102
RTVSPropertyOp19
 70
     1
102
RTVSPropertyOp20
 70
     1
102
RTVSPropertyOp21
 70
     1
102
RTVSPropertyOp22
 70
     1
102
RTVSPropertyOp23
 70
     1
102
RTVSPropertyOp24
 70
     1
102
RTVSPropertyOp25
 70
     1
102
RTVSPropertyOp26
 70
     1
102
RTVSPropertyOp27
 70
     1
102
RTVSPropertyOp28
 70
     1
102
RTVSPropertyOp29
 70
     1
102
RTVSPropertyOp30
 70
     1
102
RTVSPropertyOp31
 70
     1
102
RTVSPropertyOp32
 70
     1
102
RTVSPropertyOp33
 70
     1
102
RTVSPropertyOp34
 70
     1
102
RTVSPropertyOp35
 70
     1
102
RTVSPropertyOp36
 70
     1
102
RTVSPropertyOp37
 70
     1
102
RTVSPropertyOp38
 70
     1
102
RTVSPropertyOp39
 70
     1
102
RTVSPropertyOp40
 70
     1
102
RTVSPropertyOp41
 70
     1
102
RTVSPropertyOp42
 70
     1
102
RTVSPropertyOp43
 70
     1
102
RTVSPropertyOp44
 70
     1
102
RTVSPropertyOp45
 70
     1
102
RTVSPropertyOp46
 70
     1
102
RTVSPropertyOp47
 70
     1
102
RTVSPropertyOp48
 70
     1
102
RTVSPropertyOp49
 70
     1
102
RTVSPropertyOp50
 70
     1
102
RTVSPropertyOp51
 70
     0
102
RTVSPropertyOp52
 70
     0
102
RTVSPropertyOp53
 70
     1
102
RTVSPropertyOp54
 70
     1
102
RTVSPropertyOp55
 70
     1
102
RTVSPropertyOp56
 70
     1
102
RTVSPropertyOp57
 70
     1
102
RTVSPropertyOp58
 70
     1
102
RTVSPropertyOp59
 70
     1
102
RTVSPropertyOp60
 70
     1
102
RTVSPropertyOp61
 70
     1
102
RTVSPropertyOp62
 70
     1
  0
XRECORD
  5
402A
102
{ACAD_REACTORS
330
4029
102
}
330
4029
100
AcDbXrecord
280
     1
102
RTVSPost2010Prop28
280
     0
102
RTVSPost2010PropOp28
 70
     1
102
RTVSPost2010Prop29
280
     1
102
RTVSPost2010PropOp29
 70
     1
102
RTVSPost2010Prop30
280
     1
102
RTVSPost2010PropOp30
 70
     1
102
RTVSPost2010Prop31
280
     0
102
RTVSPost2010PropOp31
 70
     1
102
RTVSPost2010Prop32
280
     0
102
RTVSPost2010PropOp32
 70
     1
102
RTVSPost2010Prop33
280
     0
102
RTVSPost2010PropOp33
 70
     1
102
RTVSPost2010Prop34
280
     0
102
RTVSPost2010PropOp34
 70
     1
102
RTVSPost2010Prop35
280
     0
102
RTVSPost2010PropOp35
 70
     1
102
RTVSPost2010Prop36
280
     0
102
RTVSPost2010PropOp36
 70
     1
102
RTVSPost2010Prop37
 90
       50
102
RTVSPost2010PropOp37
 70
     1
102
RTVSPost2010Prop38
140
0.0
102
RTVSPost2010PropOp38
 70
     1
102
RTVSPost2010Prop39
140
1.0
102
RTVSPost2010PropOp39
 70
     1
102
RTVSPost2010Prop40
 90
        0
102
RTVSPost2010PropOp40
 70
     1
102
RTVSPost2010Prop41ColorIndex
 90
       18
102
RTVSPost2010Prop41ColorRGB
 90
        0
102
RTVSPost2010PropOp41
 70
     1
102
RTVSPost2010Prop42
 90
       50
102
RTVSPost2010PropOp42
 70
     1
102
RTVSPost2010Prop43
 90
        3
102
RTVSPost2010PropOp43
 70
     1
102
RTVSPost2010Prop44ColorIndex
 90
        5
102
RTVSPost2010Prop44ColorRGB
 90
      255
102
RTVSPost2010PropOp44
 70
     1
102
RTVSPost2010Prop45
280
     0
102
RTVSPost2010PropOp45
 70
     1
102
RTVSPost2010Prop46
 90
       50
102
RTVSPost2010PropOp46
 70
     1
102
RTVSPost2010Prop47
 90
       50
102
RTVSPost2010PropOp47
 70
     1
102
RTVSPost2010Prop48
 90
       50
102
RTVSPost2010PropOp48
 70
     1
102
RTVSPost2010Prop49
280
     0
102
RTVSPost2010PropOp49
 70
     1
102
RTVSPost2010Prop50
 90
       50
102
RTVSPost2010PropOp50
 70
     1
102
RTVSPost2010Prop51ColorIndex
 90
      256
102
RTVSPost2010Prop51ColorRGB
 90
-16777216
102
RTVSPost2010PropOp51
 70
     0
102
RTVSPost2010Prop52
140
1.0
102
RTVSPost2010PropOp52
 70
     0
102
RTVSPost2010Prop53
 90
        2
102
RTVSPost2010PropOp53
 70
     1
102
RTVSPost2010Prop54
  1
strokes_ogs.tif
102
RTVSPost2010PropOp54
 70
     1
102
RTVSPost2010Prop55
280
     0
102
RTVSPost2010PropOp55
 70
     1
102
RTVSPost2010Prop56
140
1.0
102
RTVSPost2010PropOp56
 70
     1
102
RTVSPost2010Prop57
140
1.0
102
RTVSPost2010PropOp57
 70
     1
102
RTVSPropertyOp0
 70
     1
102
RTVSPropertyOp1
 70
     1
102
RTVSPropertyOp2
 70
     1
102
RTVSPropertyOp3
 70
     1
102
RTVSPropertyOp4
 70
     1
102
RTVSPropertyOp5
 70
     1
102
RTVSPropertyOp6
 70
     1
102
RTVSPropertyOp7
 70
     1
102
RTVSPropertyOp8
 70
     1
102
RTVSPropertyOp9
 70
     1
102
RTVSPropertyOp10
 70
     1
102
RTVSPropertyOp11
 70
     1
102
RTVSPropertyOp12
 70
     1
102
RTVSPropertyOp13
 70
     1
102
RTVSPropertyOp14
 70
     1
102
RTVSPropertyOp15
 70
     1
102
RTVSPropertyOp16
 70
     1
102
RTVSPropertyOp17
 70
     1
102
RTVSPropertyOp18
 70
     1
102
RTVSPropertyOp19
 70
     1
102
RTVSPropertyOp20
 70
     1
102
RTVSPropertyOp21
 70
     1
102
RTVSPropertyOp22
 70
     1
102
RTVSPropertyOp23
 70
     1
102
RTVSPropertyOp24
 70
     1
102
RTVSPropertyOp25
 70
     1
102
RTVSPropertyOp26
 70
     1
102
RTVSPropertyOp27
 70
     1
102
RTVSPropertyOp28
 70
     1
102
RTVSPropertyOp29
 70
     1
102
RTVSPropertyOp30
 70
     1
102
RTVSPropertyOp31
 70
     1
102
RTVSPropertyOp32
 70
     1
102
RTVSPropertyOp33
 70
     1
102
RTVSPropertyOp34
 70
     1
102
RTVSPropertyOp35
 70
     1
102
RTVSPropertyOp36
 70
     1
102
RTVSPropertyOp37
 70
     1
102
RTVSPropertyOp38
 70
     1
102
RTVSPropertyOp39
 70
     1
102
RTVSPropertyOp40
 70
     1
102
RTVSPropertyOp41
 70
     1
102
RTVSPropertyOp42
 70
     1
102
RTVSPropertyOp43
 70
     1
102
RTVSPropertyOp44
 70
     1
102
RTVSPropertyOp45
 70
     1
102
RTVSPropertyOp46
 70
     1
102
RTVSPropertyOp47
 70
     1
102
RTVSPropertyOp48
 70
     1
102
RTVSPropertyOp49
 70
     1
102
RTVSPropertyOp50
 70
     1
102
RTVSPropertyOp51
 70
     0
102
RTVSPropertyOp52
 70
     0
102
RTVSPropertyOp53
 70
     1
102
RTVSPropertyOp54
 70
     1
102
RTVSPropertyOp55
 70
     1
102
RTVSPropertyOp56
 70
     1
102
RTVSPropertyOp57
 70
     1
102
RTVSPropertyOp58
 70
     1
102
RTVSPropertyOp59
 70
     1
102
RTVSPropertyOp60
 70
     1
102
RTVSPropertyOp61
 70
     1
102
RTVSPropertyOp62
 70
     1
  0
XRECORD
  5
402E
102
{ACAD_REACTORS
330
402D
102
}
330
402D
100
AcDbXrecord
280
     1
102
RTVSPost2010Prop28
280
     0
102
RTVSPost2010PropOp28
 70
     1
102
RTVSPost2010Prop29
280
     1
102
RTVSPost2010PropOp29
 70
     1
102
RTVSPost2010Prop30
280
     1
102
RTVSPost2010PropOp30
 70
     1
102
RTVSPost2010Prop31
280
     0
102
RTVSPost2010PropOp31
 70
     1
102
RTVSPost2010Prop32
280
     0
102
RTVSPost2010PropOp32
 70
     1
102
RTVSPost2010Prop33
280
     0
102
RTVSPost2010PropOp33
 70
     1
102
RTVSPost2010Prop34
280
     0
102
RTVSPost2010PropOp34
 70
     1
102
RTVSPost2010Prop35
280
     0
102
RTVSPost2010PropOp35
 70
     1
102
RTVSPost2010Prop36
280
     0
102
RTVSPost2010PropOp36
 70
     1
102
RTVSPost2010Prop37
 90
       50
102
RTVSPost2010PropOp37
 70
     1
102
RTVSPost2010Prop38
140
0.0
102
RTVSPost2010PropOp38
 70
     1
102
RTVSPost2010Prop39
140
1.0
102
RTVSPost2010PropOp39
 70
     1
102
RTVSPost2010Prop40
 90
        0
102
RTVSPost2010PropOp40
 70
     1
102
RTVSPost2010Prop41ColorIndex
 90
       18
102
RTVSPost2010Prop41ColorRGB
 90
        0
102
RTVSPost2010PropOp41
 70
     1
102
RTVSPost2010Prop42
 90
       50
102
RTVSPost2010PropOp42
 70
     1
102
RTVSPost2010Prop43
 90
        3
102
RTVSPost2010PropOp43
 70
     1
102
RTVSPost2010Prop44ColorIndex
 90
        5
102
RTVSPost2010Prop44ColorRGB
 90
      255
102
RTVSPost2010PropOp44
 70
     1
102
RTVSPost2010Prop45
280
     0
102
RTVSPost2010PropOp45
 70
     1
102
RTVSPost2010Prop46
 90
       50
102
RTVSPost2010PropOp46
 70
     1
102
RTVSPost2010Prop47
 90
       50
102
RTVSPost2010PropOp47
 70
     1
102
RTVSPost2010Prop48
 90
       50
102
RTVSPost2010PropOp48
 70
     1
102
RTVSPost2010Prop49
280
     0
102
RTVSPost2010PropOp49
 70
     1
102
RTVSPost2010Prop50
 90
       50
102
RTVSPost2010PropOp50
 70
     1
102
RTVSPost2010Prop51ColorIndex
 90
      256
102
RTVSPost2010Prop51ColorRGB
 90
-16777216
102
RTVSPost2010PropOp51
 70
     0
102
RTVSPost2010Prop52
140
1.0
102
RTVSPost2010PropOp52
 70
     0
102
RTVSPost2010Prop53
 90
        2
102
RTVSPost2010PropOp53
 70
     1
102
RTVSPost2010Prop54
  1
strokes_ogs.tif
102
RTVSPost2010PropOp54
 70
     1
102
RTVSPost2010Prop55
280
     0
102
RTVSPost2010PropOp55
 70
     1
102
RTVSPost2010Prop56
140
1.0
102
RTVSPost2010PropOp56
 70
     1
102
RTVSPost2010Prop57
140
1.0
102
RTVSPost2010PropOp57
 70
     1
102
RTVSPropertyOp0
 70
     1
102
RTVSPropertyOp1
 70
     1
102
RTVSPropertyOp2
 70
     1
102
RTVSPropertyOp3
 70
     1
102
RTVSPropertyOp4
 70
     1
102
RTVSPropertyOp5
 70
     1
102
RTVSPropertyOp6
 70
     1
102
RTVSPropertyOp7
 70
     1
102
RTVSPropertyOp8
 70
     1
102
RTVSPropertyOp9
 70
     1
102
RTVSPropertyOp10
 70
     1
102
RTVSPropertyOp11
 70
     1
102
RTVSPropertyOp12
 70
     1
102
RTVSPropertyOp13
 70
     1
102
RTVSPropertyOp14
 70
     1
102
RTVSPropertyOp15
 70
     1
102
RTVSPropertyOp16
 70
     1
102
RTVSPropertyOp17
 70
     1
102
RTVSPropertyOp18
 70
     1
102
RTVSPropertyOp19
 70
     1
102
RTVSPropertyOp20
 70
     1
102
RTVSPropertyOp21
 70
     1
102
RTVSPropertyOp22
 70
     1
102
RTVSPropertyOp23
 70
     1
102
RTVSPropertyOp24
 70
     1
102
RTVSPropertyOp25
 70
     1
102
RTVSPropertyOp26
 70
     1
102
RTVSPropertyOp27
 70
     1
102
RTVSPropertyOp28
 70
     1
102
RTVSPropertyOp29
 70
     1
102
RTVSPropertyOp30
 70
     1
102
RTVSPropertyOp31
 70
     1
102
RTVSPropertyOp32
 70
     1
102
RTVSPropertyOp33
 70
     1
102
RTVSPropertyOp34
 70
     1
102
RTVSPropertyOp35
 70
     1
102
RTVSPropertyOp36
 70
     1
102
RTVSPropertyOp37
 70
     1
102
RTVSPropertyOp38
 70
     1
102
RTVSPropertyOp39
 70
     1
102
RTVSPropertyOp40
 70
     1
102
RTVSPropertyOp41
 70
     1
102
RTVSPropertyOp42
 70
     1
102
RTVSPropertyOp43
 70
     1
102
RTVSPropertyOp44
 70
     1
102
RTVSPropertyOp45
 70
     1
102
RTVSPropertyOp46
 70
     1
102
RTVSPropertyOp47
 70
     1
102
RTVSPropertyOp48
 70
     1
102
RTVSPropertyOp49
 70
     1
102
RTVSPropertyOp50
 70
     1
102
RTVSPropertyOp51
 70
     0
102
RTVSPropertyOp52
 70
     0
102
RTVSPropertyOp53
 70
     1
102
RTVSPropertyOp54
 70
     1
102
RTVSPropertyOp55
 70
     1
102
RTVSPropertyOp56
 70
     1
102
RTVSPropertyOp57
 70
     1
102
RTVSPropertyOp58
 70
     1
102
RTVSPropertyOp59
 70
     1
102
RTVSPropertyOp60
 70
     1
102
RTVSPropertyOp61
 70
     1
102
RTVSPropertyOp62
 70
     1
  0
XRECORD
  5
4048
102
{ACAD_REACTORS
330
4047
102
}
330
4047
100
AcDbXrecord
280
     1
102
RTVSPost2010Prop28
280
     0
102
RTVSPost2010PropOp28
 70
     1
102
RTVSPost2010Prop29
280
     1
102
RTVSPost2010PropOp29
 70
     1
102
RTVSPost2010Prop30
280
     1
102
RTVSPost2010PropOp30
 70
     1
102
RTVSPost2010Prop31
280
     0
102
RTVSPost2010PropOp31
 70
     1
102
RTVSPost2010Prop32
280
     0
102
RTVSPost2010PropOp32
 70
     1
102
RTVSPost2010Prop33
280
     0
102
RTVSPost2010PropOp33
 70
     1
102
RTVSPost2010Prop34
280
     0
102
RTVSPost2010PropOp34
 70
     1
102
RTVSPost2010Prop35
280
     0
102
RTVSPost2010PropOp35
 70
     1
102
RTVSPost2010Prop36
280
     0
102
RTVSPost2010PropOp36
 70
     1
102
RTVSPost2010Prop37
 90
       50
102
RTVSPost2010PropOp37
 70
     0
102
RTVSPost2010Prop38
140
0.0
102
RTVSPost2010PropOp38
 70
     0
102
RTVSPost2010Prop39
140
1.0
102
RTVSPost2010PropOp39
 70
     0
102
RTVSPost2010Prop40
 90
        0
102
RTVSPost2010PropOp40
 70
     0
102
RTVSPost2010Prop41ColorIndex
 90
       18
102
RTVSPost2010Prop41ColorRGB
 90
        0
102
RTVSPost2010PropOp41
 70
     0
102
RTVSPost2010Prop42
 90
       50
102
RTVSPost2010PropOp42
 70
     0
102
RTVSPost2010Prop43
 90
        3
102
RTVSPost2010PropOp43
 70
     0
102
RTVSPost2010Prop44ColorIndex
 90
        5
102
RTVSPost2010Prop44ColorRGB
 90
      255
102
RTVSPost2010PropOp44
 70
     0
102
RTVSPost2010Prop45
280
     0
102
RTVSPost2010PropOp45
 70
     1
102
RTVSPost2010Prop46
 90
       50
102
RTVSPost2010PropOp46
 70
     0
102
RTVSPost2010Prop47
 90
       50
102
RTVSPost2010PropOp47
 70
     0
102
RTVSPost2010Prop48
 90
       50
102
RTVSPost2010PropOp48
 70
     0
102
RTVSPost2010Prop49
280
     0
102
RTVSPost2010PropOp49
 70
     1
102
RTVSPost2010Prop50
 90
       50
102
RTVSPost2010PropOp50
 70
     0
102
RTVSPost2010Prop51ColorIndex
 90
      256
102
RTVSPost2010Prop51ColorRGB
 90
-16777216
102
RTVSPost2010PropOp51
 70
     0
102
RTVSPost2010Prop52
140
1.0
102
RTVSPost2010PropOp52
 70
     0
102
RTVSPost2010Prop53
 90
        2
102
RTVSPost2010PropOp53
 70
     0
102
RTVSPost2010Prop54
  1
strokes_ogs.tif
102
RTVSPost2010PropOp54
 70
     0
102
RTVSPost2010Prop55
280
     0
102
RTVSPost2010PropOp55
 70
     1
102
RTVSPost2010Prop56
140
1.0
102
RTVSPost2010PropOp56
 70
     0
102
RTVSPost2010Prop57
140
1.0
102
RTVSPost2010PropOp57
 70
     0
102
RTVSPropertyOp0
 70
     0
102
RTVSPropertyOp1
 70
     0
102
RTVSPropertyOp2
 70
     0
102
RTVSPropertyOp3
 70
     0
102
RTVSPropertyOp4
 70
     0
102
RTVSPropertyOp5
 70
     0
102
RTVSPropertyOp6
 70
     0
102
RTVSPropertyOp7
 70
     0
102
RTVSPropertyOp8
 70
     0
102
RTVSPropertyOp9
 70
     0
102
RTVSPropertyOp10
 70
     0
102
RTVSPropertyOp11
 70
     0
102
RTVSPropertyOp12
 70
     0
102
RTVSPropertyOp13
 70
     0
102
RTVSPropertyOp14
 70
     2
102
RTVSPropertyOp15
 70
     0
102
RTVSPropertyOp16
 70
     0
102
RTVSPropertyOp17
 70
     0
102
RTVSPropertyOp18
 70
     0
102
RTVSPropertyOp19
 70
     0
102
RTVSPropertyOp20
 70
     0
102
RTVSPropertyOp21
 70
     0
102
RTVSPropertyOp22
 70
     0
102
RTVSPropertyOp23
 70
     0
102
RTVSPropertyOp24
 70
     0
102
RTVSPropertyOp25
 70
     0
102
RTVSPropertyOp26
 70
     0
102
RTVSPropertyOp27
 70
     0
102
RTVSPropertyOp28
 70
     1
102
RTVSPropertyOp29
 70
     1
102
RTVSPropertyOp30
 70
     1
102
RTVSPropertyOp31
 70
     1
102
RTVSPropertyOp32
 70
     1
102
RTVSPropertyOp33
 70
     1
102
RTVSPropertyOp34
 70
     1
102
RTVSPropertyOp35
 70
     1
102
RTVSPropertyOp36
 70
     1
102
RTVSPropertyOp37
 70
     0
102
RTVSPropertyOp38
 70
     0
102
RTVSPropertyOp39
 70
     0
102
RTVSPropertyOp40
 70
     0
102
RTVSPropertyOp41
 70
     0
102
RTVSPropertyOp42
 70
     0
102
RTVSPropertyOp43
 70
     0
102
RTVSPropertyOp44
 70
     0
102
RTVSPropertyOp45
 70
     1
102
RTVSPropertyOp46
 70
     0
102
RTVSPropertyOp47
 70
     0
102
RTVSPropertyOp48
 70
     0
102
RTVSPropertyOp49
 70
     1
102
RTVSPropertyOp50
 70
     0
102
RTVSPropertyOp51
 70
     0
102
RTVSPropertyOp52
 70
     0
102
RTVSPropertyOp53
 70
     0
102
RTVSPropertyOp54
 70
     0
102
RTVSPropertyOp55
 70
     1
102
RTVSPropertyOp56
 70
     0
102
RTVSPropertyOp57
 70
     0
102
RTVSPropertyOp58
 70
     0
102
RTVSPropertyOp59
 70
     0
102
RTVSPropertyOp60
 70
     0
102
RTVSPropertyOp61
 70
     0
102
RTVSPropertyOp62
 70
     0
  0
XRECORD
  5
4036
102
{ACAD_REACTORS
330
4035
102
}
330
4035
100
AcDbXrecord
280
     1
102
RTVSPost2010Prop28
280
     0
102
RTVSPost2010PropOp28
 70
     1
102
RTVSPost2010Prop29
280
     1
102
RTVSPost2010PropOp29
 70
     1
102
RTVSPost2010Prop30
280
     1
102
RTVSPost2010PropOp30
 70
     1
102
RTVSPost2010Prop31
280
     0
102
RTVSPost2010PropOp31
 70
     1
102
RTVSPost2010Prop32
280
     0
102
RTVSPost2010PropOp32
 70
     1
102
RTVSPost2010Prop33
280
     0
102
RTVSPost2010PropOp33
 70
     1
102
RTVSPost2010Prop34
280
     0
102
RTVSPost2010PropOp34
 70
     1
102
RTVSPost2010Prop35
280
     0
102
RTVSPost2010PropOp35
 70
     1
102
RTVSPost2010Prop36
280
     0
102
RTVSPost2010PropOp36
 70
     1
102
RTVSPost2010Prop37
 90
       50
102
RTVSPost2010PropOp37
 70
     1
102
RTVSPost2010Prop38
140
0.0
102
RTVSPost2010PropOp38
 70
     1
102
RTVSPost2010Prop39
140
1.0
102
RTVSPost2010PropOp39
 70
     1
102
RTVSPost2010Prop40
 90
        0
102
RTVSPost2010PropOp40
 70
     1
102
RTVSPost2010Prop41ColorIndex
 90
       18
102
RTVSPost2010Prop41ColorRGB
 90
        0
102
RTVSPost2010PropOp41
 70
     1
102
RTVSPost2010Prop42
 90
       50
102
RTVSPost2010PropOp42
 70
     1
102
RTVSPost2010Prop43
 90
        3
102
RTVSPost2010PropOp43
 70
     1
102
RTVSPost2010Prop44ColorIndex
 90
        5
102
RTVSPost2010Prop44ColorRGB
 90
      255
102
RTVSPost2010PropOp44
 70
     1
102
RTVSPost2010Prop45
280
     0
102
RTVSPost2010PropOp45
 70
     1
102
RTVSPost2010Prop46
 90
       50
102
RTVSPost2010PropOp46
 70
     1
102
RTVSPost2010Prop47
 90
       50
102
RTVSPost2010PropOp47
 70
     1
102
RTVSPost2010Prop48
 90
       50
102
RTVSPost2010PropOp48
 70
     1
102
RTVSPost2010Prop49
280
     0
102
RTVSPost2010PropOp49
 70
     1
102
RTVSPost2010Prop50
 90
       50
102
RTVSPost2010PropOp50
 70
     1
102
RTVSPost2010Prop51ColorIndex
 90
      256
102
RTVSPost2010Prop51ColorRGB
 90
-16777216
102
RTVSPost2010PropOp51
 70
     0
102
RTVSPost2010Prop52
140
1.0
102
RTVSPost2010PropOp52
 70
     0
102
RTVSPost2010Prop53
 90
        2
102
RTVSPost2010PropOp53
 70
     1
102
RTVSPost2010Prop54
  1
strokes_ogs.tif
102
RTVSPost2010PropOp54
 70
     1
102
RTVSPost2010Prop55
280
     0
102
RTVSPost2010PropOp55
 70
     1
102
RTVSPost2010Prop56
140
1.0
102
RTVSPost2010PropOp56
 70
     1
102
RTVSPost2010Prop57
140
1.0
102
RTVSPost2010PropOp57
 70
     1
102
RTVSPropertyOp0
 70
     1
102
RTVSPropertyOp1
 70
     1
102
RTVSPropertyOp2
 70
     1
102
RTVSPropertyOp3
 70
     1
102
RTVSPropertyOp4
 70
     1
102
RTVSPropertyOp5
 70
     1
102
RTVSPropertyOp6
 70
     1
102
RTVSPropertyOp7
 70
     1
102
RTVSPropertyOp8
 70
     1
102
RTVSPropertyOp9
 70
     1
102
RTVSPropertyOp10
 70
     1
102
RTVSPropertyOp11
 70
     1
102
RTVSPropertyOp12
 70
     1
102
RTVSPropertyOp13
 70
     1
102
RTVSPropertyOp14
 70
     1
102
RTVSPropertyOp15
 70
     1
102
RTVSPropertyOp16
 70
     1
102
RTVSPropertyOp17
 70
     1
102
RTVSPropertyOp18
 70
     1
102
RTVSPropertyOp19
 70
     1
102
RTVSPropertyOp20
 70
     1
102
RTVSPropertyOp21
 70
     1
102
RTVSPropertyOp22
 70
     1
102
RTVSPropertyOp23
 70
     1
102
RTVSPropertyOp24
 70
     1
102
RTVSPropertyOp25
 70
     1
102
RTVSPropertyOp26
 70
     1
102
RTVSPropertyOp27
 70
     1
102
RTVSPropertyOp28
 70
     1
102
RTVSPropertyOp29
 70
     1
102
RTVSPropertyOp30
 70
     1
102
RTVSPropertyOp31
 70
     1
102
RTVSPropertyOp32
 70
     1
102
RTVSPropertyOp33
 70
     1
102
RTVSPropertyOp34
 70
     1
102
RTVSPropertyOp35
 70
     1
102
RTVSPropertyOp36
 70
     1
102
RTVSPropertyOp37
 70
     1
102
RTVSPropertyOp38
 70
     1
102
RTVSPropertyOp39
 70
     1
102
RTVSPropertyOp40
 70
     1
102
RTVSPropertyOp41
 70
     1
102
RTVSPropertyOp42
 70
     1
102
RTVSPropertyOp43
 70
     1
102
RTVSPropertyOp44
 70
     1
102
RTVSPropertyOp45
 70
     1
102
RTVSPropertyOp46
 70
     1
102
RTVSPropertyOp47
 70
     1
102
RTVSPropertyOp48
 70
     1
102
RTVSPropertyOp49
 70
     1
102
RTVSPropertyOp50
 70
     1
102
RTVSPropertyOp51
 70
     0
102
RTVSPropertyOp52
 70
     0
102
RTVSPropertyOp53
 70
     1
102
RTVSPropertyOp54
 70
     1
102
RTVSPropertyOp55
 70
     1
102
RTVSPropertyOp56
 70
     1
102
RTVSPropertyOp57
 70
     1
102
RTVSPropertyOp58
 70
     1
102
RTVSPropertyOp59
 70
     1
102
RTVSPropertyOp60
 70
     1
102
RTVSPropertyOp61
 70
     1
102
RTVSPropertyOp62
 70
     1
  0
XRECORD
  5
401A
102
{ACAD_REACTORS
330
4019
102
}
330
4019
100
AcDbXrecord
280
     1
102
RTVSPost2010Prop28
280
     0
102
RTVSPost2010PropOp28
 70
     1
102
RTVSPost2010Prop29
280
     1
102
RTVSPost2010PropOp29
 70
     1
102
RTVSPost2010Prop30
280
     1
102
RTVSPost2010PropOp30
 70
     1
102
RTVSPost2010Prop31
280
     0
102
RTVSPost2010PropOp31
 70
     1
102
RTVSPost2010Prop32
280
     0
102
RTVSPost2010PropOp32
 70
     1
102
RTVSPost2010Prop33
280
     0
102
RTVSPost2010PropOp33
 70
     1
102
RTVSPost2010Prop34
280
     0
102
RTVSPost2010PropOp34
 70
     1
102
RTVSPost2010Prop35
280
     0
102
RTVSPost2010PropOp35
 70
     1
102
RTVSPost2010Prop36
280
     0
102
RTVSPost2010PropOp36
 70
     1
102
RTVSPost2010Prop37
 90
       50
102
RTVSPost2010PropOp37
 70
     1
102
RTVSPost2010Prop38
140
0.0
102
RTVSPost2010PropOp38
 70
     1
102
RTVSPost2010Prop39
140
1.0
102
RTVSPost2010PropOp39
 70
     1
102
RTVSPost2010Prop40
 90
        0
102
RTVSPost2010PropOp40
 70
     1
102
RTVSPost2010Prop41ColorIndex
 90
       18
102
RTVSPost2010Prop41ColorRGB
 90
        0
102
RTVSPost2010PropOp41
 70
     1
102
RTVSPost2010Prop42
 90
       50
102
RTVSPost2010PropOp42
 70
     1
102
RTVSPost2010Prop43
 90
        3
102
RTVSPost2010PropOp43
 70
     1
102
RTVSPost2010Prop44ColorIndex
 90
        5
102
RTVSPost2010Prop44ColorRGB
 90
      255
102
RTVSPost2010PropOp44
 70
     1
102
RTVSPost2010Prop45
280
     0
102
RTVSPost2010PropOp45
 70
     1
102
RTVSPost2010Prop46
 90
       50
102
RTVSPost2010PropOp46
 70
     1
102
RTVSPost2010Prop47
 90
       50
102
RTVSPost2010PropOp47
 70
     1
102
RTVSPost2010Prop48
 90
       50
102
RTVSPost2010PropOp48
 70
     1
102
RTVSPost2010Prop49
280
     0
102
RTVSPost2010PropOp49
 70
     1
102
RTVSPost2010Prop50
 90
       50
102
RTVSPost2010PropOp50
 70
     1
102
RTVSPost2010Prop51ColorIndex
 90
      256
102
RTVSPost2010Prop51ColorRGB
 90
-16777216
102
RTVSPost2010PropOp51
 70
     0
102
RTVSPost2010Prop52
140
1.0
102
RTVSPost2010PropOp52
 70
     0
102
RTVSPost2010Prop53
 90
        2
102
RTVSPost2010PropOp53
 70
     1
102
RTVSPost2010Prop54
  1
strokes_ogs.tif
102
RTVSPost2010PropOp54
 70
     1
102
RTVSPost2010Prop55
280
     0
102
RTVSPost2010PropOp55
 70
     1
102
RTVSPost2010Prop56
140
1.0
102
RTVSPost2010PropOp56
 70
     1
102
RTVSPost2010Prop57
140
1.0
102
RTVSPost2010PropOp57
 70
     1
102
RTVSPropertyOp0
 70
     1
102
RTVSPropertyOp1
 70
     1
102
RTVSPropertyOp2
 70
     1
102
RTVSPropertyOp3
 70
     1
102
RTVSPropertyOp4
 70
     1
102
RTVSPropertyOp5
 70
     1
102
RTVSPropertyOp6
 70
     1
102
RTVSPropertyOp7
 70
     1
102
RTVSPropertyOp8
 70
     1
102
RTVSPropertyOp9
 70
     1
102
RTVSPropertyOp10
 70
     1
102
RTVSPropertyOp11
 70
     1
102
RTVSPropertyOp12
 70
     1
102
RTVSPropertyOp13
 70
     1
102
RTVSPropertyOp14
 70
     1
102
RTVSPropertyOp15
 70
     1
102
RTVSPropertyOp16
 70
     1
102
RTVSPropertyOp17
 70
     1
102
RTVSPropertyOp18
 70
     1
102
RTVSPropertyOp19
 70
     1
102
RTVSPropertyOp20
 70
     1
102
RTVSPropertyOp21
 70
     1
102
RTVSPropertyOp22
 70
     1
102
RTVSPropertyOp23
 70
     1
102
RTVSPropertyOp24
 70
     1
102
RTVSPropertyOp25
 70
     1
102
RTVSPropertyOp26
 70
     1
102
RTVSPropertyOp27
 70
     1
102
RTVSPropertyOp28
 70
     1
102
RTVSPropertyOp29
 70
     1
102
RTVSPropertyOp30
 70
     1
102
RTVSPropertyOp31
 70
     1
102
RTVSPropertyOp32
 70
     1
102
RTVSPropertyOp33
 70
     1
102
RTVSPropertyOp34
 70
     1
102
RTVSPropertyOp35
 70
     1
102
RTVSPropertyOp36
 70
     1
102
RTVSPropertyOp37
 70
     1
102
RTVSPropertyOp38
 70
     1
102
RTVSPropertyOp39
 70
     1
102
RTVSPropertyOp40
 70
     1
102
RTVSPropertyOp41
 70
     1
102
RTVSPropertyOp42
 70
     1
102
RTVSPropertyOp43
 70
     1
102
RTVSPropertyOp44
 70
     1
102
RTVSPropertyOp45
 70
     1
102
RTVSPropertyOp46
 70
     1
102
RTVSPropertyOp47
 70
     1
102
RTVSPropertyOp48
 70
     1
102
RTVSPropertyOp49
 70
     1
102
RTVSPropertyOp50
 70
     1
102
RTVSPropertyOp51
 70
     0
102
RTVSPropertyOp52
 70
     0
102
RTVSPropertyOp53
 70
     1
102
RTVSPropertyOp54
 70
     1
102
RTVSPropertyOp55
 70
     1
102
RTVSPropertyOp56
 70
     1
102
RTVSPropertyOp57
 70
     1
102
RTVSPropertyOp58
 70
     1
102
RTVSPropertyOp59
 70
     1
102
RTVSPropertyOp60
 70
     1
102
RTVSPropertyOp61
 70
     1
102
RTVSPropertyOp62
 70
     1
  0
XRECORD
  5
401C
102
{ACAD_REACTORS
330
401B
102
}
330
401B
100
AcDbXrecord
280
     1
102
RTVSPost2010Prop28
280
     0
102
RTVSPost2010PropOp28
 70
     1
102
RTVSPost2010Prop29
280
     1
102
RTVSPost2010PropOp29
 70
     1
102
RTVSPost2010Prop30
280
     1
102
RTVSPost2010PropOp30
 70
     1
102
RTVSPost2010Prop31
280
     0
102
RTVSPost2010PropOp31
 70
     1
102
RTVSPost2010Prop32
280
     0
102
RTVSPost2010PropOp32
 70
     1
102
RTVSPost2010Prop33
280
     0
102
RTVSPost2010PropOp33
 70
     1
102
RTVSPost2010Prop34
280
     0
102
RTVSPost2010PropOp34
 70
     1
102
RTVSPost2010Prop35
280
     0
102
RTVSPost2010PropOp35
 70
     1
102
RTVSPost2010Prop36
280
     0
102
RTVSPost2010PropOp36
 70
     1
102
RTVSPost2010Prop37
 90
       50
102
RTVSPost2010PropOp37
 70
     1
102
RTVSPost2010Prop38
140
0.0
102
RTVSPost2010PropOp38
 70
     1
102
RTVSPost2010Prop39
140
1.0
102
RTVSPost2010PropOp39
 70
     1
102
RTVSPost2010Prop40
 90
        0
102
RTVSPost2010PropOp40
 70
     1
102
RTVSPost2010Prop41ColorIndex
 90
       18
102
RTVSPost2010Prop41ColorRGB
 90
        0
102
RTVSPost2010PropOp41
 70
     1
102
RTVSPost2010Prop42
 90
       50
102
RTVSPost2010PropOp42
 70
     1
102
RTVSPost2010Prop43
 90
        3
102
RTVSPost2010PropOp43
 70
     1
102
RTVSPost2010Prop44ColorIndex
 90
        5
102
RTVSPost2010Prop44ColorRGB
 90
      255
102
RTVSPost2010PropOp44
 70
     1
102
RTVSPost2010Prop45
280
     0
102
RTVSPost2010PropOp45
 70
     1
102
RTVSPost2010Prop46
 90
       50
102
RTVSPost2010PropOp46
 70
     1
102
RTVSPost2010Prop47
 90
       50
102
RTVSPost2010PropOp47
 70
     1
102
RTVSPost2010Prop48
 90
       50
102
RTVSPost2010PropOp48
 70
     1
102
RTVSPost2010Prop49
280
     0
102
RTVSPost2010PropOp49
 70
     1
102
RTVSPost2010Prop50
 90
       50
102
RTVSPost2010PropOp50
 70
     1
102
RTVSPost2010Prop51ColorIndex
 90
      256
102
RTVSPost2010Prop51ColorRGB
 90
-16777216
102
RTVSPost2010PropOp51
 70
     0
102
RTVSPost2010Prop52
140
1.0
102
RTVSPost2010PropOp52
 70
     0
102
RTVSPost2010Prop53
 90
        2
102
RTVSPost2010PropOp53
 70
     1
102
RTVSPost2010Prop54
  1
strokes_ogs.tif
102
RTVSPost2010PropOp54
 70
     1
102
RTVSPost2010Prop55
280
     0
102
RTVSPost2010PropOp55
 70
     1
102
RTVSPost2010Prop56
140
1.0
102
RTVSPost2010PropOp56
 70
     1
102
RTVSPost2010Prop57
140
1.0
102
RTVSPost2010PropOp57
 70
     1
102
RTVSPropertyOp0
 70
     1
102
RTVSPropertyOp1
 70
     1
102
RTVSPropertyOp2
 70
     1
102
RTVSPropertyOp3
 70
     1
102
RTVSPropertyOp4
 70
     1
102
RTVSPropertyOp5
 70
     1
102
RTVSPropertyOp6
 70
     1
102
RTVSPropertyOp7
 70
     1
102
RTVSPropertyOp8
 70
     1
102
RTVSPropertyOp9
 70
     1
102
RTVSPropertyOp10
 70
     1
102
RTVSPropertyOp11
 70
     1
102
RTVSPropertyOp12
 70
     1
102
RTVSPropertyOp13
 70
     1
102
RTVSPropertyOp14
 70
     1
102
RTVSPropertyOp15
 70
     1
102
RTVSPropertyOp16
 70
     1
102
RTVSPropertyOp17
 70
     1
102
RTVSPropertyOp18
 70
     1
102
RTVSPropertyOp19
 70
     1
102
RTVSPropertyOp20
 70
     1
102
RTVSPropertyOp21
 70
     1
102
RTVSPropertyOp22
 70
     1
102
RTVSPropertyOp23
 70
     1
102
RTVSPropertyOp24
 70
     1
102
RTVSPropertyOp25
 70
     1
102
RTVSPropertyOp26
 70
     1
102
RTVSPropertyOp27
 70
     1
102
RTVSPropertyOp28
 70
     1
102
RTVSPropertyOp29
 70
     1
102
RTVSPropertyOp30
 70
     1
102
RTVSPropertyOp31
 70
     1
102
RTVSPropertyOp32
 70
     1
102
RTVSPropertyOp33
 70
     1
102
RTVSPropertyOp34
 70
     1
102
RTVSPropertyOp35
 70
     1
102
RTVSPropertyOp36
 70
     1
102
RTVSPropertyOp37
 70
     1
102
RTVSPropertyOp38
 70
     1
102
RTVSPropertyOp39
 70
     1
102
RTVSPropertyOp40
 70
     1
102
RTVSPropertyOp41
 70
     1
102
RTVSPropertyOp42
 70
     1
102
RTVSPropertyOp43
 70
     1
102
RTVSPropertyOp44
 70
     1
102
RTVSPropertyOp45
 70
     1
102
RTVSPropertyOp46
 70
     1
102
RTVSPropertyOp47
 70
     1
102
RTVSPropertyOp48
 70
     1
102
RTVSPropertyOp49
 70
     1
102
RTVSPropertyOp50
 70
     1
102
RTVSPropertyOp51
 70
     0
102
RTVSPropertyOp52
 70
     0
102
RTVSPropertyOp53
 70
     1
102
RTVSPropertyOp54
 70
     1
102
RTVSPropertyOp55
 70
     1
102
RTVSPropertyOp56
 70
     1
102
RTVSPropertyOp57
 70
     1
102
RTVSPropertyOp58
 70
     1
102
RTVSPropertyOp59
 70
     1
102
RTVSPropertyOp60
 70
     1
102
RTVSPropertyOp61
 70
     1
102
RTVSPropertyOp62
 70
     1
  0
XRECORD
  5
401E
102
{ACAD_REACTORS
330
401D
102
}
330
401D
100
AcDbXrecord
280
     1
102
RTVSPost2010Prop28
280
     0
102
RTVSPost2010PropOp28
 70
     1
102
RTVSPost2010Prop29
280
     1
102
RTVSPost2010PropOp29
 70
     1
102
RTVSPost2010Prop30
280
     1
102
RTVSPost2010PropOp30
 70
     1
102
RTVSPost2010Prop31
280
     0
102
RTVSPost2010PropOp31
 70
     1
102
RTVSPost2010Prop32
280
     0
102
RTVSPost2010PropOp32
 70
     1
102
RTVSPost2010Prop33
280
     0
102
RTVSPost2010PropOp33
 70
     1
102
RTVSPost2010Prop34
280
     0
102
RTVSPost2010PropOp34
 70
     1
102
RTVSPost2010Prop35
280
     0
102
RTVSPost2010PropOp35
 70
     1
102
RTVSPost2010Prop36
280
     0
102
RTVSPost2010PropOp36
 70
     1
102
RTVSPost2010Prop37
 90
       50
102
RTVSPost2010PropOp37
 70
     1
102
RTVSPost2010Prop38
140
0.0
102
RTVSPost2010PropOp38
 70
     1
102
RTVSPost2010Prop39
140
1.0
102
RTVSPost2010PropOp39
 70
     1
102
RTVSPost2010Prop40
 90
        0
102
RTVSPost2010PropOp40
 70
     1
102
RTVSPost2010Prop41ColorIndex
 90
       18
102
RTVSPost2010Prop41ColorRGB
 90
        0
102
RTVSPost2010PropOp41
 70
     1
102
RTVSPost2010Prop42
 90
       50
102
RTVSPost2010PropOp42
 70
     1
102
RTVSPost2010Prop43
 90
        3
102
RTVSPost2010PropOp43
 70
     1
102
RTVSPost2010Prop44ColorIndex
 90
        5
102
RTVSPost2010Prop44ColorRGB
 90
      255
102
RTVSPost2010PropOp44
 70
     1
102
RTVSPost2010Prop45
280
     0
102
RTVSPost2010PropOp45
 70
     1
102
RTVSPost2010Prop46
 90
       50
102
RTVSPost2010PropOp46
 70
     1
102
RTVSPost2010Prop47
 90
       50
102
RTVSPost2010PropOp47
 70
     1
102
RTVSPost2010Prop48
 90
       50
102
RTVSPost2010PropOp48
 70
     1
102
RTVSPost2010Prop49
280
     0
102
RTVSPost2010PropOp49
 70
     1
102
RTVSPost2010Prop50
 90
       50
102
RTVSPost2010PropOp50
 70
     1
102
RTVSPost2010Prop51ColorIndex
 90
      256
102
RTVSPost2010Prop51ColorRGB
 90
-16777216
102
RTVSPost2010PropOp51
 70
     0
102
RTVSPost2010Prop52
140
1.0
102
RTVSPost2010PropOp52
 70
     0
102
RTVSPost2010Prop53
 90
        2
102
RTVSPost2010PropOp53
 70
     1
102
RTVSPost2010Prop54
  1
strokes_ogs.tif
102
RTVSPost2010PropOp54
 70
     1
102
RTVSPost2010Prop55
280
     0
102
RTVSPost2010PropOp55
 70
     1
102
RTVSPost2010Prop56
140
1.0
102
RTVSPost2010PropOp56
 70
     1
102
RTVSPost2010Prop57
140
1.0
102
RTVSPost2010PropOp57
 70
     1
102
RTVSPropertyOp0
 70
     1
102
RTVSPropertyOp1
 70
     1
102
RTVSPropertyOp2
 70
     1
102
RTVSPropertyOp3
 70
     1
102
RTVSPropertyOp4
 70
     1
102
RTVSPropertyOp5
 70
     1
102
RTVSPropertyOp6
 70
     1
102
RTVSPropertyOp7
 70
     1
102
RTVSPropertyOp8
 70
     1
102
RTVSPropertyOp9
 70
     1
102
RTVSPropertyOp10
 70
     1
102
RTVSPropertyOp11
 70
     1
102
RTVSPropertyOp12
 70
     1
102
RTVSPropertyOp13
 70
     1
102
RTVSPropertyOp14
 70
     1
102
RTVSPropertyOp15
 70
     1
102
RTVSPropertyOp16
 70
     1
102
RTVSPropertyOp17
 70
     1
102
RTVSPropertyOp18
 70
     1
102
RTVSPropertyOp19
 70
     1
102
RTVSPropertyOp20
 70
     1
102
RTVSPropertyOp21
 70
     1
102
RTVSPropertyOp22
 70
     1
102
RTVSPropertyOp23
 70
     1
102
RTVSPropertyOp24
 70
     1
102
RTVSPropertyOp25
 70
     1
102
RTVSPropertyOp26
 70
     1
102
RTVSPropertyOp27
 70
     1
102
RTVSPropertyOp28
 70
     1
102
RTVSPropertyOp29
 70
     1
102
RTVSPropertyOp30
 70
     1
102
RTVSPropertyOp31
 70
     1
102
RTVSPropertyOp32
 70
     1
102
RTVSPropertyOp33
 70
     1
102
RTVSPropertyOp34
 70
     1
102
RTVSPropertyOp35
 70
     1
102
RTVSPropertyOp36
 70
     1
102
RTVSPropertyOp37
 70
     1
102
RTVSPropertyOp38
 70
     1
102
RTVSPropertyOp39
 70
     1
102
RTVSPropertyOp40
 70
     1
102
RTVSPropertyOp41
 70
     1
102
RTVSPropertyOp42
 70
     1
102
RTVSPropertyOp43
 70
     1
102
RTVSPropertyOp44
 70
     1
102
RTVSPropertyOp45
 70
     1
102
RTVSPropertyOp46
 70
     1
102
RTVSPropertyOp47
 70
     1
102
RTVSPropertyOp48
 70
     1
102
RTVSPropertyOp49
 70
     1
102
RTVSPropertyOp50
 70
     1
102
RTVSPropertyOp51
 70
     0
102
RTVSPropertyOp52
 70
     0
102
RTVSPropertyOp53
 70
     1
102
RTVSPropertyOp54
 70
     1
102
RTVSPropertyOp55
 70
     1
102
RTVSPropertyOp56
 70
     1
102
RTVSPropertyOp57
 70
     1
102
RTVSPropertyOp58
 70
     1
102
RTVSPropertyOp59
 70
     1
102
RTVSPropertyOp60
 70
     1
102
RTVSPropertyOp61
 70
     1
102
RTVSPropertyOp62
 70
     1
  0
XRECORD
  5
4020
102
{ACAD_REACTORS
330
401F
102
}
330
401F
100
AcDbXrecord
280
     1
102
RTVSPost2010Prop28
280
     0
102
RTVSPost2010PropOp28
 70
     1
102
RTVSPost2010Prop29
280
     1
102
RTVSPost2010PropOp29
 70
     1
102
RTVSPost2010Prop30
280
     1
102
RTVSPost2010PropOp30
 70
     1
102
RTVSPost2010Prop31
280
     0
102
RTVSPost2010PropOp31
 70
     1
102
RTVSPost2010Prop32
280
     0
102
RTVSPost2010PropOp32
 70
     1
102
RTVSPost2010Prop33
280
     0
102
RTVSPost2010PropOp33
 70
     1
102
RTVSPost2010Prop34
280
     0
102
RTVSPost2010PropOp34
 70
     1
102
RTVSPost2010Prop35
280
     0
102
RTVSPost2010PropOp35
 70
     1
102
RTVSPost2010Prop36
280
     0
102
RTVSPost2010PropOp36
 70
     1
102
RTVSPost2010Prop37
 90
       50
102
RTVSPost2010PropOp37
 70
     1
102
RTVSPost2010Prop38
140
0.0
102
RTVSPost2010PropOp38
 70
     1
102
RTVSPost2010Prop39
140
1.0
102
RTVSPost2010PropOp39
 70
     1
102
RTVSPost2010Prop40
 90
        0
102
RTVSPost2010PropOp40
 70
     1
102
RTVSPost2010Prop41ColorIndex
 90
       18
102
RTVSPost2010Prop41ColorRGB
 90
        0
102
RTVSPost2010PropOp41
 70
     1
102
RTVSPost2010Prop42
 90
       50
102
RTVSPost2010PropOp42
 70
     1
102
RTVSPost2010Prop43
 90
        3
102
RTVSPost2010PropOp43
 70
     1
102
RTVSPost2010Prop44ColorIndex
 90
        5
102
RTVSPost2010Prop44ColorRGB
 90
      255
102
RTVSPost2010PropOp44
 70
     1
102
RTVSPost2010Prop45
280
     0
102
RTVSPost2010PropOp45
 70
     1
102
RTVSPost2010Prop46
 90
       50
102
RTVSPost2010PropOp46
 70
     1
102
RTVSPost2010Prop47
 90
       50
102
RTVSPost2010PropOp47
 70
     1
102
RTVSPost2010Prop48
 90
       50
102
RTVSPost2010PropOp48
 70
     1
102
RTVSPost2010Prop49
280
     0
102
RTVSPost2010PropOp49
 70
     1
102
RTVSPost2010Prop50
 90
       50
102
RTVSPost2010PropOp50
 70
     1
102
RTVSPost2010Prop51ColorIndex
 90
      256
102
RTVSPost2010Prop51ColorRGB
 90
-16777216
102
RTVSPost2010PropOp51
 70
     0
102
RTVSPost2010Prop52
140
1.0
102
RTVSPost2010PropOp52
 70
     0
102
RTVSPost2010Prop53
 90
        2
102
RTVSPost2010PropOp53
 70
     1
102
RTVSPost2010Prop54
  1
strokes_ogs.tif
102
RTVSPost2010PropOp54
 70
     1
102
RTVSPost2010Prop55
280
     0
102
RTVSPost2010PropOp55
 70
     1
102
RTVSPost2010Prop56
140
1.0
102
RTVSPost2010PropOp56
 70
     1
102
RTVSPost2010Prop57
140
1.0
102
RTVSPost2010PropOp57
 70
     1
102
RTVSPropertyOp0
 70
     1
102
RTVSPropertyOp1
 70
     1
102
RTVSPropertyOp2
 70
     1
102
RTVSPropertyOp3
 70
     1
102
RTVSPropertyOp4
 70
     1
102
RTVSPropertyOp5
 70
     1
102
RTVSPropertyOp6
 70
     1
102
RTVSPropertyOp7
 70
     1
102
RTVSPropertyOp8
 70
     1
102
RTVSPropertyOp9
 70
     1
102
RTVSPropertyOp10
 70
     1
102
RTVSPropertyOp11
 70
     1
102
RTVSPropertyOp12
 70
     1
102
RTVSPropertyOp13
 70
     1
102
RTVSPropertyOp14
 70
     1
102
RTVSPropertyOp15
 70
     1
102
RTVSPropertyOp16
 70
     1
102
RTVSPropertyOp17
 70
     1
102
RTVSPropertyOp18
 70
     1
102
RTVSPropertyOp19
 70
     1
102
RTVSPropertyOp20
 70
     1
102
RTVSPropertyOp21
 70
     1
102
RTVSPropertyOp22
 70
     1
102
RTVSPropertyOp23
 70
     1
102
RTVSPropertyOp24
 70
     1
102
RTVSPropertyOp25
 70
     1
102
RTVSPropertyOp26
 70
     1
102
RTVSPropertyOp27
 70
     1
102
RTVSPropertyOp28
 70
     1
102
RTVSPropertyOp29
 70
     1
102
RTVSPropertyOp30
 70
     1
102
RTVSPropertyOp31
 70
     1
102
RTVSPropertyOp32
 70
     1
102
RTVSPropertyOp33
 70
     1
102
RTVSPropertyOp34
 70
     1
102
RTVSPropertyOp35
 70
     1
102
RTVSPropertyOp36
 70
     1
102
RTVSPropertyOp37
 70
     1
102
RTVSPropertyOp38
 70
     1
102
RTVSPropertyOp39
 70
     1
102
RTVSPropertyOp40
 70
     1
102
RTVSPropertyOp41
 70
     1
102
RTVSPropertyOp42
 70
     1
102
RTVSPropertyOp43
 70
     1
102
RTVSPropertyOp44
 70
     1
102
RTVSPropertyOp45
 70
     1
102
RTVSPropertyOp46
 70
     1
102
RTVSPropertyOp47
 70
     1
102
RTVSPropertyOp48
 70
     1
102
RTVSPropertyOp49
 70
     1
102
RTVSPropertyOp50
 70
     1
102
RTVSPropertyOp51
 70
     0
102
RTVSPropertyOp52
 70
     0
102
RTVSPropertyOp53
 70
     1
102
RTVSPropertyOp54
 70
     1
102
RTVSPropertyOp55
 70
     1
102
RTVSPropertyOp56
 70
     1
102
RTVSPropertyOp57
 70
     1
102
RTVSPropertyOp58
 70
     1
102
RTVSPropertyOp59
 70
     1
102
RTVSPropertyOp60
 70
     1
102
RTVSPropertyOp61
 70
     1
102
RTVSPropertyOp62
 70
     1
  0
XRECORD
  5
4028
102
{ACAD_REACTORS
330
4027
102
}
330
4027
100
AcDbXrecord
280
     1
102
RTVSPost2010Prop28
280
     0
102
RTVSPost2010PropOp28
 70
     1
102
RTVSPost2010Prop29
280
     1
102
RTVSPost2010PropOp29
 70
     1
102
RTVSPost2010Prop30
280
     1
102
RTVSPost2010PropOp30
 70
     1
102
RTVSPost2010Prop31
280
     0
102
RTVSPost2010PropOp31
 70
     1
102
RTVSPost2010Prop32
280
     0
102
RTVSPost2010PropOp32
 70
     1
102
RTVSPost2010Prop33
280
     0
102
RTVSPost2010PropOp33
 70
     1
102
RTVSPost2010Prop34
280
     0
102
RTVSPost2010PropOp34
 70
     1
102
RTVSPost2010Prop35
280
     0
102
RTVSPost2010PropOp35
 70
     1
102
RTVSPost2010Prop36
280
     0
102
RTVSPost2010PropOp36
 70
     1
102
RTVSPost2010Prop37
 90
       50
102
RTVSPost2010PropOp37
 70
     1
102
RTVSPost2010Prop38
140
0.0
102
RTVSPost2010PropOp38
 70
     1
102
RTVSPost2010Prop39
140
1.0
102
RTVSPost2010PropOp39
 70
     1
102
RTVSPost2010Prop40
 90
        0
102
RTVSPost2010PropOp40
 70
     1
102
RTVSPost2010Prop41ColorIndex
 90
       18
102
RTVSPost2010Prop41ColorRGB
 90
        0
102
RTVSPost2010PropOp41
 70
     1
102
RTVSPost2010Prop42
 90
       50
102
RTVSPost2010PropOp42
 70
     1
102
RTVSPost2010Prop43
 90
        3
102
RTVSPost2010PropOp43
 70
     1
102
RTVSPost2010Prop44ColorIndex
 90
        5
102
RTVSPost2010Prop44ColorRGB
 90
      255
102
RTVSPost2010PropOp44
 70
     1
102
RTVSPost2010Prop45
280
     0
102
RTVSPost2010PropOp45
 70
     1
102
RTVSPost2010Prop46
 90
       50
102
RTVSPost2010PropOp46
 70
     1
102
RTVSPost2010Prop47
 90
       50
102
RTVSPost2010PropOp47
 70
     1
102
RTVSPost2010Prop48
 90
       50
102
RTVSPost2010PropOp48
 70
     1
102
RTVSPost2010Prop49
280
     0
102
RTVSPost2010PropOp49
 70
     1
102
RTVSPost2010Prop50
 90
       50
102
RTVSPost2010PropOp50
 70
     1
102
RTVSPost2010Prop51ColorIndex
 90
      256
102
RTVSPost2010Prop51ColorRGB
 90
-16777216
102
RTVSPost2010PropOp51
 70
     0
102
RTVSPost2010Prop52
140
1.0
102
RTVSPost2010PropOp52
 70
     0
102
RTVSPost2010Prop53
 90
        2
102
RTVSPost2010PropOp53
 70
     1
102
RTVSPost2010Prop54
  1
strokes_ogs.tif
102
RTVSPost2010PropOp54
 70
     1
102
RTVSPost2010Prop55
280
     0
102
RTVSPost2010PropOp55
 70
     1
102
RTVSPost2010Prop56
140
1.0
102
RTVSPost2010PropOp56
 70
     1
102
RTVSPost2010Prop57
140
1.0
102
RTVSPost2010PropOp57
 70
     1
102
RTVSPropertyOp0
 70
     1
102
RTVSPropertyOp1
 70
     1
102
RTVSPropertyOp2
 70
     1
102
RTVSPropertyOp3
 70
     1
102
RTVSPropertyOp4
 70
     1
102
RTVSPropertyOp5
 70
     1
102
RTVSPropertyOp6
 70
     1
102
RTVSPropertyOp7
 70
     1
102
RTVSPropertyOp8
 70
     1
102
RTVSPropertyOp9
 70
     1
102
RTVSPropertyOp10
 70
     1
102
RTVSPropertyOp11
 70
     1
102
RTVSPropertyOp12
 70
     1
102
RTVSPropertyOp13
 70
     1
102
RTVSPropertyOp14
 70
     1
102
RTVSPropertyOp15
 70
     1
102
RTVSPropertyOp16
 70
     1
102
RTVSPropertyOp17
 70
     1
102
RTVSPropertyOp18
 70
     1
102
RTVSPropertyOp19
 70
     1
102
RTVSPropertyOp20
 70
     1
102
RTVSPropertyOp21
 70
     1
102
RTVSPropertyOp22
 70
     1
102
RTVSPropertyOp23
 70
     1
102
RTVSPropertyOp24
 70
     1
102
RTVSPropertyOp25
 70
     1
102
RTVSPropertyOp26
 70
     1
102
RTVSPropertyOp27
 70
     1
102
RTVSPropertyOp28
 70
     1
102
RTVSPropertyOp29
 70
     1
102
RTVSPropertyOp30
 70
     1
102
RTVSPropertyOp31
 70
     1
102
RTVSPropertyOp32
 70
     1
102
RTVSPropertyOp33
 70
     1
102
RTVSPropertyOp34
 70
     1
102
RTVSPropertyOp35
 70
     1
102
RTVSPropertyOp36
 70
     1
102
RTVSPropertyOp37
 70
     1
102
RTVSPropertyOp38
 70
     1
102
RTVSPropertyOp39
 70
     1
102
RTVSPropertyOp40
 70
     1
102
RTVSPropertyOp41
 70
     1
102
RTVSPropertyOp42
 70
     1
102
RTVSPropertyOp43
 70
     1
102
RTVSPropertyOp44
 70
     1
102
RTVSPropertyOp45
 70
     1
102
RTVSPropertyOp46
 70
     1
102
RTVSPropertyOp47
 70
     1
102
RTVSPropertyOp48
 70
     1
102
RTVSPropertyOp49
 70
     1
102
RTVSPropertyOp50
 70
     1
102
RTVSPropertyOp51
 70
     0
102
RTVSPropertyOp52
 70
     0
102
RTVSPropertyOp53
 70
     1
102
RTVSPropertyOp54
 70
     1
102
RTVSPropertyOp55
 70
     1
102
RTVSPropertyOp56
 70
     1
102
RTVSPropertyOp57
 70
     1
102
RTVSPropertyOp58
 70
     1
102
RTVSPropertyOp59
 70
     1
102
RTVSPropertyOp60
 70
     1
102
RTVSPropertyOp61
 70
     1
102
RTVSPropertyOp62
 70
     1
  0
XRECORD
  5
4044
102
{ACAD_REACTORS
330
4043
102
}
330
4043
100
AcDbXrecord
280
     1
102
RTVSPost2010Prop28
280
     0
102
RTVSPost2010PropOp28
 70
     1
102
RTVSPost2010Prop29
280
     1
102
RTVSPost2010PropOp29
 70
     1
102
RTVSPost2010Prop30
280
     1
102
RTVSPost2010PropOp30
 70
     1
102
RTVSPost2010Prop31
280
     0
102
RTVSPost2010PropOp31
 70
     1
102
RTVSPost2010Prop32
280
     0
102
RTVSPost2010PropOp32
 70
     1
102
RTVSPost2010Prop33
280
     0
102
RTVSPost2010PropOp33
 70
     1
102
RTVSPost2010Prop34
280
     0
102
RTVSPost2010PropOp34
 70
     1
102
RTVSPost2010Prop35
280
     0
102
RTVSPost2010PropOp35
 70
     1
102
RTVSPost2010Prop36
280
     0
102
RTVSPost2010PropOp36
 70
     1
102
RTVSPost2010Prop37
 90
       50
102
RTVSPost2010PropOp37
 70
     0
102
RTVSPost2010Prop38
140
0.0
102
RTVSPost2010PropOp38
 70
     0
102
RTVSPost2010Prop39
140
1.0
102
RTVSPost2010PropOp39
 70
     0
102
RTVSPost2010Prop40
 90
        0
102
RTVSPost2010PropOp40
 70
     0
102
RTVSPost2010Prop41ColorIndex
 90
       18
102
RTVSPost2010Prop41ColorRGB
 90
        0
102
RTVSPost2010PropOp41
 70
     0
102
RTVSPost2010Prop42
 90
       50
102
RTVSPost2010PropOp42
 70
     0
102
RTVSPost2010Prop43
 90
        3
102
RTVSPost2010PropOp43
 70
     0
102
RTVSPost2010Prop44ColorIndex
 90
        5
102
RTVSPost2010Prop44ColorRGB
 90
      255
102
RTVSPost2010PropOp44
 70
     0
102
RTVSPost2010Prop45
280
     0
102
RTVSPost2010PropOp45
 70
     1
102
RTVSPost2010Prop46
 90
       50
102
RTVSPost2010PropOp46
 70
     0
102
RTVSPost2010Prop47
 90
       50
102
RTVSPost2010PropOp47
 70
     0
102
RTVSPost2010Prop48
 90
       50
102
RTVSPost2010PropOp48
 70
     0
102
RTVSPost2010Prop49
280
     0
102
RTVSPost2010PropOp49
 70
     1
102
RTVSPost2010Prop50
 90
       50
102
RTVSPost2010PropOp50
 70
     0
102
RTVSPost2010Prop51ColorIndex
 90
      256
102
RTVSPost2010Prop51ColorRGB
 90
-16777216
102
RTVSPost2010PropOp51
 70
     0
102
RTVSPost2010Prop52
140
1.0
102
RTVSPost2010PropOp52
 70
     0
102
RTVSPost2010Prop53
 90
        2
102
RTVSPost2010PropOp53
 70
     0
102
RTVSPost2010Prop54
  1
strokes_ogs.tif
102
RTVSPost2010PropOp54
 70
     0
102
RTVSPost2010Prop55
280
     0
102
RTVSPost2010PropOp55
 70
     1
102
RTVSPost2010Prop56
140
1.0
102
RTVSPost2010PropOp56
 70
     0
102
RTVSPost2010Prop57
140
1.0
102
RTVSPost2010PropOp57
 70
     0
102
RTVSPropertyOp0
 70
     0
102
RTVSPropertyOp1
 70
     0
102
RTVSPropertyOp2
 70
     0
102
RTVSPropertyOp3
 70
     0
102
RTVSPropertyOp4
 70
     0
102
RTVSPropertyOp5
 70
     0
102
RTVSPropertyOp6
 70
     0
102
RTVSPropertyOp7
 70
     0
102
RTVSPropertyOp8
 70
     0
102
RTVSPropertyOp9
 70
     0
102
RTVSPropertyOp10
 70
     0
102
RTVSPropertyOp11
 70
     0
102
RTVSPropertyOp12
 70
     0
102
RTVSPropertyOp13
 70
     0
102
RTVSPropertyOp14
 70
     2
102
RTVSPropertyOp15
 70
     0
102
RTVSPropertyOp16
 70
     0
102
RTVSPropertyOp17
 70
     0
102
RTVSPropertyOp18
 70
     0
102
RTVSPropertyOp19
 70
     0
102
RTVSPropertyOp20
 70
     0
102
RTVSPropertyOp21
 70
     0
102
RTVSPropertyOp22
 70
     0
102
RTVSPropertyOp23
 70
     0
102
RTVSPropertyOp24
 70
     0
102
RTVSPropertyOp25
 70
     0
102
RTVSPropertyOp26
 70
     0
102
RTVSPropertyOp27
 70
     0
102
RTVSPropertyOp28
 70
     1
102
RTVSPropertyOp29
 70
     1
102
RTVSPropertyOp30
 70
     1
102
RTVSPropertyOp31
 70
     1
102
RTVSPropertyOp32
 70
     1
102
RTVSPropertyOp33
 70
     1
102
RTVSPropertyOp34
 70
     1
102
RTVSPropertyOp35
 70
     1
102
RTVSPropertyOp36
 70
     1
102
RTVSPropertyOp37
 70
     0
102
RTVSPropertyOp38
 70
     0
102
RTVSPropertyOp39
 70
     0
102
RTVSPropertyOp40
 70
     0
102
RTVSPropertyOp41
 70
     0
102
RTVSPropertyOp42
 70
     0
102
RTVSPropertyOp43
 70
     0
102
RTVSPropertyOp44
 70
     0
102
RTVSPropertyOp45
 70
     1
102
RTVSPropertyOp46
 70
     0
102
RTVSPropertyOp47
 70
     0
102
RTVSPropertyOp48
 70
     0
102
RTVSPropertyOp49
 70
     1
102
RTVSPropertyOp50
 70
     0
102
RTVSPropertyOp51
 70
     0
102
RTVSPropertyOp52
 70
     0
102
RTVSPropertyOp53
 70
     0
102
RTVSPropertyOp54
 70
     0
102
RTVSPropertyOp55
 70
     1
102
RTVSPropertyOp56
 70
     0
102
RTVSPropertyOp57
 70
     0
102
RTVSPropertyOp58
 70
     0
102
RTVSPropertyOp59
 70
     0
102
RTVSPropertyOp60
 70
     0
102
RTVSPropertyOp61
 70
     0
102
RTVSPropertyOp62
 70
     0
  0
XRECORD
  5
4034
102
{ACAD_REACTORS
330
4033
102
}
330
4033
100
AcDbXrecord
280
     1
102
RTVSPost2010Prop28
280
     0
102
RTVSPost2010PropOp28
 70
     1
102
RTVSPost2010Prop29
280
     1
102
RTVSPost2010PropOp29
 70
     1
102
RTVSPost2010Prop30
280
     1
102
RTVSPost2010PropOp30
 70
     1
102
RTVSPost2010Prop31
280
     0
102
RTVSPost2010PropOp31
 70
     1
102
RTVSPost2010Prop32
280
     0
102
RTVSPost2010PropOp32
 70
     1
102
RTVSPost2010Prop33
280
     0
102
RTVSPost2010PropOp33
 70
     1
102
RTVSPost2010Prop34
280
     0
102
RTVSPost2010PropOp34
 70
     1
102
RTVSPost2010Prop35
280
     0
102
RTVSPost2010PropOp35
 70
     1
102
RTVSPost2010Prop36
280
     0
102
RTVSPost2010PropOp36
 70
     1
102
RTVSPost2010Prop37
 90
       50
102
RTVSPost2010PropOp37
 70
     1
102
RTVSPost2010Prop38
140
0.0
102
RTVSPost2010PropOp38
 70
     1
102
RTVSPost2010Prop39
140
1.0
102
RTVSPost2010PropOp39
 70
     1
102
RTVSPost2010Prop40
 90
        0
102
RTVSPost2010PropOp40
 70
     1
102
RTVSPost2010Prop41ColorIndex
 90
       18
102
RTVSPost2010Prop41ColorRGB
 90
        0
102
RTVSPost2010PropOp41
 70
     1
102
RTVSPost2010Prop42
 90
       50
102
RTVSPost2010PropOp42
 70
     1
102
RTVSPost2010Prop43
 90
        3
102
RTVSPost2010PropOp43
 70
     1
102
RTVSPost2010Prop44ColorIndex
 90
        5
102
RTVSPost2010Prop44ColorRGB
 90
      255
102
RTVSPost2010PropOp44
 70
     1
102
RTVSPost2010Prop45
280
     0
102
RTVSPost2010PropOp45
 70
     1
102
RTVSPost2010Prop46
 90
       50
102
RTVSPost2010PropOp46
 70
     1
102
RTVSPost2010Prop47
 90
       50
102
RTVSPost2010PropOp47
 70
     1
102
RTVSPost2010Prop48
 90
       50
102
RTVSPost2010PropOp48
 70
     1
102
RTVSPost2010Prop49
280
     0
102
RTVSPost2010PropOp49
 70
     1
102
RTVSPost2010Prop50
 90
       50
102
RTVSPost2010PropOp50
 70
     1
102
RTVSPost2010Prop51ColorIndex
 90
      256
102
RTVSPost2010Prop51ColorRGB
 90
-16777216
102
RTVSPost2010PropOp51
 70
     0
102
RTVSPost2010Prop52
140
1.0
102
RTVSPost2010PropOp52
 70
     0
102
RTVSPost2010Prop53
 90
        2
102
RTVSPost2010PropOp53
 70
     1
102
RTVSPost2010Prop54
  1
strokes_ogs.tif
102
RTVSPost2010PropOp54
 70
     1
102
RTVSPost2010Prop55
280
     0
102
RTVSPost2010PropOp55
 70
     1
102
RTVSPost2010Prop56
140
1.0
102
RTVSPost2010PropOp56
 70
     1
102
RTVSPost2010Prop57
140
1.0
102
RTVSPost2010PropOp57
 70
     1
102
RTVSPropertyOp0
 70
     1
102
RTVSPropertyOp1
 70
     1
102
RTVSPropertyOp2
 70
     1
102
RTVSPropertyOp3
 70
     1
102
RTVSPropertyOp4
 70
     1
102
RTVSPropertyOp5
 70
     1
102
RTVSPropertyOp6
 70
     1
102
RTVSPropertyOp7
 70
     1
102
RTVSPropertyOp8
 70
     1
102
RTVSPropertyOp9
 70
     1
102
RTVSPropertyOp10
 70
     1
102
RTVSPropertyOp11
 70
     1
102
RTVSPropertyOp12
 70
     1
102
RTVSPropertyOp13
 70
     1
102
RTVSPropertyOp14
 70
     1
102
RTVSPropertyOp15
 70
     1
102
RTVSPropertyOp16
 70
     1
102
RTVSPropertyOp17
 70
     1
102
RTVSPropertyOp18
 70
     1
102
RTVSPropertyOp19
 70
     1
102
RTVSPropertyOp20
 70
     1
102
RTVSPropertyOp21
 70
     1
102
RTVSPropertyOp22
 70
     1
102
RTVSPropertyOp23
 70
     1
102
RTVSPropertyOp24
 70
     1
102
RTVSPropertyOp25
 70
     1
102
RTVSPropertyOp26
 70
     1
102
RTVSPropertyOp27
 70
     1
102
RTVSPropertyOp28
 70
     1
102
RTVSPropertyOp29
 70
     1
102
RTVSPropertyOp30
 70
     1
102
RTVSPropertyOp31
 70
     1
102
RTVSPropertyOp32
 70
     1
102
RTVSPropertyOp33
 70
     1
102
RTVSPropertyOp34
 70
     1
102
RTVSPropertyOp35
 70
     1
102
RTVSPropertyOp36
 70
     1
102
RTVSPropertyOp37
 70
     1
102
RTVSPropertyOp38
 70
     1
102
RTVSPropertyOp39
 70
     1
102
RTVSPropertyOp40
 70
     1
102
RTVSPropertyOp41
 70
     1
102
RTVSPropertyOp42
 70
     1
102
RTVSPropertyOp43
 70
     1
102
RTVSPropertyOp44
 70
     1
102
RTVSPropertyOp45
 70
     1
102
RTVSPropertyOp46
 70
     1
102
RTVSPropertyOp47
 70
     1
102
RTVSPropertyOp48
 70
     1
102
RTVSPropertyOp49
 70
     1
102
RTVSPropertyOp50
 70
     1
102
RTVSPropertyOp51
 70
     0
102
RTVSPropertyOp52
 70
     0
102
RTVSPropertyOp53
 70
     1
102
RTVSPropertyOp54
 70
     1
102
RTVSPropertyOp55
 70
     1
102
RTVSPropertyOp56
 70
     1
102
RTVSPropertyOp57
 70
     1
102
RTVSPropertyOp58
 70
     1
102
RTVSPropertyOp59
 70
     1
102
RTVSPropertyOp60
 70
     1
102
RTVSPropertyOp61
 70
     1
102
RTVSPropertyOp62
 70
     1
  0
XRECORD
  5
4046
102
{ACAD_REACTORS
330
4045
102
}
330
4045
100
AcDbXrecord
280
     1
102
RTVSPost2010Prop28
280
     0
102
RTVSPost2010PropOp28
 70
     1
102
RTVSPost2010Prop29
280
     1
102
RTVSPost2010PropOp29
 70
     1
102
RTVSPost2010Prop30
280
     1
102
RTVSPost2010PropOp30
 70
     1
102
RTVSPost2010Prop31
280
     0
102
RTVSPost2010PropOp31
 70
     1
102
RTVSPost2010Prop32
280
     0
102
RTVSPost2010PropOp32
 70
     1
102
RTVSPost2010Prop33
280
     0
102
RTVSPost2010PropOp33
 70
     1
102
RTVSPost2010Prop34
280
     0
102
RTVSPost2010PropOp34
 70
     1
102
RTVSPost2010Prop35
280
     0
102
RTVSPost2010PropOp35
 70
     1
102
RTVSPost2010Prop36
280
     0
102
RTVSPost2010PropOp36
 70
     1
102
RTVSPost2010Prop37
 90
       50
102
RTVSPost2010PropOp37
 70
     0
102
RTVSPost2010Prop38
140
0.0
102
RTVSPost2010PropOp38
 70
     0
102
RTVSPost2010Prop39
140
1.0
102
RTVSPost2010PropOp39
 70
     0
102
RTVSPost2010Prop40
 90
        0
102
RTVSPost2010PropOp40
 70
     0
102
RTVSPost2010Prop41ColorIndex
 90
       18
102
RTVSPost2010Prop41ColorRGB
 90
        0
102
RTVSPost2010PropOp41
 70
     0
102
RTVSPost2010Prop42
 90
       50
102
RTVSPost2010PropOp42
 70
     0
102
RTVSPost2010Prop43
 90
        3
102
RTVSPost2010PropOp43
 70
     0
102
RTVSPost2010Prop44ColorIndex
 90
        5
102
RTVSPost2010Prop44ColorRGB
 90
      255
102
RTVSPost2010PropOp44
 70
     0
102
RTVSPost2010Prop45
280
     0
102
RTVSPost2010PropOp45
 70
     1
102
RTVSPost2010Prop46
 90
       50
102
RTVSPost2010PropOp46
 70
     0
102
RTVSPost2010Prop47
 90
       50
102
RTVSPost2010PropOp47
 70
     0
102
RTVSPost2010Prop48
 90
       50
102
RTVSPost2010PropOp48
 70
     0
102
RTVSPost2010Prop49
280
     0
102
RTVSPost2010PropOp49
 70
     1
102
RTVSPost2010Prop50
 90
       50
102
RTVSPost2010PropOp50
 70
     0
102
RTVSPost2010Prop51ColorIndex
 90
      256
102
RTVSPost2010Prop51ColorRGB
 90
-16777216
102
RTVSPost2010PropOp51
 70
     0
102
RTVSPost2010Prop52
140
1.0
102
RTVSPost2010PropOp52
 70
     0
102
RTVSPost2010Prop53
 90
        2
102
RTVSPost2010PropOp53
 70
     0
102
RTVSPost2010Prop54
  1
strokes_ogs.tif
102
RTVSPost2010PropOp54
 70
     0
102
RTVSPost2010Prop55
280
     0
102
RTVSPost2010PropOp55
 70
     1
102
RTVSPost2010Prop56
140
1.0
102
RTVSPost2010PropOp56
 70
     0
102
RTVSPost2010Prop57
140
1.0
102
RTVSPost2010PropOp57
 70
     0
102
RTVSPropertyOp0
 70
     0
102
RTVSPropertyOp1
 70
     0
102
RTVSPropertyOp2
 70
     0
102
RTVSPropertyOp3
 70
     0
102
RTVSPropertyOp4
 70
     0
102
RTVSPropertyOp5
 70
     0
102
RTVSPropertyOp6
 70
     0
102
RTVSPropertyOp7
 70
     0
102
RTVSPropertyOp8
 70
     0
102
RTVSPropertyOp9
 70
     0
102
RTVSPropertyOp10
 70
     0
102
RTVSPropertyOp11
 70
     0
102
RTVSPropertyOp12
 70
     0
102
RTVSPropertyOp13
 70
     0
102
RTVSPropertyOp14
 70
     2
102
RTVSPropertyOp15
 70
     0
102
RTVSPropertyOp16
 70
     0
102
RTVSPropertyOp17
 70
     0
102
RTVSPropertyOp18
 70
     0
102
RTVSPropertyOp19
 70
     0
102
RTVSPropertyOp20
 70
     0
102
RTVSPropertyOp21
 70
     0
102
RTVSPropertyOp22
 70
     0
102
RTVSPropertyOp23
 70
     0
102
RTVSPropertyOp24
 70
     0
102
RTVSPropertyOp25
 70
     0
102
RTVSPropertyOp26
 70
     0
102
RTVSPropertyOp27
 70
     0
102
RTVSPropertyOp28
 70
     1
102
RTVSPropertyOp29
 70
     1
102
RTVSPropertyOp30
 70
     1
102
RTVSPropertyOp31
 70
     1
102
RTVSPropertyOp32
 70
     1
102
RTVSPropertyOp33
 70
     1
102
RTVSPropertyOp34
 70
     1
102
RTVSPropertyOp35
 70
     1
102
RTVSPropertyOp36
 70
     1
102
RTVSPropertyOp37
 70
     0
102
RTVSPropertyOp38
 70
     0
102
RTVSPropertyOp39
 70
     0
102
RTVSPropertyOp40
 70
     0
102
RTVSPropertyOp41
 70
     0
102
RTVSPropertyOp42
 70
     0
102
RTVSPropertyOp43
 70
     0
102
RTVSPropertyOp44
 70
     0
102
RTVSPropertyOp45
 70
     1
102
RTVSPropertyOp46
 70
     0
102
RTVSPropertyOp47
 70
     0
102
RTVSPropertyOp48
 70
     0
102
RTVSPropertyOp49
 70
     1
102
RTVSPropertyOp50
 70
     0
102
RTVSPropertyOp51
 70
     0
102
RTVSPropertyOp52
 70
     0
102
RTVSPropertyOp53
 70
     0
102
RTVSPropertyOp54
 70
     0
102
RTVSPropertyOp55
 70
     1
102
RTVSPropertyOp56
 70
     0
102
RTVSPropertyOp57
 70
     0
102
RTVSPropertyOp58
 70
     0
102
RTVSPropertyOp59
 70
     0
102
RTVSPropertyOp60
 70
     0
102
RTVSPropertyOp61
 70
     0
102
RTVSPropertyOp62
 70
     0
  0
XRECORD
  5
402C
102
{ACAD_REACTORS
330
402B
102
}
330
402B
100
AcDbXrecord
280
     1
102
RTVSPost2010Prop28
280
     0
102
RTVSPost2010PropOp28
 70
     1
102
RTVSPost2010Prop29
280
     1
102
RTVSPost2010PropOp29
 70
     1
102
RTVSPost2010Prop30
280
     1
102
RTVSPost2010PropOp30
 70
     1
102
RTVSPost2010Prop31
280
     0
102
RTVSPost2010PropOp31
 70
     1
102
RTVSPost2010Prop32
280
     0
102
RTVSPost2010PropOp32
 70
     1
102
RTVSPost2010Prop33
280
     0
102
RTVSPost2010PropOp33
 70
     1
102
RTVSPost2010Prop34
280
     0
102
RTVSPost2010PropOp34
 70
     1
102
RTVSPost2010Prop35
280
     0
102
RTVSPost2010PropOp35
 70
     1
102
RTVSPost2010Prop36
280
     0
102
RTVSPost2010PropOp36
 70
     1
102
RTVSPost2010Prop37
 90
       50
102
RTVSPost2010PropOp37
 70
     1
102
RTVSPost2010Prop38
140
0.0
102
RTVSPost2010PropOp38
 70
     1
102
RTVSPost2010Prop39
140
1.0
102
RTVSPost2010PropOp39
 70
     1
102
RTVSPost2010Prop40
 90
        0
102
RTVSPost2010PropOp40
 70
     1
102
RTVSPost2010Prop41ColorIndex
 90
       18
102
RTVSPost2010Prop41ColorRGB
 90
        0
102
RTVSPost2010PropOp41
 70
     1
102
RTVSPost2010Prop42
 90
       50
102
RTVSPost2010PropOp42
 70
     1
102
RTVSPost2010Prop43
 90
        3
102
RTVSPost2010PropOp43
 70
     1
102
RTVSPost2010Prop44ColorIndex
 90
        5
102
RTVSPost2010Prop44ColorRGB
 90
      255
102
RTVSPost2010PropOp44
 70
     1
102
RTVSPost2010Prop45
280
     0
102
RTVSPost2010PropOp45
 70
     1
102
RTVSPost2010Prop46
 90
       50
102
RTVSPost2010PropOp46
 70
     1
102
RTVSPost2010Prop47
 90
       50
102
RTVSPost2010PropOp47
 70
     1
102
RTVSPost2010Prop48
 90
       50
102
RTVSPost2010PropOp48
 70
     1
102
RTVSPost2010Prop49
280
     0
102
RTVSPost2010PropOp49
 70
     1
102
RTVSPost2010Prop50
 90
       50
102
RTVSPost2010PropOp50
 70
     1
102
RTVSPost2010Prop51ColorIndex
 90
      256
102
RTVSPost2010Prop51ColorRGB
 90
-16777216
102
RTVSPost2010PropOp51
 70
     0
102
RTVSPost2010Prop52
140
1.0
102
RTVSPost2010PropOp52
 70
     0
102
RTVSPost2010Prop53
 90
        2
102
RTVSPost2010PropOp53
 70
     1
102
RTVSPost2010Prop54
  1
strokes_ogs.tif
102
RTVSPost2010PropOp54
 70
     1
102
RTVSPost2010Prop55
280
     0
102
RTVSPost2010PropOp55
 70
     1
102
RTVSPost2010Prop56
140
1.0
102
RTVSPost2010PropOp56
 70
     1
102
RTVSPost2010Prop57
140
1.0
102
RTVSPost2010PropOp57
 70
     1
102
RTVSPropertyOp0
 70
     1
102
RTVSPropertyOp1
 70
     1
102
RTVSPropertyOp2
 70
     1
102
RTVSPropertyOp3
 70
     1
102
RTVSPropertyOp4
 70
     1
102
RTVSPropertyOp5
 70
     1
102
RTVSPropertyOp6
 70
     1
102
RTVSPropertyOp7
 70
     1
102
RTVSPropertyOp8
 70
     1
102
RTVSPropertyOp9
 70
     1
102
RTVSPropertyOp10
 70
     1
102
RTVSPropertyOp11
 70
     1
102
RTVSPropertyOp12
 70
     1
102
RTVSPropertyOp13
 70
     1
102
RTVSPropertyOp14
 70
     1
102
RTVSPropertyOp15
 70
     1
102
RTVSPropertyOp16
 70
     1
102
RTVSPropertyOp17
 70
     1
102
RTVSPropertyOp18
 70
     1
102
RTVSPropertyOp19
 70
     1
102
RTVSPropertyOp20
 70
     1
102
RTVSPropertyOp21
 70
     1
102
RTVSPropertyOp22
 70
     1
102
RTVSPropertyOp23
 70
     1
102
RTVSPropertyOp24
 70
     1
102
RTVSPropertyOp25
 70
     1
102
RTVSPropertyOp26
 70
     1
102
RTVSPropertyOp27
 70
     1
102
RTVSPropertyOp28
 70
     1
102
RTVSPropertyOp29
 70
     1
102
RTVSPropertyOp30
 70
     1
102
RTVSPropertyOp31
 70
     1
102
RTVSPropertyOp32
 70
     1
102
RTVSPropertyOp33
 70
     1
102
RTVSPropertyOp34
 70
     1
102
RTVSPropertyOp35
 70
     1
102
RTVSPropertyOp36
 70
     1
102
RTVSPropertyOp37
 70
     1
102
RTVSPropertyOp38
 70
     1
102
RTVSPropertyOp39
 70
     1
102
RTVSPropertyOp40
 70
     1
102
RTVSPropertyOp41
 70
     1
102
RTVSPropertyOp42
 70
     1
102
RTVSPropertyOp43
 70
     1
102
RTVSPropertyOp44
 70
     1
102
RTVSPropertyOp45
 70
     1
102
RTVSPropertyOp46
 70
     1
102
RTVSPropertyOp47
 70
     1
102
RTVSPropertyOp48
 70
     1
102
RTVSPropertyOp49
 70
     1
102
RTVSPropertyOp50
 70
     1
102
RTVSPropertyOp51
 70
     0
102
RTVSPropertyOp52
 70
     0
102
RTVSPropertyOp53
 70
     1
102
RTVSPropertyOp54
 70
     1
102
RTVSPropertyOp55
 70
     1
102
RTVSPropertyOp56
 70
     1
102
RTVSPropertyOp57
 70
     1
102
RTVSPropertyOp58
 70
     1
102
RTVSPropertyOp59
 70
     1
102
RTVSPropertyOp60
 70
     1
102
RTVSPropertyOp61
 70
     1
102
RTVSPropertyOp62
 70
     1
  0
XRECORD
  5
4042
102
{ACAD_REACTORS
330
4041
102
}
330
4041
100
AcDbXrecord
280
     1
102
RTVSPost2010Prop28
280
     0
102
RTVSPost2010PropOp28
 70
     1
102
RTVSPost2010Prop29
280
     1
102
RTVSPost2010PropOp29
 70
     1
102
RTVSPost2010Prop30
280
     1
102
RTVSPost2010PropOp30
 70
     1
102
RTVSPost2010Prop31
280
     0
102
RTVSPost2010PropOp31
 70
     1
102
RTVSPost2010Prop32
280
     0
102
RTVSPost2010PropOp32
 70
     1
102
RTVSPost2010Prop33
280
     0
102
RTVSPost2010PropOp33
 70
     1
102
RTVSPost2010Prop34
280
     0
102
RTVSPost2010PropOp34
 70
     1
102
RTVSPost2010Prop35
280
     0
102
RTVSPost2010PropOp35
 70
     1
102
RTVSPost2010Prop36
280
     0
102
RTVSPost2010PropOp36
 70
     1
102
RTVSPost2010Prop37
 90
       50
102
RTVSPost2010PropOp37
 70
     1
102
RTVSPost2010Prop38
140
0.0
102
RTVSPost2010PropOp38
 70
     1
102
RTVSPost2010Prop39
140
1.0
102
RTVSPost2010PropOp39
 70
     1
102
RTVSPost2010Prop40
 90
        0
102
RTVSPost2010PropOp40
 70
     1
102
RTVSPost2010Prop41ColorIndex
 90
       18
102
RTVSPost2010Prop41ColorRGB
 90
        0
102
RTVSPost2010PropOp41
 70
     1
102
RTVSPost2010Prop42
 90
       50
102
RTVSPost2010PropOp42
 70
     1
102
RTVSPost2010Prop43
 90
        3
102
RTVSPost2010PropOp43
 70
     1
102
RTVSPost2010Prop44ColorIndex
 90
        5
102
RTVSPost2010Prop44ColorRGB
 90
      255
102
RTVSPost2010PropOp44
 70
     1
102
RTVSPost2010Prop45
280
     0
102
RTVSPost2010PropOp45
 70
     1
102
RTVSPost2010Prop46
 90
       50
102
RTVSPost2010PropOp46
 70
     1
102
RTVSPost2010Prop47
 90
       50
102
RTVSPost2010PropOp47
 70
     1
102
RTVSPost2010Prop48
 90
       50
102
RTVSPost2010PropOp48
 70
     1
102
RTVSPost2010Prop49
280
     0
102
RTVSPost2010PropOp49
 70
     1
102
RTVSPost2010Prop50
 90
       50
102
RTVSPost2010PropOp50
 70
     1
102
RTVSPost2010Prop51ColorIndex
 90
      256
102
RTVSPost2010Prop51ColorRGB
 90
-16777216
102
RTVSPost2010PropOp51
 70
     0
102
RTVSPost2010Prop52
140
1.0
102
RTVSPost2010PropOp52
 70
     0
102
RTVSPost2010Prop53
 90
        2
102
RTVSPost2010PropOp53
 70
     1
102
RTVSPost2010Prop54
  1
strokes_ogs.tif
102
RTVSPost2010PropOp54
 70
     1
102
RTVSPost2010Prop55
280
     0
102
RTVSPost2010PropOp55
 70
     1
102
RTVSPost2010Prop56
140
1.0
102
RTVSPost2010PropOp56
 70
     1
102
RTVSPost2010Prop57
140
1.0
102
RTVSPost2010PropOp57
 70
     1
102
RTVSPropertyOp0
 70
     1
102
RTVSPropertyOp1
 70
     1
102
RTVSPropertyOp2
 70
     1
102
RTVSPropertyOp3
 70
     1
102
RTVSPropertyOp4
 70
     1
102
RTVSPropertyOp5
 70
     1
102
RTVSPropertyOp6
 70
     1
102
RTVSPropertyOp7
 70
     1
102
RTVSPropertyOp8
 70
     1
102
RTVSPropertyOp9
 70
     1
102
RTVSPropertyOp10
 70
     1
102
RTVSPropertyOp11
 70
     1
102
RTVSPropertyOp12
 70
     1
102
RTVSPropertyOp13
 70
     1
102
RTVSPropertyOp14
 70
     1
102
RTVSPropertyOp15
 70
     1
102
RTVSPropertyOp16
 70
     1
102
RTVSPropertyOp17
 70
     1
102
RTVSPropertyOp18
 70
     1
102
RTVSPropertyOp19
 70
     1
102
RTVSPropertyOp20
 70
     1
102
RTVSPropertyOp21
 70
     1
102
RTVSPropertyOp22
 70
     1
102
RTVSPropertyOp23
 70
     1
102
RTVSPropertyOp24
 70
     1
102
RTVSPropertyOp25
 70
     1
102
RTVSPropertyOp26
 70
     1
102
RTVSPropertyOp27
 70
     1
102
RTVSPropertyOp28
 70
     1
102
RTVSPropertyOp29
 70
     1
102
RTVSPropertyOp30
 70
     1
102
RTVSPropertyOp31
 70
     1
102
RTVSPropertyOp32
 70
     1
102
RTVSPropertyOp33
 70
     1
102
RTVSPropertyOp34
 70
     1
102
RTVSPropertyOp35
 70
     1
102
RTVSPropertyOp36
 70
     1
102
RTVSPropertyOp37
 70
     1
102
RTVSPropertyOp38
 70
     1
102
RTVSPropertyOp39
 70
     1
102
RTVSPropertyOp40
 70
     1
102
RTVSPropertyOp41
 70
     1
102
RTVSPropertyOp42
 70
     1
102
RTVSPropertyOp43
 70
     1
102
RTVSPropertyOp44
 70
     1
102
RTVSPropertyOp45
 70
     1
102
RTVSPropertyOp46
 70
     1
102
RTVSPropertyOp47
 70
     1
102
RTVSPropertyOp48
 70
     1
102
RTVSPropertyOp49
 70
     1
102
RTVSPropertyOp50
 70
     1
102
RTVSPropertyOp51
 70
     0
102
RTVSPropertyOp52
 70
     0
102
RTVSPropertyOp53
 70
     1
102
RTVSPropertyOp54
 70
     1
102
RTVSPropertyOp55
 70
     1
102
RTVSPropertyOp56
 70
     1
102
RTVSPropertyOp57
 70
     1
102
RTVSPropertyOp58
 70
     1
102
RTVSPropertyOp59
 70
     1
102
RTVSPropertyOp60
 70
     1
102
RTVSPropertyOp61
 70
     1
102
RTVSPropertyOp62
 70
     1
  0
XRECORD
  5
4040
102
{ACAD_REACTORS
330
403F
102
}
330
403F
100
AcDbXrecord
280
     1
102
RTVSPost2010Prop28
280
     0
102
RTVSPost2010PropOp28
 70
     1
102
RTVSPost2010Prop29
280
     1
102
RTVSPost2010PropOp29
 70
     1
102
RTVSPost2010Prop30
280
     1
102
RTVSPost2010PropOp30
 70
     1
102
RTVSPost2010Prop31
280
     0
102
RTVSPost2010PropOp31
 70
     1
102
RTVSPost2010Prop32
280
     0
102
RTVSPost2010PropOp32
 70
     1
102
RTVSPost2010Prop33
280
     0
102
RTVSPost2010PropOp33
 70
     1
102
RTVSPost2010Prop34
280
     0
102
RTVSPost2010PropOp34
 70
     1
102
RTVSPost2010Prop35
280
     0
102
RTVSPost2010PropOp35
 70
     1
102
RTVSPost2010Prop36
280
     0
102
RTVSPost2010PropOp36
 70
     1
102
RTVSPost2010Prop37
 90
       50
102
RTVSPost2010PropOp37
 70
     1
102
RTVSPost2010Prop38
140
0.0
102
RTVSPost2010PropOp38
 70
     1
102
RTVSPost2010Prop39
140
1.0
102
RTVSPost2010PropOp39
 70
     1
102
RTVSPost2010Prop40
 90
        0
102
RTVSPost2010PropOp40
 70
     1
102
RTVSPost2010Prop41ColorIndex
 90
       18
102
RTVSPost2010Prop41ColorRGB
 90
        0
102
RTVSPost2010PropOp41
 70
     1
102
RTVSPost2010Prop42
 90
       50
102
RTVSPost2010PropOp42
 70
     1
102
RTVSPost2010Prop43
 90
        3
102
RTVSPost2010PropOp43
 70
     1
102
RTVSPost2010Prop44ColorIndex
 90
        5
102
RTVSPost2010Prop44ColorRGB
 90
      255
102
RTVSPost2010PropOp44
 70
     1
102
RTVSPost2010Prop45
280
     0
102
RTVSPost2010PropOp45
 70
     1
102
RTVSPost2010Prop46
 90
       50
102
RTVSPost2010PropOp46
 70
     1
102
RTVSPost2010Prop47
 90
       50
102
RTVSPost2010PropOp47
 70
     1
102
RTVSPost2010Prop48
 90
       50
102
RTVSPost2010PropOp48
 70
     1
102
RTVSPost2010Prop49
280
     0
102
RTVSPost2010PropOp49
 70
     1
102
RTVSPost2010Prop50
 90
       50
102
RTVSPost2010PropOp50
 70
     1
102
RTVSPost2010Prop51ColorIndex
 90
      256
102
RTVSPost2010Prop51ColorRGB
 90
-16777216
102
RTVSPost2010PropOp51
 70
     0
102
RTVSPost2010Prop52
140
1.0
102
RTVSPost2010PropOp52
 70
     0
102
RTVSPost2010Prop53
 90
        2
102
RTVSPost2010PropOp53
 70
     1
102
RTVSPost2010Prop54
  1
strokes_ogs.tif
102
RTVSPost2010PropOp54
 70
     1
102
RTVSPost2010Prop55
280
     0
102
RTVSPost2010PropOp55
 70
     1
102
RTVSPost2010Prop56
140
1.0
102
RTVSPost2010PropOp56
 70
     1
102
RTVSPost2010Prop57
140
1.0
102
RTVSPost2010PropOp57
 70
     1
102
RTVSPropertyOp0
 70
     1
102
RTVSPropertyOp1
 70
     1
102
RTVSPropertyOp2
 70
     1
102
RTVSPropertyOp3
 70
     1
102
RTVSPropertyOp4
 70
     1
102
RTVSPropertyOp5
 70
     1
102
RTVSPropertyOp6
 70
     1
102
RTVSPropertyOp7
 70
     1
102
RTVSPropertyOp8
 70
     1
102
RTVSPropertyOp9
 70
     1
102
RTVSPropertyOp10
 70
     1
102
RTVSPropertyOp11
 70
     1
102
RTVSPropertyOp12
 70
     1
102
RTVSPropertyOp13
 70
     1
102
RTVSPropertyOp14
 70
     1
102
RTVSPropertyOp15
 70
     1
102
RTVSPropertyOp16
 70
     1
102
RTVSPropertyOp17
 70
     1
102
RTVSPropertyOp18
 70
     1
102
RTVSPropertyOp19
 70
     1
102
RTVSPropertyOp20
 70
     1
102
RTVSPropertyOp21
 70
     1
102
RTVSPropertyOp22
 70
     1
102
RTVSPropertyOp23
 70
     1
102
RTVSPropertyOp24
 70
     1
102
RTVSPropertyOp25
 70
     1
102
RTVSPropertyOp26
 70
     1
102
RTVSPropertyOp27
 70
     1
102
RTVSPropertyOp28
 70
     1
102
RTVSPropertyOp29
 70
     1
102
RTVSPropertyOp30
 70
     1
102
RTVSPropertyOp31
 70
     1
102
RTVSPropertyOp32
 70
     1
102
RTVSPropertyOp33
 70
     1
102
RTVSPropertyOp34
 70
     1
102
RTVSPropertyOp35
 70
     1
102
RTVSPropertyOp36
 70
     1
102
RTVSPropertyOp37
 70
     1
102
RTVSPropertyOp38
 70
     1
102
RTVSPropertyOp39
 70
     1
102
RTVSPropertyOp40
 70
     1
102
RTVSPropertyOp41
 70
     1
102
RTVSPropertyOp42
 70
     1
102
RTVSPropertyOp43
 70
     1
102
RTVSPropertyOp44
 70
     1
102
RTVSPropertyOp45
 70
     1
102
RTVSPropertyOp46
 70
     1
102
RTVSPropertyOp47
 70
     1
102
RTVSPropertyOp48
 70
     1
102
RTVSPropertyOp49
 70
     1
102
RTVSPropertyOp50
 70
     1
102
RTVSPropertyOp51
 70
     0
102
RTVSPropertyOp52
 70
     0
102
RTVSPropertyOp53
 70
     1
102
RTVSPropertyOp54
 70
     1
102
RTVSPropertyOp55
 70
     1
102
RTVSPropertyOp56
 70
     1
102
RTVSPropertyOp57
 70
     1
102
RTVSPropertyOp58
 70
     1
102
RTVSPropertyOp59
 70
     1
102
RTVSPropertyOp60
 70
     1
102
RTVSPropertyOp61
 70
     1
102
RTVSPropertyOp62
 70
     1
  0
XRECORD
  5
403A
102
{ACAD_REACTORS
330
4039
102
}
330
4039
100
AcDbXrecord
280
     1
102
RTVSPost2010Prop28
280
     0
102
RTVSPost2010PropOp28
 70
     1
102
RTVSPost2010Prop29
280
     1
102
RTVSPost2010PropOp29
 70
     1
102
RTVSPost2010Prop30
280
     1
102
RTVSPost2010PropOp30
 70
     1
102
RTVSPost2010Prop31
280
     0
102
RTVSPost2010PropOp31
 70
     1
102
RTVSPost2010Prop32
280
     0
102
RTVSPost2010PropOp32
 70
     1
102
RTVSPost2010Prop33
280
     0
102
RTVSPost2010PropOp33
 70
     1
102
RTVSPost2010Prop34
280
     0
102
RTVSPost2010PropOp34
 70
     1
102
RTVSPost2010Prop35
280
     0
102
RTVSPost2010PropOp35
 70
     1
102
RTVSPost2010Prop36
280
     0
102
RTVSPost2010PropOp36
 70
     1
102
RTVSPost2010Prop37
 90
       50
102
RTVSPost2010PropOp37
 70
     1
102
RTVSPost2010Prop38
140
0.0
102
RTVSPost2010PropOp38
 70
     1
102
RTVSPost2010Prop39
140
1.0
102
RTVSPost2010PropOp39
 70
     1
102
RTVSPost2010Prop40
 90
        0
102
RTVSPost2010PropOp40
 70
     1
102
RTVSPost2010Prop41ColorIndex
 90
       18
102
RTVSPost2010Prop41ColorRGB
 90
        0
102
RTVSPost2010PropOp41
 70
     1
102
RTVSPost2010Prop42
 90
       50
102
RTVSPost2010PropOp42
 70
     1
102
RTVSPost2010Prop43
 90
        3
102
RTVSPost2010PropOp43
 70
     1
102
RTVSPost2010Prop44ColorIndex
 90
        5
102
RTVSPost2010Prop44ColorRGB
 90
      255
102
RTVSPost2010PropOp44
 70
     1
102
RTVSPost2010Prop45
280
     0
102
RTVSPost2010PropOp45
 70
     1
102
RTVSPost2010Prop46
 90
       50
102
RTVSPost2010PropOp46
 70
     1
102
RTVSPost2010Prop47
 90
       50
102
RTVSPost2010PropOp47
 70
     1
102
RTVSPost2010Prop48
 90
       50
102
RTVSPost2010PropOp48
 70
     1
102
RTVSPost2010Prop49
280
     0
102
RTVSPost2010PropOp49
 70
     1
102
RTVSPost2010Prop50
 90
       50
102
RTVSPost2010PropOp50
 70
     1
102
RTVSPost2010Prop51ColorIndex
 90
      256
102
RTVSPost2010Prop51ColorRGB
 90
-16777216
102
RTVSPost2010PropOp51
 70
     0
102
RTVSPost2010Prop52
140
1.0
102
RTVSPost2010PropOp52
 70
     0
102
RTVSPost2010Prop53
 90
        2
102
RTVSPost2010PropOp53
 70
     1
102
RTVSPost2010Prop54
  1
strokes_ogs.tif
102
RTVSPost2010PropOp54
 70
     1
102
RTVSPost2010Prop55
280
     0
102
RTVSPost2010PropOp55
 70
     1
102
RTVSPost2010Prop56
140
1.0
102
RTVSPost2010PropOp56
 70
     1
102
RTVSPost2010Prop57
140
1.0
102
RTVSPost2010PropOp57
 70
     1
102
RTVSPropertyOp0
 70
     1
102
RTVSPropertyOp1
 70
     1
102
RTVSPropertyOp2
 70
     1
102
RTVSPropertyOp3
 70
     1
102
RTVSPropertyOp4
 70
     1
102
RTVSPropertyOp5
 70
     1
102
RTVSPropertyOp6
 70
     1
102
RTVSPropertyOp7
 70
     1
102
RTVSPropertyOp8
 70
     1
102
RTVSPropertyOp9
 70
     1
102
RTVSPropertyOp10
 70
     1
102
RTVSPropertyOp11
 70
     1
102
RTVSPropertyOp12
 70
     1
102
RTVSPropertyOp13
 70
     1
102
RTVSPropertyOp14
 70
     1
102
RTVSPropertyOp15
 70
     1
102
RTVSPropertyOp16
 70
     1
102
RTVSPropertyOp17
 70
     1
102
RTVSPropertyOp18
 70
     1
102
RTVSPropertyOp19
 70
     1
102
RTVSPropertyOp20
 70
     1
102
RTVSPropertyOp21
 70
     1
102
RTVSPropertyOp22
 70
     1
102
RTVSPropertyOp23
 70
     1
102
RTVSPropertyOp24
 70
     1
102
RTVSPropertyOp25
 70
     1
102
RTVSPropertyOp26
 70
     1
102
RTVSPropertyOp27
 70
     1
102
RTVSPropertyOp28
 70
     1
102
RTVSPropertyOp29
 70
     1
102
RTVSPropertyOp30
 70
     1
102
RTVSPropertyOp31
 70
     1
102
RTVSPropertyOp32
 70
     1
102
RTVSPropertyOp33
 70
     1
102
RTVSPropertyOp34
 70
     1
102
RTVSPropertyOp35
 70
     1
102
RTVSPropertyOp36
 70
     1
102
RTVSPropertyOp37
 70
     1
102
RTVSPropertyOp38
 70
     1
102
RTVSPropertyOp39
 70
     1
102
RTVSPropertyOp40
 70
     1
102
RTVSPropertyOp41
 70
     1
102
RTVSPropertyOp42
 70
     1
102
RTVSPropertyOp43
 70
     1
102
RTVSPropertyOp44
 70
     1
102
RTVSPropertyOp45
 70
     1
102
RTVSPropertyOp46
 70
     1
102
RTVSPropertyOp47
 70
     1
102
RTVSPropertyOp48
 70
     1
102
RTVSPropertyOp49
 70
     1
102
RTVSPropertyOp50
 70
     1
102
RTVSPropertyOp51
 70
     0
102
RTVSPropertyOp52
 70
     0
102
RTVSPropertyOp53
 70
     1
102
RTVSPropertyOp54
 70
     1
102
RTVSPropertyOp55
 70
     1
102
RTVSPropertyOp56
 70
     1
102
RTVSPropertyOp57
 70
     1
102
RTVSPropertyOp58
 70
     1
102
RTVSPropertyOp59
 70
     1
102
RTVSPropertyOp60
 70
     1
102
RTVSPropertyOp61
 70
     1
102
RTVSPropertyOp62
 70
     1
  0
XRECORD
  5
403C
102
{ACAD_REACTORS
330
403B
102
}
330
403B
100
AcDbXrecord
280
     1
102
RTVSPost2010Prop28
280
     0
102
RTVSPost2010PropOp28
 70
     1
102
RTVSPost2010Prop29
280
     1
102
RTVSPost2010PropOp29
 70
     1
102
RTVSPost2010Prop30
280
     1
102
RTVSPost2010PropOp30
 70
     1
102
RTVSPost2010Prop31
280
     0
102
RTVSPost2010PropOp31
 70
     1
102
RTVSPost2010Prop32
280
     0
102
RTVSPost2010PropOp32
 70
     1
102
RTVSPost2010Prop33
280
     0
102
RTVSPost2010PropOp33
 70
     1
102
RTVSPost2010Prop34
280
     0
102
RTVSPost2010PropOp34
 70
     1
102
RTVSPost2010Prop35
280
     0
102
RTVSPost2010PropOp35
 70
     1
102
RTVSPost2010Prop36
280
     0
102
RTVSPost2010PropOp36
 70
     1
102
RTVSPost2010Prop37
 90
       50
102
RTVSPost2010PropOp37
 70
     1
102
RTVSPost2010Prop38
140
0.0
102
RTVSPost2010PropOp38
 70
     1
102
RTVSPost2010Prop39
140
1.0
102
RTVSPost2010PropOp39
 70
     1
102
RTVSPost2010Prop40
 90
        0
102
RTVSPost2010PropOp40
 70
     1
102
RTVSPost2010Prop41ColorIndex
 90
       18
102
RTVSPost2010Prop41ColorRGB
 90
        0
102
RTVSPost2010PropOp41
 70
     1
102
RTVSPost2010Prop42
 90
       50
102
RTVSPost2010PropOp42
 70
     1
102
RTVSPost2010Prop43
 90
        3
102
RTVSPost2010PropOp43
 70
     1
102
RTVSPost2010Prop44ColorIndex
 90
        5
102
RTVSPost2010Prop44ColorRGB
 90
      255
102
RTVSPost2010PropOp44
 70
     1
102
RTVSPost2010Prop45
280
     0
102
RTVSPost2010PropOp45
 70
     1
102
RTVSPost2010Prop46
 90
       50
102
RTVSPost2010PropOp46
 70
     1
102
RTVSPost2010Prop47
 90
       50
102
RTVSPost2010PropOp47
 70
     1
102
RTVSPost2010Prop48
 90
       50
102
RTVSPost2010PropOp48
 70
     1
102
RTVSPost2010Prop49
280
     0
102
RTVSPost2010PropOp49
 70
     1
102
RTVSPost2010Prop50
 90
       50
102
RTVSPost2010PropOp50
 70
     1
102
RTVSPost2010Prop51ColorIndex
 90
      256
102
RTVSPost2010Prop51ColorRGB
 90
-16777216
102
RTVSPost2010PropOp51
 70
     0
102
RTVSPost2010Prop52
140
1.0
102
RTVSPost2010PropOp52
 70
     0
102
RTVSPost2010Prop53
 90
        2
102
RTVSPost2010PropOp53
 70
     1
102
RTVSPost2010Prop54
  1
strokes_ogs.tif
102
RTVSPost2010PropOp54
 70
     1
102
RTVSPost2010Prop55
280
     0
102
RTVSPost2010PropOp55
 70
     1
102
RTVSPost2010Prop56
140
1.0
102
RTVSPost2010PropOp56
 70
     1
102
RTVSPost2010Prop57
140
1.0
102
RTVSPost2010PropOp57
 70
     1
102
RTVSPropertyOp0
 70
     1
102
RTVSPropertyOp1
 70
     1
102
RTVSPropertyOp2
 70
     1
102
RTVSPropertyOp3
 70
     1
102
RTVSPropertyOp4
 70
     1
102
RTVSPropertyOp5
 70
     1
102
RTVSPropertyOp6
 70
     1
102
RTVSPropertyOp7
 70
     1
102
RTVSPropertyOp8
 70
     1
102
RTVSPropertyOp9
 70
     1
102
RTVSPropertyOp10
 70
     1
102
RTVSPropertyOp11
 70
     1
102
RTVSPropertyOp12
 70
     1
102
RTVSPropertyOp13
 70
     1
102
RTVSPropertyOp14
 70
     1
102
RTVSPropertyOp15
 70
     1
102
RTVSPropertyOp16
 70
     1
102
RTVSPropertyOp17
 70
     1
102
RTVSPropertyOp18
 70
     1
102
RTVSPropertyOp19
 70
     1
102
RTVSPropertyOp20
 70
     1
102
RTVSPropertyOp21
 70
     1
102
RTVSPropertyOp22
 70
     1
102
RTVSPropertyOp23
 70
     1
102
RTVSPropertyOp24
 70
     1
102
RTVSPropertyOp25
 70
     1
102
RTVSPropertyOp26
 70
     1
102
RTVSPropertyOp27
 70
     1
102
RTVSPropertyOp28
 70
     1
102
RTVSPropertyOp29
 70
     1
102
RTVSPropertyOp30
 70
     1
102
RTVSPropertyOp31
 70
     1
102
RTVSPropertyOp32
 70
     1
102
RTVSPropertyOp33
 70
     1
102
RTVSPropertyOp34
 70
     1
102
RTVSPropertyOp35
 70
     1
102
RTVSPropertyOp36
 70
     1
102
RTVSPropertyOp37
 70
     1
102
RTVSPropertyOp38
 70
     1
102
RTVSPropertyOp39
 70
     1
102
RTVSPropertyOp40
 70
     1
102
RTVSPropertyOp41
 70
     1
102
RTVSPropertyOp42
 70
     1
102
RTVSPropertyOp43
 70
     1
102
RTVSPropertyOp44
 70
     1
102
RTVSPropertyOp45
 70
     1
102
RTVSPropertyOp46
 70
     1
102
RTVSPropertyOp47
 70
     1
102
RTVSPropertyOp48
 70
     1
102
RTVSPropertyOp49
 70
     1
102
RTVSPropertyOp50
 70
     1
102
RTVSPropertyOp51
 70
     0
102
RTVSPropertyOp52
 70
     0
102
RTVSPropertyOp53
 70
     1
102
RTVSPropertyOp54
 70
     1
102
RTVSPropertyOp55
 70
     1
102
RTVSPropertyOp56
 70
     1
102
RTVSPropertyOp57
 70
     1
102
RTVSPropertyOp58
 70
     1
102
RTVSPropertyOp59
 70
     1
102
RTVSPropertyOp60
 70
     1
102
RTVSPropertyOp61
 70
     1
102
RTVSPropertyOp62
 70
     1
  0
XRECORD
  5
4032
102
{ACAD_REACTORS
330
4031
102
}
330
4031
100
AcDbXrecord
280
     1
102
RTVSPost2010Prop28
280
     0
102
RTVSPost2010PropOp28
 70
     1
102
RTVSPost2010Prop29
280
     1
102
RTVSPost2010PropOp29
 70
     1
102
RTVSPost2010Prop30
280
     1
102
RTVSPost2010PropOp30
 70
     1
102
RTVSPost2010Prop31
280
     0
102
RTVSPost2010PropOp31
 70
     1
102
RTVSPost2010Prop32
280
     0
102
RTVSPost2010PropOp32
 70
     1
102
RTVSPost2010Prop33
280
     0
102
RTVSPost2010PropOp33
 70
     1
102
RTVSPost2010Prop34
280
     0
102
RTVSPost2010PropOp34
 70
     1
102
RTVSPost2010Prop35
280
     0
102
RTVSPost2010PropOp35
 70
     1
102
RTVSPost2010Prop36
280
     0
102
RTVSPost2010PropOp36
 70
     1
102
RTVSPost2010Prop37
 90
       50
102
RTVSPost2010PropOp37
 70
     1
102
RTVSPost2010Prop38
140
0.0
102
RTVSPost2010PropOp38
 70
     1
102
RTVSPost2010Prop39
140
1.0
102
RTVSPost2010PropOp39
 70
     1
102
RTVSPost2010Prop40
 90
        0
102
RTVSPost2010PropOp40
 70
     1
102
RTVSPost2010Prop41ColorIndex
 90
       18
102
RTVSPost2010Prop41ColorRGB
 90
        0
102
RTVSPost2010PropOp41
 70
     1
102
RTVSPost2010Prop42
 90
       50
102
RTVSPost2010PropOp42
 70
     1
102
RTVSPost2010Prop43
 90
        3
102
RTVSPost2010PropOp43
 70
     1
102
RTVSPost2010Prop44ColorIndex
 90
        5
102
RTVSPost2010Prop44ColorRGB
 90
      255
102
RTVSPost2010PropOp44
 70
     1
102
RTVSPost2010Prop45
280
     0
102
RTVSPost2010PropOp45
 70
     1
102
RTVSPost2010Prop46
 90
       50
102
RTVSPost2010PropOp46
 70
     1
102
RTVSPost2010Prop47
 90
       50
102
RTVSPost2010PropOp47
 70
     1
102
RTVSPost2010Prop48
 90
       50
102
RTVSPost2010PropOp48
 70
     1
102
RTVSPost2010Prop49
280
     0
102
RTVSPost2010PropOp49
 70
     1
102
RTVSPost2010Prop50
 90
       50
102
RTVSPost2010PropOp50
 70
     1
102
RTVSPost2010Prop51ColorIndex
 90
      256
102
RTVSPost2010Prop51ColorRGB
 90
-16777216
102
RTVSPost2010PropOp51
 70
     0
102
RTVSPost2010Prop52
140
1.0
102
RTVSPost2010PropOp52
 70
     0
102
RTVSPost2010Prop53
 90
        2
102
RTVSPost2010PropOp53
 70
     1
102
RTVSPost2010Prop54
  1
strokes_ogs.tif
102
RTVSPost2010PropOp54
 70
     1
102
RTVSPost2010Prop55
280
     0
102
RTVSPost2010PropOp55
 70
     1
102
RTVSPost2010Prop56
140
1.0
102
RTVSPost2010PropOp56
 70
     1
102
RTVSPost2010Prop57
140
1.0
102
RTVSPost2010PropOp57
 70
     1
102
RTVSPropertyOp0
 70
     1
102
RTVSPropertyOp1
 70
     1
102
RTVSPropertyOp2
 70
     1
102
RTVSPropertyOp3
 70
     1
102
RTVSPropertyOp4
 70
     1
102
RTVSPropertyOp5
 70
     1
102
RTVSPropertyOp6
 70
     1
102
RTVSPropertyOp7
 70
     1
102
RTVSPropertyOp8
 70
     1
102
RTVSPropertyOp9
 70
     1
102
RTVSPropertyOp10
 70
     1
102
RTVSPropertyOp11
 70
     1
102
RTVSPropertyOp12
 70
     1
102
RTVSPropertyOp13
 70
     1
102
RTVSPropertyOp14
 70
     1
102
RTVSPropertyOp15
 70
     1
102
RTVSPropertyOp16
 70
     1
102
RTVSPropertyOp17
 70
     1
102
RTVSPropertyOp18
 70
     1
102
RTVSPropertyOp19
 70
     1
102
RTVSPropertyOp20
 70
     1
102
RTVSPropertyOp21
 70
     1
102
RTVSPropertyOp22
 70
     1
102
RTVSPropertyOp23
 70
     1
102
RTVSPropertyOp24
 70
     1
102
RTVSPropertyOp25
 70
     1
102
RTVSPropertyOp26
 70
     1
102
RTVSPropertyOp27
 70
     1
102
RTVSPropertyOp28
 70
     1
102
RTVSPropertyOp29
 70
     1
102
RTVSPropertyOp30
 70
     1
102
RTVSPropertyOp31
 70
     1
102
RTVSPropertyOp32
 70
     1
102
RTVSPropertyOp33
 70
     1
102
RTVSPropertyOp34
 70
     1
102
RTVSPropertyOp35
 70
     1
102
RTVSPropertyOp36
 70
     1
102
RTVSPropertyOp37
 70
     1
102
RTVSPropertyOp38
 70
     1
102
RTVSPropertyOp39
 70
     1
102
RTVSPropertyOp40
 70
     1
102
RTVSPropertyOp41
 70
     1
102
RTVSPropertyOp42
 70
     1
102
RTVSPropertyOp43
 70
     1
102
RTVSPropertyOp44
 70
     1
102
RTVSPropertyOp45
 70
     1
102
RTVSPropertyOp46
 70
     1
102
RTVSPropertyOp47
 70
     1
102
RTVSPropertyOp48
 70
     1
102
RTVSPropertyOp49
 70
     1
102
RTVSPropertyOp50
 70
     1
102
RTVSPropertyOp51
 70
     0
102
RTVSPropertyOp52
 70
     0
102
RTVSPropertyOp53
 70
     1
102
RTVSPropertyOp54
 70
     1
102
RTVSPropertyOp55
 70
     1
102
RTVSPropertyOp56
 70
     1
102
RTVSPropertyOp57
 70
     1
102
RTVSPropertyOp58
 70
     1
102
RTVSPropertyOp59
 70
     1
102
RTVSPropertyOp60
 70
     1
102
RTVSPropertyOp61
 70
     1
102
RTVSPropertyOp62
 70
     1
  0
XRECORD
  5
4026
102
{ACAD_REACTORS
330
4025
102
}
330
4025
100
AcDbXrecord
280
     1
102
RTVSPost2010Prop28
280
     0
102
RTVSPost2010PropOp28
 70
     1
102
RTVSPost2010Prop29
280
     1
102
RTVSPost2010PropOp29
 70
     1
102
RTVSPost2010Prop30
280
     1
102
RTVSPost2010PropOp30
 70
     1
102
RTVSPost2010Prop31
280
     0
102
RTVSPost2010PropOp31
 70
     1
102
RTVSPost2010Prop32
280
     0
102
RTVSPost2010PropOp32
 70
     1
102
RTVSPost2010Prop33
280
     0
102
RTVSPost2010PropOp33
 70
     1
102
RTVSPost2010Prop34
280
     0
102
RTVSPost2010PropOp34
 70
     1
102
RTVSPost2010Prop35
280
     0
102
RTVSPost2010PropOp35
 70
     1
102
RTVSPost2010Prop36
280
     0
102
RTVSPost2010PropOp36
 70
     1
102
RTVSPost2010Prop37
 90
       50
102
RTVSPost2010PropOp37
 70
     1
102
RTVSPost2010Prop38
140
0.0
102
RTVSPost2010PropOp38
 70
     1
102
RTVSPost2010Prop39
140
1.0
102
RTVSPost2010PropOp39
 70
     1
102
RTVSPost2010Prop40
 90
        0
102
RTVSPost2010PropOp40
 70
     1
102
RTVSPost2010Prop41ColorIndex
 90
       18
102
RTVSPost2010Prop41ColorRGB
 90
        0
102
RTVSPost2010PropOp41
 70
     1
102
RTVSPost2010Prop42
 90
       50
102
RTVSPost2010PropOp42
 70
     1
102
RTVSPost2010Prop43
 90
        3
102
RTVSPost2010PropOp43
 70
     1
102
RTVSPost2010Prop44ColorIndex
 90
        5
102
RTVSPost2010Prop44ColorRGB
 90
      255
102
RTVSPost2010PropOp44
 70
     1
102
RTVSPost2010Prop45
280
     0
102
RTVSPost2010PropOp45
 70
     1
102
RTVSPost2010Prop46
 90
       50
102
RTVSPost2010PropOp46
 70
     1
102
RTVSPost2010Prop47
 90
       50
102
RTVSPost2010PropOp47
 70
     1
102
RTVSPost2010Prop48
 90
       50
102
RTVSPost2010PropOp48
 70
     1
102
RTVSPost2010Prop49
280
     0
102
RTVSPost2010PropOp49
 70
     1
102
RTVSPost2010Prop50
 90
       50
102
RTVSPost2010PropOp50
 70
     1
102
RTVSPost2010Prop51ColorIndex
 90
      256
102
RTVSPost2010Prop51ColorRGB
 90
-16777216
102
RTVSPost2010PropOp51
 70
     0
102
RTVSPost2010Prop52
140
1.0
102
RTVSPost2010PropOp52
 70
     0
102
RTVSPost2010Prop53
 90
        2
102
RTVSPost2010PropOp53
 70
     1
102
RTVSPost2010Prop54
  1
strokes_ogs.tif
102
RTVSPost2010PropOp54
 70
     1
102
RTVSPost2010Prop55
280
     0
102
RTVSPost2010PropOp55
 70
     1
102
RTVSPost2010Prop56
140
1.0
102
RTVSPost2010PropOp56
 70
     1
102
RTVSPost2010Prop57
140
1.0
102
RTVSPost2010PropOp57
 70
     1
102
RTVSPropertyOp0
 70
     1
102
RTVSPropertyOp1
 70
     1
102
RTVSPropertyOp2
 70
     1
102
RTVSPropertyOp3
 70
     1
102
RTVSPropertyOp4
 70
     1
102
RTVSPropertyOp5
 70
     1
102
RTVSPropertyOp6
 70
     1
102
RTVSPropertyOp7
 70
     1
102
RTVSPropertyOp8
 70
     1
102
RTVSPropertyOp9
 70
     1
102
RTVSPropertyOp10
 70
     1
102
RTVSPropertyOp11
 70
     1
102
RTVSPropertyOp12
 70
     1
102
RTVSPropertyOp13
 70
     1
102
RTVSPropertyOp14
 70
     1
102
RTVSPropertyOp15
 70
     1
102
RTVSPropertyOp16
 70
     1
102
RTVSPropertyOp17
 70
     1
102
RTVSPropertyOp18
 70
     1
102
RTVSPropertyOp19
 70
     1
102
RTVSPropertyOp20
 70
     1
102
RTVSPropertyOp21
 70
     1
102
RTVSPropertyOp22
 70
     1
102
RTVSPropertyOp23
 70
     1
102
RTVSPropertyOp24
 70
     1
102
RTVSPropertyOp25
 70
     1
102
RTVSPropertyOp26
 70
     1
102
RTVSPropertyOp27
 70
     1
102
RTVSPropertyOp28
 70
     1
102
RTVSPropertyOp29
 70
     1
102
RTVSPropertyOp30
 70
     1
102
RTVSPropertyOp31
 70
     1
102
RTVSPropertyOp32
 70
     1
102
RTVSPropertyOp33
 70
     1
102
RTVSPropertyOp34
 70
     1
102
RTVSPropertyOp35
 70
     1
102
RTVSPropertyOp36
 70
     1
102
RTVSPropertyOp37
 70
     1
102
RTVSPropertyOp38
 70
     1
102
RTVSPropertyOp39
 70
     1
102
RTVSPropertyOp40
 70
     1
102
RTVSPropertyOp41
 70
     1
102
RTVSPropertyOp42
 70
     1
102
RTVSPropertyOp43
 70
     1
102
RTVSPropertyOp44
 70
     1
102
RTVSPropertyOp45
 70
     1
102
RTVSPropertyOp46
 70
     1
102
RTVSPropertyOp47
 70
     1
102
RTVSPropertyOp48
 70
     1
102
RTVSPropertyOp49
 70
     1
102
RTVSPropertyOp50
 70
     1
102
RTVSPropertyOp51
 70
     0
102
RTVSPropertyOp52
 70
     0
102
RTVSPropertyOp53
 70
     1
102
RTVSPropertyOp54
 70
     1
102
RTVSPropertyOp55
 70
     1
102
RTVSPropertyOp56
 70
     1
102
RTVSPropertyOp57
 70
     1
102
RTVSPropertyOp58
 70
     1
102
RTVSPropertyOp59
 70
     1
102
RTVSPropertyOp60
 70
     1
102
RTVSPropertyOp61
 70
     1
102
RTVSPropertyOp62
 70
     1
  0
XRECORD
  5
403E
102
{ACAD_REACTORS
330
403D
102
}
330
403D
100
AcDbXrecord
280
     1
102
RTVSPost2010Prop28
280
     0
102
RTVSPost2010PropOp28
 70
     1
102
RTVSPost2010Prop29
280
     1
102
RTVSPost2010PropOp29
 70
     1
102
RTVSPost2010Prop30
280
     1
102
RTVSPost2010PropOp30
 70
     1
102
RTVSPost2010Prop31
280
     0
102
RTVSPost2010PropOp31
 70
     1
102
RTVSPost2010Prop32
280
     0
102
RTVSPost2010PropOp32
 70
     1
102
RTVSPost2010Prop33
280
     0
102
RTVSPost2010PropOp33
 70
     1
102
RTVSPost2010Prop34
280
     0
102
RTVSPost2010PropOp34
 70
     1
102
RTVSPost2010Prop35
280
     0
102
RTVSPost2010PropOp35
 70
     1
102
RTVSPost2010Prop36
280
     0
102
RTVSPost2010PropOp36
 70
     1
102
RTVSPost2010Prop37
 90
       50
102
RTVSPost2010PropOp37
 70
     1
102
RTVSPost2010Prop38
140
0.0
102
RTVSPost2010PropOp38
 70
     1
102
RTVSPost2010Prop39
140
1.0
102
RTVSPost2010PropOp39
 70
     1
102
RTVSPost2010Prop40
 90
        0
102
RTVSPost2010PropOp40
 70
     1
102
RTVSPost2010Prop41ColorIndex
 90
       18
102
RTVSPost2010Prop41ColorRGB
 90
        0
102
RTVSPost2010PropOp41
 70
     1
102
RTVSPost2010Prop42
 90
       50
102
RTVSPost2010PropOp42
 70
     1
102
RTVSPost2010Prop43
 90
        3
102
RTVSPost2010PropOp43
 70
     1
102
RTVSPost2010Prop44ColorIndex
 90
        5
102
RTVSPost2010Prop44ColorRGB
 90
      255
102
RTVSPost2010PropOp44
 70
     1
102
RTVSPost2010Prop45
280
     0
102
RTVSPost2010PropOp45
 70
     1
102
RTVSPost2010Prop46
 90
       50
102
RTVSPost2010PropOp46
 70
     1
102
RTVSPost2010Prop47
 90
       50
102
RTVSPost2010PropOp47
 70
     1
102
RTVSPost2010Prop48
 90
       50
102
RTVSPost2010PropOp48
 70
     1
102
RTVSPost2010Prop49
280
     0
102
RTVSPost2010PropOp49
 70
     1
102
RTVSPost2010Prop50
 90
       50
102
RTVSPost2010PropOp50
 70
     1
102
RTVSPost2010Prop51ColorIndex
 90
      256
102
RTVSPost2010Prop51ColorRGB
 90
-16777216
102
RTVSPost2010PropOp51
 70
     0
102
RTVSPost2010Prop52
140
1.0
102
RTVSPost2010PropOp52
 70
     0
102
RTVSPost2010Prop53
 90
        2
102
RTVSPost2010PropOp53
 70
     1
102
RTVSPost2010Prop54
  1
strokes_ogs.tif
102
RTVSPost2010PropOp54
 70
     1
102
RTVSPost2010Prop55
280
     0
102
RTVSPost2010PropOp55
 70
     1
102
RTVSPost2010Prop56
140
1.0
102
RTVSPost2010PropOp56
 70
     1
102
RTVSPost2010Prop57
140
1.0
102
RTVSPost2010PropOp57
 70
     1
102
RTVSPropertyOp0
 70
     1
102
RTVSPropertyOp1
 70
     1
102
RTVSPropertyOp2
 70
     1
102
RTVSPropertyOp3
 70
     1
102
RTVSPropertyOp4
 70
     1
102
RTVSPropertyOp5
 70
     1
102
RTVSPropertyOp6
 70
     1
102
RTVSPropertyOp7
 70
     1
102
RTVSPropertyOp8
 70
     1
102
RTVSPropertyOp9
 70
     1
102
RTVSPropertyOp10
 70
     1
102
RTVSPropertyOp11
 70
     1
102
RTVSPropertyOp12
 70
     1
102
RTVSPropertyOp13
 70
     1
102
RTVSPropertyOp14
 70
     1
102
RTVSPropertyOp15
 70
     1
102
RTVSPropertyOp16
 70
     1
102
RTVSPropertyOp17
 70
     1
102
RTVSPropertyOp18
 70
     1
102
RTVSPropertyOp19
 70
     1
102
RTVSPropertyOp20
 70
     1
102
RTVSPropertyOp21
 70
     1
102
RTVSPropertyOp22
 70
     1
102
RTVSPropertyOp23
 70
     1
102
RTVSPropertyOp24
 70
     1
102
RTVSPropertyOp25
 70
     1
102
RTVSPropertyOp26
 70
     1
102
RTVSPropertyOp27
 70
     1
102
RTVSPropertyOp28
 70
     1
102
RTVSPropertyOp29
 70
     1
102
RTVSPropertyOp30
 70
     1
102
RTVSPropertyOp31
 70
     1
102
RTVSPropertyOp32
 70
     1
102
RTVSPropertyOp33
 70
     1
102
RTVSPropertyOp34
 70
     1
102
RTVSPropertyOp35
 70
     1
102
RTVSPropertyOp36
 70
     1
102
RTVSPropertyOp37
 70
     1
102
RTVSPropertyOp38
 70
     1
102
RTVSPropertyOp39
 70
     1
102
RTVSPropertyOp40
 70
     1
102
RTVSPropertyOp41
 70
     1
102
RTVSPropertyOp42
 70
     1
102
RTVSPropertyOp43
 70
     1
102
RTVSPropertyOp44
 70
     1
102
RTVSPropertyOp45
 70
     1
102
RTVSPropertyOp46
 70
     1
102
RTVSPropertyOp47
 70
     1
102
RTVSPropertyOp48
 70
     1
102
RTVSPropertyOp49
 70
     1
102
RTVSPropertyOp50
 70
     1
102
RTVSPropertyOp51
 70
     0
102
RTVSPropertyOp52
 70
     0
102
RTVSPropertyOp53
 70
     1
102
RTVSPropertyOp54
 70
     1
102
RTVSPropertyOp55
 70
     1
102
RTVSPropertyOp56
 70
     1
102
RTVSPropertyOp57
 70
     1
102
RTVSPropertyOp58
 70
     1
102
RTVSPropertyOp59
 70
     1
102
RTVSPropertyOp60
 70
     1
102
RTVSPropertyOp61
 70
     1
102
RTVSPropertyOp62
 70
     1
  0
ENDSEC
  0
EOF
