  0
SECTION
  2
HEADER
  9
$ACADVER
  1
AC1015
  9
$ACADMAINTVER
 70
    20
  9
$DWGCODEPAGE
  3
ANSI_932
  9
$INSBASE
 10
0.0
 20
0.0
 30
0.0
  9
$EXTMIN
 10
10.00000153760811
 20
9.999999806846602
 30
0.0
  9
$EXTMAX
 10
805.150143537608
 20
566.7205558068466
 30
0.0
  9
$LIMMIN
 10
0.0000015376083411
 20
-0.0000001931532552
  9
$LIMMAX
 10
832.0000015376082
 20
573.5757573826044
  9
$ORTHOMODE
 70
     1
  9
$REGENMODE
 70
     1
  9
$FILLMODE
 70
     1
  9
$QTEXTMODE
 70
     0
  9
$MIRRTEXT
 70
     1
  9
$LTSCALE
 40
1.0
  9
$ATTMODE
 70
     1
  9
$TEXTSIZE
 40
2.5
  9
$TRACEWID
 40
1.0
  9
$TEXTSTYLE
  7
STANDARD
  9
$CLAYER
  8
0
  9
$CELTYPE
  6
BYLAYER
  9
$CECOLOR
 62
   256
  9
$CELTSCALE
 40
1.0
  9
$DISPSILH
 70
     0
  9
$DIMSCALE
 40
1.0
  9
$DIMASZ
 40
3.0
  9
$DIMEXO
 40
1.0
  9
$DIMDLI
 40
10.0
  9
$DIMRND
 40
0.0
  9
$DIMDLE
 40
0.0
  9
$DIMEXE
 40
1.0
  9
$DIMTP
 40
0.0
  9
$DIMTM
 40
0.0
  9
$DIMTXT
 40
3.2
  9
$DIMCEN
 40
0.0
  9
$DIMTSZ
 40
0.0
  9
$DIMTOL
 70
     0
  9
$DIMLIM
 70
     0
  9
$DIMTIH
 70
     0
  9
$DIMTOH
 70
     0
  9
$DIMSE1
 70
     0
  9
$DIMSE2
 70
     0
  9
$DIMTAD
 70
     3
  9
$DIMZIN
 70
     8
  9
$DIMBLK
  1

  9
$DIMASO
 70
     1
  9
$DIMSHO
 70
     1
  9
$DIMPOST
  1

  9
$DIMAPOST
  1

  9
$DIMALT
 70
     0
  9
$DIMALTD
 70
     2
  9
$DIMALTF
 40
25.4
  9
$DIMLFAC
 40
1.0
  9
$DIMTOFL
 70
     1
  9
$DIMTVP
 40
0.0
  9
$DIMTIX
 70
     0
  9
$DIMSOXD
 70
     0
  9
$DIMSAH
 70
     1
  9
$DIMBLK1
  1
OPEN
  9
$DIMBLK2
  1
OPEN
  9
$DIMSTYLE
  2
STANDARD
  9
$DIMCLRD
 70
     0
  9
$DIMCLRE
 70
     0
  9
$DIMCLRT
 70
     0
  9
$DIMTFAC
 40
1.0
  9
$DIMGAP
 40
1.0
  9
$DIMJUST
 70
     0
  9
$DIMSD1
 70
     0
  9
$DIMSD2
 70
     0
  9
$DIMTOLJ
 70
     1
  9
$DIMTZIN
 70
     0
  9
$DIMALTZ
 70
     0
  9
$DIMALTTZ
 70
     0
  9
$DIMUPT
 70
     0
  9
$DIMDEC
 70
     4
  9
$DIMTDEC
 70
     4
  9
$DIMALTU
 70
     2
  9
$DIMALTTD
 70
     2
  9
$DIMTXSTY
  7
STANDARD
  9
$DIMAUNIT
 70
     0
  9
$DIMADEC
 70
     0
  9
$DIMALTRND
 40
0.0
  9
$DIMAZIN
 70
     0
  9
$DIMDSEP
 70
    46
  9
$DIMATFIT
 70
     3
  9
$DIMFRAC
 70
     0
  9
$DIMLDRBLK
  1
OPEN
  9
$DIMLUNIT
 70
     2
  9
$DIMLWD
 70
    -2
  9
$DIMLWE
 70
    -2
  9
$DIMTMOVE
 70
     0
  9
$LUNITS
 70
     2
  9
$LUPREC
 70
     4
  9
$SKETCHINC
 40
1.0
  9
$FILLETRAD
 40
0.0
  9
$AUNITS
 70
     0
  9
$AUPREC
 70
     0
  9
$MENU
  1
.
  9
$ELEVATION
 40
0.0
  9
$PELEVATION
 40
0.0
  9
$THICKNESS
 40
0.0
  9
$LIMCHECK
 70
     0
  9
$CHAMFERA
 40
10.0
  9
$CHAMFERB
 40
10.0
  9
$CHAMFERC
 40
20.0
  9
$CHAMFERD
 40
0.0
  9
$SKPOLY
 70
     0
  9
$TDCREATE
 40
2454876.445328797
  9
$TDUCREATE
 40
2454876.070328797
  9
$TDUPDATE
 40
2457192.688730822
  9
$TDUUPDATE
 40
2457192.313730822
  9
$TDINDWG
 40
0.0027877662
  9
$TDUSRTIMER
 40
0.0027877546
  9
$USRTIMER
 70
     1
  9
$ANGBASE
 50
0.0
  9
$ANGDIR
 70
     0
  9
$PDMODE
 70
     0
  9
$PDSIZE
 40
0.0
  9
$PLINEWID
 40
0.0
  9
$SPLFRAME
 70
     0
  9
$SPLINETYPE
 70
     6
  9
$SPLINESEGS
 70
     8
  9
$HANDSEED
  5
539
  9
$SURFTAB1
 70
     6
  9
$SURFTAB2
 70
     6
  9
$SURFTYPE
 70
     6
  9
$SURFU
 70
     6
  9
$SURFV
 70
     6
  9
$UCSBASE
  2

  9
$UCSNAME
  2

  9
$UCSORG
 10
0.0
 20
0.0
 30
0.0
  9
$UCSXDIR
 10
1.0
 20
0.0
 30
0.0
  9
$UCSYDIR
 10
0.0
 20
1.0
 30
0.0
  9
$UCSORTHOREF
  2

  9
$UCSORTHOVIEW
 70
     0
  9
$UCSORGTOP
 10
0.0
 20
0.0
 30
0.0
  9
$UCSORGBOTTOM
 10
0.0
 20
0.0
 30
0.0
  9
$UCSORGLEFT
 10
0.0
 20
0.0
 30
0.0
  9
$UCSORGRIGHT
 10
0.0
 20
0.0
 30
0.0
  9
$UCSORGFRONT
 10
0.0
 20
0.0
 30
0.0
  9
$UCSORGBACK
 10
0.0
 20
0.0
 30
0.0
  9
$PUCSBASE
  2

  9
$PUCSNAME
  2

  9
$PUCSORG
 10
0.0
 20
0.0
 30
0.0
  9
$PUCSXDIR
 10
1.0
 20
0.0
 30
0.0
  9
$PUCSYDIR
 10
0.0
 20
1.0
 30
0.0
  9
$PUCSORTHOREF
  2

  9
$PUCSORTHOVIEW
 70
     0
  9
$PUCSORGTOP
 10
0.0
 20
0.0
 30
0.0
  9
$PUCSORGBOTTOM
 10
0.0
 20
0.0
 30
0.0
  9
$PUCSORGLEFT
 10
0.0
 20
0.0
 30
0.0
  9
$PUCSORGRIGHT
 10
0.0
 20
0.0
 30
0.0
  9
$PUCSORGFRONT
 10
0.0
 20
0.0
 30
0.0
  9
$PUCSORGBACK
 10
0.0
 20
0.0
 30
0.0
  9
$USERI1
 70
     0
  9
$USERI2
 70
     0
  9
$USERI3
 70
     0
  9
$USERI4
 70
     0
  9
$USERI5
 70
     0
  9
$USERR1
 40
0.0
  9
$USERR2
 40
0.0
  9
$USERR3
 40
0.0
  9
$USERR4
 40
0.0
  9
$USERR5
 40
0.0
  9
$WORLDVIEW
 70
     1
  9
$SHADEDGE
 70
     3
  9
$SHADEDIF
 70
    70
  9
$TILEMODE
 70
     1
  9
$MAXACTVP
 70
    48
  9
$PINSBASE
 10
0.0
 20
0.0
 30
0.0
  9
$PLIMCHECK
 70
     0
  9
$PEXTMIN
 10
1.000000000000000E+20
 20
1.000000000000000E+20
 30
1.000000000000000E+20
  9
$PEXTMAX
 10
-1.000000000000000E+20
 20
-1.000000000000000E+20
 30
-1.000000000000000E+20
  9
$PLIMMIN
 10
0.0
 20
0.0
  9
$PLIMMAX
 10
420.0
 20
297.0
  9
$UNITMODE
 70
     0
  9
$VISRETAIN
 70
     1
  9
$PLINEGEN
 70
     0
  9
$PSLTSCALE
 70
     1
  9
$TREEDEPTH
 70
  3020
  9
$CMLSTYLE
  2
STANDARD
  9
$CMLJUST
 70
     0
  9
$CMLSCALE
 40
20.0
  9
$PROXYGRAPHICS
 70
     1
  9
$MEASUREMENT
 70
     0
  9
$CELWEIGHT
370
    -1
  9
$ENDCAPS
280
     0
  9
$JOINSTYLE
280
     0
  9
$LWDISPLAY
290
     0
  9
$INSUNITS
 70
     0
  9
$HYPERLINKBASE
  1

  9
$STYLESHEET
  1

  9
$XEDIT
290
     1
  9
$CEPSNTYPE
380
     0
  9
$PSTYLEMODE
290
     1
  9
$FINGERPRINTGUID
  2
{3E44E404-C7AD-4E0F-8943-8A8D1E7C68B6}
  9
$VERSIONGUID
  2
{23BA0BEF-7B22-472E-88CF-BE03FABADB72}
  9
$EXTNAMES
290
     1
  9
$PSVPSCALE
 40
0.0
  9
$OLESTARTUP
290
     0
  0
ENDSEC
  0
SECTION
  2
CLASSES
  0
CLASS
  1
ACDBDICTIONARYWDFLT
  2
AcDbDictionaryWithDefault
  3
ObjectDBX Classes
 90
        0
280
     0
281
     0
  0
CLASS
  1
ACDBPLACEHOLDER
  2
AcDbPlaceHolder
  3
ObjectDBX Classes
 90
        0
280
     0
281
     0
  0
CLASS
  1
LAYOUT
  2
AcDbLayout
  3
ObjectDBX Classes
 90
        0
280
     0
281
     0
  0
CLASS
  1
MATERIAL
  2
AcDbMaterial
  3
ObjectDBX Classes
 90
     1153
280
     0
281
     0
  0
CLASS
  1
VISUALSTYLE
  2
AcDbVisualStyle
  3
ObjectDBX Classes
 90
     4095
280
     0
281
     0
  0
CLASS
  1
TABLESTYLE
  2
AcDbTableStyle
  3
ObjectDBX Classes
 90
     4095
280
     0
281
     0
  0
CLASS
  1
SCALE
  2
AcDbScale
  3
ObjectDBX Classes
 90
     1153
280
     0
281
     0
  0
CLASS
  1
MLEADERSTYLE
  2
AcDbMLeaderStyle
  3
ACDB_MLEADERSTYLE_CLASS
 90
     4095
280
     0
281
     0
  0
CLASS
  1
ACDBSECTIONVIEWSTYLE
  2
AcDbSectionViewStyle
  3
ObjectDBX Classes
 90
     1025
280
     0
281
     0
  0
CLASS
  1
ACDBDETAILVIEWSTYLE
  2
AcDbDetailViewStyle
  3
ObjectDBX Classes
 90
     1025
280
     0
281
     0
  0
CLASS
  1
DICTIONARYVAR
  2
AcDbDictionaryVar
  3
ObjectDBX Classes
 90
        0
280
     0
281
     0
  0
CLASS
  1
CELLSTYLEMAP
  2
AcDbCellStyleMap
  3
ObjectDBX Classes
 90
     1152
280
     0
281
     0
  0
ENDSEC
  0
SECTION
  2
TABLES
  0
TABLE
  2
VPORT
  5
8
330
0
100
AcDbSymbolTable
 70
     1
  0
VPORT
  5
483
330
8
100
AcDbSymbolTableRecord
100
AcDbViewportTableRecord
  2
*ACTIVE
 70
     0
 10
0.0
 20
0.0
 11
1.0
 21
1.0
 12
638.168682915101
 22
288.3413726225719
 13
0.0
 23
0.0
 14
10.0
 24
10.0
 15
10.0
 25
10.0
 16
0.0
 26
0.0
 36
1.0
 17
0.0
 27
0.0
 37
0.0
 40
560.9969675899991
 41
2.35006605019815
 42
50.0
 43
0.0
 44
0.0
 50
0.0
 51
0.0
 71
     0
 72
   100
 73
     1
 74
     0
 75
     0
 76
     0
 77
     0
 78
     0
281
     0
 65
     1
110
0.0
120
0.0
130
0.0
111
1.0
121
0.0
131
0.0
112
0.0
122
1.0
132
0.0
 79
     0
146
0.0
1001
ACAD_NAV_VCDISPLAY
1070
     3
  0
ENDTAB
  0
TABLE
  2
LTYPE
  5
5
330
0
100
AcDbSymbolTable
 70
     4
  0
LTYPE
  5
12
330
5
100
AcDbSymbolTableRecord
100
AcDbLinetypeTableRecord
  2
BYBLOCK
 70
     0
  3

 72
    65
 73
     0
 40
0.0
  0
LTYPE
  5
13
330
5
100
AcDbSymbolTableRecord
100
AcDbLinetypeTableRecord
  2
BYLAYER
 70
     0
  3

 72
    65
 73
     0
 40
0.0
  0
LTYPE
  5
14
330
5
100
AcDbSymbolTableRecord
100
AcDbLinetypeTableRecord
  2
CONTINUOUS
 70
     0
  3
Solid line
 72
    65
 73
     0
 40
0.0
  0
LTYPE
  5
4B
330
5
100
AcDbSymbolTableRecord
100
AcDbLinetypeTableRecord
  2
DASHED
 70
     0
  3
Dashed __ __ __ __ __ __ __ __ __ __ __ __ __ _
 72
    65
 73
     2
 40
19.04999999999999
 49
12.7
 74
     0
 49
-6.349999999999998
 74
     0
  0
LTYPE
  5
4C
330
5
100
AcDbSymbolTableRecord
100
AcDbLinetypeTableRecord
  2
CENTER
 70
     0
  3
Center ____ _ ____ _ ____ _ ____ _ ____ _ ____
 72
    65
 73
     4
 40
50.8
 49
31.75
 74
     0
 49
-6.349999999999998
 74
     0
 49
6.349999999999998
 74
     0
 49
-6.349999999999998
 74
     0
  0
LTYPE
  5
4D
330
5
100
AcDbSymbolTableRecord
100
AcDbLinetypeTableRecord
  2
PHANTOM
 70
     0
  3
Phantom ______  __  __  ______  __  __  ______
 72
    65
 73
     6
 40
63.5
 49
31.75
 74
     0
 49
-6.349999999999998
 74
     0
 49
6.349999999999998
 74
     0
 49
-6.349999999999998
 74
     0
 49
6.349999999999998
 74
     0
 49
-6.349999999999998
 74
     0
  0
ENDTAB
  0
TABLE
  2
LAYER
  5
2
330
0
100
AcDbSymbolTable
 70
     8
  0
LAYER
  5
E
102
{ACAD_XDICTIONARY
360
4DD
102
}
330
2
100
AcDbSymbolTableRecord
100
AcDbLayerTableRecord
  2
0
 70
     0
 62
     7
  6
CONTINUOUS
370
    -3
390
48C
  0
LAYER
  5
4E
102
{ACAD_XDICTIONARY
360
4DF
102
}
330
2
100
AcDbSymbolTableRecord
100
AcDbLayerTableRecord
  2
4
 70
     0
 62
     1
  6
CENTER
370
    -3
390
48C
  0
LAYER
  5
4F
102
{ACAD_XDICTIONARY
360
4E1
102
}
330
2
100
AcDbSymbolTableRecord
100
AcDbLayerTableRecord
  2
5
 70
     0
 62
     6
  6
PHANTOM
370
    -3
390
48C
  0
LAYER
  5
50
102
{ACAD_XDICTIONARY
360
4E3
102
}
330
2
100
AcDbSymbolTableRecord
100
AcDbLayerTableRecord
  2
1
 70
     0
 62
     7
  6
CONTINUOUS
370
    -3
390
48C
  0
LAYER
  5
51
102
{ACAD_XDICTIONARY
360
4E5
102
}
330
2
100
AcDbSymbolTableRecord
100
AcDbLayerTableRecord
  2
2
 70
     0
 62
     4
  6
CONTINUOUS
370
    -3
390
48C
  0
LAYER
  5
52
102
{ACAD_XDICTIONARY
360
4E7
102
}
330
2
100
AcDbSymbolTableRecord
100
AcDbLayerTableRecord
  2
3
 70
     0
 62
     2
  6
DASHED
370
    -3
390
48C
  0
LAYER
  5
53
102
{ACAD_XDICTIONARY
360
4E9
102
}
330
2
100
AcDbSymbolTableRecord
100
AcDbLayerTableRecord
  2
6
 70
     0
 62
     5
  6
CONTINUOUS
370
    -3
390
48C
  0
LAYER
  5
54
102
{ACAD_XDICTIONARY
360
4EB
102
}
330
2
100
AcDbSymbolTableRecord
100
AcDbLayerTableRecord
  2
7
 70
     0
 62
     3
  6
CONTINUOUS
370
    -3
390
48C
  0
ENDTAB
  0
TABLE
  2
STYLE
  5
3
330
0
100
AcDbSymbolTable
 70
     1
  0
STYLE
  5
F
330
3
100
AcDbSymbolTableRecord
100
AcDbTextStyleTableRecord
  2
STANDARD
 70
     0
 40
0.0
 41
1.0
 50
0.0
 71
     0
 42
2.5
  3
simplex.shx
  4

  0
ENDTAB
  0
TABLE
  2
VIEW
  5
6
330
0
100
AcDbSymbolTable
 70
     0
  0
ENDTAB
  0
TABLE
  2
UCS
  5
7
330
0
100
AcDbSymbolTable
 70
     0
  0
ENDTAB
  0
TABLE
  2
APPID
  5
9
330
0
100
AcDbSymbolTable
 70
     5
  0
APPID
  5
10
330
9
100
AcDbSymbolTableRecord
100
AcDbRegAppTableRecord
  2
ACAD
 70
     0
  0
APPID
  5
3E
330
9
100
AcDbSymbolTableRecord
100
AcDbRegAppTableRecord
  2
CONTENTTABDATA
 70
     0
  0
APPID
  5
3F
330
9
100
AcDbSymbolTableRecord
100
AcDbRegAppTableRecord
  2
CONTENTCURRENTTAB
 70
     0
  0
APPID
  5
4F7
330
9
100
AcDbSymbolTableRecord
100
AcDbRegAppTableRecord
  2
ACAD_NAV_VCDISPLAY
 70
     0
  0
APPID
  5
530
330
9
100
AcDbSymbolTableRecord
100
AcDbRegAppTableRecord
  2
ACAD_MLEADERVER
 70
     0
  0
ENDTAB
  0
TABLE
  2
DIMSTYLE
  5
A
330
0
100
AcDbSymbolTable
 70
     1
100
AcDbDimStyleTable
 71
     0
  0
DIMSTYLE
105
1D
330
A
100
AcDbSymbolTableRecord
100
AcDbDimStyleTableRecord
  2
STANDARD
 70
     0
 41
3.0
 42
1.0
 43
10.0
 44
1.0
 73
     0
 74
     0
 77
     3
 78
     8
140
3.2
141
0.0
147
1.0
172
     1
173
     1
340
F
341
2E
343
2E
344
2E
  0
ENDTAB
  0
TABLE
  2
BLOCK_RECORD
  5
1
330
0
100
AcDbSymbolTable
 70
     1
  0
BLOCK_RECORD
  5
18
102
{ACAD_XDICTIONARY
360
486
102
}
330
1
100
AcDbSymbolTableRecord
100
AcDbBlockTableRecord
  2
*MODEL_SPACE
340
4DA
  0
BLOCK_RECORD
  5
15
102
{ACAD_XDICTIONARY
360
484
102
}
330
1
100
AcDbSymbolTableRecord
100
AcDbBlockTableRecord
  2
*PAPER_SPACE
340
4DB
  0
BLOCK_RECORD
  5
2E
330
1
100
AcDbSymbolTableRecord
100
AcDbBlockTableRecord
  2
_OPEN
340
0
  0
ENDTAB
  0
ENDSEC
  0
SECTION
  2
BLOCKS
  0
BLOCK
  5
19
330
18
100
AcDbEntity
  8
0
100
AcDbBlockBegin
  2
*MODEL_SPACE
 70
     0
 10
0.0
 20
0.0
 30
0.0
  3
*MODEL_SPACE
  1

  0
ENDBLK
  5
1A
330
18
100
AcDbEntity
  8
0
100
AcDbBlockEnd
  0
BLOCK
  5
16
330
15
100
AcDbEntity
 67
     1
  8
0
100
AcDbBlockBegin
  2
*PAPER_SPACE
 70
     0
 10
0.0
 20
0.0
 30
0.0
  3
*PAPER_SPACE
  1

  0
ENDBLK
  5
17
330
15
100
AcDbEntity
 67
     1
  8
0
100
AcDbBlockEnd
  0
BLOCK
  5
2F
330
2E
100
AcDbEntity
  8
0
100
AcDbBlockBegin
  2
_OPEN
 70
     0
 10
0.0
 20
0.0
 30
0.0
  3
_OPEN
  1

  0
LINE
  5
30
330
2E
100
AcDbEntity
  8
0
  6
ByBlock
 62
     0
100
AcDbLine
 10
-1.0
 20
0.1666666666666666
 30
0.0
 11
0.0
 21
0.0
 31
0.0
  0
LINE
  5
31
330
2E
100
AcDbEntity
  8
0
  6
ByBlock
 62
     0
100
AcDbLine
 10
0.0
 20
0.0
 30
0.0
 11
-1.0
 21
-0.1666666666666666
 31
0.0
  0
LINE
  5
32
330
2E
100
AcDbEntity
  8
0
  6
ByBlock
 62
     0
100
AcDbLine
 10
0.0
 20
0.0
 30
0.0
 11
-1.0
 21
0.0
 31
0.0
  0
ENDBLK
  5
33
330
2E
100
AcDbEntity
  8
0
100
AcDbBlockEnd
  0
ENDSEC
  0
SECTION
  2
ENTITIES
  0
LINE
  5
28A
330
18
100
AcDbEntity
  8
1
  6
Continuous
100
AcDbLine
 10
250.342673537608
 20
379.1770958068465
 30
0.0
 11
271.4591535376081
 21
281.7092778068464
 31
0.0
  0
LINE
  5
28B
330
18
100
AcDbEntity
  8
1
  6
Continuous
100
AcDbLine
 10
331.2907295376081
 20
379.1770958068465
 30
0.0
 11
310.1742495376079
 21
281.7092778068464
 31
0.0
  0
ARC
  5
28C
330
18
100
AcDbEntity
  8
1
  6
Continuous
100
AcDbCircle
 10
-88.98474446239189
 20
347.2331638068464
 30
0.0
 40
200.0
100
AcDbArc
 50
340.4494319999999
 51
358.503623
  0
ARC
  5
28D
330
18
100
AcDbEntity
  8
1
  6
Continuous
100
AcDbCircle
 10
-88.98474446239189
 20
347.2331638068464
 30
0.0
 40
196.8
100
AcDbArc
 50
340.4494319999999
 51
358.503623
  0
ARC
  5
28E
330
18
100
AcDbEntity
  8
1
  6
Continuous
100
AcDbCircle
 10
227.2847055376081
 20
347.2331638068464
 30
0.0
 40
196.8
100
AcDbArc
 50
181.496377
 51
199.5505679999997
  0
ARC
  5
28F
330
18
100
AcDbEntity
  8
1
  6
Continuous
100
AcDbCircle
 10
227.2847055376081
 20
347.2331638068464
 30
0.0
 40
200.0
100
AcDbArc
 50
181.496377
 51
199.5505679999997
  0
LINE
  5
290
330
18
100
AcDbEntity
  8
1
  6
Continuous
100
AcDbLine
 10
43.49998053760809
 20
266.0964408068466
 30
0.0
 11
43.49998053760809
 21
379.0103888068464
 31
0.0
  0
LINE
  5
291
330
18
100
AcDbEntity
  8
1
  6
Continuous
100
AcDbLine
 10
94.79998053760807
 20
266.0964408068466
 30
0.0
 11
94.79998053760807
 21
379.0103888068464
 31
0.0
  0
LINE
  5
292
330
18
100
AcDbEntity
  8
1
  6
Continuous
100
AcDbLine
 10
48.1499805376081
 20
226.7936118068466
 30
0.0
 11
48.1499805376081
 21
343.2268508068464
 31
0.0
  0
LINE
  5
293
330
18
100
AcDbEntity
  8
1
  6
Continuous
100
AcDbLine
 10
90.14998053760812
 20
226.7936118068466
 30
0.0
 11
90.14998053760812
 21
343.2268508068464
 31
0.0
  0
LINE
  5
294
330
18
100
AcDbEntity
  8
4
  6
CENTER
100
AcDbLine
 10
69.14998053760811
 20
392.0124178068466
 30
0.0
 11
69.14998053760811
 21
214.5070098068466
 31
0.0
  0
ARC
  5
295
330
18
100
AcDbEntity
  8
1
  6
Continuous
100
AcDbCircle
 10
290.8167015376081
 20
285.0102308068466
 30
0.0
 40
65.0
100
AcDbArc
 50
119.7905379999999
 51
60.209462
  0
ARC
  5
296
330
18
100
AcDbEntity
  8
1
  6
Continuous
100
AcDbCircle
 10
290.8167015376081
 20
285.0102308068466
 30
0.0
 40
44.5
100
AcDbArc
 50
128.382031
 51
51.61796900000001
  0
LINE
  5
297
330
18
100
AcDbEntity
  8
4
  6
CENTER
100
AcDbLine
 10
290.8167015376081
 20
214.0102308068466
 30
0.0
 11
290.8167015376081
 21
392.7235558068464
 31
0.0
  0
LINE
  5
298
330
18
100
AcDbEntity
  8
1
  6
Continuous
100
AcDbLine
 10
304.8167015376081
 20
381.2587378068465
 30
0.0
 11
304.8167015376081
 21
278.2382018068465
 31
0.0
  0
LINE
  5
299
330
18
100
AcDbEntity
  8
1
  6
Continuous
100
AcDbLine
 10
276.8167015376081
 20
278.0912438068465
 30
0.0
 11
276.8167015376081
 21
381.2963248068466
 31
0.0
  0
TEXT
  5
29A
330
18
100
AcDbEntity
  8
6
  6
Continuous
100
AcDbText
 10
27.97951253760811
 20
10.04873680684658
 30
0.0
 40
1.399999999999999
  1
6
100
AcDbText
  0
TEXT
  5
29B
330
18
100
AcDbEntity
  8
7
  6
Continuous
100
AcDbText
 10
10.00000153760811
 20
25.9999998068466
 30
0.0
 40
3.0
  1
CODE No.9447
100
AcDbText
  0
TEXT
  5
29C
330
18
100
AcDbEntity
  8
7
  6
Continuous
100
AcDbText
 10
10.00000153760811
 20
17.9999998068466
 30
0.0
 40
3.0
  1
TYPE No.608HB-P
100
AcDbText
  0
TEXT
  5
29D
330
18
100
AcDbEntity
  8
1
  6
Continuous
100
AcDbText
 10
10.00000153760811
 20
9.999999806846602
 30
0.0
 40
1.399999999999999
  1
LAYER
100
AcDbText
  0
TEXT
  5
29E
330
18
100
AcDbEntity
  8
1
  6
Continuous
100
AcDbText
 10
17.9795125376081
 20
10.04873680684658
 30
0.0
 40
1.399999999999999
  1
1
100
AcDbText
  0
TEXT
  5
29F
330
18
100
AcDbEntity
  8
5
  6
PHANTOM
100
AcDbText
 10
25.97951253760811
 20
10.04873680684658
 30
0.0
 40
1.399999999999999
  1
5
100
AcDbText
  0
TEXT
  5
2A0
330
18
100
AcDbEntity
  8
2
  6
Continuous
100
AcDbText
 10
19.9795125376081
 20
10.04873680684658
 30
0.0
 40
1.399999999999999
  1
2
100
AcDbText
  0
TEXT
  5
2A1
330
18
100
AcDbEntity
  8
3
  6
DASHED
100
AcDbText
 10
21.97951253760811
 20
10.04873680684658
 30
0.0
 40
1.399999999999999
  1
3
100
AcDbText
  0
TEXT
  5
2A2
330
18
100
AcDbEntity
  8
4
  6
CENTER
100
AcDbText
 10
23.9795125376081
 20
10.04873680684658
 30
0.0
 40
1.399999999999999
  1
4
100
AcDbText
  0
TEXT
  5
2A3
330
18
100
AcDbEntity
  8
7
  6
Continuous
100
AcDbText
 10
29.97951253760811
 20
10.04873680684658
 30
0.0
 40
1.399999999999999
  1
7
100
AcDbText
  0
LINE
  5
2A4
330
18
100
AcDbEntity
  8
1
  6
Continuous
100
AcDbLine
 10
28.05900553760811
 20
294.8251858068464
 30
0.0
 11
34.27329753760811
 21
294.8251858068464
 31
0.0
  0
LINE
  5
2A5
330
18
100
AcDbEntity
  8
1
  6
Continuous
100
AcDbLine
 10
28.05900553760811
 20
289.9177078068465
 30
0.0
 11
35.67327953760812
 21
289.9177078068465
 31
0.0
  0
LINE
  5
2A6
330
18
100
AcDbEntity
  8
1
  6
Continuous
100
AcDbLine
 10
28.05900553760811
 20
280.1027538068465
 30
0.0
 11
37.29981653760811
 21
280.1027538068465
 31
0.0
  0
LINE
  5
2A7
330
18
100
AcDbEntity
  8
1
  6
Continuous
100
AcDbLine
 10
28.05900553760811
 20
275.1952758068465
 30
0.0
 11
37.29981653760811
 21
275.1952758068465
 31
0.0
  0
LINE
  5
2A8
330
18
100
AcDbEntity
  8
4
  6
CENTER
100
AcDbLine
 10
115.5252305376081
 20
285.0102308068466
 30
0.0
 11
20.69948753760811
 21
285.0102308068466
 31
0.0
  0
LINE
  5
2A9
330
18
100
AcDbEntity
  8
1
  6
Continuous
100
AcDbLine
 10
27.29981653760811
 20
276.5102308068465
 30
0.0
 11
27.29981653760811
 21
293.5102308068464
 31
0.0
  0
ARC
  5
2AA
330
18
100
AcDbEntity
  8
1
  6
Continuous
100
AcDbCircle
 10
43.5406275376081
 20
285.0102308068466
 30
0.0
 40
16.24081099999999
100
AcDbArc
 50
162.412046
 51
197.5879539999999
  0
LINE
  5
2AB
330
18
100
AcDbEntity
  8
1
  6
Continuous
100
AcDbLine
 10
25.00000153760811
 20
290.2102308068466
 30
0.0
 11
25.00000153760811
 21
279.8102308068464
 31
0.0
  0
LINE
  5
2AC
330
18
100
AcDbEntity
  8
1
  6
Continuous
100
AcDbLine
 10
25.80000153760811
 20
291.0102308068464
 30
0.0
 11
25.80000153760811
 21
279.0102308068465
 31
0.0
  0
ARC
  5
2AD
330
18
100
AcDbEntity
  8
1
  6
Continuous
100
AcDbCircle
 10
31.64471553760811
 20
277.6490148068463
 30
0.0
 40
4.344898999999998
100
AcDbArc
 50
145.615753
 51
205.615753
  0
LINE
  5
2AE
330
18
100
AcDbEntity
  8
1
  6
Continuous
100
AcDbLine
 10
28.05900553760811
 20
275.1952758068465
 30
0.0
 11
27.29981653760811
 21
276.5102308068465
 31
0.0
  0
LINE
  5
2AF
330
18
100
AcDbEntity
  8
1
  6
Continuous
100
AcDbLine
 10
25.80000153760811
 20
279.0102308068465
 30
0.0
 11
27.29996053760811
 21
279.0102308068465
 31
0.0
  0
LINE
  5
2B0
330
18
100
AcDbEntity
  8
2
  6
Continuous
100
AcDbLine
 10
25.12350153760811
 20
279.6867308068466
 30
0.0
 11
27.29981653760811
 21
279.6867308068466
 31
0.0
  0
LINE
  5
2B1
330
18
100
AcDbEntity
  8
1
  6
Continuous
100
AcDbLine
 10
25.00000153760811
 20
279.8102308068464
 30
0.0
 11
25.80000153760811
 21
279.0102308068465
 31
0.0
  0
LINE
  5
2B2
330
18
100
AcDbEntity
  8
1
  6
Continuous
100
AcDbLine
 10
28.05900553760811
 20
294.8251858068464
 30
0.0
 11
27.29981653760811
 21
293.5102308068464
 31
0.0
  0
ARC
  5
2B3
330
18
100
AcDbEntity
  8
1
  6
Continuous
100
AcDbCircle
 10
31.64471553760811
 20
292.3714468068464
 30
0.0
 40
4.344898999999998
100
AcDbArc
 50
154.3842469999999
 51
214.384247
  0
LINE
  5
2B4
330
18
100
AcDbEntity
  8
1
  6
Continuous
100
AcDbLine
 10
25.80000153760811
 20
291.0102308068464
 30
0.0
 11
27.29996053760811
 21
291.0102308068464
 31
0.0
  0
LINE
  5
2B5
330
18
100
AcDbEntity
  8
2
  6
Continuous
100
AcDbLine
 10
25.12350153760811
 20
290.3337308068464
 30
0.0
 11
27.29981653760811
 21
290.3337308068464
 31
0.0
  0
LINE
  5
2B6
330
18
100
AcDbEntity
  8
1
  6
Continuous
100
AcDbLine
 10
25.80000153760811
 20
291.0102308068464
 30
0.0
 11
25.00000153760811
 21
290.2102308068466
 31
0.0
  0
LINE
  5
2B7
330
18
100
AcDbEntity
  8
1
  6
Continuous
100
AcDbLine
 10
105.1514755376081
 20
279.5254028068465
 30
0.0
 11
99.22152453760814
 21
279.5254028068465
 31
0.0
  0
LINE
  5
2B8
330
18
100
AcDbEntity
  8
1
  6
Continuous
100
AcDbLine
 10
105.1514755376081
 20
274.0405758068463
 30
0.0
 11
98.10762953760814
 21
274.0405758068463
 31
0.0
  0
LINE
  5
2B9
330
18
100
AcDbEntity
  8
1
  6
Continuous
100
AcDbLine
 10
94.34998053760812
 20
259.2612418068465
 30
0.0
 11
94.34998053760812
 21
310.7592208068465
 31
0.0
  0
LINE
  5
2BA
330
18
100
AcDbEntity
  8
1
  6
Continuous
100
AcDbLine
 10
43.94998053760811
 20
259.2612418068465
 30
0.0
 11
43.94998053760811
 21
310.7592208068465
 31
0.0
  0
ARC
  5
2BB
330
18
100
AcDbEntity
  8
1
  6
Continuous
100
AcDbCircle
 10
69.14998053760811
 20
370.0102318068464
 30
0.0
 40
150.0
100
AcDbArc
 50
264.020843
 51
275.9791569999998
  0
ARC
  5
2BC
330
18
100
AcDbEntity
  8
1
  6
Continuous
100
AcDbCircle
 10
54.14998053760811
 20
226.7936118068466
 30
0.0
 40
6.0
100
AcDbArc
 50
180.0
 51
264.020843
  0
LINE
  5
2BD
330
18
100
AcDbEntity
  8
1
  6
Continuous
100
AcDbLine
 10
46.18865953760812
 20
256.7749368068465
 30
0.0
 11
48.1499805376081
 21
256.5687938068464
 31
0.0
  0
ARC
  5
2BE
330
18
100
AcDbEntity
  8
1
  6
Continuous
100
AcDbCircle
 10
46.44998053760811
 20
259.2612418068465
 30
0.0
 40
2.5
100
AcDbArc
 50
180.0
 51
264.0
  0
ARC
  5
2BF
330
18
100
AcDbEntity
  8
1
  6
Continuous
100
AcDbCircle
 10
84.14998053760813
 20
226.7936118068466
 30
0.0
 40
6.0
100
AcDbArc
 50
275.9791569999998
 51
0.0
  0
LINE
  5
2C0
330
18
100
AcDbEntity
  8
1
  6
Continuous
100
AcDbLine
 10
92.11130153760812
 20
256.7749368068465
 30
0.0
 11
90.14998053760812
 21
256.5687938068464
 31
0.0
  0
ARC
  5
2C1
330
18
100
AcDbEntity
  8
1
  6
Continuous
100
AcDbCircle
 10
91.84998053760812
 20
259.2612418068465
 30
0.0
 40
2.5
100
AcDbArc
 50
276.0
 51
0.0
  0
ARC
  5
2C2
330
18
100
AcDbEntity
  8
1
  6
Continuous
100
AcDbCircle
 10
14.54998053760811
 20
271.6884808068466
 30
0.0
 40
28.94999999999999
100
AcDbArc
 50
0.0
 51
19.55056799999999
  0
LINE
  5
2C3
330
18
100
AcDbEntity
  8
1
  6
Continuous
100
AcDbLine
 10
37.29981653760811
 20
284.7372298068464
 30
0.0
 11
37.29981653760811
 21
274.2602308068465
 31
0.0
  0
ARC
  5
2C4
330
18
100
AcDbEntity
  8
1
  6
Continuous
100
AcDbCircle
 10
14.54998053760811
 20
271.6884808068466
 30
0.0
 40
25.75
100
AcDbArc
 50
0.0
 51
19.55056799999999
  0
LINE
  5
2C5
330
18
100
AcDbEntity
  8
1
  6
Continuous
100
AcDbLine
 10
37.29981653760811
 20
274.2602308068465
 30
0.0
 11
40.17123353760811
 21
274.2602308068465
 31
0.0
  0
LINE
  5
2C6
330
18
100
AcDbEntity
  8
1
  6
Continuous
100
AcDbLine
 10
40.2999805376081
 20
266.0964408068466
 30
0.0
 11
40.2999805376081
 21
271.6884808068466
 31
0.0
  0
LINE
  5
2C7
330
18
100
AcDbEntity
  8
1
  6
Continuous
100
AcDbLine
 10
40.2999805376081
 20
266.0964408068466
 30
0.0
 11
43.49998053760809
 21
266.0964408068466
 31
0.0
  0
LINE
  5
2C8
330
18
100
AcDbEntity
  8
1
  6
Continuous
100
AcDbLine
 10
43.49998053760809
 20
272.3102308068463
 30
0.0
 11
43.94998053760811
 21
272.3102308068463
 31
0.0
  0
LINE
  5
2C9
330
18
100
AcDbEntity
  8
1
  6
Continuous
100
AcDbLine
 10
46.18865953760812
 20
313.2455258068464
 30
0.0
 11
48.1499805376081
 21
313.4516688068464
 31
0.0
  0
LINE
  5
2CA
330
18
100
AcDbEntity
  8
1
  6
Continuous
100
AcDbLine
 10
43.49998053760809
 20
297.7102308068466
 30
0.0
 11
43.94998053760811
 21
297.7102308068466
 31
0.0
  0
ARC
  5
2CB
330
18
100
AcDbEntity
  8
1
  6
Continuous
100
AcDbCircle
 10
46.44998053760811
 20
310.7592208068465
 30
0.0
 40
2.5
100
AcDbArc
 50
96.0
 51
180.0
  0
ARC
  5
2CC
330
18
100
AcDbEntity
  8
1
  6
Continuous
100
AcDbCircle
 10
123.7499805376081
 20
271.6884808068466
 30
0.0
 40
28.94999999999999
100
AcDbArc
 50
160.449432
 51
180.0
  0
ARC
  5
2CD
330
18
100
AcDbEntity
  8
1
  6
Continuous
100
AcDbCircle
 10
123.7499805376081
 20
271.6884808068466
 30
0.0
 40
25.75
100
AcDbArc
 50
160.449432
 51
180.0
  0
LINE
  5
2CE
330
18
100
AcDbEntity
  8
1
  6
Continuous
100
AcDbLine
 10
97.99998053760813
 20
266.0964408068466
 30
0.0
 11
97.99998053760813
 21
271.6884808068466
 31
0.0
  0
LINE
  5
2CF
330
18
100
AcDbEntity
  8
1
  6
Continuous
100
AcDbLine
 10
97.99998053760813
 20
266.0964408068466
 30
0.0
 11
94.79998053760807
 21
266.0964408068466
 31
0.0
  0
LINE
  5
2D0
330
18
100
AcDbEntity
  8
1
  6
Continuous
100
AcDbLine
 10
94.79998053760807
 20
272.3102308068463
 30
0.0
 11
94.34998053760812
 21
272.3102308068463
 31
0.0
  0
LINE
  5
2D1
330
18
100
AcDbEntity
  8
1
  6
Continuous
100
AcDbLine
 10
94.79998053760807
 20
297.7102308068466
 30
0.0
 11
94.34998053760812
 21
297.7102308068466
 31
0.0
  0
LINE
  5
2D2
330
18
100
AcDbEntity
  8
1
  6
Continuous
100
AcDbLine
 10
92.11130153760812
 20
313.2455258068464
 30
0.0
 11
90.14998053760812
 21
313.4516688068464
 31
0.0
  0
ARC
  5
2D3
330
18
100
AcDbEntity
  8
1
  6
Continuous
100
AcDbCircle
 10
91.84998053760812
 20
310.7592208068465
 30
0.0
 40
2.5
100
AcDbArc
 50
0.0
 51
84.0
  0
LINE
  5
2D4
330
18
100
AcDbEntity
  8
1
  6
Continuous
100
AcDbLine
 10
105.9999805376081
 20
275.5102308068464
 30
0.0
 11
105.9999805376081
 21
294.5102308068464
 31
0.0
  0
ARC
  5
2D5
330
18
100
AcDbEntity
  8
1
  6
Continuous
100
AcDbCircle
 10
87.84848653760809
 20
285.0102308068466
 30
0.0
 40
18.151494
100
AcDbArc
 50
342.4120459999998
 51
17.587954
  0
ARC
  5
2D6
330
18
100
AcDbEntity
  8
1
  6
Continuous
100
AcDbCircle
 10
101.1439175376081
 20
276.7829898068465
 30
0.0
 40
4.856062999999998
100
AcDbArc
 50
334.384247
 51
34.38424699999997
  0
LINE
  5
2D7
330
18
100
AcDbEntity
  8
1
  6
Continuous
100
AcDbLine
 10
105.1514755376081
 20
274.0405758068463
 30
0.0
 11
105.9999805376081
 21
275.5102308068464
 31
0.0
  0
LINE
  5
2DB
330
18
100
AcDbEntity
  8
1
  6
Continuous
100
AcDbLine
 10
105.1514755376081
 20
295.9798858068463
 30
0.0
 11
105.9999805376081
 21
294.5102308068464
 31
0.0
  0
ARC
  5
2DC
330
18
100
AcDbEntity
  8
1
  6
Continuous
100
AcDbCircle
 10
101.1439175376081
 20
293.2374718068465
 30
0.0
 40
4.856062999999998
100
AcDbArc
 50
325.6157529999998
 51
25.615753
  0
LINE
  5
2DD
330
18
100
AcDbEntity
  8
1
  6
Continuous
100
AcDbLine
 10
105.1514755376081
 20
290.4950588068463
 30
0.0
 11
102.798433537608
 21
290.4950588068463
 31
0.0
  0
LINE
  5
2DE
330
18
100
AcDbEntity
  8
1
  6
Continuous
100
AcDbLine
 10
105.1514755376081
 20
295.9798858068463
 30
0.0
 11
104.3364945376081
 21
295.9798858068463
 31
0.0
  0
CIRCLE
  5
2DF
330
18
100
AcDbEntity
  8
1
  6
Continuous
100
AcDbCircle
 10
234.816701537608
 20
116.6499788068465
 30
0.0
 40
5.25
  0
CIRCLE
  5
2E0
330
18
100
AcDbEntity
  8
1
  6
Continuous
100
AcDbCircle
 10
234.816701537608
 20
116.6499788068465
 30
0.0
 40
6.5
  0
CIRCLE
  5
2E1
330
18
100
AcDbEntity
  8
1
  6
Continuous
100
AcDbCircle
 10
234.816701537608
 20
116.6499788068465
 30
0.0
 40
9.25
  0
CIRCLE
  5
2E2
330
18
100
AcDbEntity
  8
1
  6
Continuous
100
AcDbCircle
 10
346.8167015376082
 20
116.6499788068465
 30
0.0
 40
9.25
  0
CIRCLE
  5
2E3
330
18
100
AcDbEntity
  8
1
  6
Continuous
100
AcDbCircle
 10
346.8167015376082
 20
116.6499788068465
 30
0.0
 40
6.5
  0
ARC
  5
2E4
330
18
100
AcDbEntity
  8
1
  6
Continuous
100
AcDbCircle
 10
248.6787005376081
 20
94.95774080684659
 30
0.0
 40
28.8
100
AcDbArc
 50
43.469657
 51
84.445492
  0
ARC
  5
2E5
330
18
100
AcDbEntity
  8
1
  6
Continuous
100
AcDbCircle
 10
332.954703537608
 20
94.95774080684659
 30
0.0
 40
28.8
100
AcDbArc
 50
95.559208
 51
136.5303429999999
  0
CIRCLE
  5
2E6
330
18
100
AcDbEntity
  8
1
  6
Continuous
100
AcDbCircle
 10
346.8167015376082
 20
116.6499788068465
 30
0.0
 40
5.25
  0
LINE
  5
2E7
330
18
100
AcDbEntity
  8
4
  6
CENTER
100
AcDbLine
 10
346.8167015376082
 20
127.1499788068465
 30
0.0
 11
346.8167015376082
 21
106.1499788068466
 31
0.0
  0
ARC
  5
2E8
330
18
100
AcDbEntity
  8
1
  6
Continuous
100
AcDbCircle
 10
332.954703537608
 20
94.95774080684659
 30
0.0
 40
32.0
100
AcDbArc
 50
91.48114099999999
 51
136.5303429999999
  0
LINE
  5
2E9
330
18
100
AcDbEntity
  8
1
  6
Continuous
100
AcDbLine
 10
290.8167015376081
 20
113.9999798068466
 30
0.0
 11
290.8167015376081
 21
121.1514738068464
 31
0.0
  0
LINE
  5
2EA
330
18
100
AcDbEntity
  8
1
  6
Continuous
100
AcDbLine
 10
281.3167015376081
 20
121.9999798068465
 30
0.0
 11
281.3167015376081
 21
113.9999798068466
 31
0.0
  0
LINE
  5
2EB
330
18
100
AcDbEntity
  8
1
  6
Continuous
100
AcDbLine
 10
300.3167015376081
 20
121.9999798068465
 30
0.0
 11
300.3167015376081
 21
113.9999798068466
 31
0.0
  0
ARC
  5
2EC
330
18
100
AcDbEntity
  8
1
  6
Continuous
100
AcDbCircle
 10
255.7916295376079
 20
111.9281868068466
 30
0.0
 40
4.5
100
AcDbArc
 50
296.797317
 51
116.797317
  0
ARC
  5
2ED
330
18
100
AcDbEntity
  8
1
  6
Continuous
100
AcDbCircle
 10
248.6787005376081
 20
94.95774080684659
 30
0.0
 40
32.0
100
AcDbArc
 50
43.469657
 51
88.51885899999997
  0
ARC
  5
2EE
330
18
100
AcDbEntity
  8
1
  6
Continuous
100
AcDbCircle
 10
234.816701537608
 20
116.6499788068465
 30
0.0
 40
11.5
100
AcDbArc
 50
47.90745900000001
 51
180.0
  0
LINE
  5
2EF
330
18
100
AcDbEntity
  8
4
  6
CENTER
100
AcDbLine
 10
234.816701537608
 20
127.1499788068465
 30
0.0
 11
234.816701537608
 21
106.1499788068466
 31
0.0
  0
LINE
  5
2F0
330
18
100
AcDbEntity
  8
4
  6
CENTER
100
AcDbLine
 10
290.8167015376081
 20
36.29990580684661
 30
0.0
 11
290.8167015376081
 21
133.0242218068466
 31
0.0
  0
ARC
  5
2F1
330
18
100
AcDbEntity
  8
1
  6
Continuous
100
AcDbCircle
 10
346.8167015376082
 20
116.6499788068465
 30
0.0
 40
11.5
100
AcDbArc
 50
0.0
 51
132.0925409999997
  0
LINE
  5
2F2
330
18
100
AcDbEntity
  8
1
  6
Continuous
100
AcDbLine
 10
316.5656905376081
 20
110.3499788068466
 30
0.0
 11
265.067711537608
 21
110.3499788068466
 31
0.0
  0
LINE
  5
2F3
330
18
100
AcDbEntity
  8
1
  6
Continuous
100
AcDbLine
 10
349.0333205376081
 20
64.1499788068466
 30
0.0
 11
232.600081537608
 21
64.1499788068466
 31
0.0
  0
LINE
  5
2F4
330
18
100
AcDbEntity
  8
1
  6
Continuous
100
AcDbLine
 10
316.5656905376081
 20
59.9499788068466
 30
0.0
 11
265.067711537608
 21
59.9499788068466
 31
0.0
  0
LINE
  5
2F5
330
18
100
AcDbEntity
  8
1
  6
Continuous
100
AcDbLine
 10
349.0333205376081
 20
106.1499788068466
 30
0.0
 11
232.600081537608
 21
106.1499788068466
 31
0.0
  0
ARC
  5
2F6
330
18
100
AcDbEntity
  8
1
  6
Continuous
100
AcDbCircle
 10
332.954703537608
 20
75.34221680684661
 30
0.0
 40
28.8
100
AcDbArc
 50
223.4696569999999
 51
264.4407919999998
  0
ARC
  5
2F7
330
18
100
AcDbEntity
  8
1
  6
Continuous
100
AcDbCircle
 10
332.954703537608
 20
75.34221680684661
 30
0.0
 40
32.0
100
AcDbArc
 50
223.4696569999999
 51
268.5188589999999
  0
LINE
  5
2F8
330
18
100
AcDbEntity
  8
4
  6
CENTER
100
AcDbLine
 10
218.641305537608
 20
85.14997880684658
 30
0.0
 11
362.7612375376081
 21
85.14997880684658
 31
0.0
  0
CIRCLE
  5
2F9
330
18
100
AcDbEntity
  8
1
  6
Continuous
100
AcDbCircle
 10
234.816701537608
 20
53.6499788068466
 30
0.0
 40
9.25
  0
ARC
  5
2FA
330
18
100
AcDbEntity
  8
1
  6
Continuous
100
AcDbCircle
 10
269.3167015376081
 20
85.14997880684658
 30
0.0
 40
34.5
100
AcDbArc
 50
217.4952499999999
 51
243.2042279999999
  0
LINE
  5
2FB
330
18
100
AcDbEntity
  8
4
  6
CENTER
100
AcDbLine
 10
224.316701537608
 20
53.6499788068466
 30
0.0
 11
245.316701537608
 21
53.6499788068466
 31
0.0
  0
LINE
  5
2FC
330
18
100
AcDbEntity
  8
4
  6
CENTER
100
AcDbLine
 10
224.316701537608
 20
116.6499788068465
 30
0.0
 11
245.316701537608
 21
116.6499788068465
 31
0.0
  0
ARC
  5
2FD
330
18
100
AcDbEntity
  8
1
  6
Continuous
100
AcDbCircle
 10
269.3167015376081
 20
85.14997880684658
 30
0.0
 40
34.5
100
AcDbArc
 50
116.797317
 51
142.5047499999998
  0
ARC
  5
2FE
330
18
100
AcDbEntity
  8
1
  6
Continuous
100
AcDbCircle
 10
234.816701537608
 20
53.6499788068466
 30
0.0
 40
11.5
100
AcDbArc
 50
180.0
 51
312.0925409999998
  0
ARC
  5
2FF
330
18
100
AcDbEntity
  8
1
  6
Continuous
100
AcDbCircle
 10
232.600081537608
 20
70.1499788068466
 30
0.0
 40
6.0
100
AcDbArc
 50
185.979157
 51
270.0
  0
LINE
  5
300
330
18
100
AcDbEntity
  8
1
  6
Continuous
100
AcDbLine
 10
223.316701537608
 20
53.6499788068466
 30
0.0
 11
223.316701537608
 21
116.6499788068465
 31
0.0
  0
LINE
  5
301
330
18
100
AcDbEntity
  8
4
  6
CENTER
100
AcDbLine
 10
234.816701537608
 20
64.1499788068466
 30
0.0
 11
234.816701537608
 21
43.14997880684658
 31
0.0
  0
CIRCLE
  5
302
330
18
100
AcDbEntity
  8
1
  6
Continuous
100
AcDbCircle
 10
234.816701537608
 20
53.6499788068466
 30
0.0
 40
6.5
  0
CIRCLE
  5
303
330
18
100
AcDbEntity
  8
1
  6
Continuous
100
AcDbCircle
 10
234.816701537608
 20
53.6499788068466
 30
0.0
 40
5.25
  0
ARC
  5
304
330
18
100
AcDbEntity
  8
1
  6
Continuous
100
AcDbCircle
 10
375.8167015376081
 20
85.14997880684658
 30
0.0
 40
150.0
100
AcDbArc
 50
174.0208429999999
 51
185.979157
  0
ARC
  5
305
330
18
100
AcDbEntity
  8
1
  6
Continuous
100
AcDbCircle
 10
232.600081537608
 20
100.1499788068465
 30
0.0
 40
6.0
100
AcDbArc
 50
90.0
 51
174.0208429999999
  0
ARC
  5
306
330
18
100
AcDbEntity
  8
1
  6
Continuous
100
AcDbCircle
 10
278.8167015376081
 20
46.77263980684659
 30
0.0
 40
12.727338
100
AcDbArc
 50
90.0
 51
136.5303429999999
  0
ARC
  5
307
330
18
100
AcDbEntity
  8
1
  6
Continuous
100
AcDbCircle
 10
278.8167015376081
 20
46.7726408068466
 30
0.0
 40
9.527338
100
AcDbArc
 50
90.0
 51
136.5303429999999
  0
ARC
  5
308
330
18
100
AcDbEntity
  8
1
  6
Continuous
100
AcDbCircle
 10
253.810528537608
 20
51.2566808068466
 30
0.0
 40
9.0
100
AcDbArc
 50
224.3477799999999
 51
241.4256099999998
  0
ARC
  5
309
330
18
100
AcDbEntity
  8
1
  6
Continuous
100
AcDbCircle
 10
248.6787005376081
 20
75.34221680684661
 30
0.0
 40
32.0
100
AcDbArc
 50
271.4811409999999
 51
316.530343
  0
ARC
  5
30A
330
18
100
AcDbEntity
  8
1
  6
Continuous
100
AcDbCircle
 10
248.6787005376081
 20
75.34221680684661
 30
0.0
 40
28.8
100
AcDbArc
 50
275.554508
 51
316.530343
  0
ARC
  5
30B
330
18
100
AcDbEntity
  8
1
  6
Continuous
100
AcDbCircle
 10
255.7916295376079
 20
58.37177080684659
 30
0.0
 40
4.5
100
AcDbArc
 50
243.202683
 51
63.202683
  0
LINE
  5
30C
330
18
100
AcDbEntity
  8
1
  6
Continuous
100
AcDbLine
 10
251.468679537608
 20
46.67767380684657
 30
0.0
 11
244.532591537608
 21
46.0025698068466
 31
0.0
  0
ARC
  5
30D
330
18
100
AcDbEntity
  8
1
  6
Continuous
100
AcDbCircle
 10
244.871652537608
 20
42.51903180684659
 30
0.0
 40
3.5
100
AcDbArc
 50
44.34778
 51
132.0925409999997
  0
ARC
  5
30E
330
18
100
AcDbEntity
  8
1
  6
Continuous
100
AcDbCircle
 10
269.3167015376081
 20
85.14997880684658
 30
0.0
 40
25.5
100
AcDbArc
 50
235.439678
 51
243.2042279999999
  0
LINE
  5
30F
330
18
100
AcDbEntity
  8
1
  6
Continuous
100
AcDbLine
 10
262.5814065376079
 20
62.18865780684659
 30
0.0
 11
262.3752635376082
 21
64.1499788068466
 31
0.0
  0
ARC
  5
310
330
18
100
AcDbEntity
  8
1
  6
Continuous
100
AcDbCircle
 10
265.067711537608
 20
62.4499788068466
 30
0.0
 40
2.5
100
AcDbArc
 50
186.0
 51
270.0
  0
LINE
  5
311
330
18
100
AcDbEntity
  8
1
  6
Continuous
100
AcDbLine
 10
282.3167015376082
 20
43.29981480684661
 30
0.0
 11
282.3167015376082
 21
53.29981480684661
 31
0.0
  0
LINE
  5
312
330
18
100
AcDbEntity
  8
1
  6
Continuous
100
AcDbLine
 10
299.3167015376082
 20
43.29981480684661
 30
0.0
 11
299.3167015376082
 21
53.29981480684661
 31
0.0
  0
LINE
  5
313
330
18
100
AcDbEntity
  8
1
  6
Continuous
100
AcDbLine
 10
290.8167015376081
 20
44.05900380684658
 30
0.0
 11
290.8167015376081
 21
53.29981480684661
 31
0.0
  0
ARC
  5
314
330
18
100
AcDbEntity
  8
1
  6
Continuous
100
AcDbCircle
 10
295.0667015376082
 20
55.5753218068466
 30
0.0
 40
12.275507
100
AcDbArc
 50
249.7438419999999
 51
290.256158
  0
LINE
  5
315
330
18
100
AcDbEntity
  8
1
  6
Continuous
100
AcDbLine
 10
282.3167015376082
 20
43.29981480684661
 30
0.0
 11
299.3167015376082
 21
43.29981480684661
 31
0.0
  0
LINE
  5
316
330
18
100
AcDbEntity
  8
1
  6
Continuous
100
AcDbLine
 10
285.6167015376079
 20
40.9999998068466
 30
0.0
 11
296.0167015376081
 21
40.9999998068466
 31
0.0
  0
LINE
  5
317
330
18
100
AcDbEntity
  8
1
  6
Continuous
100
AcDbLine
 10
284.8167015376082
 20
41.79999980684658
 30
0.0
 11
296.8167015376081
 21
41.79999980684658
 31
0.0
  0
ARC
  5
318
330
18
100
AcDbEntity
  8
1
  6
Continuous
100
AcDbCircle
 10
286.5667015376082
 20
55.5753218068466
 30
0.0
 40
12.275507
100
AcDbArc
 50
249.7438419999999
 51
290.256158
  0
LINE
  5
319
330
18
100
AcDbEntity
  8
1
  6
Continuous
100
AcDbLine
 10
284.8167015376082
 20
41.79999980684658
 30
0.0
 11
284.8167015376082
 21
43.29995880684659
 31
0.0
  0
LINE
  5
31A
330
18
100
AcDbEntity
  8
2
  6
Continuous
100
AcDbLine
 10
285.4932015376081
 20
41.1234998068466
 30
0.0
 11
285.4932015376081
 21
43.29981480684661
 31
0.0
  0
LINE
  5
31B
330
18
100
AcDbEntity
  8
1
  6
Continuous
100
AcDbLine
 10
284.8167015376082
 20
41.79999980684658
 30
0.0
 11
285.6167015376079
 21
40.9999998068466
 31
0.0
  0
LINE
  5
31C
330
18
100
AcDbEntity
  8
1
  6
Continuous
100
AcDbLine
 10
296.8167015376081
 20
41.79999980684658
 30
0.0
 11
296.8167015376081
 21
43.29995880684659
 31
0.0
  0
LINE
  5
31D
330
18
100
AcDbEntity
  8
2
  6
Continuous
100
AcDbLine
 10
296.140201537608
 20
41.1234998068466
 30
0.0
 11
296.140201537608
 21
43.29981480684661
 31
0.0
  0
LINE
  5
31E
330
18
100
AcDbEntity
  8
1
  6
Continuous
100
AcDbLine
 10
296.0167015376081
 20
40.9999998068466
 30
0.0
 11
296.8167015376081
 21
41.79999980684658
 31
0.0
  0
LINE
  5
31F
330
18
100
AcDbEntity
  8
1
  6
Continuous
100
AcDbLine
 10
302.8167015376081
 20
59.49997780684661
 30
0.0
 11
278.8167015376081
 21
59.4999788068466
 31
0.0
  0
LINE
  5
320
330
18
100
AcDbEntity
  8
1
  6
Continuous
100
AcDbLine
 10
280.0667015376081
 20
53.29981480684661
 30
0.0
 11
301.5667015376081
 21
53.29981480684661
 31
0.0
  0
LINE
  5
321
330
18
100
AcDbEntity
  8
1
  6
Continuous
100
AcDbLine
 10
302.8167015376081
 20
56.29997880684659
 30
0.0
 11
278.8167015376081
 21
56.29997880684659
 31
0.0
  0
LINE
  5
322
330
18
100
AcDbEntity
  8
1
  6
Continuous
100
AcDbLine
 10
280.0667015376081
 20
53.29981480684661
 30
0.0
 11
280.0667015376081
 21
56.28244980684659
 31
0.0
  0
LINE
  5
323
330
18
100
AcDbEntity
  8
1
  6
Continuous
100
AcDbLine
 10
293.8168655376081
 20
53.29981480684661
 30
0.0
 11
290.8167015376081
 21
56.29997880684659
 31
0.0
  0
LINE
  5
324
330
18
100
AcDbEntity
  8
1
  6
Continuous
100
AcDbLine
 10
290.8167015376081
 20
53.29981480684661
 30
0.0
 11
287.8165375376081
 21
56.29997880684659
 31
0.0
  0
LINE
  5
325
330
18
100
AcDbEntity
  8
1
  6
Continuous
100
AcDbLine
 10
278.116701537608
 20
59.47487080684659
 30
0.0
 11
278.116701537608
 21
59.9499788068466
 31
0.0
  0
ARC
  5
326
330
18
100
AcDbEntity
  8
1
  6
Continuous
100
AcDbCircle
 10
302.8167015376081
 20
46.77263980684659
 30
0.0
 40
12.727338
100
AcDbArc
 50
43.469657
 51
90.0
  0
ARC
  5
327
330
18
100
AcDbEntity
  8
1
  6
Continuous
100
AcDbCircle
 10
302.8167015376081
 20
46.7726408068466
 30
0.0
 40
9.527338
100
AcDbArc
 50
43.469657
 51
90.0
  0
LINE
  5
328
330
18
100
AcDbEntity
  8
1
  6
Continuous
100
AcDbLine
 10
301.5667015376081
 20
53.29981480684661
 30
0.0
 11
301.5667015376081
 21
56.28244980684659
 31
0.0
  0
LINE
  5
329
330
18
100
AcDbEntity
  8
1
  6
Continuous
100
AcDbLine
 10
303.5167015376081
 20
59.33591580684659
 30
0.0
 11
303.5167015376081
 21
59.9499788068466
 31
0.0
  0
ARC
  5
32A
330
18
100
AcDbEntity
  8
1
  6
Continuous
100
AcDbCircle
 10
278.8167015376081
 20
123.5273178068464
 30
0.0
 40
12.727338
100
AcDbArc
 50
223.4696569999999
 51
270.0
  0
ARC
  5
32B
330
18
100
AcDbEntity
  8
1
  6
Continuous
100
AcDbCircle
 10
278.8167015376081
 20
123.5273178068464
 30
0.0
 40
9.527338
100
AcDbArc
 50
223.4696569999999
 51
270.0
  0
ARC
  5
32C
330
18
100
AcDbEntity
  8
1
  6
Continuous
100
AcDbCircle
 10
269.3167015376081
 20
85.14997880684658
 30
0.0
 40
25.5
100
AcDbArc
 50
116.797317
 51
124.560322
  0
LINE
  5
32D
330
18
100
AcDbEntity
  8
1
  6
Continuous
100
AcDbLine
 10
262.5814065376079
 20
108.1112998068465
 30
0.0
 11
262.3752635376082
 21
106.1499788068466
 31
0.0
  0
ARC
  5
32E
330
18
100
AcDbEntity
  8
1
  6
Continuous
100
AcDbCircle
 10
265.067711537608
 20
107.8499788068466
 30
0.0
 40
2.5
100
AcDbArc
 50
90.0
 51
174.0
  0
LINE
  5
32F
330
18
100
AcDbEntity
  8
1
  6
Continuous
100
AcDbLine
 10
302.8167015376081
 20
110.7999798068465
 30
0.0
 11
278.8167015376081
 21
110.7999788068466
 31
0.0
  0
LINE
  5
330
330
18
100
AcDbEntity
  8
1
  6
Continuous
100
AcDbLine
 10
302.8167015376081
 20
113.9999798068466
 30
0.0
 11
278.8167015376081
 21
113.9999788068466
 31
0.0
  0
LINE
  5
331
330
18
100
AcDbEntity
  8
1
  6
Continuous
100
AcDbLine
 10
278.116701537608
 20
110.8250868068466
 30
0.0
 11
278.116701537608
 21
110.3499788068466
 31
0.0
  0
ARC
  5
332
330
18
100
AcDbEntity
  8
1
  6
Continuous
100
AcDbCircle
 10
302.8167015376081
 20
123.5273178068464
 30
0.0
 40
12.727338
100
AcDbArc
 50
270.0
 51
316.530343
  0
ARC
  5
333
330
18
100
AcDbEntity
  8
1
  6
Continuous
100
AcDbCircle
 10
302.8167015376081
 20
123.5273178068464
 30
0.0
 40
9.527338
100
AcDbArc
 50
270.0
 51
316.530343
  0
LINE
  5
334
330
18
100
AcDbEntity
  8
1
  6
Continuous
100
AcDbLine
 10
303.5167015376081
 20
110.9640418068465
 30
0.0
 11
303.5167015376081
 21
110.3499788068466
 31
0.0
  0
ARC
  5
335
330
18
100
AcDbEntity
  8
1
  6
Continuous
100
AcDbCircle
 10
349.0333205376081
 20
70.1499788068466
 30
0.0
 40
6.0
100
AcDbArc
 50
270.0
 51
354.020843
  0
LINE
  5
336
330
18
100
AcDbEntity
  8
1
  6
Continuous
100
AcDbLine
 10
358.3167015376081
 20
53.6499788068466
 30
0.0
 11
358.3167015376081
 21
116.6499788068465
 31
0.0
  0
CIRCLE
  5
337
330
18
100
AcDbEntity
  8
1
  6
Continuous
100
AcDbCircle
 10
346.8167015376082
 20
53.6499788068466
 30
0.0
 40
9.25
  0
CIRCLE
  5
338
330
18
100
AcDbEntity
  8
1
  6
Continuous
100
AcDbCircle
 10
346.8167015376082
 20
53.6499788068466
 30
0.0
 40
6.5
  0
CIRCLE
  5
339
330
18
100
AcDbEntity
  8
1
  6
Continuous
100
AcDbCircle
 10
346.8167015376082
 20
53.6499788068466
 30
0.0
 40
5.25
  0
ARC
  5
33A
330
18
100
AcDbEntity
  8
1
  6
Continuous
100
AcDbCircle
 10
346.8167015376082
 20
53.6499788068466
 30
0.0
 40
11.5
100
AcDbArc
 50
227.907459
 51
0.0
  0
LINE
  5
33B
330
18
100
AcDbEntity
  8
4
  6
CENTER
100
AcDbLine
 10
336.3167015376081
 20
53.6499788068466
 30
0.0
 11
357.3167015376082
 21
53.6499788068466
 31
0.0
  0
LINE
  5
33C
330
18
100
AcDbEntity
  8
4
  6
CENTER
100
AcDbLine
 10
346.8167015376082
 20
64.1499788068466
 30
0.0
 11
346.8167015376082
 21
43.14997880684658
 31
0.0
  0
ARC
  5
33D
330
18
100
AcDbEntity
  8
1
  6
Continuous
100
AcDbCircle
 10
327.8228755376081
 20
51.2566808068466
 30
0.0
 40
9.0
100
AcDbArc
 50
298.57439
 51
315.6522199999999
  0
LINE
  5
33E
330
18
100
AcDbEntity
  8
1
  6
Continuous
100
AcDbLine
 10
330.1647235376079
 20
46.67767380684657
 30
0.0
 11
337.1008115376081
 21
46.0025698068466
 31
0.0
  0
ARC
  5
33F
330
18
100
AcDbEntity
  8
1
  6
Continuous
100
AcDbCircle
 10
312.3167015376081
 20
85.14997880684658
 30
0.0
 40
34.5
100
AcDbArc
 50
296.793985
 51
322.50475
  0
ARC
  5
340
330
18
100
AcDbEntity
  8
1
  6
Continuous
100
AcDbCircle
 10
325.841774537608
 20
58.37177080684659
 30
0.0
 40
4.5
100
AcDbArc
 50
116.797317
 51
296.797317
  0
LINE
  5
341
330
18
100
AcDbEntity
  8
1
  6
Continuous
100
AcDbLine
 10
319.0519955376079
 20
62.18865780684659
 30
0.0
 11
319.258138537608
 21
64.1499788068466
 31
0.0
  0
ARC
  5
342
330
18
100
AcDbEntity
  8
1
  6
Continuous
100
AcDbCircle
 10
316.5656905376081
 20
62.4499788068466
 30
0.0
 40
2.5
100
AcDbArc
 50
270.0
 51
354.0
  0
ARC
  5
343
330
18
100
AcDbEntity
  8
1
  6
Continuous
100
AcDbCircle
 10
312.3167015376081
 20
85.14997880684658
 30
0.0
 40
25.5
100
AcDbArc
 50
296.793985
 51
304.5603219999998
  0
ARC
  5
344
330
18
100
AcDbEntity
  8
1
  6
Continuous
100
AcDbCircle
 10
336.7617515376081
 20
42.51903180684659
 30
0.0
 40
3.5
100
AcDbArc
 50
47.90745900000001
 51
135.65222
  0
LINE
  5
345
330
18
100
AcDbEntity
  8
4
  6
CENTER
100
AcDbLine
 10
336.3167015376081
 20
116.6499788068465
 30
0.0
 11
357.3167015376082
 21
116.6499788068465
 31
0.0
  0
ARC
  5
346
330
18
100
AcDbEntity
  8
1
  6
Continuous
100
AcDbCircle
 10
312.3167015376081
 20
85.14997880684658
 30
0.0
 40
34.5
100
AcDbArc
 50
37.49525
 51
63.202683
  0
ARC
  5
347
330
18
100
AcDbEntity
  8
1
  6
Continuous
100
AcDbCircle
 10
325.841774537608
 20
111.9281868068466
 30
0.0
 40
4.5
100
AcDbArc
 50
63.202683
 51
243.202683
  0
LINE
  5
348
330
18
100
AcDbEntity
  8
1
  6
Continuous
100
AcDbLine
 10
319.0519955376079
 20
108.1112998068465
 30
0.0
 11
319.258138537608
 21
106.1499788068466
 31
0.0
  0
ARC
  5
349
330
18
100
AcDbEntity
  8
1
  6
Continuous
100
AcDbCircle
 10
316.5656905376081
 20
107.8499788068466
 30
0.0
 40
2.5
100
AcDbArc
 50
6.0
 51
90.0
  0
ARC
  5
34A
330
18
100
AcDbEntity
  8
1
  6
Continuous
100
AcDbCircle
 10
312.3167015376081
 20
85.14997880684658
 30
0.0
 40
25.5
100
AcDbArc
 50
55.439678
 51
63.202683
  0
ARC
  5
34B
330
18
100
AcDbEntity
  8
1
  6
Continuous
100
AcDbCircle
 10
205.816700537608
 20
85.14997880684658
 30
0.0
 40
150.0
100
AcDbArc
 50
354.020843
 51
5.979156999999998
  0
ARC
  5
34C
330
18
100
AcDbEntity
  8
1
  6
Continuous
100
AcDbCircle
 10
349.0333205376081
 20
100.1499788068465
 30
0.0
 40
6.0
100
AcDbArc
 50
5.979156999999998
 51
90.0
  0
ARC
  5
34D
330
18
100
AcDbEntity
  8
1
  6
Continuous
100
AcDbCircle
 10
290.8167015376081
 20
285.0102308068466
 30
0.0
 40
28.0
100
AcDbArc
 50
146.701656
 51
33.298344
  0
LINE
  5
34E
330
18
100
AcDbEntity
  8
4
  6
CENTER
100
AcDbLine
 10
219.8167015376081
 20
285.0102308068466
 30
0.0
 11
361.8167015376081
 21
285.0102308068466
 31
0.0
  0
LINE
  5
34F
330
18
100
AcDbEntity
  8
1
  6
Continuous
100
AcDbLine
 10
251.468679537608
 20
123.6222838068465
 30
0.0
 11
244.532591537608
 21
124.2973878068463
 31
0.0
  0
ARC
  5
350
330
18
100
AcDbEntity
  8
1
  6
Continuous
100
AcDbCircle
 10
253.810528537608
 20
119.0432778068466
 30
0.0
 40
9.0
100
AcDbArc
 50
118.57439
 51
135.65222
  0
ARC
  5
351
330
18
100
AcDbEntity
  8
1
  6
Continuous
100
AcDbCircle
 10
244.871652537608
 20
127.7809258068465
 30
0.0
 40
3.5
100
AcDbArc
 50
227.907459
 51
315.6522199999999
  0
LINE
  5
352
330
18
100
AcDbEntity
  8
1
  6
Continuous
100
AcDbLine
 10
300.3167015376081
 20
121.9999798068465
 30
0.0
 11
281.3167015376081
 21
121.9999798068465
 31
0.0
  0
ARC
  5
353
330
18
100
AcDbEntity
  8
1
  6
Continuous
100
AcDbCircle
 10
295.5667015376081
 20
108.2802958068463
 30
0.0
 40
13.719684
100
AcDbArc
 50
69.743842
 51
110.2561579999999
  0
ARC
  5
354
330
18
100
AcDbEntity
  8
1
  6
Continuous
100
AcDbCircle
 10
286.0667015376081
 20
108.2802958068463
 30
0.0
 40
13.719684
100
AcDbArc
 50
69.743842
 51
110.2561579999999
  0
ARC
  5
358
330
18
100
AcDbEntity
  8
1
  6
Continuous
100
AcDbCircle
 10
290.8167015376081
 20
285.0102308068466
 30
0.0
 40
21.0
100
AcDbArc
 50
171.3188029999997
 51
8.681196999999999
  0
ARC
  5
359
330
18
100
AcDbEntity
  8
1
  6
Continuous
100
AcDbCircle
 10
290.8166675376081
 20
285.9031128068465
 30
0.0
 40
19.806672
100
AcDbArc
 50
192.075829
 51
347.7757459999998
  0
LINE
  5
35A
330
18
100
AcDbEntity
  8
1
  6
Continuous
100
AcDbLine
 10
281.3167015376081
 20
279.5254028068465
 30
0.0
 11
281.3167015376081
 21
290.4950588068463
 31
0.0
  0
LINE
  5
35B
330
18
100
AcDbEntity
  8
1
  6
Continuous
100
AcDbLine
 10
300.3167015376081
 20
279.5254028068465
 30
0.0
 11
300.3167015376081
 21
290.4950588068463
 31
0.0
  0
CIRCLE
  5
35C
330
18
100
AcDbEntity
  8
1
  6
Continuous
100
AcDbCircle
 10
290.8167015376081
 20
285.0102308068466
 30
0.0
 40
9.5
  0
LINE
  5
35D
330
18
100
AcDbEntity
  8
1
  6
Continuous
100
AcDbLine
 10
300.3167015376081
 20
279.5254028068465
 30
0.0
 11
290.8167015376081
 21
274.0405758068463
 31
0.0
  0
LINE
  5
35E
330
18
100
AcDbEntity
  8
1
  6
Continuous
100
AcDbLine
 10
281.3167015376081
 20
279.5254028068465
 30
0.0
 11
290.8167015376081
 21
274.0405758068463
 31
0.0
  0
LINE
  5
362
330
18
100
AcDbEntity
  8
1
  6
Continuous
100
AcDbLine
 10
290.8167015376081
 20
295.9798858068463
 30
0.0
 11
300.3167015376081
 21
290.4950588068463
 31
0.0
  0
LINE
  5
363
330
18
100
AcDbEntity
  8
1
  6
Continuous
100
AcDbLine
 10
290.8167015376081
 20
295.9798858068463
 30
0.0
 11
281.3167015376081
 21
290.4950588068463
 31
0.0
  0
LINE
  5
364
330
18
100
AcDbEntity
  8
1
  6
Continuous
100
AcDbLine
 10
330.1647235376079
 20
123.6222838068465
 30
0.0
 11
337.1008115376081
 21
124.2973878068463
 31
0.0
  0
ARC
  5
365
330
18
100
AcDbEntity
  8
1
  6
Continuous
100
AcDbCircle
 10
336.7617515376081
 20
127.7809258068465
 30
0.0
 40
3.5
100
AcDbArc
 50
224.3477799999999
 51
312.0925409999998
  0
ARC
  5
366
330
18
100
AcDbEntity
  8
1
  6
Continuous
100
AcDbCircle
 10
327.8228755376081
 20
119.0432778068466
 30
0.0
 40
9.0
100
AcDbArc
 50
44.34778
 51
61.42561
  0
LINE
  5
367
330
18
100
AcDbEntity
  8
1
  6
Continuous
100
AcDbLine
 10
28.38248053760809
 20
381.8102148068464
 30
0.0
 11
31.1324805376081
 21
380.5102198068464
 31
0.0
  0
LINE
  5
368
330
18
100
AcDbEntity
  8
1
  6
Continuous
100
AcDbLine
 10
112.1499805376081
 20
385.0102688068464
 30
0.0
 11
26.14998053760811
 21
385.0104178068466
 31
0.0
  0
LINE
  5
369
330
18
100
AcDbEntity
  8
1
  6
Continuous
100
AcDbLine
 10
112.1499805376081
 20
381.8102308068464
 30
0.0
 11
26.14998053760811
 21
381.8102308068464
 31
0.0
  0
LINE
  5
36A
330
18
100
AcDbEntity
  8
1
  6
Continuous
100
AcDbLine
 10
27.35291053760811
 20
380.8102308068464
 30
0.0
 11
27.35291053760811
 21
342.0104158068466
 31
0.0
  0
ARC
  5
36B
330
18
100
AcDbEntity
  8
1
  6
Continuous
100
AcDbCircle
 10
31.55291053760811
 20
380.8102308068464
 30
0.0
 40
4.2
100
AcDbArc
 50
166.225853
 51
180.0
  0
LINE
  5
36C
330
18
100
AcDbEntity
  8
1
  6
Continuous
100
AcDbLine
 10
26.14998053760811
 20
385.0099978068464
 30
0.0
 11
26.14998053760811
 21
381.8101148068464
 31
0.0
  0
ARC
  5
36D
330
18
100
AcDbEntity
  8
1
  6
Continuous
100
AcDbCircle
 10
96.87133553760808
 20
382.6694458068465
 30
0.0
 40
3.659159999999998
100
AcDbArc
 50
270.0
 51
323.8370069999998
  0
LINE
  5
36E
330
18
100
AcDbEntity
  8
1
  6
Continuous
100
AcDbLine
 10
107.1674805376081
 20
380.5102198068464
 30
0.0
 11
94.16748053760812
 21
380.5102428068465
 31
0.0
  0
LINE
  5
36F
330
18
100
AcDbEntity
  8
1
  6
Continuous
100
AcDbLine
 10
30.55291053760811
 20
380.7841978068466
 30
0.0
 11
30.55291053760811
 21
342.0104098068464
 31
0.0
  0
ARC
  5
370
330
18
100
AcDbEntity
  8
1
  6
Continuous
100
AcDbCircle
 10
69.14998053760811
 20
200.0102308068465
 30
0.0
 40
150.0
100
AcDbArc
 50
84.020843
 51
95.97915699999999
  0
ARC
  5
371
330
18
100
AcDbEntity
  8
1
  6
Continuous
100
AcDbCircle
 10
54.14998053760811
 20
343.2268508068464
 30
0.0
 40
6.0
100
AcDbArc
 50
95.97915699999999
 51
180.0
  0
ARC
  5
372
330
18
100
AcDbEntity
  8
1
  6
Continuous
100
AcDbCircle
 10
84.14998053760813
 20
343.2268508068464
 30
0.0
 40
6.0
100
AcDbArc
 50
0.0
 51
84.020843
  0
LINE
  5
373
330
18
100
AcDbEntity
  8
1
  6
Continuous
100
AcDbLine
 10
96.87959053760813
 20
379.0102948068466
 30
0.0
 11
41.4006785376081
 21
379.0103928068465
 31
0.0
  0
LINE
  5
374
330
18
100
AcDbEntity
  8
4
  6
CENTER
100
AcDbLine
 10
37.6499805376081
 20
389.7486288068464
 30
0.0
 11
37.6499805376081
 21
375.8896808068464
 31
0.0
  0
LINE
  5
375
330
18
100
AcDbEntity
  8
1
  6
Continuous
100
AcDbLine
 10
44.13248053760811
 20
380.5102428068465
 30
0.0
 11
46.88248053760809
 21
381.7763008068464
 31
0.0
  0
LINE
  5
376
330
18
100
AcDbEntity
  8
1
  6
Continuous
100
AcDbLine
 10
31.1324805376081
 20
380.5102198068464
 30
0.0
 11
44.13248053760811
 21
380.5102428068465
 31
0.0
  0
ARC
  5
377
330
18
100
AcDbEntity
  8
1
  6
Continuous
100
AcDbCircle
 10
41.4286255376081
 20
382.6694458068465
 30
0.0
 40
3.659159999999998
100
AcDbArc
 50
216.162993
 51
270.0
  0
LINE
  5
378
330
18
100
AcDbEntity
  8
1
  6
Continuous
100
AcDbLine
 10
94.16748053760812
 20
380.5102428068465
 30
0.0
 11
91.41748053760812
 21
381.7763008068464
 31
0.0
  0
LINE
  5
379
330
18
100
AcDbEntity
  8
1
  6
Continuous
100
AcDbLine
 10
110.9470505376079
 20
380.8102308068464
 30
0.0
 11
110.9470505376079
 21
342.0104158068466
 31
0.0
  0
LINE
  5
37A
330
18
100
AcDbEntity
  8
1
  6
Continuous
100
AcDbLine
 10
107.7470505376081
 20
380.7841978068466
 30
0.0
 11
107.7470505376081
 21
342.0104098068464
 31
0.0
  0
LINE
  5
37B
330
18
100
AcDbEntity
  8
4
  6
CENTER
100
AcDbLine
 10
100.6499805376081
 20
389.7486288068464
 30
0.0
 11
100.6499805376081
 21
375.8896808068464
 31
0.0
  0
LINE
  5
37C
330
18
100
AcDbEntity
  8
1
  6
Continuous
100
AcDbLine
 10
109.917480537608
 20
381.8102148068464
 30
0.0
 11
107.1674805376081
 21
380.5102198068464
 31
0.0
  0
ARC
  5
37D
330
18
100
AcDbEntity
  8
1
  6
Continuous
100
AcDbCircle
 10
106.7470505376081
 20
380.8102308068464
 30
0.0
 40
4.2
100
AcDbArc
 50
0.0
 51
13.774147
  0
LINE
  5
37E
330
18
100
AcDbEntity
  8
1
  6
Continuous
100
AcDbLine
 10
112.1499805376081
 20
385.0099978068464
 30
0.0
 11
112.1499805376081
 21
381.8101148068464
 31
0.0
  0
ARC
  5
37F
330
18
100
AcDbEntity
  8
1
  6
Continuous
100
AcDbCircle
 10
269.3167015376081
 20
517.8704828068466
 30
0.0
 40
34.5
100
AcDbArc
 50
116.795772
 51
243.202683
  0
ARC
  5
380
330
18
100
AcDbEntity
  8
1
  6
Continuous
100
AcDbCircle
 10
312.3167015376081
 20
517.8704828068466
 30
0.0
 40
25.5
100
AcDbArc
 50
296.797317
 51
63.20601500000001
  0
LINE
  5
381
330
18
100
AcDbEntity
  8
4
  6
CENTER
100
AcDbLine
 10
290.8167015376081
 20
566.7205558068466
 30
0.0
 11
290.8167015376081
 21
469.9962398068466
 31
0.0
  0
ARC
  5
382
330
18
100
AcDbEntity
  8
1
  6
Continuous
100
AcDbCircle
 10
312.3167015376081
 20
517.8704828068466
 30
0.0
 40
34.5
100
AcDbArc
 50
296.797317
 51
63.20601500000001
  0
ARC
  5
383
330
18
100
AcDbEntity
  8
1
  6
Continuous
100
AcDbCircle
 10
269.3167015376081
 20
517.8704828068466
 30
0.0
 40
25.5
100
AcDbArc
 50
116.795772
 51
243.202683
  0
LINE
  5
384
330
18
100
AcDbEntity
  8
1
  6
Continuous
100
AcDbLine
 10
223.316701537608
 20
549.3704828068466
 30
0.0
 11
223.316701537608
 21
486.3704828068463
 31
0.0
  0
LINE
  5
385
330
18
100
AcDbEntity
  8
1
  6
Continuous
100
AcDbLine
 10
358.3167015376081
 20
549.3704828068466
 30
0.0
 11
358.3167015376081
 21
486.3704828068463
 31
0.0
  0
LINE
  5
386
330
18
100
AcDbEntity
  8
1
  6
Continuous
100
AcDbLine
 10
223.316701537608
 20
385.0102308068466
 30
0.0
 11
358.3167015376081
 21
385.0102308068466
 31
0.0
  0
ARC
  5
387
330
18
100
AcDbEntity
  8
1
  6
Continuous
100
AcDbCircle
 10
332.954703537608
 20
508.0627208068466
 30
0.0
 40
32.0
100
AcDbArc
 50
223.4696569999999
 51
268.5188589999999
  0
LINE
  5
388
330
18
100
AcDbEntity
  8
1
  6
Continuous
100
AcDbLine
 10
241.3167015376081
 20
380.5100278068464
 30
0.0
 11
244.065261537608
 21
381.7754238068464
 31
0.0
  0
LINE
  5
389
330
18
100
AcDbEntity
  8
1
  6
Continuous
100
AcDbLine
 10
249.2030765376081
 20
381.8102308068464
 30
0.0
 11
223.316701537608
 21
381.8102308068464
 31
0.0
  0
LINE
  5
38A
330
18
100
AcDbEntity
  8
1
  6
Continuous
100
AcDbLine
 10
238.401693537608
 20
379.0102928068463
 30
0.0
 11
249.399232537608
 21
379.0102928068463
 31
0.0
  0
LINE
  5
38B
330
18
100
AcDbEntity
  8
4
  6
CENTER
100
AcDbLine
 10
234.816701537608
 20
389.7486288068464
 30
0.0
 11
234.816701537608
 21
375.8896808068464
 31
0.0
  0
LINE
  5
38C
330
18
100
AcDbEntity
  8
1
  6
Continuous
100
AcDbLine
 10
223.316701537608
 20
385.0102308068466
 30
0.0
 11
223.316701537608
 21
381.8102308068464
 31
0.0
  0
LINE
  5
38D
330
18
100
AcDbEntity
  8
1
  6
Continuous
100
AcDbLine
 10
228.3167015376081
 20
380.5100058068465
 30
0.0
 11
241.3167015376081
 21
380.5100278068464
 31
0.0
  0
LINE
  5
38E
330
18
100
AcDbEntity
  8
1
  6
Continuous
100
AcDbLine
 10
225.5667015376079
 20
381.8100008068465
 30
0.0
 11
228.3167015376081
 21
380.5100058068465
 31
0.0
  0
ARC
  5
38F
330
18
100
AcDbEntity
  8
1
  6
Continuous
100
AcDbCircle
 10
238.401693537608
 20
382.7102928068464
 30
0.0
 40
3.7
100
AcDbArc
 50
216.489037
 51
270.0
  0
ARC
  5
390
330
18
100
AcDbEntity
  8
1
  6
Continuous
100
AcDbCircle
 10
243.1104585376081
 20
377.6102308068465
 30
0.0
 40
7.4
100
AcDbArc
 50
12.22425399999999
 51
90.0
  0
ARC
  5
391
330
18
100
AcDbEntity
  8
1
  6
Continuous
100
AcDbCircle
 10
243.319811537608
 20
373.8102308068464
 30
0.0
 40
8.0
100
AcDbArc
 50
12.22425399999999
 51
90.0
  0
LINE
  5
392
330
18
100
AcDbEntity
  8
4
  6
CENTER
100
AcDbLine
 10
224.316701537608
 20
486.3704828068463
 30
0.0
 11
245.316701537608
 21
486.3704828068463
 31
0.0
  0
CIRCLE
  5
393
330
18
100
AcDbEntity
  8
1
  6
Continuous
100
AcDbCircle
 10
234.816701537608
 20
486.3704828068463
 30
0.0
 40
7.5
  0
ARC
  5
394
330
18
100
AcDbEntity
  8
1
  6
Continuous
100
AcDbCircle
 10
234.816701537608
 20
486.3704828068463
 30
0.0
 40
11.5
100
AcDbArc
 50
180.0
 51
312.0925409999998
  0
LINE
  5
395
330
18
100
AcDbEntity
  8
4
  6
CENTER
100
AcDbLine
 10
234.816701537608
 20
475.8704828068466
 30
0.0
 11
234.816701537608
 21
496.8704828068466
 31
0.0
  0
CIRCLE
  5
396
330
18
100
AcDbEntity
  8
1
  6
Continuous
100
AcDbCircle
 10
234.816701537608
 20
486.3704828068463
 30
0.0
 40
6.0
  0
CIRCLE
  5
397
330
18
100
AcDbEntity
  8
1
  6
Continuous
100
AcDbCircle
 10
234.816701537608
 20
486.3704828068463
 30
0.0
 40
5.25
  0
ARC
  5
398
330
18
100
AcDbEntity
  8
1
  6
Continuous
100
AcDbCircle
 10
278.8167015376081
 20
479.4931438068466
 30
0.0
 40
9.527338
100
AcDbArc
 50
90.0
 51
136.5303429999999
  0
ARC
  5
399
330
18
100
AcDbEntity
  8
1
  6
Continuous
100
AcDbCircle
 10
255.7916295376079
 20
491.0922748068465
 30
0.0
 40
4.5
100
AcDbArc
 50
243.202683
 51
63.202683
  0
ARC
  5
39A
330
18
100
AcDbEntity
  8
1
  6
Continuous
100
AcDbCircle
 10
248.6787005376081
 20
508.0627208068466
 30
0.0
 40
32.0
100
AcDbArc
 50
271.4811409999999
 51
316.530343
  0
ARC
  5
39B
330
18
100
AcDbEntity
  8
1
  6
Continuous
100
AcDbCircle
 10
244.871652537608
 20
475.2395358068466
 30
0.0
 40
3.5
100
AcDbArc
 50
44.34778
 51
132.0925409999997
  0
ARC
  5
39C
330
18
100
AcDbEntity
  8
1
  6
Continuous
100
AcDbCircle
 10
253.810528537608
 20
483.9771838068465
 30
0.0
 40
9.0
100
AcDbArc
 50
224.3477799999999
 51
241.4256099999998
  0
LINE
  5
39D
330
18
100
AcDbEntity
  8
1
  6
Continuous
100
AcDbLine
 10
300.3167015376081
 20
481.0204828068464
 30
0.0
 11
300.3167015376081
 21
489.0204828068466
 31
0.0
  0
LINE
  5
39E
330
18
100
AcDbEntity
  8
1
  6
Continuous
100
AcDbLine
 10
281.3167015376081
 20
481.0204828068464
 30
0.0
 11
281.3167015376081
 21
489.0204828068466
 31
0.0
  0
LINE
  5
39F
330
18
100
AcDbEntity
  8
1
  6
Continuous
100
AcDbLine
 10
290.8167015376081
 20
489.0204828068466
 30
0.0
 11
290.8167015376081
 21
481.8689878068464
 31
0.0
  0
ARC
  5
3A0
330
18
100
AcDbEntity
  8
1
  6
Continuous
100
AcDbCircle
 10
295.5667015376081
 20
494.7401658068463
 30
0.0
 40
13.719684
100
AcDbArc
 50
249.7438419999999
 51
290.256158
  0
LINE
  5
3A1
330
18
100
AcDbEntity
  8
1
  6
Continuous
100
AcDbLine
 10
300.3167015376081
 20
481.0204828068464
 30
0.0
 11
281.3167015376081
 21
481.0204828068464
 31
0.0
  0
ARC
  5
3A2
330
18
100
AcDbEntity
  8
1
  6
Continuous
100
AcDbCircle
 10
286.0667015376081
 20
494.7401658068463
 30
0.0
 40
13.719684
100
AcDbArc
 50
249.7438419999999
 51
290.256158
  0
LINE
  5
3A6
330
18
100
AcDbEntity
  8
1
  6
Continuous
100
AcDbLine
 10
302.8167015376081
 20
489.0204818068466
 30
0.0
 11
278.8167015376081
 21
489.0204828068466
 31
0.0
  0
ARC
  5
3A7
330
18
100
AcDbEntity
  8
1
  6
Continuous
100
AcDbCircle
 10
302.8167015376081
 20
479.4931438068466
 30
0.0
 40
9.527338
100
AcDbArc
 50
43.469657
 51
90.0
  0
LINE
  5
3A8
330
18
100
AcDbEntity
  8
1
  6
Continuous
100
AcDbLine
 10
353.3167015376082
 20
380.5100058068465
 30
0.0
 11
340.3167015376081
 21
380.5100278068464
 31
0.0
  0
LINE
  5
3A9
330
18
100
AcDbEntity
  8
1
  6
Continuous
100
AcDbLine
 10
332.4303265376079
 20
381.8102308068464
 30
0.0
 11
358.3167015376081
 21
381.8102308068464
 31
0.0
  0
LINE
  5
3AA
330
18
100
AcDbEntity
  8
4
  6
CENTER
100
AcDbLine
 10
346.8167015376082
 20
389.7486288068464
 30
0.0
 11
346.8167015376082
 21
375.8896808068464
 31
0.0
  0
ARC
  5
3AB
330
18
100
AcDbEntity
  8
1
  6
Continuous
100
AcDbCircle
 10
338.313591537608
 20
373.8102308068464
 30
0.0
 40
8.0
100
AcDbArc
 50
90.0
 51
167.775746
  0
ARC
  5
3AC
330
18
100
AcDbEntity
  8
1
  6
Continuous
100
AcDbCircle
 10
338.5229445376079
 20
377.6102308068465
 30
0.0
 40
7.4
100
AcDbArc
 50
90.0
 51
167.775746
  0
LINE
  5
3AD
330
18
100
AcDbEntity
  8
1
  6
Continuous
100
AcDbLine
 10
343.2317095376081
 20
379.0102928068463
 30
0.0
 11
332.2341705376081
 21
379.0102928068463
 31
0.0
  0
LINE
  5
3AE
330
18
100
AcDbEntity
  8
1
  6
Continuous
100
AcDbLine
 10
340.3167015376081
 20
380.5100278068464
 30
0.0
 11
337.5681415376079
 21
381.7754238068464
 31
0.0
  0
ARC
  5
3AF
330
18
100
AcDbEntity
  8
1
  6
Continuous
100
AcDbCircle
 10
343.2317095376081
 20
382.7102928068464
 30
0.0
 40
3.7
100
AcDbArc
 50
270.0
 51
323.510963
  0
LINE
  5
3B0
330
18
100
AcDbEntity
  8
1
  6
Continuous
100
AcDbLine
 10
356.0667015376081
 20
381.8100008068465
 30
0.0
 11
353.3167015376082
 21
380.5100058068465
 31
0.0
  0
LINE
  5
3B1
330
18
100
AcDbEntity
  8
1
  6
Continuous
100
AcDbLine
 10
358.3167015376081
 20
385.0102308068466
 30
0.0
 11
358.3167015376081
 21
381.8102308068464
 31
0.0
  0
LINE
  5
3B2
330
18
100
AcDbEntity
  8
4
  6
CENTER
100
AcDbLine
 10
336.3167015376081
 20
486.3704828068463
 30
0.0
 11
357.3167015376082
 21
486.3704828068463
 31
0.0
  0
CIRCLE
  5
3B3
330
18
100
AcDbEntity
  8
1
  6
Continuous
100
AcDbCircle
 10
346.8167015376082
 20
486.3704828068463
 30
0.0
 40
6.0
  0
CIRCLE
  5
3B4
330
18
100
AcDbEntity
  8
1
  6
Continuous
100
AcDbCircle
 10
346.8167015376082
 20
486.3704828068463
 30
0.0
 40
7.5
  0
CIRCLE
  5
3B5
330
18
100
AcDbEntity
  8
1
  6
Continuous
100
AcDbCircle
 10
346.8167015376082
 20
486.3704828068463
 30
0.0
 40
5.25
  0
ARC
  5
3B6
330
18
100
AcDbEntity
  8
1
  6
Continuous
100
AcDbCircle
 10
346.8167015376082
 20
486.3704828068463
 30
0.0
 40
11.5
100
AcDbArc
 50
227.907459
 51
0.0
  0
LINE
  5
3B7
330
18
100
AcDbEntity
  8
4
  6
CENTER
100
AcDbLine
 10
346.8167015376082
 20
475.8704828068466
 30
0.0
 11
346.8167015376082
 21
496.8704828068466
 31
0.0
  0
ARC
  5
3B8
330
18
100
AcDbEntity
  8
1
  6
Continuous
100
AcDbCircle
 10
336.7617515376081
 20
475.2395358068466
 30
0.0
 40
3.5
100
AcDbArc
 50
47.90745900000001
 51
135.65222
  0
ARC
  5
3B9
330
18
100
AcDbEntity
  8
1
  6
Continuous
100
AcDbCircle
 10
327.8228755376081
 20
483.9771838068465
 30
0.0
 40
9.0
100
AcDbArc
 50
298.57439
 51
315.6522199999999
  0
ARC
  5
3BA
330
18
100
AcDbEntity
  8
1
  6
Continuous
100
AcDbCircle
 10
325.841774537608
 20
491.0922748068465
 30
0.0
 40
4.5
100
AcDbArc
 50
116.797317
 51
296.797317
  0
LINE
  5
3BB
330
18
100
AcDbEntity
  8
4
  6
CENTER
100
AcDbLine
 10
208.641305537608
 20
517.8704828068466
 30
0.0
 11
372.7612375376081
 21
517.8704828068466
 31
0.0
  0
ARC
  5
3BC
330
18
100
AcDbEntity
  8
1
  6
Continuous
100
AcDbCircle
 10
332.954703537608
 20
527.6782448068463
 30
0.0
 40
32.0
100
AcDbArc
 50
91.48114099999999
 51
136.5303429999999
  0
LINE
  5
3BD
330
18
100
AcDbEntity
  8
4
  6
CENTER
100
AcDbLine
 10
224.316701537608
 20
549.3704828068466
 30
0.0
 11
245.316701537608
 21
549.3704828068466
 31
0.0
  0
CIRCLE
  5
3BE
330
18
100
AcDbEntity
  8
1
  6
Continuous
100
AcDbCircle
 10
234.816701537608
 20
549.3704828068466
 30
0.0
 40
7.5
  0
ARC
  5
3BF
330
18
100
AcDbEntity
  8
1
  6
Continuous
100
AcDbCircle
 10
234.816701537608
 20
549.3704828068466
 30
0.0
 40
11.5
100
AcDbArc
 50
47.90745900000001
 51
180.0
  0
LINE
  5
3C0
330
18
100
AcDbEntity
  8
4
  6
CENTER
100
AcDbLine
 10
234.816701537608
 20
538.8704828068466
 30
0.0
 11
234.816701537608
 21
559.8704828068466
 31
0.0
  0
CIRCLE
  5
3C1
330
18
100
AcDbEntity
  8
1
  6
Continuous
100
AcDbCircle
 10
234.816701537608
 20
549.3704828068466
 30
0.0
 40
6.0
  0
CIRCLE
  5
3C2
330
18
100
AcDbEntity
  8
1
  6
Continuous
100
AcDbCircle
 10
234.816701537608
 20
549.3704828068466
 30
0.0
 40
5.25
  0
LINE
  5
3C3
330
18
100
AcDbEntity
  8
1
  6
Continuous
100
AcDbLine
 10
299.3167015376082
 20
559.7206468068463
 30
0.0
 11
299.3167015376082
 21
549.7206468068466
 31
0.0
  0
LINE
  5
3C4
330
18
100
AcDbEntity
  8
1
  6
Continuous
100
AcDbLine
 10
282.3167015376082
 20
559.7206468068463
 30
0.0
 11
282.3167015376082
 21
549.7206468068466
 31
0.0
  0
ARC
  5
3C5
330
18
100
AcDbEntity
  8
1
  6
Continuous
100
AcDbCircle
 10
286.5667015376082
 20
547.4451398068466
 30
0.0
 40
12.275507
100
AcDbArc
 50
69.743842
 51
110.2561579999999
  0
ARC
  5
3C6
330
18
100
AcDbEntity
  8
1
  6
Continuous
100
AcDbCircle
 10
295.0667015376082
 20
547.4451398068466
 30
0.0
 40
12.275507
100
AcDbArc
 50
69.743842
 51
110.2561579999999
  0
ARC
  5
3C7
330
18
100
AcDbEntity
  8
1
  6
Continuous
100
AcDbCircle
 10
248.6787005376081
 20
527.6782448068463
 30
0.0
 40
32.0
100
AcDbArc
 50
43.469657
 51
88.51885899999997
  0
ARC
  5
3C8
330
18
100
AcDbEntity
  8
1
  6
Continuous
100
AcDbCircle
 10
253.810528537608
 20
551.7637808068466
 30
0.0
 40
9.0
100
AcDbArc
 50
118.57439
 51
135.65222
  0
ARC
  5
3C9
330
18
100
AcDbEntity
  8
1
  6
Continuous
100
AcDbCircle
 10
278.8167015376081
 20
556.2478208068466
 30
0.0
 40
9.527338
100
AcDbArc
 50
223.4696569999999
 51
270.0
  0
ARC
  5
3CA
330
18
100
AcDbEntity
  8
1
  6
Continuous
100
AcDbCircle
 10
255.7916295376079
 20
544.6486908068465
 30
0.0
 40
4.5
100
AcDbArc
 50
296.797317
 51
116.797317
  0
ARC
  5
3CB
330
18
100
AcDbEntity
  8
1
  6
Continuous
100
AcDbCircle
 10
244.871652537608
 20
560.5014298068466
 30
0.0
 40
3.5
100
AcDbArc
 50
227.907459
 51
315.6522199999999
  0
LINE
  5
3CC
330
18
100
AcDbEntity
  8
1
  6
Continuous
100
AcDbLine
 10
302.8167015376081
 20
546.7204828068465
 30
0.0
 11
278.8167015376081
 21
546.7204828068465
 31
0.0
  0
LINE
  5
3CD
330
18
100
AcDbEntity
  8
1
  6
Continuous
100
AcDbLine
 10
280.0667015376081
 20
549.7206468068466
 30
0.0
 11
301.5667015376081
 21
549.7206468068466
 31
0.0
  0
LINE
  5
3CE
330
18
100
AcDbEntity
  8
1
  6
Continuous
100
AcDbLine
 10
287.8165375376081
 20
549.7206468068466
 30
0.0
 11
290.8167015376081
 21
546.7204828068465
 31
0.0
  0
LINE
  5
3CF
330
18
100
AcDbEntity
  8
1
  6
Continuous
100
AcDbLine
 10
290.8167015376081
 20
549.7206468068466
 30
0.0
 11
293.8168655376081
 21
546.7204828068465
 31
0.0
  0
LINE
  5
3D0
330
18
100
AcDbEntity
  8
1
  6
Continuous
100
AcDbLine
 10
280.0667015376081
 20
549.7206468068466
 30
0.0
 11
280.0667015376081
 21
546.7380118068466
 31
0.0
  0
LINE
  5
3D1
330
18
100
AcDbEntity
  8
1
  6
Continuous
100
AcDbLine
 10
290.8167015376081
 20
558.9614578068466
 30
0.0
 11
290.8167015376081
 21
549.7206468068466
 31
0.0
  0
ARC
  5
3D2
330
18
100
AcDbEntity
  8
1
  6
Continuous
100
AcDbCircle
 10
302.8167015376081
 20
556.2478208068466
 30
0.0
 40
9.527338
100
AcDbArc
 50
270.0
 51
316.530343
  0
LINE
  5
3D3
330
18
100
AcDbEntity
  8
1
  6
Continuous
100
AcDbLine
 10
301.5667015376081
 20
549.7206468068466
 30
0.0
 11
301.5667015376081
 21
546.7380118068466
 31
0.0
  0
LINE
  5
3D4
330
18
100
AcDbEntity
  8
1
  6
Continuous
100
AcDbLine
 10
282.3167015376082
 20
559.7206468068463
 30
0.0
 11
299.3167015376082
 21
559.7206468068463
 31
0.0
  0
LINE
  5
3D5
330
18
100
AcDbEntity
  8
1
  6
Continuous
100
AcDbLine
 10
284.8167015376082
 20
561.2204618068465
 30
0.0
 11
296.8167015376081
 21
561.2204618068465
 31
0.0
  0
LINE
  5
3D6
330
18
100
AcDbEntity
  8
1
  6
Continuous
100
AcDbLine
 10
285.6167015376079
 20
562.0204618068465
 30
0.0
 11
296.0167015376081
 21
562.0204618068465
 31
0.0
  0
LINE
  5
3D7
330
18
100
AcDbEntity
  8
1
  6
Continuous
100
AcDbLine
 10
284.8167015376082
 20
561.2204618068465
 30
0.0
 11
285.6167015376079
 21
562.0204618068465
 31
0.0
  0
LINE
  5
3D8
330
18
100
AcDbEntity
  8
2
  6
Continuous
100
AcDbLine
 10
285.4932015376081
 20
561.8969618068466
 30
0.0
 11
285.4932015376081
 21
559.7206468068463
 31
0.0
  0
LINE
  5
3D9
330
18
100
AcDbEntity
  8
1
  6
Continuous
100
AcDbLine
 10
284.8167015376082
 20
561.2204618068465
 30
0.0
 11
284.8167015376082
 21
559.7205028068466
 31
0.0
  0
LINE
  5
3DA
330
18
100
AcDbEntity
  8
1
  6
Continuous
100
AcDbLine
 10
296.0167015376081
 20
562.0204618068465
 30
0.0
 11
296.8167015376081
 21
561.2204618068465
 31
0.0
  0
LINE
  5
3DB
330
18
100
AcDbEntity
  8
2
  6
Continuous
100
AcDbLine
 10
296.140201537608
 20
561.8969618068466
 30
0.0
 11
296.140201537608
 21
559.7206468068463
 31
0.0
  0
LINE
  5
3DC
330
18
100
AcDbEntity
  8
1
  6
Continuous
100
AcDbLine
 10
296.8167015376081
 20
561.2204618068465
 30
0.0
 11
296.8167015376081
 21
559.7205028068466
 31
0.0
  0
LINE
  5
3DD
330
18
100
AcDbEntity
  8
4
  6
CENTER
100
AcDbLine
 10
346.8167015376082
 20
538.8704828068466
 30
0.0
 11
346.8167015376082
 21
559.8704828068466
 31
0.0
  0
ARC
  5
3DE
330
18
100
AcDbEntity
  8
1
  6
Continuous
100
AcDbCircle
 10
327.8228755376081
 20
551.7637808068466
 30
0.0
 40
9.0
100
AcDbArc
 50
44.34778
 51
61.42561
  0
ARC
  5
3DF
330
18
100
AcDbEntity
  8
1
  6
Continuous
100
AcDbCircle
 10
346.8167015376082
 20
549.3704828068466
 30
0.0
 40
11.5
100
AcDbArc
 50
0.0
 51
132.0925409999997
  0
LINE
  5
3E0
330
18
100
AcDbEntity
  8
4
  6
CENTER
100
AcDbLine
 10
336.3167015376081
 20
549.3704828068466
 30
0.0
 11
357.3167015376082
 21
549.3704828068466
 31
0.0
  0
CIRCLE
  5
3E1
330
18
100
AcDbEntity
  8
1
  6
Continuous
100
AcDbCircle
 10
346.8167015376082
 20
549.3704828068466
 30
0.0
 40
6.0
  0
CIRCLE
  5
3E2
330
18
100
AcDbEntity
  8
1
  6
Continuous
100
AcDbCircle
 10
346.8167015376082
 20
549.3704828068466
 30
0.0
 40
7.5
  0
CIRCLE
  5
3E3
330
18
100
AcDbEntity
  8
1
  6
Continuous
100
AcDbCircle
 10
346.8167015376082
 20
549.3704828068466
 30
0.0
 40
5.25
  0
ARC
  5
3E4
330
18
100
AcDbEntity
  8
1
  6
Continuous
100
AcDbCircle
 10
325.841774537608
 20
544.6486908068465
 30
0.0
 40
4.5
100
AcDbArc
 50
63.202683
 51
243.202683
  0
ARC
  5
3E5
330
18
100
AcDbEntity
  8
1
  6
Continuous
100
AcDbCircle
 10
336.7617515376081
 20
560.5014298068466
 30
0.0
 40
3.5
100
AcDbArc
 50
224.3477799999999
 51
312.0925409999998
  0
LINE
  5
3E6
330
18
100
AcDbEntity
  8
1
  6
Continuous
100
AcDbLine
 10
774.6241715376081
 20
379.1770958068465
 30
0.0
 11
753.5076915376077
 21
281.7092778068464
 31
0.0
  0
LINE
  5
3E7
330
18
100
AcDbEntity
  8
1
  6
Continuous
100
AcDbLine
 10
693.6761155376077
 20
379.1770958068465
 30
0.0
 11
714.7925955376082
 21
281.7092778068464
 31
0.0
  0
LINE
  5
3E8
330
18
100
AcDbEntity
  8
1
  6
Continuous
100
AcDbLine
 10
720.1501435376077
 20
381.2587378068465
 30
0.0
 11
720.1501435376077
 21
278.2382018068465
 31
0.0
  0
LINE
  5
3E9
330
18
100
AcDbEntity
  8
4
  6
CENTER
100
AcDbLine
 10
734.1501435376077
 20
214.0102308068466
 30
0.0
 11
734.1501435376077
 21
392.7235558068464
 31
0.0
  0
LINE
  5
3EA
330
18
100
AcDbEntity
  8
1
  6
Continuous
100
AcDbLine
 10
748.1501435376077
 20
278.0912438068465
 30
0.0
 11
748.1501435376077
 21
381.2963248068466
 31
0.0
  0
ARC
  5
3EB
330
18
100
AcDbEntity
  8
1
  6
Continuous
100
AcDbCircle
 10
734.1501435376077
 20
285.0102308068466
 30
0.0
 40
44.5
100
AcDbArc
 50
128.382031
 51
51.61796900000001
  0
ARC
  5
3EC
330
18
100
AcDbEntity
  8
1
  6
Continuous
100
AcDbCircle
 10
734.1501435376077
 20
285.0102308068466
 30
0.0
 40
65.0
100
AcDbArc
 50
119.7905379999999
 51
60.209462
  0
LINE
  5
3ED
330
18
100
AcDbEntity
  8
1
  6
Continuous
100
AcDbLine
 10
491.4834225376081
 20
226.7936118068466
 30
0.0
 11
491.4834225376081
 21
343.2268508068464
 31
0.0
  0
LINE
  5
3EE
330
18
100
AcDbEntity
  8
1
  6
Continuous
100
AcDbLine
 10
533.4834225376081
 20
226.7936118068466
 30
0.0
 11
533.4834225376081
 21
343.2268508068464
 31
0.0
  0
ARC
  5
3EF
330
18
100
AcDbEntity
  8
1
  6
Continuous
100
AcDbCircle
 10
670.6181475376081
 20
347.2331638068464
 30
0.0
 40
200.0
100
AcDbArc
 50
181.496377
 51
199.5505679999997
  0
ARC
  5
3F0
330
18
100
AcDbEntity
  8
1
  6
Continuous
100
AcDbCircle
 10
670.6181475376081
 20
347.2331638068464
 30
0.0
 40
196.8
100
AcDbArc
 50
181.496377
 51
199.5505679999997
  0
LINE
  5
3F1
330
18
100
AcDbEntity
  8
1
  6
Continuous
100
AcDbLine
 10
486.833422537608
 20
266.0964408068466
 30
0.0
 11
486.833422537608
 21
379.0103888068464
 31
0.0
  0
ARC
  5
3F2
330
18
100
AcDbEntity
  8
1
  6
Continuous
100
AcDbCircle
 10
354.3486975376081
 20
347.2331638068464
 30
0.0
 40
196.8
100
AcDbArc
 50
340.4494319999999
 51
358.503623
  0
ARC
  5
3F3
330
18
100
AcDbEntity
  8
1
  6
Continuous
100
AcDbCircle
 10
354.3486975376081
 20
347.2331638068464
 30
0.0
 40
200.0
100
AcDbArc
 50
340.4494319999999
 51
358.503623
  0
LINE
  5
3F4
330
18
100
AcDbEntity
  8
1
  6
Continuous
100
AcDbLine
 10
538.1334225376081
 20
266.0964408068466
 30
0.0
 11
538.1334225376081
 21
379.0103888068464
 31
0.0
  0
LINE
  5
3F5
330
18
100
AcDbEntity
  8
4
  6
CENTER
100
AcDbLine
 10
512.4834225376081
 20
392.0124178068466
 30
0.0
 11
512.4834225376081
 21
214.5070098068466
 31
0.0
  0
LINE
  5
3F6
330
18
100
AcDbEntity
  8
4
  6
CENTER
100
AcDbLine
 10
805.150143537608
 20
285.0102308068466
 30
0.0
 11
663.1501435376077
 21
285.0102308068466
 31
0.0
  0
ARC
  5
3F7
330
18
100
AcDbEntity
  8
1
  6
Continuous
100
AcDbCircle
 10
734.1501775376078
 20
285.9031128068465
 30
0.0
 40
19.806672
100
AcDbArc
 50
192.224254
 51
347.924171
  0
ARC
  5
3F8
330
18
100
AcDbEntity
  8
1
  6
Continuous
100
AcDbCircle
 10
734.1501435376077
 20
285.0102308068466
 30
0.0
 40
28.0
100
AcDbArc
 50
146.701656
 51
33.298344
  0
ARC
  5
3F9
330
18
100
AcDbEntity
  8
1
  6
Continuous
100
AcDbCircle
 10
734.1501435376077
 20
285.0102308068466
 30
0.0
 40
21.0
100
AcDbArc
 50
171.3188029999997
 51
8.681196999999999
  0
CIRCLE
  5
3FA
330
18
100
AcDbEntity
  8
1
  6
Continuous
100
AcDbCircle
 10
734.1501435376077
 20
285.0102308068466
 30
0.0
 40
10.74999999999998
  0
CIRCLE
  5
3FB
330
18
100
AcDbEntity
  8
1
  6
Continuous
100
AcDbCircle
 10
734.1501435376077
 20
285.0102308068466
 30
0.0
 40
6.0
  0
LINE
  5
3FC
330
18
100
AcDbEntity
  8
1
  6
Continuous
100
AcDbLine
 10
734.1501435376077
 20
294.8251858068464
 30
0.0
 11
742.6501435376077
 21
289.9177078068465
 31
0.0
  0
LINE
  5
3FD
330
18
100
AcDbEntity
  8
1
  6
Continuous
100
AcDbLine
 10
742.6501435376077
 20
280.1027538068465
 30
0.0
 11
734.1501435376077
 21
275.1952758068465
 31
0.0
  0
CIRCLE
  5
3FE
330
18
100
AcDbEntity
  8
1
  6
Continuous
100
AcDbCircle
 10
734.1501435376077
 20
285.0102308068466
 30
0.0
 40
8.5
  0
ARC
  5
3FF
330
18
100
AcDbEntity
  8
1
  6
Continuous
100
AcDbCircle
 10
512.4834225376081
 20
370.0102318068464
 30
0.0
 40
150.0
100
AcDbArc
 50
264.020843
 51
275.9791569999998
  0
LINE
  5
400
330
18
100
AcDbEntity
  8
4
  6
CENTER
100
AcDbLine
 10
464.4525935376078
 20
285.0102308068466
 30
0.0
 11
560.9339155376078
 21
285.0102308068466
 31
0.0
  0
LINE
  5
401
330
18
100
AcDbEntity
  8
1
  6
Continuous
100
AcDbLine
 10
487.2834225376078
 20
259.2612418068465
 30
0.0
 11
487.2834225376078
 21
310.7592208068465
 31
0.0
  0
ARC
  5
402
330
18
100
AcDbEntity
  8
1
  6
Continuous
100
AcDbCircle
 10
497.4834225376081
 20
226.7936118068466
 30
0.0
 40
6.0
100
AcDbArc
 50
180.0
 51
264.020843
  0
LINE
  5
403
330
18
100
AcDbEntity
  8
1
  6
Continuous
100
AcDbLine
 10
489.5221015376081
 20
256.7749368068465
 30
0.0
 11
491.4834225376081
 21
256.5687938068464
 31
0.0
  0
ARC
  5
404
330
18
100
AcDbEntity
  8
1
  6
Continuous
100
AcDbCircle
 10
489.783422537608
 20
259.2612418068465
 30
0.0
 40
2.5
100
AcDbArc
 50
180.0
 51
264.0
  0
LINE
  5
405
330
18
100
AcDbEntity
  8
1
  6
Continuous
100
AcDbLine
 10
489.5221015376081
 20
313.2455258068464
 30
0.0
 11
491.4834225376081
 21
313.4516688068464
 31
0.0
  0
LINE
  5
406
330
18
100
AcDbEntity
  8
1
  6
Continuous
100
AcDbLine
 10
475.6334225376081
 20
275.5102308068464
 30
0.0
 11
475.6334225376081
 21
294.5102308068464
 31
0.0
  0
ARC
  5
407
330
18
100
AcDbEntity
  8
1
  6
Continuous
100
AcDbCircle
 10
493.7849165376078
 20
285.0102308068466
 30
0.0
 40
18.151494
100
AcDbArc
 50
162.412046
 51
197.5879539999999
  0
ARC
  5
40B
330
18
100
AcDbEntity
  8
1
  6
Continuous
100
AcDbCircle
 10
480.4894855376081
 20
276.7829898068465
 30
0.0
 40
4.856062999999998
100
AcDbArc
 50
145.615753
 51
205.615753
  0
ARC
  5
40C
330
18
100
AcDbEntity
  8
1
  6
Continuous
100
AcDbCircle
 10
457.883422537608
 20
271.6884808068466
 30
0.0
 40
28.94999999999999
100
AcDbArc
 50
0.0
 51
19.55056799999999
  0
ARC
  5
40D
330
18
100
AcDbEntity
  8
1
  6
Continuous
100
AcDbCircle
 10
457.883422537608
 20
271.6884808068466
 30
0.0
 40
25.75
100
AcDbArc
 50
0.0
 51
19.55056799999999
  0
LINE
  5
40E
330
18
100
AcDbEntity
  8
1
  6
Continuous
100
AcDbLine
 10
476.4819275376081
 20
274.0405758068463
 30
0.0
 11
483.5257735376079
 21
274.0405758068463
 31
0.0
  0
LINE
  5
40F
330
18
100
AcDbEntity
  8
1
  6
Continuous
100
AcDbLine
 10
476.4819275376081
 20
274.0405758068463
 30
0.0
 11
475.6334225376081
 21
275.5102308068464
 31
0.0
  0
LINE
  5
410
330
18
100
AcDbEntity
  8
1
  6
Continuous
100
AcDbLine
 10
486.833422537608
 20
272.3102308068463
 30
0.0
 11
487.2834225376078
 21
272.3102308068463
 31
0.0
  0
LINE
  5
411
330
18
100
AcDbEntity
  8
1
  6
Continuous
100
AcDbLine
 10
483.6334225376081
 20
266.0964408068466
 30
0.0
 11
486.833422537608
 21
266.0964408068466
 31
0.0
  0
LINE
  5
412
330
18
100
AcDbEntity
  8
1
  6
Continuous
100
AcDbLine
 10
483.6334225376081
 20
266.0964408068466
 30
0.0
 11
483.6334225376081
 21
271.6884808068466
 31
0.0
  0
LINE
  5
413
330
18
100
AcDbEntity
  8
1
  6
Continuous
100
AcDbLine
 10
476.4819275376081
 20
279.5254028068465
 30
0.0
 11
482.4118785376079
 21
279.5254028068465
 31
0.0
  0
LINE
  5
414
330
18
100
AcDbEntity
  8
1
  6
Continuous
100
AcDbLine
 10
476.4819275376081
 20
295.9798858068463
 30
0.0
 11
475.6334225376081
 21
294.5102308068464
 31
0.0
  0
ARC
  5
415
330
18
100
AcDbEntity
  8
1
  6
Continuous
100
AcDbCircle
 10
480.4894855376081
 20
293.2374718068465
 30
0.0
 40
4.856062999999998
100
AcDbArc
 50
154.3842469999999
 51
214.384247
  0
LINE
  5
416
330
18
100
AcDbEntity
  8
1
  6
Continuous
100
AcDbLine
 10
476.4819275376081
 20
295.9798858068463
 30
0.0
 11
477.2969085376081
 21
295.9798858068463
 31
0.0
  0
LINE
  5
417
330
18
100
AcDbEntity
  8
1
  6
Continuous
100
AcDbLine
 10
476.4819275376081
 20
290.4950588068463
 30
0.0
 11
478.8349695376078
 21
290.4950588068463
 31
0.0
  0
LINE
  5
418
330
18
100
AcDbEntity
  8
1
  6
Continuous
100
AcDbLine
 10
486.833422537608
 20
297.7102308068466
 30
0.0
 11
487.2834225376078
 21
297.7102308068466
 31
0.0
  0
ARC
  5
419
330
18
100
AcDbEntity
  8
1
  6
Continuous
100
AcDbCircle
 10
489.783422537608
 20
310.7592208068465
 30
0.0
 40
2.5
100
AcDbArc
 50
96.0
 51
180.0
  0
LINE
  5
41A
330
18
100
AcDbEntity
  8
1
  6
Continuous
100
AcDbLine
 10
537.6834225376078
 20
259.2612418068465
 30
0.0
 11
537.6834225376078
 21
310.7592208068465
 31
0.0
  0
ARC
  5
41B
330
18
100
AcDbEntity
  8
1
  6
Continuous
100
AcDbCircle
 10
527.4834225376081
 20
226.7936118068466
 30
0.0
 40
6.0
100
AcDbArc
 50
275.9791569999998
 51
0.0
  0
ARC
  5
41C
330
18
100
AcDbEntity
  8
1
  6
Continuous
100
AcDbCircle
 10
535.1834225376078
 20
259.2612418068465
 30
0.0
 40
2.5
100
AcDbArc
 50
276.0
 51
0.0
  0
LINE
  5
41D
330
18
100
AcDbEntity
  8
1
  6
Continuous
100
AcDbLine
 10
535.4447435376081
 20
256.7749368068465
 30
0.0
 11
533.4834225376081
 21
256.5687938068464
 31
0.0
  0
LINE
  5
41E
330
18
100
AcDbEntity
  8
1
  6
Continuous
100
AcDbLine
 10
554.333586537608
 20
276.5102308068465
 30
0.0
 11
554.333586537608
 21
293.5102308068464
 31
0.0
  0
ARC
  5
41F
330
18
100
AcDbEntity
  8
1
  6
Continuous
100
AcDbCircle
 10
538.0927755376078
 20
285.0102308068466
 30
0.0
 40
16.24081099999999
100
AcDbArc
 50
342.4120459999998
 51
17.587954
  0
LINE
  5
420
330
18
100
AcDbEntity
  8
1
  6
Continuous
100
AcDbLine
 10
556.6334015376082
 20
290.2102308068466
 30
0.0
 11
556.6334015376082
 21
279.8102308068464
 31
0.0
  0
LINE
  5
421
330
18
100
AcDbEntity
  8
1
  6
Continuous
100
AcDbLine
 10
555.8334015376081
 20
291.0102308068464
 30
0.0
 11
555.8334015376081
 21
279.0102308068465
 31
0.0
  0
LINE
  5
422
330
18
100
AcDbEntity
  8
1
  6
Continuous
100
AcDbLine
 10
553.5743975376078
 20
280.1027538068465
 30
0.0
 11
544.3335865376078
 21
280.1027538068465
 31
0.0
  0
LINE
  5
423
330
18
100
AcDbEntity
  8
1
  6
Continuous
100
AcDbLine
 10
553.5743975376078
 20
275.1952758068465
 30
0.0
 11
544.3335865376078
 21
275.1952758068465
 31
0.0
  0
ARC
  5
424
330
18
100
AcDbEntity
  8
1
  6
Continuous
100
AcDbCircle
 10
567.0834225376081
 20
271.6884808068466
 30
0.0
 40
28.94999999999999
100
AcDbArc
 50
160.449432
 51
180.0
  0
LINE
  5
425
330
18
100
AcDbEntity
  8
1
  6
Continuous
100
AcDbLine
 10
544.3335865376078
 20
284.7372298068464
 30
0.0
 11
544.3335865376078
 21
274.2602308068465
 31
0.0
  0
ARC
  5
426
330
18
100
AcDbEntity
  8
1
  6
Continuous
100
AcDbCircle
 10
567.0834225376081
 20
271.6884808068466
 30
0.0
 40
25.75
100
AcDbArc
 50
160.449432
 51
180.0
  0
LINE
  5
427
330
18
100
AcDbEntity
  8
1
  6
Continuous
100
AcDbLine
 10
538.1334225376081
 20
272.3102308068463
 30
0.0
 11
537.6834225376078
 21
272.3102308068463
 31
0.0
  0
LINE
  5
428
330
18
100
AcDbEntity
  8
1
  6
Continuous
100
AcDbLine
 10
541.3334225376082
 20
266.0964408068466
 30
0.0
 11
541.3334225376082
 21
271.6884808068466
 31
0.0
  0
LINE
  5
429
330
18
100
AcDbEntity
  8
1
  6
Continuous
100
AcDbLine
 10
544.3335865376078
 20
274.2602308068465
 30
0.0
 11
541.4621695376081
 21
274.2602308068465
 31
0.0
  0
LINE
  5
42A
330
18
100
AcDbEntity
  8
1
  6
Continuous
100
AcDbLine
 10
541.3334225376082
 20
266.0964408068466
 30
0.0
 11
538.1334225376081
 21
266.0964408068466
 31
0.0
  0
ARC
  5
42B
330
18
100
AcDbEntity
  8
1
  6
Continuous
100
AcDbCircle
 10
549.9886875376081
 20
277.6490148068463
 30
0.0
 40
4.344898999999998
100
AcDbArc
 50
334.384247
 51
34.38424699999997
  0
LINE
  5
42C
330
18
100
AcDbEntity
  8
1
  6
Continuous
100
AcDbLine
 10
553.5743975376078
 20
275.1952758068465
 30
0.0
 11
554.333586537608
 21
276.5102308068465
 31
0.0
  0
LINE
  5
42D
330
18
100
AcDbEntity
  8
1
  6
Continuous
100
AcDbLine
 10
555.8334015376081
 20
279.0102308068465
 30
0.0
 11
554.3334425376079
 21
279.0102308068465
 31
0.0
  0
LINE
  5
42E
330
18
100
AcDbEntity
  8
2
  6
Continuous
100
AcDbLine
 10
556.5099015376081
 20
279.6867308068466
 30
0.0
 11
554.333586537608
 21
279.6867308068466
 31
0.0
  0
LINE
  5
42F
330
18
100
AcDbEntity
  8
1
  6
Continuous
100
AcDbLine
 10
556.6334015376082
 20
279.8102308068464
 30
0.0
 11
555.8334015376081
 21
279.0102308068465
 31
0.0
  0
LINE
  5
430
330
18
100
AcDbEntity
  8
1
  6
Continuous
100
AcDbLine
 10
538.1334225376081
 20
297.7102308068466
 30
0.0
 11
537.6834225376078
 21
297.7102308068466
 31
0.0
  0
ARC
  5
431
330
18
100
AcDbEntity
  8
1
  6
Continuous
100
AcDbCircle
 10
535.1834225376078
 20
310.7592208068465
 30
0.0
 40
2.5
100
AcDbArc
 50
0.0
 51
84.0
  0
LINE
  5
432
330
18
100
AcDbEntity
  8
1
  6
Continuous
100
AcDbLine
 10
535.4447435376081
 20
313.2455258068464
 30
0.0
 11
533.4834225376081
 21
313.4516688068464
 31
0.0
  0
LINE
  5
433
330
18
100
AcDbEntity
  8
1
  6
Continuous
100
AcDbLine
 10
553.5743975376078
 20
294.8251858068464
 30
0.0
 11
547.360105537608
 21
294.8251858068464
 31
0.0
  0
LINE
  5
434
330
18
100
AcDbEntity
  8
1
  6
Continuous
100
AcDbLine
 10
553.5743975376078
 20
289.9177078068465
 30
0.0
 11
545.9601235376078
 21
289.9177078068465
 31
0.0
  0
LINE
  5
435
330
18
100
AcDbEntity
  8
1
  6
Continuous
100
AcDbLine
 10
553.5743975376078
 20
294.8251858068464
 30
0.0
 11
554.333586537608
 21
293.5102308068464
 31
0.0
  0
ARC
  5
436
330
18
100
AcDbEntity
  8
1
  6
Continuous
100
AcDbCircle
 10
549.9886875376081
 20
292.3714468068464
 30
0.0
 40
4.344898999999998
100
AcDbArc
 50
325.6157529999998
 51
25.615753
  0
LINE
  5
437
330
18
100
AcDbEntity
  8
1
  6
Continuous
100
AcDbLine
 10
555.8334015376081
 20
291.0102308068464
 30
0.0
 11
554.3334425376079
 21
291.0102308068464
 31
0.0
  0
LINE
  5
438
330
18
100
AcDbEntity
  8
2
  6
Continuous
100
AcDbLine
 10
556.5099015376081
 20
290.3337308068464
 30
0.0
 11
554.333586537608
 21
290.3337308068464
 31
0.0
  0
LINE
  5
439
330
18
100
AcDbEntity
  8
1
  6
Continuous
100
AcDbLine
 10
555.8334015376081
 20
291.0102308068464
 30
0.0
 11
556.6334015376082
 21
290.2102308068466
 31
0.0
  0
CIRCLE
  5
43A
330
18
100
AcDbEntity
  8
2
  6
Continuous
100
AcDbCircle
 10
734.1501435376077
 20
285.0102308068466
 30
0.0
 40
5.3235
  0
LINE
  5
43B
330
18
100
AcDbEntity
  8
1
  6
Continuous
100
AcDbLine
 10
725.6501435376077
 20
280.1027538068465
 30
0.0
 11
725.6501435376077
 21
289.9177078068465
 31
0.0
  0
LINE
  5
43C
330
18
100
AcDbEntity
  8
1
  6
Continuous
100
AcDbLine
 10
725.6501435376077
 20
280.1027538068465
 30
0.0
 11
734.1501435376077
 21
275.1952758068465
 31
0.0
  0
LINE
  5
43D
330
18
100
AcDbEntity
  8
1
  6
Continuous
100
AcDbLine
 10
734.1501435376077
 20
294.8251858068464
 30
0.0
 11
725.6501435376077
 21
289.9177078068465
 31
0.0
  0
LINE
  5
43E
330
18
100
AcDbEntity
  8
1
  6
Continuous
100
AcDbLine
 10
742.6501435376077
 20
280.1027538068465
 30
0.0
 11
742.6501435376077
 21
289.9177078068465
 31
0.0
  0
LINE
  5
43F
330
18
100
AcDbEntity
  8
1
  6
Continuous
100
AcDbLine
 10
801.6501435376078
 20
385.0102308068466
 30
0.0
 11
666.6501435376077
 21
385.0102308068466
 31
0.0
  0
ARC
  5
440
330
18
100
AcDbEntity
  8
1
  6
Continuous
100
AcDbCircle
 10
512.4834225376081
 20
200.0102308068465
 30
0.0
 40
150.0
100
AcDbArc
 50
84.020843
 51
95.97915699999999
  0
LINE
  5
441
330
18
100
AcDbEntity
  8
1
  6
Continuous
100
AcDbLine
 10
484.7538125376082
 20
379.0102948068466
 30
0.0
 11
540.232724537608
 21
379.0103928068465
 31
0.0
  0
LINE
  5
442
330
18
100
AcDbEntity
  8
1
  6
Continuous
100
AcDbLine
 10
469.4834225376081
 20
385.0102688068464
 30
0.0
 11
555.4834225376081
 21
385.0104178068466
 31
0.0
  0
LINE
  5
443
330
18
100
AcDbEntity
  8
1
  6
Continuous
100
AcDbLine
 10
469.4834225376081
 20
381.8102308068464
 30
0.0
 11
555.4834225376081
 21
381.8102308068464
 31
0.0
  0
LINE
  5
444
330
18
100
AcDbEntity
  8
1
  6
Continuous
100
AcDbLine
 10
473.8863525376078
 20
380.7841978068466
 30
0.0
 11
473.8863525376078
 21
342.0104098068464
 31
0.0
  0
LINE
  5
445
330
18
100
AcDbEntity
  8
1
  6
Continuous
100
AcDbLine
 10
470.6863525376078
 20
380.8102308068464
 30
0.0
 11
470.6863525376078
 21
342.0104158068466
 31
0.0
  0
ARC
  5
446
330
18
100
AcDbEntity
  8
1
  6
Continuous
100
AcDbCircle
 10
497.4834225376081
 20
343.2268508068464
 30
0.0
 40
6.0
100
AcDbArc
 50
95.97915699999999
 51
180.0
  0
LINE
  5
447
330
18
100
AcDbEntity
  8
4
  6
CENTER
100
AcDbLine
 10
480.9834225376079
 20
389.7486288068464
 30
0.0
 11
480.9834225376079
 21
375.8896808068464
 31
0.0
  0
LINE
  5
448
330
18
100
AcDbEntity
  8
1
  6
Continuous
100
AcDbLine
 10
471.7159225376081
 20
381.8102148068464
 30
0.0
 11
474.465922537608
 21
380.5102198068464
 31
0.0
  0
ARC
  5
449
330
18
100
AcDbEntity
  8
1
  6
Continuous
100
AcDbCircle
 10
474.8863525376078
 20
380.8102308068464
 30
0.0
 40
4.2
100
AcDbArc
 50
166.225853
 51
180.0
  0
LINE
  5
44A
330
18
100
AcDbEntity
  8
1
  6
Continuous
100
AcDbLine
 10
469.4834225376081
 20
385.0099978068464
 30
0.0
 11
469.4834225376081
 21
381.8101148068464
 31
0.0
  0
ARC
  5
44B
330
18
100
AcDbEntity
  8
1
  6
Continuous
100
AcDbCircle
 10
484.7620675376081
 20
382.6694458068465
 30
0.0
 40
3.659159999999998
100
AcDbArc
 50
216.162993
 51
270.0
  0
LINE
  5
44C
330
18
100
AcDbEntity
  8
1
  6
Continuous
100
AcDbLine
 10
474.465922537608
 20
380.5102198068464
 30
0.0
 11
487.4659225376078
 21
380.5102428068465
 31
0.0
  0
LINE
  5
44D
330
18
100
AcDbEntity
  8
1
  6
Continuous
100
AcDbLine
 10
487.4659225376078
 20
380.5102428068465
 30
0.0
 11
490.2159225376078
 21
381.7763008068464
 31
0.0
  0
LINE
  5
44E
330
18
100
AcDbEntity
  8
1
  6
Continuous
100
AcDbLine
 10
551.080492537608
 20
380.7841978068466
 30
0.0
 11
551.080492537608
 21
342.0104098068464
 31
0.0
  0
LINE
  5
44F
330
18
100
AcDbEntity
  8
1
  6
Continuous
100
AcDbLine
 10
554.280492537608
 20
380.8102308068464
 30
0.0
 11
554.280492537608
 21
342.0104158068466
 31
0.0
  0
ARC
  5
450
330
18
100
AcDbEntity
  8
1
  6
Continuous
100
AcDbCircle
 10
527.4834225376081
 20
343.2268508068464
 30
0.0
 40
6.0
100
AcDbArc
 50
0.0
 51
84.020843
  0
LINE
  5
451
330
18
100
AcDbEntity
  8
4
  6
CENTER
100
AcDbLine
 10
543.9834225376078
 20
389.7486288068464
 30
0.0
 11
543.9834225376078
 21
375.8896808068464
 31
0.0
  0
LINE
  5
452
330
18
100
AcDbEntity
  8
1
  6
Continuous
100
AcDbLine
 10
550.5009225376078
 20
380.5102198068464
 30
0.0
 11
537.5009225376078
 21
380.5102428068465
 31
0.0
  0
LINE
  5
453
330
18
100
AcDbEntity
  8
1
  6
Continuous
100
AcDbLine
 10
537.5009225376078
 20
380.5102428068465
 30
0.0
 11
534.7509225376078
 21
381.7763008068464
 31
0.0
  0
ARC
  5
454
330
18
100
AcDbEntity
  8
1
  6
Continuous
100
AcDbCircle
 10
540.2047775376079
 20
382.6694458068465
 30
0.0
 40
3.659159999999998
100
AcDbArc
 50
270.0
 51
323.8370069999998
  0
LINE
  5
455
330
18
100
AcDbEntity
  8
1
  6
Continuous
100
AcDbLine
 10
553.2509225376078
 20
381.8102148068464
 30
0.0
 11
550.5009225376078
 21
380.5102198068464
 31
0.0
  0
ARC
  5
456
330
18
100
AcDbEntity
  8
1
  6
Continuous
100
AcDbCircle
 10
550.0804925376082
 20
380.8102308068464
 30
0.0
 40
4.2
100
AcDbArc
 50
0.0
 51
13.774147
  0
LINE
  5
457
330
18
100
AcDbEntity
  8
1
  6
Continuous
100
AcDbLine
 10
555.4834225376081
 20
385.0099978068464
 30
0.0
 11
555.4834225376081
 21
381.8101148068464
 31
0.0
  0
LINE
  5
458
330
18
100
AcDbEntity
  8
1
  6
Continuous
100
AcDbLine
 10
692.536518537608
 20
381.8102308068464
 30
0.0
 11
666.6501435376077
 21
381.8102308068464
 31
0.0
  0
LINE
  5
459
330
18
100
AcDbEntity
  8
1
  6
Continuous
100
AcDbLine
 10
666.6501435376077
 20
385.0102308068466
 30
0.0
 11
666.6501435376077
 21
381.8102308068464
 31
0.0
  0
LINE
  5
45A
330
18
100
AcDbEntity
  8
4
  6
CENTER
100
AcDbLine
 10
678.1501435376077
 20
389.7486288068464
 30
0.0
 11
678.1501435376077
 21
375.8896808068464
 31
0.0
  0
LINE
  5
45B
330
18
100
AcDbEntity
  8
1
  6
Continuous
100
AcDbLine
 10
684.650143537608
 20
380.5100278068464
 30
0.0
 11
687.3987035376077
 21
381.7754238068464
 31
0.0
  0
LINE
  5
45C
330
18
100
AcDbEntity
  8
1
  6
Continuous
100
AcDbLine
 10
681.7351355376081
 20
379.0102928068463
 30
0.0
 11
692.7326745376078
 21
379.0102928068463
 31
0.0
  0
ARC
  5
45D
330
18
100
AcDbEntity
  8
1
  6
Continuous
100
AcDbCircle
 10
686.4439005376079
 20
377.6102308068465
 30
0.0
 40
7.4
100
AcDbArc
 50
12.22425399999999
 51
90.0
  0
ARC
  5
45E
330
18
100
AcDbEntity
  8
1
  6
Continuous
100
AcDbCircle
 10
686.6532535376078
 20
373.8102308068464
 30
0.0
 40
8.0
100
AcDbArc
 50
12.22425399999999
 51
90.0
  0
LINE
  5
45F
330
18
100
AcDbEntity
  8
1
  6
Continuous
100
AcDbLine
 10
671.6501435376081
 20
380.5100058068465
 30
0.0
 11
684.650143537608
 21
380.5100278068464
 31
0.0
  0
LINE
  5
460
330
18
100
AcDbEntity
  8
1
  6
Continuous
100
AcDbLine
 10
668.9001435376077
 20
381.8100008068465
 30
0.0
 11
671.6501435376081
 21
380.5100058068465
 31
0.0
  0
ARC
  5
461
330
18
100
AcDbEntity
  8
1
  6
Continuous
100
AcDbCircle
 10
681.7351355376081
 20
382.7102928068464
 30
0.0
 40
3.7
100
AcDbArc
 50
216.489037
 51
270.0
  0
LINE
  5
462
330
18
100
AcDbEntity
  8
1
  6
Continuous
100
AcDbLine
 10
786.5651515376081
 20
379.0102928068463
 30
0.0
 11
775.5676125376082
 21
379.0102928068463
 31
0.0
  0
ARC
  5
463
330
18
100
AcDbEntity
  8
1
  6
Continuous
100
AcDbCircle
 10
781.6470335376078
 20
373.8102308068464
 30
0.0
 40
8.0
100
AcDbArc
 50
90.0
 51
167.775746
  0
ARC
  5
464
330
18
100
AcDbEntity
  8
1
  6
Continuous
100
AcDbCircle
 10
781.8563865376077
 20
377.6102308068465
 30
0.0
 40
7.4
100
AcDbArc
 50
90.0
 51
167.775746
  0
LINE
  5
465
330
18
100
AcDbEntity
  8
4
  6
CENTER
100
AcDbLine
 10
790.1501435376077
 20
389.7486288068464
 30
0.0
 11
790.1501435376077
 21
375.8896808068464
 31
0.0
  0
LINE
  5
466
330
18
100
AcDbEntity
  8
1
  6
Continuous
100
AcDbLine
 10
775.7637685376082
 20
381.8102308068464
 30
0.0
 11
801.6501435376078
 21
381.8102308068464
 31
0.0
  0
LINE
  5
467
330
18
100
AcDbEntity
  8
1
  6
Continuous
100
AcDbLine
 10
796.6501435376077
 20
380.5100058068465
 30
0.0
 11
783.6501435376077
 21
380.5100278068464
 31
0.0
  0
LINE
  5
468
330
18
100
AcDbEntity
  8
1
  6
Continuous
100
AcDbLine
 10
783.6501435376077
 20
380.5100278068464
 30
0.0
 11
780.9015835376079
 21
381.7754238068464
 31
0.0
  0
ARC
  5
469
330
18
100
AcDbEntity
  8
1
  6
Continuous
100
AcDbCircle
 10
786.5651515376081
 20
382.7102928068464
 30
0.0
 40
3.7
100
AcDbArc
 50
270.0
 51
323.510963
  0
LINE
  5
46A
330
18
100
AcDbEntity
  8
1
  6
Continuous
100
AcDbLine
 10
801.6501435376078
 20
385.0102308068466
 30
0.0
 11
801.6501435376078
 21
381.8102308068464
 31
0.0
  0
LINE
  5
46B
330
18
100
AcDbEntity
  8
1
  6
Continuous
100
AcDbLine
 10
799.4001435376077
 20
381.8100008068465
 30
0.0
 11
796.6501435376077
 21
380.5100058068465
 31
0.0
  0
ENDSEC
  0
SECTION
  2
OBJECTS
  0
DICTIONARY
  5
C
330
0
100
AcDbDictionary
281
     1
  3
ACAD_CIP_PREVIOUS_PRODUCT_INFO
350
4DC
  3
ACAD_COLOR
350
4BF
  3
ACAD_DETAILVIEWSTYLE
350
4D8
  3
ACAD_GROUP
350
D
  3
ACAD_LAYOUT
350
94
  3
ACAD_MATERIAL
350
48D
  3
ACAD_MLEADERSTYLE
350
4D4
  3
ACAD_MLINESTYLE
350
1B
  3
ACAD_PLOTSETTINGS
350
95
  3
ACAD_PLOTSTYLENAME
350
48B
  3
ACAD_SCALELIST
350
4C2
  3
ACAD_SECTIONVIEWSTYLE
350
4D6
  3
ACAD_TABLESTYLE
350
4C0
  3
ACAD_VISUALSTYLE
350
4A6
  3
ACDB_RECOMPOSE_DATA
350
4FA
  3
AcDbVariableDictionary
350
4ED
  3
CONTENTDICTIONARY
350
3D
  3
DWGPROPS
350
4FB
  0
DICTIONARY
  5
4DD
330
E
100
AcDbDictionary
280
     1
281
     1
  3
ADSK_XREC_LAYER_RECONCILED
360
4DE
  0
DICTIONARY
  5
4DF
330
4E
100
AcDbDictionary
280
     1
281
     1
  3
ADSK_XREC_LAYER_RECONCILED
360
4E0
  0
DICTIONARY
  5
4E1
330
4F
100
AcDbDictionary
280
     1
281
     1
  3
ADSK_XREC_LAYER_RECONCILED
360
4E2
  0
DICTIONARY
  5
4E3
330
50
100
AcDbDictionary
280
     1
281
     1
  3
ADSK_XREC_LAYER_RECONCILED
360
4E4
  0
DICTIONARY
  5
4E5
330
51
100
AcDbDictionary
280
     1
281
     1
  3
ADSK_XREC_LAYER_RECONCILED
360
4E6
  0
DICTIONARY
  5
4E7
330
52
100
AcDbDictionary
280
     1
281
     1
  3
ADSK_XREC_LAYER_RECONCILED
360
4E8
  0
DICTIONARY
  5
4E9
330
53
100
AcDbDictionary
280
     1
281
     1
  3
ADSK_XREC_LAYER_RECONCILED
360
4EA
  0
DICTIONARY
  5
4EB
330
54
100
AcDbDictionary
280
     1
281
     1
  3
ADSK_XREC_LAYER_RECONCILED
360
4EC
  0
DICTIONARY
  5
486
330
18
100
AcDbDictionary
281
     1
  3
ACAD_LAYOUTSELFREF
350
487
  0
DICTIONARY
  5
484
330
15
100
AcDbDictionary
281
     1
  3
ACAD_LAYOUTSELFREF
350
485
  0
XRECORD
  5
4DC
102
{ACAD_REACTORS
330
C
102
}
330
C
100
AcDbXrecord
280
     1
300
ACDLT
300
2014
300
ACDLT_F_S
  0
DICTIONARY
  5
4BF
102
{ACAD_REACTORS
330
C
102
}
330
C
100
AcDbDictionary
281
     1
  0
DICTIONARY
  5
4D8
102
{ACAD_REACTORS
330
C
102
}
330
C
100
AcDbDictionary
281
     1
  3
Imperial24
350
4D9
  0
DICTIONARY
  5
D
102
{ACAD_REACTORS
330
C
102
}
330
C
100
AcDbDictionary
281
     1
  0
DICTIONARY
  5
94
102
{ACAD_REACTORS
330
C
102
}
330
C
100
AcDbDictionary
281
     1
  3
Model
350
4DA
  3
レイアウト1
350
4DB
  0
DICTIONARY
  5
48D
102
{ACAD_REACTORS
330
C
102
}
330
C
100
AcDbDictionary
281
     1
  3
ByBlock
350
496
  3
ByLayer
350
48E
  3
Global
350
49E
  0
DICTIONARY
  5
4D4
102
{ACAD_REACTORS
330
C
102
}
330
C
100
AcDbDictionary
281
     1
  3
Standard
350
4D5
  0
DICTIONARY
  5
1B
102
{ACAD_REACTORS
330
C
102
}
330
C
100
AcDbDictionary
281
     1
  3
STANDARD
350
1C
  0
DICTIONARY
  5
95
102
{ACAD_REACTORS
330
C
102
}
330
C
100
AcDbDictionary
281
     1
  0
ACDBDICTIONARYWDFLT
  5
48B
102
{ACAD_REACTORS
330
C
102
}
330
C
100
AcDbDictionary
281
     1
  3
Normal
350
48C
100
AcDbDictionaryWithDefault
340
48C
  0
DICTIONARY
  5
4C2
102
{ACAD_REACTORS
330
C
102
}
330
C
100
AcDbDictionary
281
     1
  3
A0
350
4C3
  3
A1
350
4C4
  3
A2
350
4C5
  3
A3
350
4C6
  3
A4
350
4C7
  3
A5
350
4C8
  3
A6
350
4C9
  3
A7
350
4CA
  3
A8
350
4CB
  3
A9
350
4CC
  3
B0
350
4CD
  3
B1
350
4CE
  3
B2
350
4CF
  3
B3
350
4D0
  3
B4
350
4D1
  3
B5
350
4D2
  3
B6
350
4D3
  0
DICTIONARY
  5
4D6
102
{ACAD_REACTORS
330
C
102
}
330
C
100
AcDbDictionary
281
     1
  3
Imperial24
350
4D7
  0
DICTIONARY
  5
4C0
102
{ACAD_REACTORS
330
C
102
}
330
C
100
AcDbDictionary
281
     1
  3
Standard
350
4C1
  0
DICTIONARY
  5
4A6
102
{ACAD_REACTORS
330
C
102
}
330
C
100
AcDbDictionary
281
     1
  3
2dWireframe
350
4AC
  3
Basic
350
4AB
  3
Brighten
350
4B2
  3
ColorChange
350
4B6
  3
Conceptual
350
4AF
  3
Dim
350
4B1
  3
EdgeColorOff
350
4BE
  3
Facepattern
350
4B5
  3
Flat
350
4A7
  3
FlatWithEdges
350
4A8
  3
Gouraud
350
4A9
  3
GouraudWithEdges
350
4AA
  3
Hidden
350
4AE
  3
JitterOff
350
4BC
  3
Linepattern
350
4B4
  3
OverhangOff
350
4BD
  3
Realistic
350
4B0
  3
Shaded
350
4BB
  3
Shaded with edges
350
4BA
  3
Shades of Gray
350
4B7
  3
Sketchy
350
4B8
  3
Thicken
350
4B3
  3
Wireframe
350
4AD
  3
X-Ray
350
4B9
  0
XRECORD
  5
4FA
102
{ACAD_REACTORS
330
C
102
}
330
C
100
AcDbXrecord
280
     1
 90
        1
330
4C1
  0
DICTIONARY
  5
4ED
102
{ACAD_REACTORS
330
C
102
}
330
C
100
AcDbDictionary
281
     1
  3
CANNOSCALE
350
4F2
  3
CMLEADERSTYLE
350
4EF
  3
CTABLESTYLE
350
4EE
  3
CVIEWDETAILSTYLE
350
4F0
  3
CVIEWSECTIONSTYLE
350
4F1
  3
DIMASSOC
350
4F5
  3
INDEXCTL
350
4F4
  3
SORTENTS
350
4F3
  3
XCLIPFRAME
350
4F6
  0
DICTIONARY
  5
3D
102
{ACAD_REACTORS
330
C
102
}
330
C
100
AcDbDictionary
281
     1
  0
XRECORD
  5
4FB
102
{ACAD_REACTORS
330
C
102
}
330
C
100
AcDbXrecord
280
     1
  1
DWGPROPS COOKIE
  2

  3

  4

  6

  7

  8
Yoshitsune
  9

300
=
301
=
302
=
303
=
304
=
305
=
306
=
307
=
308
=
309
=
 40
0.0027870949074074
 41
2454876.445328797
 42
2457192.688730822
  1

 90
        0
  0
XRECORD
  5
4DE
102
{ACAD_REACTORS
330
4DD
102
}
330
4DD
100
AcDbXrecord
280
     1
290
     1
  0
XRECORD
  5
4E0
102
{ACAD_REACTORS
330
4DF
102
}
330
4DF
100
AcDbXrecord
280
     1
290
     1
  0
XRECORD
  5
4E2
102
{ACAD_REACTORS
330
4E1
102
}
330
4E1
100
AcDbXrecord
280
     1
290
     1
  0
XRECORD
  5
4E4
102
{ACAD_REACTORS
330
4E3
102
}
330
4E3
100
AcDbXrecord
280
     1
290
     1
  0
XRECORD
  5
4E6
102
{ACAD_REACTORS
330
4E5
102
}
330
4E5
100
AcDbXrecord
280
     1
290
     1
  0
XRECORD
  5
4E8
102
{ACAD_REACTORS
330
4E7
102
}
330
4E7
100
AcDbXrecord
280
     1
290
     1
  0
XRECORD
  5
4EA
102
{ACAD_REACTORS
330
4E9
102
}
330
4E9
100
AcDbXrecord
280
     1
290
     1
  0
XRECORD
  5
4EC
102
{ACAD_REACTORS
330
4EB
102
}
330
4EB
100
AcDbXrecord
280
     1
290
     1
  0
XRECORD
  5
487
102
{ACAD_REACTORS
330
486
102
}
330
486
100
AcDbXrecord
280
     1
340
18
  0
XRECORD
  5
485
102
{ACAD_REACTORS
330
484
102
}
330
484
100
AcDbXrecord
280
     1
340
15
  0
ACDBDETAILVIEWSTYLE
  5
4D9
102
{ACAD_XDICTIONARY
360
533
102
}
102
{ACAD_REACTORS
330
4D8
102
}
330
4D8
100
AcDbModelDocViewStyle
 70
     0
  3
Imperial24
290
     0
100
AcDbDetailViewStyle
 70
     0
 71
     0
 90
        3
 71
     1
340
F
 40
0.24
340
0
 40
0.24
300

 40
0.36
280
     3
 71
     2
340
14
 90
       25
 71
     3
340
F
 40
0.24
 90
        1
 40
0.75
 90
        1
300
%<\AcVar ViewType \f "%tc1">% %<\AcVar ViewDetailId>%\PSCALE %<\AcVar ViewScale \f "%sn">%
 71
     4
340
14
 90
       25
340
14
 90
       25
280
     0
  0
LAYOUT
  5
4DA
102
{ACAD_XDICTIONARY
360
535
102
}
102
{ACAD_REACTORS
330
94
102
}
330
94
100
AcDbPlotSettings
  1

  2
Canon LBP9100C
  4

  6

 40
0.0
 41
0.0
 42
0.0
 43
0.0
 44
0.0
 45
0.0
 46
0.0
 47
0.0
 48
0.0
 49
0.0
140
0.0
141
0.0
142
1.0
143
1.0
 70
  1712
 72
     0
 73
     0
 74
     0
  7

 75
     0
147
1.0
148
0.0
149
0.0
100
AcDbLayout
  1
Model
 70
     1
 71
     0
 10
0.0
 20
0.0
 11
12.0
 21
9.0
 12
0.0
 22
0.0
 32
0.0
 14
0.0
 24
0.0
 34
0.0
 15
0.0
 25
0.0
 35
0.0
146
0.0
 13
0.0
 23
0.0
 33
0.0
 16
1.0
 26
0.0
 36
0.0
 17
0.0
 27
1.0
 37
0.0
 76
     0
330
18
331
483
  0
LAYOUT
  5
4DB
102
{ACAD_XDICTIONARY
360
537
102
}
102
{ACAD_REACTORS
330
94
102
}
330
94
100
AcDbPlotSettings
  1

  2
Canon LBP9100C
  4

  6

 40
0.0
 41
0.0
 42
0.0
 43
0.0
 44
0.0
 45
0.0
 46
0.0
 47
0.0
 48
0.0
 49
0.0
140
0.0
141
0.0
142
1.0
143
1.0
 70
   688
 72
     0
 73
     0
 74
     5
  7

 75
    16
147
1.0
148
0.0
149
0.0
100
AcDbLayout
  1
レイアウト1
 70
     1
 71
     1
 10
0.0
 20
0.0
 11
420.0
 21
297.0
 12
0.0
 22
0.0
 32
0.0
 14
1.000000000000000E+20
 24
1.000000000000000E+20
 34
1.000000000000000E+20
 15
-1.000000000000000E+20
 25
-1.000000000000000E+20
 35
-1.000000000000000E+20
146
0.0
 13
0.0
 23
0.0
 33
0.0
 16
1.0
 26
0.0
 36
0.0
 17
0.0
 27
1.0
 37
0.0
 76
     0
330
15
  0
MATERIAL
  5
496
102
{ACAD_XDICTIONARY
360
497
102
}
102
{ACAD_REACTORS
330
48D
102
}
330
48D
100
AcDbMaterial
  1
ByBlock
 72
     0
 43
0.0208333333333333
 43
0.0
 43
0.0
 43
0.0
 43
0.0
 43
0.0208333333333333
 43
0.0
 43
0.0
 43
0.0
 43
0.0
 43
1.0
 43
0.0
 43
0.0
 43
0.0
 43
0.0
 43
1.0
 77
     0
 47
0.0208333333333333
 47
0.0
 47
0.0
 47
0.0
 47
0.0
 47
0.0208333333333333
 47
0.0
 47
0.0
 47
0.0
 47
0.0
 47
1.0
 47
0.0
 47
0.0
 47
0.0
 47
0.0
 47
1.0
171
     0
 49
0.0208333333333333
 49
0.0
 49
0.0
 49
0.0
 49
0.0
 49
0.0208333333333333
 49
0.0
 49
0.0
 49
0.0
 49
0.0
 49
1.0
 49
0.0
 49
0.0
 49
0.0
 49
0.0
 49
1.0
175
     0
142
0.0208333333333333
142
0.0
142
0.0
142
0.0
142
0.0
142
0.0208333333333333
142
0.0
142
0.0
142
0.0
142
0.0
142
1.0
142
0.0
142
0.0
142
0.0
142
0.0
142
1.0
179
     0
144
0.0208333333333333
144
0.0
144
0.0
144
0.0
144
0.0
144
0.0208333333333333
144
0.0
144
0.0
144
0.0
144
0.0
144
1.0
144
0.0
144
0.0
144
0.0
144
0.0
144
1.0
147
0.0208333333333333
147
0.0
147
0.0
147
0.0
147
0.0
147
0.0208333333333333
147
0.0
147
0.0
147
0.0
147
0.0
147
1.0
147
0.0
147
0.0
147
0.0
147
0.0
147
1.0
  0
MATERIAL
  5
48E
102
{ACAD_XDICTIONARY
360
48F
102
}
102
{ACAD_REACTORS
330
48D
102
}
330
48D
100
AcDbMaterial
  1
ByLayer
 72
     0
 43
0.0208333333333333
 43
0.0
 43
0.0
 43
0.0
 43
0.0
 43
0.0208333333333333
 43
0.0
 43
0.0
 43
0.0
 43
0.0
 43
1.0
 43
0.0
 43
0.0
 43
0.0
 43
0.0
 43
1.0
 77
     0
 47
0.0208333333333333
 47
0.0
 47
0.0
 47
0.0
 47
0.0
 47
0.0208333333333333
 47
0.0
 47
0.0
 47
0.0
 47
0.0
 47
1.0
 47
0.0
 47
0.0
 47
0.0
 47
0.0
 47
1.0
171
     0
 49
0.0208333333333333
 49
0.0
 49
0.0
 49
0.0
 49
0.0
 49
0.0208333333333333
 49
0.0
 49
0.0
 49
0.0
 49
0.0
 49
1.0
 49
0.0
 49
0.0
 49
0.0
 49
0.0
 49
1.0
175
     0
142
0.0208333333333333
142
0.0
142
0.0
142
0.0
142
0.0
142
0.0208333333333333
142
0.0
142
0.0
142
0.0
142
0.0
142
1.0
142
0.0
142
0.0
142
0.0
142
0.0
142
1.0
179
     0
144
0.0208333333333333
144
0.0
144
0.0
144
0.0
144
0.0
144
0.0208333333333333
144
0.0
144
0.0
144
0.0
144
0.0
144
1.0
144
0.0
144
0.0
144
0.0
144
0.0
144
1.0
147
0.0208333333333333
147
0.0
147
0.0
147
0.0
147
0.0
147
0.0208333333333333
147
0.0
147
0.0
147
0.0
147
0.0
147
1.0
147
0.0
147
0.0
147
0.0
147
0.0
147
1.0
  0
MATERIAL
  5
49E
102
{ACAD_XDICTIONARY
360
49F
102
}
102
{ACAD_REACTORS
330
48D
102
}
330
48D
100
AcDbMaterial
  1
Global
 72
     0
 43
0.0208333333333333
 43
0.0
 43
0.0
 43
0.0
 43
0.0
 43
0.0208333333333333
 43
0.0
 43
0.0
 43
0.0
 43
0.0
 43
1.0
 43
0.0
 43
0.0
 43
0.0
 43
0.0
 43
1.0
 77
     0
 47
0.0208333333333333
 47
0.0
 47
0.0
 47
0.0
 47
0.0
 47
0.0208333333333333
 47
0.0
 47
0.0
 47
0.0
 47
0.0
 47
1.0
 47
0.0
 47
0.0
 47
0.0
 47
0.0
 47
1.0
171
     0
 49
0.0208333333333333
 49
0.0
 49
0.0
 49
0.0
 49
0.0
 49
0.0208333333333333
 49
0.0
 49
0.0
 49
0.0
 49
0.0
 49
1.0
 49
0.0
 49
0.0
 49
0.0
 49
0.0
 49
1.0
175
     0
142
0.0208333333333333
142
0.0
142
0.0
142
0.0
142
0.0
142
0.0208333333333333
142
0.0
142
0.0
142
0.0
142
0.0
142
1.0
142
0.0
142
0.0
142
0.0
142
0.0
142
1.0
179
     0
144
0.0208333333333333
144
0.0
144
0.0
144
0.0
144
0.0
144
0.0208333333333333
144
0.0
144
0.0
144
0.0
144
0.0
144
1.0
144
0.0
144
0.0
144
0.0
144
0.0
144
1.0
147
0.0208333333333333
147
0.0
147
0.0
147
0.0
147
0.0
147
0.0208333333333333
147
0.0
147
0.0
147
0.0
147
0.0
147
1.0
147
0.0
147
0.0
147
0.0
147
0.0
147
1.0
  0
MLEADERSTYLE
  5
4D5
102
{ACAD_REACTORS
330
4D4
102
}
330
4D4
100
AcDbMLeaderStyle
170
     2
171
     1
172
     0
 90
        2
 40
0.0
 41
0.0
173
     1
 91
-1056964608
340
12
 92
       -2
290
     1
 42
0.09
291
     1
 43
0.36
  3
Standard
 44
0.18
300

342
F
174
     1
178
     6
175
     1
176
     0
 93
-1056964608
 45
0.18
292
     0
297
     0
 46
0.18
 94
-1056964608
 47
1.0
 49
1.0
140
1.0
293
     1
141
0.0
294
     1
177
     0
142
1.0
295
     0
296
     0
143
0.125
1001
ACAD_MLEADERVER
1070
     2
  0
MLINESTYLE
  5
1C
102
{ACAD_REACTORS
330
1B
102
}
330
1B
100
AcDbMlineStyle
  2
STANDARD
 70
     0
  3

 62
   256
 51
90.0
 52
90.0
 71
     2
 49
0.5
 62
   256
  6
BYLAYER
 49
-0.5
 62
   256
  6
BYLAYER
  0
ACDBPLACEHOLDER
  5
48C
102
{ACAD_REACTORS
330
48B
102
}
330
48B
  0
SCALE
  5
4C3
102
{ACAD_REACTORS
330
4C2
102
}
330
4C2
100
AcDbScale
 70
     0
300
1:1
140
1.0
141
1.0
290
     1
  0
SCALE
  5
4C4
102
{ACAD_REACTORS
330
4C2
102
}
330
4C2
100
AcDbScale
 70
     0
300
1/128" = 1'-0"
140
0.0078125
141
12.0
290
     0
  0
SCALE
  5
4C5
102
{ACAD_REACTORS
330
4C2
102
}
330
4C2
100
AcDbScale
 70
     0
300
1/64" = 1'-0"
140
0.015625
141
12.0
290
     0
  0
SCALE
  5
4C6
102
{ACAD_REACTORS
330
4C2
102
}
330
4C2
100
AcDbScale
 70
     0
300
1/32" = 1'-0"
140
0.03125
141
12.0
290
     0
  0
SCALE
  5
4C7
102
{ACAD_REACTORS
330
4C2
102
}
330
4C2
100
AcDbScale
 70
     0
300
1/16" = 1'-0"
140
0.0625
141
12.0
290
     0
  0
SCALE
  5
4C8
102
{ACAD_REACTORS
330
4C2
102
}
330
4C2
100
AcDbScale
 70
     0
300
3/32" = 1'-0"
140
0.09375
141
12.0
290
     0
  0
SCALE
  5
4C9
102
{ACAD_REACTORS
330
4C2
102
}
330
4C2
100
AcDbScale
 70
     0
300
1/8" = 1'-0"
140
0.125
141
12.0
290
     0
  0
SCALE
  5
4CA
102
{ACAD_REACTORS
330
4C2
102
}
330
4C2
100
AcDbScale
 70
     0
300
3/16" = 1'-0"
140
0.1875
141
12.0
290
     0
  0
SCALE
  5
4CB
102
{ACAD_REACTORS
330
4C2
102
}
330
4C2
100
AcDbScale
 70
     0
300
1/4" = 1'-0"
140
0.25
141
12.0
290
     0
  0
SCALE
  5
4CC
102
{ACAD_REACTORS
330
4C2
102
}
330
4C2
100
AcDbScale
 70
     0
300
3/8" = 1'-0"
140
0.375
141
12.0
290
     0
  0
SCALE
  5
4CD
102
{ACAD_REACTORS
330
4C2
102
}
330
4C2
100
AcDbScale
 70
     0
300
1/2" = 1'-0"
140
0.5
141
12.0
290
     0
  0
SCALE
  5
4CE
102
{ACAD_REACTORS
330
4C2
102
}
330
4C2
100
AcDbScale
 70
     0
300
3/4" = 1'-0"
140
0.75
141
12.0
290
     0
  0
SCALE
  5
4CF
102
{ACAD_REACTORS
330
4C2
102
}
330
4C2
100
AcDbScale
 70
     0
300
1" = 1'-0"
140
1.0
141
12.0
290
     0
  0
SCALE
  5
4D0
102
{ACAD_REACTORS
330
4C2
102
}
330
4C2
100
AcDbScale
 70
     0
300
1-1/2" = 1'-0"
140
1.5
141
12.0
290
     0
  0
SCALE
  5
4D1
102
{ACAD_REACTORS
330
4C2
102
}
330
4C2
100
AcDbScale
 70
     0
300
3" = 1'-0"
140
3.0
141
12.0
290
     0
  0
SCALE
  5
4D2
102
{ACAD_REACTORS
330
4C2
102
}
330
4C2
100
AcDbScale
 70
     0
300
6" = 1'-0"
140
6.0
141
12.0
290
     0
  0
SCALE
  5
4D3
102
{ACAD_REACTORS
330
4C2
102
}
330
4C2
100
AcDbScale
 70
     0
300
1'-0" = 1'-0"
140
12.0
141
12.0
290
     0
  0
ACDBSECTIONVIEWSTYLE
  5
4D7
102
{ACAD_XDICTIONARY
360
531
102
}
102
{ACAD_REACTORS
330
4D6
102
}
330
4D6
100
AcDbModelDocViewStyle
 70
     0
  3
Imperial24
290
     0
100
AcDbSectionViewStyle
 70
     0
 71
     0
 90
       78
 71
     1
340
F
 40
0.24
340
0
340
0
 40
0.24
300
I, O, Q, S, X, Z
 40
0.48
 90
        3
 40
0.18
 90
        1
 71
     2
340
14
 90
       25
340
14
 90
       50
 40
0.24
 40
0.0
 40
0.24
 71
     3
340
F
 40
0.24
 90
        1
 40
0.75
 90
        1
300
%<\AcVar ViewType \f "%tc1">% %<\AcVar ViewSectionStartId>%-%<\AcVar ViewSectionEndId>%\PSCALE %<\AcVar ViewScale \f "%sn">%
 71
     4
300
ANSI31
 40
1.0
 90
        0
290
     0
290
     0
 90
        6
 40
0.0
 40
1.570796326794896
 40
0.2617993877991494
 40
1.308996938995747
 40
-0.2617993877991494
 40
1.832595714594046
  0
TABLESTYLE
  5
4C1
102
{ACAD_XDICTIONARY
360
4F8
102
}
102
{ACAD_REACTORS
330
4C0
102
}
330
4C0
100
AcDbTableStyle
  3
Standard
 70
     0
 71
     0
 40
0.06
 41
0.06
280
     0
281
     0
  7
STANDARD
140
0.18
170
     2
 62
     0
 63
     7
283
     0
274
    -2
284
     1
 64
     0
275
    -2
285
     1
 65
     0
276
    -2
286
     1
 66
     0
277
    -2
287
     1
 67
     0
278
    -2
288
     1
 68
     0
279
    -2
289
     1
 69
     0
  7
STANDARD
140
0.25
170
     5
 62
     0
 63
     7
283
     0
274
    -2
284
     1
 64
     0
275
    -2
285
     1
 65
     0
276
    -2
286
     1
 66
     0
277
    -2
287
     1
 67
     0
278
    -2
288
     1
 68
     0
279
    -2
289
     1
 69
     0
  7
STANDARD
140
0.18
170
     5
 62
     0
 63
     7
283
     0
274
    -2
284
     1
 64
     0
275
    -2
285
     1
 65
     0
276
    -2
286
     1
 66
     0
277
    -2
287
     1
 67
     0
278
    -2
288
     1
 68
     0
279
    -2
289
     1
 69
     0
  0
VISUALSTYLE
  5
4AC
102
{ACAD_XDICTIONARY
360
509
102
}
102
{ACAD_REACTORS
330
4A6
102
}
330
4A6
100
AcDbVisualStyle
  2
2dWireframe
 70
     4
 71
     0
 72
     2
 73
     0
 90
        0
 40
-0.6
 41
-30.0
 62
     5
 63
     7
 74
     1
 91
        4
 64
     7
 65
   257
 75
     1
175
     1
 42
1.0
 92
        0
 66
   257
 43
1.0
 76
     1
 77
     6
 78
     2
 67
     7
 79
     5
170
     0
171
     0
290
     0
174
     0
 93
        1
 44
0.0
173
     0
291
     0
 45
0.0
1001
ACAD
1000
AcDbSavedByObjectVersion
1070
     0
  0
VISUALSTYLE
  5
4AB
102
{ACAD_XDICTIONARY
360
507
102
}
102
{ACAD_REACTORS
330
4A6
102
}
330
4A6
100
AcDbVisualStyle
  2
Basic
 70
     7
 71
     1
 72
     0
 73
     1
 90
        0
 40
-0.6
 41
-30.0
 62
     5
 63
     7
 74
     0
 91
        4
 64
     7
 65
   257
 75
     1
175
     1
 42
1.0
 92
        8
 66
     7
 43
1.0
 76
     1
 77
     6
 78
     2
 67
     7
 79
     5
170
     0
171
     0
290
     0
174
     0
 93
        1
 44
0.0
173
     0
291
     1
 45
0.0
1001
ACAD
1000
AcDbSavedByObjectVersion
1070
     0
  0
VISUALSTYLE
  5
4B2
102
{ACAD_XDICTIONARY
360
515
102
}
102
{ACAD_REACTORS
330
4A6
102
}
330
4A6
100
AcDbVisualStyle
  2
Brighten
 70
    12
 71
     2
 72
     2
 73
     0
 90
        0
 40
-0.6
 41
-30.0
 62
     5
 63
     7
 74
     1
 91
        4
 64
     7
 65
   257
 75
     1
175
     1
 42
1.0
 92
        8
 66
     7
 43
1.0
 76
     1
 77
     6
 78
     2
 67
     7
 79
     5
170
     0
171
     0
290
     0
174
     0
 93
        1
 44
50.0
173
     0
291
     1
 45
0.0
1001
ACAD
1000
AcDbSavedByObjectVersion
1070
     0
  0
VISUALSTYLE
  5
4B6
102
{ACAD_XDICTIONARY
360
51D
102
}
102
{ACAD_REACTORS
330
4A6
102
}
330
4A6
100
AcDbVisualStyle
  2
ColorChange
 70
    16
 71
     2
 72
     2
 73
     3
 90
        0
 40
-0.6
 41
-30.0
 62
     5
 63
     8
 74
     1
 91
        4
 64
     7
 65
   257
 75
     1
175
     1
 42
1.0
 92
        8
 66
     8
 43
1.0
 76
     1
 77
     6
 78
     2
 67
     7
 79
     5
170
     0
171
     0
290
     0
174
     0
 93
        1
 44
0.0
173
     0
291
     1
 45
0.0
1001
ACAD
1000
AcDbSavedByObjectVersion
1070
     0
  0
VISUALSTYLE
  5
4AF
102
{ACAD_XDICTIONARY
360
50F
102
}
102
{ACAD_REACTORS
330
4A6
102
}
330
4A6
100
AcDbVisualStyle
  2
Conceptual
 70
     9
 71
     3
 72
     2
 73
     0
 90
        0
 40
-0.6
 41
-30.0
 62
     5
 63
     7
 74
     2
 91
        2
 64
     7
 65
   257
 75
     1
175
     1
 42
179.0
 92
        8
 66
     7
 43
1.0
 76
     1
 77
     6
 78
     2
 67
     7
 79
     3
170
     0
171
     0
290
     0
174
     0
 93
        1
 44
0.0
173
     0
291
     0
 45
0.0
1001
ACAD
1000
AcDbSavedByObjectVersion
1070
     0
  0
VISUALSTYLE
  5
4B1
102
{ACAD_XDICTIONARY
360
513
102
}
102
{ACAD_REACTORS
330
4A6
102
}
330
4A6
100
AcDbVisualStyle
  2
Dim
 70
    11
 71
     2
 72
     2
 73
     0
 90
        0
 40
-0.6
 41
-30.0
 62
     5
 63
     7
 74
     1
 91
        4
 64
     7
 65
   257
 75
     1
175
     1
 42
1.0
 92
        8
 66
     7
 43
1.0
 76
     1
 77
     6
 78
     2
 67
     7
 79
     5
170
     0
171
     0
290
     0
174
     0
 93
        1
 44
-50.0
173
     0
291
     1
 45
0.0
1001
ACAD
1000
AcDbSavedByObjectVersion
1070
     0
  0
VISUALSTYLE
  5
4BE
102
{ACAD_XDICTIONARY
360
52D
102
}
102
{ACAD_REACTORS
330
4A6
102
}
330
4A6
100
AcDbVisualStyle
  2
EdgeColorOff
 70
    22
 71
     2
 72
     2
 73
     0
 90
        0
 40
-0.6
 41
-30.0
 62
     5
 63
     7
 74
     1
 91
        4
 64
     7
 65
   257
 75
     1
175
     1
 42
1.0
 92
        8
 66
     7
 43
1.0
 76
     1
 77
     6
 78
     2
 67
     7
 79
     5
170
     0
171
     0
290
     0
174
     0
 93
        1
 44
0.0
173
     0
291
     1
 45
0.0
1001
ACAD
1000
AcDbSavedByObjectVersion
1070
     0
  0
VISUALSTYLE
  5
4B5
102
{ACAD_XDICTIONARY
360
51B
102
}
102
{ACAD_REACTORS
330
4A6
102
}
330
4A6
100
AcDbVisualStyle
  2
Facepattern
 70
    15
 71
     2
 72
     2
 73
     0
 90
        0
 40
-0.6
 41
-30.0
 62
     5
 63
     7
 74
     1
 91
        4
 64
     7
 65
   257
 75
     1
175
     1
 42
1.0
 92
        8
 66
     7
 43
1.0
 76
     1
 77
     6
 78
     2
 67
     7
 79
     5
170
     0
171
     0
290
     0
174
     0
 93
        1
 44
0.0
173
     0
291
     1
 45
0.0
1001
ACAD
1000
AcDbSavedByObjectVersion
1070
     0
  0
VISUALSTYLE
  5
4A7
102
{ACAD_XDICTIONARY
360
4FF
102
}
102
{ACAD_REACTORS
330
4A6
102
}
330
4A6
100
AcDbVisualStyle
  2
Flat
 70
     0
 71
     2
 72
     1
 73
     1
 90
        2
 40
-0.6
 41
30.0
 62
     5
 63
     7
 74
     0
 91
        0
 64
     7
 65
   257
 75
     1
175
     1
 42
1.0
 92
        8
 66
     7
 43
1.0
 76
     1
 77
     6
 78
     2
 67
     7
 79
     5
170
     0
171
     0
290
     0
174
     0
 93
       13
 44
0.0
173
     0
291
     1
 45
0.0
1001
ACAD
1000
AcDbSavedByObjectVersion
1070
     0
  0
VISUALSTYLE
  5
4A8
102
{ACAD_XDICTIONARY
360
501
102
}
102
{ACAD_REACTORS
330
4A6
102
}
330
4A6
100
AcDbVisualStyle
  2
FlatWithEdges
 70
     1
 71
     2
 72
     1
 73
     1
 90
        2
 40
-0.6
 41
30.0
 62
     5
 63
     7
 74
     1
 91
        0
 64
     7
 65
   257
 75
     1
175
     1
 42
1.0
 92
        0
 66
   257
 43
1.0
 76
     1
 77
     6
 78
     2
 67
     7
 79
     5
170
     0
171
     0
290
     0
174
     0
 93
       13
 44
0.0
173
     0
291
     1
 45
0.0
1001
ACAD
1000
AcDbSavedByObjectVersion
1070
     0
  0
VISUALSTYLE
  5
4A9
102
{ACAD_XDICTIONARY
360
503
102
}
102
{ACAD_REACTORS
330
4A6
102
}
330
4A6
100
AcDbVisualStyle
  2
Gouraud
 70
     2
 71
     2
 72
     2
 73
     1
 90
        2
 40
-0.6
 41
30.0
 62
     5
 63
     7
 74
     0
 91
        0
 64
     7
 65
   257
 75
     1
175
     1
 42
1.0
 92
        0
 66
     7
 43
1.0
 76
     1
 77
     6
 78
     2
 67
     7
 79
     5
170
     0
171
     0
290
     0
174
     0
 93
       13
 44
0.0
173
     0
291
     1
 45
0.0
1001
ACAD
1000
AcDbSavedByObjectVersion
1070
     0
  0
VISUALSTYLE
  5
4AA
102
{ACAD_XDICTIONARY
360
505
102
}
102
{ACAD_REACTORS
330
4A6
102
}
330
4A6
100
AcDbVisualStyle
  2
GouraudWithEdges
 70
     3
 71
     2
 72
     2
 73
     1
 90
        2
 40
-0.6
 41
30.0
 62
     5
 63
     7
 74
     1
 91
        0
 64
     7
 65
   257
 75
     1
175
     1
 42
1.0
 92
        0
 66
   257
 43
1.0
 76
     1
 77
     6
 78
     2
 67
     7
 79
     5
170
     0
171
     0
290
     0
174
     0
 93
       13
 44
0.0
173
     0
291
     1
 45
0.0
1001
ACAD
1000
AcDbSavedByObjectVersion
1070
     0
  0
VISUALSTYLE
  5
4AE
102
{ACAD_XDICTIONARY
360
50D
102
}
102
{ACAD_REACTORS
330
4A6
102
}
330
4A6
100
AcDbVisualStyle
  2
Hidden
 70
     6
 71
     1
 72
     2
 73
     2
 90
        0
 40
-0.6
 41
-30.0
 62
     5
 63
     7
 74
     2
 91
        2
 64
     7
 65
   257
 75
     2
175
     1
 42
40.0
 92
        0
 66
   257
 43
1.0
 76
     1
 77
     6
 78
     2
 67
     7
 79
     3
170
     0
171
     0
290
     0
174
     0
 93
        1
 44
0.0
173
     0
291
     0
 45
0.0
1001
ACAD
1000
AcDbSavedByObjectVersion
1070
     0
  0
VISUALSTYLE
  5
4BC
102
{ACAD_XDICTIONARY
360
529
102
}
102
{ACAD_REACTORS
330
4A6
102
}
330
4A6
100
AcDbVisualStyle
  2
JitterOff
 70
    20
 71
     2
 72
     2
 73
     0
 90
        0
 40
-0.6
 41
-30.0
 62
     5
 63
     7
 74
     1
 91
        4
 64
     7
 65
   257
 75
     1
175
     1
 42
1.0
 92
       10
 66
     7
 43
1.0
 76
     1
 77
     6
 78
     2
 67
     7
 79
     5
170
     0
171
     0
290
     0
174
     0
 93
        1
 44
0.0
173
     0
291
     1
 45
0.0
1001
ACAD
1000
AcDbSavedByObjectVersion
1070
     0
  0
VISUALSTYLE
  5
4B4
102
{ACAD_XDICTIONARY
360
519
102
}
102
{ACAD_REACTORS
330
4A6
102
}
330
4A6
100
AcDbVisualStyle
  2
Linepattern
 70
    14
 71
     2
 72
     2
 73
     0
 90
        0
 40
-0.6
 41
-30.0
 62
     5
 63
     7
 74
     1
 91
        4
 64
     7
 65
   257
 75
     7
175
     7
 42
1.0
 92
        8
 66
     7
 43
1.0
 76
     1
 77
     6
 78
     2
 67
     7
 79
     5
170
     0
171
     0
290
     0
174
     0
 93
        1
 44
0.0
173
     0
291
     1
 45
0.0
1001
ACAD
1000
AcDbSavedByObjectVersion
1070
     0
  0
VISUALSTYLE
  5
4BD
102
{ACAD_XDICTIONARY
360
52B
102
}
102
{ACAD_REACTORS
330
4A6
102
}
330
4A6
100
AcDbVisualStyle
  2
OverhangOff
 70
    21
 71
     2
 72
     2
 73
     0
 90
        0
 40
-0.6
 41
-30.0
 62
     5
 63
     7
 74
     1
 91
        4
 64
     7
 65
   257
 75
     1
175
     1
 42
1.0
 92
        9
 66
     7
 43
1.0
 76
     1
 77
     6
 78
     2
 67
     7
 79
     5
170
     0
171
     0
290
     0
174
     0
 93
        1
 44
0.0
173
     0
291
     1
 45
0.0
1001
ACAD
1000
AcDbSavedByObjectVersion
1070
     0
  0
VISUALSTYLE
  5
4B0
102
{ACAD_XDICTIONARY
360
511
102
}
102
{ACAD_REACTORS
330
4A6
102
}
330
4A6
100
AcDbVisualStyle
  2
Realistic
 70
     8
 71
     2
 72
     3
 73
     0
 90
        2
 40
-0.6
 41
30.0
 62
     5
 63
     7
 74
     0
 91
        0
 64
     7
 65
   257
 75
     1
175
     1
 42
1.0
 92
        8
 66
   257
 43
1.0
 76
     1
 77
     6
 78
     2
 67
     7
 79
     3
170
     0
171
     0
290
     0
174
     0
 93
       13
 44
0.0
173
     0
291
     0
 45
0.0
1001
ACAD
1000
AcDbSavedByObjectVersion
1070
     0
  0
VISUALSTYLE
  5
4BB
102
{ACAD_XDICTIONARY
360
527
102
}
102
{ACAD_REACTORS
330
4A6
102
}
330
4A6
100
AcDbVisualStyle
  2
Shaded
 70
    27
 71
     2
 72
     2
 73
     1
 90
        2
 40
-0.6
 41
30.0
 62
     5
 63
     7
 74
     0
 91
        4
 64
     7
 65
   257
 75
     1
175
     1
 42
1.0
 92
        8
 66
   257
 43
1.0
 76
     1
 77
     6
 78
     2
 67
     8
 79
     3
170
     0
171
     0
290
     0
174
     0
 93
        5
 44
0.0
173
     0
291
     0
 45
0.0
1001
ACAD
1000
AcDbSavedByObjectVersion
1070
     0
  0
VISUALSTYLE
  5
4BA
102
{ACAD_XDICTIONARY
360
525
102
}
102
{ACAD_REACTORS
330
4A6
102
}
330
4A6
100
AcDbVisualStyle
  2
Shaded with edges
 70
    26
 71
     2
 72
     2
 73
     1
 90
        2
 40
-0.6
 41
30.0
 62
     5
 63
     7
 74
     1
 91
       10
 64
     7
 65
   257
 75
     2
175
     1
 42
1.0
 92
        8
 66
   257
 43
1.0
 76
     1
 77
     6
 78
     2
 67
     7
 79
     3
170
     0
171
     0
290
     0
174
     0
 93
        5
 44
0.0
173
     0
291
     0
 45
0.0
1001
ACAD
1000
AcDbSavedByObjectVersion
1070
     0
  0
VISUALSTYLE
  5
4B7
102
{ACAD_XDICTIONARY
360
51F
102
}
102
{ACAD_REACTORS
330
4A6
102
}
330
4A6
100
AcDbVisualStyle
  2
Shades of Gray
 70
    23
 71
     2
 72
     2
 73
     3
 90
        0
 40
-0.6
 41
-30.0
 62
     5
 63
     7
 74
     2
 91
        2
 64
     7
 65
     7
 75
     1
175
     1
 42
40.0
 92
        8
 66
     7
 43
1.0
 76
     1
 77
     6
 78
     2
 67
     7
 79
     3
170
     0
171
     0
290
     0
174
     0
 93
        1
 44
0.0
173
     0
291
     0
 45
0.0
1001
ACAD
1000
AcDbSavedByObjectVersion
1070
     0
  0
VISUALSTYLE
  5
4B8
102
{ACAD_XDICTIONARY
360
521
102
}
102
{ACAD_REACTORS
330
4A6
102
}
330
4A6
100
AcDbVisualStyle
  2
Sketchy
 70
    24
 71
     1
 72
     2
 73
     2
 90
        0
 40
-0.6
 41
-30.0
 62
     5
 63
     7
 74
     2
 91
        2
 64
     7
 65
     7
 75
     1
175
     1
 42
40.0
 92
       11
 66
     7
 43
1.0
 76
     1
 77
     6
 78
     2
 67
     7
 79
     6
170
     0
171
     0
290
     0
174
     0
 93
        1
 44
0.0
173
     0
291
     0
 45
0.0
1001
ACAD
1000
AcDbSavedByObjectVersion
1070
     0
  0
VISUALSTYLE
  5
4B3
102
{ACAD_XDICTIONARY
360
517
102
}
102
{ACAD_REACTORS
330
4A6
102
}
330
4A6
100
AcDbVisualStyle
  2
Thicken
 70
    13
 71
     2
 72
     2
 73
     0
 90
        0
 40
-0.6
 41
-30.0
 62
     5
 63
     7
 74
     1
 91
        4
 64
     7
 65
   257
 75
     1
175
     1
 42
1.0
 92
       12
 66
     7
 43
1.0
 76
     1
 77
     6
 78
     2
 67
     7
 79
     5
170
     0
171
     0
290
     0
174
     0
 93
        1
 44
0.0
173
     0
291
     1
 45
0.0
1001
ACAD
1000
AcDbSavedByObjectVersion
1070
     0
  0
VISUALSTYLE
  5
4AD
102
{ACAD_XDICTIONARY
360
50B
102
}
102
{ACAD_REACTORS
330
4A6
102
}
330
4A6
100
AcDbVisualStyle
  2
Wireframe
 70
     5
 71
     0
 72
     2
 73
     0
 90
        0
 40
-0.6
 41
-30.0
 62
     5
 63
     7
 74
     1
 91
        4
 64
     7
 65
   257
 75
     1
175
     1
 42
1.0
 92
        0
 66
   257
 43
1.0
 76
     1
 77
     6
 78
     2
 67
     7
 79
     3
170
     0
171
     0
290
     0
174
     0
 93
        1
 44
0.0
173
     0
291
     0
 45
0.0
1001
ACAD
1000
AcDbSavedByObjectVersion
1070
     0
  0
VISUALSTYLE
  5
4B9
102
{ACAD_XDICTIONARY
360
523
102
}
102
{ACAD_REACTORS
330
4A6
102
}
330
4A6
100
AcDbVisualStyle
  2
X-Ray
 70
    25
 71
     2
 72
     2
 73
     1
 90
        1
 40
0.5
 41
-30.0
 62
     5
 63
     7
 74
     1
 91
        0
 64
     7
 65
   257
 75
     1
175
     1
 42
1.0
 92
        8
 66
     7
 43
1.0
 76
     1
 77
     6
 78
     2
 67
     7
 79
     3
170
     0
171
     0
290
     0
174
     0
 93
       13
 44
0.0
173
     0
291
     0
 45
0.0
1001
ACAD
1000
AcDbSavedByObjectVersion
1070
     0
  0
DICTIONARYVAR
  5
4F2
102
{ACAD_REACTORS
330
4ED
102
}
330
4ED
100
DictionaryVariables
280
     0
  1
1:1
  0
DICTIONARYVAR
  5
4EF
102
{ACAD_REACTORS
330
4ED
102
}
330
4ED
100
DictionaryVariables
280
     0
  1
STANDARD
  0
DICTIONARYVAR
  5
4EE
102
{ACAD_REACTORS
330
4ED
102
}
330
4ED
100
DictionaryVariables
280
     0
  1
STANDARD
  0
DICTIONARYVAR
  5
4F0
102
{ACAD_REACTORS
330
4ED
102
}
330
4ED
100
DictionaryVariables
280
     0
  1
Imperial24
  0
DICTIONARYVAR
  5
4F1
102
{ACAD_REACTORS
330
4ED
102
}
330
4ED
100
DictionaryVariables
280
     0
  1
Imperial24
  0
DICTIONARYVAR
  5
4F5
102
{ACAD_REACTORS
330
4ED
102
}
330
4ED
100
DictionaryVariables
280
     0
  1
1
  0
DICTIONARYVAR
  5
4F4
102
{ACAD_REACTORS
330
4ED
102
}
330
4ED
100
DictionaryVariables
280
     0
  1
0
  0
DICTIONARYVAR
  5
4F3
102
{ACAD_REACTORS
330
4ED
102
}
330
4ED
100
DictionaryVariables
280
     0
  1
127
  0
DICTIONARYVAR
  5
4F6
102
{ACAD_REACTORS
330
4ED
102
}
330
4ED
100
DictionaryVariables
280
     0
  1
2
  0
DICTIONARY
  5
533
330
4D9
100
AcDbDictionary
280
     1
281
     1
  3
ACAD_XREC_ROUNDTRIP
360
534
  0
DICTIONARY
  5
535
330
4DA
100
AcDbDictionary
280
     1
281
     1
  3
ACAD_XREC_ROUNDTRIP
360
536
  0
DICTIONARY
  5
537
330
4DB
100
AcDbDictionary
280
     1
281
     1
  3
ACAD_XREC_ROUNDTRIP
360
538
  0
DICTIONARY
  5
497
330
496
100
AcDbDictionary
280
     1
281
     1
  3
ACAD_XREC_ROUNDTRIP
360
4FD
  3
BUMPTILE
360
499
  3
DIFFUSETILE
360
498
  3
OPACITYTILE
360
49C
  3
REFLECTIONTILE
360
49B
  3
REFRACTIONTILE
360
49D
  3
SPECULARTILE
360
49A
  0
DICTIONARY
  5
48F
330
48E
100
AcDbDictionary
280
     1
281
     1
  3
ACAD_XREC_ROUNDTRIP
360
4FC
  3
BUMPTILE
360
491
  3
DIFFUSETILE
360
490
  3
OPACITYTILE
360
494
  3
REFLECTIONTILE
360
493
  3
REFRACTIONTILE
360
495
  3
SPECULARTILE
360
492
  0
DICTIONARY
  5
49F
330
49E
100
AcDbDictionary
280
     1
281
     1
  3
ACAD_XREC_ROUNDTRIP
360
4FE
  3
BUMPTILE
360
4A1
  3
DIFFUSETILE
360
4A0
  3
OPACITYTILE
360
4A4
  3
REFLECTIONTILE
360
4A3
  3
REFRACTIONTILE
360
4A5
  3
SPECULARTILE
360
4A2
  0
DICTIONARY
  5
531
330
4D7
100
AcDbDictionary
280
     1
281
     1
  3
ACAD_XREC_ROUNDTRIP
360
532
  0
DICTIONARY
  5
4F8
330
4C1
100
AcDbDictionary
280
     1
281
     1
  3
ACAD_ROUNDTRIP_2008_TABLESTYLE_CELLSTYLEMAP
360
4F9
  3
ACAD_XREC_ROUNDTRIP
360
52F
  0
DICTIONARY
  5
509
330
4AC
100
AcDbDictionary
280
     1
281
     1
  3
ACAD_XREC_ROUNDTRIP
360
50A
  0
DICTIONARY
  5
507
330
4AB
100
AcDbDictionary
280
     1
281
     1
  3
ACAD_XREC_ROUNDTRIP
360
508
  0
DICTIONARY
  5
515
330
4B2
100
AcDbDictionary
280
     1
281
     1
  3
ACAD_XREC_ROUNDTRIP
360
516
  0
DICTIONARY
  5
51D
330
4B6
100
AcDbDictionary
280
     1
281
     1
  3
ACAD_XREC_ROUNDTRIP
360
51E
  0
DICTIONARY
  5
50F
330
4AF
100
AcDbDictionary
280
     1
281
     1
  3
ACAD_XREC_ROUNDTRIP
360
510
  0
DICTIONARY
  5
513
330
4B1
100
AcDbDictionary
280
     1
281
     1
  3
ACAD_XREC_ROUNDTRIP
360
514
  0
DICTIONARY
  5
52D
330
4BE
100
AcDbDictionary
280
     1
281
     1
  3
ACAD_XREC_ROUNDTRIP
360
52E
  0
DICTIONARY
  5
51B
330
4B5
100
AcDbDictionary
280
     1
281
     1
  3
ACAD_XREC_ROUNDTRIP
360
51C
  0
DICTIONARY
  5
4FF
330
4A7
100
AcDbDictionary
280
     1
281
     1
  3
ACAD_XREC_ROUNDTRIP
360
500
  0
DICTIONARY
  5
501
330
4A8
100
AcDbDictionary
280
     1
281
     1
  3
ACAD_XREC_ROUNDTRIP
360
502
  0
DICTIONARY
  5
503
330
4A9
100
AcDbDictionary
280
     1
281
     1
  3
ACAD_XREC_ROUNDTRIP
360
504
  0
DICTIONARY
  5
505
330
4AA
100
AcDbDictionary
280
     1
281
     1
  3
ACAD_XREC_ROUNDTRIP
360
506
  0
DICTIONARY
  5
50D
330
4AE
100
AcDbDictionary
280
     1
281
     1
  3
ACAD_XREC_ROUNDTRIP
360
50E
  0
DICTIONARY
  5
529
330
4BC
100
AcDbDictionary
280
     1
281
     1
  3
ACAD_XREC_ROUNDTRIP
360
52A
  0
DICTIONARY
  5
519
330
4B4
100
AcDbDictionary
280
     1
281
     1
  3
ACAD_XREC_ROUNDTRIP
360
51A
  0
DICTIONARY
  5
52B
330
4BD
100
AcDbDictionary
280
     1
281
     1
  3
ACAD_XREC_ROUNDTRIP
360
52C
  0
DICTIONARY
  5
511
330
4B0
100
AcDbDictionary
280
     1
281
     1
  3
ACAD_XREC_ROUNDTRIP
360
512
  0
DICTIONARY
  5
527
330
4BB
100
AcDbDictionary
280
     1
281
     1
  3
ACAD_XREC_ROUNDTRIP
360
528
  0
DICTIONARY
  5
525
330
4BA
100
AcDbDictionary
280
     1
281
     1
  3
ACAD_XREC_ROUNDTRIP
360
526
  0
DICTIONARY
  5
51F
330
4B7
100
AcDbDictionary
280
     1
281
     1
  3
ACAD_XREC_ROUNDTRIP
360
520
  0
DICTIONARY
  5
521
330
4B8
100
AcDbDictionary
280
     1
281
     1
  3
ACAD_XREC_ROUNDTRIP
360
522
  0
DICTIONARY
  5
517
330
4B3
100
AcDbDictionary
280
     1
281
     1
  3
ACAD_XREC_ROUNDTRIP
360
518
  0
DICTIONARY
  5
50B
330
4AD
100
AcDbDictionary
280
     1
281
     1
  3
ACAD_XREC_ROUNDTRIP
360
50C
  0
DICTIONARY
  5
523
330
4B9
100
AcDbDictionary
280
     1
281
     1
  3
ACAD_XREC_ROUNDTRIP
360
524
  0
XRECORD
  5
534
102
{ACAD_REACTORS
330
533
102
}
330
533
100
AcDbXrecord
280
     1
102
DISPLAYNAME
  1
Imperial24
102
FLAGS
 90
        0
  0
XRECORD
  5
536
102
{ACAD_REACTORS
330
535
102
}
330
535
100
AcDbXrecord
280
     1
102
SHADEPLOT
 70
     0
102
SHADEPLOTRESLEVEL
 70
     2
102
SHADEPLOTCUSTOMDPI
 70
   300
  0
XRECORD
  5
538
102
{ACAD_REACTORS
330
537
102
}
330
537
100
AcDbXrecord
280
     1
102
SHADEPLOT
 70
     0
102
SHADEPLOTRESLEVEL
 70
     2
102
SHADEPLOTCUSTOMDPI
 70
   300
  0
XRECORD
  5
4FD
102
{ACAD_REACTORS
330
497
102
}
330
497
100
AcDbXrecord
280
     1
102
MATERIAL
148
0.0
149
0.0
149
0.0
 93
        0
 94
      127
282
     0
 72
     0
 77
     0
171
     0
175
     0
179
     0
273
     0
  0
XRECORD
  5
499
102
{ACAD_REACTORS
330
497
102
}
330
497
100
AcDbXrecord
280
     1
270
     1
271
     1
  0
XRECORD
  5
498
102
{ACAD_REACTORS
330
497
102
}
330
497
100
AcDbXrecord
280
     1
270
     1
271
     1
  0
XRECORD
  5
49C
102
{ACAD_REACTORS
330
497
102
}
330
497
100
AcDbXrecord
280
     1
270
     1
271
     1
  0
XRECORD
  5
49B
102
{ACAD_REACTORS
330
497
102
}
330
497
100
AcDbXrecord
280
     1
270
     1
271
     1
  0
XRECORD
  5
49D
102
{ACAD_REACTORS
330
497
102
}
330
497
100
AcDbXrecord
280
     1
270
     1
271
     1
  0
XRECORD
  5
49A
102
{ACAD_REACTORS
330
497
102
}
330
497
100
AcDbXrecord
280
     1
270
     1
271
     1
  0
XRECORD
  5
4FC
102
{ACAD_REACTORS
330
48F
102
}
330
48F
100
AcDbXrecord
280
     1
102
MATERIAL
148
0.0
149
0.0
149
0.0
 93
        0
 94
      127
282
     0
 72
     0
 77
     0
171
     0
175
     0
179
     0
273
     0
  0
XRECORD
  5
491
102
{ACAD_REACTORS
330
48F
102
}
330
48F
100
AcDbXrecord
280
     1
270
     1
271
     1
  0
XRECORD
  5
490
102
{ACAD_REACTORS
330
48F
102
}
330
48F
100
AcDbXrecord
280
     1
270
     1
271
     1
  0
XRECORD
  5
494
102
{ACAD_REACTORS
330
48F
102
}
330
48F
100
AcDbXrecord
280
     1
270
     1
271
     1
  0
XRECORD
  5
493
102
{ACAD_REACTORS
330
48F
102
}
330
48F
100
AcDbXrecord
280
     1
270
     1
271
     1
  0
XRECORD
  5
495
102
{ACAD_REACTORS
330
48F
102
}
330
48F
100
AcDbXrecord
280
     1
270
     1
271
     1
  0
XRECORD
  5
492
102
{ACAD_REACTORS
330
48F
102
}
330
48F
100
AcDbXrecord
280
     1
270
     1
271
     1
  0
XRECORD
  5
4FE
102
{ACAD_REACTORS
330
49F
102
}
330
49F
100
AcDbXrecord
280
     1
102
MATERIAL
148
0.0
149
0.0
149
0.0
 93
        0
 94
      127
282
     0
 72
     0
 77
     0
171
     0
175
     0
179
     0
273
     0
  0
XRECORD
  5
4A1
102
{ACAD_REACTORS
330
49F
102
}
330
49F
100
AcDbXrecord
280
     1
270
     1
271
     1
  0
XRECORD
  5
4A0
102
{ACAD_REACTORS
330
49F
102
}
330
49F
100
AcDbXrecord
280
     1
270
     1
271
     1
  0
XRECORD
  5
4A4
102
{ACAD_REACTORS
330
49F
102
}
330
49F
100
AcDbXrecord
280
     1
270
     1
271
     1
  0
XRECORD
  5
4A3
102
{ACAD_REACTORS
330
49F
102
}
330
49F
100
AcDbXrecord
280
     1
270
     1
271
     1
  0
XRECORD
  5
4A5
102
{ACAD_REACTORS
330
49F
102
}
330
49F
100
AcDbXrecord
280
     1
270
     1
271
     1
  0
XRECORD
  5
4A2
102
{ACAD_REACTORS
330
49F
102
}
330
49F
100
AcDbXrecord
280
     1
270
     1
271
     1
  0
XRECORD
  5
532
102
{ACAD_REACTORS
330
531
102
}
330
531
100
AcDbXrecord
280
     1
102
DISPLAYNAME
  1
Imperial24
102
FLAGS
 90
        0
  0
CELLSTYLEMAP
  5
4F9
102
{ACAD_REACTORS
330
4F8
102
}
330
4F8
100
AcDbCellStyleMap
 90
        3
300
CELLSTYLE
  1
TABLEFORMAT_BEGIN
 90
        5
170
     1
 91
        0
 92
    32768
 62
   257
 93
        1
300
CONTENTFORMAT
  1
CONTENTFORMAT_BEGIN
 90
        0
 91
        0
 92
      512
 93
        0
300

 40
0.0
140
1.0
 94
        5
 62
     0
340
F
144
0.25
309
CONTENTFORMAT_END
171
     0
 94
        0
309
TABLEFORMAT_END
  1
CELLSTYLE_BEGIN
 90
        1
 91
        1
300
_TITLE
309
CELLSTYLE_END
300
CELLSTYLE
  1
TABLEFORMAT_BEGIN
 90
        5
170
     1
 91
        0
 92
        0
 62
   257
 93
        1
300
CONTENTFORMAT
  1
CONTENTFORMAT_BEGIN
 90
        0
 91
        0
 92
      512
 93
        0
300

 40
0.0
140
1.0
 94
        5
 62
     0
340
F
144
0.18
309
CONTENTFORMAT_END
171
     0
 94
        0
309
TABLEFORMAT_END
  1
CELLSTYLE_BEGIN
 90
        2
 91
        1
300
_HEADER
309
CELLSTYLE_END
300
CELLSTYLE
  1
TABLEFORMAT_BEGIN
 90
        5
170
     1
 91
        0
 92
        0
 62
   257
 93
        1
300
CONTENTFORMAT
  1
CONTENTFORMAT_BEGIN
 90
        0
 91
        0
 92
      512
 93
        0
300

 40
0.0
140
1.0
 94
        2
 62
     0
340
F
144
0.18
309
CONTENTFORMAT_END
171
     0
 94
        0
309
TABLEFORMAT_END
  1
CELLSTYLE_BEGIN
 90
        3
 91
        2
300
_DATA
309
CELLSTYLE_END
  0
XRECORD
  5
52F
102
{ACAD_REACTORS
330
4F8
102
}
330
4F8
100
AcDbXrecord
280
     1
102
ACAD_ROUNDTRIP_PRE2007_TABLESTYLE
 90
      512
 91
        0
  1

 92
      512
 93
        0
  2

 94
      512
 95
        0
  3

  0
XRECORD
  5
50A
102
{ACAD_REACTORS
330
509
102
}
330
509
100
AcDbXrecord
280
     1
102
RTVSPost2010Prop28
280
     1
102
RTVSPost2010PropOp28
 70
     1
102
RTVSPost2010Prop29
280
     1
102
RTVSPost2010PropOp29
 70
     1
102
RTVSPost2010Prop30
280
     0
102
RTVSPost2010PropOp30
 70
     1
102
RTVSPost2010Prop31
280
     0
102
RTVSPost2010PropOp31
 70
     1
102
RTVSPost2010Prop32
280
     0
102
RTVSPost2010PropOp32
 70
     1
102
RTVSPost2010Prop33
280
     0
102
RTVSPost2010PropOp33
 70
     1
102
RTVSPost2010Prop34
280
     0
102
RTVSPost2010PropOp34
 70
     1
102
RTVSPost2010Prop35
280
     0
102
RTVSPost2010PropOp35
 70
     1
102
RTVSPost2010Prop36
280
     0
102
RTVSPost2010PropOp36
 70
     1
102
RTVSPost2010Prop37
 90
       50
102
RTVSPost2010PropOp37
 70
     1
102
RTVSPost2010Prop38
140
0.0
102
RTVSPost2010PropOp38
 70
     1
102
RTVSPost2010Prop39
140
1.0
102
RTVSPost2010PropOp39
 70
     1
102
RTVSPost2010Prop40
 90
        0
102
RTVSPost2010PropOp40
 70
     1
102
RTVSPost2010Prop41ColorIndex
 90
       18
102
RTVSPost2010Prop41ColorRGB
 90
        0
102
RTVSPost2010PropOp41
 70
     1
102
RTVSPost2010Prop42
 90
       50
102
RTVSPost2010PropOp42
 70
     1
102
RTVSPost2010Prop43
 90
        3
102
RTVSPost2010PropOp43
 70
     1
102
RTVSPost2010Prop44ColorIndex
 90
        5
102
RTVSPost2010Prop44ColorRGB
 90
      255
102
RTVSPost2010PropOp44
 70
     1
102
RTVSPost2010Prop45
280
     0
102
RTVSPost2010PropOp45
 70
     1
102
RTVSPost2010Prop46
 90
       50
102
RTVSPost2010PropOp46
 70
     1
102
RTVSPost2010Prop47
 90
       50
102
RTVSPost2010PropOp47
 70
     1
102
RTVSPost2010Prop48
 90
       50
102
RTVSPost2010PropOp48
 70
     1
102
RTVSPost2010Prop49
280
     0
102
RTVSPost2010PropOp49
 70
     1
102
RTVSPost2010Prop50
 90
       50
102
RTVSPost2010PropOp50
 70
     1
102
RTVSPost2010Prop51ColorIndex
 90
      256
102
RTVSPost2010Prop51ColorRGB
 90
-16777216
102
RTVSPost2010PropOp51
 70
     0
102
RTVSPost2010Prop52
140
1.0
102
RTVSPost2010PropOp52
 70
     0
102
RTVSPost2010Prop53
 90
        2
102
RTVSPost2010PropOp53
 70
     1
102
RTVSPost2010Prop54
  1
strokes_ogs.tif
102
RTVSPost2010PropOp54
 70
     1
102
RTVSPost2010Prop55
280
     0
102
RTVSPost2010PropOp55
 70
     1
102
RTVSPost2010Prop56
140
1.0
102
RTVSPost2010PropOp56
 70
     1
102
RTVSPost2010Prop57
140
1.0
102
RTVSPost2010PropOp57
 70
     1
102
RTVSPropertyOp0
 70
     1
102
RTVSPropertyOp1
 70
     1
102
RTVSPropertyOp2
 70
     1
102
RTVSPropertyOp3
 70
     1
102
RTVSPropertyOp4
 70
     1
102
RTVSPropertyOp5
 70
     1
102
RTVSPropertyOp6
 70
     1
102
RTVSPropertyOp7
 70
     1
102
RTVSPropertyOp8
 70
     1
102
RTVSPropertyOp9
 70
     1
102
RTVSPropertyOp10
 70
     1
102
RTVSPropertyOp11
 70
     1
102
RTVSPropertyOp12
 70
     1
102
RTVSPropertyOp13
 70
     1
102
RTVSPropertyOp14
 70
     1
102
RTVSPropertyOp15
 70
     1
102
RTVSPropertyOp16
 70
     1
102
RTVSPropertyOp17
 70
     1
102
RTVSPropertyOp18
 70
     1
102
RTVSPropertyOp19
 70
     1
102
RTVSPropertyOp20
 70
     1
102
RTVSPropertyOp21
 70
     1
102
RTVSPropertyOp22
 70
     1
102
RTVSPropertyOp23
 70
     1
102
RTVSPropertyOp24
 70
     1
102
RTVSPropertyOp25
 70
     1
102
RTVSPropertyOp26
 70
     1
102
RTVSPropertyOp27
 70
     1
102
RTVSPropertyOp28
 70
     1
102
RTVSPropertyOp29
 70
     1
102
RTVSPropertyOp30
 70
     1
102
RTVSPropertyOp31
 70
     1
102
RTVSPropertyOp32
 70
     1
102
RTVSPropertyOp33
 70
     1
102
RTVSPropertyOp34
 70
     1
102
RTVSPropertyOp35
 70
     1
102
RTVSPropertyOp36
 70
     1
102
RTVSPropertyOp37
 70
     1
102
RTVSPropertyOp38
 70
     1
102
RTVSPropertyOp39
 70
     1
102
RTVSPropertyOp40
 70
     1
102
RTVSPropertyOp41
 70
     1
102
RTVSPropertyOp42
 70
     1
102
RTVSPropertyOp43
 70
     1
102
RTVSPropertyOp44
 70
     1
102
RTVSPropertyOp45
 70
     1
102
RTVSPropertyOp46
 70
     1
102
RTVSPropertyOp47
 70
     1
102
RTVSPropertyOp48
 70
     1
102
RTVSPropertyOp49
 70
     1
102
RTVSPropertyOp50
 70
     1
102
RTVSPropertyOp51
 70
     0
102
RTVSPropertyOp52
 70
     0
102
RTVSPropertyOp53
 70
     1
102
RTVSPropertyOp54
 70
     1
102
RTVSPropertyOp55
 70
     1
102
RTVSPropertyOp56
 70
     1
102
RTVSPropertyOp57
 70
     1
102
RTVSPropertyOp58
 70
     1
102
RTVSPropertyOp59
 70
     1
102
RTVSPropertyOp60
 70
     1
102
RTVSPropertyOp61
 70
     1
102
RTVSPropertyOp62
 70
     1
  0
XRECORD
  5
508
102
{ACAD_REACTORS
330
507
102
}
330
507
100
AcDbXrecord
280
     1
102
RTVSPost2010Prop28
280
     0
102
RTVSPost2010PropOp28
 70
     1
102
RTVSPost2010Prop29
280
     1
102
RTVSPost2010PropOp29
 70
     1
102
RTVSPost2010Prop30
280
     1
102
RTVSPost2010PropOp30
 70
     1
102
RTVSPost2010Prop31
280
     0
102
RTVSPost2010PropOp31
 70
     1
102
RTVSPost2010Prop32
280
     0
102
RTVSPost2010PropOp32
 70
     1
102
RTVSPost2010Prop33
280
     0
102
RTVSPost2010PropOp33
 70
     1
102
RTVSPost2010Prop34
280
     0
102
RTVSPost2010PropOp34
 70
     1
102
RTVSPost2010Prop35
280
     0
102
RTVSPost2010PropOp35
 70
     1
102
RTVSPost2010Prop36
280
     0
102
RTVSPost2010PropOp36
 70
     1
102
RTVSPost2010Prop37
 90
       50
102
RTVSPost2010PropOp37
 70
     1
102
RTVSPost2010Prop38
140
0.0
102
RTVSPost2010PropOp38
 70
     1
102
RTVSPost2010Prop39
140
1.0
102
RTVSPost2010PropOp39
 70
     1
102
RTVSPost2010Prop40
 90
        0
102
RTVSPost2010PropOp40
 70
     1
102
RTVSPost2010Prop41ColorIndex
 90
       18
102
RTVSPost2010Prop41ColorRGB
 90
        0
102
RTVSPost2010PropOp41
 70
     1
102
RTVSPost2010Prop42
 90
       50
102
RTVSPost2010PropOp42
 70
     1
102
RTVSPost2010Prop43
 90
        3
102
RTVSPost2010PropOp43
 70
     1
102
RTVSPost2010Prop44ColorIndex
 90
        5
102
RTVSPost2010Prop44ColorRGB
 90
      255
102
RTVSPost2010PropOp44
 70
     1
102
RTVSPost2010Prop45
280
     0
102
RTVSPost2010PropOp45
 70
     1
102
RTVSPost2010Prop46
 90
       50
102
RTVSPost2010PropOp46
 70
     1
102
RTVSPost2010Prop47
 90
       50
102
RTVSPost2010PropOp47
 70
     1
102
RTVSPost2010Prop48
 90
       50
102
RTVSPost2010PropOp48
 70
     1
102
RTVSPost2010Prop49
280
     0
102
RTVSPost2010PropOp49
 70
     1
102
RTVSPost2010Prop50
 90
       50
102
RTVSPost2010PropOp50
 70
     1
102
RTVSPost2010Prop51ColorIndex
 90
      256
102
RTVSPost2010Prop51ColorRGB
 90
-16777216
102
RTVSPost2010PropOp51
 70
     0
102
RTVSPost2010Prop52
140
1.0
102
RTVSPost2010PropOp52
 70
     0
102
RTVSPost2010Prop53
 90
        2
102
RTVSPost2010PropOp53
 70
     1
102
RTVSPost2010Prop54
  1
strokes_ogs.tif
102
RTVSPost2010PropOp54
 70
     1
102
RTVSPost2010Prop55
280
     0
102
RTVSPost2010PropOp55
 70
     1
102
RTVSPost2010Prop56
140
1.0
102
RTVSPost2010PropOp56
 70
     1
102
RTVSPost2010Prop57
140
1.0
102
RTVSPost2010PropOp57
 70
     1
102
RTVSPropertyOp0
 70
     1
102
RTVSPropertyOp1
 70
     1
102
RTVSPropertyOp2
 70
     1
102
RTVSPropertyOp3
 70
     1
102
RTVSPropertyOp4
 70
     1
102
RTVSPropertyOp5
 70
     1
102
RTVSPropertyOp6
 70
     1
102
RTVSPropertyOp7
 70
     1
102
RTVSPropertyOp8
 70
     1
102
RTVSPropertyOp9
 70
     1
102
RTVSPropertyOp10
 70
     1
102
RTVSPropertyOp11
 70
     1
102
RTVSPropertyOp12
 70
     1
102
RTVSPropertyOp13
 70
     1
102
RTVSPropertyOp14
 70
     1
102
RTVSPropertyOp15
 70
     1
102
RTVSPropertyOp16
 70
     1
102
RTVSPropertyOp17
 70
     1
102
RTVSPropertyOp18
 70
     1
102
RTVSPropertyOp19
 70
     1
102
RTVSPropertyOp20
 70
     1
102
RTVSPropertyOp21
 70
     1
102
RTVSPropertyOp22
 70
     1
102
RTVSPropertyOp23
 70
     1
102
RTVSPropertyOp24
 70
     1
102
RTVSPropertyOp25
 70
     1
102
RTVSPropertyOp26
 70
     1
102
RTVSPropertyOp27
 70
     1
102
RTVSPropertyOp28
 70
     1
102
RTVSPropertyOp29
 70
     1
102
RTVSPropertyOp30
 70
     1
102
RTVSPropertyOp31
 70
     1
102
RTVSPropertyOp32
 70
     1
102
RTVSPropertyOp33
 70
     1
102
RTVSPropertyOp34
 70
     1
102
RTVSPropertyOp35
 70
     1
102
RTVSPropertyOp36
 70
     1
102
RTVSPropertyOp37
 70
     1
102
RTVSPropertyOp38
 70
     1
102
RTVSPropertyOp39
 70
     1
102
RTVSPropertyOp40
 70
     1
102
RTVSPropertyOp41
 70
     1
102
RTVSPropertyOp42
 70
     1
102
RTVSPropertyOp43
 70
     1
102
RTVSPropertyOp44
 70
     1
102
RTVSPropertyOp45
 70
     1
102
RTVSPropertyOp46
 70
     1
102
RTVSPropertyOp47
 70
     1
102
RTVSPropertyOp48
 70
     1
102
RTVSPropertyOp49
 70
     1
102
RTVSPropertyOp50
 70
     1
102
RTVSPropertyOp51
 70
     0
102
RTVSPropertyOp52
 70
     0
102
RTVSPropertyOp53
 70
     1
102
RTVSPropertyOp54
 70
     1
102
RTVSPropertyOp55
 70
     1
102
RTVSPropertyOp56
 70
     1
102
RTVSPropertyOp57
 70
     1
102
RTVSPropertyOp58
 70
     1
102
RTVSPropertyOp59
 70
     1
102
RTVSPropertyOp60
 70
     1
102
RTVSPropertyOp61
 70
     1
102
RTVSPropertyOp62
 70
     1
  0
XRECORD
  5
516
102
{ACAD_REACTORS
330
515
102
}
330
515
100
AcDbXrecord
280
     1
102
RTVSPost2010Prop28
280
     0
102
RTVSPost2010PropOp28
 70
     1
102
RTVSPost2010Prop29
280
     1
102
RTVSPost2010PropOp29
 70
     1
102
RTVSPost2010Prop30
280
     1
102
RTVSPost2010PropOp30
 70
     1
102
RTVSPost2010Prop31
280
     0
102
RTVSPost2010PropOp31
 70
     1
102
RTVSPost2010Prop32
280
     0
102
RTVSPost2010PropOp32
 70
     1
102
RTVSPost2010Prop33
280
     0
102
RTVSPost2010PropOp33
 70
     1
102
RTVSPost2010Prop34
280
     0
102
RTVSPost2010PropOp34
 70
     1
102
RTVSPost2010Prop35
280
     0
102
RTVSPost2010PropOp35
 70
     1
102
RTVSPost2010Prop36
280
     0
102
RTVSPost2010PropOp36
 70
     1
102
RTVSPost2010Prop37
 90
       50
102
RTVSPost2010PropOp37
 70
     1
102
RTVSPost2010Prop38
140
0.0
102
RTVSPost2010PropOp38
 70
     1
102
RTVSPost2010Prop39
140
1.0
102
RTVSPost2010PropOp39
 70
     1
102
RTVSPost2010Prop40
 90
        0
102
RTVSPost2010PropOp40
 70
     1
102
RTVSPost2010Prop41ColorIndex
 90
       18
102
RTVSPost2010Prop41ColorRGB
 90
        0
102
RTVSPost2010PropOp41
 70
     1
102
RTVSPost2010Prop42
 90
       50
102
RTVSPost2010PropOp42
 70
     1
102
RTVSPost2010Prop43
 90
        3
102
RTVSPost2010PropOp43
 70
     1
102
RTVSPost2010Prop44ColorIndex
 90
        5
102
RTVSPost2010Prop44ColorRGB
 90
      255
102
RTVSPost2010PropOp44
 70
     1
102
RTVSPost2010Prop45
280
     0
102
RTVSPost2010PropOp45
 70
     1
102
RTVSPost2010Prop46
 90
       50
102
RTVSPost2010PropOp46
 70
     1
102
RTVSPost2010Prop47
 90
       50
102
RTVSPost2010PropOp47
 70
     1
102
RTVSPost2010Prop48
 90
       50
102
RTVSPost2010PropOp48
 70
     1
102
RTVSPost2010Prop49
280
     0
102
RTVSPost2010PropOp49
 70
     1
102
RTVSPost2010Prop50
 90
       50
102
RTVSPost2010PropOp50
 70
     1
102
RTVSPost2010Prop51ColorIndex
 90
      256
102
RTVSPost2010Prop51ColorRGB
 90
-16777216
102
RTVSPost2010PropOp51
 70
     0
102
RTVSPost2010Prop52
140
1.0
102
RTVSPost2010PropOp52
 70
     0
102
RTVSPost2010Prop53
 90
        2
102
RTVSPost2010PropOp53
 70
     1
102
RTVSPost2010Prop54
  1
strokes_ogs.tif
102
RTVSPost2010PropOp54
 70
     1
102
RTVSPost2010Prop55
280
     0
102
RTVSPost2010PropOp55
 70
     1
102
RTVSPost2010Prop56
140
1.0
102
RTVSPost2010PropOp56
 70
     1
102
RTVSPost2010Prop57
140
1.0
102
RTVSPost2010PropOp57
 70
     1
102
RTVSPropertyOp0
 70
     1
102
RTVSPropertyOp1
 70
     1
102
RTVSPropertyOp2
 70
     1
102
RTVSPropertyOp3
 70
     1
102
RTVSPropertyOp4
 70
     1
102
RTVSPropertyOp5
 70
     1
102
RTVSPropertyOp6
 70
     1
102
RTVSPropertyOp7
 70
     1
102
RTVSPropertyOp8
 70
     1
102
RTVSPropertyOp9
 70
     1
102
RTVSPropertyOp10
 70
     1
102
RTVSPropertyOp11
 70
     1
102
RTVSPropertyOp12
 70
     1
102
RTVSPropertyOp13
 70
     1
102
RTVSPropertyOp14
 70
     1
102
RTVSPropertyOp15
 70
     1
102
RTVSPropertyOp16
 70
     1
102
RTVSPropertyOp17
 70
     1
102
RTVSPropertyOp18
 70
     1
102
RTVSPropertyOp19
 70
     1
102
RTVSPropertyOp20
 70
     1
102
RTVSPropertyOp21
 70
     1
102
RTVSPropertyOp22
 70
     1
102
RTVSPropertyOp23
 70
     1
102
RTVSPropertyOp24
 70
     1
102
RTVSPropertyOp25
 70
     1
102
RTVSPropertyOp26
 70
     1
102
RTVSPropertyOp27
 70
     1
102
RTVSPropertyOp28
 70
     1
102
RTVSPropertyOp29
 70
     1
102
RTVSPropertyOp30
 70
     1
102
RTVSPropertyOp31
 70
     1
102
RTVSPropertyOp32
 70
     1
102
RTVSPropertyOp33
 70
     1
102
RTVSPropertyOp34
 70
     1
102
RTVSPropertyOp35
 70
     1
102
RTVSPropertyOp36
 70
     1
102
RTVSPropertyOp37
 70
     1
102
RTVSPropertyOp38
 70
     1
102
RTVSPropertyOp39
 70
     1
102
RTVSPropertyOp40
 70
     1
102
RTVSPropertyOp41
 70
     1
102
RTVSPropertyOp42
 70
     1
102
RTVSPropertyOp43
 70
     1
102
RTVSPropertyOp44
 70
     1
102
RTVSPropertyOp45
 70
     1
102
RTVSPropertyOp46
 70
     1
102
RTVSPropertyOp47
 70
     1
102
RTVSPropertyOp48
 70
     1
102
RTVSPropertyOp49
 70
     1
102
RTVSPropertyOp50
 70
     1
102
RTVSPropertyOp51
 70
     0
102
RTVSPropertyOp52
 70
     0
102
RTVSPropertyOp53
 70
     1
102
RTVSPropertyOp54
 70
     1
102
RTVSPropertyOp55
 70
     1
102
RTVSPropertyOp56
 70
     1
102
RTVSPropertyOp57
 70
     1
102
RTVSPropertyOp58
 70
     1
102
RTVSPropertyOp59
 70
     1
102
RTVSPropertyOp60
 70
     1
102
RTVSPropertyOp61
 70
     1
102
RTVSPropertyOp62
 70
     1
  0
XRECORD
  5
51E
102
{ACAD_REACTORS
330
51D
102
}
330
51D
100
AcDbXrecord
280
     1
102
RTVSPost2010Prop28
280
     0
102
RTVSPost2010PropOp28
 70
     1
102
RTVSPost2010Prop29
280
     1
102
RTVSPost2010PropOp29
 70
     1
102
RTVSPost2010Prop30
280
     1
102
RTVSPost2010PropOp30
 70
     1
102
RTVSPost2010Prop31
280
     0
102
RTVSPost2010PropOp31
 70
     1
102
RTVSPost2010Prop32
280
     0
102
RTVSPost2010PropOp32
 70
     1
102
RTVSPost2010Prop33
280
     0
102
RTVSPost2010PropOp33
 70
     1
102
RTVSPost2010Prop34
280
     0
102
RTVSPost2010PropOp34
 70
     1
102
RTVSPost2010Prop35
280
     0
102
RTVSPost2010PropOp35
 70
     1
102
RTVSPost2010Prop36
280
     0
102
RTVSPost2010PropOp36
 70
     1
102
RTVSPost2010Prop37
 90
       50
102
RTVSPost2010PropOp37
 70
     1
102
RTVSPost2010Prop38
140
0.0
102
RTVSPost2010PropOp38
 70
     1
102
RTVSPost2010Prop39
140
1.0
102
RTVSPost2010PropOp39
 70
     1
102
RTVSPost2010Prop40
 90
        0
102
RTVSPost2010PropOp40
 70
     1
102
RTVSPost2010Prop41ColorIndex
 90
       18
102
RTVSPost2010Prop41ColorRGB
 90
        0
102
RTVSPost2010PropOp41
 70
     1
102
RTVSPost2010Prop42
 90
       50
102
RTVSPost2010PropOp42
 70
     1
102
RTVSPost2010Prop43
 90
        3
102
RTVSPost2010PropOp43
 70
     1
102
RTVSPost2010Prop44ColorIndex
 90
        5
102
RTVSPost2010Prop44ColorRGB
 90
      255
102
RTVSPost2010PropOp44
 70
     1
102
RTVSPost2010Prop45
280
     0
102
RTVSPost2010PropOp45
 70
     1
102
RTVSPost2010Prop46
 90
       50
102
RTVSPost2010PropOp46
 70
     1
102
RTVSPost2010Prop47
 90
       50
102
RTVSPost2010PropOp47
 70
     1
102
RTVSPost2010Prop48
 90
       50
102
RTVSPost2010PropOp48
 70
     1
102
RTVSPost2010Prop49
280
     0
102
RTVSPost2010PropOp49
 70
     1
102
RTVSPost2010Prop50
 90
       50
102
RTVSPost2010PropOp50
 70
     1
102
RTVSPost2010Prop51ColorIndex
 90
      256
102
RTVSPost2010Prop51ColorRGB
 90
-16777216
102
RTVSPost2010PropOp51
 70
     0
102
RTVSPost2010Prop52
140
1.0
102
RTVSPost2010PropOp52
 70
     0
102
RTVSPost2010Prop53
 90
        2
102
RTVSPost2010PropOp53
 70
     1
102
RTVSPost2010Prop54
  1
strokes_ogs.tif
102
RTVSPost2010PropOp54
 70
     1
102
RTVSPost2010Prop55
280
     0
102
RTVSPost2010PropOp55
 70
     1
102
RTVSPost2010Prop56
140
1.0
102
RTVSPost2010PropOp56
 70
     1
102
RTVSPost2010Prop57
140
1.0
102
RTVSPost2010PropOp57
 70
     1
102
RTVSPropertyOp0
 70
     1
102
RTVSPropertyOp1
 70
     1
102
RTVSPropertyOp2
 70
     1
102
RTVSPropertyOp3
 70
     1
102
RTVSPropertyOp4
 70
     1
102
RTVSPropertyOp5
 70
     1
102
RTVSPropertyOp6
 70
     1
102
RTVSPropertyOp7
 70
     1
102
RTVSPropertyOp8
 70
     1
102
RTVSPropertyOp9
 70
     1
102
RTVSPropertyOp10
 70
     1
102
RTVSPropertyOp11
 70
     1
102
RTVSPropertyOp12
 70
     1
102
RTVSPropertyOp13
 70
     1
102
RTVSPropertyOp14
 70
     1
102
RTVSPropertyOp15
 70
     1
102
RTVSPropertyOp16
 70
     1
102
RTVSPropertyOp17
 70
     1
102
RTVSPropertyOp18
 70
     1
102
RTVSPropertyOp19
 70
     1
102
RTVSPropertyOp20
 70
     1
102
RTVSPropertyOp21
 70
     1
102
RTVSPropertyOp22
 70
     1
102
RTVSPropertyOp23
 70
     1
102
RTVSPropertyOp24
 70
     1
102
RTVSPropertyOp25
 70
     1
102
RTVSPropertyOp26
 70
     1
102
RTVSPropertyOp27
 70
     1
102
RTVSPropertyOp28
 70
     1
102
RTVSPropertyOp29
 70
     1
102
RTVSPropertyOp30
 70
     1
102
RTVSPropertyOp31
 70
     1
102
RTVSPropertyOp32
 70
     1
102
RTVSPropertyOp33
 70
     1
102
RTVSPropertyOp34
 70
     1
102
RTVSPropertyOp35
 70
     1
102
RTVSPropertyOp36
 70
     1
102
RTVSPropertyOp37
 70
     1
102
RTVSPropertyOp38
 70
     1
102
RTVSPropertyOp39
 70
     1
102
RTVSPropertyOp40
 70
     1
102
RTVSPropertyOp41
 70
     1
102
RTVSPropertyOp42
 70
     1
102
RTVSPropertyOp43
 70
     1
102
RTVSPropertyOp44
 70
     1
102
RTVSPropertyOp45
 70
     1
102
RTVSPropertyOp46
 70
     1
102
RTVSPropertyOp47
 70
     1
102
RTVSPropertyOp48
 70
     1
102
RTVSPropertyOp49
 70
     1
102
RTVSPropertyOp50
 70
     1
102
RTVSPropertyOp51
 70
     0
102
RTVSPropertyOp52
 70
     0
102
RTVSPropertyOp53
 70
     1
102
RTVSPropertyOp54
 70
     1
102
RTVSPropertyOp55
 70
     1
102
RTVSPropertyOp56
 70
     1
102
RTVSPropertyOp57
 70
     1
102
RTVSPropertyOp58
 70
     1
102
RTVSPropertyOp59
 70
     1
102
RTVSPropertyOp60
 70
     1
102
RTVSPropertyOp61
 70
     1
102
RTVSPropertyOp62
 70
     1
  0
XRECORD
  5
510
102
{ACAD_REACTORS
330
50F
102
}
330
50F
100
AcDbXrecord
280
     1
102
RTVSPost2010Prop28
280
     0
102
RTVSPost2010PropOp28
 70
     1
102
RTVSPost2010Prop29
280
     1
102
RTVSPost2010PropOp29
 70
     1
102
RTVSPost2010Prop30
280
     1
102
RTVSPost2010PropOp30
 70
     1
102
RTVSPost2010Prop31
280
     0
102
RTVSPost2010PropOp31
 70
     1
102
RTVSPost2010Prop32
280
     0
102
RTVSPost2010PropOp32
 70
     1
102
RTVSPost2010Prop33
280
     0
102
RTVSPost2010PropOp33
 70
     1
102
RTVSPost2010Prop34
280
     0
102
RTVSPost2010PropOp34
 70
     1
102
RTVSPost2010Prop35
280
     0
102
RTVSPost2010PropOp35
 70
     1
102
RTVSPost2010Prop36
280
     0
102
RTVSPost2010PropOp36
 70
     1
102
RTVSPost2010Prop37
 90
       50
102
RTVSPost2010PropOp37
 70
     1
102
RTVSPost2010Prop38
140
0.0
102
RTVSPost2010PropOp38
 70
     1
102
RTVSPost2010Prop39
140
1.0
102
RTVSPost2010PropOp39
 70
     1
102
RTVSPost2010Prop40
 90
        0
102
RTVSPost2010PropOp40
 70
     1
102
RTVSPost2010Prop41ColorIndex
 90
       18
102
RTVSPost2010Prop41ColorRGB
 90
        0
102
RTVSPost2010PropOp41
 70
     1
102
RTVSPost2010Prop42
 90
       50
102
RTVSPost2010PropOp42
 70
     1
102
RTVSPost2010Prop43
 90
        3
102
RTVSPost2010PropOp43
 70
     1
102
RTVSPost2010Prop44ColorIndex
 90
        5
102
RTVSPost2010Prop44ColorRGB
 90
      255
102
RTVSPost2010PropOp44
 70
     1
102
RTVSPost2010Prop45
280
     0
102
RTVSPost2010PropOp45
 70
     1
102
RTVSPost2010Prop46
 90
       50
102
RTVSPost2010PropOp46
 70
     1
102
RTVSPost2010Prop47
 90
       50
102
RTVSPost2010PropOp47
 70
     1
102
RTVSPost2010Prop48
 90
       50
102
RTVSPost2010PropOp48
 70
     1
102
RTVSPost2010Prop49
280
     0
102
RTVSPost2010PropOp49
 70
     1
102
RTVSPost2010Prop50
 90
       50
102
RTVSPost2010PropOp50
 70
     1
102
RTVSPost2010Prop51ColorIndex
 90
      256
102
RTVSPost2010Prop51ColorRGB
 90
-16777216
102
RTVSPost2010PropOp51
 70
     0
102
RTVSPost2010Prop52
140
1.0
102
RTVSPost2010PropOp52
 70
     0
102
RTVSPost2010Prop53
 90
        2
102
RTVSPost2010PropOp53
 70
     1
102
RTVSPost2010Prop54
  1
strokes_ogs.tif
102
RTVSPost2010PropOp54
 70
     1
102
RTVSPost2010Prop55
280
     0
102
RTVSPost2010PropOp55
 70
     1
102
RTVSPost2010Prop56
140
1.0
102
RTVSPost2010PropOp56
 70
     1
102
RTVSPost2010Prop57
140
1.0
102
RTVSPost2010PropOp57
 70
     1
102
RTVSPropertyOp0
 70
     1
102
RTVSPropertyOp1
 70
     1
102
RTVSPropertyOp2
 70
     1
102
RTVSPropertyOp3
 70
     1
102
RTVSPropertyOp4
 70
     1
102
RTVSPropertyOp5
 70
     1
102
RTVSPropertyOp6
 70
     1
102
RTVSPropertyOp7
 70
     1
102
RTVSPropertyOp8
 70
     1
102
RTVSPropertyOp9
 70
     1
102
RTVSPropertyOp10
 70
     1
102
RTVSPropertyOp11
 70
     1
102
RTVSPropertyOp12
 70
     1
102
RTVSPropertyOp13
 70
     1
102
RTVSPropertyOp14
 70
     1
102
RTVSPropertyOp15
 70
     1
102
RTVSPropertyOp16
 70
     1
102
RTVSPropertyOp17
 70
     1
102
RTVSPropertyOp18
 70
     1
102
RTVSPropertyOp19
 70
     1
102
RTVSPropertyOp20
 70
     1
102
RTVSPropertyOp21
 70
     1
102
RTVSPropertyOp22
 70
     1
102
RTVSPropertyOp23
 70
     1
102
RTVSPropertyOp24
 70
     1
102
RTVSPropertyOp25
 70
     1
102
RTVSPropertyOp26
 70
     1
102
RTVSPropertyOp27
 70
     1
102
RTVSPropertyOp28
 70
     1
102
RTVSPropertyOp29
 70
     1
102
RTVSPropertyOp30
 70
     1
102
RTVSPropertyOp31
 70
     1
102
RTVSPropertyOp32
 70
     1
102
RTVSPropertyOp33
 70
     1
102
RTVSPropertyOp34
 70
     1
102
RTVSPropertyOp35
 70
     1
102
RTVSPropertyOp36
 70
     1
102
RTVSPropertyOp37
 70
     1
102
RTVSPropertyOp38
 70
     1
102
RTVSPropertyOp39
 70
     1
102
RTVSPropertyOp40
 70
     1
102
RTVSPropertyOp41
 70
     1
102
RTVSPropertyOp42
 70
     1
102
RTVSPropertyOp43
 70
     1
102
RTVSPropertyOp44
 70
     1
102
RTVSPropertyOp45
 70
     1
102
RTVSPropertyOp46
 70
     1
102
RTVSPropertyOp47
 70
     1
102
RTVSPropertyOp48
 70
     1
102
RTVSPropertyOp49
 70
     1
102
RTVSPropertyOp50
 70
     1
102
RTVSPropertyOp51
 70
     0
102
RTVSPropertyOp52
 70
     0
102
RTVSPropertyOp53
 70
     1
102
RTVSPropertyOp54
 70
     1
102
RTVSPropertyOp55
 70
     1
102
RTVSPropertyOp56
 70
     1
102
RTVSPropertyOp57
 70
     1
102
RTVSPropertyOp58
 70
     1
102
RTVSPropertyOp59
 70
     1
102
RTVSPropertyOp60
 70
     1
102
RTVSPropertyOp61
 70
     1
102
RTVSPropertyOp62
 70
     1
  0
XRECORD
  5
514
102
{ACAD_REACTORS
330
513
102
}
330
513
100
AcDbXrecord
280
     1
102
RTVSPost2010Prop28
280
     0
102
RTVSPost2010PropOp28
 70
     1
102
RTVSPost2010Prop29
280
     1
102
RTVSPost2010PropOp29
 70
     1
102
RTVSPost2010Prop30
280
     1
102
RTVSPost2010PropOp30
 70
     1
102
RTVSPost2010Prop31
280
     0
102
RTVSPost2010PropOp31
 70
     1
102
RTVSPost2010Prop32
280
     0
102
RTVSPost2010PropOp32
 70
     1
102
RTVSPost2010Prop33
280
     0
102
RTVSPost2010PropOp33
 70
     1
102
RTVSPost2010Prop34
280
     0
102
RTVSPost2010PropOp34
 70
     1
102
RTVSPost2010Prop35
280
     0
102
RTVSPost2010PropOp35
 70
     1
102
RTVSPost2010Prop36
280
     0
102
RTVSPost2010PropOp36
 70
     1
102
RTVSPost2010Prop37
 90
       50
102
RTVSPost2010PropOp37
 70
     1
102
RTVSPost2010Prop38
140
0.0
102
RTVSPost2010PropOp38
 70
     1
102
RTVSPost2010Prop39
140
1.0
102
RTVSPost2010PropOp39
 70
     1
102
RTVSPost2010Prop40
 90
        0
102
RTVSPost2010PropOp40
 70
     1
102
RTVSPost2010Prop41ColorIndex
 90
       18
102
RTVSPost2010Prop41ColorRGB
 90
        0
102
RTVSPost2010PropOp41
 70
     1
102
RTVSPost2010Prop42
 90
       50
102
RTVSPost2010PropOp42
 70
     1
102
RTVSPost2010Prop43
 90
        3
102
RTVSPost2010PropOp43
 70
     1
102
RTVSPost2010Prop44ColorIndex
 90
        5
102
RTVSPost2010Prop44ColorRGB
 90
      255
102
RTVSPost2010PropOp44
 70
     1
102
RTVSPost2010Prop45
280
     0
102
RTVSPost2010PropOp45
 70
     1
102
RTVSPost2010Prop46
 90
       50
102
RTVSPost2010PropOp46
 70
     1
102
RTVSPost2010Prop47
 90
       50
102
RTVSPost2010PropOp47
 70
     1
102
RTVSPost2010Prop48
 90
       50
102
RTVSPost2010PropOp48
 70
     1
102
RTVSPost2010Prop49
280
     0
102
RTVSPost2010PropOp49
 70
     1
102
RTVSPost2010Prop50
 90
       50
102
RTVSPost2010PropOp50
 70
     1
102
RTVSPost2010Prop51ColorIndex
 90
      256
102
RTVSPost2010Prop51ColorRGB
 90
-16777216
102
RTVSPost2010PropOp51
 70
     0
102
RTVSPost2010Prop52
140
1.0
102
RTVSPost2010PropOp52
 70
     0
102
RTVSPost2010Prop53
 90
        2
102
RTVSPost2010PropOp53
 70
     1
102
RTVSPost2010Prop54
  1
strokes_ogs.tif
102
RTVSPost2010PropOp54
 70
     1
102
RTVSPost2010Prop55
280
     0
102
RTVSPost2010PropOp55
 70
     1
102
RTVSPost2010Prop56
140
1.0
102
RTVSPost2010PropOp56
 70
     1
102
RTVSPost2010Prop57
140
1.0
102
RTVSPost2010PropOp57
 70
     1
102
RTVSPropertyOp0
 70
     1
102
RTVSPropertyOp1
 70
     1
102
RTVSPropertyOp2
 70
     1
102
RTVSPropertyOp3
 70
     1
102
RTVSPropertyOp4
 70
     1
102
RTVSPropertyOp5
 70
     1
102
RTVSPropertyOp6
 70
     1
102
RTVSPropertyOp7
 70
     1
102
RTVSPropertyOp8
 70
     1
102
RTVSPropertyOp9
 70
     1
102
RTVSPropertyOp10
 70
     1
102
RTVSPropertyOp11
 70
     1
102
RTVSPropertyOp12
 70
     1
102
RTVSPropertyOp13
 70
     1
102
RTVSPropertyOp14
 70
     1
102
RTVSPropertyOp15
 70
     1
102
RTVSPropertyOp16
 70
     1
102
RTVSPropertyOp17
 70
     1
102
RTVSPropertyOp18
 70
     1
102
RTVSPropertyOp19
 70
     1
102
RTVSPropertyOp20
 70
     1
102
RTVSPropertyOp21
 70
     1
102
RTVSPropertyOp22
 70
     1
102
RTVSPropertyOp23
 70
     1
102
RTVSPropertyOp24
 70
     1
102
RTVSPropertyOp25
 70
     1
102
RTVSPropertyOp26
 70
     1
102
RTVSPropertyOp27
 70
     1
102
RTVSPropertyOp28
 70
     1
102
RTVSPropertyOp29
 70
     1
102
RTVSPropertyOp30
 70
     1
102
RTVSPropertyOp31
 70
     1
102
RTVSPropertyOp32
 70
     1
102
RTVSPropertyOp33
 70
     1
102
RTVSPropertyOp34
 70
     1
102
RTVSPropertyOp35
 70
     1
102
RTVSPropertyOp36
 70
     1
102
RTVSPropertyOp37
 70
     1
102
RTVSPropertyOp38
 70
     1
102
RTVSPropertyOp39
 70
     1
102
RTVSPropertyOp40
 70
     1
102
RTVSPropertyOp41
 70
     1
102
RTVSPropertyOp42
 70
     1
102
RTVSPropertyOp43
 70
     1
102
RTVSPropertyOp44
 70
     1
102
RTVSPropertyOp45
 70
     1
102
RTVSPropertyOp46
 70
     1
102
RTVSPropertyOp47
 70
     1
102
RTVSPropertyOp48
 70
     1
102
RTVSPropertyOp49
 70
     1
102
RTVSPropertyOp50
 70
     1
102
RTVSPropertyOp51
 70
     0
102
RTVSPropertyOp52
 70
     0
102
RTVSPropertyOp53
 70
     1
102
RTVSPropertyOp54
 70
     1
102
RTVSPropertyOp55
 70
     1
102
RTVSPropertyOp56
 70
     1
102
RTVSPropertyOp57
 70
     1
102
RTVSPropertyOp58
 70
     1
102
RTVSPropertyOp59
 70
     1
102
RTVSPropertyOp60
 70
     1
102
RTVSPropertyOp61
 70
     1
102
RTVSPropertyOp62
 70
     1
  0
XRECORD
  5
52E
102
{ACAD_REACTORS
330
52D
102
}
330
52D
100
AcDbXrecord
280
     1
102
RTVSPost2010Prop28
280
     0
102
RTVSPost2010PropOp28
 70
     1
102
RTVSPost2010Prop29
280
     1
102
RTVSPost2010PropOp29
 70
     1
102
RTVSPost2010Prop30
280
     1
102
RTVSPost2010PropOp30
 70
     1
102
RTVSPost2010Prop31
280
     0
102
RTVSPost2010PropOp31
 70
     1
102
RTVSPost2010Prop32
280
     0
102
RTVSPost2010PropOp32
 70
     1
102
RTVSPost2010Prop33
280
     0
102
RTVSPost2010PropOp33
 70
     1
102
RTVSPost2010Prop34
280
     0
102
RTVSPost2010PropOp34
 70
     1
102
RTVSPost2010Prop35
280
     0
102
RTVSPost2010PropOp35
 70
     1
102
RTVSPost2010Prop36
280
     0
102
RTVSPost2010PropOp36
 70
     1
102
RTVSPost2010Prop37
 90
       50
102
RTVSPost2010PropOp37
 70
     0
102
RTVSPost2010Prop38
140
0.0
102
RTVSPost2010PropOp38
 70
     0
102
RTVSPost2010Prop39
140
1.0
102
RTVSPost2010PropOp39
 70
     0
102
RTVSPost2010Prop40
 90
        0
102
RTVSPost2010PropOp40
 70
     0
102
RTVSPost2010Prop41ColorIndex
 90
       18
102
RTVSPost2010Prop41ColorRGB
 90
        0
102
RTVSPost2010PropOp41
 70
     0
102
RTVSPost2010Prop42
 90
       50
102
RTVSPost2010PropOp42
 70
     0
102
RTVSPost2010Prop43
 90
        3
102
RTVSPost2010PropOp43
 70
     0
102
RTVSPost2010Prop44ColorIndex
 90
        5
102
RTVSPost2010Prop44ColorRGB
 90
      255
102
RTVSPost2010PropOp44
 70
     0
102
RTVSPost2010Prop45
280
     0
102
RTVSPost2010PropOp45
 70
     1
102
RTVSPost2010Prop46
 90
       50
102
RTVSPost2010PropOp46
 70
     0
102
RTVSPost2010Prop47
 90
       50
102
RTVSPost2010PropOp47
 70
     0
102
RTVSPost2010Prop48
 90
       50
102
RTVSPost2010PropOp48
 70
     0
102
RTVSPost2010Prop49
280
     0
102
RTVSPost2010PropOp49
 70
     1
102
RTVSPost2010Prop50
 90
       50
102
RTVSPost2010PropOp50
 70
     0
102
RTVSPost2010Prop51ColorIndex
 90
      256
102
RTVSPost2010Prop51ColorRGB
 90
-16777216
102
RTVSPost2010PropOp51
 70
     0
102
RTVSPost2010Prop52
140
1.0
102
RTVSPost2010PropOp52
 70
     0
102
RTVSPost2010Prop53
 90
        2
102
RTVSPost2010PropOp53
 70
     0
102
RTVSPost2010Prop54
  1
strokes_ogs.tif
102
RTVSPost2010PropOp54
 70
     0
102
RTVSPost2010Prop55
280
     0
102
RTVSPost2010PropOp55
 70
     1
102
RTVSPost2010Prop56
140
1.0
102
RTVSPost2010PropOp56
 70
     0
102
RTVSPost2010Prop57
140
1.0
102
RTVSPost2010PropOp57
 70
     0
102
RTVSPropertyOp0
 70
     0
102
RTVSPropertyOp1
 70
     0
102
RTVSPropertyOp2
 70
     0
102
RTVSPropertyOp3
 70
     0
102
RTVSPropertyOp4
 70
     0
102
RTVSPropertyOp5
 70
     0
102
RTVSPropertyOp6
 70
     0
102
RTVSPropertyOp7
 70
     0
102
RTVSPropertyOp8
 70
     0
102
RTVSPropertyOp9
 70
     0
102
RTVSPropertyOp10
 70
     0
102
RTVSPropertyOp11
 70
     0
102
RTVSPropertyOp12
 70
     0
102
RTVSPropertyOp13
 70
     0
102
RTVSPropertyOp14
 70
     2
102
RTVSPropertyOp15
 70
     0
102
RTVSPropertyOp16
 70
     0
102
RTVSPropertyOp17
 70
     0
102
RTVSPropertyOp18
 70
     0
102
RTVSPropertyOp19
 70
     0
102
RTVSPropertyOp20
 70
     0
102
RTVSPropertyOp21
 70
     0
102
RTVSPropertyOp22
 70
     0
102
RTVSPropertyOp23
 70
     0
102
RTVSPropertyOp24
 70
     0
102
RTVSPropertyOp25
 70
     0
102
RTVSPropertyOp26
 70
     0
102
RTVSPropertyOp27
 70
     0
102
RTVSPropertyOp28
 70
     1
102
RTVSPropertyOp29
 70
     1
102
RTVSPropertyOp30
 70
     1
102
RTVSPropertyOp31
 70
     1
102
RTVSPropertyOp32
 70
     1
102
RTVSPropertyOp33
 70
     1
102
RTVSPropertyOp34
 70
     1
102
RTVSPropertyOp35
 70
     1
102
RTVSPropertyOp36
 70
     1
102
RTVSPropertyOp37
 70
     0
102
RTVSPropertyOp38
 70
     0
102
RTVSPropertyOp39
 70
     0
102
RTVSPropertyOp40
 70
     0
102
RTVSPropertyOp41
 70
     0
102
RTVSPropertyOp42
 70
     0
102
RTVSPropertyOp43
 70
     0
102
RTVSPropertyOp44
 70
     0
102
RTVSPropertyOp45
 70
     1
102
RTVSPropertyOp46
 70
     0
102
RTVSPropertyOp47
 70
     0
102
RTVSPropertyOp48
 70
     0
102
RTVSPropertyOp49
 70
     1
102
RTVSPropertyOp50
 70
     0
102
RTVSPropertyOp51
 70
     0
102
RTVSPropertyOp52
 70
     0
102
RTVSPropertyOp53
 70
     0
102
RTVSPropertyOp54
 70
     0
102
RTVSPropertyOp55
 70
     1
102
RTVSPropertyOp56
 70
     0
102
RTVSPropertyOp57
 70
     0
102
RTVSPropertyOp58
 70
     0
102
RTVSPropertyOp59
 70
     0
102
RTVSPropertyOp60
 70
     0
102
RTVSPropertyOp61
 70
     0
102
RTVSPropertyOp62
 70
     0
  0
XRECORD
  5
51C
102
{ACAD_REACTORS
330
51B
102
}
330
51B
100
AcDbXrecord
280
     1
102
RTVSPost2010Prop28
280
     0
102
RTVSPost2010PropOp28
 70
     1
102
RTVSPost2010Prop29
280
     1
102
RTVSPost2010PropOp29
 70
     1
102
RTVSPost2010Prop30
280
     1
102
RTVSPost2010PropOp30
 70
     1
102
RTVSPost2010Prop31
280
     0
102
RTVSPost2010PropOp31
 70
     1
102
RTVSPost2010Prop32
280
     0
102
RTVSPost2010PropOp32
 70
     1
102
RTVSPost2010Prop33
280
     0
102
RTVSPost2010PropOp33
 70
     1
102
RTVSPost2010Prop34
280
     0
102
RTVSPost2010PropOp34
 70
     1
102
RTVSPost2010Prop35
280
     0
102
RTVSPost2010PropOp35
 70
     1
102
RTVSPost2010Prop36
280
     0
102
RTVSPost2010PropOp36
 70
     1
102
RTVSPost2010Prop37
 90
       50
102
RTVSPost2010PropOp37
 70
     1
102
RTVSPost2010Prop38
140
0.0
102
RTVSPost2010PropOp38
 70
     1
102
RTVSPost2010Prop39
140
1.0
102
RTVSPost2010PropOp39
 70
     1
102
RTVSPost2010Prop40
 90
        0
102
RTVSPost2010PropOp40
 70
     1
102
RTVSPost2010Prop41ColorIndex
 90
       18
102
RTVSPost2010Prop41ColorRGB
 90
        0
102
RTVSPost2010PropOp41
 70
     1
102
RTVSPost2010Prop42
 90
       50
102
RTVSPost2010PropOp42
 70
     1
102
RTVSPost2010Prop43
 90
        3
102
RTVSPost2010PropOp43
 70
     1
102
RTVSPost2010Prop44ColorIndex
 90
        5
102
RTVSPost2010Prop44ColorRGB
 90
      255
102
RTVSPost2010PropOp44
 70
     1
102
RTVSPost2010Prop45
280
     0
102
RTVSPost2010PropOp45
 70
     1
102
RTVSPost2010Prop46
 90
       50
102
RTVSPost2010PropOp46
 70
     1
102
RTVSPost2010Prop47
 90
       50
102
RTVSPost2010PropOp47
 70
     1
102
RTVSPost2010Prop48
 90
       50
102
RTVSPost2010PropOp48
 70
     1
102
RTVSPost2010Prop49
280
     0
102
RTVSPost2010PropOp49
 70
     1
102
RTVSPost2010Prop50
 90
       50
102
RTVSPost2010PropOp50
 70
     1
102
RTVSPost2010Prop51ColorIndex
 90
      256
102
RTVSPost2010Prop51ColorRGB
 90
-16777216
102
RTVSPost2010PropOp51
 70
     0
102
RTVSPost2010Prop52
140
1.0
102
RTVSPost2010PropOp52
 70
     0
102
RTVSPost2010Prop53
 90
        2
102
RTVSPost2010PropOp53
 70
     1
102
RTVSPost2010Prop54
  1
strokes_ogs.tif
102
RTVSPost2010PropOp54
 70
     1
102
RTVSPost2010Prop55
280
     0
102
RTVSPost2010PropOp55
 70
     1
102
RTVSPost2010Prop56
140
1.0
102
RTVSPost2010PropOp56
 70
     1
102
RTVSPost2010Prop57
140
1.0
102
RTVSPost2010PropOp57
 70
     1
102
RTVSPropertyOp0
 70
     1
102
RTVSPropertyOp1
 70
     1
102
RTVSPropertyOp2
 70
     1
102
RTVSPropertyOp3
 70
     1
102
RTVSPropertyOp4
 70
     1
102
RTVSPropertyOp5
 70
     1
102
RTVSPropertyOp6
 70
     1
102
RTVSPropertyOp7
 70
     1
102
RTVSPropertyOp8
 70
     1
102
RTVSPropertyOp9
 70
     1
102
RTVSPropertyOp10
 70
     1
102
RTVSPropertyOp11
 70
     1
102
RTVSPropertyOp12
 70
     1
102
RTVSPropertyOp13
 70
     1
102
RTVSPropertyOp14
 70
     1
102
RTVSPropertyOp15
 70
     1
102
RTVSPropertyOp16
 70
     1
102
RTVSPropertyOp17
 70
     1
102
RTVSPropertyOp18
 70
     1
102
RTVSPropertyOp19
 70
     1
102
RTVSPropertyOp20
 70
     1
102
RTVSPropertyOp21
 70
     1
102
RTVSPropertyOp22
 70
     1
102
RTVSPropertyOp23
 70
     1
102
RTVSPropertyOp24
 70
     1
102
RTVSPropertyOp25
 70
     1
102
RTVSPropertyOp26
 70
     1
102
RTVSPropertyOp27
 70
     1
102
RTVSPropertyOp28
 70
     1
102
RTVSPropertyOp29
 70
     1
102
RTVSPropertyOp30
 70
     1
102
RTVSPropertyOp31
 70
     1
102
RTVSPropertyOp32
 70
     1
102
RTVSPropertyOp33
 70
     1
102
RTVSPropertyOp34
 70
     1
102
RTVSPropertyOp35
 70
     1
102
RTVSPropertyOp36
 70
     1
102
RTVSPropertyOp37
 70
     1
102
RTVSPropertyOp38
 70
     1
102
RTVSPropertyOp39
 70
     1
102
RTVSPropertyOp40
 70
     1
102
RTVSPropertyOp41
 70
     1
102
RTVSPropertyOp42
 70
     1
102
RTVSPropertyOp43
 70
     1
102
RTVSPropertyOp44
 70
     1
102
RTVSPropertyOp45
 70
     1
102
RTVSPropertyOp46
 70
     1
102
RTVSPropertyOp47
 70
     1
102
RTVSPropertyOp48
 70
     1
102
RTVSPropertyOp49
 70
     1
102
RTVSPropertyOp50
 70
     1
102
RTVSPropertyOp51
 70
     0
102
RTVSPropertyOp52
 70
     0
102
RTVSPropertyOp53
 70
     1
102
RTVSPropertyOp54
 70
     1
102
RTVSPropertyOp55
 70
     1
102
RTVSPropertyOp56
 70
     1
102
RTVSPropertyOp57
 70
     1
102
RTVSPropertyOp58
 70
     1
102
RTVSPropertyOp59
 70
     1
102
RTVSPropertyOp60
 70
     1
102
RTVSPropertyOp61
 70
     1
102
RTVSPropertyOp62
 70
     1
  0
XRECORD
  5
500
102
{ACAD_REACTORS
330
4FF
102
}
330
4FF
100
AcDbXrecord
280
     1
102
RTVSPost2010Prop28
280
     0
102
RTVSPost2010PropOp28
 70
     1
102
RTVSPost2010Prop29
280
     1
102
RTVSPost2010PropOp29
 70
     1
102
RTVSPost2010Prop30
280
     1
102
RTVSPost2010PropOp30
 70
     1
102
RTVSPost2010Prop31
280
     0
102
RTVSPost2010PropOp31
 70
     1
102
RTVSPost2010Prop32
280
     0
102
RTVSPost2010PropOp32
 70
     1
102
RTVSPost2010Prop33
280
     0
102
RTVSPost2010PropOp33
 70
     1
102
RTVSPost2010Prop34
280
     0
102
RTVSPost2010PropOp34
 70
     1
102
RTVSPost2010Prop35
280
     0
102
RTVSPost2010PropOp35
 70
     1
102
RTVSPost2010Prop36
280
     0
102
RTVSPost2010PropOp36
 70
     1
102
RTVSPost2010Prop37
 90
       50
102
RTVSPost2010PropOp37
 70
     1
102
RTVSPost2010Prop38
140
0.0
102
RTVSPost2010PropOp38
 70
     1
102
RTVSPost2010Prop39
140
1.0
102
RTVSPost2010PropOp39
 70
     1
102
RTVSPost2010Prop40
 90
        0
102
RTVSPost2010PropOp40
 70
     1
102
RTVSPost2010Prop41ColorIndex
 90
       18
102
RTVSPost2010Prop41ColorRGB
 90
        0
102
RTVSPost2010PropOp41
 70
     1
102
RTVSPost2010Prop42
 90
       50
102
RTVSPost2010PropOp42
 70
     1
102
RTVSPost2010Prop43
 90
        3
102
RTVSPost2010PropOp43
 70
     1
102
RTVSPost2010Prop44ColorIndex
 90
        5
102
RTVSPost2010Prop44ColorRGB
 90
      255
102
RTVSPost2010PropOp44
 70
     1
102
RTVSPost2010Prop45
280
     0
102
RTVSPost2010PropOp45
 70
     1
102
RTVSPost2010Prop46
 90
       50
102
RTVSPost2010PropOp46
 70
     1
102
RTVSPost2010Prop47
 90
       50
102
RTVSPost2010PropOp47
 70
     1
102
RTVSPost2010Prop48
 90
       50
102
RTVSPost2010PropOp48
 70
     1
102
RTVSPost2010Prop49
280
     0
102
RTVSPost2010PropOp49
 70
     1
102
RTVSPost2010Prop50
 90
       50
102
RTVSPost2010PropOp50
 70
     1
102
RTVSPost2010Prop51ColorIndex
 90
      256
102
RTVSPost2010Prop51ColorRGB
 90
-16777216
102
RTVSPost2010PropOp51
 70
     0
102
RTVSPost2010Prop52
140
1.0
102
RTVSPost2010PropOp52
 70
     0
102
RTVSPost2010Prop53
 90
        2
102
RTVSPost2010PropOp53
 70
     1
102
RTVSPost2010Prop54
  1
strokes_ogs.tif
102
RTVSPost2010PropOp54
 70
     1
102
RTVSPost2010Prop55
280
     0
102
RTVSPost2010PropOp55
 70
     1
102
RTVSPost2010Prop56
140
1.0
102
RTVSPost2010PropOp56
 70
     1
102
RTVSPost2010Prop57
140
1.0
102
RTVSPost2010PropOp57
 70
     1
102
RTVSPropertyOp0
 70
     1
102
RTVSPropertyOp1
 70
     1
102
RTVSPropertyOp2
 70
     1
102
RTVSPropertyOp3
 70
     1
102
RTVSPropertyOp4
 70
     1
102
RTVSPropertyOp5
 70
     1
102
RTVSPropertyOp6
 70
     1
102
RTVSPropertyOp7
 70
     1
102
RTVSPropertyOp8
 70
     1
102
RTVSPropertyOp9
 70
     1
102
RTVSPropertyOp10
 70
     1
102
RTVSPropertyOp11
 70
     1
102
RTVSPropertyOp12
 70
     1
102
RTVSPropertyOp13
 70
     1
102
RTVSPropertyOp14
 70
     1
102
RTVSPropertyOp15
 70
     1
102
RTVSPropertyOp16
 70
     1
102
RTVSPropertyOp17
 70
     1
102
RTVSPropertyOp18
 70
     1
102
RTVSPropertyOp19
 70
     1
102
RTVSPropertyOp20
 70
     1
102
RTVSPropertyOp21
 70
     1
102
RTVSPropertyOp22
 70
     1
102
RTVSPropertyOp23
 70
     1
102
RTVSPropertyOp24
 70
     1
102
RTVSPropertyOp25
 70
     1
102
RTVSPropertyOp26
 70
     1
102
RTVSPropertyOp27
 70
     1
102
RTVSPropertyOp28
 70
     1
102
RTVSPropertyOp29
 70
     1
102
RTVSPropertyOp30
 70
     1
102
RTVSPropertyOp31
 70
     1
102
RTVSPropertyOp32
 70
     1
102
RTVSPropertyOp33
 70
     1
102
RTVSPropertyOp34
 70
     1
102
RTVSPropertyOp35
 70
     1
102
RTVSPropertyOp36
 70
     1
102
RTVSPropertyOp37
 70
     1
102
RTVSPropertyOp38
 70
     1
102
RTVSPropertyOp39
 70
     1
102
RTVSPropertyOp40
 70
     1
102
RTVSPropertyOp41
 70
     1
102
RTVSPropertyOp42
 70
     1
102
RTVSPropertyOp43
 70
     1
102
RTVSPropertyOp44
 70
     1
102
RTVSPropertyOp45
 70
     1
102
RTVSPropertyOp46
 70
     1
102
RTVSPropertyOp47
 70
     1
102
RTVSPropertyOp48
 70
     1
102
RTVSPropertyOp49
 70
     1
102
RTVSPropertyOp50
 70
     1
102
RTVSPropertyOp51
 70
     0
102
RTVSPropertyOp52
 70
     0
102
RTVSPropertyOp53
 70
     1
102
RTVSPropertyOp54
 70
     1
102
RTVSPropertyOp55
 70
     1
102
RTVSPropertyOp56
 70
     1
102
RTVSPropertyOp57
 70
     1
102
RTVSPropertyOp58
 70
     1
102
RTVSPropertyOp59
 70
     1
102
RTVSPropertyOp60
 70
     1
102
RTVSPropertyOp61
 70
     1
102
RTVSPropertyOp62
 70
     1
  0
XRECORD
  5
502
102
{ACAD_REACTORS
330
501
102
}
330
501
100
AcDbXrecord
280
     1
102
RTVSPost2010Prop28
280
     0
102
RTVSPost2010PropOp28
 70
     1
102
RTVSPost2010Prop29
280
     1
102
RTVSPost2010PropOp29
 70
     1
102
RTVSPost2010Prop30
280
     1
102
RTVSPost2010PropOp30
 70
     1
102
RTVSPost2010Prop31
280
     0
102
RTVSPost2010PropOp31
 70
     1
102
RTVSPost2010Prop32
280
     0
102
RTVSPost2010PropOp32
 70
     1
102
RTVSPost2010Prop33
280
     0
102
RTVSPost2010PropOp33
 70
     1
102
RTVSPost2010Prop34
280
     0
102
RTVSPost2010PropOp34
 70
     1
102
RTVSPost2010Prop35
280
     0
102
RTVSPost2010PropOp35
 70
     1
102
RTVSPost2010Prop36
280
     0
102
RTVSPost2010PropOp36
 70
     1
102
RTVSPost2010Prop37
 90
       50
102
RTVSPost2010PropOp37
 70
     1
102
RTVSPost2010Prop38
140
0.0
102
RTVSPost2010PropOp38
 70
     1
102
RTVSPost2010Prop39
140
1.0
102
RTVSPost2010PropOp39
 70
     1
102
RTVSPost2010Prop40
 90
        0
102
RTVSPost2010PropOp40
 70
     1
102
RTVSPost2010Prop41ColorIndex
 90
       18
102
RTVSPost2010Prop41ColorRGB
 90
        0
102
RTVSPost2010PropOp41
 70
     1
102
RTVSPost2010Prop42
 90
       50
102
RTVSPost2010PropOp42
 70
     1
102
RTVSPost2010Prop43
 90
        3
102
RTVSPost2010PropOp43
 70
     1
102
RTVSPost2010Prop44ColorIndex
 90
        5
102
RTVSPost2010Prop44ColorRGB
 90
      255
102
RTVSPost2010PropOp44
 70
     1
102
RTVSPost2010Prop45
280
     0
102
RTVSPost2010PropOp45
 70
     1
102
RTVSPost2010Prop46
 90
       50
102
RTVSPost2010PropOp46
 70
     1
102
RTVSPost2010Prop47
 90
       50
102
RTVSPost2010PropOp47
 70
     1
102
RTVSPost2010Prop48
 90
       50
102
RTVSPost2010PropOp48
 70
     1
102
RTVSPost2010Prop49
280
     0
102
RTVSPost2010PropOp49
 70
     1
102
RTVSPost2010Prop50
 90
       50
102
RTVSPost2010PropOp50
 70
     1
102
RTVSPost2010Prop51ColorIndex
 90
      256
102
RTVSPost2010Prop51ColorRGB
 90
-16777216
102
RTVSPost2010PropOp51
 70
     0
102
RTVSPost2010Prop52
140
1.0
102
RTVSPost2010PropOp52
 70
     0
102
RTVSPost2010Prop53
 90
        2
102
RTVSPost2010PropOp53
 70
     1
102
RTVSPost2010Prop54
  1
strokes_ogs.tif
102
RTVSPost2010PropOp54
 70
     1
102
RTVSPost2010Prop55
280
     0
102
RTVSPost2010PropOp55
 70
     1
102
RTVSPost2010Prop56
140
1.0
102
RTVSPost2010PropOp56
 70
     1
102
RTVSPost2010Prop57
140
1.0
102
RTVSPost2010PropOp57
 70
     1
102
RTVSPropertyOp0
 70
     1
102
RTVSPropertyOp1
 70
     1
102
RTVSPropertyOp2
 70
     1
102
RTVSPropertyOp3
 70
     1
102
RTVSPropertyOp4
 70
     1
102
RTVSPropertyOp5
 70
     1
102
RTVSPropertyOp6
 70
     1
102
RTVSPropertyOp7
 70
     1
102
RTVSPropertyOp8
 70
     1
102
RTVSPropertyOp9
 70
     1
102
RTVSPropertyOp10
 70
     1
102
RTVSPropertyOp11
 70
     1
102
RTVSPropertyOp12
 70
     1
102
RTVSPropertyOp13
 70
     1
102
RTVSPropertyOp14
 70
     1
102
RTVSPropertyOp15
 70
     1
102
RTVSPropertyOp16
 70
     1
102
RTVSPropertyOp17
 70
     1
102
RTVSPropertyOp18
 70
     1
102
RTVSPropertyOp19
 70
     1
102
RTVSPropertyOp20
 70
     1
102
RTVSPropertyOp21
 70
     1
102
RTVSPropertyOp22
 70
     1
102
RTVSPropertyOp23
 70
     1
102
RTVSPropertyOp24
 70
     1
102
RTVSPropertyOp25
 70
     1
102
RTVSPropertyOp26
 70
     1
102
RTVSPropertyOp27
 70
     1
102
RTVSPropertyOp28
 70
     1
102
RTVSPropertyOp29
 70
     1
102
RTVSPropertyOp30
 70
     1
102
RTVSPropertyOp31
 70
     1
102
RTVSPropertyOp32
 70
     1
102
RTVSPropertyOp33
 70
     1
102
RTVSPropertyOp34
 70
     1
102
RTVSPropertyOp35
 70
     1
102
RTVSPropertyOp36
 70
     1
102
RTVSPropertyOp37
 70
     1
102
RTVSPropertyOp38
 70
     1
102
RTVSPropertyOp39
 70
     1
102
RTVSPropertyOp40
 70
     1
102
RTVSPropertyOp41
 70
     1
102
RTVSPropertyOp42
 70
     1
102
RTVSPropertyOp43
 70
     1
102
RTVSPropertyOp44
 70
     1
102
RTVSPropertyOp45
 70
     1
102
RTVSPropertyOp46
 70
     1
102
RTVSPropertyOp47
 70
     1
102
RTVSPropertyOp48
 70
     1
102
RTVSPropertyOp49
 70
     1
102
RTVSPropertyOp50
 70
     1
102
RTVSPropertyOp51
 70
     0
102
RTVSPropertyOp52
 70
     0
102
RTVSPropertyOp53
 70
     1
102
RTVSPropertyOp54
 70
     1
102
RTVSPropertyOp55
 70
     1
102
RTVSPropertyOp56
 70
     1
102
RTVSPropertyOp57
 70
     1
102
RTVSPropertyOp58
 70
     1
102
RTVSPropertyOp59
 70
     1
102
RTVSPropertyOp60
 70
     1
102
RTVSPropertyOp61
 70
     1
102
RTVSPropertyOp62
 70
     1
  0
XRECORD
  5
504
102
{ACAD_REACTORS
330
503
102
}
330
503
100
AcDbXrecord
280
     1
102
RTVSPost2010Prop28
280
     0
102
RTVSPost2010PropOp28
 70
     1
102
RTVSPost2010Prop29
280
     1
102
RTVSPost2010PropOp29
 70
     1
102
RTVSPost2010Prop30
280
     1
102
RTVSPost2010PropOp30
 70
     1
102
RTVSPost2010Prop31
280
     0
102
RTVSPost2010PropOp31
 70
     1
102
RTVSPost2010Prop32
280
     0
102
RTVSPost2010PropOp32
 70
     1
102
RTVSPost2010Prop33
280
     0
102
RTVSPost2010PropOp33
 70
     1
102
RTVSPost2010Prop34
280
     0
102
RTVSPost2010PropOp34
 70
     1
102
RTVSPost2010Prop35
280
     0
102
RTVSPost2010PropOp35
 70
     1
102
RTVSPost2010Prop36
280
     0
102
RTVSPost2010PropOp36
 70
     1
102
RTVSPost2010Prop37
 90
       50
102
RTVSPost2010PropOp37
 70
     1
102
RTVSPost2010Prop38
140
0.0
102
RTVSPost2010PropOp38
 70
     1
102
RTVSPost2010Prop39
140
1.0
102
RTVSPost2010PropOp39
 70
     1
102
RTVSPost2010Prop40
 90
        0
102
RTVSPost2010PropOp40
 70
     1
102
RTVSPost2010Prop41ColorIndex
 90
       18
102
RTVSPost2010Prop41ColorRGB
 90
        0
102
RTVSPost2010PropOp41
 70
     1
102
RTVSPost2010Prop42
 90
       50
102
RTVSPost2010PropOp42
 70
     1
102
RTVSPost2010Prop43
 90
        3
102
RTVSPost2010PropOp43
 70
     1
102
RTVSPost2010Prop44ColorIndex
 90
        5
102
RTVSPost2010Prop44ColorRGB
 90
      255
102
RTVSPost2010PropOp44
 70
     1
102
RTVSPost2010Prop45
280
     0
102
RTVSPost2010PropOp45
 70
     1
102
RTVSPost2010Prop46
 90
       50
102
RTVSPost2010PropOp46
 70
     1
102
RTVSPost2010Prop47
 90
       50
102
RTVSPost2010PropOp47
 70
     1
102
RTVSPost2010Prop48
 90
       50
102
RTVSPost2010PropOp48
 70
     1
102
RTVSPost2010Prop49
280
     0
102
RTVSPost2010PropOp49
 70
     1
102
RTVSPost2010Prop50
 90
       50
102
RTVSPost2010PropOp50
 70
     1
102
RTVSPost2010Prop51ColorIndex
 90
      256
102
RTVSPost2010Prop51ColorRGB
 90
-16777216
102
RTVSPost2010PropOp51
 70
     0
102
RTVSPost2010Prop52
140
1.0
102
RTVSPost2010PropOp52
 70
     0
102
RTVSPost2010Prop53
 90
        2
102
RTVSPost2010PropOp53
 70
     1
102
RTVSPost2010Prop54
  1
strokes_ogs.tif
102
RTVSPost2010PropOp54
 70
     1
102
RTVSPost2010Prop55
280
     0
102
RTVSPost2010PropOp55
 70
     1
102
RTVSPost2010Prop56
140
1.0
102
RTVSPost2010PropOp56
 70
     1
102
RTVSPost2010Prop57
140
1.0
102
RTVSPost2010PropOp57
 70
     1
102
RTVSPropertyOp0
 70
     1
102
RTVSPropertyOp1
 70
     1
102
RTVSPropertyOp2
 70
     1
102
RTVSPropertyOp3
 70
     1
102
RTVSPropertyOp4
 70
     1
102
RTVSPropertyOp5
 70
     1
102
RTVSPropertyOp6
 70
     1
102
RTVSPropertyOp7
 70
     1
102
RTVSPropertyOp8
 70
     1
102
RTVSPropertyOp9
 70
     1
102
RTVSPropertyOp10
 70
     1
102
RTVSPropertyOp11
 70
     1
102
RTVSPropertyOp12
 70
     1
102
RTVSPropertyOp13
 70
     1
102
RTVSPropertyOp14
 70
     1
102
RTVSPropertyOp15
 70
     1
102
RTVSPropertyOp16
 70
     1
102
RTVSPropertyOp17
 70
     1
102
RTVSPropertyOp18
 70
     1
102
RTVSPropertyOp19
 70
     1
102
RTVSPropertyOp20
 70
     1
102
RTVSPropertyOp21
 70
     1
102
RTVSPropertyOp22
 70
     1
102
RTVSPropertyOp23
 70
     1
102
RTVSPropertyOp24
 70
     1
102
RTVSPropertyOp25
 70
     1
102
RTVSPropertyOp26
 70
     1
102
RTVSPropertyOp27
 70
     1
102
RTVSPropertyOp28
 70
     1
102
RTVSPropertyOp29
 70
     1
102
RTVSPropertyOp30
 70
     1
102
RTVSPropertyOp31
 70
     1
102
RTVSPropertyOp32
 70
     1
102
RTVSPropertyOp33
 70
     1
102
RTVSPropertyOp34
 70
     1
102
RTVSPropertyOp35
 70
     1
102
RTVSPropertyOp36
 70
     1
102
RTVSPropertyOp37
 70
     1
102
RTVSPropertyOp38
 70
     1
102
RTVSPropertyOp39
 70
     1
102
RTVSPropertyOp40
 70
     1
102
RTVSPropertyOp41
 70
     1
102
RTVSPropertyOp42
 70
     1
102
RTVSPropertyOp43
 70
     1
102
RTVSPropertyOp44
 70
     1
102
RTVSPropertyOp45
 70
     1
102
RTVSPropertyOp46
 70
     1
102
RTVSPropertyOp47
 70
     1
102
RTVSPropertyOp48
 70
     1
102
RTVSPropertyOp49
 70
     1
102
RTVSPropertyOp50
 70
     1
102
RTVSPropertyOp51
 70
     0
102
RTVSPropertyOp52
 70
     0
102
RTVSPropertyOp53
 70
     1
102
RTVSPropertyOp54
 70
     1
102
RTVSPropertyOp55
 70
     1
102
RTVSPropertyOp56
 70
     1
102
RTVSPropertyOp57
 70
     1
102
RTVSPropertyOp58
 70
     1
102
RTVSPropertyOp59
 70
     1
102
RTVSPropertyOp60
 70
     1
102
RTVSPropertyOp61
 70
     1
102
RTVSPropertyOp62
 70
     1
  0
XRECORD
  5
506
102
{ACAD_REACTORS
330
505
102
}
330
505
100
AcDbXrecord
280
     1
102
RTVSPost2010Prop28
280
     0
102
RTVSPost2010PropOp28
 70
     1
102
RTVSPost2010Prop29
280
     1
102
RTVSPost2010PropOp29
 70
     1
102
RTVSPost2010Prop30
280
     1
102
RTVSPost2010PropOp30
 70
     1
102
RTVSPost2010Prop31
280
     0
102
RTVSPost2010PropOp31
 70
     1
102
RTVSPost2010Prop32
280
     0
102
RTVSPost2010PropOp32
 70
     1
102
RTVSPost2010Prop33
280
     0
102
RTVSPost2010PropOp33
 70
     1
102
RTVSPost2010Prop34
280
     0
102
RTVSPost2010PropOp34
 70
     1
102
RTVSPost2010Prop35
280
     0
102
RTVSPost2010PropOp35
 70
     1
102
RTVSPost2010Prop36
280
     0
102
RTVSPost2010PropOp36
 70
     1
102
RTVSPost2010Prop37
 90
       50
102
RTVSPost2010PropOp37
 70
     1
102
RTVSPost2010Prop38
140
0.0
102
RTVSPost2010PropOp38
 70
     1
102
RTVSPost2010Prop39
140
1.0
102
RTVSPost2010PropOp39
 70
     1
102
RTVSPost2010Prop40
 90
        0
102
RTVSPost2010PropOp40
 70
     1
102
RTVSPost2010Prop41ColorIndex
 90
       18
102
RTVSPost2010Prop41ColorRGB
 90
        0
102
RTVSPost2010PropOp41
 70
     1
102
RTVSPost2010Prop42
 90
       50
102
RTVSPost2010PropOp42
 70
     1
102
RTVSPost2010Prop43
 90
        3
102
RTVSPost2010PropOp43
 70
     1
102
RTVSPost2010Prop44ColorIndex
 90
        5
102
RTVSPost2010Prop44ColorRGB
 90
      255
102
RTVSPost2010PropOp44
 70
     1
102
RTVSPost2010Prop45
280
     0
102
RTVSPost2010PropOp45
 70
     1
102
RTVSPost2010Prop46
 90
       50
102
RTVSPost2010PropOp46
 70
     1
102
RTVSPost2010Prop47
 90
       50
102
RTVSPost2010PropOp47
 70
     1
102
RTVSPost2010Prop48
 90
       50
102
RTVSPost2010PropOp48
 70
     1
102
RTVSPost2010Prop49
280
     0
102
RTVSPost2010PropOp49
 70
     1
102
RTVSPost2010Prop50
 90
       50
102
RTVSPost2010PropOp50
 70
     1
102
RTVSPost2010Prop51ColorIndex
 90
      256
102
RTVSPost2010Prop51ColorRGB
 90
-16777216
102
RTVSPost2010PropOp51
 70
     0
102
RTVSPost2010Prop52
140
1.0
102
RTVSPost2010PropOp52
 70
     0
102
RTVSPost2010Prop53
 90
        2
102
RTVSPost2010PropOp53
 70
     1
102
RTVSPost2010Prop54
  1
strokes_ogs.tif
102
RTVSPost2010PropOp54
 70
     1
102
RTVSPost2010Prop55
280
     0
102
RTVSPost2010PropOp55
 70
     1
102
RTVSPost2010Prop56
140
1.0
102
RTVSPost2010PropOp56
 70
     1
102
RTVSPost2010Prop57
140
1.0
102
RTVSPost2010PropOp57
 70
     1
102
RTVSPropertyOp0
 70
     1
102
RTVSPropertyOp1
 70
     1
102
RTVSPropertyOp2
 70
     1
102
RTVSPropertyOp3
 70
     1
102
RTVSPropertyOp4
 70
     1
102
RTVSPropertyOp5
 70
     1
102
RTVSPropertyOp6
 70
     1
102
RTVSPropertyOp7
 70
     1
102
RTVSPropertyOp8
 70
     1
102
RTVSPropertyOp9
 70
     1
102
RTVSPropertyOp10
 70
     1
102
RTVSPropertyOp11
 70
     1
102
RTVSPropertyOp12
 70
     1
102
RTVSPropertyOp13
 70
     1
102
RTVSPropertyOp14
 70
     1
102
RTVSPropertyOp15
 70
     1
102
RTVSPropertyOp16
 70
     1
102
RTVSPropertyOp17
 70
     1
102
RTVSPropertyOp18
 70
     1
102
RTVSPropertyOp19
 70
     1
102
RTVSPropertyOp20
 70
     1
102
RTVSPropertyOp21
 70
     1
102
RTVSPropertyOp22
 70
     1
102
RTVSPropertyOp23
 70
     1
102
RTVSPropertyOp24
 70
     1
102
RTVSPropertyOp25
 70
     1
102
RTVSPropertyOp26
 70
     1
102
RTVSPropertyOp27
 70
     1
102
RTVSPropertyOp28
 70
     1
102
RTVSPropertyOp29
 70
     1
102
RTVSPropertyOp30
 70
     1
102
RTVSPropertyOp31
 70
     1
102
RTVSPropertyOp32
 70
     1
102
RTVSPropertyOp33
 70
     1
102
RTVSPropertyOp34
 70
     1
102
RTVSPropertyOp35
 70
     1
102
RTVSPropertyOp36
 70
     1
102
RTVSPropertyOp37
 70
     1
102
RTVSPropertyOp38
 70
     1
102
RTVSPropertyOp39
 70
     1
102
RTVSPropertyOp40
 70
     1
102
RTVSPropertyOp41
 70
     1
102
RTVSPropertyOp42
 70
     1
102
RTVSPropertyOp43
 70
     1
102
RTVSPropertyOp44
 70
     1
102
RTVSPropertyOp45
 70
     1
102
RTVSPropertyOp46
 70
     1
102
RTVSPropertyOp47
 70
     1
102
RTVSPropertyOp48
 70
     1
102
RTVSPropertyOp49
 70
     1
102
RTVSPropertyOp50
 70
     1
102
RTVSPropertyOp51
 70
     0
102
RTVSPropertyOp52
 70
     0
102
RTVSPropertyOp53
 70
     1
102
RTVSPropertyOp54
 70
     1
102
RTVSPropertyOp55
 70
     1
102
RTVSPropertyOp56
 70
     1
102
RTVSPropertyOp57
 70
     1
102
RTVSPropertyOp58
 70
     1
102
RTVSPropertyOp59
 70
     1
102
RTVSPropertyOp60
 70
     1
102
RTVSPropertyOp61
 70
     1
102
RTVSPropertyOp62
 70
     1
  0
XRECORD
  5
50E
102
{ACAD_REACTORS
330
50D
102
}
330
50D
100
AcDbXrecord
280
     1
102
RTVSPost2010Prop28
280
     0
102
RTVSPost2010PropOp28
 70
     1
102
RTVSPost2010Prop29
280
     1
102
RTVSPost2010PropOp29
 70
     1
102
RTVSPost2010Prop30
280
     1
102
RTVSPost2010PropOp30
 70
     1
102
RTVSPost2010Prop31
280
     0
102
RTVSPost2010PropOp31
 70
     1
102
RTVSPost2010Prop32
280
     0
102
RTVSPost2010PropOp32
 70
     1
102
RTVSPost2010Prop33
280
     0
102
RTVSPost2010PropOp33
 70
     1
102
RTVSPost2010Prop34
280
     0
102
RTVSPost2010PropOp34
 70
     1
102
RTVSPost2010Prop35
280
     0
102
RTVSPost2010PropOp35
 70
     1
102
RTVSPost2010Prop36
280
     0
102
RTVSPost2010PropOp36
 70
     1
102
RTVSPost2010Prop37
 90
       50
102
RTVSPost2010PropOp37
 70
     1
102
RTVSPost2010Prop38
140
0.0
102
RTVSPost2010PropOp38
 70
     1
102
RTVSPost2010Prop39
140
1.0
102
RTVSPost2010PropOp39
 70
     1
102
RTVSPost2010Prop40
 90
        0
102
RTVSPost2010PropOp40
 70
     1
102
RTVSPost2010Prop41ColorIndex
 90
       18
102
RTVSPost2010Prop41ColorRGB
 90
        0
102
RTVSPost2010PropOp41
 70
     1
102
RTVSPost2010Prop42
 90
       50
102
RTVSPost2010PropOp42
 70
     1
102
RTVSPost2010Prop43
 90
        3
102
RTVSPost2010PropOp43
 70
     1
102
RTVSPost2010Prop44ColorIndex
 90
        5
102
RTVSPost2010Prop44ColorRGB
 90
      255
102
RTVSPost2010PropOp44
 70
     1
102
RTVSPost2010Prop45
280
     0
102
RTVSPost2010PropOp45
 70
     1
102
RTVSPost2010Prop46
 90
       50
102
RTVSPost2010PropOp46
 70
     1
102
RTVSPost2010Prop47
 90
       50
102
RTVSPost2010PropOp47
 70
     1
102
RTVSPost2010Prop48
 90
       50
102
RTVSPost2010PropOp48
 70
     1
102
RTVSPost2010Prop49
280
     0
102
RTVSPost2010PropOp49
 70
     1
102
RTVSPost2010Prop50
 90
       50
102
RTVSPost2010PropOp50
 70
     1
102
RTVSPost2010Prop51ColorIndex
 90
      256
102
RTVSPost2010Prop51ColorRGB
 90
-16777216
102
RTVSPost2010PropOp51
 70
     0
102
RTVSPost2010Prop52
140
1.0
102
RTVSPost2010PropOp52
 70
     0
102
RTVSPost2010Prop53
 90
        2
102
RTVSPost2010PropOp53
 70
     1
102
RTVSPost2010Prop54
  1
strokes_ogs.tif
102
RTVSPost2010PropOp54
 70
     1
102
RTVSPost2010Prop55
280
     0
102
RTVSPost2010PropOp55
 70
     1
102
RTVSPost2010Prop56
140
1.0
102
RTVSPost2010PropOp56
 70
     1
102
RTVSPost2010Prop57
140
1.0
102
RTVSPost2010PropOp57
 70
     1
102
RTVSPropertyOp0
 70
     1
102
RTVSPropertyOp1
 70
     1
102
RTVSPropertyOp2
 70
     1
102
RTVSPropertyOp3
 70
     1
102
RTVSPropertyOp4
 70
     1
102
RTVSPropertyOp5
 70
     1
102
RTVSPropertyOp6
 70
     1
102
RTVSPropertyOp7
 70
     1
102
RTVSPropertyOp8
 70
     1
102
RTVSPropertyOp9
 70
     1
102
RTVSPropertyOp10
 70
     1
102
RTVSPropertyOp11
 70
     1
102
RTVSPropertyOp12
 70
     1
102
RTVSPropertyOp13
 70
     1
102
RTVSPropertyOp14
 70
     1
102
RTVSPropertyOp15
 70
     1
102
RTVSPropertyOp16
 70
     1
102
RTVSPropertyOp17
 70
     1
102
RTVSPropertyOp18
 70
     1
102
RTVSPropertyOp19
 70
     1
102
RTVSPropertyOp20
 70
     1
102
RTVSPropertyOp21
 70
     1
102
RTVSPropertyOp22
 70
     1
102
RTVSPropertyOp23
 70
     1
102
RTVSPropertyOp24
 70
     1
102
RTVSPropertyOp25
 70
     1
102
RTVSPropertyOp26
 70
     1
102
RTVSPropertyOp27
 70
     1
102
RTVSPropertyOp28
 70
     1
102
RTVSPropertyOp29
 70
     1
102
RTVSPropertyOp30
 70
     1
102
RTVSPropertyOp31
 70
     1
102
RTVSPropertyOp32
 70
     1
102
RTVSPropertyOp33
 70
     1
102
RTVSPropertyOp34
 70
     1
102
RTVSPropertyOp35
 70
     1
102
RTVSPropertyOp36
 70
     1
102
RTVSPropertyOp37
 70
     1
102
RTVSPropertyOp38
 70
     1
102
RTVSPropertyOp39
 70
     1
102
RTVSPropertyOp40
 70
     1
102
RTVSPropertyOp41
 70
     1
102
RTVSPropertyOp42
 70
     1
102
RTVSPropertyOp43
 70
     1
102
RTVSPropertyOp44
 70
     1
102
RTVSPropertyOp45
 70
     1
102
RTVSPropertyOp46
 70
     1
102
RTVSPropertyOp47
 70
     1
102
RTVSPropertyOp48
 70
     1
102
RTVSPropertyOp49
 70
     1
102
RTVSPropertyOp50
 70
     1
102
RTVSPropertyOp51
 70
     0
102
RTVSPropertyOp52
 70
     0
102
RTVSPropertyOp53
 70
     1
102
RTVSPropertyOp54
 70
     1
102
RTVSPropertyOp55
 70
     1
102
RTVSPropertyOp56
 70
     1
102
RTVSPropertyOp57
 70
     1
102
RTVSPropertyOp58
 70
     1
102
RTVSPropertyOp59
 70
     1
102
RTVSPropertyOp60
 70
     1
102
RTVSPropertyOp61
 70
     1
102
RTVSPropertyOp62
 70
     1
  0
XRECORD
  5
52A
102
{ACAD_REACTORS
330
529
102
}
330
529
100
AcDbXrecord
280
     1
102
RTVSPost2010Prop28
280
     0
102
RTVSPost2010PropOp28
 70
     1
102
RTVSPost2010Prop29
280
     1
102
RTVSPost2010PropOp29
 70
     1
102
RTVSPost2010Prop30
280
     1
102
RTVSPost2010PropOp30
 70
     1
102
RTVSPost2010Prop31
280
     0
102
RTVSPost2010PropOp31
 70
     1
102
RTVSPost2010Prop32
280
     0
102
RTVSPost2010PropOp32
 70
     1
102
RTVSPost2010Prop33
280
     0
102
RTVSPost2010PropOp33
 70
     1
102
RTVSPost2010Prop34
280
     0
102
RTVSPost2010PropOp34
 70
     1
102
RTVSPost2010Prop35
280
     0
102
RTVSPost2010PropOp35
 70
     1
102
RTVSPost2010Prop36
280
     0
102
RTVSPost2010PropOp36
 70
     1
102
RTVSPost2010Prop37
 90
       50
102
RTVSPost2010PropOp37
 70
     0
102
RTVSPost2010Prop38
140
0.0
102
RTVSPost2010PropOp38
 70
     0
102
RTVSPost2010Prop39
140
1.0
102
RTVSPost2010PropOp39
 70
     0
102
RTVSPost2010Prop40
 90
        0
102
RTVSPost2010PropOp40
 70
     0
102
RTVSPost2010Prop41ColorIndex
 90
       18
102
RTVSPost2010Prop41ColorRGB
 90
        0
102
RTVSPost2010PropOp41
 70
     0
102
RTVSPost2010Prop42
 90
       50
102
RTVSPost2010PropOp42
 70
     0
102
RTVSPost2010Prop43
 90
        3
102
RTVSPost2010PropOp43
 70
     0
102
RTVSPost2010Prop44ColorIndex
 90
        5
102
RTVSPost2010Prop44ColorRGB
 90
      255
102
RTVSPost2010PropOp44
 70
     0
102
RTVSPost2010Prop45
280
     0
102
RTVSPost2010PropOp45
 70
     1
102
RTVSPost2010Prop46
 90
       50
102
RTVSPost2010PropOp46
 70
     0
102
RTVSPost2010Prop47
 90
       50
102
RTVSPost2010PropOp47
 70
     0
102
RTVSPost2010Prop48
 90
       50
102
RTVSPost2010PropOp48
 70
     0
102
RTVSPost2010Prop49
280
     0
102
RTVSPost2010PropOp49
 70
     1
102
RTVSPost2010Prop50
 90
       50
102
RTVSPost2010PropOp50
 70
     0
102
RTVSPost2010Prop51ColorIndex
 90
      256
102
RTVSPost2010Prop51ColorRGB
 90
-16777216
102
RTVSPost2010PropOp51
 70
     0
102
RTVSPost2010Prop52
140
1.0
102
RTVSPost2010PropOp52
 70
     0
102
RTVSPost2010Prop53
 90
        2
102
RTVSPost2010PropOp53
 70
     0
102
RTVSPost2010Prop54
  1
strokes_ogs.tif
102
RTVSPost2010PropOp54
 70
     0
102
RTVSPost2010Prop55
280
     0
102
RTVSPost2010PropOp55
 70
     1
102
RTVSPost2010Prop56
140
1.0
102
RTVSPost2010PropOp56
 70
     0
102
RTVSPost2010Prop57
140
1.0
102
RTVSPost2010PropOp57
 70
     0
102
RTVSPropertyOp0
 70
     0
102
RTVSPropertyOp1
 70
     0
102
RTVSPropertyOp2
 70
     0
102
RTVSPropertyOp3
 70
     0
102
RTVSPropertyOp4
 70
     0
102
RTVSPropertyOp5
 70
     0
102
RTVSPropertyOp6
 70
     0
102
RTVSPropertyOp7
 70
     0
102
RTVSPropertyOp8
 70
     0
102
RTVSPropertyOp9
 70
     0
102
RTVSPropertyOp10
 70
     0
102
RTVSPropertyOp11
 70
     0
102
RTVSPropertyOp12
 70
     0
102
RTVSPropertyOp13
 70
     0
102
RTVSPropertyOp14
 70
     2
102
RTVSPropertyOp15
 70
     0
102
RTVSPropertyOp16
 70
     0
102
RTVSPropertyOp17
 70
     0
102
RTVSPropertyOp18
 70
     0
102
RTVSPropertyOp19
 70
     0
102
RTVSPropertyOp20
 70
     0
102
RTVSPropertyOp21
 70
     0
102
RTVSPropertyOp22
 70
     0
102
RTVSPropertyOp23
 70
     0
102
RTVSPropertyOp24
 70
     0
102
RTVSPropertyOp25
 70
     0
102
RTVSPropertyOp26
 70
     0
102
RTVSPropertyOp27
 70
     0
102
RTVSPropertyOp28
 70
     1
102
RTVSPropertyOp29
 70
     1
102
RTVSPropertyOp30
 70
     1
102
RTVSPropertyOp31
 70
     1
102
RTVSPropertyOp32
 70
     1
102
RTVSPropertyOp33
 70
     1
102
RTVSPropertyOp34
 70
     1
102
RTVSPropertyOp35
 70
     1
102
RTVSPropertyOp36
 70
     1
102
RTVSPropertyOp37
 70
     0
102
RTVSPropertyOp38
 70
     0
102
RTVSPropertyOp39
 70
     0
102
RTVSPropertyOp40
 70
     0
102
RTVSPropertyOp41
 70
     0
102
RTVSPropertyOp42
 70
     0
102
RTVSPropertyOp43
 70
     0
102
RTVSPropertyOp44
 70
     0
102
RTVSPropertyOp45
 70
     1
102
RTVSPropertyOp46
 70
     0
102
RTVSPropertyOp47
 70
     0
102
RTVSPropertyOp48
 70
     0
102
RTVSPropertyOp49
 70
     1
102
RTVSPropertyOp50
 70
     0
102
RTVSPropertyOp51
 70
     0
102
RTVSPropertyOp52
 70
     0
102
RTVSPropertyOp53
 70
     0
102
RTVSPropertyOp54
 70
     0
102
RTVSPropertyOp55
 70
     1
102
RTVSPropertyOp56
 70
     0
102
RTVSPropertyOp57
 70
     0
102
RTVSPropertyOp58
 70
     0
102
RTVSPropertyOp59
 70
     0
102
RTVSPropertyOp60
 70
     0
102
RTVSPropertyOp61
 70
     0
102
RTVSPropertyOp62
 70
     0
  0
XRECORD
  5
51A
102
{ACAD_REACTORS
330
519
102
}
330
519
100
AcDbXrecord
280
     1
102
RTVSPost2010Prop28
280
     0
102
RTVSPost2010PropOp28
 70
     1
102
RTVSPost2010Prop29
280
     1
102
RTVSPost2010PropOp29
 70
     1
102
RTVSPost2010Prop30
280
     1
102
RTVSPost2010PropOp30
 70
     1
102
RTVSPost2010Prop31
280
     0
102
RTVSPost2010PropOp31
 70
     1
102
RTVSPost2010Prop32
280
     0
102
RTVSPost2010PropOp32
 70
     1
102
RTVSPost2010Prop33
280
     0
102
RTVSPost2010PropOp33
 70
     1
102
RTVSPost2010Prop34
280
     0
102
RTVSPost2010PropOp34
 70
     1
102
RTVSPost2010Prop35
280
     0
102
RTVSPost2010PropOp35
 70
     1
102
RTVSPost2010Prop36
280
     0
102
RTVSPost2010PropOp36
 70
     1
102
RTVSPost2010Prop37
 90
       50
102
RTVSPost2010PropOp37
 70
     1
102
RTVSPost2010Prop38
140
0.0
102
RTVSPost2010PropOp38
 70
     1
102
RTVSPost2010Prop39
140
1.0
102
RTVSPost2010PropOp39
 70
     1
102
RTVSPost2010Prop40
 90
        0
102
RTVSPost2010PropOp40
 70
     1
102
RTVSPost2010Prop41ColorIndex
 90
       18
102
RTVSPost2010Prop41ColorRGB
 90
        0
102
RTVSPost2010PropOp41
 70
     1
102
RTVSPost2010Prop42
 90
       50
102
RTVSPost2010PropOp42
 70
     1
102
RTVSPost2010Prop43
 90
        3
102
RTVSPost2010PropOp43
 70
     1
102
RTVSPost2010Prop44ColorIndex
 90
        5
102
RTVSPost2010Prop44ColorRGB
 90
      255
102
RTVSPost2010PropOp44
 70
     1
102
RTVSPost2010Prop45
280
     0
102
RTVSPost2010PropOp45
 70
     1
102
RTVSPost2010Prop46
 90
       50
102
RTVSPost2010PropOp46
 70
     1
102
RTVSPost2010Prop47
 90
       50
102
RTVSPost2010PropOp47
 70
     1
102
RTVSPost2010Prop48
 90
       50
102
RTVSPost2010PropOp48
 70
     1
102
RTVSPost2010Prop49
280
     0
102
RTVSPost2010PropOp49
 70
     1
102
RTVSPost2010Prop50
 90
       50
102
RTVSPost2010PropOp50
 70
     1
102
RTVSPost2010Prop51ColorIndex
 90
      256
102
RTVSPost2010Prop51ColorRGB
 90
-16777216
102
RTVSPost2010PropOp51
 70
     0
102
RTVSPost2010Prop52
140
1.0
102
RTVSPost2010PropOp52
 70
     0
102
RTVSPost2010Prop53
 90
        2
102
RTVSPost2010PropOp53
 70
     1
102
RTVSPost2010Prop54
  1
strokes_ogs.tif
102
RTVSPost2010PropOp54
 70
     1
102
RTVSPost2010Prop55
280
     0
102
RTVSPost2010PropOp55
 70
     1
102
RTVSPost2010Prop56
140
1.0
102
RTVSPost2010PropOp56
 70
     1
102
RTVSPost2010Prop57
140
1.0
102
RTVSPost2010PropOp57
 70
     1
102
RTVSPropertyOp0
 70
     1
102
RTVSPropertyOp1
 70
     1
102
RTVSPropertyOp2
 70
     1
102
RTVSPropertyOp3
 70
     1
102
RTVSPropertyOp4
 70
     1
102
RTVSPropertyOp5
 70
     1
102
RTVSPropertyOp6
 70
     1
102
RTVSPropertyOp7
 70
     1
102
RTVSPropertyOp8
 70
     1
102
RTVSPropertyOp9
 70
     1
102
RTVSPropertyOp10
 70
     1
102
RTVSPropertyOp11
 70
     1
102
RTVSPropertyOp12
 70
     1
102
RTVSPropertyOp13
 70
     1
102
RTVSPropertyOp14
 70
     1
102
RTVSPropertyOp15
 70
     1
102
RTVSPropertyOp16
 70
     1
102
RTVSPropertyOp17
 70
     1
102
RTVSPropertyOp18
 70
     1
102
RTVSPropertyOp19
 70
     1
102
RTVSPropertyOp20
 70
     1
102
RTVSPropertyOp21
 70
     1
102
RTVSPropertyOp22
 70
     1
102
RTVSPropertyOp23
 70
     1
102
RTVSPropertyOp24
 70
     1
102
RTVSPropertyOp25
 70
     1
102
RTVSPropertyOp26
 70
     1
102
RTVSPropertyOp27
 70
     1
102
RTVSPropertyOp28
 70
     1
102
RTVSPropertyOp29
 70
     1
102
RTVSPropertyOp30
 70
     1
102
RTVSPropertyOp31
 70
     1
102
RTVSPropertyOp32
 70
     1
102
RTVSPropertyOp33
 70
     1
102
RTVSPropertyOp34
 70
     1
102
RTVSPropertyOp35
 70
     1
102
RTVSPropertyOp36
 70
     1
102
RTVSPropertyOp37
 70
     1
102
RTVSPropertyOp38
 70
     1
102
RTVSPropertyOp39
 70
     1
102
RTVSPropertyOp40
 70
     1
102
RTVSPropertyOp41
 70
     1
102
RTVSPropertyOp42
 70
     1
102
RTVSPropertyOp43
 70
     1
102
RTVSPropertyOp44
 70
     1
102
RTVSPropertyOp45
 70
     1
102
RTVSPropertyOp46
 70
     1
102
RTVSPropertyOp47
 70
     1
102
RTVSPropertyOp48
 70
     1
102
RTVSPropertyOp49
 70
     1
102
RTVSPropertyOp50
 70
     1
102
RTVSPropertyOp51
 70
     0
102
RTVSPropertyOp52
 70
     0
102
RTVSPropertyOp53
 70
     1
102
RTVSPropertyOp54
 70
     1
102
RTVSPropertyOp55
 70
     1
102
RTVSPropertyOp56
 70
     1
102
RTVSPropertyOp57
 70
     1
102
RTVSPropertyOp58
 70
     1
102
RTVSPropertyOp59
 70
     1
102
RTVSPropertyOp60
 70
     1
102
RTVSPropertyOp61
 70
     1
102
RTVSPropertyOp62
 70
     1
  0
XRECORD
  5
52C
102
{ACAD_REACTORS
330
52B
102
}
330
52B
100
AcDbXrecord
280
     1
102
RTVSPost2010Prop28
280
     0
102
RTVSPost2010PropOp28
 70
     1
102
RTVSPost2010Prop29
280
     1
102
RTVSPost2010PropOp29
 70
     1
102
RTVSPost2010Prop30
280
     1
102
RTVSPost2010PropOp30
 70
     1
102
RTVSPost2010Prop31
280
     0
102
RTVSPost2010PropOp31
 70
     1
102
RTVSPost2010Prop32
280
     0
102
RTVSPost2010PropOp32
 70
     1
102
RTVSPost2010Prop33
280
     0
102
RTVSPost2010PropOp33
 70
     1
102
RTVSPost2010Prop34
280
     0
102
RTVSPost2010PropOp34
 70
     1
102
RTVSPost2010Prop35
280
     0
102
RTVSPost2010PropOp35
 70
     1
102
RTVSPost2010Prop36
280
     0
102
RTVSPost2010PropOp36
 70
     1
102
RTVSPost2010Prop37
 90
       50
102
RTVSPost2010PropOp37
 70
     0
102
RTVSPost2010Prop38
140
0.0
102
RTVSPost2010PropOp38
 70
     0
102
RTVSPost2010Prop39
140
1.0
102
RTVSPost2010PropOp39
 70
     0
102
RTVSPost2010Prop40
 90
        0
102
RTVSPost2010PropOp40
 70
     0
102
RTVSPost2010Prop41ColorIndex
 90
       18
102
RTVSPost2010Prop41ColorRGB
 90
        0
102
RTVSPost2010PropOp41
 70
     0
102
RTVSPost2010Prop42
 90
       50
102
RTVSPost2010PropOp42
 70
     0
102
RTVSPost2010Prop43
 90
        3
102
RTVSPost2010PropOp43
 70
     0
102
RTVSPost2010Prop44ColorIndex
 90
        5
102
RTVSPost2010Prop44ColorRGB
 90
      255
102
RTVSPost2010PropOp44
 70
     0
102
RTVSPost2010Prop45
280
     0
102
RTVSPost2010PropOp45
 70
     1
102
RTVSPost2010Prop46
 90
       50
102
RTVSPost2010PropOp46
 70
     0
102
RTVSPost2010Prop47
 90
       50
102
RTVSPost2010PropOp47
 70
     0
102
RTVSPost2010Prop48
 90
       50
102
RTVSPost2010PropOp48
 70
     0
102
RTVSPost2010Prop49
280
     0
102
RTVSPost2010PropOp49
 70
     1
102
RTVSPost2010Prop50
 90
       50
102
RTVSPost2010PropOp50
 70
     0
102
RTVSPost2010Prop51ColorIndex
 90
      256
102
RTVSPost2010Prop51ColorRGB
 90
-16777216
102
RTVSPost2010PropOp51
 70
     0
102
RTVSPost2010Prop52
140
1.0
102
RTVSPost2010PropOp52
 70
     0
102
RTVSPost2010Prop53
 90
        2
102
RTVSPost2010PropOp53
 70
     0
102
RTVSPost2010Prop54
  1
strokes_ogs.tif
102
RTVSPost2010PropOp54
 70
     0
102
RTVSPost2010Prop55
280
     0
102
RTVSPost2010PropOp55
 70
     1
102
RTVSPost2010Prop56
140
1.0
102
RTVSPost2010PropOp56
 70
     0
102
RTVSPost2010Prop57
140
1.0
102
RTVSPost2010PropOp57
 70
     0
102
RTVSPropertyOp0
 70
     0
102
RTVSPropertyOp1
 70
     0
102
RTVSPropertyOp2
 70
     0
102
RTVSPropertyOp3
 70
     0
102
RTVSPropertyOp4
 70
     0
102
RTVSPropertyOp5
 70
     0
102
RTVSPropertyOp6
 70
     0
102
RTVSPropertyOp7
 70
     0
102
RTVSPropertyOp8
 70
     0
102
RTVSPropertyOp9
 70
     0
102
RTVSPropertyOp10
 70
     0
102
RTVSPropertyOp11
 70
     0
102
RTVSPropertyOp12
 70
     0
102
RTVSPropertyOp13
 70
     0
102
RTVSPropertyOp14
 70
     2
102
RTVSPropertyOp15
 70
     0
102
RTVSPropertyOp16
 70
     0
102
RTVSPropertyOp17
 70
     0
102
RTVSPropertyOp18
 70
     0
102
RTVSPropertyOp19
 70
     0
102
RTVSPropertyOp20
 70
     0
102
RTVSPropertyOp21
 70
     0
102
RTVSPropertyOp22
 70
     0
102
RTVSPropertyOp23
 70
     0
102
RTVSPropertyOp24
 70
     0
102
RTVSPropertyOp25
 70
     0
102
RTVSPropertyOp26
 70
     0
102
RTVSPropertyOp27
 70
     0
102
RTVSPropertyOp28
 70
     1
102
RTVSPropertyOp29
 70
     1
102
RTVSPropertyOp30
 70
     1
102
RTVSPropertyOp31
 70
     1
102
RTVSPropertyOp32
 70
     1
102
RTVSPropertyOp33
 70
     1
102
RTVSPropertyOp34
 70
     1
102
RTVSPropertyOp35
 70
     1
102
RTVSPropertyOp36
 70
     1
102
RTVSPropertyOp37
 70
     0
102
RTVSPropertyOp38
 70
     0
102
RTVSPropertyOp39
 70
     0
102
RTVSPropertyOp40
 70
     0
102
RTVSPropertyOp41
 70
     0
102
RTVSPropertyOp42
 70
     0
102
RTVSPropertyOp43
 70
     0
102
RTVSPropertyOp44
 70
     0
102
RTVSPropertyOp45
 70
     1
102
RTVSPropertyOp46
 70
     0
102
RTVSPropertyOp47
 70
     0
102
RTVSPropertyOp48
 70
     0
102
RTVSPropertyOp49
 70
     1
102
RTVSPropertyOp50
 70
     0
102
RTVSPropertyOp51
 70
     0
102
RTVSPropertyOp52
 70
     0
102
RTVSPropertyOp53
 70
     0
102
RTVSPropertyOp54
 70
     0
102
RTVSPropertyOp55
 70
     1
102
RTVSPropertyOp56
 70
     0
102
RTVSPropertyOp57
 70
     0
102
RTVSPropertyOp58
 70
     0
102
RTVSPropertyOp59
 70
     0
102
RTVSPropertyOp60
 70
     0
102
RTVSPropertyOp61
 70
     0
102
RTVSPropertyOp62
 70
     0
  0
XRECORD
  5
512
102
{ACAD_REACTORS
330
511
102
}
330
511
100
AcDbXrecord
280
     1
102
RTVSPost2010Prop28
280
     0
102
RTVSPost2010PropOp28
 70
     1
102
RTVSPost2010Prop29
280
     1
102
RTVSPost2010PropOp29
 70
     1
102
RTVSPost2010Prop30
280
     1
102
RTVSPost2010PropOp30
 70
     1
102
RTVSPost2010Prop31
280
     0
102
RTVSPost2010PropOp31
 70
     1
102
RTVSPost2010Prop32
280
     0
102
RTVSPost2010PropOp32
 70
     1
102
RTVSPost2010Prop33
280
     0
102
RTVSPost2010PropOp33
 70
     1
102
RTVSPost2010Prop34
280
     0
102
RTVSPost2010PropOp34
 70
     1
102
RTVSPost2010Prop35
280
     0
102
RTVSPost2010PropOp35
 70
     1
102
RTVSPost2010Prop36
280
     0
102
RTVSPost2010PropOp36
 70
     1
102
RTVSPost2010Prop37
 90
       50
102
RTVSPost2010PropOp37
 70
     1
102
RTVSPost2010Prop38
140
0.0
102
RTVSPost2010PropOp38
 70
     1
102
RTVSPost2010Prop39
140
1.0
102
RTVSPost2010PropOp39
 70
     1
102
RTVSPost2010Prop40
 90
        0
102
RTVSPost2010PropOp40
 70
     1
102
RTVSPost2010Prop41ColorIndex
 90
       18
102
RTVSPost2010Prop41ColorRGB
 90
        0
102
RTVSPost2010PropOp41
 70
     1
102
RTVSPost2010Prop42
 90
       50
102
RTVSPost2010PropOp42
 70
     1
102
RTVSPost2010Prop43
 90
        3
102
RTVSPost2010PropOp43
 70
     1
102
RTVSPost2010Prop44ColorIndex
 90
        5
102
RTVSPost2010Prop44ColorRGB
 90
      255
102
RTVSPost2010PropOp44
 70
     1
102
RTVSPost2010Prop45
280
     0
102
RTVSPost2010PropOp45
 70
     1
102
RTVSPost2010Prop46
 90
       50
102
RTVSPost2010PropOp46
 70
     1
102
RTVSPost2010Prop47
 90
       50
102
RTVSPost2010PropOp47
 70
     1
102
RTVSPost2010Prop48
 90
       50
102
RTVSPost2010PropOp48
 70
     1
102
RTVSPost2010Prop49
280
     0
102
RTVSPost2010PropOp49
 70
     1
102
RTVSPost2010Prop50
 90
       50
102
RTVSPost2010PropOp50
 70
     1
102
RTVSPost2010Prop51ColorIndex
 90
      256
102
RTVSPost2010Prop51ColorRGB
 90
-16777216
102
RTVSPost2010PropOp51
 70
     0
102
RTVSPost2010Prop52
140
1.0
102
RTVSPost2010PropOp52
 70
     0
102
RTVSPost2010Prop53
 90
        2
102
RTVSPost2010PropOp53
 70
     1
102
RTVSPost2010Prop54
  1
strokes_ogs.tif
102
RTVSPost2010PropOp54
 70
     1
102
RTVSPost2010Prop55
280
     0
102
RTVSPost2010PropOp55
 70
     1
102
RTVSPost2010Prop56
140
1.0
102
RTVSPost2010PropOp56
 70
     1
102
RTVSPost2010Prop57
140
1.0
102
RTVSPost2010PropOp57
 70
     1
102
RTVSPropertyOp0
 70
     1
102
RTVSPropertyOp1
 70
     1
102
RTVSPropertyOp2
 70
     1
102
RTVSPropertyOp3
 70
     1
102
RTVSPropertyOp4
 70
     1
102
RTVSPropertyOp5
 70
     1
102
RTVSPropertyOp6
 70
     1
102
RTVSPropertyOp7
 70
     1
102
RTVSPropertyOp8
 70
     1
102
RTVSPropertyOp9
 70
     1
102
RTVSPropertyOp10
 70
     1
102
RTVSPropertyOp11
 70
     1
102
RTVSPropertyOp12
 70
     1
102
RTVSPropertyOp13
 70
     1
102
RTVSPropertyOp14
 70
     1
102
RTVSPropertyOp15
 70
     1
102
RTVSPropertyOp16
 70
     1
102
RTVSPropertyOp17
 70
     1
102
RTVSPropertyOp18
 70
     1
102
RTVSPropertyOp19
 70
     1
102
RTVSPropertyOp20
 70
     1
102
RTVSPropertyOp21
 70
     1
102
RTVSPropertyOp22
 70
     1
102
RTVSPropertyOp23
 70
     1
102
RTVSPropertyOp24
 70
     1
102
RTVSPropertyOp25
 70
     1
102
RTVSPropertyOp26
 70
     1
102
RTVSPropertyOp27
 70
     1
102
RTVSPropertyOp28
 70
     1
102
RTVSPropertyOp29
 70
     1
102
RTVSPropertyOp30
 70
     1
102
RTVSPropertyOp31
 70
     1
102
RTVSPropertyOp32
 70
     1
102
RTVSPropertyOp33
 70
     1
102
RTVSPropertyOp34
 70
     1
102
RTVSPropertyOp35
 70
     1
102
RTVSPropertyOp36
 70
     1
102
RTVSPropertyOp37
 70
     1
102
RTVSPropertyOp38
 70
     1
102
RTVSPropertyOp39
 70
     1
102
RTVSPropertyOp40
 70
     1
102
RTVSPropertyOp41
 70
     1
102
RTVSPropertyOp42
 70
     1
102
RTVSPropertyOp43
 70
     1
102
RTVSPropertyOp44
 70
     1
102
RTVSPropertyOp45
 70
     1
102
RTVSPropertyOp46
 70
     1
102
RTVSPropertyOp47
 70
     1
102
RTVSPropertyOp48
 70
     1
102
RTVSPropertyOp49
 70
     1
102
RTVSPropertyOp50
 70
     1
102
RTVSPropertyOp51
 70
     0
102
RTVSPropertyOp52
 70
     0
102
RTVSPropertyOp53
 70
     1
102
RTVSPropertyOp54
 70
     1
102
RTVSPropertyOp55
 70
     1
102
RTVSPropertyOp56
 70
     1
102
RTVSPropertyOp57
 70
     1
102
RTVSPropertyOp58
 70
     1
102
RTVSPropertyOp59
 70
     1
102
RTVSPropertyOp60
 70
     1
102
RTVSPropertyOp61
 70
     1
102
RTVSPropertyOp62
 70
     1
  0
XRECORD
  5
528
102
{ACAD_REACTORS
330
527
102
}
330
527
100
AcDbXrecord
280
     1
102
RTVSPost2010Prop28
280
     0
102
RTVSPost2010PropOp28
 70
     1
102
RTVSPost2010Prop29
280
     1
102
RTVSPost2010PropOp29
 70
     1
102
RTVSPost2010Prop30
280
     1
102
RTVSPost2010PropOp30
 70
     1
102
RTVSPost2010Prop31
280
     0
102
RTVSPost2010PropOp31
 70
     1
102
RTVSPost2010Prop32
280
     0
102
RTVSPost2010PropOp32
 70
     1
102
RTVSPost2010Prop33
280
     0
102
RTVSPost2010PropOp33
 70
     1
102
RTVSPost2010Prop34
280
     0
102
RTVSPost2010PropOp34
 70
     1
102
RTVSPost2010Prop35
280
     0
102
RTVSPost2010PropOp35
 70
     1
102
RTVSPost2010Prop36
280
     0
102
RTVSPost2010PropOp36
 70
     1
102
RTVSPost2010Prop37
 90
       50
102
RTVSPost2010PropOp37
 70
     1
102
RTVSPost2010Prop38
140
0.0
102
RTVSPost2010PropOp38
 70
     1
102
RTVSPost2010Prop39
140
1.0
102
RTVSPost2010PropOp39
 70
     1
102
RTVSPost2010Prop40
 90
        0
102
RTVSPost2010PropOp40
 70
     1
102
RTVSPost2010Prop41ColorIndex
 90
       18
102
RTVSPost2010Prop41ColorRGB
 90
        0
102
RTVSPost2010PropOp41
 70
     1
102
RTVSPost2010Prop42
 90
       50
102
RTVSPost2010PropOp42
 70
     1
102
RTVSPost2010Prop43
 90
        3
102
RTVSPost2010PropOp43
 70
     1
102
RTVSPost2010Prop44ColorIndex
 90
        5
102
RTVSPost2010Prop44ColorRGB
 90
      255
102
RTVSPost2010PropOp44
 70
     1
102
RTVSPost2010Prop45
280
     0
102
RTVSPost2010PropOp45
 70
     1
102
RTVSPost2010Prop46
 90
       50
102
RTVSPost2010PropOp46
 70
     1
102
RTVSPost2010Prop47
 90
       50
102
RTVSPost2010PropOp47
 70
     1
102
RTVSPost2010Prop48
 90
       50
102
RTVSPost2010PropOp48
 70
     1
102
RTVSPost2010Prop49
280
     0
102
RTVSPost2010PropOp49
 70
     1
102
RTVSPost2010Prop50
 90
       50
102
RTVSPost2010PropOp50
 70
     1
102
RTVSPost2010Prop51ColorIndex
 90
      256
102
RTVSPost2010Prop51ColorRGB
 90
-16777216
102
RTVSPost2010PropOp51
 70
     0
102
RTVSPost2010Prop52
140
1.0
102
RTVSPost2010PropOp52
 70
     0
102
RTVSPost2010Prop53
 90
        2
102
RTVSPost2010PropOp53
 70
     1
102
RTVSPost2010Prop54
  1
strokes_ogs.tif
102
RTVSPost2010PropOp54
 70
     1
102
RTVSPost2010Prop55
280
     0
102
RTVSPost2010PropOp55
 70
     1
102
RTVSPost2010Prop56
140
1.0
102
RTVSPost2010PropOp56
 70
     1
102
RTVSPost2010Prop57
140
1.0
102
RTVSPost2010PropOp57
 70
     1
102
RTVSPropertyOp0
 70
     1
102
RTVSPropertyOp1
 70
     1
102
RTVSPropertyOp2
 70
     1
102
RTVSPropertyOp3
 70
     1
102
RTVSPropertyOp4
 70
     1
102
RTVSPropertyOp5
 70
     1
102
RTVSPropertyOp6
 70
     1
102
RTVSPropertyOp7
 70
     1
102
RTVSPropertyOp8
 70
     1
102
RTVSPropertyOp9
 70
     1
102
RTVSPropertyOp10
 70
     1
102
RTVSPropertyOp11
 70
     1
102
RTVSPropertyOp12
 70
     1
102
RTVSPropertyOp13
 70
     1
102
RTVSPropertyOp14
 70
     1
102
RTVSPropertyOp15
 70
     1
102
RTVSPropertyOp16
 70
     1
102
RTVSPropertyOp17
 70
     1
102
RTVSPropertyOp18
 70
     1
102
RTVSPropertyOp19
 70
     1
102
RTVSPropertyOp20
 70
     1
102
RTVSPropertyOp21
 70
     1
102
RTVSPropertyOp22
 70
     1
102
RTVSPropertyOp23
 70
     1
102
RTVSPropertyOp24
 70
     1
102
RTVSPropertyOp25
 70
     1
102
RTVSPropertyOp26
 70
     1
102
RTVSPropertyOp27
 70
     1
102
RTVSPropertyOp28
 70
     1
102
RTVSPropertyOp29
 70
     1
102
RTVSPropertyOp30
 70
     1
102
RTVSPropertyOp31
 70
     1
102
RTVSPropertyOp32
 70
     1
102
RTVSPropertyOp33
 70
     1
102
RTVSPropertyOp34
 70
     1
102
RTVSPropertyOp35
 70
     1
102
RTVSPropertyOp36
 70
     1
102
RTVSPropertyOp37
 70
     1
102
RTVSPropertyOp38
 70
     1
102
RTVSPropertyOp39
 70
     1
102
RTVSPropertyOp40
 70
     1
102
RTVSPropertyOp41
 70
     1
102
RTVSPropertyOp42
 70
     1
102
RTVSPropertyOp43
 70
     1
102
RTVSPropertyOp44
 70
     1
102
RTVSPropertyOp45
 70
     1
102
RTVSPropertyOp46
 70
     1
102
RTVSPropertyOp47
 70
     1
102
RTVSPropertyOp48
 70
     1
102
RTVSPropertyOp49
 70
     1
102
RTVSPropertyOp50
 70
     1
102
RTVSPropertyOp51
 70
     0
102
RTVSPropertyOp52
 70
     0
102
RTVSPropertyOp53
 70
     1
102
RTVSPropertyOp54
 70
     1
102
RTVSPropertyOp55
 70
     1
102
RTVSPropertyOp56
 70
     1
102
RTVSPropertyOp57
 70
     1
102
RTVSPropertyOp58
 70
     1
102
RTVSPropertyOp59
 70
     1
102
RTVSPropertyOp60
 70
     1
102
RTVSPropertyOp61
 70
     1
102
RTVSPropertyOp62
 70
     1
  0
XRECORD
  5
526
102
{ACAD_REACTORS
330
525
102
}
330
525
100
AcDbXrecord
280
     1
102
RTVSPost2010Prop28
280
     0
102
RTVSPost2010PropOp28
 70
     1
102
RTVSPost2010Prop29
280
     1
102
RTVSPost2010PropOp29
 70
     1
102
RTVSPost2010Prop30
280
     1
102
RTVSPost2010PropOp30
 70
     1
102
RTVSPost2010Prop31
280
     0
102
RTVSPost2010PropOp31
 70
     1
102
RTVSPost2010Prop32
280
     0
102
RTVSPost2010PropOp32
 70
     1
102
RTVSPost2010Prop33
280
     0
102
RTVSPost2010PropOp33
 70
     1
102
RTVSPost2010Prop34
280
     0
102
RTVSPost2010PropOp34
 70
     1
102
RTVSPost2010Prop35
280
     0
102
RTVSPost2010PropOp35
 70
     1
102
RTVSPost2010Prop36
280
     0
102
RTVSPost2010PropOp36
 70
     1
102
RTVSPost2010Prop37
 90
       50
102
RTVSPost2010PropOp37
 70
     1
102
RTVSPost2010Prop38
140
0.0
102
RTVSPost2010PropOp38
 70
     1
102
RTVSPost2010Prop39
140
1.0
102
RTVSPost2010PropOp39
 70
     1
102
RTVSPost2010Prop40
 90
        0
102
RTVSPost2010PropOp40
 70
     1
102
RTVSPost2010Prop41ColorIndex
 90
       18
102
RTVSPost2010Prop41ColorRGB
 90
        0
102
RTVSPost2010PropOp41
 70
     1
102
RTVSPost2010Prop42
 90
       50
102
RTVSPost2010PropOp42
 70
     1
102
RTVSPost2010Prop43
 90
        3
102
RTVSPost2010PropOp43
 70
     1
102
RTVSPost2010Prop44ColorIndex
 90
        5
102
RTVSPost2010Prop44ColorRGB
 90
      255
102
RTVSPost2010PropOp44
 70
     1
102
RTVSPost2010Prop45
280
     0
102
RTVSPost2010PropOp45
 70
     1
102
RTVSPost2010Prop46
 90
       50
102
RTVSPost2010PropOp46
 70
     1
102
RTVSPost2010Prop47
 90
       50
102
RTVSPost2010PropOp47
 70
     1
102
RTVSPost2010Prop48
 90
       50
102
RTVSPost2010PropOp48
 70
     1
102
RTVSPost2010Prop49
280
     0
102
RTVSPost2010PropOp49
 70
     1
102
RTVSPost2010Prop50
 90
       50
102
RTVSPost2010PropOp50
 70
     1
102
RTVSPost2010Prop51ColorIndex
 90
      256
102
RTVSPost2010Prop51ColorRGB
 90
-16777216
102
RTVSPost2010PropOp51
 70
     0
102
RTVSPost2010Prop52
140
1.0
102
RTVSPost2010PropOp52
 70
     0
102
RTVSPost2010Prop53
 90
        2
102
RTVSPost2010PropOp53
 70
     1
102
RTVSPost2010Prop54
  1
strokes_ogs.tif
102
RTVSPost2010PropOp54
 70
     1
102
RTVSPost2010Prop55
280
     0
102
RTVSPost2010PropOp55
 70
     1
102
RTVSPost2010Prop56
140
1.0
102
RTVSPost2010PropOp56
 70
     1
102
RTVSPost2010Prop57
140
1.0
102
RTVSPost2010PropOp57
 70
     1
102
RTVSPropertyOp0
 70
     1
102
RTVSPropertyOp1
 70
     1
102
RTVSPropertyOp2
 70
     1
102
RTVSPropertyOp3
 70
     1
102
RTVSPropertyOp4
 70
     1
102
RTVSPropertyOp5
 70
     1
102
RTVSPropertyOp6
 70
     1
102
RTVSPropertyOp7
 70
     1
102
RTVSPropertyOp8
 70
     1
102
RTVSPropertyOp9
 70
     1
102
RTVSPropertyOp10
 70
     1
102
RTVSPropertyOp11
 70
     1
102
RTVSPropertyOp12
 70
     1
102
RTVSPropertyOp13
 70
     1
102
RTVSPropertyOp14
 70
     1
102
RTVSPropertyOp15
 70
     1
102
RTVSPropertyOp16
 70
     1
102
RTVSPropertyOp17
 70
     1
102
RTVSPropertyOp18
 70
     1
102
RTVSPropertyOp19
 70
     1
102
RTVSPropertyOp20
 70
     1
102
RTVSPropertyOp21
 70
     1
102
RTVSPropertyOp22
 70
     1
102
RTVSPropertyOp23
 70
     1
102
RTVSPropertyOp24
 70
     1
102
RTVSPropertyOp25
 70
     1
102
RTVSPropertyOp26
 70
     1
102
RTVSPropertyOp27
 70
     1
102
RTVSPropertyOp28
 70
     1
102
RTVSPropertyOp29
 70
     1
102
RTVSPropertyOp30
 70
     1
102
RTVSPropertyOp31
 70
     1
102
RTVSPropertyOp32
 70
     1
102
RTVSPropertyOp33
 70
     1
102
RTVSPropertyOp34
 70
     1
102
RTVSPropertyOp35
 70
     1
102
RTVSPropertyOp36
 70
     1
102
RTVSPropertyOp37
 70
     1
102
RTVSPropertyOp38
 70
     1
102
RTVSPropertyOp39
 70
     1
102
RTVSPropertyOp40
 70
     1
102
RTVSPropertyOp41
 70
     1
102
RTVSPropertyOp42
 70
     1
102
RTVSPropertyOp43
 70
     1
102
RTVSPropertyOp44
 70
     1
102
RTVSPropertyOp45
 70
     1
102
RTVSPropertyOp46
 70
     1
102
RTVSPropertyOp47
 70
     1
102
RTVSPropertyOp48
 70
     1
102
RTVSPropertyOp49
 70
     1
102
RTVSPropertyOp50
 70
     1
102
RTVSPropertyOp51
 70
     0
102
RTVSPropertyOp52
 70
     0
102
RTVSPropertyOp53
 70
     1
102
RTVSPropertyOp54
 70
     1
102
RTVSPropertyOp55
 70
     1
102
RTVSPropertyOp56
 70
     1
102
RTVSPropertyOp57
 70
     1
102
RTVSPropertyOp58
 70
     1
102
RTVSPropertyOp59
 70
     1
102
RTVSPropertyOp60
 70
     1
102
RTVSPropertyOp61
 70
     1
102
RTVSPropertyOp62
 70
     1
  0
XRECORD
  5
520
102
{ACAD_REACTORS
330
51F
102
}
330
51F
100
AcDbXrecord
280
     1
102
RTVSPost2010Prop28
280
     0
102
RTVSPost2010PropOp28
 70
     1
102
RTVSPost2010Prop29
280
     1
102
RTVSPost2010PropOp29
 70
     1
102
RTVSPost2010Prop30
280
     1
102
RTVSPost2010PropOp30
 70
     1
102
RTVSPost2010Prop31
280
     0
102
RTVSPost2010PropOp31
 70
     1
102
RTVSPost2010Prop32
280
     0
102
RTVSPost2010PropOp32
 70
     1
102
RTVSPost2010Prop33
280
     0
102
RTVSPost2010PropOp33
 70
     1
102
RTVSPost2010Prop34
280
     0
102
RTVSPost2010PropOp34
 70
     1
102
RTVSPost2010Prop35
280
     0
102
RTVSPost2010PropOp35
 70
     1
102
RTVSPost2010Prop36
280
     0
102
RTVSPost2010PropOp36
 70
     1
102
RTVSPost2010Prop37
 90
       50
102
RTVSPost2010PropOp37
 70
     1
102
RTVSPost2010Prop38
140
0.0
102
RTVSPost2010PropOp38
 70
     1
102
RTVSPost2010Prop39
140
1.0
102
RTVSPost2010PropOp39
 70
     1
102
RTVSPost2010Prop40
 90
        0
102
RTVSPost2010PropOp40
 70
     1
102
RTVSPost2010Prop41ColorIndex
 90
       18
102
RTVSPost2010Prop41ColorRGB
 90
        0
102
RTVSPost2010PropOp41
 70
     1
102
RTVSPost2010Prop42
 90
       50
102
RTVSPost2010PropOp42
 70
     1
102
RTVSPost2010Prop43
 90
        3
102
RTVSPost2010PropOp43
 70
     1
102
RTVSPost2010Prop44ColorIndex
 90
        5
102
RTVSPost2010Prop44ColorRGB
 90
      255
102
RTVSPost2010PropOp44
 70
     1
102
RTVSPost2010Prop45
280
     0
102
RTVSPost2010PropOp45
 70
     1
102
RTVSPost2010Prop46
 90
       50
102
RTVSPost2010PropOp46
 70
     1
102
RTVSPost2010Prop47
 90
       50
102
RTVSPost2010PropOp47
 70
     1
102
RTVSPost2010Prop48
 90
       50
102
RTVSPost2010PropOp48
 70
     1
102
RTVSPost2010Prop49
280
     0
102
RTVSPost2010PropOp49
 70
     1
102
RTVSPost2010Prop50
 90
       50
102
RTVSPost2010PropOp50
 70
     1
102
RTVSPost2010Prop51ColorIndex
 90
      256
102
RTVSPost2010Prop51ColorRGB
 90
-16777216
102
RTVSPost2010PropOp51
 70
     0
102
RTVSPost2010Prop52
140
1.0
102
RTVSPost2010PropOp52
 70
     0
102
RTVSPost2010Prop53
 90
        2
102
RTVSPost2010PropOp53
 70
     1
102
RTVSPost2010Prop54
  1
strokes_ogs.tif
102
RTVSPost2010PropOp54
 70
     1
102
RTVSPost2010Prop55
280
     0
102
RTVSPost2010PropOp55
 70
     1
102
RTVSPost2010Prop56
140
1.0
102
RTVSPost2010PropOp56
 70
     1
102
RTVSPost2010Prop57
140
1.0
102
RTVSPost2010PropOp57
 70
     1
102
RTVSPropertyOp0
 70
     1
102
RTVSPropertyOp1
 70
     1
102
RTVSPropertyOp2
 70
     1
102
RTVSPropertyOp3
 70
     1
102
RTVSPropertyOp4
 70
     1
102
RTVSPropertyOp5
 70
     1
102
RTVSPropertyOp6
 70
     1
102
RTVSPropertyOp7
 70
     1
102
RTVSPropertyOp8
 70
     1
102
RTVSPropertyOp9
 70
     1
102
RTVSPropertyOp10
 70
     1
102
RTVSPropertyOp11
 70
     1
102
RTVSPropertyOp12
 70
     1
102
RTVSPropertyOp13
 70
     1
102
RTVSPropertyOp14
 70
     1
102
RTVSPropertyOp15
 70
     1
102
RTVSPropertyOp16
 70
     1
102
RTVSPropertyOp17
 70
     1
102
RTVSPropertyOp18
 70
     1
102
RTVSPropertyOp19
 70
     1
102
RTVSPropertyOp20
 70
     1
102
RTVSPropertyOp21
 70
     1
102
RTVSPropertyOp22
 70
     1
102
RTVSPropertyOp23
 70
     1
102
RTVSPropertyOp24
 70
     1
102
RTVSPropertyOp25
 70
     1
102
RTVSPropertyOp26
 70
     1
102
RTVSPropertyOp27
 70
     1
102
RTVSPropertyOp28
 70
     1
102
RTVSPropertyOp29
 70
     1
102
RTVSPropertyOp30
 70
     1
102
RTVSPropertyOp31
 70
     1
102
RTVSPropertyOp32
 70
     1
102
RTVSPropertyOp33
 70
     1
102
RTVSPropertyOp34
 70
     1
102
RTVSPropertyOp35
 70
     1
102
RTVSPropertyOp36
 70
     1
102
RTVSPropertyOp37
 70
     1
102
RTVSPropertyOp38
 70
     1
102
RTVSPropertyOp39
 70
     1
102
RTVSPropertyOp40
 70
     1
102
RTVSPropertyOp41
 70
     1
102
RTVSPropertyOp42
 70
     1
102
RTVSPropertyOp43
 70
     1
102
RTVSPropertyOp44
 70
     1
102
RTVSPropertyOp45
 70
     1
102
RTVSPropertyOp46
 70
     1
102
RTVSPropertyOp47
 70
     1
102
RTVSPropertyOp48
 70
     1
102
RTVSPropertyOp49
 70
     1
102
RTVSPropertyOp50
 70
     1
102
RTVSPropertyOp51
 70
     0
102
RTVSPropertyOp52
 70
     0
102
RTVSPropertyOp53
 70
     1
102
RTVSPropertyOp54
 70
     1
102
RTVSPropertyOp55
 70
     1
102
RTVSPropertyOp56
 70
     1
102
RTVSPropertyOp57
 70
     1
102
RTVSPropertyOp58
 70
     1
102
RTVSPropertyOp59
 70
     1
102
RTVSPropertyOp60
 70
     1
102
RTVSPropertyOp61
 70
     1
102
RTVSPropertyOp62
 70
     1
  0
XRECORD
  5
522
102
{ACAD_REACTORS
330
521
102
}
330
521
100
AcDbXrecord
280
     1
102
RTVSPost2010Prop28
280
     0
102
RTVSPost2010PropOp28
 70
     1
102
RTVSPost2010Prop29
280
     1
102
RTVSPost2010PropOp29
 70
     1
102
RTVSPost2010Prop30
280
     1
102
RTVSPost2010PropOp30
 70
     1
102
RTVSPost2010Prop31
280
     0
102
RTVSPost2010PropOp31
 70
     1
102
RTVSPost2010Prop32
280
     0
102
RTVSPost2010PropOp32
 70
     1
102
RTVSPost2010Prop33
280
     0
102
RTVSPost2010PropOp33
 70
     1
102
RTVSPost2010Prop34
280
     0
102
RTVSPost2010PropOp34
 70
     1
102
RTVSPost2010Prop35
280
     0
102
RTVSPost2010PropOp35
 70
     1
102
RTVSPost2010Prop36
280
     0
102
RTVSPost2010PropOp36
 70
     1
102
RTVSPost2010Prop37
 90
       50
102
RTVSPost2010PropOp37
 70
     1
102
RTVSPost2010Prop38
140
0.0
102
RTVSPost2010PropOp38
 70
     1
102
RTVSPost2010Prop39
140
1.0
102
RTVSPost2010PropOp39
 70
     1
102
RTVSPost2010Prop40
 90
        0
102
RTVSPost2010PropOp40
 70
     1
102
RTVSPost2010Prop41ColorIndex
 90
       18
102
RTVSPost2010Prop41ColorRGB
 90
        0
102
RTVSPost2010PropOp41
 70
     1
102
RTVSPost2010Prop42
 90
       50
102
RTVSPost2010PropOp42
 70
     1
102
RTVSPost2010Prop43
 90
        3
102
RTVSPost2010PropOp43
 70
     1
102
RTVSPost2010Prop44ColorIndex
 90
        5
102
RTVSPost2010Prop44ColorRGB
 90
      255
102
RTVSPost2010PropOp44
 70
     1
102
RTVSPost2010Prop45
280
     0
102
RTVSPost2010PropOp45
 70
     1
102
RTVSPost2010Prop46
 90
       50
102
RTVSPost2010PropOp46
 70
     1
102
RTVSPost2010Prop47
 90
       50
102
RTVSPost2010PropOp47
 70
     1
102
RTVSPost2010Prop48
 90
       50
102
RTVSPost2010PropOp48
 70
     1
102
RTVSPost2010Prop49
280
     0
102
RTVSPost2010PropOp49
 70
     1
102
RTVSPost2010Prop50
 90
       50
102
RTVSPost2010PropOp50
 70
     1
102
RTVSPost2010Prop51ColorIndex
 90
      256
102
RTVSPost2010Prop51ColorRGB
 90
-16777216
102
RTVSPost2010PropOp51
 70
     0
102
RTVSPost2010Prop52
140
1.0
102
RTVSPost2010PropOp52
 70
     0
102
RTVSPost2010Prop53
 90
        2
102
RTVSPost2010PropOp53
 70
     1
102
RTVSPost2010Prop54
  1
strokes_ogs.tif
102
RTVSPost2010PropOp54
 70
     1
102
RTVSPost2010Prop55
280
     0
102
RTVSPost2010PropOp55
 70
     1
102
RTVSPost2010Prop56
140
1.0
102
RTVSPost2010PropOp56
 70
     1
102
RTVSPost2010Prop57
140
1.0
102
RTVSPost2010PropOp57
 70
     1
102
RTVSPropertyOp0
 70
     1
102
RTVSPropertyOp1
 70
     1
102
RTVSPropertyOp2
 70
     1
102
RTVSPropertyOp3
 70
     1
102
RTVSPropertyOp4
 70
     1
102
RTVSPropertyOp5
 70
     1
102
RTVSPropertyOp6
 70
     1
102
RTVSPropertyOp7
 70
     1
102
RTVSPropertyOp8
 70
     1
102
RTVSPropertyOp9
 70
     1
102
RTVSPropertyOp10
 70
     1
102
RTVSPropertyOp11
 70
     1
102
RTVSPropertyOp12
 70
     1
102
RTVSPropertyOp13
 70
     1
102
RTVSPropertyOp14
 70
     1
102
RTVSPropertyOp15
 70
     1
102
RTVSPropertyOp16
 70
     1
102
RTVSPropertyOp17
 70
     1
102
RTVSPropertyOp18
 70
     1
102
RTVSPropertyOp19
 70
     1
102
RTVSPropertyOp20
 70
     1
102
RTVSPropertyOp21
 70
     1
102
RTVSPropertyOp22
 70
     1
102
RTVSPropertyOp23
 70
     1
102
RTVSPropertyOp24
 70
     1
102
RTVSPropertyOp25
 70
     1
102
RTVSPropertyOp26
 70
     1
102
RTVSPropertyOp27
 70
     1
102
RTVSPropertyOp28
 70
     1
102
RTVSPropertyOp29
 70
     1
102
RTVSPropertyOp30
 70
     1
102
RTVSPropertyOp31
 70
     1
102
RTVSPropertyOp32
 70
     1
102
RTVSPropertyOp33
 70
     1
102
RTVSPropertyOp34
 70
     1
102
RTVSPropertyOp35
 70
     1
102
RTVSPropertyOp36
 70
     1
102
RTVSPropertyOp37
 70
     1
102
RTVSPropertyOp38
 70
     1
102
RTVSPropertyOp39
 70
     1
102
RTVSPropertyOp40
 70
     1
102
RTVSPropertyOp41
 70
     1
102
RTVSPropertyOp42
 70
     1
102
RTVSPropertyOp43
 70
     1
102
RTVSPropertyOp44
 70
     1
102
RTVSPropertyOp45
 70
     1
102
RTVSPropertyOp46
 70
     1
102
RTVSPropertyOp47
 70
     1
102
RTVSPropertyOp48
 70
     1
102
RTVSPropertyOp49
 70
     1
102
RTVSPropertyOp50
 70
     1
102
RTVSPropertyOp51
 70
     0
102
RTVSPropertyOp52
 70
     0
102
RTVSPropertyOp53
 70
     1
102
RTVSPropertyOp54
 70
     1
102
RTVSPropertyOp55
 70
     1
102
RTVSPropertyOp56
 70
     1
102
RTVSPropertyOp57
 70
     1
102
RTVSPropertyOp58
 70
     1
102
RTVSPropertyOp59
 70
     1
102
RTVSPropertyOp60
 70
     1
102
RTVSPropertyOp61
 70
     1
102
RTVSPropertyOp62
 70
     1
  0
XRECORD
  5
518
102
{ACAD_REACTORS
330
517
102
}
330
517
100
AcDbXrecord
280
     1
102
RTVSPost2010Prop28
280
     0
102
RTVSPost2010PropOp28
 70
     1
102
RTVSPost2010Prop29
280
     1
102
RTVSPost2010PropOp29
 70
     1
102
RTVSPost2010Prop30
280
     1
102
RTVSPost2010PropOp30
 70
     1
102
RTVSPost2010Prop31
280
     0
102
RTVSPost2010PropOp31
 70
     1
102
RTVSPost2010Prop32
280
     0
102
RTVSPost2010PropOp32
 70
     1
102
RTVSPost2010Prop33
280
     0
102
RTVSPost2010PropOp33
 70
     1
102
RTVSPost2010Prop34
280
     0
102
RTVSPost2010PropOp34
 70
     1
102
RTVSPost2010Prop35
280
     0
102
RTVSPost2010PropOp35
 70
     1
102
RTVSPost2010Prop36
280
     0
102
RTVSPost2010PropOp36
 70
     1
102
RTVSPost2010Prop37
 90
       50
102
RTVSPost2010PropOp37
 70
     1
102
RTVSPost2010Prop38
140
0.0
102
RTVSPost2010PropOp38
 70
     1
102
RTVSPost2010Prop39
140
1.0
102
RTVSPost2010PropOp39
 70
     1
102
RTVSPost2010Prop40
 90
        0
102
RTVSPost2010PropOp40
 70
     1
102
RTVSPost2010Prop41ColorIndex
 90
       18
102
RTVSPost2010Prop41ColorRGB
 90
        0
102
RTVSPost2010PropOp41
 70
     1
102
RTVSPost2010Prop42
 90
       50
102
RTVSPost2010PropOp42
 70
     1
102
RTVSPost2010Prop43
 90
        3
102
RTVSPost2010PropOp43
 70
     1
102
RTVSPost2010Prop44ColorIndex
 90
        5
102
RTVSPost2010Prop44ColorRGB
 90
      255
102
RTVSPost2010PropOp44
 70
     1
102
RTVSPost2010Prop45
280
     0
102
RTVSPost2010PropOp45
 70
     1
102
RTVSPost2010Prop46
 90
       50
102
RTVSPost2010PropOp46
 70
     1
102
RTVSPost2010Prop47
 90
       50
102
RTVSPost2010PropOp47
 70
     1
102
RTVSPost2010Prop48
 90
       50
102
RTVSPost2010PropOp48
 70
     1
102
RTVSPost2010Prop49
280
     0
102
RTVSPost2010PropOp49
 70
     1
102
RTVSPost2010Prop50
 90
       50
102
RTVSPost2010PropOp50
 70
     1
102
RTVSPost2010Prop51ColorIndex
 90
      256
102
RTVSPost2010Prop51ColorRGB
 90
-16777216
102
RTVSPost2010PropOp51
 70
     0
102
RTVSPost2010Prop52
140
1.0
102
RTVSPost2010PropOp52
 70
     0
102
RTVSPost2010Prop53
 90
        2
102
RTVSPost2010PropOp53
 70
     1
102
RTVSPost2010Prop54
  1
strokes_ogs.tif
102
RTVSPost2010PropOp54
 70
     1
102
RTVSPost2010Prop55
280
     0
102
RTVSPost2010PropOp55
 70
     1
102
RTVSPost2010Prop56
140
1.0
102
RTVSPost2010PropOp56
 70
     1
102
RTVSPost2010Prop57
140
1.0
102
RTVSPost2010PropOp57
 70
     1
102
RTVSPropertyOp0
 70
     1
102
RTVSPropertyOp1
 70
     1
102
RTVSPropertyOp2
 70
     1
102
RTVSPropertyOp3
 70
     1
102
RTVSPropertyOp4
 70
     1
102
RTVSPropertyOp5
 70
     1
102
RTVSPropertyOp6
 70
     1
102
RTVSPropertyOp7
 70
     1
102
RTVSPropertyOp8
 70
     1
102
RTVSPropertyOp9
 70
     1
102
RTVSPropertyOp10
 70
     1
102
RTVSPropertyOp11
 70
     1
102
RTVSPropertyOp12
 70
     1
102
RTVSPropertyOp13
 70
     1
102
RTVSPropertyOp14
 70
     1
102
RTVSPropertyOp15
 70
     1
102
RTVSPropertyOp16
 70
     1
102
RTVSPropertyOp17
 70
     1
102
RTVSPropertyOp18
 70
     1
102
RTVSPropertyOp19
 70
     1
102
RTVSPropertyOp20
 70
     1
102
RTVSPropertyOp21
 70
     1
102
RTVSPropertyOp22
 70
     1
102
RTVSPropertyOp23
 70
     1
102
RTVSPropertyOp24
 70
     1
102
RTVSPropertyOp25
 70
     1
102
RTVSPropertyOp26
 70
     1
102
RTVSPropertyOp27
 70
     1
102
RTVSPropertyOp28
 70
     1
102
RTVSPropertyOp29
 70
     1
102
RTVSPropertyOp30
 70
     1
102
RTVSPropertyOp31
 70
     1
102
RTVSPropertyOp32
 70
     1
102
RTVSPropertyOp33
 70
     1
102
RTVSPropertyOp34
 70
     1
102
RTVSPropertyOp35
 70
     1
102
RTVSPropertyOp36
 70
     1
102
RTVSPropertyOp37
 70
     1
102
RTVSPropertyOp38
 70
     1
102
RTVSPropertyOp39
 70
     1
102
RTVSPropertyOp40
 70
     1
102
RTVSPropertyOp41
 70
     1
102
RTVSPropertyOp42
 70
     1
102
RTVSPropertyOp43
 70
     1
102
RTVSPropertyOp44
 70
     1
102
RTVSPropertyOp45
 70
     1
102
RTVSPropertyOp46
 70
     1
102
RTVSPropertyOp47
 70
     1
102
RTVSPropertyOp48
 70
     1
102
RTVSPropertyOp49
 70
     1
102
RTVSPropertyOp50
 70
     1
102
RTVSPropertyOp51
 70
     0
102
RTVSPropertyOp52
 70
     0
102
RTVSPropertyOp53
 70
     1
102
RTVSPropertyOp54
 70
     1
102
RTVSPropertyOp55
 70
     1
102
RTVSPropertyOp56
 70
     1
102
RTVSPropertyOp57
 70
     1
102
RTVSPropertyOp58
 70
     1
102
RTVSPropertyOp59
 70
     1
102
RTVSPropertyOp60
 70
     1
102
RTVSPropertyOp61
 70
     1
102
RTVSPropertyOp62
 70
     1
  0
XRECORD
  5
50C
102
{ACAD_REACTORS
330
50B
102
}
330
50B
100
AcDbXrecord
280
     1
102
RTVSPost2010Prop28
280
     0
102
RTVSPost2010PropOp28
 70
     1
102
RTVSPost2010Prop29
280
     1
102
RTVSPost2010PropOp29
 70
     1
102
RTVSPost2010Prop30
280
     1
102
RTVSPost2010PropOp30
 70
     1
102
RTVSPost2010Prop31
280
     0
102
RTVSPost2010PropOp31
 70
     1
102
RTVSPost2010Prop32
280
     0
102
RTVSPost2010PropOp32
 70
     1
102
RTVSPost2010Prop33
280
     0
102
RTVSPost2010PropOp33
 70
     1
102
RTVSPost2010Prop34
280
     0
102
RTVSPost2010PropOp34
 70
     1
102
RTVSPost2010Prop35
280
     0
102
RTVSPost2010PropOp35
 70
     1
102
RTVSPost2010Prop36
280
     0
102
RTVSPost2010PropOp36
 70
     1
102
RTVSPost2010Prop37
 90
       50
102
RTVSPost2010PropOp37
 70
     1
102
RTVSPost2010Prop38
140
0.0
102
RTVSPost2010PropOp38
 70
     1
102
RTVSPost2010Prop39
140
1.0
102
RTVSPost2010PropOp39
 70
     1
102
RTVSPost2010Prop40
 90
        0
102
RTVSPost2010PropOp40
 70
     1
102
RTVSPost2010Prop41ColorIndex
 90
       18
102
RTVSPost2010Prop41ColorRGB
 90
        0
102
RTVSPost2010PropOp41
 70
     1
102
RTVSPost2010Prop42
 90
       50
102
RTVSPost2010PropOp42
 70
     1
102
RTVSPost2010Prop43
 90
        3
102
RTVSPost2010PropOp43
 70
     1
102
RTVSPost2010Prop44ColorIndex
 90
        5
102
RTVSPost2010Prop44ColorRGB
 90
      255
102
RTVSPost2010PropOp44
 70
     1
102
RTVSPost2010Prop45
280
     0
102
RTVSPost2010PropOp45
 70
     1
102
RTVSPost2010Prop46
 90
       50
102
RTVSPost2010PropOp46
 70
     1
102
RTVSPost2010Prop47
 90
       50
102
RTVSPost2010PropOp47
 70
     1
102
RTVSPost2010Prop48
 90
       50
102
RTVSPost2010PropOp48
 70
     1
102
RTVSPost2010Prop49
280
     0
102
RTVSPost2010PropOp49
 70
     1
102
RTVSPost2010Prop50
 90
       50
102
RTVSPost2010PropOp50
 70
     1
102
RTVSPost2010Prop51ColorIndex
 90
      256
102
RTVSPost2010Prop51ColorRGB
 90
-16777216
102
RTVSPost2010PropOp51
 70
     0
102
RTVSPost2010Prop52
140
1.0
102
RTVSPost2010PropOp52
 70
     0
102
RTVSPost2010Prop53
 90
        2
102
RTVSPost2010PropOp53
 70
     1
102
RTVSPost2010Prop54
  1
strokes_ogs.tif
102
RTVSPost2010PropOp54
 70
     1
102
RTVSPost2010Prop55
280
     0
102
RTVSPost2010PropOp55
 70
     1
102
RTVSPost2010Prop56
140
1.0
102
RTVSPost2010PropOp56
 70
     1
102
RTVSPost2010Prop57
140
1.0
102
RTVSPost2010PropOp57
 70
     1
102
RTVSPropertyOp0
 70
     1
102
RTVSPropertyOp1
 70
     1
102
RTVSPropertyOp2
 70
     1
102
RTVSPropertyOp3
 70
     1
102
RTVSPropertyOp4
 70
     1
102
RTVSPropertyOp5
 70
     1
102
RTVSPropertyOp6
 70
     1
102
RTVSPropertyOp7
 70
     1
102
RTVSPropertyOp8
 70
     1
102
RTVSPropertyOp9
 70
     1
102
RTVSPropertyOp10
 70
     1
102
RTVSPropertyOp11
 70
     1
102
RTVSPropertyOp12
 70
     1
102
RTVSPropertyOp13
 70
     1
102
RTVSPropertyOp14
 70
     1
102
RTVSPropertyOp15
 70
     1
102
RTVSPropertyOp16
 70
     1
102
RTVSPropertyOp17
 70
     1
102
RTVSPropertyOp18
 70
     1
102
RTVSPropertyOp19
 70
     1
102
RTVSPropertyOp20
 70
     1
102
RTVSPropertyOp21
 70
     1
102
RTVSPropertyOp22
 70
     1
102
RTVSPropertyOp23
 70
     1
102
RTVSPropertyOp24
 70
     1
102
RTVSPropertyOp25
 70
     1
102
RTVSPropertyOp26
 70
     1
102
RTVSPropertyOp27
 70
     1
102
RTVSPropertyOp28
 70
     1
102
RTVSPropertyOp29
 70
     1
102
RTVSPropertyOp30
 70
     1
102
RTVSPropertyOp31
 70
     1
102
RTVSPropertyOp32
 70
     1
102
RTVSPropertyOp33
 70
     1
102
RTVSPropertyOp34
 70
     1
102
RTVSPropertyOp35
 70
     1
102
RTVSPropertyOp36
 70
     1
102
RTVSPropertyOp37
 70
     1
102
RTVSPropertyOp38
 70
     1
102
RTVSPropertyOp39
 70
     1
102
RTVSPropertyOp40
 70
     1
102
RTVSPropertyOp41
 70
     1
102
RTVSPropertyOp42
 70
     1
102
RTVSPropertyOp43
 70
     1
102
RTVSPropertyOp44
 70
     1
102
RTVSPropertyOp45
 70
     1
102
RTVSPropertyOp46
 70
     1
102
RTVSPropertyOp47
 70
     1
102
RTVSPropertyOp48
 70
     1
102
RTVSPropertyOp49
 70
     1
102
RTVSPropertyOp50
 70
     1
102
RTVSPropertyOp51
 70
     0
102
RTVSPropertyOp52
 70
     0
102
RTVSPropertyOp53
 70
     1
102
RTVSPropertyOp54
 70
     1
102
RTVSPropertyOp55
 70
     1
102
RTVSPropertyOp56
 70
     1
102
RTVSPropertyOp57
 70
     1
102
RTVSPropertyOp58
 70
     1
102
RTVSPropertyOp59
 70
     1
102
RTVSPropertyOp60
 70
     1
102
RTVSPropertyOp61
 70
     1
102
RTVSPropertyOp62
 70
     1
  0
XRECORD
  5
524
102
{ACAD_REACTORS
330
523
102
}
330
523
100
AcDbXrecord
280
     1
102
RTVSPost2010Prop28
280
     0
102
RTVSPost2010PropOp28
 70
     1
102
RTVSPost2010Prop29
280
     1
102
RTVSPost2010PropOp29
 70
     1
102
RTVSPost2010Prop30
280
     1
102
RTVSPost2010PropOp30
 70
     1
102
RTVSPost2010Prop31
280
     0
102
RTVSPost2010PropOp31
 70
     1
102
RTVSPost2010Prop32
280
     0
102
RTVSPost2010PropOp32
 70
     1
102
RTVSPost2010Prop33
280
     0
102
RTVSPost2010PropOp33
 70
     1
102
RTVSPost2010Prop34
280
     0
102
RTVSPost2010PropOp34
 70
     1
102
RTVSPost2010Prop35
280
     0
102
RTVSPost2010PropOp35
 70
     1
102
RTVSPost2010Prop36
280
     0
102
RTVSPost2010PropOp36
 70
     1
102
RTVSPost2010Prop37
 90
       50
102
RTVSPost2010PropOp37
 70
     1
102
RTVSPost2010Prop38
140
0.0
102
RTVSPost2010PropOp38
 70
     1
102
RTVSPost2010Prop39
140
1.0
102
RTVSPost2010PropOp39
 70
     1
102
RTVSPost2010Prop40
 90
        0
102
RTVSPost2010PropOp40
 70
     1
102
RTVSPost2010Prop41ColorIndex
 90
       18
102
RTVSPost2010Prop41ColorRGB
 90
        0
102
RTVSPost2010PropOp41
 70
     1
102
RTVSPost2010Prop42
 90
       50
102
RTVSPost2010PropOp42
 70
     1
102
RTVSPost2010Prop43
 90
        3
102
RTVSPost2010PropOp43
 70
     1
102
RTVSPost2010Prop44ColorIndex
 90
        5
102
RTVSPost2010Prop44ColorRGB
 90
      255
102
RTVSPost2010PropOp44
 70
     1
102
RTVSPost2010Prop45
280
     0
102
RTVSPost2010PropOp45
 70
     1
102
RTVSPost2010Prop46
 90
       50
102
RTVSPost2010PropOp46
 70
     1
102
RTVSPost2010Prop47
 90
       50
102
RTVSPost2010PropOp47
 70
     1
102
RTVSPost2010Prop48
 90
       50
102
RTVSPost2010PropOp48
 70
     1
102
RTVSPost2010Prop49
280
     0
102
RTVSPost2010PropOp49
 70
     1
102
RTVSPost2010Prop50
 90
       50
102
RTVSPost2010PropOp50
 70
     1
102
RTVSPost2010Prop51ColorIndex
 90
      256
102
RTVSPost2010Prop51ColorRGB
 90
-16777216
102
RTVSPost2010PropOp51
 70
     0
102
RTVSPost2010Prop52
140
1.0
102
RTVSPost2010PropOp52
 70
     0
102
RTVSPost2010Prop53
 90
        2
102
RTVSPost2010PropOp53
 70
     1
102
RTVSPost2010Prop54
  1
strokes_ogs.tif
102
RTVSPost2010PropOp54
 70
     1
102
RTVSPost2010Prop55
280
     0
102
RTVSPost2010PropOp55
 70
     1
102
RTVSPost2010Prop56
140
1.0
102
RTVSPost2010PropOp56
 70
     1
102
RTVSPost2010Prop57
140
1.0
102
RTVSPost2010PropOp57
 70
     1
102
RTVSPropertyOp0
 70
     1
102
RTVSPropertyOp1
 70
     1
102
RTVSPropertyOp2
 70
     1
102
RTVSPropertyOp3
 70
     1
102
RTVSPropertyOp4
 70
     1
102
RTVSPropertyOp5
 70
     1
102
RTVSPropertyOp6
 70
     1
102
RTVSPropertyOp7
 70
     1
102
RTVSPropertyOp8
 70
     1
102
RTVSPropertyOp9
 70
     1
102
RTVSPropertyOp10
 70
     1
102
RTVSPropertyOp11
 70
     1
102
RTVSPropertyOp12
 70
     1
102
RTVSPropertyOp13
 70
     1
102
RTVSPropertyOp14
 70
     1
102
RTVSPropertyOp15
 70
     1
102
RTVSPropertyOp16
 70
     1
102
RTVSPropertyOp17
 70
     1
102
RTVSPropertyOp18
 70
     1
102
RTVSPropertyOp19
 70
     1
102
RTVSPropertyOp20
 70
     1
102
RTVSPropertyOp21
 70
     1
102
RTVSPropertyOp22
 70
     1
102
RTVSPropertyOp23
 70
     1
102
RTVSPropertyOp24
 70
     1
102
RTVSPropertyOp25
 70
     1
102
RTVSPropertyOp26
 70
     1
102
RTVSPropertyOp27
 70
     1
102
RTVSPropertyOp28
 70
     1
102
RTVSPropertyOp29
 70
     1
102
RTVSPropertyOp30
 70
     1
102
RTVSPropertyOp31
 70
     1
102
RTVSPropertyOp32
 70
     1
102
RTVSPropertyOp33
 70
     1
102
RTVSPropertyOp34
 70
     1
102
RTVSPropertyOp35
 70
     1
102
RTVSPropertyOp36
 70
     1
102
RTVSPropertyOp37
 70
     1
102
RTVSPropertyOp38
 70
     1
102
RTVSPropertyOp39
 70
     1
102
RTVSPropertyOp40
 70
     1
102
RTVSPropertyOp41
 70
     1
102
RTVSPropertyOp42
 70
     1
102
RTVSPropertyOp43
 70
     1
102
RTVSPropertyOp44
 70
     1
102
RTVSPropertyOp45
 70
     1
102
RTVSPropertyOp46
 70
     1
102
RTVSPropertyOp47
 70
     1
102
RTVSPropertyOp48
 70
     1
102
RTVSPropertyOp49
 70
     1
102
RTVSPropertyOp50
 70
     1
102
RTVSPropertyOp51
 70
     0
102
RTVSPropertyOp52
 70
     0
102
RTVSPropertyOp53
 70
     1
102
RTVSPropertyOp54
 70
     1
102
RTVSPropertyOp55
 70
     1
102
RTVSPropertyOp56
 70
     1
102
RTVSPropertyOp57
 70
     1
102
RTVSPropertyOp58
 70
     1
102
RTVSPropertyOp59
 70
     1
102
RTVSPropertyOp60
 70
     1
102
RTVSPropertyOp61
 70
     1
102
RTVSPropertyOp62
 70
     1
  0
ENDSEC
  0
EOF
