  0
SECTION
  2
HEADER
  9
$ACADVER
  1
AC1015
  9
$ACADMAINTVER
 70
    20
  9
$DWGCODEPAGE
  3
ANSI_932
  9
$INSBASE
 10
0.0
 20
0.0
 30
0.0
  9
$EXTMIN
 10
9.999999064246615
 20
9.999999806846602
 30
0.0
  9
$EXTMAX
 10
716.2996330047833
 20
461.4363120214115
 30
0.0
  9
$LIMMIN
 10
0.0000015376081137
 20
-0.0000001931532552
  9
$LIMMAX
 10
792.0000015376082
 20
545.9999998068466
  9
$ORTHOMODE
 70
     0
  9
$REGENMODE
 70
     1
  9
$FILLMODE
 70
     1
  9
$QTEXTMODE
 70
     0
  9
$MIRRTEXT
 70
     1
  9
$LTSCALE
 40
1.0
  9
$ATTMODE
 70
     1
  9
$TEXTSIZE
 40
2.5
  9
$TRACEWID
 40
1.0
  9
$TEXTSTYLE
  7
STANDARD
  9
$CLAYER
  8
0
  9
$CELTYPE
  6
BYLAYER
  9
$CECOLOR
 62
   256
  9
$CELTSCALE
 40
1.0
  9
$DISPSILH
 70
     0
  9
$DIMSCALE
 40
1.0
  9
$DIMASZ
 40
3.0
  9
$DIMEXO
 40
1.0
  9
$DIMDLI
 40
10.0
  9
$DIMRND
 40
0.0
  9
$DIMDLE
 40
0.0
  9
$DIMEXE
 40
1.0
  9
$DIMTP
 40
0.0
  9
$DIMTM
 40
0.0
  9
$DIMTXT
 40
3.2
  9
$DIMCEN
 40
0.0
  9
$DIMTSZ
 40
0.0
  9
$DIMTOL
 70
     0
  9
$DIMLIM
 70
     0
  9
$DIMTIH
 70
     0
  9
$DIMTOH
 70
     0
  9
$DIMSE1
 70
     0
  9
$DIMSE2
 70
     0
  9
$DIMTAD
 70
     3
  9
$DIMZIN
 70
     8
  9
$DIMBLK
  1

  9
$DIMASO
 70
     1
  9
$DIMSHO
 70
     1
  9
$DIMPOST
  1

  9
$DIMAPOST
  1

  9
$DIMALT
 70
     0
  9
$DIMALTD
 70
     2
  9
$DIMALTF
 40
25.4
  9
$DIMLFAC
 40
1.0
  9
$DIMTOFL
 70
     1
  9
$DIMTVP
 40
0.0
  9
$DIMTIX
 70
     0
  9
$DIMSOXD
 70
     0
  9
$DIMSAH
 70
     1
  9
$DIMBLK1
  1
OPEN
  9
$DIMBLK2
  1
OPEN
  9
$DIMSTYLE
  2
STANDARD
  9
$DIMCLRD
 70
     0
  9
$DIMCLRE
 70
     0
  9
$DIMCLRT
 70
     0
  9
$DIMTFAC
 40
1.0
  9
$DIMGAP
 40
1.0
  9
$DIMJUST
 70
     0
  9
$DIMSD1
 70
     0
  9
$DIMSD2
 70
     0
  9
$DIMTOLJ
 70
     1
  9
$DIMTZIN
 70
     0
  9
$DIMALTZ
 70
     0
  9
$DIMALTTZ
 70
     0
  9
$DIMUPT
 70
     0
  9
$DIMDEC
 70
     4
  9
$DIMTDEC
 70
     4
  9
$DIMALTU
 70
     2
  9
$DIMALTTD
 70
     2
  9
$DIMTXSTY
  7
STANDARD
  9
$DIMAUNIT
 70
     0
  9
$DIMADEC
 70
     0
  9
$DIMALTRND
 40
0.0
  9
$DIMAZIN
 70
     0
  9
$DIMDSEP
 70
    46
  9
$DIMATFIT
 70
     3
  9
$DIMFRAC
 70
     0
  9
$DIMLDRBLK
  1
OPEN
  9
$DIMLUNIT
 70
     2
  9
$DIMLWD
 70
    -2
  9
$DIMLWE
 70
    -2
  9
$DIMTMOVE
 70
     0
  9
$LUNITS
 70
     2
  9
$LUPREC
 70
     4
  9
$SKETCHINC
 40
1.0
  9
$FILLETRAD
 40
1.0
  9
$AUNITS
 70
     0
  9
$AUPREC
 70
     0
  9
$MENU
  1
.
  9
$ELEVATION
 40
0.0
  9
$PELEVATION
 40
0.0
  9
$THICKNESS
 40
0.0
  9
$LIMCHECK
 70
     0
  9
$CHAMFERA
 40
10.0
  9
$CHAMFERB
 40
10.0
  9
$CHAMFERC
 40
20.0
  9
$CHAMFERD
 40
0.0
  9
$SKPOLY
 70
     0
  9
$TDCREATE
 40
2453280.658238924
  9
$TDUCREATE
 40
2453280.283238924
  9
$TDUPDATE
 40
2457192.688880266
  9
$TDUUPDATE
 40
2457192.313880266
  9
$TDINDWG
 40
0.0876270833
  9
$TDUSRTIMER
 40
0.0876268866
  9
$USRTIMER
 70
     1
  9
$ANGBASE
 50
0.0
  9
$ANGDIR
 70
     0
  9
$PDMODE
 70
     0
  9
$PDSIZE
 40
0.0
  9
$PLINEWID
 40
0.0
  9
$SPLFRAME
 70
     0
  9
$SPLINETYPE
 70
     6
  9
$SPLINESEGS
 70
     8
  9
$HANDSEED
  5
1852
  9
$SURFTAB1
 70
     6
  9
$SURFTAB2
 70
     6
  9
$SURFTYPE
 70
     6
  9
$SURFU
 70
     6
  9
$SURFV
 70
     6
  9
$UCSBASE
  2

  9
$UCSNAME
  2

  9
$UCSORG
 10
0.0
 20
0.0
 30
0.0
  9
$UCSXDIR
 10
1.0
 20
0.0
 30
0.0
  9
$UCSYDIR
 10
0.0
 20
1.0
 30
0.0
  9
$UCSORTHOREF
  2

  9
$UCSORTHOVIEW
 70
     0
  9
$UCSORGTOP
 10
0.0
 20
0.0
 30
0.0
  9
$UCSORGBOTTOM
 10
0.0
 20
0.0
 30
0.0
  9
$UCSORGLEFT
 10
0.0
 20
0.0
 30
0.0
  9
$UCSORGRIGHT
 10
0.0
 20
0.0
 30
0.0
  9
$UCSORGFRONT
 10
0.0
 20
0.0
 30
0.0
  9
$UCSORGBACK
 10
0.0
 20
0.0
 30
0.0
  9
$PUCSBASE
  2

  9
$PUCSNAME
  2

  9
$PUCSORG
 10
0.0
 20
0.0
 30
0.0
  9
$PUCSXDIR
 10
1.0
 20
0.0
 30
0.0
  9
$PUCSYDIR
 10
0.0
 20
1.0
 30
0.0
  9
$PUCSORTHOREF
  2

  9
$PUCSORTHOVIEW
 70
     0
  9
$PUCSORGTOP
 10
0.0
 20
0.0
 30
0.0
  9
$PUCSORGBOTTOM
 10
0.0
 20
0.0
 30
0.0
  9
$PUCSORGLEFT
 10
0.0
 20
0.0
 30
0.0
  9
$PUCSORGRIGHT
 10
0.0
 20
0.0
 30
0.0
  9
$PUCSORGFRONT
 10
0.0
 20
0.0
 30
0.0
  9
$PUCSORGBACK
 10
0.0
 20
0.0
 30
0.0
  9
$USERI1
 70
     0
  9
$USERI2
 70
     0
  9
$USERI3
 70
     0
  9
$USERI4
 70
     0
  9
$USERI5
 70
     0
  9
$USERR1
 40
0.0
  9
$USERR2
 40
0.0
  9
$USERR3
 40
0.0
  9
$USERR4
 40
0.0
  9
$USERR5
 40
0.0
  9
$WORLDVIEW
 70
     1
  9
$SHADEDGE
 70
     3
  9
$SHADEDIF
 70
    70
  9
$TILEMODE
 70
     1
  9
$MAXACTVP
 70
    48
  9
$PINSBASE
 10
0.0
 20
0.0
 30
0.0
  9
$PLIMCHECK
 70
     0
  9
$PEXTMIN
 10
1.000000000000000E+20
 20
1.000000000000000E+20
 30
1.000000000000000E+20
  9
$PEXTMAX
 10
-1.000000000000000E+20
 20
-1.000000000000000E+20
 30
-1.000000000000000E+20
  9
$PLIMMIN
 10
0.0
 20
0.0
  9
$PLIMMAX
 10
420.0
 20
297.0
  9
$UNITMODE
 70
     0
  9
$VISRETAIN
 70
     1
  9
$PLINEGEN
 70
     0
  9
$PSLTSCALE
 70
     1
  9
$TREEDEPTH
 70
  3020
  9
$CMLSTYLE
  2
STANDARD
  9
$CMLJUST
 70
     0
  9
$CMLSCALE
 40
20.0
  9
$PROXYGRAPHICS
 70
     1
  9
$MEASUREMENT
 70
     0
  9
$CELWEIGHT
370
    -1
  9
$ENDCAPS
280
     0
  9
$JOINSTYLE
280
     0
  9
$LWDISPLAY
290
     0
  9
$INSUNITS
 70
     0
  9
$HYPERLINKBASE
  1

  9
$STYLESHEET
  1

  9
$XEDIT
290
     1
  9
$CEPSNTYPE
380
     0
  9
$PSTYLEMODE
290
     1
  9
$FINGERPRINTGUID
  2
{50DA5920-37F5-4C0C-8781-5D8D562A0F9B}
  9
$VERSIONGUID
  2
{1A5D2789-3363-4206-BC3E-F84695C57C20}
  9
$EXTNAMES
290
     1
  9
$PSVPSCALE
 40
0.0
  9
$OLESTARTUP
290
     0
  0
ENDSEC
  0
SECTION
  2
CLASSES
  0
CLASS
  1
ACDBDICTIONARYWDFLT
  2
AcDbDictionaryWithDefault
  3
ObjectDBX Classes
 90
        0
280
     0
281
     0
  0
CLASS
  1
ACDBPLACEHOLDER
  2
AcDbPlaceHolder
  3
ObjectDBX Classes
 90
        0
280
     0
281
     0
  0
CLASS
  1
LAYOUT
  2
AcDbLayout
  3
ObjectDBX Classes
 90
        0
280
     0
281
     0
  0
CLASS
  1
DICTIONARYVAR
  2
AcDbDictionaryVar
  3
ObjectDBX Classes
 90
        0
280
     0
281
     0
  0
CLASS
  1
MATERIAL
  2
AcDbMaterial
  3
ObjectDBX Classes
 90
     1153
280
     0
281
     0
  0
CLASS
  1
VISUALSTYLE
  2
AcDbVisualStyle
  3
ObjectDBX Classes
 90
     4095
280
     0
281
     0
  0
CLASS
  1
TABLESTYLE
  2
AcDbTableStyle
  3
ObjectDBX Classes
 90
     4095
280
     0
281
     0
  0
CLASS
  1
SCALE
  2
AcDbScale
  3
ObjectDBX Classes
 90
     1153
280
     0
281
     0
  0
CLASS
  1
MLEADERSTYLE
  2
AcDbMLeaderStyle
  3
ACDB_MLEADERSTYLE_CLASS
 90
     4095
280
     0
281
     0
  0
CLASS
  1
ACDBSECTIONVIEWSTYLE
  2
AcDbSectionViewStyle
  3
ObjectDBX Classes
 90
     1025
280
     0
281
     0
  0
CLASS
  1
ACDBDETAILVIEWSTYLE
  2
AcDbDetailViewStyle
  3
ObjectDBX Classes
 90
     1025
280
     0
281
     0
  0
CLASS
  1
CELLSTYLEMAP
  2
AcDbCellStyleMap
  3
ObjectDBX Classes
 90
     1152
280
     0
281
     0
  0
ENDSEC
  0
SECTION
  2
TABLES
  0
TABLE
  2
VPORT
  5
8
330
0
100
AcDbSymbolTable
 70
     1
  0
VPORT
  5
179E
330
8
100
AcDbSymbolTableRecord
100
AcDbViewportTableRecord
  2
*ACTIVE
 70
     0
 10
0.0
 20
0.0
 11
1.0
 21
1.0
 12
536.9004568649245
 22
235.71743877884
 13
0.0
 23
0.0
 14
10.0
 24
10.0
 15
10.0
 25
10.0
 16
0.0
 26
0.0
 36
1.0
 17
0.0
 27
0.0
 37
0.0
 40
455.0373445706766
 41
2.35006605019815
 42
50.0
 43
0.0
 44
0.0
 50
0.0
 51
0.0
 71
     0
 72
   100
 73
     1
 74
     0
 75
     0
 76
     0
 77
     0
 78
     0
281
     0
 65
     1
110
0.0
120
0.0
130
0.0
111
1.0
121
0.0
131
0.0
112
0.0
122
1.0
132
0.0
 79
     0
146
0.0
1001
ACAD_NAV_VCDISPLAY
1070
     3
  0
ENDTAB
  0
TABLE
  2
LTYPE
  5
5
330
0
100
AcDbSymbolTable
 70
     4
  0
LTYPE
  5
12
330
5
100
AcDbSymbolTableRecord
100
AcDbLinetypeTableRecord
  2
BYBLOCK
 70
     0
  3

 72
    65
 73
     0
 40
0.0
  0
LTYPE
  5
13
330
5
100
AcDbSymbolTableRecord
100
AcDbLinetypeTableRecord
  2
BYLAYER
 70
     0
  3

 72
    65
 73
     0
 40
0.0
  0
LTYPE
  5
14
330
5
100
AcDbSymbolTableRecord
100
AcDbLinetypeTableRecord
  2
CONTINUOUS
 70
     0
  3
Solid line
 72
    65
 73
     0
 40
0.0
  0
LTYPE
  5
62
330
5
100
AcDbSymbolTableRecord
100
AcDbLinetypeTableRecord
  2
DASHED
 70
     0
  3
Dashed __ __ __ __ __ __ __ __ __ __ __ __ __ _
 72
    65
 73
     2
 40
19.04999999999998
 49
12.7
 74
     0
 49
-6.349999999999997
 74
     0
  0
LTYPE
  5
63
330
5
100
AcDbSymbolTableRecord
100
AcDbLinetypeTableRecord
  2
CENTER
 70
     0
  3
Center ____ _ ____ _ ____ _ ____ _ ____ _ ____
 72
    65
 73
     4
 40
50.8
 49
31.75
 74
     0
 49
-6.349999999999997
 74
     0
 49
6.349999999999997
 74
     0
 49
-6.349999999999997
 74
     0
  0
LTYPE
  5
64
330
5
100
AcDbSymbolTableRecord
100
AcDbLinetypeTableRecord
  2
PHANTOM
 70
     0
  3
Phantom ______  __  __  ______  __  __  ______
 72
    65
 73
     6
 40
63.5
 49
31.75
 74
     0
 49
-6.349999999999997
 74
     0
 49
6.349999999999997
 74
     0
 49
-6.349999999999997
 74
     0
 49
6.349999999999997
 74
     0
 49
-6.349999999999997
 74
     0
  0
ENDTAB
  0
TABLE
  2
LAYER
  5
2
330
0
100
AcDbSymbolTable
 70
     8
  0
LAYER
  5
E
102
{ACAD_XDICTIONARY
360
17F6
102
}
330
2
100
AcDbSymbolTableRecord
100
AcDbLayerTableRecord
  2
0
 70
     0
 62
     7
  6
CONTINUOUS
370
    -3
390
17A5
  0
LAYER
  5
65
102
{ACAD_XDICTIONARY
360
17F8
102
}
330
2
100
AcDbSymbolTableRecord
100
AcDbLayerTableRecord
  2
4
 70
     0
 62
     1
  6
CENTER
370
    -3
390
17A5
  0
LAYER
  5
66
102
{ACAD_XDICTIONARY
360
17FA
102
}
330
2
100
AcDbSymbolTableRecord
100
AcDbLayerTableRecord
  2
5
 70
     0
 62
     6
  6
PHANTOM
370
    -3
390
17A5
  0
LAYER
  5
67
102
{ACAD_XDICTIONARY
360
17FC
102
}
330
2
100
AcDbSymbolTableRecord
100
AcDbLayerTableRecord
  2
1
 70
     0
 62
     7
  6
CONTINUOUS
370
    -3
390
17A5
  0
LAYER
  5
68
102
{ACAD_XDICTIONARY
360
17FE
102
}
330
2
100
AcDbSymbolTableRecord
100
AcDbLayerTableRecord
  2
2
 70
     0
 62
     4
  6
CONTINUOUS
370
    -3
390
17A5
  0
LAYER
  5
69
102
{ACAD_XDICTIONARY
360
1800
102
}
330
2
100
AcDbSymbolTableRecord
100
AcDbLayerTableRecord
  2
3
 70
     0
 62
     2
  6
DASHED
370
    -3
390
17A5
  0
LAYER
  5
6A
102
{ACAD_XDICTIONARY
360
1802
102
}
330
2
100
AcDbSymbolTableRecord
100
AcDbLayerTableRecord
  2
6
 70
     0
 62
     5
  6
CONTINUOUS
370
    -3
390
17A5
  0
LAYER
  5
6B
102
{ACAD_XDICTIONARY
360
1804
102
}
330
2
100
AcDbSymbolTableRecord
100
AcDbLayerTableRecord
  2
7
 70
     0
 62
     3
  6
CONTINUOUS
370
    -3
390
17A5
  0
ENDTAB
  0
TABLE
  2
STYLE
  5
3
330
0
100
AcDbSymbolTable
 70
     1
  0
STYLE
  5
F
330
3
100
AcDbSymbolTableRecord
100
AcDbTextStyleTableRecord
  2
STANDARD
 70
     0
 40
0.0
 41
1.0
 50
0.0
 71
     0
 42
2.5
  3
simplex.shx
  4

  0
ENDTAB
  0
TABLE
  2
VIEW
  5
6
330
0
100
AcDbSymbolTable
 70
     0
  0
ENDTAB
  0
TABLE
  2
UCS
  5
7
330
0
100
AcDbSymbolTable
 70
     0
  0
ENDTAB
  0
TABLE
  2
APPID
  5
9
330
0
100
AcDbSymbolTable
 70
     5
  0
APPID
  5
10
330
9
100
AcDbSymbolTableRecord
100
AcDbRegAppTableRecord
  2
ACAD
 70
     0
  0
APPID
  5
3E
330
9
100
AcDbSymbolTableRecord
100
AcDbRegAppTableRecord
  2
CONTENTTABDATA
 70
     0
  0
APPID
  5
3F
330
9
100
AcDbSymbolTableRecord
100
AcDbRegAppTableRecord
  2
CONTENTCURRENTTAB
 70
     0
  0
APPID
  5
1810
330
9
100
AcDbSymbolTableRecord
100
AcDbRegAppTableRecord
  2
ACAD_NAV_VCDISPLAY
 70
     0
  0
APPID
  5
1849
330
9
100
AcDbSymbolTableRecord
100
AcDbRegAppTableRecord
  2
ACAD_MLEADERVER
 70
     0
  0
ENDTAB
  0
TABLE
  2
DIMSTYLE
  5
A
330
0
100
AcDbSymbolTable
 70
     1
100
AcDbDimStyleTable
 71
     0
  0
DIMSTYLE
105
1D
330
A
100
AcDbSymbolTableRecord
100
AcDbDimStyleTableRecord
  2
STANDARD
 70
     0
 41
3.0
 42
1.0
 43
10.0
 44
1.0
 73
     0
 74
     0
 77
     3
 78
     8
140
3.2
141
0.0
147
1.0
172
     1
173
     1
340
F
341
2E
343
2E
344
2E
  0
ENDTAB
  0
TABLE
  2
BLOCK_RECORD
  5
1
330
0
100
AcDbSymbolTable
 70
     1
  0
BLOCK_RECORD
  5
18
102
{ACAD_XDICTIONARY
360
1786
102
}
330
1
100
AcDbSymbolTableRecord
100
AcDbBlockTableRecord
  2
*MODEL_SPACE
340
17F3
  0
BLOCK_RECORD
  5
15
102
{ACAD_XDICTIONARY
360
1784
102
}
330
1
100
AcDbSymbolTableRecord
100
AcDbBlockTableRecord
  2
*PAPER_SPACE
340
17F4
  0
BLOCK_RECORD
  5
2E
330
1
100
AcDbSymbolTableRecord
100
AcDbBlockTableRecord
  2
_OPEN
340
0
  0
ENDTAB
  0
ENDSEC
  0
SECTION
  2
BLOCKS
  0
BLOCK
  5
19
330
18
100
AcDbEntity
  8
0
100
AcDbBlockBegin
  2
*MODEL_SPACE
 70
     0
 10
0.0
 20
0.0
 30
0.0
  3
*MODEL_SPACE
  1

  0
ENDBLK
  5
1A
330
18
100
AcDbEntity
  8
0
100
AcDbBlockEnd
  0
BLOCK
  5
16
330
15
100
AcDbEntity
 67
     1
  8
0
100
AcDbBlockBegin
  2
*PAPER_SPACE
 70
     0
 10
0.0
 20
0.0
 30
0.0
  3
*PAPER_SPACE
  1

  0
ENDBLK
  5
17
330
15
100
AcDbEntity
 67
     1
  8
0
100
AcDbBlockEnd
  0
BLOCK
  5
2F
330
2E
100
AcDbEntity
  8
0
100
AcDbBlockBegin
  2
_OPEN
 70
     0
 10
0.0
 20
0.0
 30
0.0
  3
_OPEN
  1

  0
LINE
  5
30
330
2E
100
AcDbEntity
  8
0
  6
ByBlock
 62
     0
100
AcDbLine
 10
-1.0
 20
0.1666666666666666
 30
0.0
 11
0.0
 21
0.0
 31
0.0
  0
LINE
  5
31
330
2E
100
AcDbEntity
  8
0
  6
ByBlock
 62
     0
100
AcDbLine
 10
0.0
 20
0.0
 30
0.0
 11
-1.0
 21
-0.1666666666666666
 31
0.0
  0
LINE
  5
32
330
2E
100
AcDbEntity
  8
0
  6
ByBlock
 62
     0
100
AcDbLine
 10
0.0
 20
0.0
 30
0.0
 11
-1.0
 21
0.0
 31
0.0
  0
ENDBLK
  5
33
330
2E
100
AcDbEntity
  8
0
100
AcDbBlockEnd
  0
ENDSEC
  0
SECTION
  2
ENTITIES
  0
CIRCLE
  5
1FE
330
18
100
AcDbEntity
  8
1
  6
Continuous
100
AcDbCircle
 10
233.4577264742915
 20
447.4363120214116
 30
0.0
 40
4.400000099999997
  0
CIRCLE
  5
1FF
330
18
100
AcDbEntity
  8
1
  6
Continuous
100
AcDbCircle
 10
233.4577264742915
 20
407.4363120214115
 30
0.0
 40
4.400000099999997
  0
LINE
  5
200
330
18
100
AcDbEntity
  8
4
  6
CENTER
 48
0.3
100
AcDbLine
 10
224.0577263742914
 20
407.4363120214115
 30
0.0
 11
242.8577265742914
 21
407.4363120214115
 31
0.0
  0
LINE
  5
201
330
18
100
AcDbEntity
  8
4
  6
CENTER
 48
0.3
100
AcDbLine
 10
224.0577263742914
 20
447.4363120214116
 30
0.0
 11
242.8577265742914
 21
447.4363120214116
 31
0.0
  0
LINE
  5
204
330
18
100
AcDbEntity
  8
1
  6
Continuous
100
AcDbLine
 10
239.4577244742915
 20
394.0613244214118
 30
0.0
 11
231.4577284742914
 21
394.0613244214118
 31
0.0
  0
LINE
  5
205
330
18
100
AcDbEntity
  8
1
  6
Continuous
100
AcDbLine
 10
238.8327244742915
 20
393.4363244214118
 30
0.0
 11
232.0827284742914
 21
393.4363244214118
 31
0.0
  0
LINE
  5
206
330
18
100
AcDbEntity
  8
1
  6
Continuous
100
AcDbLine
 10
224.4577264742914
 20
320.6589569045148
 30
0.0
 11
324.4577264742915
 21
320.6589569045148
 31
0.0
  0
LINE
  5
207
330
18
100
AcDbEntity
  8
1
  6
Continuous
100
AcDbLine
 10
224.4577264742914
 20
322.6589569045148
 30
0.0
 11
324.4577264742915
 21
322.6589569045148
 31
0.0
  0
LINE
  5
208
330
18
100
AcDbEntity
  8
4
  6
CENTER
 48
0.5
100
AcDbLine
 10
167.9577264742914
 20
427.4363120214117
 30
0.0
 11
326.9243964742914
 21
427.4363120214117
 31
0.0
  0
LINE
  5
209
330
18
100
AcDbEntity
  8
1
  6
Continuous
100
AcDbLine
 10
231.9577264742914
 20
398.4363120214116
 30
0.0
 11
316.9577264742915
 21
398.4363120214116
 31
0.0
  0
LINE
  5
20A
330
18
100
AcDbEntity
  8
1
  6
Continuous
100
AcDbLine
 10
231.9577264742914
 20
456.4363120214117
 30
0.0
 11
316.9577264742915
 21
456.4363120214117
 31
0.0
  0
CIRCLE
  5
20D
330
18
100
AcDbEntity
  8
1
  6
Continuous
100
AcDbCircle
 10
235.4577264742915
 20
237.1589569045148
 30
0.0
 40
4.0
  0
CIRCLE
  5
20F
330
18
100
AcDbEntity
  8
2
  6
Continuous
100
AcDbCircle
 10
235.4577264742915
 20
237.1589569045148
 30
0.0
 40
3.375
  0
ARC
  5
210
330
18
100
AcDbEntity
  8
5
  6
PHANTOM
 48
0.3
100
AcDbCircle
 10
231.9500064742914
 20
244.6813110345149
 30
0.0
 40
22.0
100
AcDbArc
 50
252.0390400000003
 51
337.9609699999998
  0
ARC
  5
211
330
18
100
AcDbEntity
  8
1
  6
Continuous
100
AcDbCircle
 10
239.6077164742914
 20
244.3469681045148
 30
0.0
 40
22.0
100
AcDbArc
 50
197.03904
 51
282.9609700000002
  0
ARC
  5
213
330
18
100
AcDbEntity
  8
1
  6
Continuous
100
AcDbCircle
 10
235.4577264742915
 20
237.1589569045148
 30
0.0
 40
15.5
100
AcDbArc
 50
192.8121299999998
 51
287.1879399999995
  0
ARC
  5
214
330
18
100
AcDbEntity
  8
1
  6
Continuous
100
AcDbCircle
 10
235.4577264742915
 20
237.1589569045148
 30
0.0
 40
31.5
100
AcDbArc
 50
155.9921499999999
 51
324.0078599999995
  0
ARC
  5
215
330
18
100
AcDbEntity
  8
1
  6
Continuous
100
AcDbCircle
 10
233.8577164742914
 20
234.3876789045149
 30
0.0
 40
17.700001
100
AcDbArc
 50
29.12996100000002
 51
90.87003899999977
  0
ARC
  5
216
330
18
100
AcDbEntity
  8
1
  6
Continuous
100
AcDbCircle
 10
233.8577164742914
 20
234.3876789045149
 30
0.0
 40
15.7
100
AcDbArc
 50
29.12996100000002
 51
90.87003899999977
  0
ARC
  5
217
330
18
100
AcDbEntity
  8
5
  6
PHANTOM
 48
0.3
100
AcDbCircle
 10
236.8101164742915
 20
234.2587719045149
 30
0.0
 40
17.700001
100
AcDbArc
 50
84.12995999999962
 51
145.8700399999998
  0
ARC
  5
218
330
18
100
AcDbEntity
  8
5
  6
PHANTOM
 48
0.3
100
AcDbCircle
 10
236.8101164742915
 20
234.2587719045149
 30
0.0
 40
15.7
100
AcDbArc
 50
84.12995999999962
 51
145.8700399999998
  0
ARC
  5
219
330
18
100
AcDbEntity
  8
1
  6
Continuous
100
AcDbCircle
 10
235.4577264742915
 20
237.1589569045148
 30
0.0
 40
62.5
100
AcDbArc
 50
97.87023799999971
 51
49.50483900000001
  0
LINE
  5
21A
330
18
100
AcDbEntity
  8
4
  6
CENTER
 48
0.5
100
AcDbLine
 10
167.9577264742914
 20
237.1589569045148
 30
0.0
 11
303.1877364742914
 21
237.1589569045148
 31
0.0
  0
ARC
  5
21B
330
18
100
AcDbEntity
  8
1
  6
Continuous
100
AcDbCircle
 10
235.4577264742915
 20
237.1589569045148
 30
0.0
 40
44.5
100
AcDbArc
 50
148.75554
 51
331.2444499999998
  0
LINE
  5
21C
330
18
100
AcDbEntity
  8
1
  6
Continuous
100
AcDbLine
 10
223.9577264742914
 20
305.9449869045149
 30
0.0
 11
255.3766764742914
 21
311.4849919045148
 31
0.0
  0
ARC
  5
21D
330
18
100
AcDbEntity
  8
1
  6
Continuous
100
AcDbCircle
 10
226.0992164742915
 20
303.2763089045149
 30
0.0
 40
1.0
100
AcDbArc
 50
357.2674000000002
 51
100.0000000000001
  0
LINE
  5
21E
330
18
100
AcDbEntity
  8
1
  6
Continuous
100
AcDbLine
 10
227.1660064742914
 20
304.6518499045149
 30
0.0
 11
224.7582364742914
 21
254.2051834045147
 31
0.0
  0
LINE
  5
21F
330
18
100
AcDbEntity
  8
4
  6
CENTER
 48
0.5
100
AcDbLine
 10
235.4577264742915
 20
304.4339589045149
 30
0.0
 11
235.4577264742915
 21
169.6589569045148
 31
0.0
  0
ARC
  5
220
330
18
100
AcDbEntity
  8
1
  6
Continuous
100
AcDbCircle
 10
68.2534432090456
 20
303.7233639045148
 30
0.0
 40
2.5
100
AcDbArc
 50
0.0
 51
92.05782199999992
  0
ARC
  5
221
330
18
100
AcDbEntity
  8
1
  6
Continuous
100
AcDbCircle
 10
68.2534432090456
 20
303.7763089045149
 30
0.0
 40
0.5
100
AcDbArc
 50
0.0
 51
92.22456099999979
  0
ARC
  5
222
330
18
100
AcDbEntity
  8
1
  6
Continuous
100
AcDbCircle
 10
37.2534432090456
 20
303.7763089045149
 30
0.0
 40
0.5
100
AcDbArc
 50
87.77543699999972
 51
180.0000100000002
  0
ARC
  5
223
330
18
100
AcDbEntity
  8
1
  6
Continuous
100
AcDbCircle
 10
37.2534432090456
 20
303.7233639045148
 30
0.0
 40
2.5
100
AcDbArc
 50
87.94217599999962
 51
180.0000100000002
  0
LINE
  5
224
330
18
100
AcDbEntity
  8
4
  6
CENTER
 48
0.5
100
AcDbLine
 10
52.7534432090456
 20
327.6589569045148
 30
0.0
 11
52.7534432090456
 21
169.6589569045148
 31
0.0
  0
LINE
  5
225
330
18
100
AcDbEntity
  8
1
  6
Continuous
100
AcDbLine
 10
27.25345120904557
 20
281.9279389045148
 30
0.0
 11
28.25518320904557
 21
311.3609989045148
 31
0.0
  0
LINE
  5
226
330
18
100
AcDbEntity
  8
1
  6
Continuous
100
AcDbLine
 10
78.25344620904559
 20
281.9279389045148
 30
0.0
 11
77.2517102090456
 21
311.3609989045148
 31
0.0
  0
LINE
  5
227
330
18
100
AcDbEntity
  8
4
  6
CENTER
 48
0.5
100
AcDbLine
 10
25.75347420904563
 20
237.1589569045148
 30
0.0
 11
91.75346180904558
 21
237.1589569045148
 31
0.0
  0
ARC
  5
228
330
18
100
AcDbEntity
  8
1
  6
Continuous
100
AcDbCircle
 10
82.83158920904559
 20
229.5253029045148
 30
0.0
 40
13.85776
100
AcDbArc
 50
223.3431299999997
 51
311.6925299999998
  0
ARC
  5
22A
330
18
100
AcDbEntity
  8
1
  6
Continuous
100
AcDbCircle
 10
173.8989512090456
 20
283.2335649045148
 30
0.0
 40
100.0
100
AcDbArc
 50
199.3598699999998
 51
203.62485
  0
LINE
  5
22D
330
18
100
AcDbEntity
  8
1
  6
Continuous
100
AcDbLine
 10
72.75344720904559
 20
250.0835251045149
 30
0.0
 11
83.55344630904562
 21
250.0835251045149
 31
0.0
  0
ARC
  5
22E
330
18
100
AcDbEntity
  8
1
  6
Continuous
100
AcDbCircle
 10
82.12590420904552
 20
257.3589329045148
 30
0.0
 40
15.79156799999999
100
AcDbArc
 50
51.7023260000003
 51
129.8425199999996
  0
ARC
  5
22F
330
18
100
AcDbEntity
  8
1
  6
Continuous
100
AcDbCircle
 10
82.28349320904561
 20
256.0657979045148
 30
0.0
 40
15.35174699999999
100
AcDbArc
 50
51.01943699999971
 51
130.0256699999998
  0
LINE
  5
230
330
18
100
AcDbEntity
  8
1
  6
Continuous
100
AcDbLine
 10
39.2534432090456
 20
296.6794759045149
 30
0.0
 11
39.2534432090456
 21
177.6384419045149
 31
0.0
  0
LINE
  5
231
330
18
100
AcDbEntity
  8
1
  6
Continuous
100
AcDbLine
 10
66.25344320904559
 20
296.6794759045149
 30
0.0
 11
66.25344320904559
 21
177.6384419045149
 31
0.0
  0
TEXT
  5
232
330
18
100
AcDbEntity
  8
1
  6
Continuous
 48
0.25
100
AcDbText
 10
9.999999064246617
 20
10.00000056761549
 30
0.0
 40
1.399999999999999
  1
LAYER
100
AcDbText
  0
TEXT
  5
233
330
18
100
AcDbEntity
  8
7
  6
Continuous
 48
0.25
100
AcDbText
 10
9.999999064246617
 20
18.0000005676155
 30
0.0
 40
3.0
  1
TYPE No.TCA-315E-R125
100
AcDbText
  0
TEXT
  5
234
330
18
100
AcDbEntity
  8
7
  6
Continuous
 48
0.25
100
AcDbText
 10
9.999999064246617
 20
26.0000005676155
 30
0.0
 40
3.0
  1
CODE No.19220
100
AcDbText
  0
TEXT
  5
235
330
18
100
AcDbEntity
  8
7
  6
Continuous
 48
0.25
100
AcDbText
 10
29.97951006424661
 20
9.999999806846602
 30
0.0
 40
1.399999999999999
  1
7
100
AcDbText
  0
TEXT
  5
236
330
18
100
AcDbEntity
  8
6
  6
Continuous
 48
0.25
100
AcDbText
 10
27.97951006424661
 20
9.999999806846602
 30
0.0
 40
1.399999999999999
  1
6
100
AcDbText
  0
TEXT
  5
237
330
18
100
AcDbEntity
  8
5
  6
PHANTOM
 48
0.3
100
AcDbText
 10
25.97951006424661
 20
9.999999806846602
 30
0.0
 40
1.399999999999999
  1
5
100
AcDbText
  0
TEXT
  5
238
330
18
100
AcDbEntity
  8
1
  6
Continuous
 48
0.25
100
AcDbText
 10
17.9795100642466
 20
9.999999806846602
 30
0.0
 40
1.399999999999999
  1
1
100
AcDbText
  0
TEXT
  5
239
330
18
100
AcDbEntity
  8
3
  6
DASHED
 48
0.25
100
AcDbText
 10
21.97951006424661
 20
9.999999806846602
 30
0.0
 40
1.399999999999999
  1
3
100
AcDbText
  0
TEXT
  5
23A
330
18
100
AcDbEntity
  8
2
  6
Continuous
 48
0.25
100
AcDbText
 10
19.9795100642466
 20
9.999999806846602
 30
0.0
 40
1.399999999999999
  1
2
100
AcDbText
  0
TEXT
  5
23B
330
18
100
AcDbEntity
  8
4
  6
CENTER
 48
0.5
100
AcDbText
 10
23.97951006424661
 20
9.999999806846602
 30
0.0
 40
1.399999999999999
  1
4
100
AcDbText
  0
ARC
  5
23C
330
18
100
AcDbEntity
  8
1
  6
Continuous
100
AcDbCircle
 10
52.7534432090456
 20
244.6589569045148
 30
0.0
 40
70.0
100
AcDbArc
 50
260.26348
 51
279.7365199999997
  0
ARC
  5
23D
330
18
100
AcDbEntity
  8
1
  6
Continuous
100
AcDbCircle
 10
41.25344320904559
 20
177.6384419045149
 30
0.0
 40
2.0
100
AcDbArc
 50
179.9999899999995
 51
260.26348
  0
ARC
  5
23E
330
18
100
AcDbEntity
  8
1
  6
Continuous
100
AcDbCircle
 10
64.2534432090456
 20
177.6384419045149
 30
0.0
 40
2.0
100
AcDbArc
 50
279.7365199999997
 51
0.0
  0
LINE
  5
23F
330
18
100
AcDbEntity
  8
1
  6
Continuous
100
AcDbLine
 10
72.75344720904559
 20
264.8196739045149
 30
0.0
 11
72.75344720904559
 21
215.5356809045148
 31
0.0
  0
LINE
  5
240
330
18
100
AcDbEntity
  8
1
  6
Continuous
100
AcDbLine
 10
34.7534432090456
 20
303.7233639045148
 30
0.0
 11
34.7534432090456
 21
225.6589569045148
 31
0.0
  0
LINE
  5
241
330
18
100
AcDbEntity
  8
1
  6
Continuous
100
AcDbLine
 10
70.75344320904559
 20
303.7233639045148
 30
0.0
 11
70.75344320904559
 21
215.5356809045148
 31
0.0
  0
LINE
  5
242
330
18
100
AcDbEntity
  8
1
  6
Continuous
100
AcDbLine
 10
36.7534432090456
 20
303.7763089045149
 30
0.0
 11
36.7534432090456
 21
225.6589569045148
 31
0.0
  0
LINE
  5
243
330
18
100
AcDbEntity
  8
1
  6
Continuous
100
AcDbLine
 10
36.7534432090456
 20
252.1589569045147
 30
0.0
 11
36.7534432090456
 21
237.1589569045148
 31
0.0
  0
LINE
  5
244
330
18
100
AcDbEntity
  8
1
  6
Continuous
100
AcDbLine
 10
68.75344320904559
 20
253.7175430045147
 30
0.0
 11
68.75344320904559
 21
225.6589569045148
 31
0.0
  0
ARC
  5
245
330
18
100
AcDbEntity
  8
1
  6
Continuous
100
AcDbCircle
 10
64.7534432090456
 20
249.1589569045148
 30
0.0
 40
3.0
100
AcDbArc
 50
0.0
 51
60.00000199999967
  0
LINE
  5
246
330
18
100
AcDbEntity
  8
1
  6
Continuous
100
AcDbLine
 10
36.7534432090456
 20
222.1589569045148
 30
0.0
 11
36.7534432090456
 21
225.6589569045148
 31
0.0
  0
LINE
  5
247
330
18
100
AcDbEntity
  8
1
  6
Continuous
100
AcDbLine
 10
39.2534432090456
 20
219.5251579045149
 30
0.0
 11
37.72328420904557
 21
220.4446699045149
 31
0.0
  0
ARC
  5
248
330
18
100
AcDbEntity
  8
1
  6
Continuous
100
AcDbCircle
 10
38.7534432090456
 20
222.1589569045148
 30
0.0
 40
2.0
100
AcDbArc
 50
180.0000499999996
 51
238.9972800000002
  0
LINE
  5
249
330
18
100
AcDbEntity
  8
1
  6
Continuous
100
AcDbLine
 10
30.75347420904563
 20
243.1589569045148
 30
0.0
 11
30.75347420904563
 21
231.1589569045148
 31
0.0
  0
ARC
  5
24A
330
18
100
AcDbEntity
  8
1
  6
Continuous
100
AcDbCircle
 10
33.25347420904563
 20
232.1589569045148
 30
0.0
 40
1.5
100
AcDbArc
 50
0.0000359721780749
 51
90.00001599999967
  0
ARC
  5
24B
330
18
100
AcDbEntity
  8
1
  6
Continuous
100
AcDbCircle
 10
33.25347420904563
 20
231.1589569045148
 30
0.0
 40
1.5
100
AcDbArc
 50
270.0000500000001
 51
0.0000359721780749
  0
ARC
  5
24C
330
18
100
AcDbEntity
  8
1
  6
Continuous
100
AcDbCircle
 10
33.25347420904563
 20
235.6589569045147
 30
0.0
 40
1.5
100
AcDbArc
 50
270.0000500000001
 51
0.0000359721780749
  0
ARC
  5
24D
330
18
100
AcDbEntity
  8
1
  6
Continuous
100
AcDbCircle
 10
32.25347420904562
 20
231.1589569045148
 30
0.0
 40
1.5
100
AcDbArc
 50
179.9999899999995
 51
270.0000299999997
  0
LINE
  5
24E
330
18
100
AcDbEntity
  8
1
  6
Continuous
100
AcDbLine
 10
32.25347420904562
 20
229.6589569045148
 30
0.0
 11
33.25347420904563
 21
229.6589569045148
 31
0.0
  0
LINE
  5
24F
330
18
100
AcDbEntity
  8
1
  6
Continuous
100
AcDbLine
 10
32.25347420904562
 20
234.1589569045148
 30
0.0
 11
33.25347420904563
 21
234.1589569045148
 31
0.0
  0
LINE
  5
250
330
18
100
AcDbEntity
  8
1
  6
Continuous
100
AcDbLine
 10
32.25347420904562
 20
233.6589569045148
 30
0.0
 11
33.25347420904563
 21
233.6589569045148
 31
0.0
  0
ARC
  5
251
330
18
100
AcDbEntity
  8
1
  6
Continuous
100
AcDbCircle
 10
32.25347420904562
 20
232.1589569045148
 30
0.0
 40
1.5
100
AcDbArc
 50
90.00001599999967
 51
180.0000100000002
  0
ARC
  5
252
330
18
100
AcDbEntity
  8
1
  6
Continuous
100
AcDbCircle
 10
32.25347420904562
 20
235.6589569045147
 30
0.0
 40
1.5
100
AcDbArc
 50
179.9999899999995
 51
270.0000299999997
  0
LINE
  5
253
330
18
100
AcDbEntity
  8
1
  6
Continuous
100
AcDbLine
 10
34.7534432090456
 20
225.6589569045148
 30
0.0
 11
36.7534432090456
 21
225.6589569045148
 31
0.0
  0
ARC
  5
254
330
18
100
AcDbEntity
  8
1
  6
Continuous
100
AcDbCircle
 10
33.25347420904563
 20
243.1589569045148
 30
0.0
 40
1.5
100
AcDbArc
 50
0.0000359721780749
 51
90.00001599999967
  0
ARC
  5
255
330
18
100
AcDbEntity
  8
1
  6
Continuous
100
AcDbCircle
 10
33.25347420904563
 20
238.6589569045148
 30
0.0
 40
1.5
100
AcDbArc
 50
0.0000359721780749
 51
90.00001599999967
  0
ARC
  5
256
330
18
100
AcDbEntity
  8
1
  6
Continuous
100
AcDbCircle
 10
33.25347420904563
 20
242.1589569045148
 30
0.0
 40
1.5
100
AcDbArc
 50
270.0000500000001
 51
0.0000359721780749
  0
ARC
  5
257
330
18
100
AcDbEntity
  8
1
  6
Continuous
100
AcDbCircle
 10
32.25347420904562
 20
243.1589569045148
 30
0.0
 40
1.5
100
AcDbArc
 50
90.00001599999967
 51
180.0000100000002
  0
LINE
  5
258
330
18
100
AcDbEntity
  8
1
  6
Continuous
100
AcDbLine
 10
32.25347420904562
 20
240.1589569045148
 30
0.0
 11
33.25347420904563
 21
240.1589569045148
 31
0.0
  0
LINE
  5
259
330
18
100
AcDbEntity
  8
1
  6
Continuous
100
AcDbLine
 10
32.25347420904562
 20
240.6589569045148
 30
0.0
 11
33.25347420904563
 21
240.6589569045148
 31
0.0
  0
ARC
  5
25A
330
18
100
AcDbEntity
  8
1
  6
Continuous
100
AcDbCircle
 10
32.25347420904562
 20
238.6589569045148
 30
0.0
 40
1.5
100
AcDbArc
 50
90.00001599999967
 51
180.0000100000002
  0
ARC
  5
25B
330
18
100
AcDbEntity
  8
1
  6
Continuous
100
AcDbCircle
 10
32.25347420904562
 20
242.1589569045148
 30
0.0
 40
1.5
100
AcDbArc
 50
179.9999899999995
 51
270.0000299999997
  0
LINE
  5
25C
330
18
100
AcDbEntity
  8
1
  6
Continuous
100
AcDbLine
 10
32.25347420904562
 20
244.6589569045148
 30
0.0
 11
33.25347420904563
 21
244.6589569045148
 31
0.0
  0
ARC
  5
25D
330
18
100
AcDbEntity
  8
1
  6
Continuous
100
AcDbCircle
 10
64.7534432090456
 20
225.1589569045147
 30
0.0
 40
3.0
100
AcDbArc
 50
299.9999999999999
 51
0.0
  0
LINE
  5
25E
330
18
100
AcDbEntity
  8
1
  6
Continuous
100
AcDbLine
 10
67.7534432090456
 20
225.5609969045149
 30
0.0
 11
68.14881220904561
 21
222.7675419045147
 31
0.0
  0
LINE
  5
25F
330
18
100
AcDbEntity
  8
1
  6
Continuous
100
AcDbLine
 10
70.75344320904559
 20
215.5356809045148
 30
0.0
 11
72.75344720904559
 21
215.5356809045148
 31
0.0
  0
ARC
  5
260
330
18
100
AcDbEntity
  8
1
  6
Continuous
100
AcDbCircle
 10
69.66867720904559
 20
219.0675439045148
 30
0.0
 40
4.0
100
AcDbArc
 50
90.00000300000015
 51
112.3316499999999
  0
LINE
  5
261
330
18
100
AcDbEntity
  8
1
  6
Continuous
100
AcDbLine
 10
69.66867720904559
 20
223.0675439045148
 30
0.0
 11
70.75344320904559
 21
223.0675439045148
 31
0.0
  0
ARC
  5
262
330
18
100
AcDbEntity
  8
1
  6
Continuous
100
AcDbCircle
 10
82.39648920904562
 20
231.9169949045149
 30
0.0
 40
10.0
100
AcDbArc
 50
140.4364199999996
 51
164.6451799999999
  0
LINE
  5
266
330
18
100
AcDbEntity
  8
1
  6
Continuous
100
AcDbLine
 10
67.7534432090456
 20
249.1589569045148
 30
0.0
 11
67.7534432090456
 21
225.1589569045147
 31
0.0
  0
ARC
  5
267
330
18
100
AcDbEntity
  8
1
  6
Continuous
100
AcDbCircle
 10
68.8733122090456
 20
224.6871799045148
 30
0.0
 40
4.0
100
AcDbArc
 50
91.71725499999977
 51
106.2582599999995
  0
LINE
  5
268
330
18
100
AcDbEntity
  8
1
  6
Continuous
100
AcDbLine
 10
68.75344320904559
 20
225.6589569045148
 30
0.0
 11
70.75344320904559
 21
225.6589569045148
 31
0.0
  0
ARC
  5
269
330
18
100
AcDbEntity
  8
1
  6
Continuous
100
AcDbCircle
 10
69.1733112090456
 20
222.5675419045149
 30
0.0
 40
4.0
100
AcDbArc
 50
96.02527399999992
 51
110.7914300000002
  0
LINE
  5
26A
330
18
100
AcDbEntity
  8
1
  6
Continuous
100
AcDbLine
 10
67.7534432090456
 20
233.1589569045148
 30
0.0
 11
68.75344320904559
 21
233.1589569045148
 31
0.0
  0
ARC
  5
26D
330
18
100
AcDbEntity
  8
1
  6
Continuous
100
AcDbCircle
 10
70.55345020904559
 20
233.0739499045149
 30
0.0
 40
5.0
100
AcDbArc
 50
296.1038800000001
 51
324.3601299999998
  0
ARC
  5
271
330
18
100
AcDbEntity
  8
1
  6
Continuous
100
AcDbCircle
 10
71.04102220904555
 20
237.2625717045149
 30
0.0
 40
5.0
100
AcDbArc
 50
290.02832
 51
304.8428400000001
  0
LINE
  5
272
330
18
100
AcDbEntity
  8
1
  6
Continuous
100
AcDbLine
 10
72.75344720904559
 20
233.1589609045148
 30
0.0
 11
75.25344720904559
 21
233.1589609045148
 31
0.0
  0
LINE
  5
274
330
18
100
AcDbEntity
  8
2
  6
Continuous
100
AcDbLine
 10
72.75344720904559
 20
233.7839609045147
 30
0.0
 11
75.25344720904559
 21
233.7839609045147
 31
0.0
  0
LINE
  5
276
330
18
100
AcDbEntity
  8
1
  6
Continuous
100
AcDbLine
 10
67.7534432090456
 20
241.1589569045148
 30
0.0
 11
68.75344320904559
 21
241.1589569045148
 31
0.0
  0
ARC
  5
279
330
18
100
AcDbEntity
  8
1
  6
Continuous
100
AcDbCircle
 10
173.8553262090456
 20
281.3028089045149
 30
0.0
 40
100.0
100
AcDbArc
 50
198.1914299999999
 51
202.4228500000001
  0
ARC
  5
27D
330
18
100
AcDbEntity
  8
1
  6
Continuous
100
AcDbCircle
 10
70.55345020904559
 20
241.2439712045148
 30
0.0
 40
5.0
100
AcDbArc
 50
35.08830400000011
 51
63.89611900000021
  0
ARC
  5
281
330
18
100
AcDbEntity
  8
1
  6
Continuous
100
AcDbCircle
 10
52.7534432090456
 20
229.6589569045148
 30
0.0
 40
70.0
100
AcDbArc
 50
80.26347899999986
 51
99.7365190000003
  0
ARC
  5
282
330
18
100
AcDbEntity
  8
1
  6
Continuous
100
AcDbCircle
 10
86.25331350904559
 20
281.8028279045147
 30
0.0
 40
59.0
100
AcDbArc
 50
179.87851
 51
209.2050599999999
  0
LINE
  5
283
330
18
100
AcDbEntity
  8
1
  6
Continuous
100
AcDbLine
 10
39.2534432090456
 20
254.7927536045149
 30
0.0
 11
37.72328420904557
 21
253.8732428045149
 31
0.0
  0
ARC
  5
284
330
18
100
AcDbEntity
  8
1
  6
Continuous
100
AcDbCircle
 10
38.7534432090456
 20
252.1589569045147
 30
0.0
 40
2.0
100
AcDbArc
 50
121.0027699999996
 51
180.0000100000002
  0
ARC
  5
285
330
18
100
AcDbEntity
  8
1
  6
Continuous
100
AcDbCircle
 10
41.25344320904559
 20
296.6794759045149
 30
0.0
 40
2.0
100
AcDbArc
 50
99.7365190000003
 51
180.0000100000002
  0
LINE
  5
286
330
18
100
AcDbEntity
  8
1
  6
Continuous
100
AcDbLine
 10
68.75344320904559
 20
303.7763089045149
 30
0.0
 11
68.75344320904559
 21
258.7594049045149
 31
0.0
  0
ARC
  5
287
330
18
100
AcDbEntity
  8
1
  6
Continuous
100
AcDbCircle
 10
19.25358020904558
 20
281.8028279045147
 30
0.0
 40
59.0
100
AcDbArc
 50
350.8892699999998
 51
0.1214969899998609
  0
LINE
  5
288
330
18
100
AcDbEntity
  8
1
  6
Continuous
100
AcDbLine
 10
66.35344120904561
 20
255.5094122045149
 30
0.0
 11
66.69881520904562
 21
258.5581589045149
 31
0.0
  0
LINE
  5
289
330
18
100
AcDbEntity
  8
1
  6
Continuous
100
AcDbLine
 10
66.69881520904562
 20
258.5581599045149
 30
0.0
 11
66.95344420904564
 21
256.8675439045148
 31
0.0
  0
ARC
  5
28A
330
18
100
AcDbEntity
  8
1
  6
Continuous
100
AcDbCircle
 10
67.9024412090456
 20
249.7175430045147
 30
0.0
 40
4.0
100
AcDbArc
 50
90.00000300000015
 51
108.1948800000002
  0
ARC
  5
28B
330
18
100
AcDbEntity
  8
1
  6
Continuous
100
AcDbCircle
 10
68.20244420904561
 20
253.0675434045148
 30
0.0
 40
4.0
100
AcDbArc
 50
90.00000300000015
 51
108.1948800000002
  0
LINE
  5
28C
330
18
100
AcDbEntity
  8
1
  6
Continuous
100
AcDbLine
 10
66.35344320904562
 20
255.5094026045149
 30
0.0
 11
66.65344320904558
 21
253.5175423045149
 31
0.0
  0
LINE
  5
28D
330
18
100
AcDbEntity
  8
1
  6
Continuous
100
AcDbLine
 10
66.65344320904558
 20
253.5175427045147
 30
0.0
 11
66.95344220904553
 21
256.8675449045148
 31
0.0
  0
LINE
  5
28E
330
18
100
AcDbEntity
  8
1
  6
Continuous
100
AcDbLine
 10
68.20244420904561
 20
257.0675439045148
 30
0.0
 11
70.75344320904559
 21
257.0675439045148
 31
0.0
  0
LINE
  5
28F
330
18
100
AcDbEntity
  8
1
  6
Continuous
100
AcDbLine
 10
67.9024412090456
 20
253.7175430045147
 30
0.0
 11
70.75344320904559
 21
253.7175430045147
 31
0.0
  0
ARC
  5
290
330
18
100
AcDbEntity
  8
1
  6
Continuous
100
AcDbCircle
 10
67.9024412090456
 20
255.0594047045149
 30
0.0
 40
3.7
100
AcDbArc
 50
90.00000300000015
 51
108.1948800000002
  0
LINE
  5
291
330
18
100
AcDbEntity
  8
1
  6
Continuous
100
AcDbLine
 10
67.9024412090456
 20
258.7594049045149
 30
0.0
 11
70.75344320904559
 21
258.7594049045149
 31
0.0
  0
ARC
  5
292
330
18
100
AcDbEntity
  8
1
  6
Continuous
100
AcDbCircle
 10
73.05344620904559
 20
267.0557389045149
 30
0.0
 40
1.0
100
AcDbArc
 50
130.0256699999998
 51
203.45623
  0
ARC
  5
293
330
18
100
AcDbEntity
  8
1
  6
Continuous
100
AcDbCircle
 10
74.25066820904561
 20
266.7968349045148
 30
0.0
 40
3.5
100
AcDbArc
 50
129.8425199999996
 51
180.0000100000002
  0
ARC
  5
294
330
18
100
AcDbEntity
  8
1
  6
Continuous
100
AcDbCircle
 10
70.75344720904559
 20
264.8196739045149
 30
0.0
 40
2.0
100
AcDbArc
 50
0.0
 51
23.45621999999984
  0
LINE
  5
295
330
18
100
AcDbEntity
  8
1
  6
Continuous
100
AcDbLine
 10
72.13608220904554
 20
266.6576919045148
 30
0.0
 11
72.58817520904563
 21
265.6157709045148
 31
0.0
  0
ARC
  5
296
330
18
100
AcDbEntity
  8
1
  6
Continuous
100
AcDbCircle
 10
64.2534432090456
 20
296.6794759045149
 30
0.0
 40
2.0
100
AcDbArc
 50
0.0
 51
80.26347899999986
  0
LINE
  5
297
330
18
100
AcDbEntity
  8
1
  6
Continuous
100
AcDbLine
 10
83.55344530904563
 20
250.0835251045149
 30
0.0
 11
92.57301873904559
 21
264.0391299045148
 31
0.0
  0
ARC
  5
298
330
18
100
AcDbEntity
  8
1
  6
Continuous
100
AcDbCircle
 10
90.05344240904561
 20
223.4094029045148
 30
0.0
 40
3.0
100
AcDbArc
 50
0.0
 51
35.50803299999977
  0
ARC
  5
299
330
18
100
AcDbEntity
  8
1
  6
Continuous
100
AcDbCircle
 10
173.8553262090456
 20
281.3028089045149
 30
0.0
 40
100.0
100
AcDbArc
 50
208.7461199999998
 51
215.5498000000001
  0
ARC
  5
29A
330
18
100
AcDbEntity
  8
1
  6
Continuous
100
AcDbCircle
 10
90.05344240904561
 20
221.4175439045149
 30
0.0
 40
3.0
100
AcDbArc
 50
311.6925299999998
 51
35.54980299999972
  0
LINE
  5
29B
330
18
100
AcDbEntity
  8
1
  6
Continuous
100
AcDbLine
 10
93.05344244904564
 20
223.4094029045148
 30
0.0
 11
93.05344244904564
 21
221.4175439045149
 31
0.0
  0
LINE
  5
29E
330
18
100
AcDbEntity
  8
1
  6
Continuous
100
AcDbLine
 10
86.12846180904558
 20
241.1589569045148
 30
0.0
 11
86.12846180904558
 21
233.1589609045148
 31
0.0
  0
LINE
  5
29F
330
18
100
AcDbEntity
  8
1
  6
Continuous
100
AcDbLine
 10
86.75346180904558
 20
240.5339569045148
 30
0.0
 11
86.75346180904558
 21
233.7839609045147
 31
0.0
  0
ARC
  5
2A0
330
18
100
AcDbEntity
  8
1
  6
Continuous
100
AcDbCircle
 10
173.8989512090456
 20
283.2335649045148
 30
0.0
 40
100.0
100
AcDbArc
 50
209.37184
 51
215.5080300000002
  0
LINE
  5
2A1
330
18
100
AcDbEntity
  8
1
  6
Continuous
100
AcDbLine
 10
86.75346130904562
 20
233.7839599045147
 30
0.0
 11
86.12846370904561
 21
233.1589619045149
 31
0.0
  0
LINE
  5
2A2
330
18
100
AcDbEntity
  8
2
  6
Continuous
100
AcDbLine
 10
82.65344610904563
 20
233.7839609045147
 30
0.0
 11
86.75346180904558
 21
233.7839609045147
 31
0.0
  0
LINE
  5
2A3
330
18
100
AcDbEntity
  8
1
  6
Continuous
100
AcDbLine
 10
82.65344610904561
 20
233.1589609045148
 30
0.0
 11
86.12846180904558
 21
233.1589609045148
 31
0.0
  0
LINE
  5
2A4
330
18
100
AcDbEntity
  8
1
  6
Continuous
100
AcDbLine
 10
86.75346280904554
 20
240.5339559045148
 30
0.0
 11
86.12846180904558
 21
241.1589564045149
 31
0.0
  0
LINE
  5
2A5
330
18
100
AcDbEntity
  8
2
  6
Continuous
100
AcDbLine
 10
82.65344610904563
 20
240.5339569045148
 30
0.0
 11
86.75346180904558
 21
240.5339569045148
 31
0.0
  0
LINE
  5
2A6
330
18
100
AcDbEntity
  8
1
  6
Continuous
100
AcDbLine
 10
82.65344610904561
 20
241.1589569045148
 30
0.0
 11
86.12846180904558
 21
241.1589569045148
 31
0.0
  0
ARC
  5
2A8
330
18
100
AcDbEntity
  8
1
  6
Continuous
100
AcDbCircle
 10
90.05344240904561
 20
267.3977759045149
 30
0.0
 40
3.0
100
AcDbArc
 50
0.0
 51
51.7023260000003
  0
LINE
  5
2A9
330
18
100
AcDbEntity
  8
1
  6
Continuous
100
AcDbLine
 10
93.05344244904564
 20
267.3977759045149
 30
0.0
 11
93.05344244904564
 21
265.6675439045149
 31
0.0
  0
ARC
  5
2AA
330
18
100
AcDbEntity
  8
1
  6
Continuous
100
AcDbCircle
 10
90.05344240904561
 20
265.6675439045149
 30
0.0
 40
3.0
100
AcDbArc
 50
327.1252199999999
 51
51.01943699999971
  0
LINE
  5
2AB
330
18
100
AcDbEntity
  8
1
  6
Continuous
100
AcDbLine
 10
221.5774164742914
 20
253.7175392045148
 30
0.0
 11
219.1774064742915
 21
249.560621404515
 31
0.0
  0
LINE
  5
2AC
330
18
100
AcDbEntity
  8
1
  6
Continuous
100
AcDbLine
 10
213.3750364742915
 20
252.9106277045149
 30
0.0
 11
219.1774064742915
 21
249.560621404515
 31
0.0
  0
ARC
  5
2AD
330
18
100
AcDbEntity
  8
1
  6
Continuous
100
AcDbCircle
 10
233.3110864742915
 20
270.3835239045149
 30
0.0
 40
20.29999899999999
100
AcDbArc
 50
239.9999999999999
 51
270.8700400000001
  0
ARC
  5
2AE
330
18
100
AcDbEntity
  8
1
  6
Continuous
100
AcDbCircle
 10
242.0891364742915
 20
294.6449069045148
 30
0.0
 40
57.0
100
AcDbArc
 50
220.9416699999997
 51
236.67204
  0
LINE
  5
2AF
330
18
100
AcDbEntity
  8
5
  6
PHANTOM
 48
0.3
100
AcDbLine
 10
181.0037664742915
 20
222.1384169045149
 30
0.0
 11
214.7444064742915
 21
237.8719314045149
 31
0.0
  0
LINE
  5
2B0
330
18
100
AcDbEntity
  8
5
  6
PHANTOM
 48
0.3
100
AcDbLine
 10
181.8490064742914
 20
220.3257949045148
 30
0.0
 11
215.5896364742914
 21
236.0593084045149
 31
0.0
  0
ARC
  5
2B1
330
18
100
AcDbEntity
  8
5
  6
PHANTOM
 48
0.3
100
AcDbCircle
 10
197.2438864742914
 20
226.8269179045148
 30
0.0
 40
8.0
100
AcDbArc
 50
207.4571899999997
 51
275.9416600000001
  0
ARC
  5
2B2
330
18
100
AcDbEntity
  8
5
  6
PHANTOM
 48
0.3
100
AcDbCircle
 10
189.2576964742914
 20
222.6771449045148
 30
0.0
 40
1.0
100
AcDbArc
 50
27.457183
 51
114.9999999999996
  0
LINE
  5
2B3
330
18
100
AcDbEntity
  8
5
  6
PHANTOM
 48
0.3
100
AcDbLine
 10
181.0037664742915
 20
222.1384169045149
 30
0.0
 11
181.8490064742914
 21
220.3257949045148
 31
0.0
  0
ARC
  5
2B4
330
18
100
AcDbEntity
  8
5
  6
PHANTOM
 48
0.3
100
AcDbCircle
 10
217.5523964742914
 20
240.0640243045149
 30
0.0
 40
18.0
100
AcDbArc
 50
256.0772
 51
295.0222799999999
  0
ARC
  5
2B5
330
18
100
AcDbEntity
  8
5
  6
PHANTOM
 48
0.3
100
AcDbCircle
 10
192.1716264742914
 20
275.5636809045148
 30
0.0
 40
57.0
100
AcDbArc
 50
275.94167
 51
291.6720399999995
  0
ARC
  5
2B6
330
18
100
AcDbEntity
  8
1
  6
Continuous
100
AcDbCircle
 10
227.5673464742915
 20
253.4924148045147
 30
0.0
 40
18.0
100
AcDbArc
 50
201.0771899999998
 51
240.0222799999995
  0
ARC
  5
2B7
330
18
100
AcDbEntity
  8
5
  6
PHANTOM
 48
0.3
100
AcDbCircle
 10
207.0104864742915
 20
254.4573616045147
 30
0.0
 40
18.29999899999998
100
AcDbArc
 50
294.9999999999996
 51
325.8700399999999
  0
ARC
  5
2B8
330
18
100
AcDbEntity
  8
5
  6
PHANTOM
 48
0.3
100
AcDbCircle
 10
207.0104864742915
 20
254.4573616045147
 30
0.0
 40
20.29999899999999
100
AcDbArc
 50
294.9999999999996
 51
325.8700399999999
  0
LINE
  5
2B9
330
18
100
AcDbEntity
  8
5
  6
PHANTOM
 48
0.3
100
AcDbLine
 10
209.8886064742914
 20
228.1046639045149
 30
0.0
 11
215.9608664742914
 21
230.9362039045148
 31
0.0
  0
LINE
  5
2BA
330
18
100
AcDbEntity
  8
5
  6
PHANTOM
 48
0.3
100
AcDbLine
 10
207.8600364742914
 20
232.4549359045148
 30
0.0
 11
209.8886064742914
 21
228.1046639045149
 31
0.0
  0
LINE
  5
2BB
330
18
100
AcDbEntity
  8
5
  6
PHANTOM
 48
0.3
100
AcDbLine
 10
213.9323064742915
 20
235.2864779045148
 30
0.0
 11
215.9608664742914
 21
230.9362039045148
 31
0.0
  0
LINE
  5
2BD
330
18
100
AcDbEntity
  8
5
  6
PHANTOM
 48
0.3
100
AcDbLine
 10
223.9187864742913
 20
236.4676193045148
 30
0.0
 11
226.9900714827086
 21
237.8997800571765
 31
0.0
  0
LINE
  5
2BE
330
18
100
AcDbEntity
  8
1
  6
Continuous
100
AcDbLine
 10
224.0229464742914
 20
238.8533548045149
 30
0.0
 11
226.9577264742915
 21
237.1589566023776
 31
0.0
  0
ARC
  5
2BF
330
18
100
AcDbEntity
  8
5
  6
PHANTOM
 48
0.3
100
AcDbCircle
 10
225.7149264742915
 20
232.6158129045147
 30
0.0
 40
4.25
100
AcDbArc
 50
114.9999999999996
 51
294.9999999999996
  0
LINE
  5
2C0
330
18
100
AcDbEntity
  8
5
  6
PHANTOM
 48
0.3
100
AcDbLine
 10
227.5110364742915
 20
228.7639969045148
 30
0.0
 11
230.582331372675
 21
230.1961613019473
 31
0.0
  0
ARC
  5
2C1
330
18
100
AcDbEntity
  8
1
  6
Continuous
100
AcDbCircle
 10
226.1479464742914
 20
242.5339569045148
 30
0.0
 40
4.25
100
AcDbArc
 50
60.00000199999967
 51
240.0000100000004
  0
LINE
  5
2C3
330
18
100
AcDbEntity
  8
1
  6
Continuous
100
AcDbLine
 10
228.2729464742914
 20
246.2145706045149
 30
0.0
 11
231.2077260981729
 21
244.5201726195301
 31
0.0
  0
ARC
  5
2C4
330
18
100
AcDbEntity
  8
1
  6
Continuous
100
AcDbCircle
 10
197.0956664742914
 20
266.6973819045149
 30
0.0
 40
1.0
100
AcDbArc
 50
332.4571800000001
 51
60.00000199999967
  0
ARC
  5
2C5
330
18
100
AcDbEntity
  8
1
  6
Continuous
100
AcDbCircle
 10
205.0756664742915
 20
262.535680904515
 30
0.0
 40
8.0
100
AcDbArc
 50
152.45719
 51
220.9416599999998
  0
LINE
  5
2C6
330
18
100
AcDbEntity
  8
1
  6
Continuous
100
AcDbLine
 10
191.9201164742915
 20
273.1495919045148
 30
0.0
 11
224.1610764742914
 21
254.5352606045148
 31
0.0
  0
LINE
  5
2C7
330
18
100
AcDbEntity
  8
1
  6
Continuous
100
AcDbLine
 10
190.9201164742914
 20
271.4175399045149
 30
0.0
 11
223.1610764742915
 21
252.8032097045147
 31
0.0
  0
LINE
  5
2C8
330
18
100
AcDbEntity
  8
1
  6
Continuous
100
AcDbLine
 10
191.9201164742915
 20
273.1495919045148
 30
0.0
 11
190.9201164742914
 21
271.4175399045149
 31
0.0
  0
ARC
  5
2C9
330
18
100
AcDbEntity
  8
1
  6
Continuous
100
AcDbCircle
 10
235.4577264742915
 20
237.1589569045148
 30
0.0
 40
44.5
100
AcDbArc
 50
102.2441399999999
 51
137.8052100000001
  0
ARC
  5
2CA
330
18
100
AcDbEntity
  8
1
  6
Continuous
100
AcDbCircle
 10
235.4577264742915
 20
237.1589569045148
 30
0.0
 40
31.5
100
AcDbArc
 50
108.6798699999997
 51
132.6377099999999
  0
LINE
  5
2CB
330
18
100
AcDbEntity
  8
1
  6
Continuous
100
AcDbLine
 10
215.7750364742915
 20
257.0675449045148
 30
0.0
 11
213.3750364742915
 21
252.9106277045149
 31
0.0
  0
ARC
  5
2CC
330
18
100
AcDbEntity
  8
1
  6
Continuous
100
AcDbCircle
 10
233.3110864742915
 20
270.3835239045149
 30
0.0
 40
18.29999899999998
100
AcDbArc
 50
239.9999999999999
 51
270.8700400000001
  0
LINE
  5
2CD
330
18
100
AcDbEntity
  8
1
  6
Continuous
100
AcDbLine
 10
31.25344320904559
 20
314.2589549045148
 30
0.0
 11
74.25344320904558
 21
314.2589549045148
 31
0.0
  0
ARC
  5
2D1
330
18
100
AcDbEntity
  8
1
  6
Continuous
100
AcDbCircle
 10
52.7534432090456
 20
702.7947269045149
 30
0.0
 40
398.81937
100
AcDbArc
 50
267.7754499999997
 51
272.2245599999995
  0
ARC
  5
2D2
330
18
100
AcDbEntity
  8
1
  6
Continuous
100
AcDbCircle
 10
52.7534432090456
 20
735.1034469045149
 30
0.0
 40
429.1584799999998
100
AcDbArc
 50
267.9421799999995
 51
272.0578200000003
  0
ARC
  5
2D3
330
18
100
AcDbEntity
  8
1
  6
Continuous
100
AcDbCircle
 10
52.7534432090456
 20
435.7242769045148
 30
0.0
 40
125.2653199999999
100
AcDbArc
 50
262.6616299999998
 51
277.3383700000001
  0
LINE
  5
2D4
330
18
100
AcDbEntity
  8
1
  6
Continuous
100
AcDbLine
 10
23.75344320904559
 20
322.6589569045148
 30
0.0
 11
23.75344320904559
 21
320.6589569045148
 31
0.0
  0
LINE
  5
2D5
330
18
100
AcDbEntity
  8
4
  6
CENTER
 48
0.5
100
AcDbLine
 10
32.7534432090456
 20
325.6589569045148
 30
0.0
 11
32.7534432090456
 21
317.6589569045148
 31
0.0
  0
LINE
  5
2D6
330
18
100
AcDbEntity
  8
1
  6
Continuous
100
AcDbLine
 10
27.27897920904557
 20
316.8180069045149
 30
0.0
 11
25.44832820904559
 21
320.3871449045148
 31
0.0
  0
ARC
  5
2D7
330
18
100
AcDbEntity
  8
1
  6
Continuous
100
AcDbCircle
 10
35.73153120904561
 20
316.1369539045149
 30
0.0
 40
2.778000099999998
100
AcDbArc
 50
194.12632
 51
222.5338600000001
  0
ARC
  5
2D8
330
18
100
AcDbEntity
  8
1
  6
Continuous
100
AcDbCircle
 10
31.25344320904559
 20
311.2589549045149
 30
0.0
 40
3.0
100
AcDbArc
 50
90.00000300000015
 51
178.0507199999998
  0
ARC
  5
2D9
330
18
100
AcDbEntity
  8
1
  6
Continuous
100
AcDbCircle
 10
29.5034432090456
 20
317.9589599045148
 30
0.0
 40
2.5
100
AcDbArc
 50
207.15371
 51
270.0
  0
ARC
  5
2DA
330
18
100
AcDbEntity
  8
1
  6
Continuous
100
AcDbCircle
 10
34.7575172090456
 20
316.1369539045149
 30
0.0
 40
2.778000099999998
100
AcDbArc
 50
194.12632
 51
222.5338600000001
  0
ARC
  5
2DB
330
18
100
AcDbEntity
  8
1
  6
Continuous
100
AcDbCircle
 10
38.32732620904561
 20
316.1369539045149
 30
0.0
 40
2.778000099999998
100
AcDbArc
 50
194.12632
 51
222.5338600000001
  0
ARC
  5
2DC
330
18
100
AcDbEntity
  8
1
  6
Continuous
100
AcDbCircle
 10
42.2975712090456
 20
316.1369539045149
 30
0.0
 40
2.778000099999998
100
AcDbArc
 50
194.12632
 51
222.5338600000001
  0
ARC
  5
2DD
330
18
100
AcDbEntity
  8
1
  6
Continuous
100
AcDbCircle
 10
25.00344320904559
 20
320.1589569045148
 30
0.0
 40
0.5
100
AcDbArc
 50
27.15370899999993
 51
90.00000300000015
  0
LINE
  5
2DE
330
18
100
AcDbEntity
  8
1
  6
Continuous
100
AcDbLine
 10
76.00344320904558
 20
315.4589599045148
 30
0.0
 11
29.5034432090456
 21
315.4589599045148
 31
0.0
  0
LINE
  5
2DF
330
18
100
AcDbEntity
  8
1
  6
Continuous
100
AcDbLine
 10
81.75344320904558
 20
322.6589569045148
 30
0.0
 11
23.75344320904559
 21
322.6589569045148
 31
0.0
  0
LINE
  5
2E0
330
18
100
AcDbEntity
  8
1
  6
Continuous
100
AcDbLine
 10
81.75344320904558
 20
320.6589569045148
 30
0.0
 11
23.75344320904559
 21
320.6589569045148
 31
0.0
  0
ARC
  5
2E1
330
18
100
AcDbEntity
  8
1
  6
Continuous
100
AcDbCircle
 10
42.2975712090456
 20
316.1369539045149
 30
0.0
 40
2.778000099999998
100
AcDbArc
 50
317.4661300000002
 51
333.3657600000002
  0
ARC
  5
2E2
330
18
100
AcDbEntity
  8
1
  6
Continuous
100
AcDbCircle
 10
47.2640022090456
 20
316.1369539045149
 30
0.0
 40
2.778000099999998
100
AcDbArc
 50
194.12632
 51
222.5338600000001
  0
ARC
  5
2E3
330
18
100
AcDbEntity
  8
1
  6
Continuous
100
AcDbCircle
 10
52.7534432090456
 20
316.1369539045149
 30
0.0
 40
2.778000099999998
100
AcDbArc
 50
194.12632
 51
222.5338600000001
  0
ARC
  5
2E4
330
18
100
AcDbEntity
  8
1
  6
Continuous
100
AcDbCircle
 10
47.2640022090456
 20
316.1369539045149
 30
0.0
 40
2.778000099999998
100
AcDbArc
 50
317.4661300000002
 51
345.87368
  0
ARC
  5
2E5
330
18
100
AcDbEntity
  8
1
  6
Continuous
100
AcDbCircle
 10
52.7534432090456
 20
316.1369539045149
 30
0.0
 40
2.778000099999998
100
AcDbArc
 50
317.4661300000002
 51
345.87368
  0
ARC
  5
2E6
330
18
100
AcDbEntity
  8
1
  6
Continuous
100
AcDbCircle
 10
58.2428842090456
 20
316.1369539045149
 30
0.0
 40
2.778000099999998
100
AcDbArc
 50
194.12632
 51
222.5338600000001
  0
ARC
  5
2E7
330
18
100
AcDbEntity
  8
1
  6
Continuous
100
AcDbCircle
 10
58.2428842090456
 20
316.1369539045149
 30
0.0
 40
2.778000099999998
100
AcDbArc
 50
317.4661300000002
 51
345.87368
  0
ARC
  5
2E8
330
18
100
AcDbEntity
  8
1
  6
Continuous
100
AcDbCircle
 10
63.2093152090456
 20
316.1369539045149
 30
0.0
 40
2.778000099999998
100
AcDbArc
 50
206.6342499999995
 51
222.5338600000001
  0
LINE
  5
2E9
330
18
100
AcDbEntity
  8
1
  6
Continuous
100
AcDbLine
 10
78.22790420904564
 20
316.8180069045149
 30
0.0
 11
80.05854720904563
 21
320.3871449045148
 31
0.0
  0
LINE
  5
2EA
330
18
100
AcDbEntity
  8
4
  6
CENTER
 48
0.5
100
AcDbLine
 10
72.75344320904558
 20
325.6589569045148
 30
0.0
 11
72.75344320904558
 21
317.6589569045148
 31
0.0
  0
ARC
  5
2EB
330
18
100
AcDbEntity
  8
1
  6
Continuous
100
AcDbCircle
 10
69.77535520904552
 20
316.1369539045149
 30
0.0
 40
2.778000099999998
100
AcDbArc
 50
317.4661300000002
 51
345.87368
  0
ARC
  5
2EC
330
18
100
AcDbEntity
  8
1
  6
Continuous
100
AcDbCircle
 10
63.2093152090456
 20
316.1369539045149
 30
0.0
 40
2.778000099999998
100
AcDbArc
 50
317.4661300000002
 51
345.87368
  0
ARC
  5
2ED
330
18
100
AcDbEntity
  8
1
  6
Continuous
100
AcDbCircle
 10
67.17956020904558
 20
316.1369539045149
 30
0.0
 40
2.778000099999998
100
AcDbArc
 50
317.4661300000002
 51
345.87368
  0
ARC
  5
2EE
330
18
100
AcDbEntity
  8
1
  6
Continuous
100
AcDbCircle
 10
74.25344320904558
 20
311.2589549045149
 30
0.0
 40
3.0
100
AcDbArc
 50
1.949273900000191
 51
89.99999600000005
  0
ARC
  5
2EF
330
18
100
AcDbEntity
  8
1
  6
Continuous
100
AcDbCircle
 10
76.00344320904558
 20
317.9589599045148
 30
0.0
 40
2.5
100
AcDbArc
 50
270.0
 51
332.84629
  0
ARC
  5
2F0
330
18
100
AcDbEntity
  8
1
  6
Continuous
100
AcDbCircle
 10
70.74936920904559
 20
316.1369539045149
 30
0.0
 40
2.778000099999998
100
AcDbArc
 50
317.4661300000002
 51
345.87368
  0
LINE
  5
2F1
330
18
100
AcDbEntity
  8
1
  6
Continuous
100
AcDbLine
 10
81.75344320904558
 20
322.6589569045148
 30
0.0
 11
81.75344320904558
 21
320.6589569045148
 31
0.0
  0
ARC
  5
2F2
330
18
100
AcDbEntity
  8
1
  6
Continuous
100
AcDbCircle
 10
80.50344320904558
 20
320.1589569045148
 30
0.0
 40
0.5
100
AcDbArc
 50
90.00000300000015
 51
152.8462899999999
  0
LINE
  5
2F3
330
18
100
AcDbEntity
  8
4
  6
CENTER
 48
0.5
100
AcDbLine
 10
235.4577264742915
 20
461.4363120214115
 30
0.0
 11
235.4577264742915
 21
388.9316423611367
 31
0.0
  0
LINE
  5
2F4
330
18
100
AcDbEntity
  8
1
  6
Continuous
100
AcDbLine
 10
223.9577264742914
 20
411.4363120214115
 30
0.0
 11
223.9577264742914
 21
409.4363120214116
 31
0.0
  0
LINE
  5
2F5
330
18
100
AcDbEntity
  8
1
  6
Continuous
100
AcDbLine
 10
221.5773966195007
 20
412.1936119799423
 30
0.0
 11
221.5773966195007
 21
406.3426319799423
 31
0.0
  0
LINE
  5
2F6
330
18
100
AcDbEntity
  8
1
  6
Continuous
100
AcDbLine
 10
215.7750286195005
 20
412.1936119799423
 30
0.0
 11
215.7750286195005
 21
406.3426319799423
 31
0.0
  0
LINE
  5
2F7
330
18
100
AcDbEntity
  8
1
  6
Continuous
100
AcDbLine
 10
214.6250346195005
 20
411.8936219799421
 30
0.0
 11
214.6250346195005
 21
409.3426319799423
 31
0.0
  0
ARC
  5
2F8
330
18
100
AcDbEntity
  8
1
  6
Continuous
100
AcDbCircle
 10
141.9910664742914
 20
427.4363120214117
 30
0.0
 40
85.0
100
AcDbArc
 50
346.5596799999998
 51
13.44032100000005
  0
LINE
  5
2F9
330
18
100
AcDbEntity
  8
4
  6
CENTER
 48
0.3
100
AcDbLine
 10
233.4577264742915
 20
398.0363119214116
 30
0.0
 11
233.4577264742915
 21
416.8363121214116
 31
0.0
  0
LINE
  5
2FA
330
18
100
AcDbEntity
  8
4
  6
CENTER
 48
0.5
100
AcDbLine
 10
233.4577264742915
 20
325.6589569045148
 30
0.0
 11
233.4577264742915
 21
317.5575089045148
 31
0.0
  0
ARC
  5
2FB
330
18
100
AcDbEntity
  8
1
  6
Continuous
100
AcDbCircle
 10
225.6677164742915
 20
304.7233639045149
 30
0.0
 40
1.5
100
AcDbArc
 50
357.2674000000002
 51
100.0000000000001
  0
LINE
  5
2FC
330
18
100
AcDbEntity
  8
1
  6
Continuous
100
AcDbLine
 10
223.9577264742914
 20
305.9449869045149
 30
0.0
 11
224.3050364742914
 21
303.9753709045148
 31
0.0
  0
LINE
  5
2FD
330
18
100
AcDbEntity
  8
1
  6
Continuous
100
AcDbLine
 10
224.3050364742914
 20
303.9753709045148
 30
0.0
 11
225.9255564742914
 21
304.2611179045148
 31
0.0
  0
LINE
  5
2FE
330
18
100
AcDbEntity
  8
1
  6
Continuous
100
AcDbLine
 10
224.4577264742914
 20
322.6589569045148
 30
0.0
 11
224.4577264742914
 21
320.6589569045148
 31
0.0
  0
ARC
  5
2FF
330
18
100
AcDbEntity
  8
1
  6
Continuous
100
AcDbCircle
 10
197.2161778681679
 20
409.3138371048172
 30
0.0
 40
0.9560658195121892
100
AcDbArc
 50
293.3862259919734
 51
7.359986684940757
  0
LINE
  5
300
330
18
100
AcDbEntity
  8
1
  6
Continuous
100
AcDbLine
 10
214.6250346195005
 20
409.4363120214118
 30
0.0
 11
197.076957193171
 21
409.4363120214118
 31
0.0
  0
ARC
  5
301
330
18
100
AcDbEntity
  8
1
  6
Continuous
100
AcDbCircle
 10
203.7057005890535
 20
398.5888121797788
 30
0.0
 40
11.58903664606882
100
AcDbArc
 50
121.818175302336
 51
278.8037081519961
  0
ARC
  5
302
330
18
100
AcDbEntity
  8
1
  6
Continuous
100
AcDbCircle
 10
202.3027077331422
 20
398.2263098504366
 30
0.0
 40
11.24279244798308
100
AcDbArc
 50
114.7507674220791
 51
274.2234856986239
  0
ARC
  5
303
330
18
100
AcDbEntity
  8
5
  6
PHANTOM
 48
0.3
100
AcDbCircle
 10
192.060582218991
 20
398.2263098504366
 30
0.0
 40
11.24279244798308
100
AcDbArc
 50
114.7507674220791
 51
274.2234856986239
  0
LINE
  5
304
330
18
100
AcDbEntity
  8
1
  6
Continuous
100
AcDbLine
 10
197.076957193171
 20
409.4363120214118
 30
0.0
 11
197.076957193171
 21
408.1808019681901
 31
0.0
  0
LINE
  5
305
330
18
100
AcDbEntity
  8
1
  6
Continuous
100
AcDbLine
 10
215.2878146292105
 20
390.7492277999669
 30
0.0
 11
228.1004494933518
 21
398.2767120214116
 31
0.0
  0
ARC
  5
306
330
18
100
AcDbEntity
  8
1
  6
Continuous
100
AcDbCircle
 10
198.4150905983625
 20
421.4351333756396
 30
0.0
 40
35.01876093210995
100
AcDbArc
 50
281.6381012444281
 51
298.8043080106266
  0
LINE
  5
307
330
18
100
AcDbEntity
  8
1
  6
Continuous
100
AcDbLine
 10
214.6250346195005
 20
409.3426419799421
 30
0.0
 11
215.7750356195005
 21
406.3426419799419
 31
0.0
  0
ARC
  5
30A
330
18
100
AcDbEntity
  8
1
  6
Continuous
100
AcDbCircle
 10
231.9577264742914
 20
405.9363120214116
 30
0.0
 40
7.5
100
AcDbArc
 50
166.55968
 51
269.9999499999996
  0
LINE
  5
30B
330
18
100
AcDbEntity
  8
1
  6
Continuous
100
AcDbLine
 10
232.0827304742915
 20
393.4363249214118
 30
0.0
 11
231.4577284742914
 21
394.0613259214118
 31
0.0
  0
LINE
  5
30C
330
18
100
AcDbEntity
  8
1
  6
Continuous
100
AcDbLine
 10
231.4577284742914
 20
397.5363244214119
 30
0.0
 11
231.4577284742914
 21
394.0613244214118
 31
0.0
  0
LINE
  5
30D
330
18
100
AcDbEntity
  8
2
  6
Continuous
100
AcDbLine
 10
232.0827284742914
 20
397.5363244214119
 30
0.0
 11
232.0827284742914
 21
393.4363244214118
 31
0.0
  0
LINE
  5
30E
330
18
100
AcDbEntity
  8
1
  6
Continuous
100
AcDbLine
 10
226.1650621296639
 20
401.1723808936053
 30
0.0
 11
226.1650621296639
 21
398.7078559997781
 31
0.0
  0
LINE
  5
30F
330
18
100
AcDbEntity
  8
1
  6
Continuous
100
AcDbLine
 10
225.0633241780521
 20
409.4363120214116
 30
0.0
 11
221.6427090394204
 21
409.4363120214116
 31
0.0
  0
ARC
  5
312
330
18
100
AcDbEntity
  8
1
  6
Continuous
100
AcDbCircle
 10
239.0619262330587
 20
375.3760841955996
 30
0.0
 40
25.38883075550141
100
AcDbArc
 50
112.2689844200436
 51
115.5782932625051
  0
LINE
  5
314
330
18
100
AcDbEntity
  8
1
  6
Continuous
100
AcDbLine
 10
225.9121664742913
 20
413.9363120214116
 30
0.0
 11
175.9372064742914
 21
413.9363120214116
 31
0.0
  0
LINE
  5
315
330
18
100
AcDbEntity
  8
1
  6
Continuous
100
AcDbLine
 10
225.9121664742913
 20
440.9363120214115
 30
0.0
 11
175.9372064742914
 21
440.9363120214115
 31
0.0
  0
ARC
  5
316
330
18
100
AcDbEntity
  8
1
  6
Continuous
100
AcDbCircle
 10
242.9577264742914
 20
427.4363120214117
 30
0.0
 40
70.0
100
AcDbArc
 50
170.2634699999997
 51
189.7365199999996
  0
ARC
  5
317
330
18
100
AcDbEntity
  8
1
  6
Continuous
100
AcDbCircle
 10
175.9372064742914
 20
415.9363120214115
 30
0.0
 40
2.0
100
AcDbArc
 50
189.7365299999998
 51
270.0
  0
ARC
  5
318
330
18
100
AcDbEntity
  8
1
  6
Continuous
100
AcDbCircle
 10
175.9372064742914
 20
438.9363120214116
 30
0.0
 40
2.0
100
AcDbArc
 50
89.99999600000005
 51
170.2634699999997
  0
LINE
  5
319
330
18
100
AcDbEntity
  8
1
  6
Continuous
100
AcDbLine
 10
221.3773846195005
 20
413.4426319799423
 30
0.0
 11
215.5750466195005
 21
413.4426319799423
 31
0.0
  0
ARC
  5
31A
330
18
100
AcDbEntity
  8
1
  6
Continuous
100
AcDbCircle
 10
210.6250346195005
 20
411.8936219799421
 30
0.0
 40
4.0
100
AcDbArc
 50
0.0000030000001391
 51
18.19487900000017
  0
ARC
  5
31B
330
18
100
AcDbEntity
  8
1
  6
Continuous
100
AcDbCircle
 10
211.7750286195005
 20
412.1936119799423
 30
0.0
 40
4.0
100
AcDbArc
 50
0.0000030000001391
 51
18.19487900000017
  0
LINE
  5
31C
330
18
100
AcDbEntity
  8
1
  6
Continuous
100
AcDbLine
 10
215.5750236195005
 20
413.4426219799423
 30
0.0
 11
214.4250296195005
 21
413.1426119799423
 31
0.0
  0
ARC
  5
31D
330
18
100
AcDbEntity
  8
1
  6
Continuous
100
AcDbCircle
 10
223.4577264742914
 20
415.4363120214116
 30
0.0
 40
3.0
100
AcDbArc
 50
210.0
 51
270.0
  0
ARC
  5
31E
330
18
100
AcDbEntity
  8
1
  6
Continuous
100
AcDbCircle
 10
217.5773966195007
 20
412.1936119799423
 30
0.0
 40
4.0
100
AcDbArc
 50
0.0000030000001391
 51
18.19487900000017
  0
LINE
  5
31F
330
18
100
AcDbEntity
  8
1
  6
Continuous
100
AcDbLine
 10
225.6570664742914
 20
412.4363120214115
 30
0.0
 11
223.4577264742914
 21
412.4363120214115
 31
0.0
  0
LINE
  5
320
330
18
100
AcDbEntity
  8
1
  6
Continuous
100
AcDbLine
 10
225.4715964742914
 20
411.4363120214115
 30
0.0
 11
223.9577264742914
 21
411.4363120214115
 31
0.0
  0
LINE
  5
321
330
18
100
AcDbEntity
  8
4
  6
CENTER
 48
0.3
100
AcDbLine
 10
233.4577264742915
 20
456.8363121214115
 30
0.0
 11
233.4577264742915
 21
438.0363119214115
 31
0.0
  0
ARC
  5
322
330
18
100
AcDbEntity
  8
1
  6
Continuous
100
AcDbCircle
 10
231.9577264742914
 20
448.9363120214115
 30
0.0
 40
7.5
100
AcDbArc
 50
89.99998199999998
 51
193.4402899999998
  0
LINE
  5
323
330
18
100
AcDbEntity
  8
1
  6
Continuous
100
AcDbLine
 10
223.9577264742914
 20
445.4363120214115
 30
0.0
 11
223.9577264742914
 21
443.4363120214116
 31
0.0
  0
LINE
  5
324
330
18
100
AcDbEntity
  8
1
  6
Continuous
100
AcDbLine
 10
220.4577264742915
 20
443.4363120214116
 30
0.0
 11
223.9577264742914
 21
443.4363120214116
 31
0.0
  0
LINE
  5
325
330
18
100
AcDbEntity
  8
1
  6
Continuous
100
AcDbLine
 10
217.8239364742915
 20
440.9363220214117
 30
0.0
 11
218.7434464742914
 21
442.4664720214116
 31
0.0
  0
ARC
  5
326
330
18
100
AcDbEntity
  8
1
  6
Continuous
100
AcDbCircle
 10
220.4577264742915
 20
441.4363120214115
 30
0.0
 40
2.0
100
AcDbArc
 50
90.00005000000014
 51
148.9972800000001
  0
LINE
  5
327
330
18
100
AcDbEntity
  8
1
  6
Continuous
100
AcDbLine
 10
225.4715964742914
 20
443.4363120214116
 30
0.0
 11
223.9577264742914
 21
443.4363120214116
 31
0.0
  0
LINE
  5
328
330
18
100
AcDbEntity
  8
1
  6
Continuous
100
AcDbLine
 10
225.0633164742914
 20
445.4363120214115
 30
0.0
 11
223.9577264742914
 21
445.4363120214115
 31
0.0
  0
ARC
  5
329
330
18
100
AcDbEntity
  8
1
  6
Continuous
100
AcDbCircle
 10
289.9577264742914
 20
298.8589579045149
 30
0.0
 40
5.0
100
AcDbArc
 50
90.00000300000015
 51
150.10768
  0
LINE
  5
32A
330
18
100
AcDbEntity
  8
4
  6
CENTER
 48
0.5
100
AcDbLine
 10
274.4577264742914
 20
327.6589569045148
 30
0.0
 11
274.4577264742914
 21
268.3922869045149
 31
0.0
  0
LINE
  5
32B
330
18
100
AcDbEntity
  8
1
  6
Continuous
100
AcDbLine
 10
257.8369564742914
 20
311.4849919045148
 30
0.0
 11
257.8369564742914
 21
261.3489559045149
 31
0.0
  0
ARC
  5
32C
330
18
100
AcDbEntity
  8
1
  6
Continuous
100
AcDbCircle
 10
235.4577264742915
 20
237.1589569045148
 30
0.0
 40
44.5
100
AcDbArc
 50
342.1947900000001
 51
45.13095000000015
  0
ARC
  5
32D
330
18
100
AcDbEntity
  8
5
  6
PHANTOM
 48
0.3
100
AcDbCircle
 10
240.4919064742914
 20
270.0700019045149
 30
0.0
 40
20.29999899999999
100
AcDbArc
 50
264.1299599999995
 51
294.9999999999996
  0
LINE
  5
32E
330
18
100
AcDbEntity
  8
1
  6
Continuous
100
AcDbLine
 10
250.7936064742914
 20
240.7619828045148
 30
0.0
 11
285.6229064742913
 21
301.3508169045148
 31
0.0
  0
ARC
  5
32F
330
18
100
AcDbEntity
  8
1
  6
Continuous
100
AcDbCircle
 10
235.4577264742915
 20
237.1589569045148
 30
0.0
 40
31.5
100
AcDbArc
 50
347.3622899999999
 51
38.69521800000028
  0
ARC
  5
330
330
18
100
AcDbEntity
  8
5
  6
PHANTOM
 48
0.3
100
AcDbCircle
 10
233.8617764742914
 20
295.0041219045148
 30
0.0
 40
57.0
100
AcDbArc
 50
298.3279500000003
 51
314.0583299999998
  0
ARC
  5
331
330
18
100
AcDbEntity
  8
1
  6
Continuous
100
AcDbCircle
 10
272.6256464742915
 20
223.5356809045149
 30
0.0
 40
8.0
100
AcDbArc
 50
259.0583299999999
 51
327.5428099999998
  0
LINE
  5
332
330
18
100
AcDbEntity
  8
1
  6
Continuous
100
AcDbLine
 10
256.1543664742915
 20
236.0639242045149
 30
0.0
 11
288.4819464742913
 21
217.3995859045148
 31
0.0
  0
LINE
  5
333
330
18
100
AcDbEntity
  8
1
  6
Continuous
100
AcDbLine
 10
255.1543664742915
 20
234.3318729045147
 30
0.0
 11
287.4819464742913
 21
215.6675359045149
 31
0.0
  0
LINE
  5
334
330
18
100
AcDbEntity
  8
1
  6
Continuous
100
AcDbLine
 10
266.7856064742914
 20
222.4204299045148
 30
0.0
 11
268.6025964742914
 21
226.5675399045147
 31
0.0
  0
ARC
  5
335
330
18
100
AcDbEntity
  8
1
  6
Continuous
100
AcDbCircle
 10
253.5481064742914
 20
238.4924148045147
 30
0.0
 40
18.0
100
AcDbArc
 50
239.9777200000002
 51
278.9228099999995
  0
ARC
  5
336
330
18
100
AcDbEntity
  8
1
  6
Continuous
100
AcDbCircle
 10
281.9263064742914
 20
271.6449069045148
 30
0.0
 40
57.0
100
AcDbArc
 50
243.3279499999998
 51
259.0583299999999
  0
LINE
  5
337
330
18
100
AcDbEntity
  8
1
  6
Continuous
100
AcDbLine
 10
266.7855964742914
 20
222.4204319045147
 30
0.0
 11
273.4477764742915
 21
219.9596619045148
 31
0.0
  0
LINE
  5
338
330
18
100
AcDbEntity
  8
1
  6
Continuous
100
AcDbLine
 10
273.4477764742915
 20
219.9596639045148
 30
0.0
 11
274.6647564742914
 21
223.0675489045148
 31
0.0
  0
ARC
  5
339
330
18
100
AcDbEntity
  8
1
  6
Continuous
100
AcDbCircle
 10
265.3043764742914
 20
251.9121956045148
 30
0.0
 40
18.29999899999998
100
AcDbArc
 50
209.1299599999999
 51
239.9999999999999
  0
ARC
  5
33A
330
18
100
AcDbEntity
  8
5
  6
PHANTOM
 48
0.3
100
AcDbCircle
 10
244.7416364742914
 20
252.7425712045149
 30
0.0
 40
18.0
100
AcDbArc
 50
294.9777199999997
 51
333.9228099999997
  0
ARC
  5
33B
330
18
100
AcDbEntity
  8
1
  6
Continuous
100
AcDbCircle
 10
265.3043764742914
 20
251.9121956045148
 30
0.0
 40
20.29999899999999
100
AcDbArc
 50
209.1299599999999
 51
239.9999999999999
  0
LINE
  5
33D
330
18
100
AcDbEntity
  8
5
  6
PHANTOM
 48
0.3
100
AcDbLine
 10
243.9253809371576
 20
236.4181277086106
 30
0.0
 11
246.9966664742914
 21
237.8502888045149
 31
0.0
  0
LINE
  5
33E
330
18
100
AcDbEntity
  8
1
  6
Continuous
100
AcDbLine
 10
243.9577264742905
 20
237.1589610099535
 30
0.0
 11
246.8925064742915
 21
235.4645629045148
 31
0.0
  0
ARC
  5
33F
330
18
100
AcDbEntity
  8
1
  6
Continuous
100
AcDbCircle
 10
244.7675064742915
 20
231.7839569045148
 30
0.0
 40
4.25
100
AcDbArc
 50
239.9999999999999
 51
60.00000199999967
  0
LINE
  5
340
330
18
100
AcDbEntity
  8
1
  6
Continuous
100
AcDbLine
 10
239.7077300261111
 20
229.7977430229921
 30
0.0
 11
242.6425064742915
 21
228.1033459045147
 31
0.0
  0
ARC
  5
341
330
18
100
AcDbEntity
  8
5
  6
PHANTOM
 48
0.3
100
AcDbCircle
 10
245.2005364742914
 20
241.7021049045149
 30
0.0
 40
4.25
100
AcDbArc
 50
294.9999999999996
 51
114.9999999999996
  0
LINE
  5
343
330
18
100
AcDbEntity
  8
5
  6
PHANTOM
 48
0.3
100
AcDbLine
 10
240.333126608809
 20
244.1217489830094
 30
0.0
 11
243.4044164742914
 21
245.5539118845149
 31
0.0
  0
ARC
  5
344
330
18
100
AcDbEntity
  8
1
  6
Continuous
100
AcDbCircle
 10
280.2197764742915
 20
218.7056569045148
 30
0.0
 40
1.0
100
AcDbArc
 50
60.00000199999967
 51
147.54281
  0
LINE
  5
345
330
18
100
AcDbEntity
  8
1
  6
Continuous
100
AcDbLine
 10
288.4819464742913
 20
217.3995859045148
 30
0.0
 11
287.4819464742913
 21
215.6675359045149
 31
0.0
  0
ARC
  5
346
330
18
100
AcDbEntity
  8
5
  6
PHANTOM
 48
0.3
100
AcDbCircle
 10
276.2482564742914
 20
263.2415069045149
 30
0.0
 40
1.0
100
AcDbArc
 50
114.9999999999996
 51
202.5428099999998
  0
ARC
  5
347
330
18
100
AcDbEntity
  8
5
  6
PHANTOM
 48
0.3
100
AcDbCircle
 10
267.9359064742914
 20
259.7911439045148
 30
0.0
 40
8.0
100
AcDbArc
 50
314.0583299999998
 51
22.5428140000001
  0
LINE
  5
348
330
18
100
AcDbEntity
  8
5
  6
PHANTOM
 48
0.3
100
AcDbLine
 10
248.2258264742914
 20
253.4845728045147
 30
0.0
 11
282.0570764742913
 21
269.2603459045149
 31
0.0
  0
LINE
  5
349
330
18
100
AcDbEntity
  8
5
  6
PHANTOM
 48
0.3
100
AcDbLine
 10
249.0710564742915
 20
251.6719502045149
 30
0.0
 11
282.9023264742914
 21
267.4477239045149
 31
0.0
  0
ARC
  5
34A
330
18
100
AcDbEntity
  8
5
  6
PHANTOM
 48
0.3
100
AcDbCircle
 10
240.4919064742914
 20
270.0700019045149
 30
0.0
 40
18.29999899999998
100
AcDbArc
 50
264.1299599999995
 51
294.9999999999996
  0
LINE
  5
34B
330
18
100
AcDbEntity
  8
5
  6
PHANTOM
 48
0.3
100
AcDbLine
 10
263.1448164742914
 20
258.2346519045148
 30
0.0
 11
265.4997464742915
 21
254.3675741045149
 31
0.0
  0
LINE
  5
34C
330
18
100
AcDbEntity
  8
5
  6
PHANTOM
 48
0.3
100
AcDbLine
 10
265.4997464742915
 20
254.3675646045147
 30
0.0
 11
271.3367664742914
 21
258.4134709045148
 31
0.0
  0
LINE
  5
34D
330
18
100
AcDbEntity
  8
5
  6
PHANTOM
 48
0.3
100
AcDbLine
 10
271.3367664742914
 20
258.4134889045149
 30
0.0
 11
269.4889764742915
 21
261.1929939045148
 31
0.0
  0
LINE
  5
34E
330
18
100
AcDbEntity
  8
5
  6
PHANTOM
 48
0.3
100
AcDbLine
 10
282.0570764742913
 20
269.2603459045149
 30
0.0
 11
282.9023264742914
 21
267.4477239045149
 31
0.0
  0
CIRCLE
  5
34F
330
18
100
AcDbEntity
  8
1
  6
Continuous
100
AcDbCircle
 10
315.4577264742915
 20
407.4363120214115
 30
0.0
 40
4.400000099999997
  0
ARC
  5
350
330
18
100
AcDbEntity
  8
1
  6
Continuous
100
AcDbCircle
 10
406.9243964742915
 20
427.4363120214117
 30
0.0
 40
85.0
100
AcDbArc
 50
166.55964
 51
193.4402899999998
  0
LINE
  5
351
330
18
100
AcDbEntity
  8
4
  6
CENTER
 48
0.5
100
AcDbLine
 10
274.4577264742914
 20
461.4363120214115
 30
0.0
 11
274.4577264742914
 21
393.4363120214116
 31
0.0
  0
LINE
  5
352
330
18
100
AcDbEntity
  8
4
  6
CENTER
 48
0.3
100
AcDbLine
 10
315.4577264742915
 20
398.0363119214116
 30
0.0
 11
315.4577264742915
 21
416.8363121214116
 31
0.0
  0
CIRCLE
  5
353
330
18
100
AcDbEntity
  8
1
  6
Continuous
100
AcDbCircle
 10
274.4577264742914
 20
427.4363120214117
 30
0.0
 40
24.0
  0
CIRCLE
  5
354
330
18
100
AcDbEntity
  8
1
  6
Continuous
100
AcDbCircle
 10
274.4577264742914
 20
427.4363120214117
 30
0.0
 40
22.5
  0
LINE
  5
355
330
18
100
AcDbEntity
  8
4
  6
CENTER
 48
0.3
100
AcDbLine
 10
324.8577265742915
 20
407.4363120214115
 30
0.0
 11
306.0577263742915
 21
407.4363120214115
 31
0.0
  0
LINE
  5
357
330
18
100
AcDbEntity
  8
1
  6
Continuous
100
AcDbLine
 10
297.7077264742915
 20
315.4589599045148
 30
0.0
 11
251.2077264742914
 21
315.4589599045148
 31
0.0
  0
LINE
  5
358
330
18
100
AcDbEntity
  8
1
  6
Continuous
100
AcDbLine
 10
252.9577264742914
 20
314.2589549045148
 30
0.0
 11
295.9577264742915
 21
314.2589549045148
 31
0.0
  0
LINE
  5
35A
330
18
100
AcDbEntity
  8
1
  6
Continuous
100
AcDbLine
 10
248.9832664742915
 20
316.8180069045149
 30
0.0
 11
247.1526264742915
 21
320.3871449045148
 31
0.0
  0
ARC
  5
35B
330
18
100
AcDbEntity
  8
1
  6
Continuous
100
AcDbCircle
 10
251.2077264742914
 20
317.9589599045148
 30
0.0
 40
2.5
100
AcDbArc
 50
207.15371
 51
270.0
  0
ARC
  5
35C
330
18
100
AcDbEntity
  8
1
  6
Continuous
100
AcDbCircle
 10
252.9577264742914
 20
311.2589549045149
 30
0.0
 40
3.0
100
AcDbArc
 50
90.00000300000015
 51
162.4335399999998
  0
LINE
  5
35D
330
18
100
AcDbEntity
  8
1
  6
Continuous
100
AcDbLine
 10
249.5577364742914
 20
310.4589599045148
 30
0.0
 11
250.0976164742914
 21
312.1643889045149
 31
0.0
  0
ARC
  5
35E
330
18
100
AcDbEntity
  8
1
  6
Continuous
100
AcDbCircle
 10
256.4617964742914
 20
316.1369539045149
 30
0.0
 40
2.778000099999998
100
AcDbArc
 50
194.12632
 51
222.5338600000001
  0
ARC
  5
35F
330
18
100
AcDbEntity
  8
1
  6
Continuous
100
AcDbCircle
 10
257.4358164742914
 20
316.1369539045149
 30
0.0
 40
2.778000099999998
100
AcDbArc
 50
194.12632
 51
222.5338600000001
  0
ARC
  5
360
330
18
100
AcDbEntity
  8
1
  6
Continuous
100
AcDbCircle
 10
246.7077264742914
 20
320.1589569045148
 30
0.0
 40
0.5
100
AcDbArc
 50
27.15370899999993
 51
90.00000300000015
  0
ARC
  5
361
330
18
100
AcDbEntity
  8
1
  6
Continuous
100
AcDbCircle
 10
260.0316064742914
 20
316.1369539045149
 30
0.0
 40
2.778000099999998
100
AcDbArc
 50
194.12632
 51
222.5338600000001
  0
ARC
  5
362
330
18
100
AcDbEntity
  8
1
  6
Continuous
100
AcDbCircle
 10
264.0018564742914
 20
316.1369539045149
 30
0.0
 40
2.778000099999998
100
AcDbArc
 50
194.12632
 51
222.5338600000001
  0
ARC
  5
363
330
18
100
AcDbEntity
  8
1
  6
Continuous
100
AcDbCircle
 10
264.0018564742914
 20
316.1369539045149
 30
0.0
 40
2.778000099999998
100
AcDbArc
 50
317.4661300000002
 51
333.3657600000002
  0
ARC
  5
364
330
18
100
AcDbEntity
  8
1
  6
Continuous
100
AcDbCircle
 10
268.9682864742915
 20
316.1369539045149
 30
0.0
 40
2.778000099999998
100
AcDbArc
 50
194.12632
 51
222.5338600000001
  0
ARC
  5
365
330
18
100
AcDbEntity
  8
1
  6
Continuous
100
AcDbCircle
 10
268.9682864742915
 20
316.1369539045149
 30
0.0
 40
2.778000099999998
100
AcDbArc
 50
317.4661300000002
 51
345.87368
  0
ARC
  5
366
330
18
100
AcDbEntity
  8
1
  6
Continuous
100
AcDbCircle
 10
274.4577264742914
 20
316.1369539045149
 30
0.0
 40
2.778000099999998
100
AcDbArc
 50
194.12632
 51
222.5338600000001
  0
LINE
  5
367
330
18
100
AcDbEntity
  8
1
  6
Continuous
100
AcDbLine
 10
289.9577264742914
 20
303.8589579045149
 30
0.0
 11
298.9577264742915
 21
303.8589579045149
 31
0.0
  0
ARC
  5
368
330
18
100
AcDbEntity
  8
1
  6
Continuous
100
AcDbCircle
 10
274.4577264742914
 20
316.1369539045149
 30
0.0
 40
2.778000099999998
100
AcDbArc
 50
317.4661300000002
 51
345.87368
  0
ARC
  5
369
330
18
100
AcDbEntity
  8
1
  6
Continuous
100
AcDbCircle
 10
279.9471664742915
 20
316.1369539045149
 30
0.0
 40
2.778000099999998
100
AcDbArc
 50
194.12632
 51
222.5338600000001
  0
ARC
  5
36A
330
18
100
AcDbEntity
  8
1
  6
Continuous
100
AcDbCircle
 10
284.9135964742915
 20
316.1369539045149
 30
0.0
 40
2.778000099999998
100
AcDbArc
 50
206.6342499999995
 51
222.5338600000001
  0
ARC
  5
36B
330
18
100
AcDbEntity
  8
1
  6
Continuous
100
AcDbCircle
 10
279.9471664742915
 20
316.1369539045149
 30
0.0
 40
2.778000099999998
100
AcDbArc
 50
317.4661300000002
 51
345.87368
  0
ARC
  5
36C
330
18
100
AcDbEntity
  8
1
  6
Continuous
100
AcDbCircle
 10
284.9135964742915
 20
316.1369539045149
 30
0.0
 40
2.778000099999998
100
AcDbArc
 50
317.4661300000002
 51
345.87368
  0
ARC
  5
36D
330
18
100
AcDbEntity
  8
1
  6
Continuous
100
AcDbCircle
 10
291.4796364742915
 20
316.1369539045149
 30
0.0
 40
2.778000099999998
100
AcDbArc
 50
317.4661300000002
 51
345.87368
  0
ARC
  5
36E
330
18
100
AcDbEntity
  8
1
  6
Continuous
100
AcDbCircle
 10
288.8838464742915
 20
316.1369539045149
 30
0.0
 40
2.778000099999998
100
AcDbArc
 50
317.4661300000002
 51
345.87368
  0
LINE
  5
36F
330
18
100
AcDbEntity
  8
1
  6
Continuous
100
AcDbLine
 10
299.9321864742914
 20
316.8180219045148
 30
0.0
 11
301.7628264742914
 21
320.3871519045147
 31
0.0
  0
LINE
  5
370
330
18
100
AcDbEntity
  8
1
  6
Continuous
100
AcDbLine
 10
298.9577264742915
 20
311.2589549045149
 30
0.0
 11
298.9577264742915
 21
303.8589579045149
 31
0.0
  0
ARC
  5
371
330
18
100
AcDbEntity
  8
1
  6
Continuous
100
AcDbCircle
 10
297.7077264742915
 20
317.9589599045148
 30
0.0
 40
2.5
100
AcDbArc
 50
270.0
 51
332.84629
  0
ARC
  5
372
330
18
100
AcDbEntity
  8
1
  6
Continuous
100
AcDbCircle
 10
295.9577264742915
 20
311.2589549045149
 30
0.0
 40
3.0
100
AcDbArc
 50
0.0
 51
90.00000300000015
  0
ARC
  5
373
330
18
100
AcDbEntity
  8
1
  6
Continuous
100
AcDbCircle
 10
292.4536564742913
 20
316.1369539045149
 30
0.0
 40
2.778000099999998
100
AcDbArc
 50
317.4661300000002
 51
345.87368
  0
ARC
  5
374
330
18
100
AcDbEntity
  8
1
  6
Continuous
100
AcDbCircle
 10
302.2077264742915
 20
320.1589569045148
 30
0.0
 40
0.5
100
AcDbArc
 50
90.00000300000015
 51
152.8462899999999
  0
ARC
  5
375
330
18
100
AcDbEntity
  8
1
  6
Continuous
100
AcDbCircle
 10
279.4901201936248
 20
402.5310733308662
 30
0.0
 40
15.4437926128695
100
AcDbArc
 50
243.3150306217111
 51
274.5668036186069
  0
LINE
  5
376
330
18
100
AcDbEntity
  8
1
  6
Continuous
100
AcDbLine
 10
272.5545504318025
 20
388.7322109738379
 30
0.0
 11
250.0234029727655
 21
398.2767120214116
 31
0.0
  0
ARC
  5
377
330
18
100
AcDbEntity
  8
1
  6
Continuous
100
AcDbCircle
 10
619.5124010557313
 20
1298.594471940107
 30
0.0
 40
973.770549996369
100
AcDbArc
 50
247.8008989756195
 51
249.1266462378899
  0
ARC
  5
378
330
18
100
AcDbEntity
  8
1
  6
Continuous
100
AcDbCircle
 10
227.3233687838775
 20
347.8700604410685
 30
0.0
 40
54.80182896945456
100
AcDbArc
 50
63.70952086896704
 51
67.32568910529872
  0
LINE
  5
37B
330
18
100
AcDbEntity
  8
1
  6
Continuous
100
AcDbLine
 10
239.4577264742914
 20
394.0613235214117
 30
0.0
 11
238.8327264742915
 21
393.4363244214118
 31
0.0
  0
LINE
  5
37C
330
18
100
AcDbEntity
  8
2
  6
Continuous
100
AcDbLine
 10
238.8327244742915
 20
397.5363244214118
 30
0.0
 11
238.8327244742915
 21
393.4363244214118
 31
0.0
  0
LINE
  5
37D
330
18
100
AcDbEntity
  8
1
  6
Continuous
100
AcDbLine
 10
239.4577244742915
 20
397.5363244214118
 30
0.0
 11
239.4577244742915
 21
394.0613244214118
 31
0.0
  0
ARC
  5
380
330
18
100
AcDbEntity
  8
1
  6
Continuous
100
AcDbCircle
 10
239.0619262330587
 20
375.3760841955996
 30
0.0
 40
25.38883075550141
100
AcDbArc
 50
64.4217067374947
 51
65.26905905887892
  0
ARC
  5
381
330
18
100
AcDbEntity
  8
1
  6
Continuous
100
AcDbCircle
 10
276.8194575039401
 20
398.2863120214116
 30
0.0
 40
11.81249287130653
100
AcDbArc
 50
289.2800610485915
 51
0.7275854479486819
  0
LINE
  5
382
330
18
100
AcDbEntity
  8
4
  6
CENTER
 48
0.5
100
AcDbLine
 10
315.4577264742914
 20
325.6589569045148
 30
0.0
 11
315.4577264742915
 21
317.7205409045149
 31
0.0
  0
LINE
  5
383
330
18
100
AcDbEntity
  8
1
  6
Continuous
100
AcDbLine
 10
324.4577264742915
 20
322.6589569045148
 30
0.0
 11
324.4577264742915
 21
320.6589569045148
 31
0.0
  0
ARC
  5
384
330
18
100
AcDbEntity
  8
1
  6
Continuous
100
AcDbCircle
 10
316.9577264742915
 20
405.9363120214116
 30
0.0
 40
7.5
100
AcDbArc
 50
270.0000200000004
 51
13.44028200000016
  0
CIRCLE
  5
385
330
18
100
AcDbEntity
  8
1
  6
Continuous
100
AcDbCircle
 10
315.4577264742915
 20
447.4363120214116
 30
0.0
 40
4.400000099999997
  0
LINE
  5
386
330
18
100
AcDbEntity
  8
4
  6
CENTER
 48
0.3
100
AcDbLine
 10
324.8577265742915
 20
447.4363120214116
 30
0.0
 11
306.0577263742915
 21
447.4363120214116
 31
0.0
  0
CIRCLE
  5
388
330
18
100
AcDbEntity
  8
1
  6
Continuous
100
AcDbCircle
 10
274.4577264742914
 20
427.4363120214117
 30
0.0
 40
9.5
  0
CIRCLE
  5
389
330
18
100
AcDbEntity
  8
1
  6
Continuous
100
AcDbCircle
 10
274.4577264742914
 20
427.4363120214117
 30
0.0
 40
12.25
  0
LINE
  5
38A
330
18
100
AcDbEntity
  8
4
  6
CENTER
 48
0.3
100
AcDbLine
 10
315.4577264742915
 20
456.8363121214115
 30
0.0
 11
315.4577264742915
 21
438.0363119214115
 31
0.0
  0
ARC
  5
38B
330
18
100
AcDbEntity
  8
1
  6
Continuous
100
AcDbCircle
 10
316.9577264742915
 20
448.9363120214115
 30
0.0
 40
7.5
100
AcDbArc
 50
346.5596799999998
 51
89.99998199999998
  0
LINE
  5
B0F
330
18
100
AcDbEntity
  8
1
  6
Continuous
100
AcDbLine
 10
424.1408977536853
 20
303.8589579045149
 30
0.0
 11
460.1164527868973
 21
303.8589579045147
 31
0.0
  0
ARC
  5
B17
330
18
100
AcDbEntity
  8
1
  6
Continuous
100
AcDbCircle
 10
475.6285427395375
 20
281.8028279045148
 30
0.0
 40
57.0
100
AcDbArc
 50
179.8785030099997
 51
208.7118368769791
  0
ARC
  5
B91
330
18
100
AcDbEntity
  8
1
  6
Continuous
100
AcDbCircle
 10
422.1286797395372
 20
252.4981412660053
 30
0.0
 40
4.0
100
AcDbArc
 50
0.0
 51
28.71183687697923
  0
LINE
  5
C05
330
18
100
AcDbEntity
  8
1
  6
Continuous
100
AcDbLine
 10
418.6275194057381
 20
281.8599095301628
 30
0.0
 11
419.1461064258795
 21
297.0970607147473
 31
0.0
  0
ARC
  5
C06
330
18
100
AcDbEntity
  8
1
  6
Continuous
100
AcDbCircle
 10
424.1408977536853
 20
296.8589579045149
 30
0.0
 40
7.0
100
AcDbArc
 50
90.0
 51
178.0507259753936
  0
ARC
  5
C07
330
18
100
AcDbEntity
  8
1
  6
Continuous
100
AcDbCircle
 10
426.1420557575831
 20
296.8589579045149
 30
0.0
 40
7.0
100
AcDbArc
 50
90.0
 51
178.0507259753936
  0
ARC
  5
C2A
330
18
100
AcDbEntity
  8
1
  6
Continuous
100
AcDbCircle
 10
408.6288094395372
 20
281.8028279045148
 30
0.0
 40
57.0
100
AcDbArc
 50
331.2881773958011
 51
0.1214899999994297
  0
ARC
  5
C56
330
18
100
AcDbEntity
  8
1
  6
Continuous
100
AcDbCircle
 10
462.1286797395375
 20
252.4981545931952
 30
0.0
 40
4.0
100
AcDbArc
 50
151.2881773958011
 51
180.0
  0
ARC
  5
C59
330
18
100
AcDbEntity
  8
1
  6
Continuous
100
AcDbCircle
 10
648.7996330047832
 20
237.1589569045147
 30
0.0
 40
11.5
100
AcDbArc
 50
209.8923100000003
 51
2.732600000000195
  0
ARC
  5
C5D
330
18
100
AcDbEntity
  8
1
  6
Continuous
100
AcDbCircle
 10
460.1164527868973
 20
296.8589579045147
 30
0.0
 40
7.0
100
AcDbArc
 50
1.94926624702711
 51
90.0
  0
LINE
  5
C5E
330
18
100
AcDbEntity
  8
1
  6
Continuous
100
AcDbLine
 10
465.6298290641017
 20
281.8599098014944
 30
0.0
 11
465.1112441562691
 21
297.0970597650866
 31
0.0
  0
ARC
  5
C5F
330
18
100
AcDbEntity
  8
1
  6
Continuous
100
AcDbCircle
 10
458.115294792245
 20
296.8589579045149
 30
0.0
 40
7.0
100
AcDbArc
 50
1.94926624702711
 51
90.0
  0
ARC
  5
C9D
330
18
100
AcDbEntity
  8
1
  6
Continuous
100
AcDbCircle
 10
274.4577264742898
 20
69.8816017876188
 30
0.0
 40
27.75000000000122
100
AcDbArc
 50
220.4397930915571
 51
61.63219740921435
  0
ARC
  5
C9E
330
18
100
AcDbEntity
  8
1
  6
Continuous
100
AcDbCircle
 10
274.4577264742911
 20
69.8816017876188
 30
0.0
 40
22.5
100
AcDbArc
 50
36.86989764584533
 51
63.5777634091771
  0
ARC
  5
C9F
330
18
100
AcDbEntity
  8
1
  6
Continuous
100
AcDbCircle
 10
274.4577264742911
 20
69.8816017876188
 30
0.0
 40
24.5
100
AcDbArc
 50
33.43704542991586
 51
62.05323907076152
  0
ARC
  5
CA0
330
18
100
AcDbEntity
  8
1
  6
Continuous
100
AcDbCircle
 10
274.4577264742911
 20
69.8816017876188
 30
0.0
 40
22.5
100
AcDbArc
 50
229.0006463497963
 51
323.1301023541547
  0
ARC
  5
CA1
330
18
100
AcDbEntity
  8
1
  6
Continuous
100
AcDbCircle
 10
274.4577264742911
 20
69.8816017876188
 30
0.0
 40
24.5
100
AcDbArc
 50
229.0006463497963
 51
326.5629545700841
  0
ARC
  5
CDE
330
18
100
AcDbEntity
  8
1
  6
Continuous
100
AcDbCircle
 10
257.0723878235775
 20
49.8816017876188
 30
0.0
 40
2.0
100
AcDbArc
 50
49.00064634979631
 51
90.0
  0
ARC
  5
CE0
330
18
100
AcDbEntity
  8
1
  6
Continuous
100
AcDbCircle
 10
257.0723878235775
 20
49.8816017876188
 30
0.0
 40
4.0
100
AcDbArc
 50
49.00064634979631
 51
90.0
  0
ARC
  5
CE1
330
18
100
AcDbEntity
  8
1
  6
Continuous
100
AcDbCircle
 10
274.4577264742911
 20
69.8816017876188
 30
0.0
 40
17.5
100
AcDbArc
 50
230.4823472028265
 51
309.5176527971734
  0
ARC
  5
CF3
330
18
100
AcDbEntity
  8
1
  6
Continuous
100
AcDbCircle
 10
257.0723878235775
 20
89.88160178761878
 30
0.0
 40
4.0
100
AcDbArc
 50
270.0
 51
310.9993536502037
  0
ARC
  5
CF5
330
18
100
AcDbEntity
  8
1
  6
Continuous
100
AcDbCircle
 10
274.4577264742911
 20
69.8816017876188
 30
0.0
 40
17.5
100
AcDbArc
 50
50.48234720282653
 51
86.90585815787571
  0
ARC
  5
CF6
330
18
100
AcDbEntity
  8
1
  6
Continuous
100
AcDbCircle
 10
274.4577264742911
 20
69.8816017876188
 30
0.0
 40
24.5
100
AcDbArc
 50
339.7377282747787
 51
20.26227172522144
  0
ARC
  5
E7E
330
18
100
AcDbEntity
  8
1
  6
Continuous
100
AcDbCircle
 10
404.8286807890937
 20
221.417544069995
 30
0.0
 40
3.000000289556286
100
AcDbArc
 50
180.0000031604391
 51
228.3074685430923
  0
LINE
  5
E7F
330
18
100
AcDbEntity
  8
1
  6
Continuous
100
AcDbLine
 10
401.8286804995374
 20
223.4094029045148
 30
0.0
 11
401.8286804995374
 21
221.4175439045149
 31
0.0
  0
ARC
  5
E80
330
18
100
AcDbEntity
  8
1
  6
Continuous
100
AcDbCircle
 10
430.1286797395373
 20
225.1589569045147
 30
0.0
 40
3.0
100
AcDbArc
 50
192.1622921470629
 51
240.0
  0
LINE
  5
E81
330
18
100
AcDbEntity
  8
1
  6
Continuous
100
AcDbLine
 10
458.1286797395375
 20
222.1589569045148
 30
0.0
 11
458.1286797395375
 21
225.6589569045148
 31
0.0
  0
LINE
  5
E82
330
18
100
AcDbEntity
  8
4
  6
CENTER
 48
0.5
100
AcDbLine
 10
442.1286797395374
 20
327.6589569045148
 30
0.0
 11
442.1286797395374
 21
169.6589569045148
 31
0.0
  0
LINE
  5
E83
330
18
100
AcDbEntity
  8
1
  6
Continuous
100
AcDbLine
 10
455.6286797395372
 20
296.6794759045149
 30
0.0
 11
455.6286797395372
 21
177.6384419045149
 31
0.0
  0
LINE
  5
E84
330
18
100
AcDbEntity
  8
1
  6
Continuous
100
AcDbLine
 10
428.6286797395375
 20
296.6794759045149
 30
0.0
 11
428.6286797395375
 21
177.6384419045149
 31
0.0
  0
LINE
  5
E85
330
18
100
AcDbEntity
  8
1
  6
Continuous
100
AcDbLine
 10
422.1286757395374
 20
218.8293004715756
 30
0.0
 11
422.1286757395374
 21
215.5356809045148
 31
0.0
  0
LINE
  5
E86
330
18
100
AcDbEntity
  8
1
  6
Continuous
100
AcDbLine
 10
424.1286896771129
 20
253.0145597619055
 30
0.0
 11
424.1286831533646
 21
228.4106949023531
 31
0.0
  0
ARC
  5
E88
330
18
100
AcDbEntity
  8
1
  6
Continuous
100
AcDbCircle
 10
442.1286797395374
 20
244.6589569045148
 30
0.0
 40
70.0
100
AcDbArc
 50
260.2634800000001
 51
279.7365199999997
  0
ARC
  5
E89
330
18
100
AcDbEntity
  8
1
  6
Continuous
100
AcDbCircle
 10
453.6286797395375
 20
177.6384419045149
 30
0.0
 40
2.0
100
AcDbArc
 50
279.7365199999997
 51
0.0000100000001992
  0
ARC
  5
E8A
330
18
100
AcDbEntity
  8
1
  6
Continuous
100
AcDbCircle
 10
430.6286797395372
 20
177.6384419045149
 30
0.0
 40
2.0
100
AcDbArc
 50
180.0
 51
260.2634800000001
  0
LINE
  5
E8B
330
18
100
AcDbEntity
  8
1
  6
Continuous
100
AcDbLine
 10
455.6286797395372
 20
219.5251579045149
 30
0.0
 11
457.1588387395372
 21
220.4446699045149
 31
0.0
  0
ARC
  5
E8C
330
18
100
AcDbEntity
  8
1
  6
Continuous
100
AcDbCircle
 10
456.1286797395372
 20
222.1589569045148
 30
0.0
 40
2.0
100
AcDbArc
 50
301.0027199999997
 51
359.9999500000001
  0
ARC
  5
E8D
330
18
100
AcDbEntity
  8
1
  6
Continuous
100
AcDbCircle
 10
412.0505337395372
 20
229.5253029045148
 30
0.0
 40
13.85776
100
AcDbArc
 50
228.30747
 51
311.8440642166912
  0
LINE
  5
E8E
330
18
100
AcDbEntity
  8
1
  6
Continuous
100
AcDbLine
 10
424.1286797395373
 20
215.5356809045148
 30
0.0
 11
422.1286757395374
 21
215.5356809045148
 31
0.0
  0
LINE
  5
E8F
330
18
100
AcDbEntity
  8
1
  6
Continuous
100
AcDbLine
 10
416.6286767395375
 20
281.9279389045148
 30
0.0
 11
417.6304127395373
 21
311.3609989045148
 31
0.0
  0
LINE
  5
E90
330
18
100
AcDbEntity
  8
1
  6
Continuous
100
AcDbLine
 10
467.6286717395375
 20
281.9279389045148
 30
0.0
 11
466.6269397395375
 21
311.3609989045148
 31
0.0
  0
ARC
  5
E91
330
18
100
AcDbEntity
  8
1
  6
Continuous
100
AcDbCircle
 10
404.8286812277533
 20
265.6675441812473
 30
0.0
 40
3.000000728215935
100
AcDbArc
 50
180.0000052851993
 51
212.8747773042214
  0
ARC
  5
E93
330
18
100
AcDbEntity
  8
1
  6
Continuous
100
AcDbCircle
 10
408.6288094395372
 20
281.8028279045147
 30
0.0
 40
59.0
100
AcDbArc
 50
330.79494
 51
0.1214899999998352
  0
LINE
  5
E95
330
18
100
AcDbEntity
  8
1
  6
Continuous
100
AcDbLine
 10
460.1286797395372
 20
253.0145775394236
 30
0.0
 11
460.1286797395372
 21
225.6589569045148
 31
0.0
  0
LINE
  5
E96
330
18
100
AcDbEntity
  8
1
  6
Continuous
100
AcDbLine
 10
458.1286797395375
 20
303.8589451075878
 30
0.0
 11
458.1286797395375
 21
225.6589569045148
 31
0.0
  0
LINE
  5
E97
330
18
100
AcDbEntity
  8
4
  6
CENTER
 48
0.5
100
AcDbLine
 10
469.1286487395372
 20
237.1589569045148
 30
0.0
 11
403.1286611395374
 21
237.1589569045148
 31
0.0
  0
ARC
  5
E98
330
18
100
AcDbEntity
  8
1
  6
Continuous
100
AcDbCircle
 10
461.6286487395372
 20
243.1589569045148
 30
0.0
 40
1.5
100
AcDbArc
 50
89.99998400000034
 51
179.9999640278219
  0
ARC
  5
E99
330
18
100
AcDbEntity
  8
1
  6
Continuous
100
AcDbCircle
 10
462.6286487395374
 20
243.1589569045148
 30
0.0
 40
1.5
100
AcDbArc
 50
359.9999899999998
 51
89.99998400000034
  0
LINE
  5
E9A
330
18
100
AcDbEntity
  8
1
  6
Continuous
100
AcDbLine
 10
458.1286797395375
 20
252.1589569045147
 30
0.0
 11
458.1286797395375
 21
237.1589569045148
 31
0.0
  0
ARC
  5
E9B
330
18
100
AcDbEntity
  8
1
  6
Continuous
100
AcDbCircle
 10
461.6286487395372
 20
232.1589569045148
 30
0.0
 40
1.5
100
AcDbArc
 50
89.99998400000034
 51
179.9999640278219
  0
ARC
  5
E9C
330
18
100
AcDbEntity
  8
1
  6
Continuous
100
AcDbCircle
 10
462.6286487395374
 20
232.1589569045148
 30
0.0
 40
1.5
100
AcDbArc
 50
359.9999899999998
 51
89.99998400000034
  0
LINE
  5
E9D
330
18
100
AcDbEntity
  8
1
  6
Continuous
100
AcDbLine
 10
464.1286487395372
 20
243.1589569045148
 30
0.0
 11
464.1286487395372
 21
231.1589569045148
 31
0.0
  0
ARC
  5
E9E
330
18
100
AcDbEntity
  8
1
  6
Continuous
100
AcDbCircle
 10
461.6286487395372
 20
231.1589569045148
 30
0.0
 40
1.5
100
AcDbArc
 50
179.9999640278219
 51
269.9999499999996
  0
ARC
  5
E9F
330
18
100
AcDbEntity
  8
1
  6
Continuous
100
AcDbCircle
 10
462.6286487395374
 20
231.1589569045148
 30
0.0
 40
1.5
100
AcDbArc
 50
269.9999700000002
 51
0.0000100000001992
  0
LINE
  5
EA0
330
18
100
AcDbEntity
  8
1
  6
Continuous
100
AcDbLine
 10
462.6286487395374
 20
229.6589569045148
 30
0.0
 11
461.6286487395372
 21
229.6589569045148
 31
0.0
  0
LINE
  5
EA1
330
18
100
AcDbEntity
  8
1
  6
Continuous
100
AcDbLine
 10
460.1286797395372
 20
225.6589569045148
 30
0.0
 11
458.1286797395375
 21
225.6589569045148
 31
0.0
  0
ARC
  5
EA2
330
18
100
AcDbEntity
  8
1
  6
Continuous
100
AcDbCircle
 10
461.6286487395372
 20
238.6589569045148
 30
0.0
 40
1.5
100
AcDbArc
 50
89.99998400000034
 51
179.9999640278219
  0
ARC
  5
EA3
330
18
100
AcDbEntity
  8
1
  6
Continuous
100
AcDbCircle
 10
461.6286487395372
 20
242.1589569045148
 30
0.0
 40
1.5
100
AcDbArc
 50
179.9999640278219
 51
269.9999499999996
  0
LINE
  5
EA4
330
18
100
AcDbEntity
  8
1
  6
Continuous
100
AcDbLine
 10
462.6286487395374
 20
240.1589569045148
 30
0.0
 11
461.6286487395372
 21
240.1589569045148
 31
0.0
  0
LINE
  5
EA5
330
18
100
AcDbEntity
  8
1
  6
Continuous
100
AcDbLine
 10
462.6286487395374
 20
240.6589569045148
 30
0.0
 11
461.6286487395372
 21
240.6589569045148
 31
0.0
  0
ARC
  5
EA6
330
18
100
AcDbEntity
  8
1
  6
Continuous
100
AcDbCircle
 10
462.6286487395374
 20
238.6589569045148
 30
0.0
 40
1.5
100
AcDbArc
 50
359.9999899999998
 51
89.99998400000034
  0
ARC
  5
EA7
330
18
100
AcDbEntity
  8
1
  6
Continuous
100
AcDbCircle
 10
462.6286487395374
 20
242.1589569045148
 30
0.0
 40
1.5
100
AcDbArc
 50
269.9999700000002
 51
0.0000100000001992
  0
LINE
  5
EA8
330
18
100
AcDbEntity
  8
1
  6
Continuous
100
AcDbLine
 10
462.6286487395374
 20
234.1589569045148
 30
0.0
 11
461.6286487395372
 21
234.1589569045148
 31
0.0
  0
LINE
  5
EA9
330
18
100
AcDbEntity
  8
1
  6
Continuous
100
AcDbLine
 10
462.6286487395374
 20
233.6589569045148
 30
0.0
 11
461.6286487395372
 21
233.6589569045148
 31
0.0
  0
ARC
  5
EAA
330
18
100
AcDbEntity
  8
1
  6
Continuous
100
AcDbCircle
 10
461.6286487395372
 20
235.6589569045147
 30
0.0
 40
1.5
100
AcDbArc
 50
179.9999640278219
 51
269.9999499999996
  0
ARC
  5
EAB
330
18
100
AcDbEntity
  8
1
  6
Continuous
100
AcDbCircle
 10
462.6286487395374
 20
235.6589569045147
 30
0.0
 40
1.5
100
AcDbArc
 50
269.9999700000002
 51
0.0000100000001992
  0
LINE
  5
EAC
330
18
100
AcDbEntity
  8
1
  6
Continuous
100
AcDbLine
 10
455.6286797395372
 20
254.7927536045149
 30
0.0
 11
457.1588387395372
 21
253.8732428045149
 31
0.0
  0
LINE
  5
EAD
330
18
100
AcDbEntity
  8
1
  6
Continuous
100
AcDbLine
 10
462.6286487395374
 20
244.6589569045148
 30
0.0
 11
461.6286487395372
 21
244.6589569045148
 31
0.0
  0
ARC
  5
EAE
330
18
100
AcDbEntity
  8
1
  6
Continuous
100
AcDbCircle
 10
456.1286797395372
 20
252.1589569045147
 30
0.0
 40
2.0
100
AcDbArc
 50
359.9999899999998
 51
58.99723000000038
  0
ARC
  5
EB0
330
18
100
AcDbEntity
  8
1
  6
Continuous
100
AcDbCircle
 10
320.9831717395374
 20
283.2335649045148
 30
0.0
 40
100.0
100
AcDbArc
 50
336.3751499999998
 51
341.8528304258519
  0
LINE
  5
EB4
330
18
100
AcDbEntity
  8
1
  6
Continuous
100
AcDbLine
 10
426.1286797395372
 20
303.8589451246561
 30
0.0
 11
426.1286797395372
 21
228.3045810484219
 31
0.0
  0
LINE
  5
EB5
330
18
100
AcDbEntity
  8
1
  6
Continuous
100
AcDbLine
 10
427.1286797395372
 20
249.1589569045148
 30
0.0
 11
427.1286797395372
 21
225.3495036722859
 31
0.0
  0
LINE
  5
EB7
330
18
100
AcDbEntity
  8
1
  6
Continuous
100
AcDbLine
 10
412.6020670097076
 20
243.1589092045149
 30
0.0
 11
412.2286768395373
 21
243.1589092045149
 31
0.0
  0
ARC
  5
EC3
330
18
100
AcDbEntity
  8
1
  6
Continuous
100
AcDbCircle
 10
425.2134457395372
 20
219.0675439045148
 30
0.0
 40
4.0
100
AcDbArc
 50
67.66835000000009
 51
89.99999699999987
  0
LINE
  5
EC4
330
18
100
AcDbEntity
  8
1
  6
Continuous
100
AcDbLine
 10
425.2134457395372
 20
223.0675439045148
 30
0.0
 11
424.1286797395373
 21
223.0675439045148
 31
0.0
  0
ARC
  5
EC6
330
18
100
AcDbEntity
  8
1
  6
Continuous
100
AcDbCircle
 10
425.708811310939
 20
220.9511128430384
 30
0.0
 40
4.0
100
AcDbArc
 50
67.66835850173665
 51
90.0
  0
LINE
  5
EC7
330
18
100
AcDbEntity
  8
1
  6
Continuous
100
AcDbLine
 10
427.2286794995683
 20
224.6511129361724
 30
0.0
 11
426.7333107395372
 21
222.7675419045147
 31
0.0
  0
LINE
  5
ED0
330
18
100
AcDbEntity
  8
1
  6
Continuous
100
AcDbLine
 10
427.1286797395372
 20
241.1589569045148
 30
0.0
 11
426.1286797395372
 21
241.1589569045148
 31
0.0
  0
LINE
  5
ED1
330
18
100
AcDbEntity
  8
1
  6
Continuous
100
AcDbLine
 10
427.1286797395372
 20
233.1589569045148
 30
0.0
 11
426.1286797395372
 21
233.1589569045148
 31
0.0
  0
LINE
  5
ED3
330
18
100
AcDbEntity
  8
1
  6
Continuous
100
AcDbLine
 10
412.2286768395373
 20
243.1589092045149
 30
0.0
 11
412.2286768395373
 21
242.3158694776474
 31
0.0
  0
ARC
  5
ED5
330
18
100
AcDbEntity
  8
1
  6
Continuous
100
AcDbCircle
 10
320.9831717395374
 20
283.2335649045148
 30
0.0
 40
100.0
100
AcDbArc
 50
324.4919699999996
 51
336.3751423409157
  0
ARC
  5
ED6
330
18
100
AcDbEntity
  8
1
  6
Continuous
100
AcDbCircle
 10
404.8286805395372
 20
223.4094029045148
 30
0.0
 40
3.0
100
AcDbArc
 50
144.4919670000001
 51
180.0
  0
LINE
  5
ED7
330
18
100
AcDbEntity
  8
1
  6
Continuous
100
AcDbLine
 10
408.1286601395373
 20
240.5339559045148
 30
0.0
 11
408.7536611395375
 21
241.1589564045149
 31
0.0
  0
LINE
  5
ED9
330
18
100
AcDbEntity
  8
1
  6
Continuous
100
AcDbLine
 10
408.7536611395375
 20
241.1589569045148
 30
0.0
 11
408.7536611395375
 21
235.3134105800085
 31
0.0
  0
LINE
  5
EDA
330
18
100
AcDbEntity
  8
1
  6
Continuous
100
AcDbLine
 10
408.1286611395372
 20
240.5339569045148
 30
0.0
 11
408.1286611395372
 21
234.1859994477617
 31
0.0
  0
LINE
  5
EDC
330
18
100
AcDbEntity
  8
2
  6
Continuous
100
AcDbLine
 10
411.4085192735466
 20
240.5339569045148
 30
0.0
 11
408.1286611395372
 21
240.5339569045148
 31
0.0
  0
LINE
  5
EDD
330
18
100
AcDbEntity
  8
1
  6
Continuous
100
AcDbLine
 10
411.7010165201886
 20
241.1589569045148
 30
0.0
 11
408.7536611395375
 21
241.1589569045148
 31
0.0
  0
LINE
  5
EE0
330
18
100
AcDbEntity
  8
1
  6
Continuous
100
AcDbLine
 10
415.3286796413893
 20
250.0835251045149
 30
0.0
 11
411.3286766395374
 21
250.0835251045149
 31
0.0
  0
LINE
  5
EE1
330
18
100
AcDbEntity
  8
1
  6
Continuous
100
AcDbLine
 10
428.5286797395372
 20
255.5094026045149
 30
0.0
 11
428.2286797395372
 21
253.5175423045149
 31
0.0
  0
LINE
  5
EE3
330
18
100
AcDbEntity
  8
1
  6
Continuous
100
AcDbLine
 10
426.9796817395373
 20
253.7175430045147
 30
0.0
 11
426.1286797395372
 21
253.7175430045147
 31
0.0
  0
ARC
  5
EE7
330
18
100
AcDbEntity
  8
1
  6
Continuous
100
AcDbCircle
 10
430.1286797395373
 20
249.1589569045148
 30
0.0
 40
3.0
100
AcDbArc
 50
119.9999980000003
 51
180.0
  0
ARC
  5
EE8
330
18
100
AcDbEntity
  8
1
  6
Continuous
100
AcDbCircle
 10
426.9796817395373
 20
249.7175430045147
 30
0.0
 40
4.0
100
AcDbArc
 50
71.80511999999978
 51
89.99999699999987
  0
LINE
  5
EEB
330
18
100
AcDbEntity
  8
1
  6
Continuous
100
AcDbLine
 10
426.9796817395373
 20
258.7594049045149
 30
0.0
 11
426.1286797395372
 21
258.7594049045149
 31
0.0
  0
LINE
  5
EED
330
18
100
AcDbEntity
  8
1
  6
Continuous
100
AcDbLine
 10
428.5286817395372
 20
255.5094122045149
 30
0.0
 11
428.1833077395372
 21
258.5581589045149
 31
0.0
  0
ARC
  5
EEF
330
18
100
AcDbEntity
  8
1
  6
Continuous
100
AcDbCircle
 10
426.9796817395373
 20
255.0594047045149
 30
0.0
 40
3.7
100
AcDbArc
 50
71.80511999999978
 51
89.99999699999987
  0
LINE
  5
EF0
330
18
100
AcDbEntity
  8
1
  6
Continuous
100
AcDbLine
 10
411.3286776395374
 20
250.0835251045149
 30
0.0
 11
402.3091042095372
 21
264.0391299045148
 31
0.0
  0
ARC
  5
EF1
330
18
100
AcDbEntity
  8
1
  6
Continuous
100
AcDbCircle
 10
442.1286797395374
 20
229.6589569045148
 30
0.0
 40
70.0
100
AcDbArc
 50
80.26348099999969
 51
99.73652100000014
  0
ARC
  5
EF4
330
18
100
AcDbEntity
  8
1
  6
Continuous
100
AcDbCircle
 10
453.6286797395375
 20
296.6794759045149
 30
0.0
 40
2.0
100
AcDbArc
 50
359.9999899999998
 51
80.26348099999969
  0
ARC
  5
EF8
330
18
100
AcDbEntity
  8
1
  6
Continuous
100
AcDbCircle
 10
412.7562187395374
 20
257.3589329045148
 30
0.0
 40
15.79156799999999
100
AcDbArc
 50
73.00129733107542
 51
128.2976739999996
  0
LINE
  5
EFD
330
18
100
AcDbEntity
  8
1
  6
Continuous
100
AcDbLine
 10
401.8286804995374
 20
267.3977759045149
 30
0.0
 11
401.8286804995374
 21
265.6675439045149
 31
0.0
  0
ARC
  5
EFE
330
18
100
AcDbEntity
  8
1
  6
Continuous
100
AcDbCircle
 10
404.8286805395372
 20
267.3977759045149
 30
0.0
 40
3.0
100
AcDbArc
 50
128.2976739999996
 51
180.0
  0
ARC
  5
EFF
330
18
100
AcDbEntity
  8
1
  6
Continuous
100
AcDbCircle
 10
430.6286797395372
 20
296.6794759045149
 30
0.0
 40
2.0
100
AcDbArc
 50
99.73652100000014
 51
180.0
  0
LINE
  5
F04
330
18
100
AcDbEntity
  8
1
  6
Continuous
100
AcDbLine
 10
413.1286797395373
 20
320.6589569045148
 30
0.0
 11
471.1286797395373
 21
320.6589569045148
 31
0.0
  0
LINE
  5
F05
330
18
100
AcDbEntity
  8
1
  6
Continuous
100
AcDbLine
 10
413.1286797395373
 20
322.6589569045148
 30
0.0
 11
471.1286797395373
 21
322.6589569045148
 31
0.0
  0
LINE
  5
F06
330
18
100
AcDbEntity
  8
1
  6
Continuous
100
AcDbLine
 10
418.8786797395373
 20
315.4589599045148
 30
0.0
 11
465.3786797395373
 21
315.4589599045148
 31
0.0
  0
LINE
  5
F07
330
18
100
AcDbEntity
  8
1
  6
Continuous
100
AcDbLine
 10
463.6286797395372
 20
314.2589549045148
 30
0.0
 11
420.6286797395375
 21
314.2589549045148
 31
0.0
  0
ARC
  5
F09
330
18
100
AcDbEntity
  8
1
  6
Continuous
100
AcDbCircle
 10
469.8786797395372
 20
320.1589569045148
 30
0.0
 40
0.5
100
AcDbArc
 50
89.99999699999987
 51
152.8462909999999
  0
LINE
  5
F0A
330
18
100
AcDbEntity
  8
1
  6
Continuous
100
AcDbLine
 10
471.1286797395373
 20
322.6589569045148
 30
0.0
 11
471.1286797395373
 21
320.6589569045148
 31
0.0
  0
LINE
  5
F0B
330
18
100
AcDbEntity
  8
4
  6
CENTER
 48
0.5
100
AcDbLine
 10
462.1286797395375
 20
325.6589569045148
 30
0.0
 11
462.1286797395375
 21
317.6589569045148
 31
0.0
  0
LINE
  5
F0C
330
18
100
AcDbEntity
  8
1
  6
Continuous
100
AcDbLine
 10
467.6031437395375
 20
316.8180069045149
 30
0.0
 11
469.4337947395372
 21
320.3871449045148
 31
0.0
  0
ARC
  5
F0D
330
18
100
AcDbEntity
  8
1
  6
Continuous
100
AcDbCircle
 10
459.1505917395372
 20
316.1369539045149
 30
0.0
 40
2.778000099999998
100
AcDbArc
 50
317.4661399999997
 51
345.87368
  0
ARC
  5
F0E
330
18
100
AcDbEntity
  8
1
  6
Continuous
100
AcDbCircle
 10
460.1246057395372
 20
316.1369539045149
 30
0.0
 40
2.778000099999998
100
AcDbArc
 50
317.4661399999997
 51
345.87368
  0
ARC
  5
F0F
330
18
100
AcDbEntity
  8
1
  6
Continuous
100
AcDbCircle
 10
456.5547967395374
 20
316.1369539045149
 30
0.0
 40
2.778000099999998
100
AcDbArc
 50
317.4661399999997
 51
345.87368
  0
ARC
  5
F10
330
18
100
AcDbEntity
  8
1
  6
Continuous
100
AcDbCircle
 10
463.6286797395372
 20
311.2589549045149
 30
0.0
 40
3.0
100
AcDbArc
 50
1.949280000000194
 51
89.99999699999987
  0
ARC
  5
F11
330
18
100
AcDbEntity
  8
1
  6
Continuous
100
AcDbCircle
 10
465.3786797395373
 20
317.9589599045148
 30
0.0
 40
2.5
100
AcDbArc
 50
270.0
 51
332.84629
  0
ARC
  5
F12
330
18
100
AcDbEntity
  8
1
  6
Continuous
100
AcDbCircle
 10
442.1286797395374
 20
316.1369539045149
 30
0.0
 40
2.778000099999998
100
AcDbArc
 50
317.4661399999997
 51
345.87368
  0
ARC
  5
F13
330
18
100
AcDbEntity
  8
1
  6
Continuous
100
AcDbCircle
 10
447.6181207395375
 20
316.1369539045149
 30
0.0
 40
2.778000099999998
100
AcDbArc
 50
194.12632
 51
222.5338699999996
  0
ARC
  5
F14
330
18
100
AcDbEntity
  8
1
  6
Continuous
100
AcDbCircle
 10
452.5845517395373
 20
316.1369539045149
 30
0.0
 40
2.778000099999998
100
AcDbArc
 50
317.4661399999997
 51
345.87368
  0
ARC
  5
F15
330
18
100
AcDbEntity
  8
1
  6
Continuous
100
AcDbCircle
 10
452.5845517395373
 20
316.1369539045149
 30
0.0
 40
2.778000099999998
100
AcDbArc
 50
206.6342399999998
 51
222.5338699999996
  0
ARC
  5
F16
330
18
100
AcDbEntity
  8
1
  6
Continuous
100
AcDbCircle
 10
447.6181207395375
 20
316.1369539045149
 30
0.0
 40
2.778000099999998
100
AcDbArc
 50
317.4661399999997
 51
345.87368
  0
ARC
  5
F17
330
18
100
AcDbEntity
  8
1
  6
Continuous
100
AcDbCircle
 10
418.8786797395373
 20
317.9589599045148
 30
0.0
 40
2.5
100
AcDbArc
 50
207.15371
 51
270.0
  0
LINE
  5
F18
330
18
100
AcDbEntity
  8
4
  6
CENTER
 48
0.5
100
AcDbLine
 10
422.1286797395372
 20
325.6589569045148
 30
0.0
 11
422.1286797395372
 21
317.6589569045148
 31
0.0
  0
ARC
  5
F19
330
18
100
AcDbEntity
  8
1
  6
Continuous
100
AcDbCircle
 10
436.6392387395372
 20
316.1369539045149
 30
0.0
 40
2.778000099999998
100
AcDbArc
 50
194.12632
 51
222.5338699999996
  0
ARC
  5
F1A
330
18
100
AcDbEntity
  8
1
  6
Continuous
100
AcDbCircle
 10
431.6728077395374
 20
316.1369539045149
 30
0.0
 40
2.778000099999998
100
AcDbArc
 50
317.4661399999997
 51
333.3657500000003
  0
ARC
  5
F1B
330
18
100
AcDbEntity
  8
1
  6
Continuous
100
AcDbCircle
 10
442.1286797395374
 20
316.1369539045149
 30
0.0
 40
2.778000099999998
100
AcDbArc
 50
194.12632
 51
222.5338699999996
  0
ARC
  5
F1C
330
18
100
AcDbEntity
  8
1
  6
Continuous
100
AcDbCircle
 10
436.6392387395372
 20
316.1369539045149
 30
0.0
 40
2.778000099999998
100
AcDbArc
 50
317.4661399999997
 51
345.87368
  0
ARC
  5
F1D
330
18
100
AcDbEntity
  8
1
  6
Continuous
100
AcDbCircle
 10
425.1067677395375
 20
316.1369539045149
 30
0.0
 40
2.778000099999998
100
AcDbArc
 50
194.12632
 51
222.5338699999996
  0
ARC
  5
F1E
330
18
100
AcDbEntity
  8
1
  6
Continuous
100
AcDbCircle
 10
427.7025627395373
 20
316.1369539045149
 30
0.0
 40
2.778000099999998
100
AcDbArc
 50
194.12632
 51
222.5338699999996
  0
ARC
  5
F1F
330
18
100
AcDbEntity
  8
1
  6
Continuous
100
AcDbCircle
 10
424.1327537395372
 20
316.1369539045149
 30
0.0
 40
2.778000099999998
100
AcDbArc
 50
194.12632
 51
222.5338699999996
  0
ARC
  5
F20
330
18
100
AcDbEntity
  8
1
  6
Continuous
100
AcDbCircle
 10
431.6728077395374
 20
316.1369539045149
 30
0.0
 40
2.778000099999998
100
AcDbArc
 50
194.12632
 51
222.5338699999996
  0
ARC
  5
F21
330
18
100
AcDbEntity
  8
1
  6
Continuous
100
AcDbCircle
 10
420.6286797395375
 20
311.2589549045149
 30
0.0
 40
3.0
100
AcDbArc
 50
90.00000399999995
 51
178.0507260999998
  0
LINE
  5
F22
330
18
100
AcDbEntity
  8
1
  6
Continuous
100
AcDbLine
 10
416.6542187395372
 20
316.8180069045149
 30
0.0
 11
414.8235757395372
 21
320.3871449045148
 31
0.0
  0
ARC
  5
F23
330
18
100
AcDbEntity
  8
1
  6
Continuous
100
AcDbCircle
 10
414.3786797395375
 20
320.1589569045148
 30
0.0
 40
0.5
100
AcDbArc
 50
27.15370999999997
 51
89.99999699999987
  0
LINE
  5
F24
330
18
100
AcDbEntity
  8
1
  6
Continuous
100
AcDbLine
 10
413.1286797395373
 20
322.6589569045148
 30
0.0
 11
413.1286797395373
 21
320.6589569045148
 31
0.0
  0
ARC
  5
FAE
330
18
100
AcDbEntity
  8
1
  6
Continuous
100
AcDbCircle
 10
648.7996330047832
 20
237.1589569045148
 30
0.0
 40
15.5
100
AcDbArc
 50
167.7888620160314
 51
44.83605588418826
  0
ARC
  5
FB4
330
18
100
AcDbEntity
  8
1
  6
Continuous
100
AcDbCircle
 10
648.7996330047832
 20
237.1589569045148
 30
0.0
 40
31.5
100
AcDbArc
 50
141.304777933661
 51
71.32013396037415
  0
ARC
  5
FB5
330
18
100
AcDbEntity
  8
1
  6
Continuous
100
AcDbCircle
 10
648.7996330047832
 20
237.1589569045148
 30
0.0
 40
62.5
100
AcDbArc
 50
130.4951609999999
 51
82.1297620000003
  0
ARC
  5
FB6
330
18
100
AcDbEntity
  8
1
  6
Continuous
100
AcDbCircle
 10
648.7996330047832
 20
237.1589569045148
 30
0.0
 40
44.5
100
AcDbArc
 50
134.8690552292964
 51
77.75585561697423
  0
LINE
  5
FB7
330
18
100
AcDbEntity
  8
4
  6
CENTER
 48
0.5
100
AcDbLine
 10
648.7996330047832
 20
304.4339589045149
 30
0.0
 11
648.7996330047832
 21
169.6589569045148
 31
0.0
  0
LINE
  5
FC1
330
18
100
AcDbEntity
  8
1
  6
Continuous
100
AcDbLine
 10
659.7996330047832
 20
320.6589569045148
 30
0.0
 11
559.7996330047833
 21
320.6589569045148
 31
0.0
  0
LINE
  5
FC2
330
18
100
AcDbEntity
  8
1
  6
Continuous
100
AcDbLine
 10
659.7996330047832
 20
322.6589569045148
 30
0.0
 11
559.7996330047833
 21
322.6589569045148
 31
0.0
  0
LINE
  5
FC3
330
18
100
AcDbEntity
  8
1
  6
Continuous
100
AcDbLine
 10
585.2996330047832
 20
311.2589549045149
 30
0.0
 11
585.2996330047832
 21
303.8589579045149
 31
0.0
  0
LINE
  5
FC4
330
18
100
AcDbEntity
  8
4
  6
CENTER
 48
0.5
100
AcDbLine
 10
609.7996330047832
 20
327.6589569045148
 30
0.0
 11
609.7996330047832
 21
268.3922869045149
 31
0.0
  0
LINE
  5
FC5
330
18
100
AcDbEntity
  8
1
  6
Continuous
100
AcDbLine
 10
660.2996330047832
 20
305.9449869045149
 30
0.0
 11
628.8806830047832
 21
311.4849919045148
 31
0.0
  0
LINE
  5
FC6
330
18
100
AcDbEntity
  8
1
  6
Continuous
100
AcDbLine
 10
626.4204030047832
 20
311.4849919045148
 30
0.0
 11
626.4204030047832
 21
261.3489559045149
 31
0.0
  0
LINE
  5
FCD
330
18
100
AcDbEntity
  8
4
  6
CENTER
 48
0.5
100
AcDbLine
 10
716.2996330047833
 20
237.1589569045148
 30
0.0
 11
581.0696230047835
 21
237.1589569045148
 31
0.0
  0
LINE
  5
FD5
330
18
100
AcDbEntity
  8
1
  6
Continuous
100
AcDbLine
 10
657.0913530047834
 20
304.6518499045149
 30
0.0
 11
660.2868518148405
 21
237.700993812728
 31
0.0
  0
LINE
  5
FD6
330
18
100
AcDbEntity
  8
1
  6
Continuous
100
AcDbLine
 10
638.8295510750038
 20
231.4276859884368
 30
0.0
 11
598.6344530047833
 21
301.3508169045148
 31
0.0
  0
ARC
  5
1008
330
18
100
AcDbEntity
  8
1
  6
Continuous
100
AcDbCircle
 10
658.1581430047832
 20
303.2763089045149
 30
0.0
 40
1.0
100
AcDbArc
 50
79.99999999999983
 51
182.7325999999998
  0
ARC
  5
1009
330
18
100
AcDbEntity
  8
1
  6
Continuous
100
AcDbCircle
 10
658.5896430047832
 20
304.7233639045149
 30
0.0
 40
1.5
100
AcDbArc
 50
79.99999999999983
 51
182.7325999999998
  0
LINE
  5
100A
330
18
100
AcDbEntity
  8
1
  6
Continuous
100
AcDbLine
 10
660.2996330047832
 20
305.9449869045149
 30
0.0
 11
659.9523230047832
 21
303.9753709045148
 31
0.0
  0
LINE
  5
100B
330
18
100
AcDbEntity
  8
1
  6
Continuous
100
AcDbLine
 10
659.9523230047832
 20
303.9753709045148
 30
0.0
 11
658.3318030047835
 21
304.2611179045148
 31
0.0
  0
ARC
  5
100D
330
18
100
AcDbEntity
  8
1
  6
Continuous
100
AcDbCircle
 10
594.2996330047832
 20
298.8589579045149
 30
0.0
 40
5.0
100
AcDbArc
 50
29.89231999999983
 51
89.99999699999987
  0
LINE
  5
100E
330
18
100
AcDbEntity
  8
1
  6
Continuous
100
AcDbLine
 10
594.2996330047832
 20
303.8589579045149
 30
0.0
 11
585.2996330047832
 21
303.8589579045149
 31
0.0
  0
LINE
  5
1010
330
18
100
AcDbEntity
  8
1
  6
Continuous
100
AcDbLine
 10
586.5496330047831
 20
315.4589599045148
 30
0.0
 11
633.0496330047832
 21
315.4589599045148
 31
0.0
  0
LINE
  5
1011
330
18
100
AcDbEntity
  8
1
  6
Continuous
100
AcDbLine
 10
631.2996330047832
 20
314.2589549045148
 30
0.0
 11
588.2996330047832
 21
314.2589549045148
 31
0.0
  0
LINE
  5
1012
330
18
100
AcDbEntity
  8
4
  6
CENTER
 48
0.5
100
AcDbLine
 10
650.7996330047832
 20
325.6589569045148
 30
0.0
 11
650.7996330047832
 21
317.5575089045148
 31
0.0
  0
LINE
  5
1013
330
18
100
AcDbEntity
  8
1
  6
Continuous
100
AcDbLine
 10
659.7996330047832
 20
322.6589569045148
 30
0.0
 11
659.7996330047832
 21
320.6589569045148
 31
0.0
  0
LINE
  5
1014
330
18
100
AcDbEntity
  8
1
  6
Continuous
100
AcDbLine
 10
635.2740930047834
 20
316.8180069045149
 30
0.0
 11
637.1047330047834
 21
320.3871449045148
 31
0.0
  0
ARC
  5
1015
330
18
100
AcDbEntity
  8
1
  6
Continuous
100
AcDbCircle
 10
633.0496330047832
 20
317.9589599045148
 30
0.0
 40
2.5
100
AcDbArc
 50
270.0
 51
332.84629
  0
ARC
  5
1016
330
18
100
AcDbEntity
  8
1
  6
Continuous
100
AcDbCircle
 10
631.2996330047832
 20
311.2589549045149
 30
0.0
 40
3.0
100
AcDbArc
 50
17.56646000000018
 51
89.99999699999987
  0
LINE
  5
1017
330
18
100
AcDbEntity
  8
1
  6
Continuous
100
AcDbLine
 10
634.6996230047832
 20
310.4589599045148
 30
0.0
 11
634.1597430047832
 21
312.1643889045149
 31
0.0
  0
ARC
  5
1018
330
18
100
AcDbEntity
  8
1
  6
Continuous
100
AcDbCircle
 10
627.7955630047832
 20
316.1369539045149
 30
0.0
 40
2.778000099999998
100
AcDbArc
 50
317.4661399999997
 51
345.87368
  0
ARC
  5
1019
330
18
100
AcDbEntity
  8
1
  6
Continuous
100
AcDbCircle
 10
626.8215430047835
 20
316.1369539045149
 30
0.0
 40
2.778000099999998
100
AcDbArc
 50
317.4661399999997
 51
345.87368
  0
ARC
  5
101A
330
18
100
AcDbEntity
  8
1
  6
Continuous
100
AcDbCircle
 10
624.2257530047834
 20
316.1369539045149
 30
0.0
 40
2.778000099999998
100
AcDbArc
 50
317.4661399999997
 51
345.87368
  0
ARC
  5
101B
330
18
100
AcDbEntity
  8
1
  6
Continuous
100
AcDbCircle
 10
620.2555030047832
 20
316.1369539045149
 30
0.0
 40
2.778000099999998
100
AcDbArc
 50
317.4661399999997
 51
345.87368
  0
ARC
  5
101C
330
18
100
AcDbEntity
  8
1
  6
Continuous
100
AcDbCircle
 10
637.5496330047832
 20
320.1589569045148
 30
0.0
 40
0.5
100
AcDbArc
 50
89.99999699999987
 51
152.8462909999999
  0
ARC
  5
101D
330
18
100
AcDbEntity
  8
1
  6
Continuous
100
AcDbCircle
 10
615.2890730047833
 20
316.1369539045149
 30
0.0
 40
2.778000099999998
100
AcDbArc
 50
194.12632
 51
222.5338699999996
  0
ARC
  5
101E
330
18
100
AcDbEntity
  8
1
  6
Continuous
100
AcDbCircle
 10
609.7996330047832
 20
316.1369539045149
 30
0.0
 40
2.778000099999998
100
AcDbArc
 50
317.4661399999997
 51
345.87368
  0
ARC
  5
101F
330
18
100
AcDbEntity
  8
1
  6
Continuous
100
AcDbCircle
 10
620.2555030047832
 20
316.1369539045149
 30
0.0
 40
2.778000099999998
100
AcDbArc
 50
206.6342399999998
 51
222.5338699999996
  0
ARC
  5
1020
330
18
100
AcDbEntity
  8
1
  6
Continuous
100
AcDbCircle
 10
615.2890730047833
 20
316.1369539045149
 30
0.0
 40
2.778000099999998
100
AcDbArc
 50
317.4661399999997
 51
345.87368
  0
ARC
  5
1021
330
18
100
AcDbEntity
  8
1
  6
Continuous
100
AcDbCircle
 10
599.3437630047832
 20
316.1369539045149
 30
0.0
 40
2.778000099999998
100
AcDbArc
 50
194.12632
 51
222.5338699999996
  0
ARC
  5
1022
330
18
100
AcDbEntity
  8
1
  6
Continuous
100
AcDbCircle
 10
604.3101930047834
 20
316.1369539045149
 30
0.0
 40
2.778000099999998
100
AcDbArc
 50
317.4661399999997
 51
345.87368
  0
ARC
  5
1023
330
18
100
AcDbEntity
  8
1
  6
Continuous
100
AcDbCircle
 10
599.3437630047832
 20
316.1369539045149
 30
0.0
 40
2.778000099999998
100
AcDbArc
 50
317.4661399999997
 51
333.3657500000003
  0
ARC
  5
1024
330
18
100
AcDbEntity
  8
1
  6
Continuous
100
AcDbCircle
 10
604.3101930047834
 20
316.1369539045149
 30
0.0
 40
2.778000099999998
100
AcDbArc
 50
194.12632
 51
222.5338699999996
  0
ARC
  5
1025
330
18
100
AcDbEntity
  8
1
  6
Continuous
100
AcDbCircle
 10
609.7996330047832
 20
316.1369539045149
 30
0.0
 40
2.778000099999998
100
AcDbArc
 50
194.12632
 51
222.5338699999996
  0
LINE
  5
1026
330
18
100
AcDbEntity
  8
4
  6
CENTER
 48
0.5
100
AcDbLine
 10
568.7996330047832
 20
325.6589569045148
 30
0.0
 11
568.7996330047832
 21
317.7205409045149
 31
0.0
  0
LINE
  5
1027
330
18
100
AcDbEntity
  8
1
  6
Continuous
100
AcDbLine
 10
584.3251730047834
 20
316.8180219045148
 30
0.0
 11
582.4945330047832
 21
320.3871519045147
 31
0.0
  0
ARC
  5
1028
330
18
100
AcDbEntity
  8
1
  6
Continuous
100
AcDbCircle
 10
592.7777230047833
 20
316.1369539045149
 30
0.0
 40
2.778000099999998
100
AcDbArc
 50
194.12632
 51
222.5338699999996
  0
ARC
  5
1029
330
18
100
AcDbEntity
  8
1
  6
Continuous
100
AcDbCircle
 10
588.2996330047832
 20
311.2589549045149
 30
0.0
 40
3.0
100
AcDbArc
 50
89.99999699999987
 51
180.0
  0
ARC
  5
102A
330
18
100
AcDbEntity
  8
1
  6
Continuous
100
AcDbCircle
 10
591.8037030047835
 20
316.1369539045149
 30
0.0
 40
2.778000099999998
100
AcDbArc
 50
194.12632
 51
222.5338699999996
  0
ARC
  5
102B
330
18
100
AcDbEntity
  8
1
  6
Continuous
100
AcDbCircle
 10
586.5496330047831
 20
317.9589599045148
 30
0.0
 40
2.5
100
AcDbArc
 50
207.15371
 51
270.0
  0
ARC
  5
102C
330
18
100
AcDbEntity
  8
1
  6
Continuous
100
AcDbCircle
 10
595.3735130047832
 20
316.1369539045149
 30
0.0
 40
2.778000099999998
100
AcDbArc
 50
194.12632
 51
222.5338699999996
  0
ARC
  5
102D
330
18
100
AcDbEntity
  8
1
  6
Continuous
100
AcDbCircle
 10
582.0496330047832
 20
320.1589569045148
 30
0.0
 40
0.5
100
AcDbArc
 50
27.15370999999997
 51
89.99999699999987
  0
LINE
  5
102F
330
18
100
AcDbEntity
  8
1
  6
Continuous
100
AcDbLine
 10
559.7996330047833
 20
322.6589569045148
 30
0.0
 11
559.7996330047833
 21
320.6589569045148
 31
0.0
  0
LINE
  5
10B5
330
18
100
AcDbEntity
  8
1
  6
Continuous
100
AcDbLine
 10
215.2878146292105
 20
106.5686860090629
 30
0.0
 11
228.1004494933518
 21
99.04120178761814
 31
0.0
  0
ARC
  5
10B7
330
18
100
AcDbEntity
  8
1
  6
Continuous
100
AcDbCircle
 10
619.5124010557313
 20
-801.2765581310777
 30
0.0
 40
973.770549996369
100
AcDbArc
 50
110.87335376211
 51
112.1991010243803
  0
LINE
  5
10B8
330
18
100
AcDbEntity
  8
4
  6
CENTER
 48
0.5
100
AcDbLine
 10
235.4577264742915
 20
35.88160178761825
 30
0.0
 11
235.4577264742915
 21
108.386271447893
 31
0.0
  0
ARC
  5
10B9
330
18
100
AcDbEntity
  8
1
  6
Continuous
100
AcDbCircle
 10
203.7057005890535
 20
98.72910162925101
 30
0.0
 40
11.58903664606882
100
AcDbArc
 50
81.19629184800379
 51
92.8439221816324
  0
ARC
  5
10BA
330
18
100
AcDbEntity
  8
1
  6
Continuous
100
AcDbCircle
 10
202.3027077331422
 20
99.09160395859323
 30
0.0
 40
11.24279244798308
100
AcDbArc
 50
85.77651430137612
 51
242.3021417504406
  0
ARC
  5
10BB
330
18
100
AcDbEntity
  8
5
  6
PHANTOM
 48
0.3
100
AcDbCircle
 10
192.060582218991
 20
99.09160395859323
 30
0.0
 40
11.24279244798308
100
AcDbArc
 50
85.77651430137612
 51
245.2492325779208
  0
ARC
  5
10BC
330
18
100
AcDbEntity
  8
1
  6
Continuous
100
AcDbCircle
 10
198.4150905983625
 20
75.88278043339015
 30
0.0
 40
35.01876093210995
100
AcDbArc
 50
61.19569198937337
 51
78.36189875557185
  0
ARC
  5
10BD
330
18
100
AcDbEntity
  8
1
  6
Continuous
100
AcDbCircle
 10
279.4901201936248
 20
94.78684047816335
 30
0.0
 40
15.4437926128695
100
AcDbArc
 50
85.43319638139299
 51
116.6849693782888
  0
LINE
  5
10C0
330
18
100
AcDbEntity
  8
1
  6
Continuous
100
AcDbLine
 10
242.3861464742913
 20
98.88160178761813
 30
0.0
 11
248.449055980056
 21
98.88160178761813
 31
0.0
  0
LINE
  5
10C1
330
18
100
AcDbEntity
  8
1
  6
Continuous
100
AcDbLine
 10
231.9577264742914
 20
40.88160178761818
 30
0.0
 11
316.9577264742915
 21
40.88160178761818
 31
0.0
  0
CIRCLE
  5
10C2
330
18
100
AcDbEntity
  8
1
  6
Continuous
100
AcDbCircle
 10
315.4577264742915
 20
49.88160178761813
 30
0.0
 40
4.400000099999997
  0
CIRCLE
  5
10C3
330
18
100
AcDbEntity
  8
1
  6
Continuous
100
AcDbCircle
 10
315.4577264742915
 20
89.88160178761814
 30
0.0
 40
4.400000099999997
  0
LINE
  5
10C4
330
18
100
AcDbEntity
  8
4
  6
CENTER
 48
0.3
100
AcDbLine
 10
324.8577265742915
 20
89.88160178761814
 30
0.0
 11
306.0577263742915
 21
89.88160178761814
 31
0.0
  0
LINE
  5
10C5
330
18
100
AcDbEntity
  8
4
  6
CENTER
 48
0.3
100
AcDbLine
 10
324.8577265742915
 20
49.88160178761813
 30
0.0
 11
306.0577263742915
 21
49.88160178761813
 31
0.0
  0
LINE
  5
10C6
330
18
100
AcDbEntity
  8
4
  6
CENTER
 48
0.5
100
AcDbLine
 10
167.9577264742914
 20
69.8816017876182
 30
0.0
 11
326.9243964742914
 21
69.8816017876182
 31
0.0
  0
LINE
  5
10C8
330
18
100
AcDbEntity
  8
1
  6
Continuous
100
AcDbLine
 10
294.9782464742915
 20
83.38160178761814
 30
0.0
 11
175.9372064742914
 21
83.38160178761814
 31
0.0
  0
LINE
  5
10C9
330
18
100
AcDbEntity
  8
1
  6
Continuous
100
AcDbLine
 10
294.9782464742915
 20
56.38160178761814
 30
0.0
 11
175.9372064742914
 21
56.38160178761814
 31
0.0
  0
ARC
  5
10CB
330
18
100
AcDbEntity
  8
1
  6
Continuous
100
AcDbCircle
 10
242.9577264742914
 20
69.8816017876182
 30
0.0
 40
70.0
100
AcDbArc
 50
170.2634800000002
 51
189.7365300000003
  0
ARC
  5
10CC
330
18
100
AcDbEntity
  8
1
  6
Continuous
100
AcDbCircle
 10
175.9372064742914
 20
81.38160178761813
 30
0.0
 40
2.0
100
AcDbArc
 50
90.00000000000005
 51
170.2634700000001
  0
LINE
  5
10CE
330
18
100
AcDbEntity
  8
1
  6
Continuous
100
AcDbLine
 10
197.076957193171
 20
87.88160178761811
 30
0.0
 11
197.076957193171
 21
89.881601787618
 31
0.0
  0
ARC
  5
10CF
330
18
100
AcDbEntity
  8
1
  6
Continuous
100
AcDbCircle
 10
175.9372064742914
 20
58.38160178761814
 30
0.0
 40
2.0
100
AcDbArc
 50
189.7365300000003
 51
270.0000039999999
  0
LINE
  5
10D2
330
18
100
AcDbEntity
  8
4
  6
CENTER
 48
0.5
100
AcDbLine
 10
274.4577264742914
 20
35.88160178761825
 30
0.0
 11
274.4577264742914
 21
103.8816017876181
 31
0.0
  0
ARC
  5
10D3
330
18
100
AcDbEntity
  8
1
  6
Continuous
100
AcDbCircle
 10
141.9910664742914
 20
69.8816017876182
 30
0.0
 40
85.0
100
AcDbArc
 50
346.5596789999998
 51
347.7742114068425
  0
LINE
  5
10D6
330
18
100
AcDbEntity
  8
4
  6
CENTER
 48
0.3
100
AcDbLine
 10
233.4577264742915
 20
99.28160188761816
 30
0.0
 11
233.4577264742915
 21
80.48160168761814
 31
0.0
  0
LINE
  5
10D8
330
18
100
AcDbEntity
  8
1
  6
Continuous
100
AcDbLine
 10
239.4577244742915
 20
103.256589387618
 30
0.0
 11
231.4577284742914
 21
103.256589387618
 31
0.0
  0
LINE
  5
10D9
330
18
100
AcDbEntity
  8
1
  6
Continuous
100
AcDbLine
 10
238.8327244742915
 20
103.881589387618
 30
0.0
 11
232.0827284742914
 21
103.881589387618
 31
0.0
  0
LINE
  5
10DA
330
18
100
AcDbEntity
  8
4
  6
CENTER
 48
0.3
100
AcDbLine
 10
224.0577263742914
 20
89.88160178761814
 30
0.0
 11
242.8577265742914
 21
89.88160178761814
 31
0.0
  0
LINE
  5
10DF
330
18
100
AcDbEntity
  8
1
  6
Continuous
100
AcDbLine
 10
232.0827304742915
 20
103.881588887618
 30
0.0
 11
231.4577284742914
 21
103.256587887618
 31
0.0
  0
LINE
  5
10E0
330
18
100
AcDbEntity
  8
1
  6
Continuous
100
AcDbLine
 10
231.4577284742914
 20
99.78158938761801
 30
0.0
 11
231.4577284742914
 21
103.256589387618
 31
0.0
  0
LINE
  5
10E1
330
18
100
AcDbEntity
  8
2
  6
Continuous
100
AcDbLine
 10
232.0827284742914
 20
99.78158938761801
 30
0.0
 11
232.0827284742914
 21
103.881589387618
 31
0.0
  0
ARC
  5
10E5
330
18
100
AcDbEntity
  8
1
  6
Continuous
100
AcDbCircle
 10
239.0619262330587
 20
121.94182961343
 30
0.0
 40
25.38883075550141
100
AcDbArc
 50
244.4217067374947
 51
245.4899723270147
  0
LINE
  5
10E7
330
18
100
AcDbEntity
  8
1
  6
Continuous
100
AcDbLine
 10
280.7197764440615
 20
87.88160178761811
 30
0.0
 11
197.076957193171
 21
87.88160178761811
 31
0.0
  0
ARC
  5
10E8
330
18
100
AcDbEntity
  8
1
  6
Continuous
100
AcDbCircle
 10
223.4577264742914
 20
81.88160178761814
 30
0.0
 40
3.0
100
AcDbArc
 50
90.00000000000005
 51
149.9999999999998
  0
LINE
  5
10E9
330
18
100
AcDbEntity
  8
1
  6
Continuous
100
AcDbLine
 10
221.5773966195007
 20
85.12430182908753
 30
0.0
 11
221.5773966195007
 21
87.88160178761811
 31
0.0
  0
LINE
  5
10EB
330
18
100
AcDbEntity
  8
1
  6
Continuous
100
AcDbLine
 10
221.21602178985
 20
83.8752818290875
 30
0.0
 11
215.5750466195005
 21
83.8752818290875
 31
0.0
  0
ARC
  5
10ED
330
18
100
AcDbEntity
  8
1
  6
Continuous
100
AcDbCircle
 10
217.5773966195007
 20
85.12430182908753
 30
0.0
 40
4.0
100
AcDbArc
 50
345.266563834826
 51
359.9999969999998
  0
LINE
  5
10EE
330
18
100
AcDbEntity
  8
1
  6
Continuous
100
AcDbLine
 10
214.6250346195005
 20
85.42429182908763
 30
0.0
 11
214.6250346195005
 21
87.88160178761811
 31
0.0
  0
ARC
  5
10EF
330
18
100
AcDbEntity
  8
1
  6
Continuous
100
AcDbCircle
 10
210.6250346195005
 20
85.42429182908763
 30
0.0
 40
4.0
100
AcDbArc
 50
341.8051209999998
 51
359.9999969999998
  0
LINE
  5
10F1
330
18
100
AcDbEntity
  8
1
  6
Continuous
100
AcDbLine
 10
215.5750236195005
 20
83.87529182908753
 30
0.0
 11
214.4250296195005
 21
84.17530182908752
 31
0.0
  0
LINE
  5
10F2
330
18
100
AcDbEntity
  8
1
  6
Continuous
100
AcDbLine
 10
223.9577264742914
 20
85.88160178761814
 30
0.0
 11
223.9577264742914
 21
87.88160178761811
 31
0.0
  0
LINE
  5
10F4
330
18
100
AcDbEntity
  8
1
  6
Continuous
100
AcDbLine
 10
247.4577264742915
 20
84.88160178761814
 30
0.0
 11
223.4577264742914
 21
84.8816017876182
 31
0.0
  0
LINE
  5
10F5
330
18
100
AcDbEntity
  8
1
  6
Continuous
100
AcDbLine
 10
257.0723878235775
 20
85.88160178761814
 30
0.0
 11
223.9577264742914
 21
85.88160178761814
 31
0.0
  0
ARC
  5
10F6
330
18
100
AcDbEntity
  8
1
  6
Continuous
100
AcDbCircle
 10
227.3233687838775
 20
149.4478533679613
 30
0.0
 40
54.80182896945456
100
AcDbArc
 50
285.9536135998346
 51
296.2904791310328
  0
LINE
  5
10FC
330
18
100
AcDbEntity
  8
1
  6
Continuous
100
AcDbLine
 10
239.4577264742914
 20
103.2565902876181
 30
0.0
 11
238.8327264742915
 21
103.881589387618
 31
0.0
  0
LINE
  5
10FD
330
18
100
AcDbEntity
  8
2
  6
Continuous
100
AcDbLine
 10
238.8327244742915
 20
99.78158938761804
 30
0.0
 11
238.8327244742915
 21
103.881589387618
 31
0.0
  0
LINE
  5
10FE
330
18
100
AcDbEntity
  8
1
  6
Continuous
100
AcDbLine
 10
239.4577244742915
 20
99.78158938761804
 30
0.0
 11
239.4577244742915
 21
103.256589387618
 31
0.0
  0
LINE
  5
10FF
330
18
100
AcDbEntity
  8
4
  6
CENTER
 48
0.3
100
AcDbLine
 10
315.4577264742915
 20
99.28160188761816
 30
0.0
 11
315.4577264742915
 21
80.48160168761814
 31
0.0
  0
ARC
  5
1101
330
18
100
AcDbEntity
  8
1
  6
Continuous
100
AcDbCircle
 10
231.9577264742914
 20
48.38160178761814
 30
0.0
 40
7.5
100
AcDbArc
 50
166.5597100000001
 51
270.0000179999999
  0
LINE
  5
1102
330
18
100
AcDbEntity
  8
4
  6
CENTER
 48
0.3
100
AcDbLine
 10
224.0577263742914
 20
49.88160178761813
 30
0.0
 11
242.8577265742914
 21
49.88160178761813
 31
0.0
  0
ARC
  5
1103
330
18
100
AcDbEntity
  8
1
  6
Continuous
100
AcDbCircle
 10
233.4577264742915
 20
49.88160178761813
 30
0.0
 40
4.400000099999997
100
AcDbArc
 50
207.0355452242333
 51
332.9644547757665
  0
LINE
  5
1104
330
18
100
AcDbEntity
  8
4
  6
CENTER
 48
0.3
100
AcDbLine
 10
233.4577264742915
 20
40.48160168761818
 30
0.0
 11
233.4577264742915
 21
59.28160188761815
 31
0.0
  0
LINE
  5
1106
330
18
100
AcDbEntity
  8
1
  6
Continuous
100
AcDbLine
 10
217.8239364742915
 20
56.38159178761816
 30
0.0
 11
218.7434464742914
 21
54.85144178761811
 31
0.0
  0
ARC
  5
1107
330
18
100
AcDbEntity
  8
1
  6
Continuous
100
AcDbCircle
 10
220.4577264742915
 20
55.88160178761818
 30
0.0
 40
2.0
100
AcDbArc
 50
211.0027199999997
 51
269.9999499999999
  0
LINE
  5
1108
330
18
100
AcDbEntity
  8
1
  6
Continuous
100
AcDbLine
 10
223.9577264742914
 20
51.88160178761814
 30
0.0
 11
223.9577264742914
 21
53.88160178761814
 31
0.0
  0
LINE
  5
1109
330
18
100
AcDbEntity
  8
1
  6
Continuous
100
AcDbLine
 10
257.0723878235775
 20
53.88160178761814
 30
0.0
 11
220.4577264742915
 21
53.88160178761814
 31
0.0
  0
LINE
  5
110A
330
18
100
AcDbEntity
  8
1
  6
Continuous
100
AcDbLine
 10
257.0723878235775
 20
51.88160178761815
 30
0.0
 11
223.9577264742914
 21
51.88160178761814
 31
0.0
  0
LINE
  5
110B
330
18
100
AcDbEntity
  8
4
  6
CENTER
 48
0.3
100
AcDbLine
 10
315.4577264742915
 20
40.48160168761818
 30
0.0
 11
315.4577264742915
 21
59.28160188761815
 31
0.0
  0
ARC
  5
110E
330
18
100
AcDbEntity
  8
1
  6
Continuous
100
AcDbCircle
 10
406.9243964742915
 20
69.8816017876182
 30
0.0
 40
85.0
100
AcDbArc
 50
166.5597100000001
 51
193.4403599999999
  0
ARC
  5
110F
330
18
100
AcDbEntity
  8
1
  6
Continuous
100
AcDbCircle
 10
316.9577264742915
 20
91.38160178761813
 30
0.0
 40
7.5
100
AcDbArc
 50
346.5597179999999
 51
89.99997999999962
  0
ARC
  5
1110
330
18
100
AcDbEntity
  8
1
  6
Continuous
100
AcDbCircle
 10
316.9577264742915
 20
48.38160178761814
 30
0.0
 40
7.5
100
AcDbArc
 50
270.0000179999999
 51
13.44031999999993
  0
ARC
  5
11D6
330
18
100
AcDbEntity
  8
1
  6
Continuous
100
AcDbCircle
 10
475.6285500395375
 20
281.8028279045147
 30
0.0
 40
59.0
100
AcDbArc
 50
179.87851
 51
209.2050599999999
  0
ARC
  5
11D7
330
18
100
AcDbEntity
  8
1
  6
Continuous
100
AcDbCircle
 10
427.2796817395373
 20
251.7094033045148
 30
0.0
 40
4.0
100
AcDbArc
 50
71.80511999999978
 51
89.99999699999987
  0
LINE
  5
11D8
330
18
100
AcDbEntity
  8
1
  6
Continuous
100
AcDbLine
 10
427.2796817395373
 20
255.7094033045148
 30
0.0
 11
426.1286797395372
 21
255.7094033045148
 31
0.0
  0
ARC
  5
11DB
330
18
100
AcDbEntity
  8
1
  6
Continuous
100
AcDbCircle
 10
412.0505337395375
 20
231.2573459045148
 30
0.0
 40
13.85776
100
AcDbArc
 50
228.30747
 51
309.4596031761651
  0
ARC
  5
11DC
330
18
100
AcDbEntity
  8
1
  6
Continuous
100
AcDbCircle
 10
404.8286807890937
 20
223.1495870699951
 30
0.0
 40
3.000000289556286
100
AcDbArc
 50
180.0000031604391
 51
228.3074685430923
  0
ARC
  5
11DE
330
18
100
AcDbEntity
  8
1
  6
Continuous
100
AcDbCircle
 10
421.6286757395375
 20
218.8293004715756
 30
0.0
 40
0.5
100
AcDbArc
 50
0.0
 51
131.8440642166917
  0
ARC
  5
11E0
330
18
100
AcDbEntity
  8
1
  6
Continuous
100
AcDbCircle
 10
422.1286797395372
 20
219.0139997352574
 30
0.0
 40
2.0
100
AcDbArc
 50
0.0
 51
129.4596031761656
  0
LINE
  5
11E1
330
18
100
AcDbEntity
  8
1
  6
Continuous
100
AcDbLine
 10
416.0091358102416
 20
252.0876799045149
 30
0.0
 11
424.1286894313494
 21
252.0876799045149
 31
0.0
  0
LINE
  5
11E2
330
18
100
AcDbEntity
  8
1
  6
Continuous
100
AcDbLine
 10
412.7095542080216
 20
239.0840882471489
 30
0.0
 11
422.1286859834294
 21
239.0840882471489
 31
0.0
  0
LINE
  5
11E3
330
18
100
AcDbEntity
  8
1
  6
Continuous
100
AcDbLine
 10
425.708811310939
 20
224.9511128430384
 30
0.0
 11
423.128682236052
 21
224.9511128430384
 31
0.0
  0
LINE
  5
11E8
330
18
100
AcDbEntity
  8
1
  6
Continuous
100
AcDbLine
 10
425.2134471562809
 20
228.4106949023531
 30
0.0
 11
423.1286811562811
 21
228.4106949023531
 31
0.0
  0
ARC
  5
11E9
330
18
100
AcDbEntity
  8
1
  6
Continuous
100
AcDbCircle
 10
425.2134471562809
 20
224.4106949023531
 30
0.0
 40
4.0
100
AcDbArc
 50
67.66835000000009
 51
89.99999699999987
  0
LINE
  5
11EA
330
18
100
AcDbEntity
  8
1
  6
Continuous
100
AcDbLine
 10
426.7333158939286
 20
228.1106947699641
 30
0.0
 11
427.2286794995683
 21
224.6511129361724
 31
0.0
  0
LINE
  5
11EB
330
18
100
AcDbEntity
  8
1
  6
Continuous
100
AcDbLine
 10
424.1286817366209
 20
223.0675439045148
 30
0.0
 11
424.1286797395373
 21
215.5356809045148
 31
0.0
  0
LINE
  5
11EC
330
18
100
AcDbEntity
  8
1
  6
Continuous
100
AcDbLine
 10
424.1286797395373
 20
223.0675439045148
 30
0.0
 11
423.128682236052
 21
224.9511128430384
 31
0.0
  0
ARC
  5
11F0
330
18
100
AcDbEntity
  8
1
  6
Continuous
100
AcDbCircle
 10
227.9577264742914
 20
69.8816017876182
 30
0.0
 40
70.0
100
AcDbArc
 50
350.2634699999997
 51
9.736519999999812
  0
ARC
  5
11F1
330
18
100
AcDbEntity
  8
1
  6
Continuous
100
AcDbCircle
 10
294.9782464742915
 20
58.38160178761814
 30
0.0
 40
2.0
100
AcDbArc
 50
269.9999959999999
 51
350.2634699999997
  0
ARC
  5
11F2
330
18
100
AcDbEntity
  8
1
  6
Continuous
100
AcDbCircle
 10
294.9782464742915
 20
81.38160178761813
 30
0.0
 40
2.0
100
AcDbArc
 50
9.736529999999877
 51
89.99999999999998
  0
ARC
  5
11F3
330
18
100
AcDbEntity
  8
1
  6
Continuous
100
AcDbCircle
 10
250.4577264742914
 20
55.88160178761818
 30
0.0
 40
2.0
100
AcDbArc
 50
270.0000500000001
 51
328.9972800000001
  0
LINE
  5
11F4
330
18
100
AcDbEntity
  8
1
  6
Continuous
100
AcDbLine
 10
253.0915164742915
 20
56.38159178761816
 30
0.0
 11
252.1720064742914
 21
54.85144178761811
 31
0.0
  0
ARC
  5
11F5
330
18
100
AcDbEntity
  8
1
  6
Continuous
100
AcDbCircle
 10
247.4577264742915
 20
81.88160178761814
 30
0.0
 40
3.0
100
AcDbArc
 50
30.00000000000015
 51
89.99999999999998
  0
ARC
  5
11F6
330
18
100
AcDbEntity
  8
1
  6
Continuous
100
AcDbCircle
 10
141.9910664742914
 20
69.8816017876182
 30
0.0
 40
85.0
100
AcDbArc
 50
10.16424862172348
 51
10.84981586299686
  0
LINE
  5
120D
330
18
100
AcDbEntity
  8
1
  6
Continuous
100
AcDbLine
 10
280.7197764440615
 20
89.881601787618
 30
0.0
 11
197.076957193171
 21
89.881601787618
 31
0.0
  0
LINE
  5
120E
330
18
100
AcDbEntity
  8
1
  6
Continuous
100
AcDbLine
 10
220.4274026195006
 20
85.42429182908763
 30
0.0
 11
220.4274026195006
 21
87.88160178761811
 31
0.0
  0
ARC
  5
120F
330
18
100
AcDbEntity
  8
1
  6
Continuous
100
AcDbCircle
 10
216.4274026195005
 20
85.42429182908763
 30
0.0
 40
4.0
100
AcDbArc
 50
341.8051209999998
 51
359.9999969999998
  0
LINE
  5
1210
330
18
100
AcDbEntity
  8
1
  6
Continuous
100
AcDbLine
 10
214.4250296195005
 20
84.17530182908752
 30
0.0
 11
220.2274024742913
 21
84.17529178761823
 31
0.0
  0
LINE
  5
1211
330
18
100
AcDbEntity
  8
1
  6
Continuous
100
AcDbLine
 10
220.2274024742913
 20
84.17529178761823
 30
0.0
 11
221.2467917518639
 21
83.90935119352704
 31
0.0
  0
ARC
  5
12A2
330
18
100
AcDbEntity
  8
1
  6
Continuous
100
AcDbCircle
 10
244.527529369737
 20
87.68157778761802
 30
0.0
 40
5.0
100
AcDbArc
 50
26.10388000000025
 51
67.66878852010693
  0
ARC
  5
12AB
330
18
100
AcDbEntity
  8
1
  6
Continuous
100
AcDbCircle
 10
226.387923578846
 20
87.68157778761802
 30
0.0
 40
5.0
100
AcDbArc
 50
112.331211479893
 51
153.8961199999996
  0
LINE
  5
12AC
330
18
100
AcDbEntity
  8
1
  6
Continuous
100
AcDbLine
 10
288.6309979553237
 20
98.88160178761813
 30
0.0
 11
316.9577264742915
 21
98.88160178761816
 31
0.0
  0
ARC
  5
12AF
330
18
100
AcDbEntity
  8
1
  6
Continuous
100
AcDbCircle
 10
274.4577264742911
 20
69.8816017876188
 30
0.0
 40
22.5
100
AcDbArc
 50
126.8698976458468
 51
130.9993536502036
  0
ARC
  5
12B0
330
18
100
AcDbEntity
  8
1
  6
Continuous
100
AcDbCircle
 10
276.8194575039401
 20
99.03160178761813
 30
0.0
 40
11.81249287130653
100
AcDbArc
 50
289.2800610485918
 51
70.71993895140844
  0
ARC
  5
12B1
330
18
100
AcDbEntity
  8
1
  6
Continuous
100
AcDbCircle
 10
241.1636105827526
 20
87.68157778761802
 30
0.0
 40
5.0
100
AcDbArc
 50
124.9787730392311
 51
153.8961199999996
  0
ARC
  5
12B2
330
18
100
AcDbEntity
  8
1
  6
Continuous
100
AcDbCircle
 10
229.7518449978245
 20
87.68157778761802
 30
0.0
 40
5.0
100
AcDbArc
 50
26.10388000000025
 51
55.02122209062218
  0
LINE
  5
12B3
330
18
100
AcDbEntity
  8
1
  6
Continuous
100
AcDbLine
 10
280.7197764440615
 20
89.881601787618
 30
0.0
 11
280.7197764440615
 21
87.88160178761811
 31
0.0
  0
ARC
  5
12B5
330
18
100
AcDbEntity
  8
1
  6
Continuous
100
AcDbCircle
 10
276.7967527751469
 20
99.84789382479096
 30
0.0
 40
10.71060650369908
100
AcDbArc
 50
291.4860480299876
 51
75.78393341868023
  0
LINE
  5
12B6
330
18
100
AcDbEntity
  8
1
  6
Continuous
100
AcDbLine
 10
249.1875482736465
 20
97.69650399666076
 30
0.0
 11
249.1875482736465
 21
91.381601787618
 31
0.0
  0
LINE
  5
12BB
330
18
100
AcDbEntity
  8
1
  6
Continuous
100
AcDbLine
 10
268.6025943047783
 20
84.17530182908754
 30
0.0
 11
274.4647563290821
 21
84.17529178761823
 31
0.0
  0
LINE
  5
12BC
330
18
100
AcDbEntity
  8
1
  6
Continuous
100
AcDbLine
 10
274.4647563290821
 20
84.17529178761823
 30
0.0
 11
275.2023123370519
 21
83.8752818290875
 31
0.0
  0
LINE
  5
12BD
330
18
100
AcDbEntity
  8
1
  6
Continuous
100
AcDbLine
 10
275.2023123370519
 20
83.8752818290875
 30
0.0
 11
269.340174999082
 21
83.8752818290875
 31
0.0
  0
ARC
  5
12BE
330
18
100
AcDbEntity
  8
1
  6
Continuous
100
AcDbCircle
 10
270.6647564742914
 20
85.42429182908767
 30
0.0
 40
4.0
100
AcDbArc
 50
341.8051209999998
 51
359.9999969999998
  0
LINE
  5
12BF
330
18
100
AcDbEntity
  8
1
  6
Continuous
100
AcDbLine
 10
274.6647564742914
 20
85.42429182908767
 30
0.0
 11
274.6647564742914
 21
87.88160178761811
 31
0.0
  0
LINE
  5
12C0
330
18
100
AcDbEntity
  8
1
  6
Continuous
100
AcDbLine
 10
268.8025993047781
 20
85.42429182908767
 30
0.0
 11
268.8025993047783
 21
87.88160178761811
 31
0.0
  0
ARC
  5
12C2
330
18
100
AcDbEntity
  8
1
  6
Continuous
100
AcDbCircle
 10
264.8025993047781
 20
85.42429182908767
 30
0.0
 40
4.0
100
AcDbArc
 50
341.8051209999998
 51
359.9999969999998
  0
LINE
  5
12C3
330
18
100
AcDbEntity
  8
1
  6
Continuous
100
AcDbLine
 10
275.4023190423736
 20
85.12430182908753
 30
0.0
 11
275.4023190423736
 21
87.88160178761811
 31
0.0
  0
ARC
  5
12C4
330
18
100
AcDbEntity
  8
1
  6
Continuous
100
AcDbCircle
 10
271.4023190423735
 20
85.12430182908753
 30
0.0
 40
4.0
100
AcDbArc
 50
341.8048200682632
 51
359.9999969999998
  0
LINE
  5
12C5
330
18
100
AcDbEntity
  8
1
  6
Continuous
100
AcDbLine
 10
268.6025943047783
 20
84.17530182908754
 30
0.0
 11
269.340174999082
 21
83.8752818290875
 31
0.0
  0
ARC
  5
12C6
330
18
100
AcDbEntity
  8
1
  6
Continuous
100
AcDbCircle
 10
274.4577264742911
 20
69.8816017876188
 30
0.0
 40
17.5
100
AcDbArc
 50
108.8535384167647
 51
129.5176527971734
  0
ARC
  5
12C7
330
18
100
AcDbEntity
  8
1
  6
Continuous
100
AcDbCircle
 10
648.7996330047835
 20
237.1589569045148
 30
0.0
 40
21.49999999999999
100
AcDbArc
 50
152.2283368843349
 51
60.39657703496811
  0
LINE
  5
15CB
330
18
100
AcDbEntity
  8
1
  6
Continuous
100
AcDbLine
 10
655.7996330047832
 20
239.8515381045149
 30
0.0
 11
655.7996330047832
 21
234.4663759045146
 31
0.0
  0
CIRCLE
  5
15CC
330
18
100
AcDbEntity
  8
1
  6
Continuous
100
AcDbCircle
 10
648.7996330047832
 20
237.1589569045148
 30
0.0
 40
2.299999999999998
  0
CIRCLE
  5
15CD
330
18
100
AcDbEntity
  8
1
  6
Continuous
100
AcDbCircle
 10
648.7996330047832
 20
237.1589569045148
 30
0.0
 40
6.3000002
  0
LINE
  5
15CE
330
18
100
AcDbEntity
  8
1
  6
Continuous
100
AcDbLine
 10
641.7996330047832
 20
239.8515381045149
 30
0.0
 11
641.7996330047832
 21
234.4663759045146
 31
0.0
  0
LINE
  5
15CF
330
18
100
AcDbEntity
  8
1
  6
Continuous
100
AcDbLine
 10
642.9677830047832
 20
232.443057904515
 30
0.0
 11
647.6314630047832
 21
229.7504769045149
 31
0.0
  0
ARC
  5
15D0
330
18
100
AcDbEntity
  8
1
  6
Continuous
100
AcDbCircle
 10
648.7996330047832
 20
237.1589569045148
 30
0.0
 40
7.5
100
AcDbArc
 50
201.0394399999987
 51
218.9605300000001
  0
ARC
  5
15D1
330
18
100
AcDbEntity
  8
1
  6
Continuous
100
AcDbCircle
 10
648.7996330047832
 20
237.1589569045148
 30
0.0
 40
7.5
100
AcDbArc
 50
321.0394400000053
 51
338.9605399999993
  0
ARC
  5
15D2
330
18
100
AcDbEntity
  8
1
  6
Continuous
100
AcDbCircle
 10
648.7996330047832
 20
237.1589569045148
 30
0.0
 40
7.5
100
AcDbArc
 50
261.0394499999967
 51
278.960560000004
  0
LINE
  5
15D3
330
18
100
AcDbEntity
  8
1
  6
Continuous
100
AcDbLine
 10
649.9678030047832
 20
229.7504769045149
 30
0.0
 11
654.6314830047832
 21
232.443057904515
 31
0.0
  0
LINE
  5
15D4
330
18
100
AcDbEntity
  8
1
  6
Continuous
100
AcDbLine
 10
642.9677830047832
 20
241.8748258045148
 30
0.0
 11
647.6314830047832
 21
244.5674147045149
 31
0.0
  0
ARC
  5
15D5
330
18
100
AcDbEntity
  8
1
  6
Continuous
100
AcDbCircle
 10
648.7996330047832
 20
237.1589569045148
 30
0.0
 40
7.5
100
AcDbArc
 50
141.0395299999985
 51
158.9605600000011
  0
ARC
  5
15D6
330
18
100
AcDbEntity
  8
1
  6
Continuous
100
AcDbCircle
 10
648.7996330047832
 20
237.1589569045148
 30
0.0
 40
7.5
100
AcDbArc
 50
21.03946000000068
 51
38.96051600000396
  0
ARC
  5
15D7
330
18
100
AcDbEntity
  8
1
  6
Continuous
100
AcDbCircle
 10
648.7996330047832
 20
237.1589569045148
 30
0.0
 40
7.5
100
AcDbArc
 50
81.0394840000055
 51
98.960513999997
  0
LINE
  5
15D8
330
18
100
AcDbEntity
  8
1
  6
Continuous
100
AcDbLine
 10
649.9677830047832
 20
244.5674275045147
 30
0.0
 11
654.6314830047832
 21
241.874846404515
 31
0.0
  0
LINE
  5
15F2
330
18
100
AcDbEntity
  8
1
  6
Continuous
100
AcDbLine
 10
228.7577264742914
 20
47.8816117676181
 30
0.0
 11
242.1577264742913
 21
47.8816117676181
 31
0.0
  0
ARC
  5
15F3
330
18
100
AcDbEntity
  8
1
  6
Continuous
100
AcDbCircle
 10
231.1258764742914
 20
50.38161176761811
 30
0.0
 40
1.5
100
AcDbArc
 50
90.00000299999769
 51
180.0000100000009
  0
ARC
  5
15F4
330
18
100
AcDbEntity
  8
1
  6
Continuous
100
AcDbCircle
 10
231.1258764742914
 20
49.38161176761788
 30
0.0
 40
1.5
100
AcDbArc
 50
179.9999899999988
 51
270.0
  0
LINE
  5
15F5
330
18
100
AcDbEntity
  8
1
  6
Continuous
100
AcDbLine
 10
229.6258764742915
 20
49.38161176761788
 30
0.0
 11
229.6258764742915
 21
50.38161176761811
 31
0.0
  0
LINE
  5
15F6
330
18
100
AcDbEntity
  8
1
  6
Continuous
100
AcDbLine
 10
228.4577264742914
 20
48.18161176761782
 30
0.0
 11
228.4577264742914
 21
51.58160176761795
 31
0.0
  0
ARC
  5
15F7
330
18
100
AcDbEntity
  8
1
  6
Continuous
100
AcDbCircle
 10
228.7577264742914
 20
48.18161176761782
 30
0.0
 40
0.30000001
100
AcDbArc
 50
179.9999899999988
 51
270.0
  0
ARC
  5
15F8
330
18
100
AcDbEntity
  8
1
  6
Continuous
100
AcDbCircle
 10
228.7577264742914
 20
51.58160176761795
 30
0.0
 40
0.30000001
100
AcDbArc
 50
90.00000299999769
 51
180.0000100000009
  0
ARC
  5
15F9
330
18
100
AcDbEntity
  8
1
  6
Continuous
100
AcDbCircle
 10
242.1577264742913
 20
51.58160176761795
 30
0.0
 40
0.30000001
100
AcDbArc
 50
0.0
 51
90.00000299999769
  0
ARC
  5
15FA
330
18
100
AcDbEntity
  8
1
  6
Continuous
100
AcDbCircle
 10
239.7895764742914
 20
50.38161176761811
 30
0.0
 40
1.5
100
AcDbArc
 50
0.0
 51
90.00000299999769
  0
ARC
  5
15FB
330
18
100
AcDbEntity
  8
1
  6
Continuous
100
AcDbCircle
 10
242.1577264742913
 20
48.18161176761782
 30
0.0
 40
0.30000001
100
AcDbArc
 50
270.0
 51
0.0
  0
ARC
  5
15FC
330
18
100
AcDbEntity
  8
1
  6
Continuous
100
AcDbCircle
 10
239.7895764742914
 20
49.38161176761788
 30
0.0
 40
1.5
100
AcDbArc
 50
270.0
 51
0.0
  0
LINE
  5
15FD
330
18
100
AcDbEntity
  8
1
  6
Continuous
100
AcDbLine
 10
242.4577264742914
 20
48.18161176761782
 30
0.0
 11
242.4577264742914
 21
51.58160176761795
 31
0.0
  0
LINE
  5
15FE
330
18
100
AcDbEntity
  8
1
  6
Continuous
100
AcDbLine
 10
241.2895764742915
 20
49.38161176761788
 30
0.0
 11
241.2895764742915
 21
50.38161176761811
 31
0.0
  0
ARC
  5
15FF
330
18
100
AcDbEntity
  8
1
  6
Continuous
100
AcDbCircle
 10
238.1258764742915
 20
50.38161176761811
 30
0.0
 40
1.5
100
AcDbArc
 50
90.00000299999769
 51
180.0000100000009
  0
ARC
  5
1600
330
18
100
AcDbEntity
  8
1
  6
Continuous
100
AcDbCircle
 10
232.7895764742915
 20
50.38161176761811
 30
0.0
 40
1.5
100
AcDbArc
 50
0.0
 51
90.00000299999769
  0
ARC
  5
1601
330
18
100
AcDbEntity
  8
1
  6
Continuous
100
AcDbCircle
 10
238.1258764742915
 20
49.38161176761788
 30
0.0
 40
1.5
100
AcDbArc
 50
179.9999899999988
 51
270.0
  0
ARC
  5
1602
330
18
100
AcDbEntity
  8
1
  6
Continuous
100
AcDbCircle
 10
232.7895764742915
 20
49.38161176761788
 30
0.0
 40
1.5
100
AcDbArc
 50
270.0
 51
0.0
  0
LINE
  5
1603
330
18
100
AcDbEntity
  8
1
  6
Continuous
100
AcDbLine
 10
234.2895764742915
 20
49.38161176761788
 30
0.0
 11
234.2895764742915
 21
50.38161176761811
 31
0.0
  0
LINE
  5
1604
330
18
100
AcDbEntity
  8
1
  6
Continuous
100
AcDbLine
 10
236.6258764742914
 20
49.38161176761788
 30
0.0
 11
236.6258764742914
 21
50.38161176761811
 31
0.0
  0
CIRCLE
  5
1685
330
18
100
AcDbEntity
  8
1
  6
Continuous
100
AcDbCircle
 10
235.4577264742915
 20
237.1589569045148
 30
0.0
 40
8.5
  0
LINE
  5
1686
330
18
100
AcDbEntity
  8
1
  6
Continuous
100
AcDbLine
 10
228.5295190742913
 20
237.1589379045147
 30
0.0
 11
231.9936186742915
 21
231.1589419045148
 31
0.0
  0
LINE
  5
1687
330
18
100
AcDbEntity
  8
1
  6
Continuous
100
AcDbLine
 10
228.5295200742914
 20
237.1589649045147
 30
0.0
 11
231.9936203742915
 21
243.1589609045146
 31
0.0
  0
CIRCLE
  5
1688
330
18
100
AcDbEntity
  8
1
  6
Continuous
100
AcDbCircle
 10
235.4577264742915
 20
237.1589569045148
 30
0.0
 40
6.0
  0
LINE
  5
168B
330
18
100
AcDbEntity
  8
1
  6
Continuous
100
AcDbLine
 10
238.9218260742914
 20
231.1589649045147
 30
0.0
 11
242.3859262742915
 21
237.1589609045146
 31
0.0
  0
LINE
  5
168C
330
18
100
AcDbEntity
  8
1
  6
Continuous
100
AcDbLine
 10
238.9218225742915
 20
231.1589569045148
 30
0.0
 11
231.9936303742915
 21
231.1589569045148
 31
0.0
  0
LINE
  5
168D
330
18
100
AcDbEntity
  8
1
  6
Continuous
100
AcDbLine
 10
238.9218225742915
 20
243.1589569045147
 30
0.0
 11
231.9936303742915
 21
243.1589569045147
 31
0.0
  0
LINE
  5
168E
330
18
100
AcDbEntity
  8
1
  6
Continuous
100
AcDbLine
 10
238.9218268742915
 20
243.1589529045147
 30
0.0
 11
242.3859262742915
 21
237.1589529045146
 31
0.0
  0
ARC
  5
1696
330
18
100
AcDbEntity
  8
1
  6
Continuous
100
AcDbCircle
 10
230.2615722742916
 20
399.8113240514118
 30
0.0
 40
2.2750001
100
AcDbArc
 50
238.0677599999984
 51
319.5825629999977
  0
LINE
  5
1697
330
18
100
AcDbEntity
  8
1
  6
Continuous
100
AcDbLine
 10
241.4577250544188
 20
397.5363244214118
 30
0.0
 11
229.4577244742915
 21
397.5363244214119
 31
0.0
  0
LINE
  5
1699
330
18
100
AcDbEntity
  8
1
  6
Continuous
100
AcDbLine
 10
228.5295208742915
 20
398.3363240314119
 30
0.0
 11
229.4577244742915
 21
397.5363239214118
 31
0.0
  0
ARC
  5
16A4
330
18
100
AcDbEntity
  8
1
  6
Continuous
100
AcDbCircle
 10
235.4577244742916
 20
405.4363245214116
 30
0.0
 40
7.900000099999997
100
AcDbArc
 50
270.0
 51
296.0078240000015
  0
LINE
  5
16A5
330
18
100
AcDbEntity
  8
1
  6
Continuous
100
AcDbLine
 10
231.9936228742914
 20
398.4363120214116
 30
0.0
 11
231.9936228742914
 21
398.3363246214119
 31
0.0
  0
ARC
  5
16A7
330
18
100
AcDbEntity
  8
1
  6
Continuous
100
AcDbCircle
 10
235.4577244742916
 20
405.4363245214116
 30
0.0
 40
7.900000099999997
100
AcDbArc
 50
243.9921799999992
 51
270.0
  0
LINE
  5
16A8
330
18
100
AcDbEntity
  8
1
  6
Continuous
100
AcDbLine
 10
242.3859275742914
 20
398.4363120214116
 30
0.0
 11
242.3859275742914
 21
398.3363246214119
 31
0.0
  0
LINE
  5
16A9
330
18
100
AcDbEntity
  8
1
  6
Continuous
100
AcDbLine
 10
238.9218260742914
 20
398.4363120214116
 30
0.0
 11
238.9218260742914
 21
398.3363246214119
 31
0.0
  0
LINE
  5
16AB
330
18
100
AcDbEntity
  8
1
  6
Continuous
100
AcDbLine
 10
242.3859280742914
 20
398.3363240314119
 30
0.0
 11
241.4577244742914
 21
397.5363239214118
 31
0.0
  0
ARC
  5
16AC
330
18
100
AcDbEntity
  8
1
  6
Continuous
100
AcDbCircle
 10
240.6538766742915
 20
399.8113240514118
 30
0.0
 40
2.2750001
100
AcDbArc
 50
220.4174400000029
 51
301.9322410000004
  0
LINE
  5
16B4
330
18
100
AcDbEntity
  8
1
  6
Continuous
100
AcDbLine
 10
82.65344610904563
 20
243.1589092045149
 30
0.0
 11
82.65344610904563
 21
231.158872904515
 31
0.0
  0
ARC
  5
16B5
330
18
100
AcDbEntity
  8
1
  6
Continuous
100
AcDbCircle
 10
79.36772900904569
 20
237.1589569045149
 30
0.0
 40
4.8142858
100
AcDbArc
 50
148.7155100000006
 51
211.2844999999988
  0
LINE
  5
16B6
330
18
100
AcDbEntity
  8
1
  6
Continuous
100
AcDbLine
 10
75.25344600904563
 20
245.6589569045148
 30
0.0
 11
75.25344600904569
 21
228.6589569045148
 31
0.0
  0
ARC
  5
16B7
330
18
100
AcDbEntity
  8
1
  6
Continuous
100
AcDbCircle
 10
72.4282906133209
 20
234.1589149045149
 30
0.0
 40
6.025157499999997
100
AcDbArc
 50
330.1375650387551
 51
29.86243400000025
  0
ARC
  5
16B8
330
18
100
AcDbEntity
  8
1
  6
Continuous
100
AcDbCircle
 10
76.62828920904566
 20
234.1589149045149
 30
0.0
 40
6.025157499999997
100
AcDbArc
 50
330.1375700000016
 51
29.86243400000025
  0
LINE
  5
16BB
330
18
100
AcDbEntity
  8
1
  6
Continuous
100
AcDbLine
 10
76.65344610904563
 20
228.6589569045148
 30
0.0
 11
76.65344610904563
 21
245.6589569045148
 31
0.0
  0
LINE
  5
16BC
330
18
100
AcDbEntity
  8
1
  6
Continuous
100
AcDbLine
 10
77.65344811315301
 20
231.158872904515
 30
0.0
 11
82.65344610904563
 21
231.158872904515
 31
0.0
  0
ARC
  5
16BD
330
18
100
AcDbEntity
  8
1
  6
Continuous
100
AcDbCircle
 10
75.75344600904556
 20
230.6589569045149
 30
0.0
 40
1.199999999999999
100
AcDbArc
 50
163.2315600000006
 51
218.4535300000006
  0
LINE
  5
16BE
330
18
100
AcDbEntity
  8
1
  6
Continuous
100
AcDbLine
 10
75.25344600904569
 20
229.3589559045149
 30
0.0
 11
74.81371000904566
 21
229.9127009045149
 31
0.0
  0
LINE
  5
16BF
330
18
100
AcDbEntity
  8
1
  6
Continuous
100
AcDbLine
 10
75.25344600904569
 20
233.1589579045149
 30
0.0
 11
74.60447000904574
 21
231.0051609045149
 31
0.0
  0
LINE
  5
16C0
330
18
100
AcDbEntity
  8
1
  6
Continuous
100
AcDbLine
 10
78.24392974593175
 20
231.158872904515
 30
0.0
 11
76.65344610904563
 21
228.6589569045148
 31
0.0
  0
LINE
  5
16C1
330
18
100
AcDbEntity
  8
1
  6
Continuous
100
AcDbLine
 10
75.25344600904569
 20
228.6589569045148
 30
0.0
 11
76.65344610904563
 21
228.6589569045148
 31
0.0
  0
LINE
  5
16C5
330
18
100
AcDbEntity
  8
1
  6
Continuous
100
AcDbLine
 10
77.65344653384396
 20
243.1589092045149
 30
0.0
 11
82.65344610904563
 21
243.1589092045149
 31
0.0
  0
LINE
  5
16C6
330
18
100
AcDbEntity
  8
1
  6
Continuous
100
AcDbLine
 10
77.65344816348378
 20
237.1589568168524
 30
0.0
 11
81.85344720904565
 21
237.1589569045149
 31
0.0
  0
ARC
  5
16C7
330
18
100
AcDbEntity
  8
1
  6
Continuous
100
AcDbCircle
 10
75.75344600904556
 20
243.6589569045149
 30
0.0
 40
1.199999999999999
100
AcDbArc
 50
141.546459999999
 51
196.7684299999995
  0
LINE
  5
16C8
330
18
100
AcDbEntity
  8
1
  6
Continuous
100
AcDbLine
 10
75.25344600904569
 20
244.9589595345149
 30
0.0
 11
74.81371000904566
 21
244.4052146045149
 31
0.0
  0
LINE
  5
16C9
330
18
100
AcDbEntity
  8
1
  6
Continuous
100
AcDbLine
 10
75.25344600904569
 20
241.1589579045149
 30
0.0
 11
74.60447200904564
 21
243.3127514045149
 31
0.0
  0
ARC
  5
16CA
330
18
100
AcDbEntity
  8
1
  6
Continuous
100
AcDbCircle
 10
72.42853561332086
 20
240.1589340045149
 30
0.0
 40
6.0249104
100
AcDbArc
 50
330.1369399999984
 51
29.86305163530118
  0
LINE
  5
16CB
330
18
100
AcDbEntity
  8
1
  6
Continuous
100
AcDbLine
 10
78.24401353542495
 20
243.1589092045149
 30
0.0
 11
76.65344610904563
 21
245.6589569045148
 31
0.0
  0
LINE
  5
16CC
330
18
100
AcDbEntity
  8
1
  6
Continuous
100
AcDbLine
 10
75.25344600904569
 20
245.6589569045148
 30
0.0
 11
76.65344610904563
 21
245.6589569045148
 31
0.0
  0
ARC
  5
16CD
330
18
100
AcDbEntity
  8
1
  6
Continuous
100
AcDbCircle
 10
76.62853720904561
 20
240.1589340045149
 30
0.0
 40
6.0249104
100
AcDbArc
 50
330.1369399999984
 51
29.86306199999791
  0
LINE
  5
16D2
330
18
100
AcDbEntity
  8
1
  6
Continuous
100
AcDbLine
 10
228.5295213742914
 20
398.477191853513
 30
0.0
 11
228.5295213742914
 21
398.3363246214119
 31
0.0
  0
LINE
  5
1731
330
18
100
AcDbEntity
  8
1
  6
Continuous
100
AcDbLine
 10
228.5295253742915
 20
94.78158988761803
 30
0.0
 11
226.9577284742914
 21
93.78158938761798
 31
0.0
  0
LINE
  5
1732
330
18
100
AcDbEntity
  8
1
  6
Continuous
100
AcDbLine
 10
226.9577284742914
 20
92.381589787618
 30
0.0
 11
227.9577284742914
 21
91.68158998761798
 31
0.0
  0
LINE
  5
1733
330
18
100
AcDbEntity
  8
1
  6
Continuous
100
AcDbLine
 10
243.9577284742914
 20
93.78158938761805
 30
0.0
 11
226.9577284742914
 21
93.78158938761798
 31
0.0
  0
LINE
  5
1734
330
18
100
AcDbEntity
  8
1
  6
Continuous
100
AcDbLine
 10
246.0473697889479
 20
92.38158928761803
 30
0.0
 11
224.8680831596348
 21
92.38158928761803
 31
0.0
  0
LINE
  5
1735
330
18
100
AcDbEntity
  8
1
  6
Continuous
100
AcDbLine
 10
243.9577284742914
 20
92.38158928761803
 30
0.0
 11
243.9577284742914
 21
93.78158938761798
 31
0.0
  0
ARC
  5
1737
330
18
100
AcDbEntity
  8
1
  6
Continuous
100
AcDbCircle
 10
240.6538806742914
 20
93.3065894876181
 30
0.0
 40
2.2750001
100
AcDbArc
 50
40.41744000000262
 51
139.5825629999982
  0
ARC
  5
1738
330
18
100
AcDbEntity
  8
1
  6
Continuous
100
AcDbCircle
 10
240.6538806742914
 20
97.50658975761801
 30
0.0
 40
2.2750001
100
AcDbArc
 50
58.06775999999803
 51
139.5825629999982
  0
LINE
  5
1739
330
18
100
AcDbEntity
  8
1
  6
Continuous
100
AcDbLine
 10
229.4577278941642
 20
99.78158938761804
 30
0.0
 11
241.4577284742914
 21
99.78158938761801
 31
0.0
  0
LINE
  5
173A
330
18
100
AcDbEntity
  8
1
  6
Continuous
100
AcDbLine
 10
242.3859315742915
 20
94.78158938761801
 30
0.0
 11
242.3859315742915
 21
98.98158918761801
 31
0.0
  0
LINE
  5
173B
330
18
100
AcDbEntity
  8
1
  6
Continuous
100
AcDbLine
 10
242.3859320742915
 20
98.98158977761802
 30
0.0
 11
241.4577284742914
 21
99.78158988761805
 31
0.0
  0
LINE
  5
173C
330
18
100
AcDbEntity
  8
1
  6
Continuous
100
AcDbLine
 10
242.3859315742915
 20
94.78158988761803
 30
0.0
 11
243.9577284742914
 21
93.78158938761798
 31
0.0
  0
ARC
  5
1745
330
18
100
AcDbEntity
  8
1
  6
Continuous
100
AcDbCircle
 10
235.4577284742914
 20
87.6815894876181
 30
0.0
 40
7.900000099999997
100
AcDbArc
 50
90.0
 51
116.0078240000009
  0
ARC
  5
1746
330
18
100
AcDbEntity
  8
1
  6
Continuous
100
AcDbCircle
 10
235.4577284742914
 20
91.8815892876181
 30
0.0
 40
7.900000099999997
100
AcDbArc
 50
90.0
 51
116.0078240000009
  0
LINE
  5
1747
330
18
100
AcDbEntity
  8
1
  6
Continuous
100
AcDbLine
 10
238.9218300742915
 20
94.78158938761801
 30
0.0
 11
238.9218300742915
 21
98.98158918761801
 31
0.0
  0
ARC
  5
1748
330
18
100
AcDbEntity
  8
1
  6
Continuous
100
AcDbCircle
 10
235.4577284742914
 20
87.6815894876181
 30
0.0
 40
7.900000099999997
100
AcDbArc
 50
63.9921799999991
 51
90.0
  0
ARC
  5
1749
330
18
100
AcDbEntity
  8
1
  6
Continuous
100
AcDbCircle
 10
235.4577284742914
 20
91.8815892876181
 30
0.0
 40
7.900000099999997
100
AcDbArc
 50
63.9921799999991
 51
90.0
  0
LINE
  5
174A
330
18
100
AcDbEntity
  8
1
  6
Continuous
100
AcDbLine
 10
228.5295253742915
 20
94.78158938761801
 30
0.0
 11
228.5295253742915
 21
98.98158918761801
 31
0.0
  0
LINE
  5
174B
330
18
100
AcDbEntity
  8
1
  6
Continuous
100
AcDbLine
 10
231.9936268742913
 20
94.78158938761801
 30
0.0
 11
231.9936268742913
 21
98.98158918761801
 31
0.0
  0
ARC
  5
174C
330
18
100
AcDbEntity
  8
1
  6
Continuous
100
AcDbCircle
 10
230.2615762742914
 20
93.3065894876181
 30
0.0
 40
2.2750001
100
AcDbArc
 50
40.41744000000262
 51
139.5825629999982
  0
LINE
  5
174D
330
18
100
AcDbEntity
  8
1
  6
Continuous
100
AcDbLine
 10
228.5295248742915
 20
98.98158977761802
 30
0.0
 11
229.4577284742914
 21
99.78158988761805
 31
0.0
  0
ARC
  5
174E
330
18
100
AcDbEntity
  8
1
  6
Continuous
100
AcDbCircle
 10
230.2615762742914
 20
97.50658975761801
 30
0.0
 40
2.2750001
100
AcDbArc
 50
40.41744000000262
 51
121.9322410000009
  0
ARC
  5
174F
330
18
100
AcDbEntity
  8
1
  6
Continuous
100
AcDbCircle
 10
239.2077284742914
 20
95.58927758761809
 30
0.0
 40
3.9181328
100
AcDbArc
 50
234.9526500000001
 51
305.0473400000007
  0
LINE
  5
1750
330
18
100
AcDbEntity
  8
1
  6
Continuous
100
AcDbLine
 10
243.9577284742914
 20
92.381589787618
 30
0.0
 11
242.9577284742915
 21
91.68158998761798
 31
0.0
  0
LINE
  5
1751
330
18
100
AcDbEntity
  8
1
  6
Continuous
100
AcDbLine
 10
242.9577284742915
 20
91.68158898761801
 30
0.0
 11
241.1515503742915
 21
92.187319187618
 31
0.0
  0
ARC
  5
1752
330
18
100
AcDbEntity
  8
1
  6
Continuous
100
AcDbCircle
 10
231.7077284742914
 20
95.58927758761809
 30
0.0
 40
3.9181328
100
AcDbArc
 50
234.9526500000001
 51
305.0473400000007
  0
LINE
  5
1753
330
18
100
AcDbEntity
  8
1
  6
Continuous
100
AcDbLine
 10
227.9577284742914
 20
91.68158898761801
 30
0.0
 11
229.7639065742914
 21
92.187319187618
 31
0.0
  0
LINE
  5
1754
330
18
100
AcDbEntity
  8
1
  6
Continuous
100
AcDbLine
 10
226.9577284742914
 20
92.38158928761803
 30
0.0
 11
226.9577284742914
 21
93.78158938761798
 31
0.0
  0
ARC
  5
1775
330
18
100
AcDbEntity
  8
1
  6
Continuous
100
AcDbCircle
 10
246.0473697889479
 20
91.38158928761804
 30
0.0
 40
1.0
100
AcDbArc
 50
67.66878852010728
 51
90.0
  0
ARC
  5
1776
330
18
100
AcDbEntity
  8
1
  6
Continuous
100
AcDbCircle
 10
224.8680831596348
 20
91.38158928761804
 30
0.0
 40
1.0
100
AcDbArc
 50
90.0
 51
112.3312114798927
  0
ENDSEC
  0
SECTION
  2
OBJECTS
  0
DICTIONARY
  5
C
330
0
100
AcDbDictionary
281
     1
  3
ACAD_CIP_PREVIOUS_PRODUCT_INFO
350
17F5
  3
ACAD_COLOR
350
17D8
  3
ACAD_DETAILVIEWSTYLE
350
17F1
  3
ACAD_GROUP
350
D
  3
ACAD_LAYOUT
350
5D
  3
ACAD_MATERIAL
350
17A6
  3
ACAD_MLEADERSTYLE
350
17ED
  3
ACAD_MLINESTYLE
350
1B
  3
ACAD_PLOTSETTINGS
350
5E
  3
ACAD_PLOTSTYLENAME
350
17A4
  3
ACAD_SCALELIST
350
17DB
  3
ACAD_SECTIONVIEWSTYLE
350
17EF
  3
ACAD_TABLESTYLE
350
17D9
  3
ACAD_VISUALSTYLE
350
17BF
  3
ACDB_RECOMPOSE_DATA
350
1813
  3
AcDbVariableDictionary
350
1806
  3
CONTENTDICTIONARY
350
3D
  3
DWGPROPS
350
1814
  0
DICTIONARY
  5
17F6
330
E
100
AcDbDictionary
280
     1
281
     1
  3
ADSK_XREC_LAYER_RECONCILED
360
17F7
  0
DICTIONARY
  5
17F8
330
65
100
AcDbDictionary
280
     1
281
     1
  3
ADSK_XREC_LAYER_RECONCILED
360
17F9
  0
DICTIONARY
  5
17FA
330
66
100
AcDbDictionary
280
     1
281
     1
  3
ADSK_XREC_LAYER_RECONCILED
360
17FB
  0
DICTIONARY
  5
17FC
330
67
100
AcDbDictionary
280
     1
281
     1
  3
ADSK_XREC_LAYER_RECONCILED
360
17FD
  0
DICTIONARY
  5
17FE
330
68
100
AcDbDictionary
280
     1
281
     1
  3
ADSK_XREC_LAYER_RECONCILED
360
17FF
  0
DICTIONARY
  5
1800
330
69
100
AcDbDictionary
280
     1
281
     1
  3
ADSK_XREC_LAYER_RECONCILED
360
1801
  0
DICTIONARY
  5
1802
330
6A
100
AcDbDictionary
280
     1
281
     1
  3
ADSK_XREC_LAYER_RECONCILED
360
1803
  0
DICTIONARY
  5
1804
330
6B
100
AcDbDictionary
280
     1
281
     1
  3
ADSK_XREC_LAYER_RECONCILED
360
1805
  0
DICTIONARY
  5
1786
330
18
100
AcDbDictionary
281
     1
  3
ACAD_LAYOUTSELFREF
350
17A0
  0
DICTIONARY
  5
1784
330
15
100
AcDbDictionary
281
     1
  3
ACAD_LAYOUTSELFREF
350
179F
  0
XRECORD
  5
17F5
102
{ACAD_REACTORS
330
C
102
}
330
C
100
AcDbXrecord
280
     1
300
ACDLT
300
2014
300
ACDLT_F_S
  0
DICTIONARY
  5
17D8
102
{ACAD_REACTORS
330
C
102
}
330
C
100
AcDbDictionary
281
     1
  0
DICTIONARY
  5
17F1
102
{ACAD_REACTORS
330
C
102
}
330
C
100
AcDbDictionary
281
     1
  3
Imperial24
350
17F2
  0
DICTIONARY
  5
D
102
{ACAD_REACTORS
330
C
102
}
330
C
100
AcDbDictionary
281
     1
  0
DICTIONARY
  5
5D
102
{ACAD_REACTORS
330
C
102
}
330
C
100
AcDbDictionary
281
     1
  3
Model
350
17F3
  3
レイアウト1
350
17F4
  0
DICTIONARY
  5
17A6
102
{ACAD_REACTORS
330
C
102
}
330
C
100
AcDbDictionary
281
     1
  3
ByBlock
350
17AF
  3
ByLayer
350
17A7
  3
Global
350
17B7
  0
DICTIONARY
  5
17ED
102
{ACAD_REACTORS
330
C
102
}
330
C
100
AcDbDictionary
281
     1
  3
Standard
350
17EE
  0
DICTIONARY
  5
1B
102
{ACAD_REACTORS
330
C
102
}
330
C
100
AcDbDictionary
281
     1
  3
STANDARD
350
1C
  0
DICTIONARY
  5
5E
102
{ACAD_REACTORS
330
C
102
}
330
C
100
AcDbDictionary
281
     1
  0
ACDBDICTIONARYWDFLT
  5
17A4
102
{ACAD_REACTORS
330
C
102
}
330
C
100
AcDbDictionary
281
     1
  3
Normal
350
17A5
100
AcDbDictionaryWithDefault
340
17A5
  0
DICTIONARY
  5
17DB
102
{ACAD_REACTORS
330
C
102
}
330
C
100
AcDbDictionary
281
     1
  3
A0
350
17DC
  3
A1
350
17DD
  3
A2
350
17DE
  3
A3
350
17DF
  3
A4
350
17E0
  3
A5
350
17E1
  3
A6
350
17E2
  3
A7
350
17E3
  3
A8
350
17E4
  3
A9
350
17E5
  3
B0
350
17E6
  3
B1
350
17E7
  3
B2
350
17E8
  3
B3
350
17E9
  3
B4
350
17EA
  3
B5
350
17EB
  3
B6
350
17EC
  0
DICTIONARY
  5
17EF
102
{ACAD_REACTORS
330
C
102
}
330
C
100
AcDbDictionary
281
     1
  3
Imperial24
350
17F0
  0
DICTIONARY
  5
17D9
102
{ACAD_REACTORS
330
C
102
}
330
C
100
AcDbDictionary
281
     1
  3
Standard
350
17DA
  0
DICTIONARY
  5
17BF
102
{ACAD_REACTORS
330
C
102
}
330
C
100
AcDbDictionary
281
     1
  3
2dWireframe
350
17C5
  3
Basic
350
17C4
  3
Brighten
350
17CB
  3
ColorChange
350
17CF
  3
Conceptual
350
17C8
  3
Dim
350
17CA
  3
EdgeColorOff
350
17D7
  3
Facepattern
350
17CE
  3
Flat
350
17C0
  3
FlatWithEdges
350
17C1
  3
Gouraud
350
17C2
  3
GouraudWithEdges
350
17C3
  3
Hidden
350
17C7
  3
JitterOff
350
17D5
  3
Linepattern
350
17CD
  3
OverhangOff
350
17D6
  3
Realistic
350
17C9
  3
Shaded
350
17D4
  3
Shaded with edges
350
17D3
  3
Shades of Gray
350
17D0
  3
Sketchy
350
17D1
  3
Thicken
350
17CC
  3
Wireframe
350
17C6
  3
X-Ray
350
17D2
  0
XRECORD
  5
1813
102
{ACAD_REACTORS
330
C
102
}
330
C
100
AcDbXrecord
280
     1
 90
        1
330
17DA
  0
DICTIONARY
  5
1806
102
{ACAD_REACTORS
330
C
102
}
330
C
100
AcDbDictionary
281
     1
  3
CANNOSCALE
350
180B
  3
CMLEADERSTYLE
350
1808
  3
CTABLESTYLE
350
1807
  3
CVIEWDETAILSTYLE
350
1809
  3
CVIEWSECTIONSTYLE
350
180A
  3
DIMASSOC
350
180E
  3
INDEXCTL
350
180D
  3
SORTENTS
350
180C
  3
XCLIPFRAME
350
180F
  0
DICTIONARY
  5
3D
102
{ACAD_REACTORS
330
C
102
}
330
C
100
AcDbDictionary
281
     1
  0
XRECORD
  5
1814
102
{ACAD_REACTORS
330
C
102
}
330
C
100
AcDbXrecord
280
     1
  1
DWGPROPS COOKIE
  2

  3

  4

  6

  7

  8
Yoshitsune
  9

300
=
301
=
302
=
303
=
304
=
305
=
306
=
307
=
308
=
309
=
 40
0.0876264236111111
 41
2453280.658238924
 42
2457192.688880266
  1

 90
        0
  0
XRECORD
  5
17F7
102
{ACAD_REACTORS
330
17F6
102
}
330
17F6
100
AcDbXrecord
280
     1
290
     1
  0
XRECORD
  5
17F9
102
{ACAD_REACTORS
330
17F8
102
}
330
17F8
100
AcDbXrecord
280
     1
290
     1
  0
XRECORD
  5
17FB
102
{ACAD_REACTORS
330
17FA
102
}
330
17FA
100
AcDbXrecord
280
     1
290
     1
  0
XRECORD
  5
17FD
102
{ACAD_REACTORS
330
17FC
102
}
330
17FC
100
AcDbXrecord
280
     1
290
     1
  0
XRECORD
  5
17FF
102
{ACAD_REACTORS
330
17FE
102
}
330
17FE
100
AcDbXrecord
280
     1
290
     1
  0
XRECORD
  5
1801
102
{ACAD_REACTORS
330
1800
102
}
330
1800
100
AcDbXrecord
280
     1
290
     1
  0
XRECORD
  5
1803
102
{ACAD_REACTORS
330
1802
102
}
330
1802
100
AcDbXrecord
280
     1
290
     1
  0
XRECORD
  5
1805
102
{ACAD_REACTORS
330
1804
102
}
330
1804
100
AcDbXrecord
280
     1
290
     1
  0
XRECORD
  5
17A0
102
{ACAD_REACTORS
330
1786
102
}
330
1786
100
AcDbXrecord
280
     1
340
18
  0
XRECORD
  5
179F
102
{ACAD_REACTORS
330
1784
102
}
330
1784
100
AcDbXrecord
280
     1
340
15
  0
ACDBDETAILVIEWSTYLE
  5
17F2
102
{ACAD_XDICTIONARY
360
184C
102
}
102
{ACAD_REACTORS
330
17F1
102
}
330
17F1
100
AcDbModelDocViewStyle
 70
     0
  3
Imperial24
290
     0
100
AcDbDetailViewStyle
 70
     0
 71
     0
 90
        3
 71
     1
340
F
 40
0.24
340
0
 40
0.24
300

 40
0.36
280
     3
 71
     2
340
14
 90
       25
 71
     3
340
F
 40
0.24
 90
        1
 40
0.75
 90
        1
300
%<\AcVar ViewType \f "%tc1">% %<\AcVar ViewDetailId>%\PSCALE %<\AcVar ViewScale \f "%sn">%
 71
     4
340
14
 90
       25
340
14
 90
       25
280
     0
  0
LAYOUT
  5
17F3
102
{ACAD_XDICTIONARY
360
184E
102
}
102
{ACAD_REACTORS
330
5D
102
}
330
5D
100
AcDbPlotSettings
  1

  2
Canon LBP9100C
  4

  6

 40
0.0
 41
0.0
 42
0.0
 43
0.0
 44
0.0
 45
0.0
 46
0.0
 47
0.0
 48
0.0
 49
0.0
140
0.0
141
0.0
142
1.0
143
1.0
 70
  1712
 72
     0
 73
     0
 74
     0
  7

 75
     0
147
1.0
148
0.0
149
0.0
100
AcDbLayout
  1
Model
 70
     1
 71
     0
 10
0.0
 20
0.0
 11
12.0
 21
9.0
 12
0.0
 22
0.0
 32
0.0
 14
0.0
 24
0.0
 34
0.0
 15
0.0
 25
0.0
 35
0.0
146
0.0
 13
0.0
 23
0.0
 33
0.0
 16
1.0
 26
0.0
 36
0.0
 17
0.0
 27
1.0
 37
0.0
 76
     0
330
18
331
179E
  0
LAYOUT
  5
17F4
102
{ACAD_XDICTIONARY
360
1850
102
}
102
{ACAD_REACTORS
330
5D
102
}
330
5D
100
AcDbPlotSettings
  1

  2
Canon LBP9100C
  4

  6

 40
0.0
 41
0.0
 42
0.0
 43
0.0
 44
0.0
 45
0.0
 46
0.0
 47
0.0
 48
0.0
 49
0.0
140
0.0
141
0.0
142
1.0
143
1.0
 70
   688
 72
     0
 73
     0
 74
     5
  7

 75
    16
147
1.0
148
0.0
149
0.0
100
AcDbLayout
  1
レイアウト1
 70
     1
 71
     1
 10
0.0
 20
0.0
 11
420.0
 21
297.0
 12
0.0
 22
0.0
 32
0.0
 14
1.000000000000000E+20
 24
1.000000000000000E+20
 34
1.000000000000000E+20
 15
-1.000000000000000E+20
 25
-1.000000000000000E+20
 35
-1.000000000000000E+20
146
0.0
 13
0.0
 23
0.0
 33
0.0
 16
1.0
 26
0.0
 36
0.0
 17
0.0
 27
1.0
 37
0.0
 76
     0
330
15
  0
MATERIAL
  5
17AF
102
{ACAD_XDICTIONARY
360
17B0
102
}
102
{ACAD_REACTORS
330
17A6
102
}
330
17A6
100
AcDbMaterial
  1
ByBlock
 72
     0
 43
0.0208333333333333
 43
0.0
 43
0.0
 43
0.0
 43
0.0
 43
0.0208333333333333
 43
0.0
 43
0.0
 43
0.0
 43
0.0
 43
1.0
 43
0.0
 43
0.0
 43
0.0
 43
0.0
 43
1.0
 77
     0
 47
0.0208333333333333
 47
0.0
 47
0.0
 47
0.0
 47
0.0
 47
0.0208333333333333
 47
0.0
 47
0.0
 47
0.0
 47
0.0
 47
1.0
 47
0.0
 47
0.0
 47
0.0
 47
0.0
 47
1.0
171
     0
 49
0.0208333333333333
 49
0.0
 49
0.0
 49
0.0
 49
0.0
 49
0.0208333333333333
 49
0.0
 49
0.0
 49
0.0
 49
0.0
 49
1.0
 49
0.0
 49
0.0
 49
0.0
 49
0.0
 49
1.0
175
     0
142
0.0208333333333333
142
0.0
142
0.0
142
0.0
142
0.0
142
0.0208333333333333
142
0.0
142
0.0
142
0.0
142
0.0
142
1.0
142
0.0
142
0.0
142
0.0
142
0.0
142
1.0
179
     0
144
0.0208333333333333
144
0.0
144
0.0
144
0.0
144
0.0
144
0.0208333333333333
144
0.0
144
0.0
144
0.0
144
0.0
144
1.0
144
0.0
144
0.0
144
0.0
144
0.0
144
1.0
147
0.0208333333333333
147
0.0
147
0.0
147
0.0
147
0.0
147
0.0208333333333333
147
0.0
147
0.0
147
0.0
147
0.0
147
1.0
147
0.0
147
0.0
147
0.0
147
0.0
147
1.0
  0
MATERIAL
  5
17A7
102
{ACAD_XDICTIONARY
360
17A8
102
}
102
{ACAD_REACTORS
330
17A6
102
}
330
17A6
100
AcDbMaterial
  1
ByLayer
 72
     0
 43
0.0208333333333333
 43
0.0
 43
0.0
 43
0.0
 43
0.0
 43
0.0208333333333333
 43
0.0
 43
0.0
 43
0.0
 43
0.0
 43
1.0
 43
0.0
 43
0.0
 43
0.0
 43
0.0
 43
1.0
 77
     0
 47
0.0208333333333333
 47
0.0
 47
0.0
 47
0.0
 47
0.0
 47
0.0208333333333333
 47
0.0
 47
0.0
 47
0.0
 47
0.0
 47
1.0
 47
0.0
 47
0.0
 47
0.0
 47
0.0
 47
1.0
171
     0
 49
0.0208333333333333
 49
0.0
 49
0.0
 49
0.0
 49
0.0
 49
0.0208333333333333
 49
0.0
 49
0.0
 49
0.0
 49
0.0
 49
1.0
 49
0.0
 49
0.0
 49
0.0
 49
0.0
 49
1.0
175
     0
142
0.0208333333333333
142
0.0
142
0.0
142
0.0
142
0.0
142
0.0208333333333333
142
0.0
142
0.0
142
0.0
142
0.0
142
1.0
142
0.0
142
0.0
142
0.0
142
0.0
142
1.0
179
     0
144
0.0208333333333333
144
0.0
144
0.0
144
0.0
144
0.0
144
0.0208333333333333
144
0.0
144
0.0
144
0.0
144
0.0
144
1.0
144
0.0
144
0.0
144
0.0
144
0.0
144
1.0
147
0.0208333333333333
147
0.0
147
0.0
147
0.0
147
0.0
147
0.0208333333333333
147
0.0
147
0.0
147
0.0
147
0.0
147
1.0
147
0.0
147
0.0
147
0.0
147
0.0
147
1.0
  0
MATERIAL
  5
17B7
102
{ACAD_XDICTIONARY
360
17B8
102
}
102
{ACAD_REACTORS
330
17A6
102
}
330
17A6
100
AcDbMaterial
  1
Global
 72
     0
 43
0.0208333333333333
 43
0.0
 43
0.0
 43
0.0
 43
0.0
 43
0.0208333333333333
 43
0.0
 43
0.0
 43
0.0
 43
0.0
 43
1.0
 43
0.0
 43
0.0
 43
0.0
 43
0.0
 43
1.0
 77
     0
 47
0.0208333333333333
 47
0.0
 47
0.0
 47
0.0
 47
0.0
 47
0.0208333333333333
 47
0.0
 47
0.0
 47
0.0
 47
0.0
 47
1.0
 47
0.0
 47
0.0
 47
0.0
 47
0.0
 47
1.0
171
     0
 49
0.0208333333333333
 49
0.0
 49
0.0
 49
0.0
 49
0.0
 49
0.0208333333333333
 49
0.0
 49
0.0
 49
0.0
 49
0.0
 49
1.0
 49
0.0
 49
0.0
 49
0.0
 49
0.0
 49
1.0
175
     0
142
0.0208333333333333
142
0.0
142
0.0
142
0.0
142
0.0
142
0.0208333333333333
142
0.0
142
0.0
142
0.0
142
0.0
142
1.0
142
0.0
142
0.0
142
0.0
142
0.0
142
1.0
179
     0
144
0.0208333333333333
144
0.0
144
0.0
144
0.0
144
0.0
144
0.0208333333333333
144
0.0
144
0.0
144
0.0
144
0.0
144
1.0
144
0.0
144
0.0
144
0.0
144
0.0
144
1.0
147
0.0208333333333333
147
0.0
147
0.0
147
0.0
147
0.0
147
0.0208333333333333
147
0.0
147
0.0
147
0.0
147
0.0
147
1.0
147
0.0
147
0.0
147
0.0
147
0.0
147
1.0
  0
MLEADERSTYLE
  5
17EE
102
{ACAD_REACTORS
330
17ED
102
}
330
17ED
100
AcDbMLeaderStyle
170
     2
171
     1
172
     0
 90
        2
 40
0.0
 41
0.0
173
     1
 91
-1056964608
340
12
 92
       -2
290
     1
 42
0.09
291
     1
 43
0.36
  3
Standard
 44
0.18
300

342
F
174
     1
178
     6
175
     1
176
     0
 93
-1056964608
 45
0.18
292
     0
297
     0
 46
0.18
 94
-1056964608
 47
1.0
 49
1.0
140
1.0
293
     1
141
0.0
294
     1
177
     0
142
1.0
295
     0
296
     0
143
0.125
1001
ACAD_MLEADERVER
1070
     2
  0
MLINESTYLE
  5
1C
102
{ACAD_REACTORS
330
1B
102
}
330
1B
100
AcDbMlineStyle
  2
STANDARD
 70
     0
  3

 62
   256
 51
90.0
 52
90.0
 71
     2
 49
0.5
 62
   256
  6
BYLAYER
 49
-0.5
 62
   256
  6
BYLAYER
  0
ACDBPLACEHOLDER
  5
17A5
102
{ACAD_REACTORS
330
17A4
102
}
330
17A4
  0
SCALE
  5
17DC
102
{ACAD_REACTORS
330
17DB
102
}
330
17DB
100
AcDbScale
 70
     0
300
1:1
140
1.0
141
1.0
290
     1
  0
SCALE
  5
17DD
102
{ACAD_REACTORS
330
17DB
102
}
330
17DB
100
AcDbScale
 70
     0
300
1/128" = 1'-0"
140
0.0078125
141
12.0
290
     0
  0
SCALE
  5
17DE
102
{ACAD_REACTORS
330
17DB
102
}
330
17DB
100
AcDbScale
 70
     0
300
1/64" = 1'-0"
140
0.015625
141
12.0
290
     0
  0
SCALE
  5
17DF
102
{ACAD_REACTORS
330
17DB
102
}
330
17DB
100
AcDbScale
 70
     0
300
1/32" = 1'-0"
140
0.03125
141
12.0
290
     0
  0
SCALE
  5
17E0
102
{ACAD_REACTORS
330
17DB
102
}
330
17DB
100
AcDbScale
 70
     0
300
1/16" = 1'-0"
140
0.0625
141
12.0
290
     0
  0
SCALE
  5
17E1
102
{ACAD_REACTORS
330
17DB
102
}
330
17DB
100
AcDbScale
 70
     0
300
3/32" = 1'-0"
140
0.09375
141
12.0
290
     0
  0
SCALE
  5
17E2
102
{ACAD_REACTORS
330
17DB
102
}
330
17DB
100
AcDbScale
 70
     0
300
1/8" = 1'-0"
140
0.125
141
12.0
290
     0
  0
SCALE
  5
17E3
102
{ACAD_REACTORS
330
17DB
102
}
330
17DB
100
AcDbScale
 70
     0
300
3/16" = 1'-0"
140
0.1875
141
12.0
290
     0
  0
SCALE
  5
17E4
102
{ACAD_REACTORS
330
17DB
102
}
330
17DB
100
AcDbScale
 70
     0
300
1/4" = 1'-0"
140
0.25
141
12.0
290
     0
  0
SCALE
  5
17E5
102
{ACAD_REACTORS
330
17DB
102
}
330
17DB
100
AcDbScale
 70
     0
300
3/8" = 1'-0"
140
0.375
141
12.0
290
     0
  0
SCALE
  5
17E6
102
{ACAD_REACTORS
330
17DB
102
}
330
17DB
100
AcDbScale
 70
     0
300
1/2" = 1'-0"
140
0.5
141
12.0
290
     0
  0
SCALE
  5
17E7
102
{ACAD_REACTORS
330
17DB
102
}
330
17DB
100
AcDbScale
 70
     0
300
3/4" = 1'-0"
140
0.75
141
12.0
290
     0
  0
SCALE
  5
17E8
102
{ACAD_REACTORS
330
17DB
102
}
330
17DB
100
AcDbScale
 70
     0
300
1" = 1'-0"
140
1.0
141
12.0
290
     0
  0
SCALE
  5
17E9
102
{ACAD_REACTORS
330
17DB
102
}
330
17DB
100
AcDbScale
 70
     0
300
1-1/2" = 1'-0"
140
1.5
141
12.0
290
     0
  0
SCALE
  5
17EA
102
{ACAD_REACTORS
330
17DB
102
}
330
17DB
100
AcDbScale
 70
     0
300
3" = 1'-0"
140
3.0
141
12.0
290
     0
  0
SCALE
  5
17EB
102
{ACAD_REACTORS
330
17DB
102
}
330
17DB
100
AcDbScale
 70
     0
300
6" = 1'-0"
140
6.0
141
12.0
290
     0
  0
SCALE
  5
17EC
102
{ACAD_REACTORS
330
17DB
102
}
330
17DB
100
AcDbScale
 70
     0
300
1'-0" = 1'-0"
140
12.0
141
12.0
290
     0
  0
ACDBSECTIONVIEWSTYLE
  5
17F0
102
{ACAD_XDICTIONARY
360
184A
102
}
102
{ACAD_REACTORS
330
17EF
102
}
330
17EF
100
AcDbModelDocViewStyle
 70
     0
  3
Imperial24
290
     0
100
AcDbSectionViewStyle
 70
     0
 71
     0
 90
       78
 71
     1
340
F
 40
0.24
340
0
340
0
 40
0.24
300
I, O, Q, S, X, Z
 40
0.48
 90
        3
 40
0.18
 90
        1
 71
     2
340
14
 90
       25
340
14
 90
       50
 40
0.24
 40
0.0
 40
0.24
 71
     3
340
F
 40
0.24
 90
        1
 40
0.75
 90
        1
300
%<\AcVar ViewType \f "%tc1">% %<\AcVar ViewSectionStartId>%-%<\AcVar ViewSectionEndId>%\PSCALE %<\AcVar ViewScale \f "%sn">%
 71
     4
300
ANSI31
 40
1.0
 90
        0
290
     0
290
     0
 90
        6
 40
0.0
 40
1.570796326794896
 40
0.2617993877991494
 40
1.308996938995747
 40
-0.2617993877991494
 40
1.832595714594046
  0
TABLESTYLE
  5
17DA
102
{ACAD_XDICTIONARY
360
1811
102
}
102
{ACAD_REACTORS
330
17D9
102
}
330
17D9
100
AcDbTableStyle
  3
Standard
 70
     0
 71
     0
 40
0.06
 41
0.06
280
     0
281
     0
  7
STANDARD
140
0.18
170
     2
 62
     0
 63
     7
283
     0
274
    -2
284
     1
 64
     0
275
    -2
285
     1
 65
     0
276
    -2
286
     1
 66
     0
277
    -2
287
     1
 67
     0
278
    -2
288
     1
 68
     0
279
    -2
289
     1
 69
     0
  7
STANDARD
140
0.25
170
     5
 62
     0
 63
     7
283
     0
274
    -2
284
     1
 64
     0
275
    -2
285
     1
 65
     0
276
    -2
286
     1
 66
     0
277
    -2
287
     1
 67
     0
278
    -2
288
     1
 68
     0
279
    -2
289
     1
 69
     0
  7
STANDARD
140
0.18
170
     5
 62
     0
 63
     7
283
     0
274
    -2
284
     1
 64
     0
275
    -2
285
     1
 65
     0
276
    -2
286
     1
 66
     0
277
    -2
287
     1
 67
     0
278
    -2
288
     1
 68
     0
279
    -2
289
     1
 69
     0
  0
VISUALSTYLE
  5
17C5
102
{ACAD_XDICTIONARY
360
1822
102
}
102
{ACAD_REACTORS
330
17BF
102
}
330
17BF
100
AcDbVisualStyle
  2
2dWireframe
 70
     4
 71
     0
 72
     2
 73
     0
 90
        0
 40
-0.6
 41
-30.0
 62
     5
 63
     7
 74
     1
 91
        4
 64
     7
 65
   257
 75
     1
175
     1
 42
1.0
 92
        0
 66
   257
 43
1.0
 76
     1
 77
     6
 78
     2
 67
     7
 79
     5
170
     0
171
     0
290
     0
174
     0
 93
        1
 44
0.0
173
     0
291
     0
 45
0.0
1001
ACAD
1000
AcDbSavedByObjectVersion
1070
     0
  0
VISUALSTYLE
  5
17C4
102
{ACAD_XDICTIONARY
360
1820
102
}
102
{ACAD_REACTORS
330
17BF
102
}
330
17BF
100
AcDbVisualStyle
  2
Basic
 70
     7
 71
     1
 72
     0
 73
     1
 90
        0
 40
-0.6
 41
-30.0
 62
     5
 63
     7
 74
     0
 91
        4
 64
     7
 65
   257
 75
     1
175
     1
 42
1.0
 92
        8
 66
     7
 43
1.0
 76
     1
 77
     6
 78
     2
 67
     7
 79
     5
170
     0
171
     0
290
     0
174
     0
 93
        1
 44
0.0
173
     0
291
     1
 45
0.0
1001
ACAD
1000
AcDbSavedByObjectVersion
1070
     0
  0
VISUALSTYLE
  5
17CB
102
{ACAD_XDICTIONARY
360
182E
102
}
102
{ACAD_REACTORS
330
17BF
102
}
330
17BF
100
AcDbVisualStyle
  2
Brighten
 70
    12
 71
     2
 72
     2
 73
     0
 90
        0
 40
-0.6
 41
-30.0
 62
     5
 63
     7
 74
     1
 91
        4
 64
     7
 65
   257
 75
     1
175
     1
 42
1.0
 92
        8
 66
     7
 43
1.0
 76
     1
 77
     6
 78
     2
 67
     7
 79
     5
170
     0
171
     0
290
     0
174
     0
 93
        1
 44
50.0
173
     0
291
     1
 45
0.0
1001
ACAD
1000
AcDbSavedByObjectVersion
1070
     0
  0
VISUALSTYLE
  5
17CF
102
{ACAD_XDICTIONARY
360
1836
102
}
102
{ACAD_REACTORS
330
17BF
102
}
330
17BF
100
AcDbVisualStyle
  2
ColorChange
 70
    16
 71
     2
 72
     2
 73
     3
 90
        0
 40
-0.6
 41
-30.0
 62
     5
 63
     8
 74
     1
 91
        4
 64
     7
 65
   257
 75
     1
175
     1
 42
1.0
 92
        8
 66
     8
 43
1.0
 76
     1
 77
     6
 78
     2
 67
     7
 79
     5
170
     0
171
     0
290
     0
174
     0
 93
        1
 44
0.0
173
     0
291
     1
 45
0.0
1001
ACAD
1000
AcDbSavedByObjectVersion
1070
     0
  0
VISUALSTYLE
  5
17C8
102
{ACAD_XDICTIONARY
360
1828
102
}
102
{ACAD_REACTORS
330
17BF
102
}
330
17BF
100
AcDbVisualStyle
  2
Conceptual
 70
     9
 71
     3
 72
     2
 73
     0
 90
        0
 40
-0.6
 41
-30.0
 62
     5
 63
     7
 74
     2
 91
        2
 64
     7
 65
   257
 75
     1
175
     1
 42
179.0
 92
        8
 66
     7
 43
1.0
 76
     1
 77
     6
 78
     2
 67
     7
 79
     3
170
     0
171
     0
290
     0
174
     0
 93
        1
 44
0.0
173
     0
291
     0
 45
0.0
1001
ACAD
1000
AcDbSavedByObjectVersion
1070
     0
  0
VISUALSTYLE
  5
17CA
102
{ACAD_XDICTIONARY
360
182C
102
}
102
{ACAD_REACTORS
330
17BF
102
}
330
17BF
100
AcDbVisualStyle
  2
Dim
 70
    11
 71
     2
 72
     2
 73
     0
 90
        0
 40
-0.6
 41
-30.0
 62
     5
 63
     7
 74
     1
 91
        4
 64
     7
 65
   257
 75
     1
175
     1
 42
1.0
 92
        8
 66
     7
 43
1.0
 76
     1
 77
     6
 78
     2
 67
     7
 79
     5
170
     0
171
     0
290
     0
174
     0
 93
        1
 44
-50.0
173
     0
291
     1
 45
0.0
1001
ACAD
1000
AcDbSavedByObjectVersion
1070
     0
  0
VISUALSTYLE
  5
17D7
102
{ACAD_XDICTIONARY
360
1846
102
}
102
{ACAD_REACTORS
330
17BF
102
}
330
17BF
100
AcDbVisualStyle
  2
EdgeColorOff
 70
    22
 71
     2
 72
     2
 73
     0
 90
        0
 40
-0.6
 41
-30.0
 62
     5
 63
     7
 74
     1
 91
        4
 64
     7
 65
   257
 75
     1
175
     1
 42
1.0
 92
        8
 66
     7
 43
1.0
 76
     1
 77
     6
 78
     2
 67
     7
 79
     5
170
     0
171
     0
290
     0
174
     0
 93
        1
 44
0.0
173
     0
291
     1
 45
0.0
1001
ACAD
1000
AcDbSavedByObjectVersion
1070
     0
  0
VISUALSTYLE
  5
17CE
102
{ACAD_XDICTIONARY
360
1834
102
}
102
{ACAD_REACTORS
330
17BF
102
}
330
17BF
100
AcDbVisualStyle
  2
Facepattern
 70
    15
 71
     2
 72
     2
 73
     0
 90
        0
 40
-0.6
 41
-30.0
 62
     5
 63
     7
 74
     1
 91
        4
 64
     7
 65
   257
 75
     1
175
     1
 42
1.0
 92
        8
 66
     7
 43
1.0
 76
     1
 77
     6
 78
     2
 67
     7
 79
     5
170
     0
171
     0
290
     0
174
     0
 93
        1
 44
0.0
173
     0
291
     1
 45
0.0
1001
ACAD
1000
AcDbSavedByObjectVersion
1070
     0
  0
VISUALSTYLE
  5
17C0
102
{ACAD_XDICTIONARY
360
1818
102
}
102
{ACAD_REACTORS
330
17BF
102
}
330
17BF
100
AcDbVisualStyle
  2
Flat
 70
     0
 71
     2
 72
     1
 73
     1
 90
        2
 40
-0.6
 41
30.0
 62
     5
 63
     7
 74
     0
 91
        0
 64
     7
 65
   257
 75
     1
175
     1
 42
1.0
 92
        8
 66
     7
 43
1.0
 76
     1
 77
     6
 78
     2
 67
     7
 79
     5
170
     0
171
     0
290
     0
174
     0
 93
       13
 44
0.0
173
     0
291
     1
 45
0.0
1001
ACAD
1000
AcDbSavedByObjectVersion
1070
     0
  0
VISUALSTYLE
  5
17C1
102
{ACAD_XDICTIONARY
360
181A
102
}
102
{ACAD_REACTORS
330
17BF
102
}
330
17BF
100
AcDbVisualStyle
  2
FlatWithEdges
 70
     1
 71
     2
 72
     1
 73
     1
 90
        2
 40
-0.6
 41
30.0
 62
     5
 63
     7
 74
     1
 91
        0
 64
     7
 65
   257
 75
     1
175
     1
 42
1.0
 92
        0
 66
   257
 43
1.0
 76
     1
 77
     6
 78
     2
 67
     7
 79
     5
170
     0
171
     0
290
     0
174
     0
 93
       13
 44
0.0
173
     0
291
     1
 45
0.0
1001
ACAD
1000
AcDbSavedByObjectVersion
1070
     0
  0
VISUALSTYLE
  5
17C2
102
{ACAD_XDICTIONARY
360
181C
102
}
102
{ACAD_REACTORS
330
17BF
102
}
330
17BF
100
AcDbVisualStyle
  2
Gouraud
 70
     2
 71
     2
 72
     2
 73
     1
 90
        2
 40
-0.6
 41
30.0
 62
     5
 63
     7
 74
     0
 91
        0
 64
     7
 65
   257
 75
     1
175
     1
 42
1.0
 92
        0
 66
     7
 43
1.0
 76
     1
 77
     6
 78
     2
 67
     7
 79
     5
170
     0
171
     0
290
     0
174
     0
 93
       13
 44
0.0
173
     0
291
     1
 45
0.0
1001
ACAD
1000
AcDbSavedByObjectVersion
1070
     0
  0
VISUALSTYLE
  5
17C3
102
{ACAD_XDICTIONARY
360
181E
102
}
102
{ACAD_REACTORS
330
17BF
102
}
330
17BF
100
AcDbVisualStyle
  2
GouraudWithEdges
 70
     3
 71
     2
 72
     2
 73
     1
 90
        2
 40
-0.6
 41
30.0
 62
     5
 63
     7
 74
     1
 91
        0
 64
     7
 65
   257
 75
     1
175
     1
 42
1.0
 92
        0
 66
   257
 43
1.0
 76
     1
 77
     6
 78
     2
 67
     7
 79
     5
170
     0
171
     0
290
     0
174
     0
 93
       13
 44
0.0
173
     0
291
     1
 45
0.0
1001
ACAD
1000
AcDbSavedByObjectVersion
1070
     0
  0
VISUALSTYLE
  5
17C7
102
{ACAD_XDICTIONARY
360
1826
102
}
102
{ACAD_REACTORS
330
17BF
102
}
330
17BF
100
AcDbVisualStyle
  2
Hidden
 70
     6
 71
     1
 72
     2
 73
     2
 90
        0
 40
-0.6
 41
-30.0
 62
     5
 63
     7
 74
     2
 91
        2
 64
     7
 65
   257
 75
     2
175
     1
 42
40.0
 92
        0
 66
   257
 43
1.0
 76
     1
 77
     6
 78
     2
 67
     7
 79
     3
170
     0
171
     0
290
     0
174
     0
 93
        1
 44
0.0
173
     0
291
     0
 45
0.0
1001
ACAD
1000
AcDbSavedByObjectVersion
1070
     0
  0
VISUALSTYLE
  5
17D5
102
{ACAD_XDICTIONARY
360
1842
102
}
102
{ACAD_REACTORS
330
17BF
102
}
330
17BF
100
AcDbVisualStyle
  2
JitterOff
 70
    20
 71
     2
 72
     2
 73
     0
 90
        0
 40
-0.6
 41
-30.0
 62
     5
 63
     7
 74
     1
 91
        4
 64
     7
 65
   257
 75
     1
175
     1
 42
1.0
 92
       10
 66
     7
 43
1.0
 76
     1
 77
     6
 78
     2
 67
     7
 79
     5
170
     0
171
     0
290
     0
174
     0
 93
        1
 44
0.0
173
     0
291
     1
 45
0.0
1001
ACAD
1000
AcDbSavedByObjectVersion
1070
     0
  0
VISUALSTYLE
  5
17CD
102
{ACAD_XDICTIONARY
360
1832
102
}
102
{ACAD_REACTORS
330
17BF
102
}
330
17BF
100
AcDbVisualStyle
  2
Linepattern
 70
    14
 71
     2
 72
     2
 73
     0
 90
        0
 40
-0.6
 41
-30.0
 62
     5
 63
     7
 74
     1
 91
        4
 64
     7
 65
   257
 75
     7
175
     7
 42
1.0
 92
        8
 66
     7
 43
1.0
 76
     1
 77
     6
 78
     2
 67
     7
 79
     5
170
     0
171
     0
290
     0
174
     0
 93
        1
 44
0.0
173
     0
291
     1
 45
0.0
1001
ACAD
1000
AcDbSavedByObjectVersion
1070
     0
  0
VISUALSTYLE
  5
17D6
102
{ACAD_XDICTIONARY
360
1844
102
}
102
{ACAD_REACTORS
330
17BF
102
}
330
17BF
100
AcDbVisualStyle
  2
OverhangOff
 70
    21
 71
     2
 72
     2
 73
     0
 90
        0
 40
-0.6
 41
-30.0
 62
     5
 63
     7
 74
     1
 91
        4
 64
     7
 65
   257
 75
     1
175
     1
 42
1.0
 92
        9
 66
     7
 43
1.0
 76
     1
 77
     6
 78
     2
 67
     7
 79
     5
170
     0
171
     0
290
     0
174
     0
 93
        1
 44
0.0
173
     0
291
     1
 45
0.0
1001
ACAD
1000
AcDbSavedByObjectVersion
1070
     0
  0
VISUALSTYLE
  5
17C9
102
{ACAD_XDICTIONARY
360
182A
102
}
102
{ACAD_REACTORS
330
17BF
102
}
330
17BF
100
AcDbVisualStyle
  2
Realistic
 70
     8
 71
     2
 72
     3
 73
     0
 90
        2
 40
-0.6
 41
30.0
 62
     5
 63
     7
 74
     0
 91
        0
 64
     7
 65
   257
 75
     1
175
     1
 42
1.0
 92
        8
 66
   257
 43
1.0
 76
     1
 77
     6
 78
     2
 67
     7
 79
     3
170
     0
171
     0
290
     0
174
     0
 93
       13
 44
0.0
173
     0
291
     0
 45
0.0
1001
ACAD
1000
AcDbSavedByObjectVersion
1070
     0
  0
VISUALSTYLE
  5
17D4
102
{ACAD_XDICTIONARY
360
1840
102
}
102
{ACAD_REACTORS
330
17BF
102
}
330
17BF
100
AcDbVisualStyle
  2
Shaded
 70
    27
 71
     2
 72
     2
 73
     1
 90
        2
 40
-0.6
 41
30.0
 62
     5
 63
     7
 74
     0
 91
        4
 64
     7
 65
   257
 75
     1
175
     1
 42
1.0
 92
        8
 66
   257
 43
1.0
 76
     1
 77
     6
 78
     2
 67
     8
 79
     3
170
     0
171
     0
290
     0
174
     0
 93
        5
 44
0.0
173
     0
291
     0
 45
0.0
1001
ACAD
1000
AcDbSavedByObjectVersion
1070
     0
  0
VISUALSTYLE
  5
17D3
102
{ACAD_XDICTIONARY
360
183E
102
}
102
{ACAD_REACTORS
330
17BF
102
}
330
17BF
100
AcDbVisualStyle
  2
Shaded with edges
 70
    26
 71
     2
 72
     2
 73
     1
 90
        2
 40
-0.6
 41
30.0
 62
     5
 63
     7
 74
     1
 91
       10
 64
     7
 65
   257
 75
     2
175
     1
 42
1.0
 92
        8
 66
   257
 43
1.0
 76
     1
 77
     6
 78
     2
 67
     7
 79
     3
170
     0
171
     0
290
     0
174
     0
 93
        5
 44
0.0
173
     0
291
     0
 45
0.0
1001
ACAD
1000
AcDbSavedByObjectVersion
1070
     0
  0
VISUALSTYLE
  5
17D0
102
{ACAD_XDICTIONARY
360
1838
102
}
102
{ACAD_REACTORS
330
17BF
102
}
330
17BF
100
AcDbVisualStyle
  2
Shades of Gray
 70
    23
 71
     2
 72
     2
 73
     3
 90
        0
 40
-0.6
 41
-30.0
 62
     5
 63
     7
 74
     2
 91
        2
 64
     7
 65
     7
 75
     1
175
     1
 42
40.0
 92
        8
 66
     7
 43
1.0
 76
     1
 77
     6
 78
     2
 67
     7
 79
     3
170
     0
171
     0
290
     0
174
     0
 93
        1
 44
0.0
173
     0
291
     0
 45
0.0
1001
ACAD
1000
AcDbSavedByObjectVersion
1070
     0
  0
VISUALSTYLE
  5
17D1
102
{ACAD_XDICTIONARY
360
183A
102
}
102
{ACAD_REACTORS
330
17BF
102
}
330
17BF
100
AcDbVisualStyle
  2
Sketchy
 70
    24
 71
     1
 72
     2
 73
     2
 90
        0
 40
-0.6
 41
-30.0
 62
     5
 63
     7
 74
     2
 91
        2
 64
     7
 65
     7
 75
     1
175
     1
 42
40.0
 92
       11
 66
     7
 43
1.0
 76
     1
 77
     6
 78
     2
 67
     7
 79
     6
170
     0
171
     0
290
     0
174
     0
 93
        1
 44
0.0
173
     0
291
     0
 45
0.0
1001
ACAD
1000
AcDbSavedByObjectVersion
1070
     0
  0
VISUALSTYLE
  5
17CC
102
{ACAD_XDICTIONARY
360
1830
102
}
102
{ACAD_REACTORS
330
17BF
102
}
330
17BF
100
AcDbVisualStyle
  2
Thicken
 70
    13
 71
     2
 72
     2
 73
     0
 90
        0
 40
-0.6
 41
-30.0
 62
     5
 63
     7
 74
     1
 91
        4
 64
     7
 65
   257
 75
     1
175
     1
 42
1.0
 92
       12
 66
     7
 43
1.0
 76
     1
 77
     6
 78
     2
 67
     7
 79
     5
170
     0
171
     0
290
     0
174
     0
 93
        1
 44
0.0
173
     0
291
     1
 45
0.0
1001
ACAD
1000
AcDbSavedByObjectVersion
1070
     0
  0
VISUALSTYLE
  5
17C6
102
{ACAD_XDICTIONARY
360
1824
102
}
102
{ACAD_REACTORS
330
17BF
102
}
330
17BF
100
AcDbVisualStyle
  2
Wireframe
 70
     5
 71
     0
 72
     2
 73
     0
 90
        0
 40
-0.6
 41
-30.0
 62
     5
 63
     7
 74
     1
 91
        4
 64
     7
 65
   257
 75
     1
175
     1
 42
1.0
 92
        0
 66
   257
 43
1.0
 76
     1
 77
     6
 78
     2
 67
     7
 79
     3
170
     0
171
     0
290
     0
174
     0
 93
        1
 44
0.0
173
     0
291
     0
 45
0.0
1001
ACAD
1000
AcDbSavedByObjectVersion
1070
     0
  0
VISUALSTYLE
  5
17D2
102
{ACAD_XDICTIONARY
360
183C
102
}
102
{ACAD_REACTORS
330
17BF
102
}
330
17BF
100
AcDbVisualStyle
  2
X-Ray
 70
    25
 71
     2
 72
     2
 73
     1
 90
        1
 40
0.5
 41
-30.0
 62
     5
 63
     7
 74
     1
 91
        0
 64
     7
 65
   257
 75
     1
175
     1
 42
1.0
 92
        8
 66
     7
 43
1.0
 76
     1
 77
     6
 78
     2
 67
     7
 79
     3
170
     0
171
     0
290
     0
174
     0
 93
       13
 44
0.0
173
     0
291
     0
 45
0.0
1001
ACAD
1000
AcDbSavedByObjectVersion
1070
     0
  0
DICTIONARYVAR
  5
180B
102
{ACAD_REACTORS
330
1806
102
}
330
1806
100
DictionaryVariables
280
     0
  1
1:1
  0
DICTIONARYVAR
  5
1808
102
{ACAD_REACTORS
330
1806
102
}
330
1806
100
DictionaryVariables
280
     0
  1
STANDARD
  0
DICTIONARYVAR
  5
1807
102
{ACAD_REACTORS
330
1806
102
}
330
1806
100
DictionaryVariables
280
     0
  1
STANDARD
  0
DICTIONARYVAR
  5
1809
102
{ACAD_REACTORS
330
1806
102
}
330
1806
100
DictionaryVariables
280
     0
  1
Imperial24
  0
DICTIONARYVAR
  5
180A
102
{ACAD_REACTORS
330
1806
102
}
330
1806
100
DictionaryVariables
280
     0
  1
Imperial24
  0
DICTIONARYVAR
  5
180E
102
{ACAD_REACTORS
330
1806
102
}
330
1806
100
DictionaryVariables
280
     0
  1
1
  0
DICTIONARYVAR
  5
180D
102
{ACAD_REACTORS
330
1806
102
}
330
1806
100
DictionaryVariables
280
     0
  1
0
  0
DICTIONARYVAR
  5
180C
102
{ACAD_REACTORS
330
1806
102
}
330
1806
100
DictionaryVariables
280
     0
  1
127
  0
DICTIONARYVAR
  5
180F
102
{ACAD_REACTORS
330
1806
102
}
330
1806
100
DictionaryVariables
280
     0
  1
2
  0
DICTIONARY
  5
184C
330
17F2
100
AcDbDictionary
280
     1
281
     1
  3
ACAD_XREC_ROUNDTRIP
360
184D
  0
DICTIONARY
  5
184E
330
17F3
100
AcDbDictionary
280
     1
281
     1
  3
ACAD_XREC_ROUNDTRIP
360
184F
  0
DICTIONARY
  5
1850
330
17F4
100
AcDbDictionary
280
     1
281
     1
  3
ACAD_XREC_ROUNDTRIP
360
1851
  0
DICTIONARY
  5
17B0
330
17AF
100
AcDbDictionary
280
     1
281
     1
  3
ACAD_XREC_ROUNDTRIP
360
1816
  3
BUMPTILE
360
17B2
  3
DIFFUSETILE
360
17B1
  3
OPACITYTILE
360
17B5
  3
REFLECTIONTILE
360
17B4
  3
REFRACTIONTILE
360
17B6
  3
SPECULARTILE
360
17B3
  0
DICTIONARY
  5
17A8
330
17A7
100
AcDbDictionary
280
     1
281
     1
  3
ACAD_XREC_ROUNDTRIP
360
1815
  3
BUMPTILE
360
17AA
  3
DIFFUSETILE
360
17A9
  3
OPACITYTILE
360
17AD
  3
REFLECTIONTILE
360
17AC
  3
REFRACTIONTILE
360
17AE
  3
SPECULARTILE
360
17AB
  0
DICTIONARY
  5
17B8
330
17B7
100
AcDbDictionary
280
     1
281
     1
  3
ACAD_XREC_ROUNDTRIP
360
1817
  3
BUMPTILE
360
17BA
  3
DIFFUSETILE
360
17B9
  3
OPACITYTILE
360
17BD
  3
REFLECTIONTILE
360
17BC
  3
REFRACTIONTILE
360
17BE
  3
SPECULARTILE
360
17BB
  0
DICTIONARY
  5
184A
330
17F0
100
AcDbDictionary
280
     1
281
     1
  3
ACAD_XREC_ROUNDTRIP
360
184B
  0
DICTIONARY
  5
1811
330
17DA
100
AcDbDictionary
280
     1
281
     1
  3
ACAD_ROUNDTRIP_2008_TABLESTYLE_CELLSTYLEMAP
360
1812
  3
ACAD_XREC_ROUNDTRIP
360
1848
  0
DICTIONARY
  5
1822
330
17C5
100
AcDbDictionary
280
     1
281
     1
  3
ACAD_XREC_ROUNDTRIP
360
1823
  0
DICTIONARY
  5
1820
330
17C4
100
AcDbDictionary
280
     1
281
     1
  3
ACAD_XREC_ROUNDTRIP
360
1821
  0
DICTIONARY
  5
182E
330
17CB
100
AcDbDictionary
280
     1
281
     1
  3
ACAD_XREC_ROUNDTRIP
360
182F
  0
DICTIONARY
  5
1836
330
17CF
100
AcDbDictionary
280
     1
281
     1
  3
ACAD_XREC_ROUNDTRIP
360
1837
  0
DICTIONARY
  5
1828
330
17C8
100
AcDbDictionary
280
     1
281
     1
  3
ACAD_XREC_ROUNDTRIP
360
1829
  0
DICTIONARY
  5
182C
330
17CA
100
AcDbDictionary
280
     1
281
     1
  3
ACAD_XREC_ROUNDTRIP
360
182D
  0
DICTIONARY
  5
1846
330
17D7
100
AcDbDictionary
280
     1
281
     1
  3
ACAD_XREC_ROUNDTRIP
360
1847
  0
DICTIONARY
  5
1834
330
17CE
100
AcDbDictionary
280
     1
281
     1
  3
ACAD_XREC_ROUNDTRIP
360
1835
  0
DICTIONARY
  5
1818
330
17C0
100
AcDbDictionary
280
     1
281
     1
  3
ACAD_XREC_ROUNDTRIP
360
1819
  0
DICTIONARY
  5
181A
330
17C1
100
AcDbDictionary
280
     1
281
     1
  3
ACAD_XREC_ROUNDTRIP
360
181B
  0
DICTIONARY
  5
181C
330
17C2
100
AcDbDictionary
280
     1
281
     1
  3
ACAD_XREC_ROUNDTRIP
360
181D
  0
DICTIONARY
  5
181E
330
17C3
100
AcDbDictionary
280
     1
281
     1
  3
ACAD_XREC_ROUNDTRIP
360
181F
  0
DICTIONARY
  5
1826
330
17C7
100
AcDbDictionary
280
     1
281
     1
  3
ACAD_XREC_ROUNDTRIP
360
1827
  0
DICTIONARY
  5
1842
330
17D5
100
AcDbDictionary
280
     1
281
     1
  3
ACAD_XREC_ROUNDTRIP
360
1843
  0
DICTIONARY
  5
1832
330
17CD
100
AcDbDictionary
280
     1
281
     1
  3
ACAD_XREC_ROUNDTRIP
360
1833
  0
DICTIONARY
  5
1844
330
17D6
100
AcDbDictionary
280
     1
281
     1
  3
ACAD_XREC_ROUNDTRIP
360
1845
  0
DICTIONARY
  5
182A
330
17C9
100
AcDbDictionary
280
     1
281
     1
  3
ACAD_XREC_ROUNDTRIP
360
182B
  0
DICTIONARY
  5
1840
330
17D4
100
AcDbDictionary
280
     1
281
     1
  3
ACAD_XREC_ROUNDTRIP
360
1841
  0
DICTIONARY
  5
183E
330
17D3
100
AcDbDictionary
280
     1
281
     1
  3
ACAD_XREC_ROUNDTRIP
360
183F
  0
DICTIONARY
  5
1838
330
17D0
100
AcDbDictionary
280
     1
281
     1
  3
ACAD_XREC_ROUNDTRIP
360
1839
  0
DICTIONARY
  5
183A
330
17D1
100
AcDbDictionary
280
     1
281
     1
  3
ACAD_XREC_ROUNDTRIP
360
183B
  0
DICTIONARY
  5
1830
330
17CC
100
AcDbDictionary
280
     1
281
     1
  3
ACAD_XREC_ROUNDTRIP
360
1831
  0
DICTIONARY
  5
1824
330
17C6
100
AcDbDictionary
280
     1
281
     1
  3
ACAD_XREC_ROUNDTRIP
360
1825
  0
DICTIONARY
  5
183C
330
17D2
100
AcDbDictionary
280
     1
281
     1
  3
ACAD_XREC_ROUNDTRIP
360
183D
  0
XRECORD
  5
184D
102
{ACAD_REACTORS
330
184C
102
}
330
184C
100
AcDbXrecord
280
     1
102
DISPLAYNAME
  1
Imperial24
102
FLAGS
 90
        0
  0
XRECORD
  5
184F
102
{ACAD_REACTORS
330
184E
102
}
330
184E
100
AcDbXrecord
280
     1
102
SHADEPLOT
 70
     0
102
SHADEPLOTRESLEVEL
 70
     2
102
SHADEPLOTCUSTOMDPI
 70
   300
  0
XRECORD
  5
1851
102
{ACAD_REACTORS
330
1850
102
}
330
1850
100
AcDbXrecord
280
     1
102
SHADEPLOT
 70
     0
102
SHADEPLOTRESLEVEL
 70
     2
102
SHADEPLOTCUSTOMDPI
 70
   300
  0
XRECORD
  5
1816
102
{ACAD_REACTORS
330
17B0
102
}
330
17B0
100
AcDbXrecord
280
     1
102
MATERIAL
148
0.0
149
0.0
149
0.0
 93
        0
 94
      127
282
     0
 72
     0
 77
     0
171
     0
175
     0
179
     0
273
     0
  0
XRECORD
  5
17B2
102
{ACAD_REACTORS
330
17B0
102
}
330
17B0
100
AcDbXrecord
280
     1
270
     1
271
     1
  0
XRECORD
  5
17B1
102
{ACAD_REACTORS
330
17B0
102
}
330
17B0
100
AcDbXrecord
280
     1
270
     1
271
     1
  0
XRECORD
  5
17B5
102
{ACAD_REACTORS
330
17B0
102
}
330
17B0
100
AcDbXrecord
280
     1
270
     1
271
     1
  0
XRECORD
  5
17B4
102
{ACAD_REACTORS
330
17B0
102
}
330
17B0
100
AcDbXrecord
280
     1
270
     1
271
     1
  0
XRECORD
  5
17B6
102
{ACAD_REACTORS
330
17B0
102
}
330
17B0
100
AcDbXrecord
280
     1
270
     1
271
     1
  0
XRECORD
  5
17B3
102
{ACAD_REACTORS
330
17B0
102
}
330
17B0
100
AcDbXrecord
280
     1
270
     1
271
     1
  0
XRECORD
  5
1815
102
{ACAD_REACTORS
330
17A8
102
}
330
17A8
100
AcDbXrecord
280
     1
102
MATERIAL
148
0.0
149
0.0
149
0.0
 93
        0
 94
      127
282
     0
 72
     0
 77
     0
171
     0
175
     0
179
     0
273
     0
  0
XRECORD
  5
17AA
102
{ACAD_REACTORS
330
17A8
102
}
330
17A8
100
AcDbXrecord
280
     1
270
     1
271
     1
  0
XRECORD
  5
17A9
102
{ACAD_REACTORS
330
17A8
102
}
330
17A8
100
AcDbXrecord
280
     1
270
     1
271
     1
  0
XRECORD
  5
17AD
102
{ACAD_REACTORS
330
17A8
102
}
330
17A8
100
AcDbXrecord
280
     1
270
     1
271
     1
  0
XRECORD
  5
17AC
102
{ACAD_REACTORS
330
17A8
102
}
330
17A8
100
AcDbXrecord
280
     1
270
     1
271
     1
  0
XRECORD
  5
17AE
102
{ACAD_REACTORS
330
17A8
102
}
330
17A8
100
AcDbXrecord
280
     1
270
     1
271
     1
  0
XRECORD
  5
17AB
102
{ACAD_REACTORS
330
17A8
102
}
330
17A8
100
AcDbXrecord
280
     1
270
     1
271
     1
  0
XRECORD
  5
1817
102
{ACAD_REACTORS
330
17B8
102
}
330
17B8
100
AcDbXrecord
280
     1
102
MATERIAL
148
0.0
149
0.0
149
0.0
 93
        0
 94
      127
282
     0
 72
     0
 77
     0
171
     0
175
     0
179
     0
273
     0
  0
XRECORD
  5
17BA
102
{ACAD_REACTORS
330
17B8
102
}
330
17B8
100
AcDbXrecord
280
     1
270
     1
271
     1
  0
XRECORD
  5
17B9
102
{ACAD_REACTORS
330
17B8
102
}
330
17B8
100
AcDbXrecord
280
     1
270
     1
271
     1
  0
XRECORD
  5
17BD
102
{ACAD_REACTORS
330
17B8
102
}
330
17B8
100
AcDbXrecord
280
     1
270
     1
271
     1
  0
XRECORD
  5
17BC
102
{ACAD_REACTORS
330
17B8
102
}
330
17B8
100
AcDbXrecord
280
     1
270
     1
271
     1
  0
XRECORD
  5
17BE
102
{ACAD_REACTORS
330
17B8
102
}
330
17B8
100
AcDbXrecord
280
     1
270
     1
271
     1
  0
XRECORD
  5
17BB
102
{ACAD_REACTORS
330
17B8
102
}
330
17B8
100
AcDbXrecord
280
     1
270
     1
271
     1
  0
XRECORD
  5
184B
102
{ACAD_REACTORS
330
184A
102
}
330
184A
100
AcDbXrecord
280
     1
102
DISPLAYNAME
  1
Imperial24
102
FLAGS
 90
        0
  0
CELLSTYLEMAP
  5
1812
102
{ACAD_REACTORS
330
1811
102
}
330
1811
100
AcDbCellStyleMap
 90
        3
300
CELLSTYLE
  1
TABLEFORMAT_BEGIN
 90
        5
170
     1
 91
        0
 92
    32768
 62
   257
 93
        1
300
CONTENTFORMAT
  1
CONTENTFORMAT_BEGIN
 90
        0
 91
        0
 92
      512
 93
        0
300

 40
0.0
140
1.0
 94
        5
 62
     0
340
F
144
0.25
309
CONTENTFORMAT_END
171
     0
 94
        0
309
TABLEFORMAT_END
  1
CELLSTYLE_BEGIN
 90
        1
 91
        1
300
_TITLE
309
CELLSTYLE_END
300
CELLSTYLE
  1
TABLEFORMAT_BEGIN
 90
        5
170
     1
 91
        0
 92
        0
 62
   257
 93
        1
300
CONTENTFORMAT
  1
CONTENTFORMAT_BEGIN
 90
        0
 91
        0
 92
      512
 93
        0
300

 40
0.0
140
1.0
 94
        5
 62
     0
340
F
144
0.18
309
CONTENTFORMAT_END
171
     0
 94
        0
309
TABLEFORMAT_END
  1
CELLSTYLE_BEGIN
 90
        2
 91
        1
300
_HEADER
309
CELLSTYLE_END
300
CELLSTYLE
  1
TABLEFORMAT_BEGIN
 90
        5
170
     1
 91
        0
 92
        0
 62
   257
 93
        1
300
CONTENTFORMAT
  1
CONTENTFORMAT_BEGIN
 90
        0
 91
        0
 92
      512
 93
        0
300

 40
0.0
140
1.0
 94
        2
 62
     0
340
F
144
0.18
309
CONTENTFORMAT_END
171
     0
 94
        0
309
TABLEFORMAT_END
  1
CELLSTYLE_BEGIN
 90
        3
 91
        2
300
_DATA
309
CELLSTYLE_END
  0
XRECORD
  5
1848
102
{ACAD_REACTORS
330
1811
102
}
330
1811
100
AcDbXrecord
280
     1
102
ACAD_ROUNDTRIP_PRE2007_TABLESTYLE
 90
      512
 91
        0
  1

 92
      512
 93
        0
  2

 94
      512
 95
        0
  3

  0
XRECORD
  5
1823
102
{ACAD_REACTORS
330
1822
102
}
330
1822
100
AcDbXrecord
280
     1
102
RTVSPost2010Prop28
280
     1
102
RTVSPost2010PropOp28
 70
     1
102
RTVSPost2010Prop29
280
     1
102
RTVSPost2010PropOp29
 70
     1
102
RTVSPost2010Prop30
280
     0
102
RTVSPost2010PropOp30
 70
     1
102
RTVSPost2010Prop31
280
     0
102
RTVSPost2010PropOp31
 70
     1
102
RTVSPost2010Prop32
280
     0
102
RTVSPost2010PropOp32
 70
     1
102
RTVSPost2010Prop33
280
     0
102
RTVSPost2010PropOp33
 70
     1
102
RTVSPost2010Prop34
280
     0
102
RTVSPost2010PropOp34
 70
     1
102
RTVSPost2010Prop35
280
     0
102
RTVSPost2010PropOp35
 70
     1
102
RTVSPost2010Prop36
280
     0
102
RTVSPost2010PropOp36
 70
     1
102
RTVSPost2010Prop37
 90
       50
102
RTVSPost2010PropOp37
 70
     1
102
RTVSPost2010Prop38
140
0.0
102
RTVSPost2010PropOp38
 70
     1
102
RTVSPost2010Prop39
140
1.0
102
RTVSPost2010PropOp39
 70
     1
102
RTVSPost2010Prop40
 90
        0
102
RTVSPost2010PropOp40
 70
     1
102
RTVSPost2010Prop41ColorIndex
 90
       18
102
RTVSPost2010Prop41ColorRGB
 90
        0
102
RTVSPost2010PropOp41
 70
     1
102
RTVSPost2010Prop42
 90
       50
102
RTVSPost2010PropOp42
 70
     1
102
RTVSPost2010Prop43
 90
        3
102
RTVSPost2010PropOp43
 70
     1
102
RTVSPost2010Prop44ColorIndex
 90
        5
102
RTVSPost2010Prop44ColorRGB
 90
      255
102
RTVSPost2010PropOp44
 70
     1
102
RTVSPost2010Prop45
280
     0
102
RTVSPost2010PropOp45
 70
     1
102
RTVSPost2010Prop46
 90
       50
102
RTVSPost2010PropOp46
 70
     1
102
RTVSPost2010Prop47
 90
       50
102
RTVSPost2010PropOp47
 70
     1
102
RTVSPost2010Prop48
 90
       50
102
RTVSPost2010PropOp48
 70
     1
102
RTVSPost2010Prop49
280
     0
102
RTVSPost2010PropOp49
 70
     1
102
RTVSPost2010Prop50
 90
       50
102
RTVSPost2010PropOp50
 70
     1
102
RTVSPost2010Prop51ColorIndex
 90
      256
102
RTVSPost2010Prop51ColorRGB
 90
-16777216
102
RTVSPost2010PropOp51
 70
     0
102
RTVSPost2010Prop52
140
1.0
102
RTVSPost2010PropOp52
 70
     0
102
RTVSPost2010Prop53
 90
        2
102
RTVSPost2010PropOp53
 70
     1
102
RTVSPost2010Prop54
  1
strokes_ogs.tif
102
RTVSPost2010PropOp54
 70
     1
102
RTVSPost2010Prop55
280
     0
102
RTVSPost2010PropOp55
 70
     1
102
RTVSPost2010Prop56
140
1.0
102
RTVSPost2010PropOp56
 70
     1
102
RTVSPost2010Prop57
140
1.0
102
RTVSPost2010PropOp57
 70
     1
102
RTVSPropertyOp0
 70
     1
102
RTVSPropertyOp1
 70
     1
102
RTVSPropertyOp2
 70
     1
102
RTVSPropertyOp3
 70
     1
102
RTVSPropertyOp4
 70
     1
102
RTVSPropertyOp5
 70
     1
102
RTVSPropertyOp6
 70
     1
102
RTVSPropertyOp7
 70
     1
102
RTVSPropertyOp8
 70
     1
102
RTVSPropertyOp9
 70
     1
102
RTVSPropertyOp10
 70
     1
102
RTVSPropertyOp11
 70
     1
102
RTVSPropertyOp12
 70
     1
102
RTVSPropertyOp13
 70
     1
102
RTVSPropertyOp14
 70
     1
102
RTVSPropertyOp15
 70
     1
102
RTVSPropertyOp16
 70
     1
102
RTVSPropertyOp17
 70
     1
102
RTVSPropertyOp18
 70
     1
102
RTVSPropertyOp19
 70
     1
102
RTVSPropertyOp20
 70
     1
102
RTVSPropertyOp21
 70
     1
102
RTVSPropertyOp22
 70
     1
102
RTVSPropertyOp23
 70
     1
102
RTVSPropertyOp24
 70
     1
102
RTVSPropertyOp25
 70
     1
102
RTVSPropertyOp26
 70
     1
102
RTVSPropertyOp27
 70
     1
102
RTVSPropertyOp28
 70
     1
102
RTVSPropertyOp29
 70
     1
102
RTVSPropertyOp30
 70
     1
102
RTVSPropertyOp31
 70
     1
102
RTVSPropertyOp32
 70
     1
102
RTVSPropertyOp33
 70
     1
102
RTVSPropertyOp34
 70
     1
102
RTVSPropertyOp35
 70
     1
102
RTVSPropertyOp36
 70
     1
102
RTVSPropertyOp37
 70
     1
102
RTVSPropertyOp38
 70
     1
102
RTVSPropertyOp39
 70
     1
102
RTVSPropertyOp40
 70
     1
102
RTVSPropertyOp41
 70
     1
102
RTVSPropertyOp42
 70
     1
102
RTVSPropertyOp43
 70
     1
102
RTVSPropertyOp44
 70
     1
102
RTVSPropertyOp45
 70
     1
102
RTVSPropertyOp46
 70
     1
102
RTVSPropertyOp47
 70
     1
102
RTVSPropertyOp48
 70
     1
102
RTVSPropertyOp49
 70
     1
102
RTVSPropertyOp50
 70
     1
102
RTVSPropertyOp51
 70
     0
102
RTVSPropertyOp52
 70
     0
102
RTVSPropertyOp53
 70
     1
102
RTVSPropertyOp54
 70
     1
102
RTVSPropertyOp55
 70
     1
102
RTVSPropertyOp56
 70
     1
102
RTVSPropertyOp57
 70
     1
102
RTVSPropertyOp58
 70
     1
102
RTVSPropertyOp59
 70
     1
102
RTVSPropertyOp60
 70
     1
102
RTVSPropertyOp61
 70
     1
102
RTVSPropertyOp62
 70
     1
  0
XRECORD
  5
1821
102
{ACAD_REACTORS
330
1820
102
}
330
1820
100
AcDbXrecord
280
     1
102
RTVSPost2010Prop28
280
     0
102
RTVSPost2010PropOp28
 70
     1
102
RTVSPost2010Prop29
280
     1
102
RTVSPost2010PropOp29
 70
     1
102
RTVSPost2010Prop30
280
     1
102
RTVSPost2010PropOp30
 70
     1
102
RTVSPost2010Prop31
280
     0
102
RTVSPost2010PropOp31
 70
     1
102
RTVSPost2010Prop32
280
     0
102
RTVSPost2010PropOp32
 70
     1
102
RTVSPost2010Prop33
280
     0
102
RTVSPost2010PropOp33
 70
     1
102
RTVSPost2010Prop34
280
     0
102
RTVSPost2010PropOp34
 70
     1
102
RTVSPost2010Prop35
280
     0
102
RTVSPost2010PropOp35
 70
     1
102
RTVSPost2010Prop36
280
     0
102
RTVSPost2010PropOp36
 70
     1
102
RTVSPost2010Prop37
 90
       50
102
RTVSPost2010PropOp37
 70
     1
102
RTVSPost2010Prop38
140
0.0
102
RTVSPost2010PropOp38
 70
     1
102
RTVSPost2010Prop39
140
1.0
102
RTVSPost2010PropOp39
 70
     1
102
RTVSPost2010Prop40
 90
        0
102
RTVSPost2010PropOp40
 70
     1
102
RTVSPost2010Prop41ColorIndex
 90
       18
102
RTVSPost2010Prop41ColorRGB
 90
        0
102
RTVSPost2010PropOp41
 70
     1
102
RTVSPost2010Prop42
 90
       50
102
RTVSPost2010PropOp42
 70
     1
102
RTVSPost2010Prop43
 90
        3
102
RTVSPost2010PropOp43
 70
     1
102
RTVSPost2010Prop44ColorIndex
 90
        5
102
RTVSPost2010Prop44ColorRGB
 90
      255
102
RTVSPost2010PropOp44
 70
     1
102
RTVSPost2010Prop45
280
     0
102
RTVSPost2010PropOp45
 70
     1
102
RTVSPost2010Prop46
 90
       50
102
RTVSPost2010PropOp46
 70
     1
102
RTVSPost2010Prop47
 90
       50
102
RTVSPost2010PropOp47
 70
     1
102
RTVSPost2010Prop48
 90
       50
102
RTVSPost2010PropOp48
 70
     1
102
RTVSPost2010Prop49
280
     0
102
RTVSPost2010PropOp49
 70
     1
102
RTVSPost2010Prop50
 90
       50
102
RTVSPost2010PropOp50
 70
     1
102
RTVSPost2010Prop51ColorIndex
 90
      256
102
RTVSPost2010Prop51ColorRGB
 90
-16777216
102
RTVSPost2010PropOp51
 70
     0
102
RTVSPost2010Prop52
140
1.0
102
RTVSPost2010PropOp52
 70
     0
102
RTVSPost2010Prop53
 90
        2
102
RTVSPost2010PropOp53
 70
     1
102
RTVSPost2010Prop54
  1
strokes_ogs.tif
102
RTVSPost2010PropOp54
 70
     1
102
RTVSPost2010Prop55
280
     0
102
RTVSPost2010PropOp55
 70
     1
102
RTVSPost2010Prop56
140
1.0
102
RTVSPost2010PropOp56
 70
     1
102
RTVSPost2010Prop57
140
1.0
102
RTVSPost2010PropOp57
 70
     1
102
RTVSPropertyOp0
 70
     1
102
RTVSPropertyOp1
 70
     1
102
RTVSPropertyOp2
 70
     1
102
RTVSPropertyOp3
 70
     1
102
RTVSPropertyOp4
 70
     1
102
RTVSPropertyOp5
 70
     1
102
RTVSPropertyOp6
 70
     1
102
RTVSPropertyOp7
 70
     1
102
RTVSPropertyOp8
 70
     1
102
RTVSPropertyOp9
 70
     1
102
RTVSPropertyOp10
 70
     1
102
RTVSPropertyOp11
 70
     1
102
RTVSPropertyOp12
 70
     1
102
RTVSPropertyOp13
 70
     1
102
RTVSPropertyOp14
 70
     1
102
RTVSPropertyOp15
 70
     1
102
RTVSPropertyOp16
 70
     1
102
RTVSPropertyOp17
 70
     1
102
RTVSPropertyOp18
 70
     1
102
RTVSPropertyOp19
 70
     1
102
RTVSPropertyOp20
 70
     1
102
RTVSPropertyOp21
 70
     1
102
RTVSPropertyOp22
 70
     1
102
RTVSPropertyOp23
 70
     1
102
RTVSPropertyOp24
 70
     1
102
RTVSPropertyOp25
 70
     1
102
RTVSPropertyOp26
 70
     1
102
RTVSPropertyOp27
 70
     1
102
RTVSPropertyOp28
 70
     1
102
RTVSPropertyOp29
 70
     1
102
RTVSPropertyOp30
 70
     1
102
RTVSPropertyOp31
 70
     1
102
RTVSPropertyOp32
 70
     1
102
RTVSPropertyOp33
 70
     1
102
RTVSPropertyOp34
 70
     1
102
RTVSPropertyOp35
 70
     1
102
RTVSPropertyOp36
 70
     1
102
RTVSPropertyOp37
 70
     1
102
RTVSPropertyOp38
 70
     1
102
RTVSPropertyOp39
 70
     1
102
RTVSPropertyOp40
 70
     1
102
RTVSPropertyOp41
 70
     1
102
RTVSPropertyOp42
 70
     1
102
RTVSPropertyOp43
 70
     1
102
RTVSPropertyOp44
 70
     1
102
RTVSPropertyOp45
 70
     1
102
RTVSPropertyOp46
 70
     1
102
RTVSPropertyOp47
 70
     1
102
RTVSPropertyOp48
 70
     1
102
RTVSPropertyOp49
 70
     1
102
RTVSPropertyOp50
 70
     1
102
RTVSPropertyOp51
 70
     0
102
RTVSPropertyOp52
 70
     0
102
RTVSPropertyOp53
 70
     1
102
RTVSPropertyOp54
 70
     1
102
RTVSPropertyOp55
 70
     1
102
RTVSPropertyOp56
 70
     1
102
RTVSPropertyOp57
 70
     1
102
RTVSPropertyOp58
 70
     1
102
RTVSPropertyOp59
 70
     1
102
RTVSPropertyOp60
 70
     1
102
RTVSPropertyOp61
 70
     1
102
RTVSPropertyOp62
 70
     1
  0
XRECORD
  5
182F
102
{ACAD_REACTORS
330
182E
102
}
330
182E
100
AcDbXrecord
280
     1
102
RTVSPost2010Prop28
280
     0
102
RTVSPost2010PropOp28
 70
     1
102
RTVSPost2010Prop29
280
     1
102
RTVSPost2010PropOp29
 70
     1
102
RTVSPost2010Prop30
280
     1
102
RTVSPost2010PropOp30
 70
     1
102
RTVSPost2010Prop31
280
     0
102
RTVSPost2010PropOp31
 70
     1
102
RTVSPost2010Prop32
280
     0
102
RTVSPost2010PropOp32
 70
     1
102
RTVSPost2010Prop33
280
     0
102
RTVSPost2010PropOp33
 70
     1
102
RTVSPost2010Prop34
280
     0
102
RTVSPost2010PropOp34
 70
     1
102
RTVSPost2010Prop35
280
     0
102
RTVSPost2010PropOp35
 70
     1
102
RTVSPost2010Prop36
280
     0
102
RTVSPost2010PropOp36
 70
     1
102
RTVSPost2010Prop37
 90
       50
102
RTVSPost2010PropOp37
 70
     1
102
RTVSPost2010Prop38
140
0.0
102
RTVSPost2010PropOp38
 70
     1
102
RTVSPost2010Prop39
140
1.0
102
RTVSPost2010PropOp39
 70
     1
102
RTVSPost2010Prop40
 90
        0
102
RTVSPost2010PropOp40
 70
     1
102
RTVSPost2010Prop41ColorIndex
 90
       18
102
RTVSPost2010Prop41ColorRGB
 90
        0
102
RTVSPost2010PropOp41
 70
     1
102
RTVSPost2010Prop42
 90
       50
102
RTVSPost2010PropOp42
 70
     1
102
RTVSPost2010Prop43
 90
        3
102
RTVSPost2010PropOp43
 70
     1
102
RTVSPost2010Prop44ColorIndex
 90
        5
102
RTVSPost2010Prop44ColorRGB
 90
      255
102
RTVSPost2010PropOp44
 70
     1
102
RTVSPost2010Prop45
280
     0
102
RTVSPost2010PropOp45
 70
     1
102
RTVSPost2010Prop46
 90
       50
102
RTVSPost2010PropOp46
 70
     1
102
RTVSPost2010Prop47
 90
       50
102
RTVSPost2010PropOp47
 70
     1
102
RTVSPost2010Prop48
 90
       50
102
RTVSPost2010PropOp48
 70
     1
102
RTVSPost2010Prop49
280
     0
102
RTVSPost2010PropOp49
 70
     1
102
RTVSPost2010Prop50
 90
       50
102
RTVSPost2010PropOp50
 70
     1
102
RTVSPost2010Prop51ColorIndex
 90
      256
102
RTVSPost2010Prop51ColorRGB
 90
-16777216
102
RTVSPost2010PropOp51
 70
     0
102
RTVSPost2010Prop52
140
1.0
102
RTVSPost2010PropOp52
 70
     0
102
RTVSPost2010Prop53
 90
        2
102
RTVSPost2010PropOp53
 70
     1
102
RTVSPost2010Prop54
  1
strokes_ogs.tif
102
RTVSPost2010PropOp54
 70
     1
102
RTVSPost2010Prop55
280
     0
102
RTVSPost2010PropOp55
 70
     1
102
RTVSPost2010Prop56
140
1.0
102
RTVSPost2010PropOp56
 70
     1
102
RTVSPost2010Prop57
140
1.0
102
RTVSPost2010PropOp57
 70
     1
102
RTVSPropertyOp0
 70
     1
102
RTVSPropertyOp1
 70
     1
102
RTVSPropertyOp2
 70
     1
102
RTVSPropertyOp3
 70
     1
102
RTVSPropertyOp4
 70
     1
102
RTVSPropertyOp5
 70
     1
102
RTVSPropertyOp6
 70
     1
102
RTVSPropertyOp7
 70
     1
102
RTVSPropertyOp8
 70
     1
102
RTVSPropertyOp9
 70
     1
102
RTVSPropertyOp10
 70
     1
102
RTVSPropertyOp11
 70
     1
102
RTVSPropertyOp12
 70
     1
102
RTVSPropertyOp13
 70
     1
102
RTVSPropertyOp14
 70
     1
102
RTVSPropertyOp15
 70
     1
102
RTVSPropertyOp16
 70
     1
102
RTVSPropertyOp17
 70
     1
102
RTVSPropertyOp18
 70
     1
102
RTVSPropertyOp19
 70
     1
102
RTVSPropertyOp20
 70
     1
102
RTVSPropertyOp21
 70
     1
102
RTVSPropertyOp22
 70
     1
102
RTVSPropertyOp23
 70
     1
102
RTVSPropertyOp24
 70
     1
102
RTVSPropertyOp25
 70
     1
102
RTVSPropertyOp26
 70
     1
102
RTVSPropertyOp27
 70
     1
102
RTVSPropertyOp28
 70
     1
102
RTVSPropertyOp29
 70
     1
102
RTVSPropertyOp30
 70
     1
102
RTVSPropertyOp31
 70
     1
102
RTVSPropertyOp32
 70
     1
102
RTVSPropertyOp33
 70
     1
102
RTVSPropertyOp34
 70
     1
102
RTVSPropertyOp35
 70
     1
102
RTVSPropertyOp36
 70
     1
102
RTVSPropertyOp37
 70
     1
102
RTVSPropertyOp38
 70
     1
102
RTVSPropertyOp39
 70
     1
102
RTVSPropertyOp40
 70
     1
102
RTVSPropertyOp41
 70
     1
102
RTVSPropertyOp42
 70
     1
102
RTVSPropertyOp43
 70
     1
102
RTVSPropertyOp44
 70
     1
102
RTVSPropertyOp45
 70
     1
102
RTVSPropertyOp46
 70
     1
102
RTVSPropertyOp47
 70
     1
102
RTVSPropertyOp48
 70
     1
102
RTVSPropertyOp49
 70
     1
102
RTVSPropertyOp50
 70
     1
102
RTVSPropertyOp51
 70
     0
102
RTVSPropertyOp52
 70
     0
102
RTVSPropertyOp53
 70
     1
102
RTVSPropertyOp54
 70
     1
102
RTVSPropertyOp55
 70
     1
102
RTVSPropertyOp56
 70
     1
102
RTVSPropertyOp57
 70
     1
102
RTVSPropertyOp58
 70
     1
102
RTVSPropertyOp59
 70
     1
102
RTVSPropertyOp60
 70
     1
102
RTVSPropertyOp61
 70
     1
102
RTVSPropertyOp62
 70
     1
  0
XRECORD
  5
1837
102
{ACAD_REACTORS
330
1836
102
}
330
1836
100
AcDbXrecord
280
     1
102
RTVSPost2010Prop28
280
     0
102
RTVSPost2010PropOp28
 70
     1
102
RTVSPost2010Prop29
280
     1
102
RTVSPost2010PropOp29
 70
     1
102
RTVSPost2010Prop30
280
     1
102
RTVSPost2010PropOp30
 70
     1
102
RTVSPost2010Prop31
280
     0
102
RTVSPost2010PropOp31
 70
     1
102
RTVSPost2010Prop32
280
     0
102
RTVSPost2010PropOp32
 70
     1
102
RTVSPost2010Prop33
280
     0
102
RTVSPost2010PropOp33
 70
     1
102
RTVSPost2010Prop34
280
     0
102
RTVSPost2010PropOp34
 70
     1
102
RTVSPost2010Prop35
280
     0
102
RTVSPost2010PropOp35
 70
     1
102
RTVSPost2010Prop36
280
     0
102
RTVSPost2010PropOp36
 70
     1
102
RTVSPost2010Prop37
 90
       50
102
RTVSPost2010PropOp37
 70
     1
102
RTVSPost2010Prop38
140
0.0
102
RTVSPost2010PropOp38
 70
     1
102
RTVSPost2010Prop39
140
1.0
102
RTVSPost2010PropOp39
 70
     1
102
RTVSPost2010Prop40
 90
        0
102
RTVSPost2010PropOp40
 70
     1
102
RTVSPost2010Prop41ColorIndex
 90
       18
102
RTVSPost2010Prop41ColorRGB
 90
        0
102
RTVSPost2010PropOp41
 70
     1
102
RTVSPost2010Prop42
 90
       50
102
RTVSPost2010PropOp42
 70
     1
102
RTVSPost2010Prop43
 90
        3
102
RTVSPost2010PropOp43
 70
     1
102
RTVSPost2010Prop44ColorIndex
 90
        5
102
RTVSPost2010Prop44ColorRGB
 90
      255
102
RTVSPost2010PropOp44
 70
     1
102
RTVSPost2010Prop45
280
     0
102
RTVSPost2010PropOp45
 70
     1
102
RTVSPost2010Prop46
 90
       50
102
RTVSPost2010PropOp46
 70
     1
102
RTVSPost2010Prop47
 90
       50
102
RTVSPost2010PropOp47
 70
     1
102
RTVSPost2010Prop48
 90
       50
102
RTVSPost2010PropOp48
 70
     1
102
RTVSPost2010Prop49
280
     0
102
RTVSPost2010PropOp49
 70
     1
102
RTVSPost2010Prop50
 90
       50
102
RTVSPost2010PropOp50
 70
     1
102
RTVSPost2010Prop51ColorIndex
 90
      256
102
RTVSPost2010Prop51ColorRGB
 90
-16777216
102
RTVSPost2010PropOp51
 70
     0
102
RTVSPost2010Prop52
140
1.0
102
RTVSPost2010PropOp52
 70
     0
102
RTVSPost2010Prop53
 90
        2
102
RTVSPost2010PropOp53
 70
     1
102
RTVSPost2010Prop54
  1
strokes_ogs.tif
102
RTVSPost2010PropOp54
 70
     1
102
RTVSPost2010Prop55
280
     0
102
RTVSPost2010PropOp55
 70
     1
102
RTVSPost2010Prop56
140
1.0
102
RTVSPost2010PropOp56
 70
     1
102
RTVSPost2010Prop57
140
1.0
102
RTVSPost2010PropOp57
 70
     1
102
RTVSPropertyOp0
 70
     1
102
RTVSPropertyOp1
 70
     1
102
RTVSPropertyOp2
 70
     1
102
RTVSPropertyOp3
 70
     1
102
RTVSPropertyOp4
 70
     1
102
RTVSPropertyOp5
 70
     1
102
RTVSPropertyOp6
 70
     1
102
RTVSPropertyOp7
 70
     1
102
RTVSPropertyOp8
 70
     1
102
RTVSPropertyOp9
 70
     1
102
RTVSPropertyOp10
 70
     1
102
RTVSPropertyOp11
 70
     1
102
RTVSPropertyOp12
 70
     1
102
RTVSPropertyOp13
 70
     1
102
RTVSPropertyOp14
 70
     1
102
RTVSPropertyOp15
 70
     1
102
RTVSPropertyOp16
 70
     1
102
RTVSPropertyOp17
 70
     1
102
RTVSPropertyOp18
 70
     1
102
RTVSPropertyOp19
 70
     1
102
RTVSPropertyOp20
 70
     1
102
RTVSPropertyOp21
 70
     1
102
RTVSPropertyOp22
 70
     1
102
RTVSPropertyOp23
 70
     1
102
RTVSPropertyOp24
 70
     1
102
RTVSPropertyOp25
 70
     1
102
RTVSPropertyOp26
 70
     1
102
RTVSPropertyOp27
 70
     1
102
RTVSPropertyOp28
 70
     1
102
RTVSPropertyOp29
 70
     1
102
RTVSPropertyOp30
 70
     1
102
RTVSPropertyOp31
 70
     1
102
RTVSPropertyOp32
 70
     1
102
RTVSPropertyOp33
 70
     1
102
RTVSPropertyOp34
 70
     1
102
RTVSPropertyOp35
 70
     1
102
RTVSPropertyOp36
 70
     1
102
RTVSPropertyOp37
 70
     1
102
RTVSPropertyOp38
 70
     1
102
RTVSPropertyOp39
 70
     1
102
RTVSPropertyOp40
 70
     1
102
RTVSPropertyOp41
 70
     1
102
RTVSPropertyOp42
 70
     1
102
RTVSPropertyOp43
 70
     1
102
RTVSPropertyOp44
 70
     1
102
RTVSPropertyOp45
 70
     1
102
RTVSPropertyOp46
 70
     1
102
RTVSPropertyOp47
 70
     1
102
RTVSPropertyOp48
 70
     1
102
RTVSPropertyOp49
 70
     1
102
RTVSPropertyOp50
 70
     1
102
RTVSPropertyOp51
 70
     0
102
RTVSPropertyOp52
 70
     0
102
RTVSPropertyOp53
 70
     1
102
RTVSPropertyOp54
 70
     1
102
RTVSPropertyOp55
 70
     1
102
RTVSPropertyOp56
 70
     1
102
RTVSPropertyOp57
 70
     1
102
RTVSPropertyOp58
 70
     1
102
RTVSPropertyOp59
 70
     1
102
RTVSPropertyOp60
 70
     1
102
RTVSPropertyOp61
 70
     1
102
RTVSPropertyOp62
 70
     1
  0
XRECORD
  5
1829
102
{ACAD_REACTORS
330
1828
102
}
330
1828
100
AcDbXrecord
280
     1
102
RTVSPost2010Prop28
280
     0
102
RTVSPost2010PropOp28
 70
     1
102
RTVSPost2010Prop29
280
     1
102
RTVSPost2010PropOp29
 70
     1
102
RTVSPost2010Prop30
280
     1
102
RTVSPost2010PropOp30
 70
     1
102
RTVSPost2010Prop31
280
     0
102
RTVSPost2010PropOp31
 70
     1
102
RTVSPost2010Prop32
280
     0
102
RTVSPost2010PropOp32
 70
     1
102
RTVSPost2010Prop33
280
     0
102
RTVSPost2010PropOp33
 70
     1
102
RTVSPost2010Prop34
280
     0
102
RTVSPost2010PropOp34
 70
     1
102
RTVSPost2010Prop35
280
     0
102
RTVSPost2010PropOp35
 70
     1
102
RTVSPost2010Prop36
280
     0
102
RTVSPost2010PropOp36
 70
     1
102
RTVSPost2010Prop37
 90
       50
102
RTVSPost2010PropOp37
 70
     1
102
RTVSPost2010Prop38
140
0.0
102
RTVSPost2010PropOp38
 70
     1
102
RTVSPost2010Prop39
140
1.0
102
RTVSPost2010PropOp39
 70
     1
102
RTVSPost2010Prop40
 90
        0
102
RTVSPost2010PropOp40
 70
     1
102
RTVSPost2010Prop41ColorIndex
 90
       18
102
RTVSPost2010Prop41ColorRGB
 90
        0
102
RTVSPost2010PropOp41
 70
     1
102
RTVSPost2010Prop42
 90
       50
102
RTVSPost2010PropOp42
 70
     1
102
RTVSPost2010Prop43
 90
        3
102
RTVSPost2010PropOp43
 70
     1
102
RTVSPost2010Prop44ColorIndex
 90
        5
102
RTVSPost2010Prop44ColorRGB
 90
      255
102
RTVSPost2010PropOp44
 70
     1
102
RTVSPost2010Prop45
280
     0
102
RTVSPost2010PropOp45
 70
     1
102
RTVSPost2010Prop46
 90
       50
102
RTVSPost2010PropOp46
 70
     1
102
RTVSPost2010Prop47
 90
       50
102
RTVSPost2010PropOp47
 70
     1
102
RTVSPost2010Prop48
 90
       50
102
RTVSPost2010PropOp48
 70
     1
102
RTVSPost2010Prop49
280
     0
102
RTVSPost2010PropOp49
 70
     1
102
RTVSPost2010Prop50
 90
       50
102
RTVSPost2010PropOp50
 70
     1
102
RTVSPost2010Prop51ColorIndex
 90
      256
102
RTVSPost2010Prop51ColorRGB
 90
-16777216
102
RTVSPost2010PropOp51
 70
     0
102
RTVSPost2010Prop52
140
1.0
102
RTVSPost2010PropOp52
 70
     0
102
RTVSPost2010Prop53
 90
        2
102
RTVSPost2010PropOp53
 70
     1
102
RTVSPost2010Prop54
  1
strokes_ogs.tif
102
RTVSPost2010PropOp54
 70
     1
102
RTVSPost2010Prop55
280
     0
102
RTVSPost2010PropOp55
 70
     1
102
RTVSPost2010Prop56
140
1.0
102
RTVSPost2010PropOp56
 70
     1
102
RTVSPost2010Prop57
140
1.0
102
RTVSPost2010PropOp57
 70
     1
102
RTVSPropertyOp0
 70
     1
102
RTVSPropertyOp1
 70
     1
102
RTVSPropertyOp2
 70
     1
102
RTVSPropertyOp3
 70
     1
102
RTVSPropertyOp4
 70
     1
102
RTVSPropertyOp5
 70
     1
102
RTVSPropertyOp6
 70
     1
102
RTVSPropertyOp7
 70
     1
102
RTVSPropertyOp8
 70
     1
102
RTVSPropertyOp9
 70
     1
102
RTVSPropertyOp10
 70
     1
102
RTVSPropertyOp11
 70
     1
102
RTVSPropertyOp12
 70
     1
102
RTVSPropertyOp13
 70
     1
102
RTVSPropertyOp14
 70
     1
102
RTVSPropertyOp15
 70
     1
102
RTVSPropertyOp16
 70
     1
102
RTVSPropertyOp17
 70
     1
102
RTVSPropertyOp18
 70
     1
102
RTVSPropertyOp19
 70
     1
102
RTVSPropertyOp20
 70
     1
102
RTVSPropertyOp21
 70
     1
102
RTVSPropertyOp22
 70
     1
102
RTVSPropertyOp23
 70
     1
102
RTVSPropertyOp24
 70
     1
102
RTVSPropertyOp25
 70
     1
102
RTVSPropertyOp26
 70
     1
102
RTVSPropertyOp27
 70
     1
102
RTVSPropertyOp28
 70
     1
102
RTVSPropertyOp29
 70
     1
102
RTVSPropertyOp30
 70
     1
102
RTVSPropertyOp31
 70
     1
102
RTVSPropertyOp32
 70
     1
102
RTVSPropertyOp33
 70
     1
102
RTVSPropertyOp34
 70
     1
102
RTVSPropertyOp35
 70
     1
102
RTVSPropertyOp36
 70
     1
102
RTVSPropertyOp37
 70
     1
102
RTVSPropertyOp38
 70
     1
102
RTVSPropertyOp39
 70
     1
102
RTVSPropertyOp40
 70
     1
102
RTVSPropertyOp41
 70
     1
102
RTVSPropertyOp42
 70
     1
102
RTVSPropertyOp43
 70
     1
102
RTVSPropertyOp44
 70
     1
102
RTVSPropertyOp45
 70
     1
102
RTVSPropertyOp46
 70
     1
102
RTVSPropertyOp47
 70
     1
102
RTVSPropertyOp48
 70
     1
102
RTVSPropertyOp49
 70
     1
102
RTVSPropertyOp50
 70
     1
102
RTVSPropertyOp51
 70
     0
102
RTVSPropertyOp52
 70
     0
102
RTVSPropertyOp53
 70
     1
102
RTVSPropertyOp54
 70
     1
102
RTVSPropertyOp55
 70
     1
102
RTVSPropertyOp56
 70
     1
102
RTVSPropertyOp57
 70
     1
102
RTVSPropertyOp58
 70
     1
102
RTVSPropertyOp59
 70
     1
102
RTVSPropertyOp60
 70
     1
102
RTVSPropertyOp61
 70
     1
102
RTVSPropertyOp62
 70
     1
  0
XRECORD
  5
182D
102
{ACAD_REACTORS
330
182C
102
}
330
182C
100
AcDbXrecord
280
     1
102
RTVSPost2010Prop28
280
     0
102
RTVSPost2010PropOp28
 70
     1
102
RTVSPost2010Prop29
280
     1
102
RTVSPost2010PropOp29
 70
     1
102
RTVSPost2010Prop30
280
     1
102
RTVSPost2010PropOp30
 70
     1
102
RTVSPost2010Prop31
280
     0
102
RTVSPost2010PropOp31
 70
     1
102
RTVSPost2010Prop32
280
     0
102
RTVSPost2010PropOp32
 70
     1
102
RTVSPost2010Prop33
280
     0
102
RTVSPost2010PropOp33
 70
     1
102
RTVSPost2010Prop34
280
     0
102
RTVSPost2010PropOp34
 70
     1
102
RTVSPost2010Prop35
280
     0
102
RTVSPost2010PropOp35
 70
     1
102
RTVSPost2010Prop36
280
     0
102
RTVSPost2010PropOp36
 70
     1
102
RTVSPost2010Prop37
 90
       50
102
RTVSPost2010PropOp37
 70
     1
102
RTVSPost2010Prop38
140
0.0
102
RTVSPost2010PropOp38
 70
     1
102
RTVSPost2010Prop39
140
1.0
102
RTVSPost2010PropOp39
 70
     1
102
RTVSPost2010Prop40
 90
        0
102
RTVSPost2010PropOp40
 70
     1
102
RTVSPost2010Prop41ColorIndex
 90
       18
102
RTVSPost2010Prop41ColorRGB
 90
        0
102
RTVSPost2010PropOp41
 70
     1
102
RTVSPost2010Prop42
 90
       50
102
RTVSPost2010PropOp42
 70
     1
102
RTVSPost2010Prop43
 90
        3
102
RTVSPost2010PropOp43
 70
     1
102
RTVSPost2010Prop44ColorIndex
 90
        5
102
RTVSPost2010Prop44ColorRGB
 90
      255
102
RTVSPost2010PropOp44
 70
     1
102
RTVSPost2010Prop45
280
     0
102
RTVSPost2010PropOp45
 70
     1
102
RTVSPost2010Prop46
 90
       50
102
RTVSPost2010PropOp46
 70
     1
102
RTVSPost2010Prop47
 90
       50
102
RTVSPost2010PropOp47
 70
     1
102
RTVSPost2010Prop48
 90
       50
102
RTVSPost2010PropOp48
 70
     1
102
RTVSPost2010Prop49
280
     0
102
RTVSPost2010PropOp49
 70
     1
102
RTVSPost2010Prop50
 90
       50
102
RTVSPost2010PropOp50
 70
     1
102
RTVSPost2010Prop51ColorIndex
 90
      256
102
RTVSPost2010Prop51ColorRGB
 90
-16777216
102
RTVSPost2010PropOp51
 70
     0
102
RTVSPost2010Prop52
140
1.0
102
RTVSPost2010PropOp52
 70
     0
102
RTVSPost2010Prop53
 90
        2
102
RTVSPost2010PropOp53
 70
     1
102
RTVSPost2010Prop54
  1
strokes_ogs.tif
102
RTVSPost2010PropOp54
 70
     1
102
RTVSPost2010Prop55
280
     0
102
RTVSPost2010PropOp55
 70
     1
102
RTVSPost2010Prop56
140
1.0
102
RTVSPost2010PropOp56
 70
     1
102
RTVSPost2010Prop57
140
1.0
102
RTVSPost2010PropOp57
 70
     1
102
RTVSPropertyOp0
 70
     1
102
RTVSPropertyOp1
 70
     1
102
RTVSPropertyOp2
 70
     1
102
RTVSPropertyOp3
 70
     1
102
RTVSPropertyOp4
 70
     1
102
RTVSPropertyOp5
 70
     1
102
RTVSPropertyOp6
 70
     1
102
RTVSPropertyOp7
 70
     1
102
RTVSPropertyOp8
 70
     1
102
RTVSPropertyOp9
 70
     1
102
RTVSPropertyOp10
 70
     1
102
RTVSPropertyOp11
 70
     1
102
RTVSPropertyOp12
 70
     1
102
RTVSPropertyOp13
 70
     1
102
RTVSPropertyOp14
 70
     1
102
RTVSPropertyOp15
 70
     1
102
RTVSPropertyOp16
 70
     1
102
RTVSPropertyOp17
 70
     1
102
RTVSPropertyOp18
 70
     1
102
RTVSPropertyOp19
 70
     1
102
RTVSPropertyOp20
 70
     1
102
RTVSPropertyOp21
 70
     1
102
RTVSPropertyOp22
 70
     1
102
RTVSPropertyOp23
 70
     1
102
RTVSPropertyOp24
 70
     1
102
RTVSPropertyOp25
 70
     1
102
RTVSPropertyOp26
 70
     1
102
RTVSPropertyOp27
 70
     1
102
RTVSPropertyOp28
 70
     1
102
RTVSPropertyOp29
 70
     1
102
RTVSPropertyOp30
 70
     1
102
RTVSPropertyOp31
 70
     1
102
RTVSPropertyOp32
 70
     1
102
RTVSPropertyOp33
 70
     1
102
RTVSPropertyOp34
 70
     1
102
RTVSPropertyOp35
 70
     1
102
RTVSPropertyOp36
 70
     1
102
RTVSPropertyOp37
 70
     1
102
RTVSPropertyOp38
 70
     1
102
RTVSPropertyOp39
 70
     1
102
RTVSPropertyOp40
 70
     1
102
RTVSPropertyOp41
 70
     1
102
RTVSPropertyOp42
 70
     1
102
RTVSPropertyOp43
 70
     1
102
RTVSPropertyOp44
 70
     1
102
RTVSPropertyOp45
 70
     1
102
RTVSPropertyOp46
 70
     1
102
RTVSPropertyOp47
 70
     1
102
RTVSPropertyOp48
 70
     1
102
RTVSPropertyOp49
 70
     1
102
RTVSPropertyOp50
 70
     1
102
RTVSPropertyOp51
 70
     0
102
RTVSPropertyOp52
 70
     0
102
RTVSPropertyOp53
 70
     1
102
RTVSPropertyOp54
 70
     1
102
RTVSPropertyOp55
 70
     1
102
RTVSPropertyOp56
 70
     1
102
RTVSPropertyOp57
 70
     1
102
RTVSPropertyOp58
 70
     1
102
RTVSPropertyOp59
 70
     1
102
RTVSPropertyOp60
 70
     1
102
RTVSPropertyOp61
 70
     1
102
RTVSPropertyOp62
 70
     1
  0
XRECORD
  5
1847
102
{ACAD_REACTORS
330
1846
102
}
330
1846
100
AcDbXrecord
280
     1
102
RTVSPost2010Prop28
280
     0
102
RTVSPost2010PropOp28
 70
     1
102
RTVSPost2010Prop29
280
     1
102
RTVSPost2010PropOp29
 70
     1
102
RTVSPost2010Prop30
280
     1
102
RTVSPost2010PropOp30
 70
     1
102
RTVSPost2010Prop31
280
     0
102
RTVSPost2010PropOp31
 70
     1
102
RTVSPost2010Prop32
280
     0
102
RTVSPost2010PropOp32
 70
     1
102
RTVSPost2010Prop33
280
     0
102
RTVSPost2010PropOp33
 70
     1
102
RTVSPost2010Prop34
280
     0
102
RTVSPost2010PropOp34
 70
     1
102
RTVSPost2010Prop35
280
     0
102
RTVSPost2010PropOp35
 70
     1
102
RTVSPost2010Prop36
280
     0
102
RTVSPost2010PropOp36
 70
     1
102
RTVSPost2010Prop37
 90
       50
102
RTVSPost2010PropOp37
 70
     0
102
RTVSPost2010Prop38
140
0.0
102
RTVSPost2010PropOp38
 70
     0
102
RTVSPost2010Prop39
140
1.0
102
RTVSPost2010PropOp39
 70
     0
102
RTVSPost2010Prop40
 90
        0
102
RTVSPost2010PropOp40
 70
     0
102
RTVSPost2010Prop41ColorIndex
 90
       18
102
RTVSPost2010Prop41ColorRGB
 90
        0
102
RTVSPost2010PropOp41
 70
     0
102
RTVSPost2010Prop42
 90
       50
102
RTVSPost2010PropOp42
 70
     0
102
RTVSPost2010Prop43
 90
        3
102
RTVSPost2010PropOp43
 70
     0
102
RTVSPost2010Prop44ColorIndex
 90
        5
102
RTVSPost2010Prop44ColorRGB
 90
      255
102
RTVSPost2010PropOp44
 70
     0
102
RTVSPost2010Prop45
280
     0
102
RTVSPost2010PropOp45
 70
     1
102
RTVSPost2010Prop46
 90
       50
102
RTVSPost2010PropOp46
 70
     0
102
RTVSPost2010Prop47
 90
       50
102
RTVSPost2010PropOp47
 70
     0
102
RTVSPost2010Prop48
 90
       50
102
RTVSPost2010PropOp48
 70
     0
102
RTVSPost2010Prop49
280
     0
102
RTVSPost2010PropOp49
 70
     1
102
RTVSPost2010Prop50
 90
       50
102
RTVSPost2010PropOp50
 70
     0
102
RTVSPost2010Prop51ColorIndex
 90
      256
102
RTVSPost2010Prop51ColorRGB
 90
-16777216
102
RTVSPost2010PropOp51
 70
     0
102
RTVSPost2010Prop52
140
1.0
102
RTVSPost2010PropOp52
 70
     0
102
RTVSPost2010Prop53
 90
        2
102
RTVSPost2010PropOp53
 70
     0
102
RTVSPost2010Prop54
  1
strokes_ogs.tif
102
RTVSPost2010PropOp54
 70
     0
102
RTVSPost2010Prop55
280
     0
102
RTVSPost2010PropOp55
 70
     1
102
RTVSPost2010Prop56
140
1.0
102
RTVSPost2010PropOp56
 70
     0
102
RTVSPost2010Prop57
140
1.0
102
RTVSPost2010PropOp57
 70
     0
102
RTVSPropertyOp0
 70
     0
102
RTVSPropertyOp1
 70
     0
102
RTVSPropertyOp2
 70
     0
102
RTVSPropertyOp3
 70
     0
102
RTVSPropertyOp4
 70
     0
102
RTVSPropertyOp5
 70
     0
102
RTVSPropertyOp6
 70
     0
102
RTVSPropertyOp7
 70
     0
102
RTVSPropertyOp8
 70
     0
102
RTVSPropertyOp9
 70
     0
102
RTVSPropertyOp10
 70
     0
102
RTVSPropertyOp11
 70
     0
102
RTVSPropertyOp12
 70
     0
102
RTVSPropertyOp13
 70
     0
102
RTVSPropertyOp14
 70
     2
102
RTVSPropertyOp15
 70
     0
102
RTVSPropertyOp16
 70
     0
102
RTVSPropertyOp17
 70
     0
102
RTVSPropertyOp18
 70
     0
102
RTVSPropertyOp19
 70
     0
102
RTVSPropertyOp20
 70
     0
102
RTVSPropertyOp21
 70
     0
102
RTVSPropertyOp22
 70
     0
102
RTVSPropertyOp23
 70
     0
102
RTVSPropertyOp24
 70
     0
102
RTVSPropertyOp25
 70
     0
102
RTVSPropertyOp26
 70
     0
102
RTVSPropertyOp27
 70
     0
102
RTVSPropertyOp28
 70
     1
102
RTVSPropertyOp29
 70
     1
102
RTVSPropertyOp30
 70
     1
102
RTVSPropertyOp31
 70
     1
102
RTVSPropertyOp32
 70
     1
102
RTVSPropertyOp33
 70
     1
102
RTVSPropertyOp34
 70
     1
102
RTVSPropertyOp35
 70
     1
102
RTVSPropertyOp36
 70
     1
102
RTVSPropertyOp37
 70
     0
102
RTVSPropertyOp38
 70
     0
102
RTVSPropertyOp39
 70
     0
102
RTVSPropertyOp40
 70
     0
102
RTVSPropertyOp41
 70
     0
102
RTVSPropertyOp42
 70
     0
102
RTVSPropertyOp43
 70
     0
102
RTVSPropertyOp44
 70
     0
102
RTVSPropertyOp45
 70
     1
102
RTVSPropertyOp46
 70
     0
102
RTVSPropertyOp47
 70
     0
102
RTVSPropertyOp48
 70
     0
102
RTVSPropertyOp49
 70
     1
102
RTVSPropertyOp50
 70
     0
102
RTVSPropertyOp51
 70
     0
102
RTVSPropertyOp52
 70
     0
102
RTVSPropertyOp53
 70
     0
102
RTVSPropertyOp54
 70
     0
102
RTVSPropertyOp55
 70
     1
102
RTVSPropertyOp56
 70
     0
102
RTVSPropertyOp57
 70
     0
102
RTVSPropertyOp58
 70
     0
102
RTVSPropertyOp59
 70
     0
102
RTVSPropertyOp60
 70
     0
102
RTVSPropertyOp61
 70
     0
102
RTVSPropertyOp62
 70
     0
  0
XRECORD
  5
1835
102
{ACAD_REACTORS
330
1834
102
}
330
1834
100
AcDbXrecord
280
     1
102
RTVSPost2010Prop28
280
     0
102
RTVSPost2010PropOp28
 70
     1
102
RTVSPost2010Prop29
280
     1
102
RTVSPost2010PropOp29
 70
     1
102
RTVSPost2010Prop30
280
     1
102
RTVSPost2010PropOp30
 70
     1
102
RTVSPost2010Prop31
280
     0
102
RTVSPost2010PropOp31
 70
     1
102
RTVSPost2010Prop32
280
     0
102
RTVSPost2010PropOp32
 70
     1
102
RTVSPost2010Prop33
280
     0
102
RTVSPost2010PropOp33
 70
     1
102
RTVSPost2010Prop34
280
     0
102
RTVSPost2010PropOp34
 70
     1
102
RTVSPost2010Prop35
280
     0
102
RTVSPost2010PropOp35
 70
     1
102
RTVSPost2010Prop36
280
     0
102
RTVSPost2010PropOp36
 70
     1
102
RTVSPost2010Prop37
 90
       50
102
RTVSPost2010PropOp37
 70
     1
102
RTVSPost2010Prop38
140
0.0
102
RTVSPost2010PropOp38
 70
     1
102
RTVSPost2010Prop39
140
1.0
102
RTVSPost2010PropOp39
 70
     1
102
RTVSPost2010Prop40
 90
        0
102
RTVSPost2010PropOp40
 70
     1
102
RTVSPost2010Prop41ColorIndex
 90
       18
102
RTVSPost2010Prop41ColorRGB
 90
        0
102
RTVSPost2010PropOp41
 70
     1
102
RTVSPost2010Prop42
 90
       50
102
RTVSPost2010PropOp42
 70
     1
102
RTVSPost2010Prop43
 90
        3
102
RTVSPost2010PropOp43
 70
     1
102
RTVSPost2010Prop44ColorIndex
 90
        5
102
RTVSPost2010Prop44ColorRGB
 90
      255
102
RTVSPost2010PropOp44
 70
     1
102
RTVSPost2010Prop45
280
     0
102
RTVSPost2010PropOp45
 70
     1
102
RTVSPost2010Prop46
 90
       50
102
RTVSPost2010PropOp46
 70
     1
102
RTVSPost2010Prop47
 90
       50
102
RTVSPost2010PropOp47
 70
     1
102
RTVSPost2010Prop48
 90
       50
102
RTVSPost2010PropOp48
 70
     1
102
RTVSPost2010Prop49
280
     0
102
RTVSPost2010PropOp49
 70
     1
102
RTVSPost2010Prop50
 90
       50
102
RTVSPost2010PropOp50
 70
     1
102
RTVSPost2010Prop51ColorIndex
 90
      256
102
RTVSPost2010Prop51ColorRGB
 90
-16777216
102
RTVSPost2010PropOp51
 70
     0
102
RTVSPost2010Prop52
140
1.0
102
RTVSPost2010PropOp52
 70
     0
102
RTVSPost2010Prop53
 90
        2
102
RTVSPost2010PropOp53
 70
     1
102
RTVSPost2010Prop54
  1
strokes_ogs.tif
102
RTVSPost2010PropOp54
 70
     1
102
RTVSPost2010Prop55
280
     0
102
RTVSPost2010PropOp55
 70
     1
102
RTVSPost2010Prop56
140
1.0
102
RTVSPost2010PropOp56
 70
     1
102
RTVSPost2010Prop57
140
1.0
102
RTVSPost2010PropOp57
 70
     1
102
RTVSPropertyOp0
 70
     1
102
RTVSPropertyOp1
 70
     1
102
RTVSPropertyOp2
 70
     1
102
RTVSPropertyOp3
 70
     1
102
RTVSPropertyOp4
 70
     1
102
RTVSPropertyOp5
 70
     1
102
RTVSPropertyOp6
 70
     1
102
RTVSPropertyOp7
 70
     1
102
RTVSPropertyOp8
 70
     1
102
RTVSPropertyOp9
 70
     1
102
RTVSPropertyOp10
 70
     1
102
RTVSPropertyOp11
 70
     1
102
RTVSPropertyOp12
 70
     1
102
RTVSPropertyOp13
 70
     1
102
RTVSPropertyOp14
 70
     1
102
RTVSPropertyOp15
 70
     1
102
RTVSPropertyOp16
 70
     1
102
RTVSPropertyOp17
 70
     1
102
RTVSPropertyOp18
 70
     1
102
RTVSPropertyOp19
 70
     1
102
RTVSPropertyOp20
 70
     1
102
RTVSPropertyOp21
 70
     1
102
RTVSPropertyOp22
 70
     1
102
RTVSPropertyOp23
 70
     1
102
RTVSPropertyOp24
 70
     1
102
RTVSPropertyOp25
 70
     1
102
RTVSPropertyOp26
 70
     1
102
RTVSPropertyOp27
 70
     1
102
RTVSPropertyOp28
 70
     1
102
RTVSPropertyOp29
 70
     1
102
RTVSPropertyOp30
 70
     1
102
RTVSPropertyOp31
 70
     1
102
RTVSPropertyOp32
 70
     1
102
RTVSPropertyOp33
 70
     1
102
RTVSPropertyOp34
 70
     1
102
RTVSPropertyOp35
 70
     1
102
RTVSPropertyOp36
 70
     1
102
RTVSPropertyOp37
 70
     1
102
RTVSPropertyOp38
 70
     1
102
RTVSPropertyOp39
 70
     1
102
RTVSPropertyOp40
 70
     1
102
RTVSPropertyOp41
 70
     1
102
RTVSPropertyOp42
 70
     1
102
RTVSPropertyOp43
 70
     1
102
RTVSPropertyOp44
 70
     1
102
RTVSPropertyOp45
 70
     1
102
RTVSPropertyOp46
 70
     1
102
RTVSPropertyOp47
 70
     1
102
RTVSPropertyOp48
 70
     1
102
RTVSPropertyOp49
 70
     1
102
RTVSPropertyOp50
 70
     1
102
RTVSPropertyOp51
 70
     0
102
RTVSPropertyOp52
 70
     0
102
RTVSPropertyOp53
 70
     1
102
RTVSPropertyOp54
 70
     1
102
RTVSPropertyOp55
 70
     1
102
RTVSPropertyOp56
 70
     1
102
RTVSPropertyOp57
 70
     1
102
RTVSPropertyOp58
 70
     1
102
RTVSPropertyOp59
 70
     1
102
RTVSPropertyOp60
 70
     1
102
RTVSPropertyOp61
 70
     1
102
RTVSPropertyOp62
 70
     1
  0
XRECORD
  5
1819
102
{ACAD_REACTORS
330
1818
102
}
330
1818
100
AcDbXrecord
280
     1
102
RTVSPost2010Prop28
280
     0
102
RTVSPost2010PropOp28
 70
     1
102
RTVSPost2010Prop29
280
     1
102
RTVSPost2010PropOp29
 70
     1
102
RTVSPost2010Prop30
280
     1
102
RTVSPost2010PropOp30
 70
     1
102
RTVSPost2010Prop31
280
     0
102
RTVSPost2010PropOp31
 70
     1
102
RTVSPost2010Prop32
280
     0
102
RTVSPost2010PropOp32
 70
     1
102
RTVSPost2010Prop33
280
     0
102
RTVSPost2010PropOp33
 70
     1
102
RTVSPost2010Prop34
280
     0
102
RTVSPost2010PropOp34
 70
     1
102
RTVSPost2010Prop35
280
     0
102
RTVSPost2010PropOp35
 70
     1
102
RTVSPost2010Prop36
280
     0
102
RTVSPost2010PropOp36
 70
     1
102
RTVSPost2010Prop37
 90
       50
102
RTVSPost2010PropOp37
 70
     1
102
RTVSPost2010Prop38
140
0.0
102
RTVSPost2010PropOp38
 70
     1
102
RTVSPost2010Prop39
140
1.0
102
RTVSPost2010PropOp39
 70
     1
102
RTVSPost2010Prop40
 90
        0
102
RTVSPost2010PropOp40
 70
     1
102
RTVSPost2010Prop41ColorIndex
 90
       18
102
RTVSPost2010Prop41ColorRGB
 90
        0
102
RTVSPost2010PropOp41
 70
     1
102
RTVSPost2010Prop42
 90
       50
102
RTVSPost2010PropOp42
 70
     1
102
RTVSPost2010Prop43
 90
        3
102
RTVSPost2010PropOp43
 70
     1
102
RTVSPost2010Prop44ColorIndex
 90
        5
102
RTVSPost2010Prop44ColorRGB
 90
      255
102
RTVSPost2010PropOp44
 70
     1
102
RTVSPost2010Prop45
280
     0
102
RTVSPost2010PropOp45
 70
     1
102
RTVSPost2010Prop46
 90
       50
102
RTVSPost2010PropOp46
 70
     1
102
RTVSPost2010Prop47
 90
       50
102
RTVSPost2010PropOp47
 70
     1
102
RTVSPost2010Prop48
 90
       50
102
RTVSPost2010PropOp48
 70
     1
102
RTVSPost2010Prop49
280
     0
102
RTVSPost2010PropOp49
 70
     1
102
RTVSPost2010Prop50
 90
       50
102
RTVSPost2010PropOp50
 70
     1
102
RTVSPost2010Prop51ColorIndex
 90
      256
102
RTVSPost2010Prop51ColorRGB
 90
-16777216
102
RTVSPost2010PropOp51
 70
     0
102
RTVSPost2010Prop52
140
1.0
102
RTVSPost2010PropOp52
 70
     0
102
RTVSPost2010Prop53
 90
        2
102
RTVSPost2010PropOp53
 70
     1
102
RTVSPost2010Prop54
  1
strokes_ogs.tif
102
RTVSPost2010PropOp54
 70
     1
102
RTVSPost2010Prop55
280
     0
102
RTVSPost2010PropOp55
 70
     1
102
RTVSPost2010Prop56
140
1.0
102
RTVSPost2010PropOp56
 70
     1
102
RTVSPost2010Prop57
140
1.0
102
RTVSPost2010PropOp57
 70
     1
102
RTVSPropertyOp0
 70
     1
102
RTVSPropertyOp1
 70
     1
102
RTVSPropertyOp2
 70
     1
102
RTVSPropertyOp3
 70
     1
102
RTVSPropertyOp4
 70
     1
102
RTVSPropertyOp5
 70
     1
102
RTVSPropertyOp6
 70
     1
102
RTVSPropertyOp7
 70
     1
102
RTVSPropertyOp8
 70
     1
102
RTVSPropertyOp9
 70
     1
102
RTVSPropertyOp10
 70
     1
102
RTVSPropertyOp11
 70
     1
102
RTVSPropertyOp12
 70
     1
102
RTVSPropertyOp13
 70
     1
102
RTVSPropertyOp14
 70
     1
102
RTVSPropertyOp15
 70
     1
102
RTVSPropertyOp16
 70
     1
102
RTVSPropertyOp17
 70
     1
102
RTVSPropertyOp18
 70
     1
102
RTVSPropertyOp19
 70
     1
102
RTVSPropertyOp20
 70
     1
102
RTVSPropertyOp21
 70
     1
102
RTVSPropertyOp22
 70
     1
102
RTVSPropertyOp23
 70
     1
102
RTVSPropertyOp24
 70
     1
102
RTVSPropertyOp25
 70
     1
102
RTVSPropertyOp26
 70
     1
102
RTVSPropertyOp27
 70
     1
102
RTVSPropertyOp28
 70
     1
102
RTVSPropertyOp29
 70
     1
102
RTVSPropertyOp30
 70
     1
102
RTVSPropertyOp31
 70
     1
102
RTVSPropertyOp32
 70
     1
102
RTVSPropertyOp33
 70
     1
102
RTVSPropertyOp34
 70
     1
102
RTVSPropertyOp35
 70
     1
102
RTVSPropertyOp36
 70
     1
102
RTVSPropertyOp37
 70
     1
102
RTVSPropertyOp38
 70
     1
102
RTVSPropertyOp39
 70
     1
102
RTVSPropertyOp40
 70
     1
102
RTVSPropertyOp41
 70
     1
102
RTVSPropertyOp42
 70
     1
102
RTVSPropertyOp43
 70
     1
102
RTVSPropertyOp44
 70
     1
102
RTVSPropertyOp45
 70
     1
102
RTVSPropertyOp46
 70
     1
102
RTVSPropertyOp47
 70
     1
102
RTVSPropertyOp48
 70
     1
102
RTVSPropertyOp49
 70
     1
102
RTVSPropertyOp50
 70
     1
102
RTVSPropertyOp51
 70
     0
102
RTVSPropertyOp52
 70
     0
102
RTVSPropertyOp53
 70
     1
102
RTVSPropertyOp54
 70
     1
102
RTVSPropertyOp55
 70
     1
102
RTVSPropertyOp56
 70
     1
102
RTVSPropertyOp57
 70
     1
102
RTVSPropertyOp58
 70
     1
102
RTVSPropertyOp59
 70
     1
102
RTVSPropertyOp60
 70
     1
102
RTVSPropertyOp61
 70
     1
102
RTVSPropertyOp62
 70
     1
  0
XRECORD
  5
181B
102
{ACAD_REACTORS
330
181A
102
}
330
181A
100
AcDbXrecord
280
     1
102
RTVSPost2010Prop28
280
     0
102
RTVSPost2010PropOp28
 70
     1
102
RTVSPost2010Prop29
280
     1
102
RTVSPost2010PropOp29
 70
     1
102
RTVSPost2010Prop30
280
     1
102
RTVSPost2010PropOp30
 70
     1
102
RTVSPost2010Prop31
280
     0
102
RTVSPost2010PropOp31
 70
     1
102
RTVSPost2010Prop32
280
     0
102
RTVSPost2010PropOp32
 70
     1
102
RTVSPost2010Prop33
280
     0
102
RTVSPost2010PropOp33
 70
     1
102
RTVSPost2010Prop34
280
     0
102
RTVSPost2010PropOp34
 70
     1
102
RTVSPost2010Prop35
280
     0
102
RTVSPost2010PropOp35
 70
     1
102
RTVSPost2010Prop36
280
     0
102
RTVSPost2010PropOp36
 70
     1
102
RTVSPost2010Prop37
 90
       50
102
RTVSPost2010PropOp37
 70
     1
102
RTVSPost2010Prop38
140
0.0
102
RTVSPost2010PropOp38
 70
     1
102
RTVSPost2010Prop39
140
1.0
102
RTVSPost2010PropOp39
 70
     1
102
RTVSPost2010Prop40
 90
        0
102
RTVSPost2010PropOp40
 70
     1
102
RTVSPost2010Prop41ColorIndex
 90
       18
102
RTVSPost2010Prop41ColorRGB
 90
        0
102
RTVSPost2010PropOp41
 70
     1
102
RTVSPost2010Prop42
 90
       50
102
RTVSPost2010PropOp42
 70
     1
102
RTVSPost2010Prop43
 90
        3
102
RTVSPost2010PropOp43
 70
     1
102
RTVSPost2010Prop44ColorIndex
 90
        5
102
RTVSPost2010Prop44ColorRGB
 90
      255
102
RTVSPost2010PropOp44
 70
     1
102
RTVSPost2010Prop45
280
     0
102
RTVSPost2010PropOp45
 70
     1
102
RTVSPost2010Prop46
 90
       50
102
RTVSPost2010PropOp46
 70
     1
102
RTVSPost2010Prop47
 90
       50
102
RTVSPost2010PropOp47
 70
     1
102
RTVSPost2010Prop48
 90
       50
102
RTVSPost2010PropOp48
 70
     1
102
RTVSPost2010Prop49
280
     0
102
RTVSPost2010PropOp49
 70
     1
102
RTVSPost2010Prop50
 90
       50
102
RTVSPost2010PropOp50
 70
     1
102
RTVSPost2010Prop51ColorIndex
 90
      256
102
RTVSPost2010Prop51ColorRGB
 90
-16777216
102
RTVSPost2010PropOp51
 70
     0
102
RTVSPost2010Prop52
140
1.0
102
RTVSPost2010PropOp52
 70
     0
102
RTVSPost2010Prop53
 90
        2
102
RTVSPost2010PropOp53
 70
     1
102
RTVSPost2010Prop54
  1
strokes_ogs.tif
102
RTVSPost2010PropOp54
 70
     1
102
RTVSPost2010Prop55
280
     0
102
RTVSPost2010PropOp55
 70
     1
102
RTVSPost2010Prop56
140
1.0
102
RTVSPost2010PropOp56
 70
     1
102
RTVSPost2010Prop57
140
1.0
102
RTVSPost2010PropOp57
 70
     1
102
RTVSPropertyOp0
 70
     1
102
RTVSPropertyOp1
 70
     1
102
RTVSPropertyOp2
 70
     1
102
RTVSPropertyOp3
 70
     1
102
RTVSPropertyOp4
 70
     1
102
RTVSPropertyOp5
 70
     1
102
RTVSPropertyOp6
 70
     1
102
RTVSPropertyOp7
 70
     1
102
RTVSPropertyOp8
 70
     1
102
RTVSPropertyOp9
 70
     1
102
RTVSPropertyOp10
 70
     1
102
RTVSPropertyOp11
 70
     1
102
RTVSPropertyOp12
 70
     1
102
RTVSPropertyOp13
 70
     1
102
RTVSPropertyOp14
 70
     1
102
RTVSPropertyOp15
 70
     1
102
RTVSPropertyOp16
 70
     1
102
RTVSPropertyOp17
 70
     1
102
RTVSPropertyOp18
 70
     1
102
RTVSPropertyOp19
 70
     1
102
RTVSPropertyOp20
 70
     1
102
RTVSPropertyOp21
 70
     1
102
RTVSPropertyOp22
 70
     1
102
RTVSPropertyOp23
 70
     1
102
RTVSPropertyOp24
 70
     1
102
RTVSPropertyOp25
 70
     1
102
RTVSPropertyOp26
 70
     1
102
RTVSPropertyOp27
 70
     1
102
RTVSPropertyOp28
 70
     1
102
RTVSPropertyOp29
 70
     1
102
RTVSPropertyOp30
 70
     1
102
RTVSPropertyOp31
 70
     1
102
RTVSPropertyOp32
 70
     1
102
RTVSPropertyOp33
 70
     1
102
RTVSPropertyOp34
 70
     1
102
RTVSPropertyOp35
 70
     1
102
RTVSPropertyOp36
 70
     1
102
RTVSPropertyOp37
 70
     1
102
RTVSPropertyOp38
 70
     1
102
RTVSPropertyOp39
 70
     1
102
RTVSPropertyOp40
 70
     1
102
RTVSPropertyOp41
 70
     1
102
RTVSPropertyOp42
 70
     1
102
RTVSPropertyOp43
 70
     1
102
RTVSPropertyOp44
 70
     1
102
RTVSPropertyOp45
 70
     1
102
RTVSPropertyOp46
 70
     1
102
RTVSPropertyOp47
 70
     1
102
RTVSPropertyOp48
 70
     1
102
RTVSPropertyOp49
 70
     1
102
RTVSPropertyOp50
 70
     1
102
RTVSPropertyOp51
 70
     0
102
RTVSPropertyOp52
 70
     0
102
RTVSPropertyOp53
 70
     1
102
RTVSPropertyOp54
 70
     1
102
RTVSPropertyOp55
 70
     1
102
RTVSPropertyOp56
 70
     1
102
RTVSPropertyOp57
 70
     1
102
RTVSPropertyOp58
 70
     1
102
RTVSPropertyOp59
 70
     1
102
RTVSPropertyOp60
 70
     1
102
RTVSPropertyOp61
 70
     1
102
RTVSPropertyOp62
 70
     1
  0
XRECORD
  5
181D
102
{ACAD_REACTORS
330
181C
102
}
330
181C
100
AcDbXrecord
280
     1
102
RTVSPost2010Prop28
280
     0
102
RTVSPost2010PropOp28
 70
     1
102
RTVSPost2010Prop29
280
     1
102
RTVSPost2010PropOp29
 70
     1
102
RTVSPost2010Prop30
280
     1
102
RTVSPost2010PropOp30
 70
     1
102
RTVSPost2010Prop31
280
     0
102
RTVSPost2010PropOp31
 70
     1
102
RTVSPost2010Prop32
280
     0
102
RTVSPost2010PropOp32
 70
     1
102
RTVSPost2010Prop33
280
     0
102
RTVSPost2010PropOp33
 70
     1
102
RTVSPost2010Prop34
280
     0
102
RTVSPost2010PropOp34
 70
     1
102
RTVSPost2010Prop35
280
     0
102
RTVSPost2010PropOp35
 70
     1
102
RTVSPost2010Prop36
280
     0
102
RTVSPost2010PropOp36
 70
     1
102
RTVSPost2010Prop37
 90
       50
102
RTVSPost2010PropOp37
 70
     1
102
RTVSPost2010Prop38
140
0.0
102
RTVSPost2010PropOp38
 70
     1
102
RTVSPost2010Prop39
140
1.0
102
RTVSPost2010PropOp39
 70
     1
102
RTVSPost2010Prop40
 90
        0
102
RTVSPost2010PropOp40
 70
     1
102
RTVSPost2010Prop41ColorIndex
 90
       18
102
RTVSPost2010Prop41ColorRGB
 90
        0
102
RTVSPost2010PropOp41
 70
     1
102
RTVSPost2010Prop42
 90
       50
102
RTVSPost2010PropOp42
 70
     1
102
RTVSPost2010Prop43
 90
        3
102
RTVSPost2010PropOp43
 70
     1
102
RTVSPost2010Prop44ColorIndex
 90
        5
102
RTVSPost2010Prop44ColorRGB
 90
      255
102
RTVSPost2010PropOp44
 70
     1
102
RTVSPost2010Prop45
280
     0
102
RTVSPost2010PropOp45
 70
     1
102
RTVSPost2010Prop46
 90
       50
102
RTVSPost2010PropOp46
 70
     1
102
RTVSPost2010Prop47
 90
       50
102
RTVSPost2010PropOp47
 70
     1
102
RTVSPost2010Prop48
 90
       50
102
RTVSPost2010PropOp48
 70
     1
102
RTVSPost2010Prop49
280
     0
102
RTVSPost2010PropOp49
 70
     1
102
RTVSPost2010Prop50
 90
       50
102
RTVSPost2010PropOp50
 70
     1
102
RTVSPost2010Prop51ColorIndex
 90
      256
102
RTVSPost2010Prop51ColorRGB
 90
-16777216
102
RTVSPost2010PropOp51
 70
     0
102
RTVSPost2010Prop52
140
1.0
102
RTVSPost2010PropOp52
 70
     0
102
RTVSPost2010Prop53
 90
        2
102
RTVSPost2010PropOp53
 70
     1
102
RTVSPost2010Prop54
  1
strokes_ogs.tif
102
RTVSPost2010PropOp54
 70
     1
102
RTVSPost2010Prop55
280
     0
102
RTVSPost2010PropOp55
 70
     1
102
RTVSPost2010Prop56
140
1.0
102
RTVSPost2010PropOp56
 70
     1
102
RTVSPost2010Prop57
140
1.0
102
RTVSPost2010PropOp57
 70
     1
102
RTVSPropertyOp0
 70
     1
102
RTVSPropertyOp1
 70
     1
102
RTVSPropertyOp2
 70
     1
102
RTVSPropertyOp3
 70
     1
102
RTVSPropertyOp4
 70
     1
102
RTVSPropertyOp5
 70
     1
102
RTVSPropertyOp6
 70
     1
102
RTVSPropertyOp7
 70
     1
102
RTVSPropertyOp8
 70
     1
102
RTVSPropertyOp9
 70
     1
102
RTVSPropertyOp10
 70
     1
102
RTVSPropertyOp11
 70
     1
102
RTVSPropertyOp12
 70
     1
102
RTVSPropertyOp13
 70
     1
102
RTVSPropertyOp14
 70
     1
102
RTVSPropertyOp15
 70
     1
102
RTVSPropertyOp16
 70
     1
102
RTVSPropertyOp17
 70
     1
102
RTVSPropertyOp18
 70
     1
102
RTVSPropertyOp19
 70
     1
102
RTVSPropertyOp20
 70
     1
102
RTVSPropertyOp21
 70
     1
102
RTVSPropertyOp22
 70
     1
102
RTVSPropertyOp23
 70
     1
102
RTVSPropertyOp24
 70
     1
102
RTVSPropertyOp25
 70
     1
102
RTVSPropertyOp26
 70
     1
102
RTVSPropertyOp27
 70
     1
102
RTVSPropertyOp28
 70
     1
102
RTVSPropertyOp29
 70
     1
102
RTVSPropertyOp30
 70
     1
102
RTVSPropertyOp31
 70
     1
102
RTVSPropertyOp32
 70
     1
102
RTVSPropertyOp33
 70
     1
102
RTVSPropertyOp34
 70
     1
102
RTVSPropertyOp35
 70
     1
102
RTVSPropertyOp36
 70
     1
102
RTVSPropertyOp37
 70
     1
102
RTVSPropertyOp38
 70
     1
102
RTVSPropertyOp39
 70
     1
102
RTVSPropertyOp40
 70
     1
102
RTVSPropertyOp41
 70
     1
102
RTVSPropertyOp42
 70
     1
102
RTVSPropertyOp43
 70
     1
102
RTVSPropertyOp44
 70
     1
102
RTVSPropertyOp45
 70
     1
102
RTVSPropertyOp46
 70
     1
102
RTVSPropertyOp47
 70
     1
102
RTVSPropertyOp48
 70
     1
102
RTVSPropertyOp49
 70
     1
102
RTVSPropertyOp50
 70
     1
102
RTVSPropertyOp51
 70
     0
102
RTVSPropertyOp52
 70
     0
102
RTVSPropertyOp53
 70
     1
102
RTVSPropertyOp54
 70
     1
102
RTVSPropertyOp55
 70
     1
102
RTVSPropertyOp56
 70
     1
102
RTVSPropertyOp57
 70
     1
102
RTVSPropertyOp58
 70
     1
102
RTVSPropertyOp59
 70
     1
102
RTVSPropertyOp60
 70
     1
102
RTVSPropertyOp61
 70
     1
102
RTVSPropertyOp62
 70
     1
  0
XRECORD
  5
181F
102
{ACAD_REACTORS
330
181E
102
}
330
181E
100
AcDbXrecord
280
     1
102
RTVSPost2010Prop28
280
     0
102
RTVSPost2010PropOp28
 70
     1
102
RTVSPost2010Prop29
280
     1
102
RTVSPost2010PropOp29
 70
     1
102
RTVSPost2010Prop30
280
     1
102
RTVSPost2010PropOp30
 70
     1
102
RTVSPost2010Prop31
280
     0
102
RTVSPost2010PropOp31
 70
     1
102
RTVSPost2010Prop32
280
     0
102
RTVSPost2010PropOp32
 70
     1
102
RTVSPost2010Prop33
280
     0
102
RTVSPost2010PropOp33
 70
     1
102
RTVSPost2010Prop34
280
     0
102
RTVSPost2010PropOp34
 70
     1
102
RTVSPost2010Prop35
280
     0
102
RTVSPost2010PropOp35
 70
     1
102
RTVSPost2010Prop36
280
     0
102
RTVSPost2010PropOp36
 70
     1
102
RTVSPost2010Prop37
 90
       50
102
RTVSPost2010PropOp37
 70
     1
102
RTVSPost2010Prop38
140
0.0
102
RTVSPost2010PropOp38
 70
     1
102
RTVSPost2010Prop39
140
1.0
102
RTVSPost2010PropOp39
 70
     1
102
RTVSPost2010Prop40
 90
        0
102
RTVSPost2010PropOp40
 70
     1
102
RTVSPost2010Prop41ColorIndex
 90
       18
102
RTVSPost2010Prop41ColorRGB
 90
        0
102
RTVSPost2010PropOp41
 70
     1
102
RTVSPost2010Prop42
 90
       50
102
RTVSPost2010PropOp42
 70
     1
102
RTVSPost2010Prop43
 90
        3
102
RTVSPost2010PropOp43
 70
     1
102
RTVSPost2010Prop44ColorIndex
 90
        5
102
RTVSPost2010Prop44ColorRGB
 90
      255
102
RTVSPost2010PropOp44
 70
     1
102
RTVSPost2010Prop45
280
     0
102
RTVSPost2010PropOp45
 70
     1
102
RTVSPost2010Prop46
 90
       50
102
RTVSPost2010PropOp46
 70
     1
102
RTVSPost2010Prop47
 90
       50
102
RTVSPost2010PropOp47
 70
     1
102
RTVSPost2010Prop48
 90
       50
102
RTVSPost2010PropOp48
 70
     1
102
RTVSPost2010Prop49
280
     0
102
RTVSPost2010PropOp49
 70
     1
102
RTVSPost2010Prop50
 90
       50
102
RTVSPost2010PropOp50
 70
     1
102
RTVSPost2010Prop51ColorIndex
 90
      256
102
RTVSPost2010Prop51ColorRGB
 90
-16777216
102
RTVSPost2010PropOp51
 70
     0
102
RTVSPost2010Prop52
140
1.0
102
RTVSPost2010PropOp52
 70
     0
102
RTVSPost2010Prop53
 90
        2
102
RTVSPost2010PropOp53
 70
     1
102
RTVSPost2010Prop54
  1
strokes_ogs.tif
102
RTVSPost2010PropOp54
 70
     1
102
RTVSPost2010Prop55
280
     0
102
RTVSPost2010PropOp55
 70
     1
102
RTVSPost2010Prop56
140
1.0
102
RTVSPost2010PropOp56
 70
     1
102
RTVSPost2010Prop57
140
1.0
102
RTVSPost2010PropOp57
 70
     1
102
RTVSPropertyOp0
 70
     1
102
RTVSPropertyOp1
 70
     1
102
RTVSPropertyOp2
 70
     1
102
RTVSPropertyOp3
 70
     1
102
RTVSPropertyOp4
 70
     1
102
RTVSPropertyOp5
 70
     1
102
RTVSPropertyOp6
 70
     1
102
RTVSPropertyOp7
 70
     1
102
RTVSPropertyOp8
 70
     1
102
RTVSPropertyOp9
 70
     1
102
RTVSPropertyOp10
 70
     1
102
RTVSPropertyOp11
 70
     1
102
RTVSPropertyOp12
 70
     1
102
RTVSPropertyOp13
 70
     1
102
RTVSPropertyOp14
 70
     1
102
RTVSPropertyOp15
 70
     1
102
RTVSPropertyOp16
 70
     1
102
RTVSPropertyOp17
 70
     1
102
RTVSPropertyOp18
 70
     1
102
RTVSPropertyOp19
 70
     1
102
RTVSPropertyOp20
 70
     1
102
RTVSPropertyOp21
 70
     1
102
RTVSPropertyOp22
 70
     1
102
RTVSPropertyOp23
 70
     1
102
RTVSPropertyOp24
 70
     1
102
RTVSPropertyOp25
 70
     1
102
RTVSPropertyOp26
 70
     1
102
RTVSPropertyOp27
 70
     1
102
RTVSPropertyOp28
 70
     1
102
RTVSPropertyOp29
 70
     1
102
RTVSPropertyOp30
 70
     1
102
RTVSPropertyOp31
 70
     1
102
RTVSPropertyOp32
 70
     1
102
RTVSPropertyOp33
 70
     1
102
RTVSPropertyOp34
 70
     1
102
RTVSPropertyOp35
 70
     1
102
RTVSPropertyOp36
 70
     1
102
RTVSPropertyOp37
 70
     1
102
RTVSPropertyOp38
 70
     1
102
RTVSPropertyOp39
 70
     1
102
RTVSPropertyOp40
 70
     1
102
RTVSPropertyOp41
 70
     1
102
RTVSPropertyOp42
 70
     1
102
RTVSPropertyOp43
 70
     1
102
RTVSPropertyOp44
 70
     1
102
RTVSPropertyOp45
 70
     1
102
RTVSPropertyOp46
 70
     1
102
RTVSPropertyOp47
 70
     1
102
RTVSPropertyOp48
 70
     1
102
RTVSPropertyOp49
 70
     1
102
RTVSPropertyOp50
 70
     1
102
RTVSPropertyOp51
 70
     0
102
RTVSPropertyOp52
 70
     0
102
RTVSPropertyOp53
 70
     1
102
RTVSPropertyOp54
 70
     1
102
RTVSPropertyOp55
 70
     1
102
RTVSPropertyOp56
 70
     1
102
RTVSPropertyOp57
 70
     1
102
RTVSPropertyOp58
 70
     1
102
RTVSPropertyOp59
 70
     1
102
RTVSPropertyOp60
 70
     1
102
RTVSPropertyOp61
 70
     1
102
RTVSPropertyOp62
 70
     1
  0
XRECORD
  5
1827
102
{ACAD_REACTORS
330
1826
102
}
330
1826
100
AcDbXrecord
280
     1
102
RTVSPost2010Prop28
280
     0
102
RTVSPost2010PropOp28
 70
     1
102
RTVSPost2010Prop29
280
     1
102
RTVSPost2010PropOp29
 70
     1
102
RTVSPost2010Prop30
280
     1
102
RTVSPost2010PropOp30
 70
     1
102
RTVSPost2010Prop31
280
     0
102
RTVSPost2010PropOp31
 70
     1
102
RTVSPost2010Prop32
280
     0
102
RTVSPost2010PropOp32
 70
     1
102
RTVSPost2010Prop33
280
     0
102
RTVSPost2010PropOp33
 70
     1
102
RTVSPost2010Prop34
280
     0
102
RTVSPost2010PropOp34
 70
     1
102
RTVSPost2010Prop35
280
     0
102
RTVSPost2010PropOp35
 70
     1
102
RTVSPost2010Prop36
280
     0
102
RTVSPost2010PropOp36
 70
     1
102
RTVSPost2010Prop37
 90
       50
102
RTVSPost2010PropOp37
 70
     1
102
RTVSPost2010Prop38
140
0.0
102
RTVSPost2010PropOp38
 70
     1
102
RTVSPost2010Prop39
140
1.0
102
RTVSPost2010PropOp39
 70
     1
102
RTVSPost2010Prop40
 90
        0
102
RTVSPost2010PropOp40
 70
     1
102
RTVSPost2010Prop41ColorIndex
 90
       18
102
RTVSPost2010Prop41ColorRGB
 90
        0
102
RTVSPost2010PropOp41
 70
     1
102
RTVSPost2010Prop42
 90
       50
102
RTVSPost2010PropOp42
 70
     1
102
RTVSPost2010Prop43
 90
        3
102
RTVSPost2010PropOp43
 70
     1
102
RTVSPost2010Prop44ColorIndex
 90
        5
102
RTVSPost2010Prop44ColorRGB
 90
      255
102
RTVSPost2010PropOp44
 70
     1
102
RTVSPost2010Prop45
280
     0
102
RTVSPost2010PropOp45
 70
     1
102
RTVSPost2010Prop46
 90
       50
102
RTVSPost2010PropOp46
 70
     1
102
RTVSPost2010Prop47
 90
       50
102
RTVSPost2010PropOp47
 70
     1
102
RTVSPost2010Prop48
 90
       50
102
RTVSPost2010PropOp48
 70
     1
102
RTVSPost2010Prop49
280
     0
102
RTVSPost2010PropOp49
 70
     1
102
RTVSPost2010Prop50
 90
       50
102
RTVSPost2010PropOp50
 70
     1
102
RTVSPost2010Prop51ColorIndex
 90
      256
102
RTVSPost2010Prop51ColorRGB
 90
-16777216
102
RTVSPost2010PropOp51
 70
     0
102
RTVSPost2010Prop52
140
1.0
102
RTVSPost2010PropOp52
 70
     0
102
RTVSPost2010Prop53
 90
        2
102
RTVSPost2010PropOp53
 70
     1
102
RTVSPost2010Prop54
  1
strokes_ogs.tif
102
RTVSPost2010PropOp54
 70
     1
102
RTVSPost2010Prop55
280
     0
102
RTVSPost2010PropOp55
 70
     1
102
RTVSPost2010Prop56
140
1.0
102
RTVSPost2010PropOp56
 70
     1
102
RTVSPost2010Prop57
140
1.0
102
RTVSPost2010PropOp57
 70
     1
102
RTVSPropertyOp0
 70
     1
102
RTVSPropertyOp1
 70
     1
102
RTVSPropertyOp2
 70
     1
102
RTVSPropertyOp3
 70
     1
102
RTVSPropertyOp4
 70
     1
102
RTVSPropertyOp5
 70
     1
102
RTVSPropertyOp6
 70
     1
102
RTVSPropertyOp7
 70
     1
102
RTVSPropertyOp8
 70
     1
102
RTVSPropertyOp9
 70
     1
102
RTVSPropertyOp10
 70
     1
102
RTVSPropertyOp11
 70
     1
102
RTVSPropertyOp12
 70
     1
102
RTVSPropertyOp13
 70
     1
102
RTVSPropertyOp14
 70
     1
102
RTVSPropertyOp15
 70
     1
102
RTVSPropertyOp16
 70
     1
102
RTVSPropertyOp17
 70
     1
102
RTVSPropertyOp18
 70
     1
102
RTVSPropertyOp19
 70
     1
102
RTVSPropertyOp20
 70
     1
102
RTVSPropertyOp21
 70
     1
102
RTVSPropertyOp22
 70
     1
102
RTVSPropertyOp23
 70
     1
102
RTVSPropertyOp24
 70
     1
102
RTVSPropertyOp25
 70
     1
102
RTVSPropertyOp26
 70
     1
102
RTVSPropertyOp27
 70
     1
102
RTVSPropertyOp28
 70
     1
102
RTVSPropertyOp29
 70
     1
102
RTVSPropertyOp30
 70
     1
102
RTVSPropertyOp31
 70
     1
102
RTVSPropertyOp32
 70
     1
102
RTVSPropertyOp33
 70
     1
102
RTVSPropertyOp34
 70
     1
102
RTVSPropertyOp35
 70
     1
102
RTVSPropertyOp36
 70
     1
102
RTVSPropertyOp37
 70
     1
102
RTVSPropertyOp38
 70
     1
102
RTVSPropertyOp39
 70
     1
102
RTVSPropertyOp40
 70
     1
102
RTVSPropertyOp41
 70
     1
102
RTVSPropertyOp42
 70
     1
102
RTVSPropertyOp43
 70
     1
102
RTVSPropertyOp44
 70
     1
102
RTVSPropertyOp45
 70
     1
102
RTVSPropertyOp46
 70
     1
102
RTVSPropertyOp47
 70
     1
102
RTVSPropertyOp48
 70
     1
102
RTVSPropertyOp49
 70
     1
102
RTVSPropertyOp50
 70
     1
102
RTVSPropertyOp51
 70
     0
102
RTVSPropertyOp52
 70
     0
102
RTVSPropertyOp53
 70
     1
102
RTVSPropertyOp54
 70
     1
102
RTVSPropertyOp55
 70
     1
102
RTVSPropertyOp56
 70
     1
102
RTVSPropertyOp57
 70
     1
102
RTVSPropertyOp58
 70
     1
102
RTVSPropertyOp59
 70
     1
102
RTVSPropertyOp60
 70
     1
102
RTVSPropertyOp61
 70
     1
102
RTVSPropertyOp62
 70
     1
  0
XRECORD
  5
1843
102
{ACAD_REACTORS
330
1842
102
}
330
1842
100
AcDbXrecord
280
     1
102
RTVSPost2010Prop28
280
     0
102
RTVSPost2010PropOp28
 70
     1
102
RTVSPost2010Prop29
280
     1
102
RTVSPost2010PropOp29
 70
     1
102
RTVSPost2010Prop30
280
     1
102
RTVSPost2010PropOp30
 70
     1
102
RTVSPost2010Prop31
280
     0
102
RTVSPost2010PropOp31
 70
     1
102
RTVSPost2010Prop32
280
     0
102
RTVSPost2010PropOp32
 70
     1
102
RTVSPost2010Prop33
280
     0
102
RTVSPost2010PropOp33
 70
     1
102
RTVSPost2010Prop34
280
     0
102
RTVSPost2010PropOp34
 70
     1
102
RTVSPost2010Prop35
280
     0
102
RTVSPost2010PropOp35
 70
     1
102
RTVSPost2010Prop36
280
     0
102
RTVSPost2010PropOp36
 70
     1
102
RTVSPost2010Prop37
 90
       50
102
RTVSPost2010PropOp37
 70
     0
102
RTVSPost2010Prop38
140
0.0
102
RTVSPost2010PropOp38
 70
     0
102
RTVSPost2010Prop39
140
1.0
102
RTVSPost2010PropOp39
 70
     0
102
RTVSPost2010Prop40
 90
        0
102
RTVSPost2010PropOp40
 70
     0
102
RTVSPost2010Prop41ColorIndex
 90
       18
102
RTVSPost2010Prop41ColorRGB
 90
        0
102
RTVSPost2010PropOp41
 70
     0
102
RTVSPost2010Prop42
 90
       50
102
RTVSPost2010PropOp42
 70
     0
102
RTVSPost2010Prop43
 90
        3
102
RTVSPost2010PropOp43
 70
     0
102
RTVSPost2010Prop44ColorIndex
 90
        5
102
RTVSPost2010Prop44ColorRGB
 90
      255
102
RTVSPost2010PropOp44
 70
     0
102
RTVSPost2010Prop45
280
     0
102
RTVSPost2010PropOp45
 70
     1
102
RTVSPost2010Prop46
 90
       50
102
RTVSPost2010PropOp46
 70
     0
102
RTVSPost2010Prop47
 90
       50
102
RTVSPost2010PropOp47
 70
     0
102
RTVSPost2010Prop48
 90
       50
102
RTVSPost2010PropOp48
 70
     0
102
RTVSPost2010Prop49
280
     0
102
RTVSPost2010PropOp49
 70
     1
102
RTVSPost2010Prop50
 90
       50
102
RTVSPost2010PropOp50
 70
     0
102
RTVSPost2010Prop51ColorIndex
 90
      256
102
RTVSPost2010Prop51ColorRGB
 90
-16777216
102
RTVSPost2010PropOp51
 70
     0
102
RTVSPost2010Prop52
140
1.0
102
RTVSPost2010PropOp52
 70
     0
102
RTVSPost2010Prop53
 90
        2
102
RTVSPost2010PropOp53
 70
     0
102
RTVSPost2010Prop54
  1
strokes_ogs.tif
102
RTVSPost2010PropOp54
 70
     0
102
RTVSPost2010Prop55
280
     0
102
RTVSPost2010PropOp55
 70
     1
102
RTVSPost2010Prop56
140
1.0
102
RTVSPost2010PropOp56
 70
     0
102
RTVSPost2010Prop57
140
1.0
102
RTVSPost2010PropOp57
 70
     0
102
RTVSPropertyOp0
 70
     0
102
RTVSPropertyOp1
 70
     0
102
RTVSPropertyOp2
 70
     0
102
RTVSPropertyOp3
 70
     0
102
RTVSPropertyOp4
 70
     0
102
RTVSPropertyOp5
 70
     0
102
RTVSPropertyOp6
 70
     0
102
RTVSPropertyOp7
 70
     0
102
RTVSPropertyOp8
 70
     0
102
RTVSPropertyOp9
 70
     0
102
RTVSPropertyOp10
 70
     0
102
RTVSPropertyOp11
 70
     0
102
RTVSPropertyOp12
 70
     0
102
RTVSPropertyOp13
 70
     0
102
RTVSPropertyOp14
 70
     2
102
RTVSPropertyOp15
 70
     0
102
RTVSPropertyOp16
 70
     0
102
RTVSPropertyOp17
 70
     0
102
RTVSPropertyOp18
 70
     0
102
RTVSPropertyOp19
 70
     0
102
RTVSPropertyOp20
 70
     0
102
RTVSPropertyOp21
 70
     0
102
RTVSPropertyOp22
 70
     0
102
RTVSPropertyOp23
 70
     0
102
RTVSPropertyOp24
 70
     0
102
RTVSPropertyOp25
 70
     0
102
RTVSPropertyOp26
 70
     0
102
RTVSPropertyOp27
 70
     0
102
RTVSPropertyOp28
 70
     1
102
RTVSPropertyOp29
 70
     1
102
RTVSPropertyOp30
 70
     1
102
RTVSPropertyOp31
 70
     1
102
RTVSPropertyOp32
 70
     1
102
RTVSPropertyOp33
 70
     1
102
RTVSPropertyOp34
 70
     1
102
RTVSPropertyOp35
 70
     1
102
RTVSPropertyOp36
 70
     1
102
RTVSPropertyOp37
 70
     0
102
RTVSPropertyOp38
 70
     0
102
RTVSPropertyOp39
 70
     0
102
RTVSPropertyOp40
 70
     0
102
RTVSPropertyOp41
 70
     0
102
RTVSPropertyOp42
 70
     0
102
RTVSPropertyOp43
 70
     0
102
RTVSPropertyOp44
 70
     0
102
RTVSPropertyOp45
 70
     1
102
RTVSPropertyOp46
 70
     0
102
RTVSPropertyOp47
 70
     0
102
RTVSPropertyOp48
 70
     0
102
RTVSPropertyOp49
 70
     1
102
RTVSPropertyOp50
 70
     0
102
RTVSPropertyOp51
 70
     0
102
RTVSPropertyOp52
 70
     0
102
RTVSPropertyOp53
 70
     0
102
RTVSPropertyOp54
 70
     0
102
RTVSPropertyOp55
 70
     1
102
RTVSPropertyOp56
 70
     0
102
RTVSPropertyOp57
 70
     0
102
RTVSPropertyOp58
 70
     0
102
RTVSPropertyOp59
 70
     0
102
RTVSPropertyOp60
 70
     0
102
RTVSPropertyOp61
 70
     0
102
RTVSPropertyOp62
 70
     0
  0
XRECORD
  5
1833
102
{ACAD_REACTORS
330
1832
102
}
330
1832
100
AcDbXrecord
280
     1
102
RTVSPost2010Prop28
280
     0
102
RTVSPost2010PropOp28
 70
     1
102
RTVSPost2010Prop29
280
     1
102
RTVSPost2010PropOp29
 70
     1
102
RTVSPost2010Prop30
280
     1
102
RTVSPost2010PropOp30
 70
     1
102
RTVSPost2010Prop31
280
     0
102
RTVSPost2010PropOp31
 70
     1
102
RTVSPost2010Prop32
280
     0
102
RTVSPost2010PropOp32
 70
     1
102
RTVSPost2010Prop33
280
     0
102
RTVSPost2010PropOp33
 70
     1
102
RTVSPost2010Prop34
280
     0
102
RTVSPost2010PropOp34
 70
     1
102
RTVSPost2010Prop35
280
     0
102
RTVSPost2010PropOp35
 70
     1
102
RTVSPost2010Prop36
280
     0
102
RTVSPost2010PropOp36
 70
     1
102
RTVSPost2010Prop37
 90
       50
102
RTVSPost2010PropOp37
 70
     1
102
RTVSPost2010Prop38
140
0.0
102
RTVSPost2010PropOp38
 70
     1
102
RTVSPost2010Prop39
140
1.0
102
RTVSPost2010PropOp39
 70
     1
102
RTVSPost2010Prop40
 90
        0
102
RTVSPost2010PropOp40
 70
     1
102
RTVSPost2010Prop41ColorIndex
 90
       18
102
RTVSPost2010Prop41ColorRGB
 90
        0
102
RTVSPost2010PropOp41
 70
     1
102
RTVSPost2010Prop42
 90
       50
102
RTVSPost2010PropOp42
 70
     1
102
RTVSPost2010Prop43
 90
        3
102
RTVSPost2010PropOp43
 70
     1
102
RTVSPost2010Prop44ColorIndex
 90
        5
102
RTVSPost2010Prop44ColorRGB
 90
      255
102
RTVSPost2010PropOp44
 70
     1
102
RTVSPost2010Prop45
280
     0
102
RTVSPost2010PropOp45
 70
     1
102
RTVSPost2010Prop46
 90
       50
102
RTVSPost2010PropOp46
 70
     1
102
RTVSPost2010Prop47
 90
       50
102
RTVSPost2010PropOp47
 70
     1
102
RTVSPost2010Prop48
 90
       50
102
RTVSPost2010PropOp48
 70
     1
102
RTVSPost2010Prop49
280
     0
102
RTVSPost2010PropOp49
 70
     1
102
RTVSPost2010Prop50
 90
       50
102
RTVSPost2010PropOp50
 70
     1
102
RTVSPost2010Prop51ColorIndex
 90
      256
102
RTVSPost2010Prop51ColorRGB
 90
-16777216
102
RTVSPost2010PropOp51
 70
     0
102
RTVSPost2010Prop52
140
1.0
102
RTVSPost2010PropOp52
 70
     0
102
RTVSPost2010Prop53
 90
        2
102
RTVSPost2010PropOp53
 70
     1
102
RTVSPost2010Prop54
  1
strokes_ogs.tif
102
RTVSPost2010PropOp54
 70
     1
102
RTVSPost2010Prop55
280
     0
102
RTVSPost2010PropOp55
 70
     1
102
RTVSPost2010Prop56
140
1.0
102
RTVSPost2010PropOp56
 70
     1
102
RTVSPost2010Prop57
140
1.0
102
RTVSPost2010PropOp57
 70
     1
102
RTVSPropertyOp0
 70
     1
102
RTVSPropertyOp1
 70
     1
102
RTVSPropertyOp2
 70
     1
102
RTVSPropertyOp3
 70
     1
102
RTVSPropertyOp4
 70
     1
102
RTVSPropertyOp5
 70
     1
102
RTVSPropertyOp6
 70
     1
102
RTVSPropertyOp7
 70
     1
102
RTVSPropertyOp8
 70
     1
102
RTVSPropertyOp9
 70
     1
102
RTVSPropertyOp10
 70
     1
102
RTVSPropertyOp11
 70
     1
102
RTVSPropertyOp12
 70
     1
102
RTVSPropertyOp13
 70
     1
102
RTVSPropertyOp14
 70
     1
102
RTVSPropertyOp15
 70
     1
102
RTVSPropertyOp16
 70
     1
102
RTVSPropertyOp17
 70
     1
102
RTVSPropertyOp18
 70
     1
102
RTVSPropertyOp19
 70
     1
102
RTVSPropertyOp20
 70
     1
102
RTVSPropertyOp21
 70
     1
102
RTVSPropertyOp22
 70
     1
102
RTVSPropertyOp23
 70
     1
102
RTVSPropertyOp24
 70
     1
102
RTVSPropertyOp25
 70
     1
102
RTVSPropertyOp26
 70
     1
102
RTVSPropertyOp27
 70
     1
102
RTVSPropertyOp28
 70
     1
102
RTVSPropertyOp29
 70
     1
102
RTVSPropertyOp30
 70
     1
102
RTVSPropertyOp31
 70
     1
102
RTVSPropertyOp32
 70
     1
102
RTVSPropertyOp33
 70
     1
102
RTVSPropertyOp34
 70
     1
102
RTVSPropertyOp35
 70
     1
102
RTVSPropertyOp36
 70
     1
102
RTVSPropertyOp37
 70
     1
102
RTVSPropertyOp38
 70
     1
102
RTVSPropertyOp39
 70
     1
102
RTVSPropertyOp40
 70
     1
102
RTVSPropertyOp41
 70
     1
102
RTVSPropertyOp42
 70
     1
102
RTVSPropertyOp43
 70
     1
102
RTVSPropertyOp44
 70
     1
102
RTVSPropertyOp45
 70
     1
102
RTVSPropertyOp46
 70
     1
102
RTVSPropertyOp47
 70
     1
102
RTVSPropertyOp48
 70
     1
102
RTVSPropertyOp49
 70
     1
102
RTVSPropertyOp50
 70
     1
102
RTVSPropertyOp51
 70
     0
102
RTVSPropertyOp52
 70
     0
102
RTVSPropertyOp53
 70
     1
102
RTVSPropertyOp54
 70
     1
102
RTVSPropertyOp55
 70
     1
102
RTVSPropertyOp56
 70
     1
102
RTVSPropertyOp57
 70
     1
102
RTVSPropertyOp58
 70
     1
102
RTVSPropertyOp59
 70
     1
102
RTVSPropertyOp60
 70
     1
102
RTVSPropertyOp61
 70
     1
102
RTVSPropertyOp62
 70
     1
  0
XRECORD
  5
1845
102
{ACAD_REACTORS
330
1844
102
}
330
1844
100
AcDbXrecord
280
     1
102
RTVSPost2010Prop28
280
     0
102
RTVSPost2010PropOp28
 70
     1
102
RTVSPost2010Prop29
280
     1
102
RTVSPost2010PropOp29
 70
     1
102
RTVSPost2010Prop30
280
     1
102
RTVSPost2010PropOp30
 70
     1
102
RTVSPost2010Prop31
280
     0
102
RTVSPost2010PropOp31
 70
     1
102
RTVSPost2010Prop32
280
     0
102
RTVSPost2010PropOp32
 70
     1
102
RTVSPost2010Prop33
280
     0
102
RTVSPost2010PropOp33
 70
     1
102
RTVSPost2010Prop34
280
     0
102
RTVSPost2010PropOp34
 70
     1
102
RTVSPost2010Prop35
280
     0
102
RTVSPost2010PropOp35
 70
     1
102
RTVSPost2010Prop36
280
     0
102
RTVSPost2010PropOp36
 70
     1
102
RTVSPost2010Prop37
 90
       50
102
RTVSPost2010PropOp37
 70
     0
102
RTVSPost2010Prop38
140
0.0
102
RTVSPost2010PropOp38
 70
     0
102
RTVSPost2010Prop39
140
1.0
102
RTVSPost2010PropOp39
 70
     0
102
RTVSPost2010Prop40
 90
        0
102
RTVSPost2010PropOp40
 70
     0
102
RTVSPost2010Prop41ColorIndex
 90
       18
102
RTVSPost2010Prop41ColorRGB
 90
        0
102
RTVSPost2010PropOp41
 70
     0
102
RTVSPost2010Prop42
 90
       50
102
RTVSPost2010PropOp42
 70
     0
102
RTVSPost2010Prop43
 90
        3
102
RTVSPost2010PropOp43
 70
     0
102
RTVSPost2010Prop44ColorIndex
 90
        5
102
RTVSPost2010Prop44ColorRGB
 90
      255
102
RTVSPost2010PropOp44
 70
     0
102
RTVSPost2010Prop45
280
     0
102
RTVSPost2010PropOp45
 70
     1
102
RTVSPost2010Prop46
 90
       50
102
RTVSPost2010PropOp46
 70
     0
102
RTVSPost2010Prop47
 90
       50
102
RTVSPost2010PropOp47
 70
     0
102
RTVSPost2010Prop48
 90
       50
102
RTVSPost2010PropOp48
 70
     0
102
RTVSPost2010Prop49
280
     0
102
RTVSPost2010PropOp49
 70
     1
102
RTVSPost2010Prop50
 90
       50
102
RTVSPost2010PropOp50
 70
     0
102
RTVSPost2010Prop51ColorIndex
 90
      256
102
RTVSPost2010Prop51ColorRGB
 90
-16777216
102
RTVSPost2010PropOp51
 70
     0
102
RTVSPost2010Prop52
140
1.0
102
RTVSPost2010PropOp52
 70
     0
102
RTVSPost2010Prop53
 90
        2
102
RTVSPost2010PropOp53
 70
     0
102
RTVSPost2010Prop54
  1
strokes_ogs.tif
102
RTVSPost2010PropOp54
 70
     0
102
RTVSPost2010Prop55
280
     0
102
RTVSPost2010PropOp55
 70
     1
102
RTVSPost2010Prop56
140
1.0
102
RTVSPost2010PropOp56
 70
     0
102
RTVSPost2010Prop57
140
1.0
102
RTVSPost2010PropOp57
 70
     0
102
RTVSPropertyOp0
 70
     0
102
RTVSPropertyOp1
 70
     0
102
RTVSPropertyOp2
 70
     0
102
RTVSPropertyOp3
 70
     0
102
RTVSPropertyOp4
 70
     0
102
RTVSPropertyOp5
 70
     0
102
RTVSPropertyOp6
 70
     0
102
RTVSPropertyOp7
 70
     0
102
RTVSPropertyOp8
 70
     0
102
RTVSPropertyOp9
 70
     0
102
RTVSPropertyOp10
 70
     0
102
RTVSPropertyOp11
 70
     0
102
RTVSPropertyOp12
 70
     0
102
RTVSPropertyOp13
 70
     0
102
RTVSPropertyOp14
 70
     2
102
RTVSPropertyOp15
 70
     0
102
RTVSPropertyOp16
 70
     0
102
RTVSPropertyOp17
 70
     0
102
RTVSPropertyOp18
 70
     0
102
RTVSPropertyOp19
 70
     0
102
RTVSPropertyOp20
 70
     0
102
RTVSPropertyOp21
 70
     0
102
RTVSPropertyOp22
 70
     0
102
RTVSPropertyOp23
 70
     0
102
RTVSPropertyOp24
 70
     0
102
RTVSPropertyOp25
 70
     0
102
RTVSPropertyOp26
 70
     0
102
RTVSPropertyOp27
 70
     0
102
RTVSPropertyOp28
 70
     1
102
RTVSPropertyOp29
 70
     1
102
RTVSPropertyOp30
 70
     1
102
RTVSPropertyOp31
 70
     1
102
RTVSPropertyOp32
 70
     1
102
RTVSPropertyOp33
 70
     1
102
RTVSPropertyOp34
 70
     1
102
RTVSPropertyOp35
 70
     1
102
RTVSPropertyOp36
 70
     1
102
RTVSPropertyOp37
 70
     0
102
RTVSPropertyOp38
 70
     0
102
RTVSPropertyOp39
 70
     0
102
RTVSPropertyOp40
 70
     0
102
RTVSPropertyOp41
 70
     0
102
RTVSPropertyOp42
 70
     0
102
RTVSPropertyOp43
 70
     0
102
RTVSPropertyOp44
 70
     0
102
RTVSPropertyOp45
 70
     1
102
RTVSPropertyOp46
 70
     0
102
RTVSPropertyOp47
 70
     0
102
RTVSPropertyOp48
 70
     0
102
RTVSPropertyOp49
 70
     1
102
RTVSPropertyOp50
 70
     0
102
RTVSPropertyOp51
 70
     0
102
RTVSPropertyOp52
 70
     0
102
RTVSPropertyOp53
 70
     0
102
RTVSPropertyOp54
 70
     0
102
RTVSPropertyOp55
 70
     1
102
RTVSPropertyOp56
 70
     0
102
RTVSPropertyOp57
 70
     0
102
RTVSPropertyOp58
 70
     0
102
RTVSPropertyOp59
 70
     0
102
RTVSPropertyOp60
 70
     0
102
RTVSPropertyOp61
 70
     0
102
RTVSPropertyOp62
 70
     0
  0
XRECORD
  5
182B
102
{ACAD_REACTORS
330
182A
102
}
330
182A
100
AcDbXrecord
280
     1
102
RTVSPost2010Prop28
280
     0
102
RTVSPost2010PropOp28
 70
     1
102
RTVSPost2010Prop29
280
     1
102
RTVSPost2010PropOp29
 70
     1
102
RTVSPost2010Prop30
280
     1
102
RTVSPost2010PropOp30
 70
     1
102
RTVSPost2010Prop31
280
     0
102
RTVSPost2010PropOp31
 70
     1
102
RTVSPost2010Prop32
280
     0
102
RTVSPost2010PropOp32
 70
     1
102
RTVSPost2010Prop33
280
     0
102
RTVSPost2010PropOp33
 70
     1
102
RTVSPost2010Prop34
280
     0
102
RTVSPost2010PropOp34
 70
     1
102
RTVSPost2010Prop35
280
     0
102
RTVSPost2010PropOp35
 70
     1
102
RTVSPost2010Prop36
280
     0
102
RTVSPost2010PropOp36
 70
     1
102
RTVSPost2010Prop37
 90
       50
102
RTVSPost2010PropOp37
 70
     1
102
RTVSPost2010Prop38
140
0.0
102
RTVSPost2010PropOp38
 70
     1
102
RTVSPost2010Prop39
140
1.0
102
RTVSPost2010PropOp39
 70
     1
102
RTVSPost2010Prop40
 90
        0
102
RTVSPost2010PropOp40
 70
     1
102
RTVSPost2010Prop41ColorIndex
 90
       18
102
RTVSPost2010Prop41ColorRGB
 90
        0
102
RTVSPost2010PropOp41
 70
     1
102
RTVSPost2010Prop42
 90
       50
102
RTVSPost2010PropOp42
 70
     1
102
RTVSPost2010Prop43
 90
        3
102
RTVSPost2010PropOp43
 70
     1
102
RTVSPost2010Prop44ColorIndex
 90
        5
102
RTVSPost2010Prop44ColorRGB
 90
      255
102
RTVSPost2010PropOp44
 70
     1
102
RTVSPost2010Prop45
280
     0
102
RTVSPost2010PropOp45
 70
     1
102
RTVSPost2010Prop46
 90
       50
102
RTVSPost2010PropOp46
 70
     1
102
RTVSPost2010Prop47
 90
       50
102
RTVSPost2010PropOp47
 70
     1
102
RTVSPost2010Prop48
 90
       50
102
RTVSPost2010PropOp48
 70
     1
102
RTVSPost2010Prop49
280
     0
102
RTVSPost2010PropOp49
 70
     1
102
RTVSPost2010Prop50
 90
       50
102
RTVSPost2010PropOp50
 70
     1
102
RTVSPost2010Prop51ColorIndex
 90
      256
102
RTVSPost2010Prop51ColorRGB
 90
-16777216
102
RTVSPost2010PropOp51
 70
     0
102
RTVSPost2010Prop52
140
1.0
102
RTVSPost2010PropOp52
 70
     0
102
RTVSPost2010Prop53
 90
        2
102
RTVSPost2010PropOp53
 70
     1
102
RTVSPost2010Prop54
  1
strokes_ogs.tif
102
RTVSPost2010PropOp54
 70
     1
102
RTVSPost2010Prop55
280
     0
102
RTVSPost2010PropOp55
 70
     1
102
RTVSPost2010Prop56
140
1.0
102
RTVSPost2010PropOp56
 70
     1
102
RTVSPost2010Prop57
140
1.0
102
RTVSPost2010PropOp57
 70
     1
102
RTVSPropertyOp0
 70
     1
102
RTVSPropertyOp1
 70
     1
102
RTVSPropertyOp2
 70
     1
102
RTVSPropertyOp3
 70
     1
102
RTVSPropertyOp4
 70
     1
102
RTVSPropertyOp5
 70
     1
102
RTVSPropertyOp6
 70
     1
102
RTVSPropertyOp7
 70
     1
102
RTVSPropertyOp8
 70
     1
102
RTVSPropertyOp9
 70
     1
102
RTVSPropertyOp10
 70
     1
102
RTVSPropertyOp11
 70
     1
102
RTVSPropertyOp12
 70
     1
102
RTVSPropertyOp13
 70
     1
102
RTVSPropertyOp14
 70
     1
102
RTVSPropertyOp15
 70
     1
102
RTVSPropertyOp16
 70
     1
102
RTVSPropertyOp17
 70
     1
102
RTVSPropertyOp18
 70
     1
102
RTVSPropertyOp19
 70
     1
102
RTVSPropertyOp20
 70
     1
102
RTVSPropertyOp21
 70
     1
102
RTVSPropertyOp22
 70
     1
102
RTVSPropertyOp23
 70
     1
102
RTVSPropertyOp24
 70
     1
102
RTVSPropertyOp25
 70
     1
102
RTVSPropertyOp26
 70
     1
102
RTVSPropertyOp27
 70
     1
102
RTVSPropertyOp28
 70
     1
102
RTVSPropertyOp29
 70
     1
102
RTVSPropertyOp30
 70
     1
102
RTVSPropertyOp31
 70
     1
102
RTVSPropertyOp32
 70
     1
102
RTVSPropertyOp33
 70
     1
102
RTVSPropertyOp34
 70
     1
102
RTVSPropertyOp35
 70
     1
102
RTVSPropertyOp36
 70
     1
102
RTVSPropertyOp37
 70
     1
102
RTVSPropertyOp38
 70
     1
102
RTVSPropertyOp39
 70
     1
102
RTVSPropertyOp40
 70
     1
102
RTVSPropertyOp41
 70
     1
102
RTVSPropertyOp42
 70
     1
102
RTVSPropertyOp43
 70
     1
102
RTVSPropertyOp44
 70
     1
102
RTVSPropertyOp45
 70
     1
102
RTVSPropertyOp46
 70
     1
102
RTVSPropertyOp47
 70
     1
102
RTVSPropertyOp48
 70
     1
102
RTVSPropertyOp49
 70
     1
102
RTVSPropertyOp50
 70
     1
102
RTVSPropertyOp51
 70
     0
102
RTVSPropertyOp52
 70
     0
102
RTVSPropertyOp53
 70
     1
102
RTVSPropertyOp54
 70
     1
102
RTVSPropertyOp55
 70
     1
102
RTVSPropertyOp56
 70
     1
102
RTVSPropertyOp57
 70
     1
102
RTVSPropertyOp58
 70
     1
102
RTVSPropertyOp59
 70
     1
102
RTVSPropertyOp60
 70
     1
102
RTVSPropertyOp61
 70
     1
102
RTVSPropertyOp62
 70
     1
  0
XRECORD
  5
1841
102
{ACAD_REACTORS
330
1840
102
}
330
1840
100
AcDbXrecord
280
     1
102
RTVSPost2010Prop28
280
     0
102
RTVSPost2010PropOp28
 70
     1
102
RTVSPost2010Prop29
280
     1
102
RTVSPost2010PropOp29
 70
     1
102
RTVSPost2010Prop30
280
     1
102
RTVSPost2010PropOp30
 70
     1
102
RTVSPost2010Prop31
280
     0
102
RTVSPost2010PropOp31
 70
     1
102
RTVSPost2010Prop32
280
     0
102
RTVSPost2010PropOp32
 70
     1
102
RTVSPost2010Prop33
280
     0
102
RTVSPost2010PropOp33
 70
     1
102
RTVSPost2010Prop34
280
     0
102
RTVSPost2010PropOp34
 70
     1
102
RTVSPost2010Prop35
280
     0
102
RTVSPost2010PropOp35
 70
     1
102
RTVSPost2010Prop36
280
     0
102
RTVSPost2010PropOp36
 70
     1
102
RTVSPost2010Prop37
 90
       50
102
RTVSPost2010PropOp37
 70
     1
102
RTVSPost2010Prop38
140
0.0
102
RTVSPost2010PropOp38
 70
     1
102
RTVSPost2010Prop39
140
1.0
102
RTVSPost2010PropOp39
 70
     1
102
RTVSPost2010Prop40
 90
        0
102
RTVSPost2010PropOp40
 70
     1
102
RTVSPost2010Prop41ColorIndex
 90
       18
102
RTVSPost2010Prop41ColorRGB
 90
        0
102
RTVSPost2010PropOp41
 70
     1
102
RTVSPost2010Prop42
 90
       50
102
RTVSPost2010PropOp42
 70
     1
102
RTVSPost2010Prop43
 90
        3
102
RTVSPost2010PropOp43
 70
     1
102
RTVSPost2010Prop44ColorIndex
 90
        5
102
RTVSPost2010Prop44ColorRGB
 90
      255
102
RTVSPost2010PropOp44
 70
     1
102
RTVSPost2010Prop45
280
     0
102
RTVSPost2010PropOp45
 70
     1
102
RTVSPost2010Prop46
 90
       50
102
RTVSPost2010PropOp46
 70
     1
102
RTVSPost2010Prop47
 90
       50
102
RTVSPost2010PropOp47
 70
     1
102
RTVSPost2010Prop48
 90
       50
102
RTVSPost2010PropOp48
 70
     1
102
RTVSPost2010Prop49
280
     0
102
RTVSPost2010PropOp49
 70
     1
102
RTVSPost2010Prop50
 90
       50
102
RTVSPost2010PropOp50
 70
     1
102
RTVSPost2010Prop51ColorIndex
 90
      256
102
RTVSPost2010Prop51ColorRGB
 90
-16777216
102
RTVSPost2010PropOp51
 70
     0
102
RTVSPost2010Prop52
140
1.0
102
RTVSPost2010PropOp52
 70
     0
102
RTVSPost2010Prop53
 90
        2
102
RTVSPost2010PropOp53
 70
     1
102
RTVSPost2010Prop54
  1
strokes_ogs.tif
102
RTVSPost2010PropOp54
 70
     1
102
RTVSPost2010Prop55
280
     0
102
RTVSPost2010PropOp55
 70
     1
102
RTVSPost2010Prop56
140
1.0
102
RTVSPost2010PropOp56
 70
     1
102
RTVSPost2010Prop57
140
1.0
102
RTVSPost2010PropOp57
 70
     1
102
RTVSPropertyOp0
 70
     1
102
RTVSPropertyOp1
 70
     1
102
RTVSPropertyOp2
 70
     1
102
RTVSPropertyOp3
 70
     1
102
RTVSPropertyOp4
 70
     1
102
RTVSPropertyOp5
 70
     1
102
RTVSPropertyOp6
 70
     1
102
RTVSPropertyOp7
 70
     1
102
RTVSPropertyOp8
 70
     1
102
RTVSPropertyOp9
 70
     1
102
RTVSPropertyOp10
 70
     1
102
RTVSPropertyOp11
 70
     1
102
RTVSPropertyOp12
 70
     1
102
RTVSPropertyOp13
 70
     1
102
RTVSPropertyOp14
 70
     1
102
RTVSPropertyOp15
 70
     1
102
RTVSPropertyOp16
 70
     1
102
RTVSPropertyOp17
 70
     1
102
RTVSPropertyOp18
 70
     1
102
RTVSPropertyOp19
 70
     1
102
RTVSPropertyOp20
 70
     1
102
RTVSPropertyOp21
 70
     1
102
RTVSPropertyOp22
 70
     1
102
RTVSPropertyOp23
 70
     1
102
RTVSPropertyOp24
 70
     1
102
RTVSPropertyOp25
 70
     1
102
RTVSPropertyOp26
 70
     1
102
RTVSPropertyOp27
 70
     1
102
RTVSPropertyOp28
 70
     1
102
RTVSPropertyOp29
 70
     1
102
RTVSPropertyOp30
 70
     1
102
RTVSPropertyOp31
 70
     1
102
RTVSPropertyOp32
 70
     1
102
RTVSPropertyOp33
 70
     1
102
RTVSPropertyOp34
 70
     1
102
RTVSPropertyOp35
 70
     1
102
RTVSPropertyOp36
 70
     1
102
RTVSPropertyOp37
 70
     1
102
RTVSPropertyOp38
 70
     1
102
RTVSPropertyOp39
 70
     1
102
RTVSPropertyOp40
 70
     1
102
RTVSPropertyOp41
 70
     1
102
RTVSPropertyOp42
 70
     1
102
RTVSPropertyOp43
 70
     1
102
RTVSPropertyOp44
 70
     1
102
RTVSPropertyOp45
 70
     1
102
RTVSPropertyOp46
 70
     1
102
RTVSPropertyOp47
 70
     1
102
RTVSPropertyOp48
 70
     1
102
RTVSPropertyOp49
 70
     1
102
RTVSPropertyOp50
 70
     1
102
RTVSPropertyOp51
 70
     0
102
RTVSPropertyOp52
 70
     0
102
RTVSPropertyOp53
 70
     1
102
RTVSPropertyOp54
 70
     1
102
RTVSPropertyOp55
 70
     1
102
RTVSPropertyOp56
 70
     1
102
RTVSPropertyOp57
 70
     1
102
RTVSPropertyOp58
 70
     1
102
RTVSPropertyOp59
 70
     1
102
RTVSPropertyOp60
 70
     1
102
RTVSPropertyOp61
 70
     1
102
RTVSPropertyOp62
 70
     1
  0
XRECORD
  5
183F
102
{ACAD_REACTORS
330
183E
102
}
330
183E
100
AcDbXrecord
280
     1
102
RTVSPost2010Prop28
280
     0
102
RTVSPost2010PropOp28
 70
     1
102
RTVSPost2010Prop29
280
     1
102
RTVSPost2010PropOp29
 70
     1
102
RTVSPost2010Prop30
280
     1
102
RTVSPost2010PropOp30
 70
     1
102
RTVSPost2010Prop31
280
     0
102
RTVSPost2010PropOp31
 70
     1
102
RTVSPost2010Prop32
280
     0
102
RTVSPost2010PropOp32
 70
     1
102
RTVSPost2010Prop33
280
     0
102
RTVSPost2010PropOp33
 70
     1
102
RTVSPost2010Prop34
280
     0
102
RTVSPost2010PropOp34
 70
     1
102
RTVSPost2010Prop35
280
     0
102
RTVSPost2010PropOp35
 70
     1
102
RTVSPost2010Prop36
280
     0
102
RTVSPost2010PropOp36
 70
     1
102
RTVSPost2010Prop37
 90
       50
102
RTVSPost2010PropOp37
 70
     1
102
RTVSPost2010Prop38
140
0.0
102
RTVSPost2010PropOp38
 70
     1
102
RTVSPost2010Prop39
140
1.0
102
RTVSPost2010PropOp39
 70
     1
102
RTVSPost2010Prop40
 90
        0
102
RTVSPost2010PropOp40
 70
     1
102
RTVSPost2010Prop41ColorIndex
 90
       18
102
RTVSPost2010Prop41ColorRGB
 90
        0
102
RTVSPost2010PropOp41
 70
     1
102
RTVSPost2010Prop42
 90
       50
102
RTVSPost2010PropOp42
 70
     1
102
RTVSPost2010Prop43
 90
        3
102
RTVSPost2010PropOp43
 70
     1
102
RTVSPost2010Prop44ColorIndex
 90
        5
102
RTVSPost2010Prop44ColorRGB
 90
      255
102
RTVSPost2010PropOp44
 70
     1
102
RTVSPost2010Prop45
280
     0
102
RTVSPost2010PropOp45
 70
     1
102
RTVSPost2010Prop46
 90
       50
102
RTVSPost2010PropOp46
 70
     1
102
RTVSPost2010Prop47
 90
       50
102
RTVSPost2010PropOp47
 70
     1
102
RTVSPost2010Prop48
 90
       50
102
RTVSPost2010PropOp48
 70
     1
102
RTVSPost2010Prop49
280
     0
102
RTVSPost2010PropOp49
 70
     1
102
RTVSPost2010Prop50
 90
       50
102
RTVSPost2010PropOp50
 70
     1
102
RTVSPost2010Prop51ColorIndex
 90
      256
102
RTVSPost2010Prop51ColorRGB
 90
-16777216
102
RTVSPost2010PropOp51
 70
     0
102
RTVSPost2010Prop52
140
1.0
102
RTVSPost2010PropOp52
 70
     0
102
RTVSPost2010Prop53
 90
        2
102
RTVSPost2010PropOp53
 70
     1
102
RTVSPost2010Prop54
  1
strokes_ogs.tif
102
RTVSPost2010PropOp54
 70
     1
102
RTVSPost2010Prop55
280
     0
102
RTVSPost2010PropOp55
 70
     1
102
RTVSPost2010Prop56
140
1.0
102
RTVSPost2010PropOp56
 70
     1
102
RTVSPost2010Prop57
140
1.0
102
RTVSPost2010PropOp57
 70
     1
102
RTVSPropertyOp0
 70
     1
102
RTVSPropertyOp1
 70
     1
102
RTVSPropertyOp2
 70
     1
102
RTVSPropertyOp3
 70
     1
102
RTVSPropertyOp4
 70
     1
102
RTVSPropertyOp5
 70
     1
102
RTVSPropertyOp6
 70
     1
102
RTVSPropertyOp7
 70
     1
102
RTVSPropertyOp8
 70
     1
102
RTVSPropertyOp9
 70
     1
102
RTVSPropertyOp10
 70
     1
102
RTVSPropertyOp11
 70
     1
102
RTVSPropertyOp12
 70
     1
102
RTVSPropertyOp13
 70
     1
102
RTVSPropertyOp14
 70
     1
102
RTVSPropertyOp15
 70
     1
102
RTVSPropertyOp16
 70
     1
102
RTVSPropertyOp17
 70
     1
102
RTVSPropertyOp18
 70
     1
102
RTVSPropertyOp19
 70
     1
102
RTVSPropertyOp20
 70
     1
102
RTVSPropertyOp21
 70
     1
102
RTVSPropertyOp22
 70
     1
102
RTVSPropertyOp23
 70
     1
102
RTVSPropertyOp24
 70
     1
102
RTVSPropertyOp25
 70
     1
102
RTVSPropertyOp26
 70
     1
102
RTVSPropertyOp27
 70
     1
102
RTVSPropertyOp28
 70
     1
102
RTVSPropertyOp29
 70
     1
102
RTVSPropertyOp30
 70
     1
102
RTVSPropertyOp31
 70
     1
102
RTVSPropertyOp32
 70
     1
102
RTVSPropertyOp33
 70
     1
102
RTVSPropertyOp34
 70
     1
102
RTVSPropertyOp35
 70
     1
102
RTVSPropertyOp36
 70
     1
102
RTVSPropertyOp37
 70
     1
102
RTVSPropertyOp38
 70
     1
102
RTVSPropertyOp39
 70
     1
102
RTVSPropertyOp40
 70
     1
102
RTVSPropertyOp41
 70
     1
102
RTVSPropertyOp42
 70
     1
102
RTVSPropertyOp43
 70
     1
102
RTVSPropertyOp44
 70
     1
102
RTVSPropertyOp45
 70
     1
102
RTVSPropertyOp46
 70
     1
102
RTVSPropertyOp47
 70
     1
102
RTVSPropertyOp48
 70
     1
102
RTVSPropertyOp49
 70
     1
102
RTVSPropertyOp50
 70
     1
102
RTVSPropertyOp51
 70
     0
102
RTVSPropertyOp52
 70
     0
102
RTVSPropertyOp53
 70
     1
102
RTVSPropertyOp54
 70
     1
102
RTVSPropertyOp55
 70
     1
102
RTVSPropertyOp56
 70
     1
102
RTVSPropertyOp57
 70
     1
102
RTVSPropertyOp58
 70
     1
102
RTVSPropertyOp59
 70
     1
102
RTVSPropertyOp60
 70
     1
102
RTVSPropertyOp61
 70
     1
102
RTVSPropertyOp62
 70
     1
  0
XRECORD
  5
1839
102
{ACAD_REACTORS
330
1838
102
}
330
1838
100
AcDbXrecord
280
     1
102
RTVSPost2010Prop28
280
     0
102
RTVSPost2010PropOp28
 70
     1
102
RTVSPost2010Prop29
280
     1
102
RTVSPost2010PropOp29
 70
     1
102
RTVSPost2010Prop30
280
     1
102
RTVSPost2010PropOp30
 70
     1
102
RTVSPost2010Prop31
280
     0
102
RTVSPost2010PropOp31
 70
     1
102
RTVSPost2010Prop32
280
     0
102
RTVSPost2010PropOp32
 70
     1
102
RTVSPost2010Prop33
280
     0
102
RTVSPost2010PropOp33
 70
     1
102
RTVSPost2010Prop34
280
     0
102
RTVSPost2010PropOp34
 70
     1
102
RTVSPost2010Prop35
280
     0
102
RTVSPost2010PropOp35
 70
     1
102
RTVSPost2010Prop36
280
     0
102
RTVSPost2010PropOp36
 70
     1
102
RTVSPost2010Prop37
 90
       50
102
RTVSPost2010PropOp37
 70
     1
102
RTVSPost2010Prop38
140
0.0
102
RTVSPost2010PropOp38
 70
     1
102
RTVSPost2010Prop39
140
1.0
102
RTVSPost2010PropOp39
 70
     1
102
RTVSPost2010Prop40
 90
        0
102
RTVSPost2010PropOp40
 70
     1
102
RTVSPost2010Prop41ColorIndex
 90
       18
102
RTVSPost2010Prop41ColorRGB
 90
        0
102
RTVSPost2010PropOp41
 70
     1
102
RTVSPost2010Prop42
 90
       50
102
RTVSPost2010PropOp42
 70
     1
102
RTVSPost2010Prop43
 90
        3
102
RTVSPost2010PropOp43
 70
     1
102
RTVSPost2010Prop44ColorIndex
 90
        5
102
RTVSPost2010Prop44ColorRGB
 90
      255
102
RTVSPost2010PropOp44
 70
     1
102
RTVSPost2010Prop45
280
     0
102
RTVSPost2010PropOp45
 70
     1
102
RTVSPost2010Prop46
 90
       50
102
RTVSPost2010PropOp46
 70
     1
102
RTVSPost2010Prop47
 90
       50
102
RTVSPost2010PropOp47
 70
     1
102
RTVSPost2010Prop48
 90
       50
102
RTVSPost2010PropOp48
 70
     1
102
RTVSPost2010Prop49
280
     0
102
RTVSPost2010PropOp49
 70
     1
102
RTVSPost2010Prop50
 90
       50
102
RTVSPost2010PropOp50
 70
     1
102
RTVSPost2010Prop51ColorIndex
 90
      256
102
RTVSPost2010Prop51ColorRGB
 90
-16777216
102
RTVSPost2010PropOp51
 70
     0
102
RTVSPost2010Prop52
140
1.0
102
RTVSPost2010PropOp52
 70
     0
102
RTVSPost2010Prop53
 90
        2
102
RTVSPost2010PropOp53
 70
     1
102
RTVSPost2010Prop54
  1
strokes_ogs.tif
102
RTVSPost2010PropOp54
 70
     1
102
RTVSPost2010Prop55
280
     0
102
RTVSPost2010PropOp55
 70
     1
102
RTVSPost2010Prop56
140
1.0
102
RTVSPost2010PropOp56
 70
     1
102
RTVSPost2010Prop57
140
1.0
102
RTVSPost2010PropOp57
 70
     1
102
RTVSPropertyOp0
 70
     1
102
RTVSPropertyOp1
 70
     1
102
RTVSPropertyOp2
 70
     1
102
RTVSPropertyOp3
 70
     1
102
RTVSPropertyOp4
 70
     1
102
RTVSPropertyOp5
 70
     1
102
RTVSPropertyOp6
 70
     1
102
RTVSPropertyOp7
 70
     1
102
RTVSPropertyOp8
 70
     1
102
RTVSPropertyOp9
 70
     1
102
RTVSPropertyOp10
 70
     1
102
RTVSPropertyOp11
 70
     1
102
RTVSPropertyOp12
 70
     1
102
RTVSPropertyOp13
 70
     1
102
RTVSPropertyOp14
 70
     1
102
RTVSPropertyOp15
 70
     1
102
RTVSPropertyOp16
 70
     1
102
RTVSPropertyOp17
 70
     1
102
RTVSPropertyOp18
 70
     1
102
RTVSPropertyOp19
 70
     1
102
RTVSPropertyOp20
 70
     1
102
RTVSPropertyOp21
 70
     1
102
RTVSPropertyOp22
 70
     1
102
RTVSPropertyOp23
 70
     1
102
RTVSPropertyOp24
 70
     1
102
RTVSPropertyOp25
 70
     1
102
RTVSPropertyOp26
 70
     1
102
RTVSPropertyOp27
 70
     1
102
RTVSPropertyOp28
 70
     1
102
RTVSPropertyOp29
 70
     1
102
RTVSPropertyOp30
 70
     1
102
RTVSPropertyOp31
 70
     1
102
RTVSPropertyOp32
 70
     1
102
RTVSPropertyOp33
 70
     1
102
RTVSPropertyOp34
 70
     1
102
RTVSPropertyOp35
 70
     1
102
RTVSPropertyOp36
 70
     1
102
RTVSPropertyOp37
 70
     1
102
RTVSPropertyOp38
 70
     1
102
RTVSPropertyOp39
 70
     1
102
RTVSPropertyOp40
 70
     1
102
RTVSPropertyOp41
 70
     1
102
RTVSPropertyOp42
 70
     1
102
RTVSPropertyOp43
 70
     1
102
RTVSPropertyOp44
 70
     1
102
RTVSPropertyOp45
 70
     1
102
RTVSPropertyOp46
 70
     1
102
RTVSPropertyOp47
 70
     1
102
RTVSPropertyOp48
 70
     1
102
RTVSPropertyOp49
 70
     1
102
RTVSPropertyOp50
 70
     1
102
RTVSPropertyOp51
 70
     0
102
RTVSPropertyOp52
 70
     0
102
RTVSPropertyOp53
 70
     1
102
RTVSPropertyOp54
 70
     1
102
RTVSPropertyOp55
 70
     1
102
RTVSPropertyOp56
 70
     1
102
RTVSPropertyOp57
 70
     1
102
RTVSPropertyOp58
 70
     1
102
RTVSPropertyOp59
 70
     1
102
RTVSPropertyOp60
 70
     1
102
RTVSPropertyOp61
 70
     1
102
RTVSPropertyOp62
 70
     1
  0
XRECORD
  5
183B
102
{ACAD_REACTORS
330
183A
102
}
330
183A
100
AcDbXrecord
280
     1
102
RTVSPost2010Prop28
280
     0
102
RTVSPost2010PropOp28
 70
     1
102
RTVSPost2010Prop29
280
     1
102
RTVSPost2010PropOp29
 70
     1
102
RTVSPost2010Prop30
280
     1
102
RTVSPost2010PropOp30
 70
     1
102
RTVSPost2010Prop31
280
     0
102
RTVSPost2010PropOp31
 70
     1
102
RTVSPost2010Prop32
280
     0
102
RTVSPost2010PropOp32
 70
     1
102
RTVSPost2010Prop33
280
     0
102
RTVSPost2010PropOp33
 70
     1
102
RTVSPost2010Prop34
280
     0
102
RTVSPost2010PropOp34
 70
     1
102
RTVSPost2010Prop35
280
     0
102
RTVSPost2010PropOp35
 70
     1
102
RTVSPost2010Prop36
280
     0
102
RTVSPost2010PropOp36
 70
     1
102
RTVSPost2010Prop37
 90
       50
102
RTVSPost2010PropOp37
 70
     1
102
RTVSPost2010Prop38
140
0.0
102
RTVSPost2010PropOp38
 70
     1
102
RTVSPost2010Prop39
140
1.0
102
RTVSPost2010PropOp39
 70
     1
102
RTVSPost2010Prop40
 90
        0
102
RTVSPost2010PropOp40
 70
     1
102
RTVSPost2010Prop41ColorIndex
 90
       18
102
RTVSPost2010Prop41ColorRGB
 90
        0
102
RTVSPost2010PropOp41
 70
     1
102
RTVSPost2010Prop42
 90
       50
102
RTVSPost2010PropOp42
 70
     1
102
RTVSPost2010Prop43
 90
        3
102
RTVSPost2010PropOp43
 70
     1
102
RTVSPost2010Prop44ColorIndex
 90
        5
102
RTVSPost2010Prop44ColorRGB
 90
      255
102
RTVSPost2010PropOp44
 70
     1
102
RTVSPost2010Prop45
280
     0
102
RTVSPost2010PropOp45
 70
     1
102
RTVSPost2010Prop46
 90
       50
102
RTVSPost2010PropOp46
 70
     1
102
RTVSPost2010Prop47
 90
       50
102
RTVSPost2010PropOp47
 70
     1
102
RTVSPost2010Prop48
 90
       50
102
RTVSPost2010PropOp48
 70
     1
102
RTVSPost2010Prop49
280
     0
102
RTVSPost2010PropOp49
 70
     1
102
RTVSPost2010Prop50
 90
       50
102
RTVSPost2010PropOp50
 70
     1
102
RTVSPost2010Prop51ColorIndex
 90
      256
102
RTVSPost2010Prop51ColorRGB
 90
-16777216
102
RTVSPost2010PropOp51
 70
     0
102
RTVSPost2010Prop52
140
1.0
102
RTVSPost2010PropOp52
 70
     0
102
RTVSPost2010Prop53
 90
        2
102
RTVSPost2010PropOp53
 70
     1
102
RTVSPost2010Prop54
  1
strokes_ogs.tif
102
RTVSPost2010PropOp54
 70
     1
102
RTVSPost2010Prop55
280
     0
102
RTVSPost2010PropOp55
 70
     1
102
RTVSPost2010Prop56
140
1.0
102
RTVSPost2010PropOp56
 70
     1
102
RTVSPost2010Prop57
140
1.0
102
RTVSPost2010PropOp57
 70
     1
102
RTVSPropertyOp0
 70
     1
102
RTVSPropertyOp1
 70
     1
102
RTVSPropertyOp2
 70
     1
102
RTVSPropertyOp3
 70
     1
102
RTVSPropertyOp4
 70
     1
102
RTVSPropertyOp5
 70
     1
102
RTVSPropertyOp6
 70
     1
102
RTVSPropertyOp7
 70
     1
102
RTVSPropertyOp8
 70
     1
102
RTVSPropertyOp9
 70
     1
102
RTVSPropertyOp10
 70
     1
102
RTVSPropertyOp11
 70
     1
102
RTVSPropertyOp12
 70
     1
102
RTVSPropertyOp13
 70
     1
102
RTVSPropertyOp14
 70
     1
102
RTVSPropertyOp15
 70
     1
102
RTVSPropertyOp16
 70
     1
102
RTVSPropertyOp17
 70
     1
102
RTVSPropertyOp18
 70
     1
102
RTVSPropertyOp19
 70
     1
102
RTVSPropertyOp20
 70
     1
102
RTVSPropertyOp21
 70
     1
102
RTVSPropertyOp22
 70
     1
102
RTVSPropertyOp23
 70
     1
102
RTVSPropertyOp24
 70
     1
102
RTVSPropertyOp25
 70
     1
102
RTVSPropertyOp26
 70
     1
102
RTVSPropertyOp27
 70
     1
102
RTVSPropertyOp28
 70
     1
102
RTVSPropertyOp29
 70
     1
102
RTVSPropertyOp30
 70
     1
102
RTVSPropertyOp31
 70
     1
102
RTVSPropertyOp32
 70
     1
102
RTVSPropertyOp33
 70
     1
102
RTVSPropertyOp34
 70
     1
102
RTVSPropertyOp35
 70
     1
102
RTVSPropertyOp36
 70
     1
102
RTVSPropertyOp37
 70
     1
102
RTVSPropertyOp38
 70
     1
102
RTVSPropertyOp39
 70
     1
102
RTVSPropertyOp40
 70
     1
102
RTVSPropertyOp41
 70
     1
102
RTVSPropertyOp42
 70
     1
102
RTVSPropertyOp43
 70
     1
102
RTVSPropertyOp44
 70
     1
102
RTVSPropertyOp45
 70
     1
102
RTVSPropertyOp46
 70
     1
102
RTVSPropertyOp47
 70
     1
102
RTVSPropertyOp48
 70
     1
102
RTVSPropertyOp49
 70
     1
102
RTVSPropertyOp50
 70
     1
102
RTVSPropertyOp51
 70
     0
102
RTVSPropertyOp52
 70
     0
102
RTVSPropertyOp53
 70
     1
102
RTVSPropertyOp54
 70
     1
102
RTVSPropertyOp55
 70
     1
102
RTVSPropertyOp56
 70
     1
102
RTVSPropertyOp57
 70
     1
102
RTVSPropertyOp58
 70
     1
102
RTVSPropertyOp59
 70
     1
102
RTVSPropertyOp60
 70
     1
102
RTVSPropertyOp61
 70
     1
102
RTVSPropertyOp62
 70
     1
  0
XRECORD
  5
1831
102
{ACAD_REACTORS
330
1830
102
}
330
1830
100
AcDbXrecord
280
     1
102
RTVSPost2010Prop28
280
     0
102
RTVSPost2010PropOp28
 70
     1
102
RTVSPost2010Prop29
280
     1
102
RTVSPost2010PropOp29
 70
     1
102
RTVSPost2010Prop30
280
     1
102
RTVSPost2010PropOp30
 70
     1
102
RTVSPost2010Prop31
280
     0
102
RTVSPost2010PropOp31
 70
     1
102
RTVSPost2010Prop32
280
     0
102
RTVSPost2010PropOp32
 70
     1
102
RTVSPost2010Prop33
280
     0
102
RTVSPost2010PropOp33
 70
     1
102
RTVSPost2010Prop34
280
     0
102
RTVSPost2010PropOp34
 70
     1
102
RTVSPost2010Prop35
280
     0
102
RTVSPost2010PropOp35
 70
     1
102
RTVSPost2010Prop36
280
     0
102
RTVSPost2010PropOp36
 70
     1
102
RTVSPost2010Prop37
 90
       50
102
RTVSPost2010PropOp37
 70
     1
102
RTVSPost2010Prop38
140
0.0
102
RTVSPost2010PropOp38
 70
     1
102
RTVSPost2010Prop39
140
1.0
102
RTVSPost2010PropOp39
 70
     1
102
RTVSPost2010Prop40
 90
        0
102
RTVSPost2010PropOp40
 70
     1
102
RTVSPost2010Prop41ColorIndex
 90
       18
102
RTVSPost2010Prop41ColorRGB
 90
        0
102
RTVSPost2010PropOp41
 70
     1
102
RTVSPost2010Prop42
 90
       50
102
RTVSPost2010PropOp42
 70
     1
102
RTVSPost2010Prop43
 90
        3
102
RTVSPost2010PropOp43
 70
     1
102
RTVSPost2010Prop44ColorIndex
 90
        5
102
RTVSPost2010Prop44ColorRGB
 90
      255
102
RTVSPost2010PropOp44
 70
     1
102
RTVSPost2010Prop45
280
     0
102
RTVSPost2010PropOp45
 70
     1
102
RTVSPost2010Prop46
 90
       50
102
RTVSPost2010PropOp46
 70
     1
102
RTVSPost2010Prop47
 90
       50
102
RTVSPost2010PropOp47
 70
     1
102
RTVSPost2010Prop48
 90
       50
102
RTVSPost2010PropOp48
 70
     1
102
RTVSPost2010Prop49
280
     0
102
RTVSPost2010PropOp49
 70
     1
102
RTVSPost2010Prop50
 90
       50
102
RTVSPost2010PropOp50
 70
     1
102
RTVSPost2010Prop51ColorIndex
 90
      256
102
RTVSPost2010Prop51ColorRGB
 90
-16777216
102
RTVSPost2010PropOp51
 70
     0
102
RTVSPost2010Prop52
140
1.0
102
RTVSPost2010PropOp52
 70
     0
102
RTVSPost2010Prop53
 90
        2
102
RTVSPost2010PropOp53
 70
     1
102
RTVSPost2010Prop54
  1
strokes_ogs.tif
102
RTVSPost2010PropOp54
 70
     1
102
RTVSPost2010Prop55
280
     0
102
RTVSPost2010PropOp55
 70
     1
102
RTVSPost2010Prop56
140
1.0
102
RTVSPost2010PropOp56
 70
     1
102
RTVSPost2010Prop57
140
1.0
102
RTVSPost2010PropOp57
 70
     1
102
RTVSPropertyOp0
 70
     1
102
RTVSPropertyOp1
 70
     1
102
RTVSPropertyOp2
 70
     1
102
RTVSPropertyOp3
 70
     1
102
RTVSPropertyOp4
 70
     1
102
RTVSPropertyOp5
 70
     1
102
RTVSPropertyOp6
 70
     1
102
RTVSPropertyOp7
 70
     1
102
RTVSPropertyOp8
 70
     1
102
RTVSPropertyOp9
 70
     1
102
RTVSPropertyOp10
 70
     1
102
RTVSPropertyOp11
 70
     1
102
RTVSPropertyOp12
 70
     1
102
RTVSPropertyOp13
 70
     1
102
RTVSPropertyOp14
 70
     1
102
RTVSPropertyOp15
 70
     1
102
RTVSPropertyOp16
 70
     1
102
RTVSPropertyOp17
 70
     1
102
RTVSPropertyOp18
 70
     1
102
RTVSPropertyOp19
 70
     1
102
RTVSPropertyOp20
 70
     1
102
RTVSPropertyOp21
 70
     1
102
RTVSPropertyOp22
 70
     1
102
RTVSPropertyOp23
 70
     1
102
RTVSPropertyOp24
 70
     1
102
RTVSPropertyOp25
 70
     1
102
RTVSPropertyOp26
 70
     1
102
RTVSPropertyOp27
 70
     1
102
RTVSPropertyOp28
 70
     1
102
RTVSPropertyOp29
 70
     1
102
RTVSPropertyOp30
 70
     1
102
RTVSPropertyOp31
 70
     1
102
RTVSPropertyOp32
 70
     1
102
RTVSPropertyOp33
 70
     1
102
RTVSPropertyOp34
 70
     1
102
RTVSPropertyOp35
 70
     1
102
RTVSPropertyOp36
 70
     1
102
RTVSPropertyOp37
 70
     1
102
RTVSPropertyOp38
 70
     1
102
RTVSPropertyOp39
 70
     1
102
RTVSPropertyOp40
 70
     1
102
RTVSPropertyOp41
 70
     1
102
RTVSPropertyOp42
 70
     1
102
RTVSPropertyOp43
 70
     1
102
RTVSPropertyOp44
 70
     1
102
RTVSPropertyOp45
 70
     1
102
RTVSPropertyOp46
 70
     1
102
RTVSPropertyOp47
 70
     1
102
RTVSPropertyOp48
 70
     1
102
RTVSPropertyOp49
 70
     1
102
RTVSPropertyOp50
 70
     1
102
RTVSPropertyOp51
 70
     0
102
RTVSPropertyOp52
 70
     0
102
RTVSPropertyOp53
 70
     1
102
RTVSPropertyOp54
 70
     1
102
RTVSPropertyOp55
 70
     1
102
RTVSPropertyOp56
 70
     1
102
RTVSPropertyOp57
 70
     1
102
RTVSPropertyOp58
 70
     1
102
RTVSPropertyOp59
 70
     1
102
RTVSPropertyOp60
 70
     1
102
RTVSPropertyOp61
 70
     1
102
RTVSPropertyOp62
 70
     1
  0
XRECORD
  5
1825
102
{ACAD_REACTORS
330
1824
102
}
330
1824
100
AcDbXrecord
280
     1
102
RTVSPost2010Prop28
280
     0
102
RTVSPost2010PropOp28
 70
     1
102
RTVSPost2010Prop29
280
     1
102
RTVSPost2010PropOp29
 70
     1
102
RTVSPost2010Prop30
280
     1
102
RTVSPost2010PropOp30
 70
     1
102
RTVSPost2010Prop31
280
     0
102
RTVSPost2010PropOp31
 70
     1
102
RTVSPost2010Prop32
280
     0
102
RTVSPost2010PropOp32
 70
     1
102
RTVSPost2010Prop33
280
     0
102
RTVSPost2010PropOp33
 70
     1
102
RTVSPost2010Prop34
280
     0
102
RTVSPost2010PropOp34
 70
     1
102
RTVSPost2010Prop35
280
     0
102
RTVSPost2010PropOp35
 70
     1
102
RTVSPost2010Prop36
280
     0
102
RTVSPost2010PropOp36
 70
     1
102
RTVSPost2010Prop37
 90
       50
102
RTVSPost2010PropOp37
 70
     1
102
RTVSPost2010Prop38
140
0.0
102
RTVSPost2010PropOp38
 70
     1
102
RTVSPost2010Prop39
140
1.0
102
RTVSPost2010PropOp39
 70
     1
102
RTVSPost2010Prop40
 90
        0
102
RTVSPost2010PropOp40
 70
     1
102
RTVSPost2010Prop41ColorIndex
 90
       18
102
RTVSPost2010Prop41ColorRGB
 90
        0
102
RTVSPost2010PropOp41
 70
     1
102
RTVSPost2010Prop42
 90
       50
102
RTVSPost2010PropOp42
 70
     1
102
RTVSPost2010Prop43
 90
        3
102
RTVSPost2010PropOp43
 70
     1
102
RTVSPost2010Prop44ColorIndex
 90
        5
102
RTVSPost2010Prop44ColorRGB
 90
      255
102
RTVSPost2010PropOp44
 70
     1
102
RTVSPost2010Prop45
280
     0
102
RTVSPost2010PropOp45
 70
     1
102
RTVSPost2010Prop46
 90
       50
102
RTVSPost2010PropOp46
 70
     1
102
RTVSPost2010Prop47
 90
       50
102
RTVSPost2010PropOp47
 70
     1
102
RTVSPost2010Prop48
 90
       50
102
RTVSPost2010PropOp48
 70
     1
102
RTVSPost2010Prop49
280
     0
102
RTVSPost2010PropOp49
 70
     1
102
RTVSPost2010Prop50
 90
       50
102
RTVSPost2010PropOp50
 70
     1
102
RTVSPost2010Prop51ColorIndex
 90
      256
102
RTVSPost2010Prop51ColorRGB
 90
-16777216
102
RTVSPost2010PropOp51
 70
     0
102
RTVSPost2010Prop52
140
1.0
102
RTVSPost2010PropOp52
 70
     0
102
RTVSPost2010Prop53
 90
        2
102
RTVSPost2010PropOp53
 70
     1
102
RTVSPost2010Prop54
  1
strokes_ogs.tif
102
RTVSPost2010PropOp54
 70
     1
102
RTVSPost2010Prop55
280
     0
102
RTVSPost2010PropOp55
 70
     1
102
RTVSPost2010Prop56
140
1.0
102
RTVSPost2010PropOp56
 70
     1
102
RTVSPost2010Prop57
140
1.0
102
RTVSPost2010PropOp57
 70
     1
102
RTVSPropertyOp0
 70
     1
102
RTVSPropertyOp1
 70
     1
102
RTVSPropertyOp2
 70
     1
102
RTVSPropertyOp3
 70
     1
102
RTVSPropertyOp4
 70
     1
102
RTVSPropertyOp5
 70
     1
102
RTVSPropertyOp6
 70
     1
102
RTVSPropertyOp7
 70
     1
102
RTVSPropertyOp8
 70
     1
102
RTVSPropertyOp9
 70
     1
102
RTVSPropertyOp10
 70
     1
102
RTVSPropertyOp11
 70
     1
102
RTVSPropertyOp12
 70
     1
102
RTVSPropertyOp13
 70
     1
102
RTVSPropertyOp14
 70
     1
102
RTVSPropertyOp15
 70
     1
102
RTVSPropertyOp16
 70
     1
102
RTVSPropertyOp17
 70
     1
102
RTVSPropertyOp18
 70
     1
102
RTVSPropertyOp19
 70
     1
102
RTVSPropertyOp20
 70
     1
102
RTVSPropertyOp21
 70
     1
102
RTVSPropertyOp22
 70
     1
102
RTVSPropertyOp23
 70
     1
102
RTVSPropertyOp24
 70
     1
102
RTVSPropertyOp25
 70
     1
102
RTVSPropertyOp26
 70
     1
102
RTVSPropertyOp27
 70
     1
102
RTVSPropertyOp28
 70
     1
102
RTVSPropertyOp29
 70
     1
102
RTVSPropertyOp30
 70
     1
102
RTVSPropertyOp31
 70
     1
102
RTVSPropertyOp32
 70
     1
102
RTVSPropertyOp33
 70
     1
102
RTVSPropertyOp34
 70
     1
102
RTVSPropertyOp35
 70
     1
102
RTVSPropertyOp36
 70
     1
102
RTVSPropertyOp37
 70
     1
102
RTVSPropertyOp38
 70
     1
102
RTVSPropertyOp39
 70
     1
102
RTVSPropertyOp40
 70
     1
102
RTVSPropertyOp41
 70
     1
102
RTVSPropertyOp42
 70
     1
102
RTVSPropertyOp43
 70
     1
102
RTVSPropertyOp44
 70
     1
102
RTVSPropertyOp45
 70
     1
102
RTVSPropertyOp46
 70
     1
102
RTVSPropertyOp47
 70
     1
102
RTVSPropertyOp48
 70
     1
102
RTVSPropertyOp49
 70
     1
102
RTVSPropertyOp50
 70
     1
102
RTVSPropertyOp51
 70
     0
102
RTVSPropertyOp52
 70
     0
102
RTVSPropertyOp53
 70
     1
102
RTVSPropertyOp54
 70
     1
102
RTVSPropertyOp55
 70
     1
102
RTVSPropertyOp56
 70
     1
102
RTVSPropertyOp57
 70
     1
102
RTVSPropertyOp58
 70
     1
102
RTVSPropertyOp59
 70
     1
102
RTVSPropertyOp60
 70
     1
102
RTVSPropertyOp61
 70
     1
102
RTVSPropertyOp62
 70
     1
  0
XRECORD
  5
183D
102
{ACAD_REACTORS
330
183C
102
}
330
183C
100
AcDbXrecord
280
     1
102
RTVSPost2010Prop28
280
     0
102
RTVSPost2010PropOp28
 70
     1
102
RTVSPost2010Prop29
280
     1
102
RTVSPost2010PropOp29
 70
     1
102
RTVSPost2010Prop30
280
     1
102
RTVSPost2010PropOp30
 70
     1
102
RTVSPost2010Prop31
280
     0
102
RTVSPost2010PropOp31
 70
     1
102
RTVSPost2010Prop32
280
     0
102
RTVSPost2010PropOp32
 70
     1
102
RTVSPost2010Prop33
280
     0
102
RTVSPost2010PropOp33
 70
     1
102
RTVSPost2010Prop34
280
     0
102
RTVSPost2010PropOp34
 70
     1
102
RTVSPost2010Prop35
280
     0
102
RTVSPost2010PropOp35
 70
     1
102
RTVSPost2010Prop36
280
     0
102
RTVSPost2010PropOp36
 70
     1
102
RTVSPost2010Prop37
 90
       50
102
RTVSPost2010PropOp37
 70
     1
102
RTVSPost2010Prop38
140
0.0
102
RTVSPost2010PropOp38
 70
     1
102
RTVSPost2010Prop39
140
1.0
102
RTVSPost2010PropOp39
 70
     1
102
RTVSPost2010Prop40
 90
        0
102
RTVSPost2010PropOp40
 70
     1
102
RTVSPost2010Prop41ColorIndex
 90
       18
102
RTVSPost2010Prop41ColorRGB
 90
        0
102
RTVSPost2010PropOp41
 70
     1
102
RTVSPost2010Prop42
 90
       50
102
RTVSPost2010PropOp42
 70
     1
102
RTVSPost2010Prop43
 90
        3
102
RTVSPost2010PropOp43
 70
     1
102
RTVSPost2010Prop44ColorIndex
 90
        5
102
RTVSPost2010Prop44ColorRGB
 90
      255
102
RTVSPost2010PropOp44
 70
     1
102
RTVSPost2010Prop45
280
     0
102
RTVSPost2010PropOp45
 70
     1
102
RTVSPost2010Prop46
 90
       50
102
RTVSPost2010PropOp46
 70
     1
102
RTVSPost2010Prop47
 90
       50
102
RTVSPost2010PropOp47
 70
     1
102
RTVSPost2010Prop48
 90
       50
102
RTVSPost2010PropOp48
 70
     1
102
RTVSPost2010Prop49
280
     0
102
RTVSPost2010PropOp49
 70
     1
102
RTVSPost2010Prop50
 90
       50
102
RTVSPost2010PropOp50
 70
     1
102
RTVSPost2010Prop51ColorIndex
 90
      256
102
RTVSPost2010Prop51ColorRGB
 90
-16777216
102
RTVSPost2010PropOp51
 70
     0
102
RTVSPost2010Prop52
140
1.0
102
RTVSPost2010PropOp52
 70
     0
102
RTVSPost2010Prop53
 90
        2
102
RTVSPost2010PropOp53
 70
     1
102
RTVSPost2010Prop54
  1
strokes_ogs.tif
102
RTVSPost2010PropOp54
 70
     1
102
RTVSPost2010Prop55
280
     0
102
RTVSPost2010PropOp55
 70
     1
102
RTVSPost2010Prop56
140
1.0
102
RTVSPost2010PropOp56
 70
     1
102
RTVSPost2010Prop57
140
1.0
102
RTVSPost2010PropOp57
 70
     1
102
RTVSPropertyOp0
 70
     1
102
RTVSPropertyOp1
 70
     1
102
RTVSPropertyOp2
 70
     1
102
RTVSPropertyOp3
 70
     1
102
RTVSPropertyOp4
 70
     1
102
RTVSPropertyOp5
 70
     1
102
RTVSPropertyOp6
 70
     1
102
RTVSPropertyOp7
 70
     1
102
RTVSPropertyOp8
 70
     1
102
RTVSPropertyOp9
 70
     1
102
RTVSPropertyOp10
 70
     1
102
RTVSPropertyOp11
 70
     1
102
RTVSPropertyOp12
 70
     1
102
RTVSPropertyOp13
 70
     1
102
RTVSPropertyOp14
 70
     1
102
RTVSPropertyOp15
 70
     1
102
RTVSPropertyOp16
 70
     1
102
RTVSPropertyOp17
 70
     1
102
RTVSPropertyOp18
 70
     1
102
RTVSPropertyOp19
 70
     1
102
RTVSPropertyOp20
 70
     1
102
RTVSPropertyOp21
 70
     1
102
RTVSPropertyOp22
 70
     1
102
RTVSPropertyOp23
 70
     1
102
RTVSPropertyOp24
 70
     1
102
RTVSPropertyOp25
 70
     1
102
RTVSPropertyOp26
 70
     1
102
RTVSPropertyOp27
 70
     1
102
RTVSPropertyOp28
 70
     1
102
RTVSPropertyOp29
 70
     1
102
RTVSPropertyOp30
 70
     1
102
RTVSPropertyOp31
 70
     1
102
RTVSPropertyOp32
 70
     1
102
RTVSPropertyOp33
 70
     1
102
RTVSPropertyOp34
 70
     1
102
RTVSPropertyOp35
 70
     1
102
RTVSPropertyOp36
 70
     1
102
RTVSPropertyOp37
 70
     1
102
RTVSPropertyOp38
 70
     1
102
RTVSPropertyOp39
 70
     1
102
RTVSPropertyOp40
 70
     1
102
RTVSPropertyOp41
 70
     1
102
RTVSPropertyOp42
 70
     1
102
RTVSPropertyOp43
 70
     1
102
RTVSPropertyOp44
 70
     1
102
RTVSPropertyOp45
 70
     1
102
RTVSPropertyOp46
 70
     1
102
RTVSPropertyOp47
 70
     1
102
RTVSPropertyOp48
 70
     1
102
RTVSPropertyOp49
 70
     1
102
RTVSPropertyOp50
 70
     1
102
RTVSPropertyOp51
 70
     0
102
RTVSPropertyOp52
 70
     0
102
RTVSPropertyOp53
 70
     1
102
RTVSPropertyOp54
 70
     1
102
RTVSPropertyOp55
 70
     1
102
RTVSPropertyOp56
 70
     1
102
RTVSPropertyOp57
 70
     1
102
RTVSPropertyOp58
 70
     1
102
RTVSPropertyOp59
 70
     1
102
RTVSPropertyOp60
 70
     1
102
RTVSPropertyOp61
 70
     1
102
RTVSPropertyOp62
 70
     1
  0
ENDSEC
  0
EOF
