  0
SECTION
  2
HEADER
  9
$ACADVER
  1
AC1015
  9
$ACADMAINTVER
 70
    20
  9
$DWGCODEPAGE
  3
ANSI_932
  9
$INSBASE
 10
0.0
 20
0.0
 30
0.0
  9
$EXTMIN
 10
9.999999064246615
 20
9.999999806846743
 30
0.0
  9
$EXTMAX
 10
534.8523966861753
 20
369.1546663087496
 30
0.0
  9
$LIMMIN
 10
0.0000015376081137
 20
-0.0000001931532552
  9
$LIMMAX
 10
575.0000015376082
 20
396.4015149583618
  9
$ORTHOMODE
 70
     0
  9
$REGENMODE
 70
     1
  9
$FILLMODE
 70
     1
  9
$QTEXTMODE
 70
     0
  9
$MIRRTEXT
 70
     1
  9
$LTSCALE
 40
1.0
  9
$ATTMODE
 70
     1
  9
$TEXTSIZE
 40
2.5
  9
$TRACEWID
 40
1.0
  9
$TEXTSTYLE
  7
STANDARD
  9
$CLAYER
  8
0
  9
$CELTYPE
  6
BYLAYER
  9
$CECOLOR
 62
   256
  9
$CELTSCALE
 40
1.0
  9
$DISPSILH
 70
     0
  9
$DIMSCALE
 40
1.0
  9
$DIMASZ
 40
3.0
  9
$DIMEXO
 40
1.0
  9
$DIMDLI
 40
10.0
  9
$DIMRND
 40
0.0
  9
$DIMDLE
 40
0.0
  9
$DIMEXE
 40
1.0
  9
$DIMTP
 40
0.0
  9
$DIMTM
 40
0.0
  9
$DIMTXT
 40
3.2
  9
$DIMCEN
 40
0.0
  9
$DIMTSZ
 40
0.0
  9
$DIMTOL
 70
     0
  9
$DIMLIM
 70
     0
  9
$DIMTIH
 70
     0
  9
$DIMTOH
 70
     0
  9
$DIMSE1
 70
     0
  9
$DIMSE2
 70
     0
  9
$DIMTAD
 70
     3
  9
$DIMZIN
 70
     8
  9
$DIMBLK
  1

  9
$DIMASO
 70
     1
  9
$DIMSHO
 70
     1
  9
$DIMPOST
  1

  9
$DIMAPOST
  1

  9
$DIMALT
 70
     0
  9
$DIMALTD
 70
     2
  9
$DIMALTF
 40
25.4
  9
$DIMLFAC
 40
1.0
  9
$DIMTOFL
 70
     1
  9
$DIMTVP
 40
0.0
  9
$DIMTIX
 70
     0
  9
$DIMSOXD
 70
     0
  9
$DIMSAH
 70
     1
  9
$DIMBLK1
  1
OPEN
  9
$DIMBLK2
  1
OPEN
  9
$DIMSTYLE
  2
STANDARD
  9
$DIMCLRD
 70
     0
  9
$DIMCLRE
 70
     0
  9
$DIMCLRT
 70
     0
  9
$DIMTFAC
 40
1.0
  9
$DIMGAP
 40
1.0
  9
$DIMJUST
 70
     0
  9
$DIMSD1
 70
     0
  9
$DIMSD2
 70
     0
  9
$DIMTOLJ
 70
     1
  9
$DIMTZIN
 70
     0
  9
$DIMALTZ
 70
     0
  9
$DIMALTTZ
 70
     0
  9
$DIMUPT
 70
     0
  9
$DIMDEC
 70
     4
  9
$DIMTDEC
 70
     4
  9
$DIMALTU
 70
     2
  9
$DIMALTTD
 70
     2
  9
$DIMTXSTY
  7
STANDARD
  9
$DIMAUNIT
 70
     0
  9
$DIMADEC
 70
     0
  9
$DIMALTRND
 40
0.0
  9
$DIMAZIN
 70
     0
  9
$DIMDSEP
 70
    46
  9
$DIMATFIT
 70
     3
  9
$DIMFRAC
 70
     0
  9
$DIMLDRBLK
  1
OPEN
  9
$DIMLUNIT
 70
     2
  9
$DIMLWD
 70
    -2
  9
$DIMLWE
 70
    -2
  9
$DIMTMOVE
 70
     0
  9
$LUNITS
 70
     2
  9
$LUPREC
 70
     4
  9
$SKETCHINC
 40
1.0
  9
$FILLETRAD
 40
0.0
  9
$AUNITS
 70
     0
  9
$AUPREC
 70
     0
  9
$MENU
  1
.
  9
$ELEVATION
 40
0.0
  9
$PELEVATION
 40
0.0
  9
$THICKNESS
 40
0.0
  9
$LIMCHECK
 70
     0
  9
$CHAMFERA
 40
10.0
  9
$CHAMFERB
 40
10.0
  9
$CHAMFERC
 40
20.0
  9
$CHAMFERD
 40
0.0
  9
$SKPOLY
 70
     0
  9
$TDCREATE
 40
2453278.558367871
  9
$TDUCREATE
 40
2453278.183367870
  9
$TDUPDATE
 40
2457192.688956447
  9
$TDUUPDATE
 40
2457192.313956447
  9
$TDINDWG
 40
0.3462672222
  9
$TDUSRTIMER
 40
0.3462672106
  9
$USRTIMER
 70
     1
  9
$ANGBASE
 50
0.0
  9
$ANGDIR
 70
     0
  9
$PDMODE
 70
     0
  9
$PDSIZE
 40
0.0
  9
$PLINEWID
 40
0.0
  9
$SPLFRAME
 70
     0
  9
$SPLINETYPE
 70
     6
  9
$SPLINESEGS
 70
     8
  9
$HANDSEED
  5
17DA
  9
$SURFTAB1
 70
     6
  9
$SURFTAB2
 70
     6
  9
$SURFTYPE
 70
     6
  9
$SURFU
 70
     6
  9
$SURFV
 70
     6
  9
$UCSBASE
  2

  9
$UCSNAME
  2

  9
$UCSORG
 10
0.0
 20
0.0
 30
0.0
  9
$UCSXDIR
 10
1.0
 20
0.0
 30
0.0
  9
$UCSYDIR
 10
0.0
 20
1.0
 30
0.0
  9
$UCSORTHOREF
  2

  9
$UCSORTHOVIEW
 70
     0
  9
$UCSORGTOP
 10
0.0
 20
0.0
 30
0.0
  9
$UCSORGBOTTOM
 10
0.0
 20
0.0
 30
0.0
  9
$UCSORGLEFT
 10
0.0
 20
0.0
 30
0.0
  9
$UCSORGRIGHT
 10
0.0
 20
0.0
 30
0.0
  9
$UCSORGFRONT
 10
0.0
 20
0.0
 30
0.0
  9
$UCSORGBACK
 10
0.0
 20
0.0
 30
0.0
  9
$PUCSBASE
  2

  9
$PUCSNAME
  2

  9
$PUCSORG
 10
0.0
 20
0.0
 30
0.0
  9
$PUCSXDIR
 10
1.0
 20
0.0
 30
0.0
  9
$PUCSYDIR
 10
0.0
 20
1.0
 30
0.0
  9
$PUCSORTHOREF
  2

  9
$PUCSORTHOVIEW
 70
     0
  9
$PUCSORGTOP
 10
0.0
 20
0.0
 30
0.0
  9
$PUCSORGBOTTOM
 10
0.0
 20
0.0
 30
0.0
  9
$PUCSORGLEFT
 10
0.0
 20
0.0
 30
0.0
  9
$PUCSORGRIGHT
 10
0.0
 20
0.0
 30
0.0
  9
$PUCSORGFRONT
 10
0.0
 20
0.0
 30
0.0
  9
$PUCSORGBACK
 10
0.0
 20
0.0
 30
0.0
  9
$USERI1
 70
     0
  9
$USERI2
 70
     0
  9
$USERI3
 70
     0
  9
$USERI4
 70
     0
  9
$USERI5
 70
     0
  9
$USERR1
 40
0.0
  9
$USERR2
 40
0.0
  9
$USERR3
 40
0.0
  9
$USERR4
 40
0.0
  9
$USERR5
 40
0.0
  9
$WORLDVIEW
 70
     1
  9
$SHADEDGE
 70
     3
  9
$SHADEDIF
 70
    70
  9
$TILEMODE
 70
     1
  9
$MAXACTVP
 70
    48
  9
$PINSBASE
 10
0.0
 20
0.0
 30
0.0
  9
$PLIMCHECK
 70
     0
  9
$PEXTMIN
 10
1.000000000000000E+20
 20
1.000000000000000E+20
 30
1.000000000000000E+20
  9
$PEXTMAX
 10
-1.000000000000000E+20
 20
-1.000000000000000E+20
 30
-1.000000000000000E+20
  9
$PLIMMIN
 10
0.0
 20
0.0
  9
$PLIMMAX
 10
420.0
 20
297.0
  9
$UNITMODE
 70
     0
  9
$VISRETAIN
 70
     1
  9
$PLINEGEN
 70
     0
  9
$PSLTSCALE
 70
     1
  9
$TREEDEPTH
 70
  3020
  9
$CMLSTYLE
  2
STANDARD
  9
$CMLJUST
 70
     0
  9
$CMLSCALE
 40
20.0
  9
$PROXYGRAPHICS
 70
     1
  9
$MEASUREMENT
 70
     0
  9
$CELWEIGHT
370
    -1
  9
$ENDCAPS
280
     0
  9
$JOINSTYLE
280
     0
  9
$LWDISPLAY
290
     0
  9
$INSUNITS
 70
     0
  9
$HYPERLINKBASE
  1

  9
$STYLESHEET
  1

  9
$XEDIT
290
     1
  9
$CEPSNTYPE
380
     0
  9
$PSTYLEMODE
290
     1
  9
$FINGERPRINTGUID
  2
{1B3CDB63-8413-46D3-ADED-21674A236E5E}
  9
$VERSIONGUID
  2
{A3AB16CF-3DEE-49BE-8886-47461B1C70A0}
  9
$EXTNAMES
290
     1
  9
$PSVPSCALE
 40
0.0
  9
$OLESTARTUP
290
     0
  0
ENDSEC
  0
SECTION
  2
CLASSES
  0
CLASS
  1
ACDBDICTIONARYWDFLT
  2
AcDbDictionaryWithDefault
  3
ObjectDBX Classes
 90
        0
280
     0
281
     0
  0
CLASS
  1
ACDBPLACEHOLDER
  2
AcDbPlaceHolder
  3
ObjectDBX Classes
 90
        0
280
     0
281
     0
  0
CLASS
  1
LAYOUT
  2
AcDbLayout
  3
ObjectDBX Classes
 90
        0
280
     0
281
     0
  0
CLASS
  1
DICTIONARYVAR
  2
AcDbDictionaryVar
  3
ObjectDBX Classes
 90
        0
280
     0
281
     0
  0
CLASS
  1
MATERIAL
  2
AcDbMaterial
  3
ObjectDBX Classes
 90
     1153
280
     0
281
     0
  0
CLASS
  1
VISUALSTYLE
  2
AcDbVisualStyle
  3
ObjectDBX Classes
 90
     4095
280
     0
281
     0
  0
CLASS
  1
TABLESTYLE
  2
AcDbTableStyle
  3
ObjectDBX Classes
 90
     4095
280
     0
281
     0
  0
CLASS
  1
SCALE
  2
AcDbScale
  3
ObjectDBX Classes
 90
     1153
280
     0
281
     0
  0
CLASS
  1
MLEADERSTYLE
  2
AcDbMLeaderStyle
  3
ACDB_MLEADERSTYLE_CLASS
 90
     4095
280
     0
281
     0
  0
CLASS
  1
ACDBSECTIONVIEWSTYLE
  2
AcDbSectionViewStyle
  3
ObjectDBX Classes
 90
     1025
280
     0
281
     0
  0
CLASS
  1
ACDBDETAILVIEWSTYLE
  2
AcDbDetailViewStyle
  3
ObjectDBX Classes
 90
     1025
280
     0
281
     0
  0
CLASS
  1
CELLSTYLEMAP
  2
AcDbCellStyleMap
  3
ObjectDBX Classes
 90
     1152
280
     0
281
     0
  0
ENDSEC
  0
SECTION
  2
TABLES
  0
TABLE
  2
VPORT
  5
8
330
0
100
AcDbSymbolTable
 70
     1
  0
VPORT
  5
1726
330
8
100
AcDbSymbolTableRecord
100
AcDbViewportTableRecord
  2
*ACTIVE
 70
     0
 10
0.0
 20
0.0
 11
1.0
 21
1.0
 12
410.6737478739634
 22
189.5814931726672
 13
0.0
 23
0.0
 14
10.0
 24
10.0
 15
10.0
 25
10.0
 16
0.0
 26
0.0
 36
1.0
 17
0.0
 27
0.0
 37
0.0
 40
362.0018131178164
 41
2.35006605019815
 42
50.0
 43
0.0
 44
0.0
 50
0.0
 51
0.0
 71
     0
 72
   100
 73
     1
 74
     0
 75
     0
 76
     0
 77
     0
 78
     0
281
     0
 65
     1
110
0.0
120
0.0
130
0.0
111
1.0
121
0.0
131
0.0
112
0.0
122
1.0
132
0.0
 79
     0
146
0.0
1001
ACAD_NAV_VCDISPLAY
1070
     3
  0
ENDTAB
  0
TABLE
  2
LTYPE
  5
5
330
0
100
AcDbSymbolTable
 70
     4
  0
LTYPE
  5
12
330
5
100
AcDbSymbolTableRecord
100
AcDbLinetypeTableRecord
  2
BYBLOCK
 70
     0
  3

 72
    65
 73
     0
 40
0.0
  0
LTYPE
  5
13
330
5
100
AcDbSymbolTableRecord
100
AcDbLinetypeTableRecord
  2
BYLAYER
 70
     0
  3

 72
    65
 73
     0
 40
0.0
  0
LTYPE
  5
14
330
5
100
AcDbSymbolTableRecord
100
AcDbLinetypeTableRecord
  2
CONTINUOUS
 70
     0
  3
Solid line
 72
    65
 73
     0
 40
0.0
  0
LTYPE
  5
62
330
5
100
AcDbSymbolTableRecord
100
AcDbLinetypeTableRecord
  2
DASHED
 70
     0
  3
Dashed __ __ __ __ __ __ __ __ __ __ __ __ __ _
 72
    65
 73
     2
 40
19.04999999999998
 49
12.7
 74
     0
 49
-6.349999999999997
 74
     0
  0
LTYPE
  5
63
330
5
100
AcDbSymbolTableRecord
100
AcDbLinetypeTableRecord
  2
CENTER
 70
     0
  3
Center ____ _ ____ _ ____ _ ____ _ ____ _ ____
 72
    65
 73
     4
 40
50.8
 49
31.75
 74
     0
 49
-6.349999999999997
 74
     0
 49
6.349999999999997
 74
     0
 49
-6.349999999999997
 74
     0
  0
LTYPE
  5
64
330
5
100
AcDbSymbolTableRecord
100
AcDbLinetypeTableRecord
  2
PHANTOM
 70
     0
  3
Phantom ______  __  __  ______  __  __  ______
 72
    65
 73
     6
 40
63.5
 49
31.75
 74
     0
 49
-6.349999999999997
 74
     0
 49
6.349999999999997
 74
     0
 49
-6.349999999999997
 74
     0
 49
6.349999999999997
 74
     0
 49
-6.349999999999997
 74
     0
  0
ENDTAB
  0
TABLE
  2
LAYER
  5
2
330
0
100
AcDbSymbolTable
 70
     8
  0
LAYER
  5
E
102
{ACAD_XDICTIONARY
360
177E
102
}
330
2
100
AcDbSymbolTableRecord
100
AcDbLayerTableRecord
  2
0
 70
     0
 62
     7
  6
CONTINUOUS
370
    -3
390
172D
  0
LAYER
  5
65
102
{ACAD_XDICTIONARY
360
1780
102
}
330
2
100
AcDbSymbolTableRecord
100
AcDbLayerTableRecord
  2
4
 70
     0
 62
     1
  6
CENTER
370
    -3
390
172D
  0
LAYER
  5
66
102
{ACAD_XDICTIONARY
360
1782
102
}
330
2
100
AcDbSymbolTableRecord
100
AcDbLayerTableRecord
  2
5
 70
     0
 62
     6
  6
PHANTOM
370
    -3
390
172D
  0
LAYER
  5
67
102
{ACAD_XDICTIONARY
360
1784
102
}
330
2
100
AcDbSymbolTableRecord
100
AcDbLayerTableRecord
  2
1
 70
     0
 62
     7
  6
CONTINUOUS
370
    -3
390
172D
  0
LAYER
  5
68
102
{ACAD_XDICTIONARY
360
1786
102
}
330
2
100
AcDbSymbolTableRecord
100
AcDbLayerTableRecord
  2
2
 70
     0
 62
     4
  6
CONTINUOUS
370
    -3
390
172D
  0
LAYER
  5
69
102
{ACAD_XDICTIONARY
360
1788
102
}
330
2
100
AcDbSymbolTableRecord
100
AcDbLayerTableRecord
  2
3
 70
     0
 62
     2
  6
DASHED
370
    -3
390
172D
  0
LAYER
  5
6A
102
{ACAD_XDICTIONARY
360
178A
102
}
330
2
100
AcDbSymbolTableRecord
100
AcDbLayerTableRecord
  2
6
 70
     0
 62
     5
  6
CONTINUOUS
370
    -3
390
172D
  0
LAYER
  5
6B
102
{ACAD_XDICTIONARY
360
178C
102
}
330
2
100
AcDbSymbolTableRecord
100
AcDbLayerTableRecord
  2
7
 70
     0
 62
     3
  6
CONTINUOUS
370
    -3
390
172D
  0
ENDTAB
  0
TABLE
  2
STYLE
  5
3
330
0
100
AcDbSymbolTable
 70
     1
  0
STYLE
  5
F
330
3
100
AcDbSymbolTableRecord
100
AcDbTextStyleTableRecord
  2
STANDARD
 70
     0
 40
0.0
 41
1.0
 50
0.0
 71
     0
 42
2.5
  3
simplex.shx
  4

  0
ENDTAB
  0
TABLE
  2
VIEW
  5
6
330
0
100
AcDbSymbolTable
 70
     0
  0
ENDTAB
  0
TABLE
  2
UCS
  5
7
330
0
100
AcDbSymbolTable
 70
     0
  0
ENDTAB
  0
TABLE
  2
APPID
  5
9
330
0
100
AcDbSymbolTable
 70
     5
  0
APPID
  5
10
330
9
100
AcDbSymbolTableRecord
100
AcDbRegAppTableRecord
  2
ACAD
 70
     0
  0
APPID
  5
3E
330
9
100
AcDbSymbolTableRecord
100
AcDbRegAppTableRecord
  2
CONTENTTABDATA
 70
     0
  0
APPID
  5
3F
330
9
100
AcDbSymbolTableRecord
100
AcDbRegAppTableRecord
  2
CONTENTCURRENTTAB
 70
     0
  0
APPID
  5
1798
330
9
100
AcDbSymbolTableRecord
100
AcDbRegAppTableRecord
  2
ACAD_NAV_VCDISPLAY
 70
     0
  0
APPID
  5
17D1
330
9
100
AcDbSymbolTableRecord
100
AcDbRegAppTableRecord
  2
ACAD_MLEADERVER
 70
     0
  0
ENDTAB
  0
TABLE
  2
DIMSTYLE
  5
A
330
0
100
AcDbSymbolTable
 70
     1
100
AcDbDimStyleTable
 71
     0
  0
DIMSTYLE
105
1D
330
A
100
AcDbSymbolTableRecord
100
AcDbDimStyleTableRecord
  2
STANDARD
 70
     0
 41
3.0
 42
1.0
 43
10.0
 44
1.0
 73
     0
 74
     0
 77
     3
 78
     8
140
3.2
141
0.0
147
1.0
172
     1
173
     1
340
F
341
2E
343
2E
344
2E
  0
ENDTAB
  0
TABLE
  2
BLOCK_RECORD
  5
1
330
0
100
AcDbSymbolTable
 70
     1
  0
BLOCK_RECORD
  5
18
102
{ACAD_XDICTIONARY
360
1710
102
}
330
1
100
AcDbSymbolTableRecord
100
AcDbBlockTableRecord
  2
*MODEL_SPACE
340
177B
  0
BLOCK_RECORD
  5
15
102
{ACAD_XDICTIONARY
360
170E
102
}
330
1
100
AcDbSymbolTableRecord
100
AcDbBlockTableRecord
  2
*PAPER_SPACE
340
177C
  0
BLOCK_RECORD
  5
2E
330
1
100
AcDbSymbolTableRecord
100
AcDbBlockTableRecord
  2
_OPEN
340
0
  0
ENDTAB
  0
ENDSEC
  0
SECTION
  2
BLOCKS
  0
BLOCK
  5
19
330
18
100
AcDbEntity
  8
0
100
AcDbBlockBegin
  2
*MODEL_SPACE
 70
     0
 10
0.0
 20
0.0
 30
0.0
  3
*MODEL_SPACE
  1

  0
ENDBLK
  5
1A
330
18
100
AcDbEntity
  8
0
100
AcDbBlockEnd
  0
BLOCK
  5
16
330
15
100
AcDbEntity
 67
     1
  8
0
100
AcDbBlockBegin
  2
*PAPER_SPACE
 70
     0
 10
0.0
 20
0.0
 30
0.0
  3
*PAPER_SPACE
  1

  0
ENDBLK
  5
17
330
15
100
AcDbEntity
 67
     1
  8
0
100
AcDbBlockEnd
  0
BLOCK
  5
2F
330
2E
100
AcDbEntity
  8
0
100
AcDbBlockBegin
  2
_OPEN
 70
     0
 10
0.0
 20
0.0
 30
0.0
  3
_OPEN
  1

  0
LINE
  5
30
330
2E
100
AcDbEntity
  8
0
  6
ByBlock
 62
     0
100
AcDbLine
 10
-1.0
 20
0.1666666666666666
 30
0.0
 11
0.0
 21
0.0
 31
0.0
  0
LINE
  5
31
330
2E
100
AcDbEntity
  8
0
  6
ByBlock
 62
     0
100
AcDbLine
 10
0.0
 20
0.0
 30
0.0
 11
-1.0
 21
-0.1666666666666666
 31
0.0
  0
LINE
  5
32
330
2E
100
AcDbEntity
  8
0
  6
ByBlock
 62
     0
100
AcDbLine
 10
0.0
 20
0.0
 30
0.0
 11
-1.0
 21
0.0
 31
0.0
  0
ENDBLK
  5
33
330
2E
100
AcDbEntity
  8
0
100
AcDbBlockEnd
  0
ENDSEC
  0
SECTION
  2
ENTITIES
  0
LINE
  5
219
330
18
100
AcDbEntity
  8
1
  6
Continuous
100
AcDbLine
 10
159.33359270675
 20
331.2546663087496
 30
0.0
 11
155.75359270675
 21
331.2546663087496
 31
0.0
  0
LINE
  5
21A
330
18
100
AcDbEntity
  8
1
  6
Continuous
100
AcDbLine
 10
160.0647184462733
 20
319.8585769404214
 30
0.0
 11
151.037130647698
 21
311.8336831598568
 31
0.0
  0
LINE
  5
21D
330
18
100
AcDbEntity
  8
5
  6
PHANTOM
 48
0.3
100
AcDbLine
 10
157.4931906861731
 20
197.3075063087497
 30
0.0
 11
160.4234726861732
 21
200.2508843087495
 31
0.0
  0
LINE
  5
21E
330
18
100
AcDbEntity
  8
5
  6
PHANTOM
 48
0.3
100
AcDbLine
 10
156.430171686173
 20
198.3657983087495
 30
0.0
 11
159.3604466861731
 21
201.3091763087496
 31
0.0
  0
ARC
  5
21F
330
18
100
AcDbEntity
  8
1
  6
Continuous
100
AcDbCircle
 10
173.8459686861729
 20
200.8572003087496
 30
0.0
 40
20.620001
100
AcDbArc
 50
196.1707799999998
 51
288.7416999999995
  0
ARC
  5
220
330
18
100
AcDbEntity
  8
5
  6
PHANTOM
 48
0.3
100
AcDbCircle
 10
168.2009926861731
 20
201.5503113087495
 30
0.0
 40
20.620001
100
AcDbArc
 50
237.1707799999999
 51
329.7416999999999
  0
ARC
  5
221
330
18
100
AcDbEntity
  8
5
  6
PHANTOM
 48
0.3
100
AcDbCircle
 10
171.053691686173
 20
189.6679533087495
 30
0.0
 40
16.5
100
AcDbArc
 50
71.87225700000026
 51
135.1277399999995
  0
LINE
  5
222
330
18
100
AcDbEntity
  8
1
  6
Continuous
100
AcDbLine
 10
159.604426686173
 20
205.7680883087495
 30
0.0
 11
158.2191806861731
 21
203.1070593087497
 31
0.0
  0
LINE
  5
225
330
18
100
AcDbEntity
  8
4
  6
CENTER
 48
0.4
100
AcDbLine
 10
212.5965686861731
 20
193.6546703087497
 30
0.0
 11
127.5965686861731
 21
193.6546703087497
 31
0.0
  0
LINE
  5
227
330
18
100
AcDbEntity
  8
1
  6
Continuous
100
AcDbLine
 10
138.6539796861731
 20
218.3652743087495
 30
0.0
 11
161.5388676861732
 21
206.4521593087495
 31
0.0
  0
LINE
  5
228
330
18
100
AcDbEntity
  8
1
  6
Continuous
100
AcDbLine
 10
137.9613606861731
 20
217.0347573087497
 30
0.0
 11
160.8462406861731
 21
205.1216423087497
 31
0.0
  0
LINE
  5
22A
330
18
100
AcDbEntity
  8
4
  6
CENTER
 48
0.4
100
AcDbLine
 10
236.7244826861743
 20
343.1546663087496
 30
0.0
 11
127.5965686861731
 21
343.1546663087496
 31
0.0
  0
LINE
  5
22D
330
18
100
AcDbEntity
  8
1
  6
Continuous
100
AcDbLine
 10
53.45522268617322
 20
246.3906611087495
 30
0.0
 11
51.85976368617321
 21
243.4106628887494
 31
0.0
  0
LINE
  5
22E
330
18
100
AcDbEntity
  8
1
  6
Continuous
100
AcDbLine
 10
12.73791068617321
 20
246.3906659087497
 30
0.0
 11
14.33336968617322
 21
243.4106713587495
 31
0.0
  0
LINE
  5
22F
330
18
100
AcDbEntity
  8
4
  6
CENTER
 48
0.4
100
AcDbLine
 10
33.0965686861732
 20
253.1546663087495
 30
0.0
 11
33.0965686861732
 21
151.1546663087496
 31
0.0
  0
LINE
  5
230
330
18
100
AcDbEntity
  8
4
  6
CENTER
 48
0.4
100
AcDbLine
 10
19.0965686861732
 20
251.1546663087495
 30
0.0
 11
19.0965686861732
 21
243.6546663087496
 31
0.0
  0
LINE
  5
231
330
18
100
AcDbEntity
  8
4
  6
CENTER
 48
0.4
100
AcDbLine
 10
47.09656868617321
 20
251.1546663087495
 30
0.0
 11
47.09656868617321
 21
243.6546663087496
 31
0.0
  0
ARC
  5
233
330
18
100
AcDbEntity
  8
1
  6
Continuous
100
AcDbCircle
 10
33.0965686861732
 20
405.8392063087496
 30
0.0
 40
169.25
100
AcDbArc
 50
265.8140899999998
 51
274.1859
  0
ARC
  5
234
330
18
100
AcDbEntity
  8
1
  6
Continuous
100
AcDbCircle
 10
33.0965686861732
 20
309.3397933087496
 30
0.0
 40
70.550117
100
AcDbArc
 50
259.38165
 51
280.6183499999999
  0
ARC
  5
235
330
18
100
AcDbEntity
  8
1
  6
Continuous
100
AcDbCircle
 10
33.0965686861732
 20
207.4152753087497
 30
0.0
 40
27.639395
100
AcDbArc
 50
61.94342999999958
 51
118.0565999999996
  0
ARC
  5
236
330
18
100
AcDbEntity
  8
1
  6
Continuous
100
AcDbCircle
 10
33.0965686861732
 20
404.3646763087497
 30
0.0
 40
169.25
100
AcDbArc
 50
265.5947900000001
 51
274.40519
  0
LINE
  5
237
330
18
100
AcDbEntity
  8
1
  6
Continuous
100
AcDbLine
 10
17.39657168617321
 20
241.7546676087496
 30
0.0
 11
48.79656968617322
 21
241.7546676087496
 31
0.0
  0
LINE
  5
23A
330
18
100
AcDbEntity
  8
4
  6
CENTER
 48
0.4
100
AcDbLine
 10
10.5965686861732
 20
193.6546703087497
 30
0.0
 11
65.59637068617321
 21
193.6546703087497
 31
0.0
  0
TEXT
  5
23C
330
18
100
AcDbEntity
  8
1
  6
Continuous
 48
0.25
100
AcDbText
 10
9.999999064246617
 20
10.00000056761564
 30
0.0
 40
1.399999999999999
  1
LAYER
100
AcDbText
  0
TEXT
  5
23D
330
18
100
AcDbEntity
  8
7
  6
Continuous
 48
0.25
100
AcDbText
 10
9.999999064246617
 20
18.00000056761564
 30
0.0
 40
3.0
  1
TYPE No.TCA-315E-UR75
100
AcDbText
  0
TEXT
  5
23E
330
18
100
AcDbEntity
  8
7
  6
Continuous
 48
0.25
100
AcDbText
 10
9.999999064246617
 20
26.00000056761564
 30
0.0
 40
3.0
  1
CODE No.19228
100
AcDbText
  0
TEXT
  5
23F
330
18
100
AcDbEntity
  8
2
  6
Continuous
 48
0.25
100
AcDbText
 10
19.9795100642466
 20
9.999999806846743
 30
0.0
 40
1.399999999999999
  1
2
100
AcDbText
  0
TEXT
  5
240
330
18
100
AcDbEntity
  8
1
  6
Continuous
 48
0.25
100
AcDbText
 10
17.9795100642466
 20
9.999999806846743
 30
0.0
 40
1.399999999999999
  1
1
100
AcDbText
  0
TEXT
  5
241
330
18
100
AcDbEntity
  8
3
  6
DASHED
 48
0.25
100
AcDbText
 10
21.97951006424661
 20
9.999999806846743
 30
0.0
 40
1.399999999999999
  1
3
100
AcDbText
  0
TEXT
  5
242
330
18
100
AcDbEntity
  8
5
  6
PHANTOM
 48
0.3
100
AcDbText
 10
25.97951006424661
 20
9.999999806846743
 30
0.0
 40
1.399999999999999
  1
5
100
AcDbText
  0
TEXT
  5
243
330
18
100
AcDbEntity
  8
4
  6
CENTER
 48
0.4
100
AcDbText
 10
23.97951006424661
 20
9.999999806846743
 30
0.0
 40
1.399999999999999
  1
4
100
AcDbText
  0
TEXT
  5
244
330
18
100
AcDbEntity
  8
7
  6
Continuous
 48
0.25
100
AcDbText
 10
29.97951006424661
 20
9.999999806846743
 30
0.0
 40
1.399999999999999
  1
7
100
AcDbText
  0
TEXT
  5
245
330
18
100
AcDbEntity
  8
6
  6
Continuous
 48
0.25
100
AcDbText
 10
27.97951006424661
 20
9.999999806846743
 30
0.0
 40
1.399999999999999
  1
6
100
AcDbText
  0
LINE
  5
249
330
18
100
AcDbEntity
  8
1
  6
Continuous
100
AcDbLine
 10
20.09656868617319
 20
235.6146682087495
 30
0.0
 11
20.09656868617319
 21
183.2546723087497
 31
0.0
  0
LINE
  5
24A
330
18
100
AcDbEntity
  8
1
  6
Continuous
100
AcDbLine
 10
18.59656868617322
 20
235.0460190087495
 30
0.0
 11
18.59656868617322
 21
184.7546683087497
 31
0.0
  0
LINE
  5
24C
330
18
100
AcDbEntity
  8
1
  6
Continuous
100
AcDbLine
 10
18.59656868617322
 20
184.7546683087497
 30
0.0
 11
20.09656868617319
 21
184.7546683087497
 31
0.0
  0
LINE
  5
261
330
18
100
AcDbEntity
  8
1
  6
Continuous
100
AcDbLine
 10
14.34656868617318
 20
220.8877343087496
 30
0.0
 11
14.89768968617317
 21
239.3293458087497
 31
0.0
  0
ARC
  5
263
330
18
100
AcDbEntity
  8
1
  6
Continuous
100
AcDbCircle
 10
44.33410968617309
 20
220.0231923087495
 30
0.0
 40
30.0
100
AcDbArc
 50
178.28826
 51
210.9163499999996
  0
ARC
  5
265
330
18
100
AcDbEntity
  8
1
  6
Continuous
100
AcDbCircle
 10
20.5965686861732
 20
235.0460190087495
 30
0.0
 40
2.0
100
AcDbArc
 50
85.81401200000007
 51
179.99996
  0
LINE
  5
266
330
18
100
AcDbEntity
  8
1
  6
Continuous
100
AcDbLine
 10
16.0965686861732
 20
242.3546670687496
 30
0.0
 11
50.09656868617319
 21
242.3546671087497
 31
0.0
  0
ARC
  5
267
330
18
100
AcDbEntity
  8
1
  6
Continuous
100
AcDbCircle
 10
17.39657168617321
 20
239.2546676087496
 30
0.0
 40
2.5
100
AcDbArc
 50
89.99998199999998
 51
178.28828
  0
ARC
  5
268
330
18
100
AcDbEntity
  8
1
  6
Continuous
100
AcDbCircle
 10
16.0965686861732
 20
244.3546671087497
 30
0.0
 40
2.0
100
AcDbArc
 50
208.1641000000002
 51
270.0
  0
ARC
  5
269
330
18
100
AcDbEntity
  8
1
  6
Continuous
100
AcDbCircle
 10
21.13770668617319
 20
242.8391679587496
 30
0.0
 40
1.984500099999999
100
AcDbArc
 50
194.1311599999995
 51
213.1262299999997
  0
ARC
  5
26A
330
18
100
AcDbEntity
  8
1
  6
Continuous
100
AcDbCircle
 10
20.5965686861732
 20
242.8391679587496
 30
0.0
 40
1.984500099999999
100
AcDbArc
 50
194.1311599999995
 51
213.1262299999997
  0
ARC
  5
26D
330
18
100
AcDbEntity
  8
1
  6
Continuous
100
AcDbCircle
 10
25.65432368617321
 20
242.8391679587496
 30
0.0
 40
1.984500099999999
100
AcDbArc
 50
194.1311599999995
 51
213.1262299999997
  0
ARC
  5
26E
330
18
100
AcDbEntity
  8
1
  6
Continuous
100
AcDbCircle
 10
22.88105368617322
 20
242.8391679587496
 30
0.0
 40
1.984500099999999
100
AcDbArc
 50
194.1311599999995
 51
213.1262299999997
  0
ARC
  5
26F
330
18
100
AcDbEntity
  8
1
  6
Continuous
100
AcDbCircle
 10
29.17790568617317
 20
242.8391679587496
 30
0.0
 40
1.984500099999999
100
AcDbArc
 50
194.1311599999995
 51
213.1262299999997
  0
ARC
  5
270
330
18
100
AcDbEntity
  8
1
  6
Continuous
100
AcDbCircle
 10
25.65432368617321
 20
242.8391679587496
 30
0.0
 40
1.984500099999999
100
AcDbArc
 50
326.8737700000003
 51
332.5952099999998
  0
ARC
  5
271
330
18
100
AcDbEntity
  8
1
  6
Continuous
100
AcDbCircle
 10
29.17790568617317
 20
242.8391679587496
 30
0.0
 40
1.984500099999999
100
AcDbArc
 50
326.8737700000003
 51
345.8688299999995
  0
ARC
  5
272
330
18
100
AcDbEntity
  8
1
  6
Continuous
100
AcDbCircle
 10
33.0965686861732
 20
242.8391679587496
 30
0.0
 40
1.984500099999999
100
AcDbArc
 50
194.1311599999995
 51
213.1262299999997
  0
ARC
  5
273
330
18
100
AcDbEntity
  8
1
  6
Continuous
100
AcDbCircle
 10
33.0965686861732
 20
242.8391679587496
 30
0.0
 40
1.984500099999999
100
AcDbArc
 50
326.8737700000003
 51
345.8688399999997
  0
ARC
  5
274
330
18
100
AcDbEntity
  8
1
  6
Continuous
100
AcDbCircle
 10
37.01523168617325
 20
242.8391679587496
 30
0.0
 40
1.984500099999999
100
AcDbArc
 50
194.1311599999995
 51
213.1262299999997
  0
LINE
  5
277
330
18
100
AcDbEntity
  8
1
  6
Continuous
100
AcDbLine
 10
54.19656368617321
 20
204.6800573087497
 30
0.0
 11
55.29451868617321
 21
198.6546703087497
 31
0.0
  0
ARC
  5
279
330
18
100
AcDbEntity
  8
1
  6
Continuous
100
AcDbCircle
 10
49.09656868617322
 20
200.6546703087495
 30
0.0
 40
2.0
100
AcDbArc
 50
0.0
 51
90.00000300000015
  0
LINE
  5
27B
330
18
100
AcDbEntity
  8
1
  6
Continuous
100
AcDbLine
 10
47.59656868617319
 20
235.0460190087495
 30
0.0
 11
47.59656868617319
 21
179.8852533087496
 31
0.0
  0
LINE
  5
27C
330
18
100
AcDbEntity
  8
1
  6
Continuous
100
AcDbLine
 10
46.0965686861732
 20
206.1576913087495
 30
0.0
 11
46.0965686861732
 21
184.7546683087497
 31
0.0
  0
LINE
  5
27D
330
18
100
AcDbEntity
  8
1
  6
Continuous
100
AcDbLine
 10
49.09656868617322
 20
209.3376653087497
 30
0.0
 11
49.09656868617322
 21
179.8852533087496
 31
0.0
  0
ARC
  5
27E
330
18
100
AcDbEntity
  8
1
  6
Continuous
100
AcDbCircle
 10
63.59656868617321
 20
186.6710733087495
 30
0.0
 40
3.0
100
AcDbArc
 50
0.0
 51
65.97284500000029
  0
ARC
  5
27F
330
18
100
AcDbEntity
  8
1
  6
Continuous
100
AcDbCircle
 10
63.59656868617321
 20
184.8970563087496
 30
0.0
 40
3.0
100
AcDbArc
 50
298.7352800000002
 51
58.12501199999992
  0
ARC
  5
280
330
18
100
AcDbEntity
  8
1
  6
Continuous
100
AcDbCircle
 10
58.05877268617321
 20
194.9972753087497
 30
0.0
 40
14.51875499999998
100
AcDbArc
 50
231.8818899999998
 51
298.7352800000002
  0
LINE
  5
281
330
18
100
AcDbEntity
  8
1
  6
Continuous
100
AcDbLine
 10
47.59656868617319
 20
180.2371973087496
 30
0.0
 11
49.09656868617322
 21
180.2371973087496
 31
0.0
  0
LINE
  5
282
330
18
100
AcDbEntity
  8
1
  6
Continuous
100
AcDbLine
 10
47.59656868617319
 20
179.8852533087496
 30
0.0
 11
49.09656868617322
 21
179.8852533087496
 31
0.0
  0
LINE
  5
285
330
18
100
AcDbEntity
  8
2
  6
Continuous
100
AcDbLine
 10
50.0565676861731
 20
196.1546703087497
 30
0.0
 11
51.09656868617321
 21
196.1546703087497
 31
0.0
  0
LINE
  5
286
330
18
100
AcDbEntity
  8
1
  6
Continuous
100
AcDbLine
 10
50.85656368617321
 20
196.6546703087495
 30
0.0
 11
51.09656868617321
 21
196.6546703087495
 31
0.0
  0
LINE
  5
289
330
18
100
AcDbEntity
  8
1
  6
Continuous
100
AcDbLine
 10
50.85656368617321
 20
190.6546703087497
 30
0.0
 11
51.09656868617321
 21
190.6546703087497
 31
0.0
  0
LINE
  5
28A
330
18
100
AcDbEntity
  8
2
  6
Continuous
100
AcDbLine
 10
50.0565676861731
 20
191.1546703087497
 30
0.0
 11
51.09656868617321
 21
191.1546703087497
 31
0.0
  0
ARC
  5
28C
330
18
100
AcDbEntity
  8
1
  6
Continuous
100
AcDbCircle
 10
49.09656868617322
 20
186.0546713087497
 30
0.0
 40
2.0
100
AcDbArc
 50
270.0
 51
0.0
  0
LINE
  5
28D
330
18
100
AcDbEntity
  8
1
  6
Continuous
100
AcDbLine
 10
51.09657068617321
 20
190.5046683087497
 30
0.0
 11
49.09656868617322
 21
191.7546723087497
 31
0.0
  0
LINE
  5
28E
330
18
100
AcDbEntity
  8
1
  6
Continuous
100
AcDbLine
 10
49.09656868617322
 20
195.5546713087495
 30
0.0
 11
51.09657068617321
 21
196.8046713087495
 31
0.0
  0
LINE
  5
290
330
18
100
AcDbEntity
  8
1
  6
Continuous
100
AcDbLine
 10
46.0965686861732
 20
184.7546683087497
 30
0.0
 11
47.59656868617319
 21
184.7546683087497
 31
0.0
  0
LINE
  5
29E
330
18
100
AcDbEntity
  8
2
  6
Continuous
100
AcDbLine
 10
56.99656868617321
 20
191.1546703087497
 30
0.0
 11
61.09656968617326
 21
191.1546703087497
 31
0.0
  0
LINE
  5
29F
330
18
100
AcDbEntity
  8
1
  6
Continuous
100
AcDbLine
 10
56.99656868617321
 20
190.6546703087497
 30
0.0
 11
60.59656868617325
 21
190.6546703087497
 31
0.0
  0
LINE
  5
2A4
330
18
100
AcDbEntity
  8
1
  6
Continuous
100
AcDbLine
 10
64.81807768617321
 20
189.4111323087497
 30
0.0
 11
61.03812289672297
 21
191.0962236361926
 31
0.0
  0
LINE
  5
2A5
330
18
100
AcDbEntity
  8
1
  6
Continuous
100
AcDbLine
 10
60.01865068617322
 20
190.6546703087497
 30
0.0
 11
65.18076998617321
 21
187.4446593087496
 31
0.0
  0
LINE
  5
2A7
330
18
100
AcDbEntity
  8
2
  6
Continuous
100
AcDbLine
 10
56.99656868617321
 20
196.1546703087497
 30
0.0
 11
61.09656868617321
 21
196.1546703087497
 31
0.0
  0
LINE
  5
2A8
330
18
100
AcDbEntity
  8
1
  6
Continuous
100
AcDbLine
 10
56.99656868617321
 20
196.6546703087495
 30
0.0
 11
60.59656768617322
 21
196.6546703087495
 31
0.0
  0
LINE
  5
2B4
330
18
100
AcDbEntity
  8
1
  6
Continuous
100
AcDbLine
 10
66.59656868617322
 20
186.6710733087495
 30
0.0
 11
66.59656868617322
 21
184.8970563087496
 31
0.0
  0
LINE
  5
2B5
330
18
100
AcDbEntity
  8
1
  6
Continuous
100
AcDbLine
 10
51.84657268617321
 20
220.8877343087496
 30
0.0
 11
51.29545768617321
 21
239.3293451087495
 31
0.0
  0
LINE
  5
2B6
330
18
100
AcDbEntity
  8
1
  6
Continuous
100
AcDbLine
 10
46.0965686861732
 20
235.6146682087495
 30
0.0
 11
46.0965686861732
 21
209.3891063087496
 31
0.0
  0
ARC
  5
2B7
330
18
100
AcDbEntity
  8
1
  6
Continuous
100
AcDbCircle
 10
54.43470368617321
 20
193.6303893087495
 30
0.0
 40
23.40436599999998
100
AcDbArc
 50
67.03280799999967
 51
104.4371599999995
  0
ARC
  5
2B8
330
18
100
AcDbEntity
  8
1
  6
Continuous
100
AcDbCircle
 10
54.43470368617321
 20
194.9609063087495
 30
0.0
 40
23.40436599999998
100
AcDbArc
 50
67.03280799999967
 51
105.1044899999995
  0
LINE
  5
2B9
330
18
100
AcDbEntity
  8
1
  6
Continuous
100
AcDbLine
 10
49.09656868617322
 20
204.6800603087497
 30
0.0
 11
56.79656568617321
 21
204.6800603087497
 31
0.0
  0
LINE
  5
2BA
330
18
100
AcDbEntity
  8
1
  6
Continuous
100
AcDbLine
 10
48.98031568617311
 20
210.8580393087496
 30
0.0
 11
48.23004268617309
 21
215.7354543087496
 31
0.0
  0
LINE
  5
2BB
330
18
100
AcDbEntity
  8
1
  6
Continuous
100
AcDbLine
 10
45.59656868617319
 20
207.6715803087497
 30
0.0
 11
45.59656868617319
 21
205.8245843087497
 31
0.0
  0
LINE
  5
2BC
330
18
100
AcDbEntity
  8
1
  6
Continuous
100
AcDbLine
 10
44.9965706861731
 20
208.9455983087497
 30
0.0
 11
44.9965706861731
 21
207.0986053087497
 31
0.0
  0
LINE
  5
2BD
330
18
100
AcDbEntity
  8
1
  6
Continuous
100
AcDbLine
 10
46.66137668617309
 20
206.2680883087497
 30
0.0
 11
47.59656868617319
 21
206.2680883087497
 31
0.0
  0
LINE
  5
2BE
330
18
100
AcDbEntity
  8
1
  6
Continuous
100
AcDbLine
 10
44.9965706861731
 20
207.0986013087496
 30
0.0
 11
45.5965666861732
 21
205.8245843087497
 31
0.0
  0
ARC
  5
2BF
330
18
100
AcDbEntity
  8
1
  6
Continuous
100
AcDbCircle
 10
46.66137668617309
 20
204.7680883087497
 30
0.0
 40
1.5
100
AcDbArc
 50
90.00000300000015
 51
135.2245799999999
  0
LINE
  5
2C2
330
18
100
AcDbEntity
  8
1
  6
Continuous
100
AcDbLine
 10
46.06137768617322
 20
209.3891063087496
 30
0.0
 11
47.59656868617319
 21
209.3891063087496
 31
0.0
  0
LINE
  5
2C3
330
18
100
AcDbEntity
  8
1
  6
Continuous
100
AcDbLine
 10
46.66137668617309
 20
208.1150853087496
 30
0.0
 11
47.59656868617319
 21
208.1150853087496
 31
0.0
  0
LINE
  5
2C4
330
18
100
AcDbEntity
  8
1
  6
Continuous
100
AcDbLine
 10
44.9965686861731
 20
208.9455943087497
 30
0.0
 11
45.5965666861732
 21
207.6715803087497
 31
0.0
  0
ARC
  5
2C5
330
18
100
AcDbEntity
  8
1
  6
Continuous
100
AcDbCircle
 10
46.06137768617322
 20
207.8891063087497
 30
0.0
 40
1.5
100
AcDbArc
 50
90.00000300000015
 51
135.2245799999999
  0
ARC
  5
2C6
330
18
100
AcDbEntity
  8
1
  6
Continuous
100
AcDbCircle
 10
46.66137668617309
 20
206.6150853087497
 30
0.0
 40
1.5
100
AcDbArc
 50
90.00000300000015
 51
135.2245799999999
  0
ARC
  5
2C7
330
18
100
AcDbEntity
  8
1
  6
Continuous
100
AcDbCircle
 10
39.09656868617321
 20
209.3376653087497
 30
0.0
 40
10.0
100
AcDbArc
 50
0.0
 51
8.745020800000164
  0
ARC
  5
2C8
330
18
100
AcDbEntity
  8
1
  6
Continuous
100
AcDbCircle
 10
48.59656868617321
 20
216.5912503087497
 30
0.0
 40
1.0
100
AcDbArc
 50
105.1044899999995
 51
180.0000100000002
  0
ARC
  5
2C9
330
18
100
AcDbEntity
  8
1
  6
Continuous
100
AcDbCircle
 10
48.72423168617321
 20
215.8114733087495
 30
0.0
 40
0.5
100
AcDbArc
 50
104.4371599999995
 51
188.7450199999999
  0
LINE
  5
2CA
330
18
100
AcDbEntity
  8
1
  6
Continuous
100
AcDbLine
 10
65.39656788617321
 20
213.7525703087495
 30
0.0
 11
65.39656788617321
 21
212.4172703087496
 31
0.0
  0
ARC
  5
2CB
330
18
100
AcDbEntity
  8
1
  6
Continuous
100
AcDbCircle
 10
62.39657168617322
 20
212.4172703087496
 30
0.0
 40
3.0
100
AcDbArc
 50
305.7975199999999
 51
67.03280799999967
  0
LINE
  5
2CC
330
18
100
AcDbEntity
  8
1
  6
Continuous
100
AcDbLine
 10
56.79656968617321
 20
204.6800573087497
 30
0.0
 11
64.1513391861732
 21
209.9840003087495
 31
0.0
  0
ARC
  5
2CD
330
18
100
AcDbEntity
  8
1
  6
Continuous
100
AcDbCircle
 10
21.85902768617324
 20
220.0231923087495
 30
0.0
 40
30.0
100
AcDbArc
 50
356.5483799999999
 51
1.65138219999996
  0
ARC
  5
2CE
330
18
100
AcDbEntity
  8
1
  6
Continuous
100
AcDbCircle
 10
62.39657168617322
 20
213.7477873087497
 30
0.0
 40
3.0
100
AcDbArc
 50
0.0
 51
67.03280799999967
  0
ARC
  5
2CF
330
18
100
AcDbEntity
  8
1
  6
Continuous
100
AcDbCircle
 10
50.09656868617319
 20
244.3546671087497
 30
0.0
 40
2.0
100
AcDbArc
 50
270.0
 51
331.8358700000001
  0
ARC
  5
2D0
330
18
100
AcDbEntity
  8
1
  6
Continuous
100
AcDbCircle
 10
48.79656968617322
 20
239.2546676087496
 30
0.0
 40
2.5
100
AcDbArc
 50
1.711734899999875
 51
89.99998199999998
  0
ARC
  5
2D2
330
18
100
AcDbEntity
  8
1
  6
Continuous
100
AcDbCircle
 10
40.53881368617321
 20
242.8391679587496
 30
0.0
 40
1.984500099999999
100
AcDbArc
 50
207.40479
 51
213.1262299999997
  0
ARC
  5
2D3
330
18
100
AcDbEntity
  8
1
  6
Continuous
100
AcDbCircle
 10
37.01523168617325
 20
242.8391679587496
 30
0.0
 40
1.984500099999999
100
AcDbArc
 50
326.8737700000003
 51
345.8688399999997
  0
ARC
  5
2D4
330
18
100
AcDbEntity
  8
1
  6
Continuous
100
AcDbCircle
 10
40.53881368617321
 20
242.8391679587496
 30
0.0
 40
1.984500099999999
100
AcDbArc
 50
326.8737700000003
 51
345.8688399999997
  0
ARC
  5
2D5
330
18
100
AcDbEntity
  8
1
  6
Continuous
100
AcDbCircle
 10
45.59656868617319
 20
235.0460190087495
 30
0.0
 40
2.0
100
AcDbArc
 50
0.0
 51
94.18589800000036
  0
ARC
  5
2D6
330
18
100
AcDbEntity
  8
1
  6
Continuous
100
AcDbCircle
 10
45.05543068617321
 20
242.8391679587496
 30
0.0
 40
1.984500099999999
100
AcDbArc
 50
326.8737700000003
 51
345.8688399999997
  0
ARC
  5
2D7
330
18
100
AcDbEntity
  8
1
  6
Continuous
100
AcDbCircle
 10
43.3120836861732
 20
242.8391679587496
 30
0.0
 40
1.984500099999999
100
AcDbArc
 50
326.8737700000003
 51
345.8688399999997
  0
ARC
  5
2D8
330
18
100
AcDbEntity
  8
1
  6
Continuous
100
AcDbCircle
 10
45.59656868617319
 20
242.8391679587496
 30
0.0
 40
1.984500099999999
100
AcDbArc
 50
326.8737700000003
 51
345.8688399999997
  0
ARC
  5
2D9
330
18
100
AcDbEntity
  8
1
  6
Continuous
100
AcDbCircle
 10
164.227595686173
 20
213.0681753087495
 30
0.0
 40
20.0
100
AcDbArc
 50
192.0986499999997
 51
235.9844299999998
  0
LINE
  5
2DA
330
18
100
AcDbEntity
  8
5
  6
PHANTOM
 48
0.3
100
AcDbLine
 10
130.154937686173
 20
191.6758073087495
 30
0.0
 11
155.2420766861732
 21
197.6986953087497
 31
0.0
  0
LINE
  5
2DB
330
18
100
AcDbEntity
  8
5
  6
PHANTOM
 48
0.3
100
AcDbLine
 10
130.505103686173
 20
190.2172543087496
 30
0.0
 11
155.5922426861731
 21
196.2401463087496
 31
0.0
  0
ARC
  5
2DC
330
18
100
AcDbEntity
  8
5
  6
PHANTOM
 48
0.3
100
AcDbCircle
 10
152.9307976861731
 20
204.4558363087495
 30
0.0
 40
20.0
100
AcDbArc
 50
233.0986499999998
 51
276.9844299999998
  0
LINE
  5
2DD
330
18
100
AcDbEntity
  8
5
  6
PHANTOM
 48
0.3
100
AcDbLine
 10
130.154937686173
 20
191.6758073087495
 30
0.0
 11
130.505103686173
 21
190.2172543087496
 31
0.0
  0
ARC
  5
2DE
330
18
100
AcDbEntity
  8
5
  6
PHANTOM
 48
0.3
100
AcDbCircle
 10
139.6058306861731
 20
201.1436723087497
 30
0.0
 40
12.0
100
AcDbArc
 50
243.5554900000001
 51
267.09567
  0
ARC
  5
2DF
330
18
100
AcDbEntity
  8
5
  6
PHANTOM
 48
0.3
100
AcDbCircle
 10
132.9258726861731
 20
187.7131803087495
 30
0.0
 40
3.0
100
AcDbArc
 50
63.55549099999977
 51
103.4999999999999
  0
ARC
  5
2E0
330
18
100
AcDbEntity
  8
5
  6
PHANTOM
 48
0.3
100
AcDbCircle
 10
138.8204756861731
 20
185.6635813087495
 30
0.0
 40
3.5
100
AcDbArc
 50
53.09864500000037
 51
87.09567599999976
  0
ARC
  5
2E1
330
18
100
AcDbEntity
  8
5
  6
PHANTOM
 48
0.3
100
AcDbCircle
 10
155.6667896861732
 20
182.1228023087497
 30
0.0
 40
2.5
100
AcDbArc
 50
57.17077700000023
 51
96.98443099999961
  0
LINE
  5
2E2
330
18
100
AcDbEntity
  8
5
  6
PHANTOM
 48
0.3
100
AcDbLine
 10
151.0417816861731
 20
192.0624303087495
 30
0.0
 11
154.9312626861732
 21
192.9962113087497
 31
0.0
  0
LINE
  5
2E3
330
18
100
AcDbEntity
  8
5
  6
PHANTOM
 48
0.3
100
AcDbLine
 10
150.3414496861731
 20
194.9795413087495
 30
0.0
 11
151.0417816861731
 21
192.0624303087495
 31
0.0
  0
ARC
  5
2E4
330
18
100
AcDbEntity
  8
5
  6
PHANTOM
 48
0.3
100
AcDbCircle
 10
154.6584656861732
 20
200.1296193087497
 30
0.0
 40
4.0
100
AcDbArc
 50
283.4999999999999
 51
315.1277400000001
  0
ARC
  5
2E5
330
18
100
AcDbEntity
  8
1
  6
Continuous
100
AcDbCircle
 10
151.6406896861732
 20
194.4182463087497
 30
0.0
 40
2.5
100
AcDbArc
 50
16.17077700000005
 51
55.9844340000005
  0
LINE
  5
2E6
330
18
100
AcDbEntity
  8
5
  6
PHANTOM
 48
0.3
100
AcDbLine
 10
154.2309226861731
 20
195.9133223087495
 30
0.0
 11
154.9312626861732
 21
192.9962113087497
 31
0.0
  0
ARC
  5
2E7
330
18
100
AcDbEntity
  8
5
  6
PHANTOM
 48
0.3
100
AcDbCircle
 10
154.6584656861732
 20
200.1296193087497
 30
0.0
 40
2.5
100
AcDbArc
 50
283.4999999999999
 51
315.1277400000001
  0
ARC
  5
2E8
330
18
100
AcDbEntity
  8
1
  6
Continuous
100
AcDbCircle
 10
141.2495766861731
 20
208.1426803087496
 30
0.0
 40
3.5
100
AcDbArc
 50
12.09864700000012
 51
46.09567600000015
  0
ARC
  5
2E9
330
18
100
AcDbEntity
  8
1
  6
Continuous
100
AcDbCircle
 10
151.998149686173
 20
219.3104123087497
 30
0.0
 40
12.0
100
AcDbArc
 50
202.5554899999999
 51
226.09567
  0
LINE
  5
2EA
330
18
100
AcDbEntity
  8
1
  6
Continuous
100
AcDbLine
 10
138.6539796861731
 20
218.3652743087495
 30
0.0
 11
137.9613606861731
 21
217.0347573087497
 31
0.0
  0
ARC
  5
2EB
330
18
100
AcDbEntity
  8
1
  6
Continuous
100
AcDbCircle
 10
138.145518686173
 20
213.5567393087495
 30
0.0
 40
3.0
100
AcDbArc
 50
22.55549400000017
 51
62.50000100000033
  0
LINE
  5
2EC
330
18
100
AcDbEntity
  8
1
  6
Continuous
100
AcDbLine
 10
156.056384686173
 20
207.6150853087496
 30
0.0
 11
154.6711386861731
 21
204.9540513087495
 31
0.0
  0
LINE
  5
2ED
330
18
100
AcDbEntity
  8
1
  6
Continuous
100
AcDbLine
 10
154.6711386861731
 20
204.9540513087495
 30
0.0
 11
158.2191806861731
 21
203.1070593087497
 31
0.0
  0
LINE
  5
2F0
330
18
100
AcDbEntity
  8
1
  6
Continuous
100
AcDbLine
 10
12.09656868617321
 20
246.6546663087497
 30
0.0
 11
54.09656868617322
 21
246.6546663087495
 31
0.0
  0
LINE
  5
2F1
330
18
100
AcDbEntity
  8
1
  6
Continuous
100
AcDbLine
 10
12.09656868617321
 20
248.1546663087496
 30
0.0
 11
54.09656868617322
 21
248.1546663087495
 31
0.0
  0
ARC
  5
2F2
330
18
100
AcDbEntity
  8
1
  6
Continuous
100
AcDbCircle
 10
12.29711468617323
 20
246.1546663087496
 30
0.0
 40
0.5
100
AcDbArc
 50
28.16415700000023
 51
90.00001599999967
  0
LINE
  5
2F3
330
18
100
AcDbEntity
  8
1
  6
Continuous
100
AcDbLine
 10
12.09656868617321
 20
248.1546663087496
 30
0.0
 11
12.09656868617321
 21
246.6546663087497
 31
0.0
  0
ARC
  5
2F4
330
18
100
AcDbEntity
  8
1
  6
Continuous
100
AcDbCircle
 10
153.25669690675
 20
329.9875613087497
 30
0.0
 40
2.799999999999998
100
AcDbArc
 50
0.0000030000001391
 51
26.9064199999998
  0
ARC
  5
2F5
330
18
100
AcDbEntity
  8
1
  6
Continuous
100
AcDbCircle
 10
152.8017011067501
 20
329.5842353087496
 30
0.0
 40
2.449999999999999
100
AcDbArc
 50
0.000002999999732
 51
28.80293199999996
  0
LINE
  5
2F6
330
18
100
AcDbEntity
  8
1
  6
Continuous
100
AcDbLine
 10
54.09656868617322
 20
248.1546663087496
 30
0.0
 11
54.09656868617322
 21
246.6546663087497
 31
0.0
  0
ARC
  5
2F7
330
18
100
AcDbEntity
  8
1
  6
Continuous
100
AcDbCircle
 10
53.89602268617321
 20
246.1546663087496
 30
0.0
 40
0.5
100
AcDbArc
 50
89.9999619999996
 51
151.83583
  0
ARC
  5
2F8
330
18
100
AcDbEntity
  8
5
  6
PHANTOM
 48
0.3
100
AcDbCircle
 10
139.2279750578549
 20
320.0127901274322
 30
0.0
 40
9.084748704034264
100
AcDbArc
 50
119.6926524169422
 51
272.0351488502145
  0
ARC
  5
2F9
330
18
100
AcDbEntity
  8
1
  6
Continuous
100
AcDbCircle
 10
147.0326188208358
 20
320.1028277616468
 30
0.0
 40
9.239211647125179
100
AcDbArc
 50
112.2405982904334
 51
276.2051972878271
  0
ARC
  5
2FA
330
18
100
AcDbEntity
  8
1
  6
Continuous
100
AcDbCircle
 10
147.9118080251565
 20
320.3343523326318
 30
0.0
 40
9.40099766686704
100
AcDbArc
 50
117.742835788811
 51
270.5397570813626
  0
LINE
  5
2FB
330
18
100
AcDbEntity
  8
1
  6
Continuous
100
AcDbLine
 10
155.4433670067781
 20
328.6546663087495
 30
0.0
 11
143.5356073360589
 21
328.6546663087495
 31
0.0
  0
ARC
  5
2FC
330
18
100
AcDbEntity
  8
1
  6
Continuous
100
AcDbCircle
 10
147.5720763257705
 20
317.8148836326744
 30
0.0
 40
6.912406277841513
100
AcDbArc
 50
273.8090751831364
 51
300.0847519521664
  0
LINE
  5
2FD
330
18
100
AcDbEntity
  8
1
  6
Continuous
100
AcDbLine
 10
155.25170670675
 20
329.1546523087496
 30
0.0
 11
156.05670250675
 21
327.0546523087496
 31
0.0
  0
LINE
  5
2FE
330
18
100
AcDbEntity
  8
1
  6
Continuous
100
AcDbLine
 10
155.25170110675
 20
329.5842354370313
 30
0.0
 11
155.25170670675
 21
329.1546523087496
 31
0.0
  0
LINE
  5
2FF
330
18
100
AcDbEntity
  8
1
  6
Continuous
100
AcDbLine
 10
156.0566969067501
 20
329.9875613087497
 30
0.0
 11
156.0566969067501
 21
327.0546663087495
 31
0.0
  0
LINE
  5
303
330
18
100
AcDbEntity
  8
1
  6
Continuous
100
AcDbLine
 10
154.94858640675
 20
330.7646523087496
 30
0.0
 11
155.75359760675
 21
331.2546663087496
 31
0.0
  0
LINE
  5
306
330
18
100
AcDbEntity
  8
1
  6
Continuous
100
AcDbLine
 10
219.4552286861731
 20
246.3906609087497
 30
0.0
 11
217.859768686173
 21
243.4106631287495
 31
0.0
  0
LINE
  5
307
330
18
100
AcDbEntity
  8
1
  6
Continuous
100
AcDbLine
 10
178.7379086861731
 20
246.3906647087497
 30
0.0
 11
180.3333686861731
 21
243.4106702287496
 31
0.0
  0
LINE
  5
308
330
18
100
AcDbEntity
  8
4
  6
CENTER
 48
0.4
100
AcDbLine
 10
171.0965686861731
 20
243.6546663087496
 30
0.0
 11
171.0965686861731
 21
251.1546663087495
 31
0.0
  0
LINE
  5
309
330
18
100
AcDbEntity
  8
4
  6
CENTER
 48
0.4
100
AcDbLine
 10
199.0965686861731
 20
253.1546663087495
 30
0.0
 11
199.0965686861731
 21
214.8141363087496
 31
0.0
  0
LINE
  5
30A
330
18
100
AcDbEntity
  8
4
  6
CENTER
 48
0.4
100
AcDbLine
 10
227.096568686173
 20
243.6546663087496
 30
0.0
 11
227.096568686173
 21
251.1546663087495
 31
0.0
  0
LINE
  5
30B
330
18
100
AcDbEntity
  8
4
  6
CENTER
 48
0.4
100
AcDbLine
 10
170.0965686861731
 20
236.1546692087496
 30
0.0
 11
170.0965686861731
 21
151.1546663087496
 31
0.0
  0
LINE
  5
30C
330
18
100
AcDbEntity
  8
5
  6
PHANTOM
 48
0.3
100
AcDbLine
 10
188.353778686173
 20
198.1406813087495
 30
0.0
 11
194.2732686861731
 21
203.4698023087496
 31
0.0
  0
LINE
  5
30D
330
18
100
AcDbEntity
  8
5
  6
PHANTOM
 48
0.3
100
AcDbLine
 10
186.3465486861731
 20
200.3702693087495
 30
0.0
 11
191.2744486861731
 21
204.8066823087496
 31
0.0
  0
LINE
  5
30E
330
18
100
AcDbEntity
  8
5
  6
PHANTOM
 48
0.3
100
AcDbLine
 10
189.3193386861731
 20
203.0465653087496
 30
0.0
 11
191.3265686861731
 21
200.8169783087497
 31
0.0
  0
ARC
  5
310
330
18
100
AcDbEntity
  8
5
  6
PHANTOM
 48
0.3
100
AcDbCircle
 10
180.6919586861731
 20
211.1207003087495
 30
0.0
 40
20.0
100
AcDbArc
 50
289.4151199999997
 51
341.14917
  0
ARC
  5
311
330
18
100
AcDbEntity
  8
1
  6
Continuous
100
AcDbCircle
 10
170.0965686861731
 20
199.5546713087497
 30
0.0
 40
3.099999899999998
100
AcDbArc
 50
0.0
 51
180.0000100000002
  0
LINE
  5
312
330
18
100
AcDbEntity
  8
1
  6
Continuous
100
AcDbLine
 10
194.4271686861731
 20
214.8488213087496
 30
0.0
 11
182.8333486861731
 21
197.7020373087496
 31
0.0
  0
ARC
  5
313
330
18
100
AcDbEntity
  8
5
  6
PHANTOM
 48
0.3
100
AcDbCircle
 10
171.053691686173
 20
189.6679533087495
 30
0.0
 40
15.0
100
AcDbArc
 50
71.87225700000026
 51
135.1277399999995
  0
ARC
  5
314
330
18
100
AcDbEntity
  8
1
  6
Continuous
100
AcDbCircle
 10
168.2033956861731
 20
190.0179243087496
 30
0.0
 40
16.5
100
AcDbArc
 50
30.87225699999988
 51
94.12773900000015
  0
ARC
  5
315
330
18
100
AcDbEntity
  8
1
  6
Continuous
100
AcDbCircle
 10
168.2033956861731
 20
190.0179243087496
 30
0.0
 40
15.0
100
AcDbArc
 50
30.87225699999988
 51
94.12773900000015
  0
LINE
  5
318
330
18
100
AcDbEntity
  8
1
  6
Continuous
100
AcDbLine
 10
186.8185486861731
 20
185.0624993087495
 30
0.0
 11
194.782258686173
 21
185.2009003087495
 31
0.0
  0
LINE
  5
319
330
18
100
AcDbEntity
  8
1
  6
Continuous
100
AcDbLine
 10
186.766418686173
 20
188.0620453087496
 30
0.0
 11
193.3960786861731
 21
188.1772603087497
 31
0.0
  0
LINE
  5
31A
330
18
100
AcDbEntity
  8
1
  6
Continuous
100
AcDbLine
 10
185.4881586861731
 20
193.9849463087496
 30
0.0
 11
208.8165386861731
 21
181.8409573087496
 31
0.0
  0
ARC
  5
31B
330
18
100
AcDbEntity
  8
1
  6
Continuous
100
AcDbCircle
 10
189.5517486861729
 20
199.8852533087497
 30
0.0
 40
20.0
100
AcDbArc
 50
248.4151199999998
 51
300.1491700000002
  0
LINE
  5
31C
330
18
100
AcDbEntity
  8
1
  6
Continuous
100
AcDbLine
 10
184.7955386861731
 20
192.6544293087497
 30
0.0
 11
208.1239286861731
 21
180.5104403087497
 31
0.0
  0
ARC
  5
31E
330
18
100
AcDbEntity
  8
5
  6
PHANTOM
 48
0.3
100
AcDbCircle
 10
174.3609586861731
 20
188.7490573087496
 30
0.0
 40
3.099999899999998
100
AcDbArc
 50
220.9999900000001
 51
41.00000000000018
  0
CIRCLE
  5
322
330
18
100
AcDbEntity
  8
2
  6
Continuous
100
AcDbCircle
 10
170.0965686861731
 20
193.6546703087497
 30
0.0
 40
2.5
  0
CIRCLE
  5
323
330
18
100
AcDbEntity
  8
1
  6
Continuous
100
AcDbCircle
 10
170.0965686861731
 20
193.6546703087497
 30
0.0
 40
3.0
  0
ARC
  5
325
330
18
100
AcDbEntity
  8
1
  6
Continuous
100
AcDbCircle
 10
170.0965686861731
 20
187.1546703087497
 30
0.0
 40
3.099999899999998
100
AcDbArc
 50
179.9999899999995
 51
0.0000100179130762
  0
LINE
  5
326
330
18
100
AcDbEntity
  8
1
  6
Continuous
100
AcDbLine
 10
166.9965706861731
 20
187.1546703087497
 30
0.0
 11
166.9965706861731
 21
187.9415264806988
 31
0.0
  0
LINE
  5
328
330
18
100
AcDbEntity
  8
1
  6
Continuous
100
AcDbLine
 10
173.196568686173
 20
187.1546703087497
 30
0.0
 11
173.196568686173
 21
187.9415275659152
 31
0.0
  0
LINE
  5
329
330
18
100
AcDbEntity
  8
5
  6
PHANTOM
 48
0.3
100
AcDbLine
 10
172.0213506861731
 20
186.7152783087495
 30
0.0
 11
171.5051296100648
 21
187.3091241444162
 31
0.0
  0
ARC
  5
32A
330
18
100
AcDbEntity
  8
5
  6
PHANTOM
 48
0.3
100
AcDbCircle
 10
166.2258256861731
 20
198.1074553087497
 30
0.0
 40
3.099999899999998
100
AcDbArc
 50
41.00000000000018
 51
221.0000099999999
  0
LINE
  5
32C
330
18
100
AcDbEntity
  8
5
  6
PHANTOM
 48
0.3
100
AcDbLine
 10
164.0088091777888
 20
195.932648396457
 30
0.0
 11
163.8862186861731
 21
196.0736723087497
 31
0.0
  0
LINE
  5
32D
330
18
100
AcDbEntity
  8
1
  6
Continuous
100
AcDbLine
 10
166.9965706861731
 20
199.3678141368004
 30
0.0
 11
166.9965706861731
 21
199.5546713087497
 31
0.0
  0
LINE
  5
32F
330
18
100
AcDbEntity
  8
5
  6
PHANTOM
 48
0.3
100
AcDbLine
 10
168.6880113251849
 20
200.0002172639621
 30
0.0
 11
168.5654256861732
 21
200.1412383087497
 31
0.0
  0
LINE
  5
330
330
18
100
AcDbEntity
  8
1
  6
Continuous
100
AcDbLine
 10
173.196568686173
 20
199.367813051584
 30
0.0
 11
173.196568686173
 21
199.5546713087497
 31
0.0
  0
ARC
  5
331
330
18
100
AcDbEntity
  8
5
  6
PHANTOM
 48
0.3
100
AcDbCircle
 10
188.1711886861729
 20
189.9001653087497
 30
0.0
 40
2.5
100
AcDbArc
 50
109.4151199999996
 51
149.7416899999999
  0
ARC
  5
332
330
18
100
AcDbEntity
  8
1
  6
Continuous
100
AcDbCircle
 10
181.274468686173
 20
178.9630923087497
 30
0.0
 40
2.5
100
AcDbArc
 50
68.41511600000031
 51
108.74169
  0
LINE
  5
333
330
18
100
AcDbEntity
  8
5
  6
PHANTOM
 48
0.3
100
AcDbLine
 10
176.7005486861731
 20
190.7828443087495
 30
0.0
 11
176.184326981184
 21
191.3766889783768
 31
0.0
  0
LINE
  5
334
330
18
100
AcDbEntity
  8
1
  6
Continuous
100
AcDbLine
 10
186.766418686173
 20
188.0620453087496
 30
0.0
 11
186.8185486861731
 21
185.0624993087495
 31
0.0
  0
LINE
  5
335
330
18
100
AcDbEntity
  8
1
  6
Continuous
100
AcDbLine
 10
184.4967386861731
 20
194.9196583087496
 30
0.0
 11
182.3655686861731
 21
198.4844963087495
 31
0.0
  0
LINE
  5
336
330
18
100
AcDbEntity
  8
1
  6
Continuous
100
AcDbLine
 10
183.2092586861729
 20
194.1499703087496
 30
0.0
 11
181.0780986861731
 21
197.7148053087495
 31
0.0
  0
ARC
  5
337
330
18
100
AcDbEntity
  8
1
  6
Continuous
100
AcDbCircle
 10
186.6425286861731
 20
196.2024723087496
 30
0.0
 40
2.5
100
AcDbArc
 50
210.8722599999998
 51
242.5
  0
ARC
  5
338
330
18
100
AcDbEntity
  8
1
  6
Continuous
100
AcDbCircle
 10
186.6425286861731
 20
196.2024723087496
 30
0.0
 40
4.0
100
AcDbArc
 50
210.8722599999998
 51
242.5
  0
LINE
  5
339
330
18
100
AcDbEntity
  8
5
  6
PHANTOM
 48
0.3
100
AcDbLine
 10
186.3465486861731
 20
200.3702693087495
 30
0.0
 11
188.353778686173
 21
198.1406813087495
 31
0.0
  0
LINE
  5
33A
330
18
100
AcDbEntity
  8
1
  6
Continuous
100
AcDbLine
 10
208.8165386861731
 20
181.8409573087496
 30
0.0
 11
208.1239286861731
 21
180.5104403087497
 31
0.0
  0
LINE
  5
33B
330
18
100
AcDbEntity
  8
1
  6
Continuous
100
AcDbLine
 10
190.765808686173
 20
188.1315533087495
 30
0.0
 11
190.8179386861731
 21
185.1320033087495
 31
0.0
  0
LINE
  5
33C
330
18
100
AcDbEntity
  8
1
  6
Continuous
100
AcDbLine
 10
194.742718686173
 20
187.4762453087496
 30
0.0
 11
194.782258686173
 21
185.2009003087495
 31
0.0
  0
ARC
  5
33D
330
18
100
AcDbEntity
  8
1
  6
Continuous
100
AcDbCircle
 10
201.8569486861731
 20
178.6995883087497
 30
0.0
 40
4.5
100
AcDbArc
 50
62.50000100000033
 51
120.1491700000001
  0
LINE
  5
33E
330
18
100
AcDbEntity
  8
1
  6
Continuous
100
AcDbLine
 10
182.0965686861731
 20
242.3546670687496
 30
0.0
 11
216.0965686861731
 21
242.3546671087497
 31
0.0
  0
LINE
  5
33F
330
18
100
AcDbEntity
  8
5
  6
PHANTOM
 48
0.3
100
AcDbLine
 10
181.4960686861731
 20
204.0017203087495
 30
0.0
 11
207.0693886861731
 21
210.1413343087497
 31
0.0
  0
LINE
  5
340
330
18
100
AcDbEntity
  8
5
  6
PHANTOM
 48
0.3
100
AcDbLine
 10
181.8462286861731
 20
202.5431703087496
 30
0.0
 11
207.4195686861731
 21
208.6827843087497
 31
0.0
  0
LINE
  5
341
330
18
100
AcDbEntity
  8
1
  6
Continuous
100
AcDbLine
 10
183.3541386861731
 20
241.7546675087495
 30
0.0
 11
214.8389986861729
 21
241.7546675087495
 31
0.0
  0
LINE
  5
342
330
18
100
AcDbEntity
  8
1
  6
Continuous
100
AcDbLine
 10
187.503898686173
 20
239.9977485087497
 30
0.0
 11
187.503898686173
 21
207.0562813087494
 31
0.0
  0
LINE
  5
343
330
18
100
AcDbEntity
  8
1
  6
Continuous
100
AcDbLine
 10
164.9965706861731
 20
234.7162117087497
 30
0.0
 11
163.3804126861732
 21
206.2659833087495
 31
0.0
  0
LINE
  5
344
330
18
100
AcDbEntity
  8
1
  6
Continuous
100
AcDbLine
 10
162.9811516861731
 20
204.6800603087497
 30
0.0
 11
167.123690686173
 21
204.9790183087495
 31
0.0
  0
LINE
  5
345
330
18
100
AcDbEntity
  8
1
  6
Continuous
100
AcDbLine
 10
162.873179686173
 20
206.1761693087496
 30
0.0
 11
167.0157196861731
 21
206.4751273087497
 31
0.0
  0
ARC
  5
346
330
18
100
AcDbEntity
  8
1
  6
Continuous
100
AcDbCircle
 10
162.6932326861731
 20
208.6696843087497
 30
0.0
 40
2.5
100
AcDbArc
 50
242.5
 51
274.1277399999995
  0
ARC
  5
347
330
18
100
AcDbEntity
  8
1
  6
Continuous
100
AcDbCircle
 10
162.6932326861731
 20
208.6696843087497
 30
0.0
 40
4.0
100
AcDbArc
 50
242.5
 51
274.1277399999995
  0
LINE
  5
348
330
18
100
AcDbEntity
  8
5
  6
PHANTOM
 48
0.3
100
AcDbLine
 10
179.6678986861731
 20
202.6311833087495
 30
0.0
 11
175.7207486861729
 21
203.9234303087495
 31
0.0
  0
LINE
  5
349
330
18
100
AcDbEntity
  8
5
  6
PHANTOM
 48
0.3
100
AcDbLine
 10
180.134608686173
 20
204.0567313087497
 30
0.0
 11
176.1874486861731
 21
205.3489793087496
 31
0.0
  0
ARC
  5
34A
330
18
100
AcDbEntity
  8
5
  6
PHANTOM
 48
0.3
100
AcDbCircle
 10
180.9124586861731
 20
206.4326433087495
 30
0.0
 40
4.0
100
AcDbArc
 50
251.8722599999999
 51
283.4999999999999
  0
ARC
  5
34B
330
18
100
AcDbEntity
  8
5
  6
PHANTOM
 48
0.3
100
AcDbCircle
 10
180.9124586861731
 20
206.4326433087495
 30
0.0
 40
2.5
100
AcDbArc
 50
251.8722599999999
 51
283.4999999999999
  0
LINE
  5
34C
330
18
100
AcDbEntity
  8
1
  6
Continuous
100
AcDbLine
 10
163.196093686173
 20
235.9218792087496
 30
0.0
 11
186.3114986861731
 21
239.9977483087496
 31
0.0
  0
LINE
  5
34D
330
18
100
AcDbEntity
  8
1
  6
Continuous
100
AcDbLine
 10
163.456569686173
 20
234.4446672087497
 30
0.0
 11
163.196093686173
 21
235.9218787087495
 31
0.0
  0
LINE
  5
34E
330
18
100
AcDbEntity
  8
1
  6
Continuous
100
AcDbLine
 10
164.9965706861731
 20
234.7162126087496
 30
0.0
 11
164.7360946861732
 21
236.1934241087495
 31
0.0
  0
LINE
  5
34F
330
18
100
AcDbEntity
  8
1
  6
Continuous
100
AcDbLine
 10
163.456569686173
 20
234.4446672087497
 30
0.0
 11
164.9965706861731
 21
234.7162117087497
 31
0.0
  0
ARC
  5
350
330
18
100
AcDbEntity
  8
1
  6
Continuous
100
AcDbCircle
 10
183.3541386861731
 20
238.7546676087497
 30
0.0
 40
3.0
100
AcDbArc
 50
90.00000300000015
 51
141.7268599999995
  0
LINE
  5
351
330
18
100
AcDbEntity
  8
1
  6
Continuous
100
AcDbLine
 10
179.5766286861731
 20
238.8102063087495
 30
0.0
 11
180.9989386861731
 21
240.6128973087495
 31
0.0
  0
ARC
  5
352
330
18
100
AcDbEntity
  8
1
  6
Continuous
100
AcDbCircle
 10
182.0965686861731
 20
244.3546671087497
 30
0.0
 40
2.0
100
AcDbArc
 50
208.1641000000002
 51
270.0
  0
ARC
  5
353
330
18
100
AcDbEntity
  8
1
  6
Continuous
100
AcDbCircle
 10
186.5965686861731
 20
242.8391679587496
 30
0.0
 40
1.984500099999999
100
AcDbArc
 50
194.1311599999995
 51
213.1262299999997
  0
ARC
  5
354
330
18
100
AcDbEntity
  8
1
  6
Continuous
100
AcDbCircle
 10
187.1377086861731
 20
242.8391679587496
 30
0.0
 40
1.984500099999999
100
AcDbArc
 50
194.1311599999995
 51
213.1262299999997
  0
ARC
  5
355
330
18
100
AcDbEntity
  8
1
  6
Continuous
100
AcDbCircle
 10
191.6543186861732
 20
242.8391679587496
 30
0.0
 40
1.984500099999999
100
AcDbArc
 50
194.1311599999995
 51
213.1262299999997
  0
ARC
  5
356
330
18
100
AcDbEntity
  8
1
  6
Continuous
100
AcDbCircle
 10
188.881048686173
 20
242.8391679587496
 30
0.0
 40
1.984500099999999
100
AcDbArc
 50
194.1311599999995
 51
213.1262299999997
  0
ARC
  5
357
330
18
100
AcDbEntity
  8
1
  6
Continuous
100
AcDbCircle
 10
244.131528686173
 20
181.2411413087495
 30
0.0
 40
60.0
100
AcDbArc
 50
116.2474999999997
 51
145.93537
  0
LINE
  5
358
330
18
100
AcDbEntity
  8
5
  6
PHANTOM
 48
0.3
100
AcDbLine
 10
192.7506686861731
 20
205.1610863087497
 30
0.0
 11
194.2732686861731
 21
203.4698023087496
 31
0.0
  0
ARC
  5
359
330
18
100
AcDbEntity
  8
5
  6
PHANTOM
 48
0.3
100
AcDbCircle
 10
203.8778486861731
 20
203.2046163087497
 30
0.0
 40
4.5
100
AcDbArc
 50
103.4999999999999
 51
161.14917
  0
LINE
  5
35A
330
18
100
AcDbEntity
  8
5
  6
PHANTOM
 48
0.3
100
AcDbLine
 10
207.0693886861731
 20
210.1413343087497
 30
0.0
 11
207.4195686861731
 21
208.6827843087497
 31
0.0
  0
ARC
  5
35C
330
18
100
AcDbEntity
  8
1
  6
Continuous
100
AcDbCircle
 10
191.6543186861732
 20
242.8391679587496
 30
0.0
 40
1.984500099999999
100
AcDbArc
 50
326.8737700000003
 51
332.5952099999998
  0
ARC
  5
35D
330
18
100
AcDbEntity
  8
1
  6
Continuous
100
AcDbCircle
 10
195.177908686173
 20
242.8391679587496
 30
0.0
 40
1.984500099999999
100
AcDbArc
 50
194.1311599999995
 51
213.1262299999997
  0
ARC
  5
35E
330
18
100
AcDbEntity
  8
1
  6
Continuous
100
AcDbCircle
 10
195.177908686173
 20
242.8391679587496
 30
0.0
 40
1.984500099999999
100
AcDbArc
 50
326.8737700000003
 51
345.8688299999995
  0
ARC
  5
35F
330
18
100
AcDbEntity
  8
1
  6
Continuous
100
AcDbCircle
 10
199.0965686861731
 20
242.8391679587496
 30
0.0
 40
1.984500099999999
100
AcDbArc
 50
194.1311599999995
 51
213.1262299999997
  0
ARC
  5
360
330
18
100
AcDbEntity
  8
1
  6
Continuous
100
AcDbCircle
 10
199.0965686861731
 20
242.8391679587496
 30
0.0
 40
1.984500099999999
100
AcDbArc
 50
326.8737700000003
 51
345.8688399999997
  0
ARC
  5
361
330
18
100
AcDbEntity
  8
1
  6
Continuous
100
AcDbCircle
 10
203.015238686173
 20
242.8391679587496
 30
0.0
 40
1.984500099999999
100
AcDbArc
 50
194.1311599999995
 51
213.1262299999997
  0
ARC
  5
362
330
18
100
AcDbEntity
  8
1
  6
Continuous
100
AcDbCircle
 10
203.015238686173
 20
242.8391679587496
 30
0.0
 40
1.984500099999999
100
AcDbArc
 50
326.8737700000003
 51
345.8688399999997
  0
ARC
  5
363
330
18
100
AcDbEntity
  8
1
  6
Continuous
100
AcDbCircle
 10
206.5388186861731
 20
242.8391679587496
 30
0.0
 40
1.984500099999999
100
AcDbArc
 50
207.40479
 51
213.1262299999997
  0
ARC
  5
364
330
18
100
AcDbEntity
  8
1
  6
Continuous
100
AcDbCircle
 10
211.5965686861732
 20
242.8391679587496
 30
0.0
 40
1.984500099999999
100
AcDbArc
 50
326.8737700000003
 51
345.8688399999997
  0
ARC
  5
365
330
18
100
AcDbEntity
  8
1
  6
Continuous
100
AcDbCircle
 10
206.5388186861731
 20
242.8391679587496
 30
0.0
 40
1.984500099999999
100
AcDbArc
 50
326.8737700000003
 51
345.8688399999997
  0
ARC
  5
366
330
18
100
AcDbEntity
  8
1
  6
Continuous
100
AcDbCircle
 10
211.055428686173
 20
242.8391679587496
 30
0.0
 40
1.984500099999999
100
AcDbArc
 50
326.8737700000003
 51
345.8688399999997
  0
ARC
  5
367
330
18
100
AcDbEntity
  8
1
  6
Continuous
100
AcDbCircle
 10
209.3120886861731
 20
242.8391679587496
 30
0.0
 40
1.984500099999999
100
AcDbArc
 50
326.8737700000003
 51
345.8688399999997
  0
ARC
  5
368
330
18
100
AcDbEntity
  8
1
  6
Continuous
100
AcDbCircle
 10
214.8389986861729
 20
239.2546676087496
 30
0.0
 40
2.5
100
AcDbArc
 50
3.893010200000041
 51
89.99998199999998
  0
LINE
  5
369
330
18
100
AcDbEntity
  8
1
  6
Continuous
100
AcDbLine
 10
217.5965686861732
 20
235.0546678087496
 30
0.0
 11
217.3344686861731
 21
239.4050142087496
 31
0.0
  0
ARC
  5
36A
330
18
100
AcDbEntity
  8
1
  6
Continuous
100
AcDbCircle
 10
216.0965686861731
 20
244.3546671087497
 30
0.0
 40
2.0
100
AcDbArc
 50
270.0
 51
331.8358700000001
  0
LINE
  5
36B
330
18
100
AcDbEntity
  8
4
  6
CENTER
 48
0.4
100
AcDbLine
 10
170.0965686861731
 20
369.1546663087496
 30
0.0
 11
170.0965686861731
 21
311.7909913772472
 31
0.0
  0
CIRCLE
  5
36C
330
18
100
AcDbEntity
  8
1
  6
Continuous
100
AcDbCircle
 10
227.096568686173
 20
329.1546663087497
 30
0.0
 40
3.249999799999998
  0
LINE
  5
36D
330
18
100
AcDbEntity
  8
4
  6
CENTER
 48
0.4
100
AcDbLine
 10
227.096568686173
 20
320.9046665087496
 30
0.0
 11
227.096568686173
 21
337.4046661087496
 31
0.0
  0
ARC
  5
36E
330
18
100
AcDbEntity
  8
1
  6
Continuous
100
AcDbCircle
 10
227.096568686173
 20
329.1546663087497
 30
0.0
 40
7.0
100
AcDbArc
 50
270.0
 51
19.18274177944092
  0
CIRCLE
  5
36F
330
18
100
AcDbEntity
  8
1
  6
Continuous
100
AcDbCircle
 10
171.0965686861731
 20
329.1546583087496
 30
0.0
 40
3.249999799999998
  0
LINE
  5
370
330
18
100
AcDbEntity
  8
4
  6
CENTER
 48
0.4
100
AcDbLine
 10
171.0965686861731
 20
320.9046585087496
 30
0.0
 11
171.0965686861731
 21
337.4046581087497
 31
0.0
  0
ARC
  5
371
330
18
100
AcDbEntity
  8
1
  6
Continuous
100
AcDbCircle
 10
156.8366969067501
 20
329.9875613087497
 30
0.0
 40
2.799999999999998
100
AcDbArc
 50
0.0000030000001391
 51
26.9064199999998
  0
ARC
  5
372
330
18
100
AcDbEntity
  8
1
  6
Continuous
100
AcDbCircle
 10
171.0965686861731
 20
329.1546663087497
 30
0.0
 40
7.0
100
AcDbArc
 50
160.827803274199
 51
269.9999499999996
  0
CIRCLE
  5
373
330
18
100
AcDbEntity
  8
1
  6
Continuous
100
AcDbCircle
 10
199.0965686861731
 20
343.1546663087496
 30
0.0
 40
17.5
  0
CIRCLE
  5
374
330
18
100
AcDbEntity
  8
1
  6
Continuous
100
AcDbCircle
 10
199.0965686861731
 20
343.1546663087496
 30
0.0
 40
16.5
  0
LINE
  5
375
330
18
100
AcDbEntity
  8
4
  6
CENTER
 48
0.4
100
AcDbLine
 10
199.0965686861731
 20
369.1546663087496
 30
0.0
 11
199.0965686861731
 21
317.1546663087497
 31
0.0
  0
LINE
  5
376
330
18
100
AcDbEntity
  8
4
  6
CENTER
 48
0.4
100
AcDbLine
 10
235.346568486173
 20
329.1546663087497
 30
0.0
 11
218.8465688861731
 21
329.1546663087497
 31
0.0
  0
LINE
  5
377
330
18
100
AcDbEntity
  8
1
  6
Continuous
100
AcDbLine
 10
227.096568686173
 20
322.1546663087497
 30
0.0
 11
199.0965686861731
 21
322.1546663087497
 31
0.0
  0
LINE
  5
37A
330
18
100
AcDbEntity
  8
1
  6
Continuous
100
AcDbLine
 10
164.0965686861731
 20
248.1546663087496
 30
0.0
 11
234.0965686861731
 21
248.1546663087496
 31
0.0
  0
LINE
  5
37B
330
18
100
AcDbEntity
  8
1
  6
Continuous
100
AcDbLine
 10
164.0965686861731
 20
246.6546663087497
 30
0.0
 11
234.0965686861731
 21
246.6546663087497
 31
0.0
  0
LINE
  5
37C
330
18
100
AcDbEntity
  8
1
  6
Continuous
100
AcDbLine
 10
164.0965686861731
 20
246.6546663087497
 30
0.0
 11
164.0965686861731
 21
248.1546625087496
 31
0.0
  0
ARC
  5
37D
330
18
100
AcDbEntity
  8
1
  6
Continuous
100
AcDbCircle
 10
178.2971186861731
 20
246.1546663087496
 30
0.0
 40
0.5
100
AcDbArc
 50
28.16415700000023
 51
90.00001599999967
  0
ARC
  5
37E
330
18
100
AcDbEntity
  8
1
  6
Continuous
100
AcDbCircle
 10
219.8960186861731
 20
246.1546663087496
 30
0.0
 40
0.5
100
AcDbArc
 50
89.9999619999996
 51
151.83583
  0
LINE
  5
37F
330
18
100
AcDbEntity
  8
1
  6
Continuous
100
AcDbLine
 10
185.1586278711188
 20
318.4411176907797
 30
0.0
 11
194.3901630629209
 21
311.5122013543191
 31
0.0
  0
LINE
  5
380
330
18
100
AcDbEntity
  8
1
  6
Continuous
100
AcDbLine
 10
185.4826155532609
 20
318.9036930364234
 30
0.0
 11
194.3901630629209
 21
311.5122013543191
 31
0.0
  0
LINE
  5
381
330
18
100
AcDbEntity
  8
1
  6
Continuous
100
AcDbLine
 10
171.0965686861731
 20
322.1546663087497
 30
0.0
 11
199.0965686861731
 21
322.1546663087497
 31
0.0
  0
LINE
  5
382
330
18
100
AcDbEntity
  8
4
  6
CENTER
 48
0.4
100
AcDbLine
 10
162.8465688861768
 20
329.1546663087497
 30
0.0
 11
179.3465684861692
 21
329.1546663087497
 31
0.0
  0
LINE
  5
38B
330
18
100
AcDbEntity
  8
1
  6
Continuous
100
AcDbLine
 10
167.0965686861731
 20
315.6546673087494
 30
0.0
 11
167.0965686861731
 21
319.2546663087496
 31
0.0
  0
LINE
  5
38C
330
18
100
AcDbEntity
  8
2
  6
Continuous
100
AcDbLine
 10
167.596568686173
 20
315.1546663087496
 30
0.0
 11
167.596568686173
 21
319.2546663087495
 31
0.0
  0
LINE
  5
390
330
18
100
AcDbEntity
  8
1
  6
Continuous
100
AcDbLine
 10
173.0965686861731
 20
315.6546663087496
 30
0.0
 11
173.0965686861731
 21
319.2546663087496
 31
0.0
  0
LINE
  5
391
330
18
100
AcDbEntity
  8
2
  6
Continuous
100
AcDbLine
 10
172.5965686861731
 20
315.1546653087494
 30
0.0
 11
172.5965686861731
 21
319.2546663087496
 31
0.0
  0
ARC
  5
393
330
18
100
AcDbEntity
  8
1
  6
Continuous
100
AcDbCircle
 10
172.5172157452531
 20
278.8884392478601
 30
0.0
 40
43.33635964466478
100
AcDbArc
 50
92.64457291890499
 51
103.778590455995
  0
LINE
  5
394
330
18
100
AcDbEntity
  8
1
  6
Continuous
100
AcDbLine
 10
161.5335498806116
 20
326.1616466705053
 30
0.0
 11
161.5335498806116
 21
321.7307583450037
 31
0.0
  0
ARC
  5
395
330
18
100
AcDbEntity
  8
1
  6
Continuous
100
AcDbCircle
 10
163.3866234977173
 20
316.1216066663639
 30
0.0
 40
5.0
100
AcDbArc
 50
103.778590455995
 51
131.6348556998305
  0
LINE
  5
397
330
18
100
AcDbEntity
  8
1
  6
Continuous
100
AcDbLine
 10
164.1683654558976
 20
330.1546663087497
 30
0.0
 11
162.6086386861731
 21
330.1546663087497
 31
0.0
  0
LINE
  5
398
330
18
100
AcDbEntity
  8
1
  6
Continuous
100
AcDbLine
 10
163.9965706861731
 20
328.6546663087495
 30
0.0
 11
159.63669690675
 21
328.6546663087495
 31
0.0
  0
LINE
  5
399
330
18
100
AcDbEntity
  8
1
  6
Continuous
100
AcDbLine
 10
162.6086386861731
 20
330.1546663087497
 30
0.0
 11
162.6086386861731
 21
328.6546663087495
 31
0.0
  0
LINE
  5
39A
330
18
100
AcDbEntity
  8
1
  6
Continuous
100
AcDbLine
 10
159.63669690675
 20
329.9875613087497
 30
0.0
 11
159.63669690675
 21
327.0546663087495
 31
0.0
  0
ARC
  5
39B
330
18
100
AcDbEntity
  8
1
  6
Continuous
100
AcDbCircle
 10
163.9965706861731
 20
329.6546663087497
 30
0.0
 40
1.0
100
AcDbArc
 50
270.0
 51
276.7412835549108
  0
ARC
  5
39E
330
18
100
AcDbEntity
  8
1
  6
Continuous
100
AcDbCircle
 10
176.209471358487
 20
309.2131180547679
 30
0.0
 40
13.41262266419801
100
AcDbArc
 50
46.26099529200356
 51
62.03406318293384
  0
ARC
  5
3A0
330
18
100
AcDbEntity
  8
1
  6
Continuous
100
AcDbCircle
 10
170.5266973157274
 20
301.094652304676
 30
0.0
 40
22.69346278488784
100
AcDbArc
 50
49.85200772114811
 51
63.96754778507812
  0
ARC
  5
3A1
330
18
100
AcDbEntity
  8
1
  6
Continuous
100
AcDbCircle
 10
172.5172157452531
 20
278.8884392478601
 30
0.0
 40
43.33635964466478
100
AcDbArc
 50
76.68296222350527
 51
86.73990749609719
  0
LINE
  5
3A3
330
18
100
AcDbEntity
  8
1
  6
Continuous
100
AcDbLine
 10
182.2609050291243
 20
322.1546663087497
 30
0.0
 11
182.2609050291244
 21
321.4149074689081
 31
0.0
  0
ARC
  5
3A4
330
18
100
AcDbEntity
  8
1
  6
Continuous
100
AcDbCircle
 10
200.2676380791929
 20
318.0825668288866
 30
0.0
 40
8.460141317057507
100
AcDbArc
 50
264.9963177448158
 51
28.77214533358591
  0
ARC
  5
3A5
330
18
100
AcDbEntity
  8
1
  6
Continuous
100
AcDbCircle
 10
201.1410029850488
 20
322.1519079814651
 30
0.0
 40
12.60068239286785
100
AcDbArc
 50
237.605080108424
 51
262.6534419917736
  0
LINE
  5
3A6
330
18
100
AcDbEntity
  8
1
  6
Continuous
100
AcDbLine
 10
234.0965686861731
 20
246.6546663087497
 30
0.0
 11
234.0965686861731
 21
248.1546663087496
 31
0.0
  0
LINE
  5
3A7
330
18
100
AcDbEntity
  8
4
  6
CENTER
 48
0.4
100
AcDbLine
 10
235.346568486173
 20
357.1546663087497
 30
0.0
 11
218.8465688861731
 21
357.1546663087497
 31
0.0
  0
LINE
  5
3A8
330
18
100
AcDbEntity
  8
1
  6
Continuous
100
AcDbLine
 10
227.096568686173
 20
364.1546663087495
 30
0.0
 11
199.0965686861731
 21
364.1546663087495
 31
0.0
  0
LINE
  5
3A9
330
18
100
AcDbEntity
  8
1
  6
Continuous
100
AcDbLine
 10
171.0965686861731
 20
364.1546663087495
 30
0.0
 11
199.0965686861731
 21
364.1546663087495
 31
0.0
  0
LINE
  5
3AA
330
18
100
AcDbEntity
  8
4
  6
CENTER
 48
0.4
100
AcDbLine
 10
171.0965686861731
 20
365.4046661087495
 30
0.0
 11
171.0965686861731
 21
348.9046665087496
 31
0.0
  0
ARC
  5
3AB
330
18
100
AcDbEntity
  8
1
  6
Continuous
100
AcDbCircle
 10
130.968654686173
 20
343.1546583087496
 30
0.0
 40
35.499996
100
AcDbArc
 50
340.7549285136608
 51
19.24223388269588
  0
LINE
  5
3B0
330
18
100
AcDbEntity
  8
4
  6
CENTER
 48
0.4
100
AcDbLine
 10
162.8465688861732
 20
357.1546663087497
 30
0.0
 11
179.3465684861731
 21
357.1546663087497
 31
0.0
  0
ARC
  5
3B1
330
18
100
AcDbEntity
  8
1
  6
Continuous
100
AcDbCircle
 10
171.0965686861731
 20
357.1546563087496
 30
0.0
 40
7.0
100
AcDbArc
 50
89.99998199999998
 51
199.1866338041169
  0
LINE
  5
3B2
330
18
100
AcDbEntity
  8
1
  6
Continuous
100
AcDbLine
 10
162.6086386861731
 20
357.6546663087496
 30
0.0
 11
162.6086386861731
 21
356.1546663087497
 31
0.0
  0
LINE
  5
3B3
330
18
100
AcDbEntity
  8
1
  6
Continuous
100
AcDbLine
 10
159.6965746861731
 20
356.1546663087497
 30
0.0
 11
164.168361686173
 21
356.1546663087497
 31
0.0
  0
LINE
  5
3B4
330
18
100
AcDbEntity
  8
1
  6
Continuous
100
AcDbLine
 10
163.9965706861731
 20
357.6546663087496
 30
0.0
 11
162.6086386861731
 21
357.6546663087496
 31
0.0
  0
ARC
  5
3B5
330
18
100
AcDbEntity
  8
1
  6
Continuous
100
AcDbCircle
 10
163.9965706861731
 20
356.6546663087497
 30
0.0
 40
1.0
100
AcDbArc
 50
83.2586760400988
 51
90.00000300000015
  0
CIRCLE
  5
3B6
330
18
100
AcDbEntity
  8
1
  6
Continuous
100
AcDbCircle
 10
171.0965686861731
 20
357.1546663087497
 30
0.0
 40
3.249999799999998
  0
CIRCLE
  5
3B7
330
18
100
AcDbEntity
  8
1
  6
Continuous
100
AcDbCircle
 10
199.0965686861731
 20
343.1546663087496
 30
0.0
 40
7.75
  0
CIRCLE
  5
3B8
330
18
100
AcDbEntity
  8
1
  6
Continuous
100
AcDbCircle
 10
199.0965686861731
 20
343.1546663087496
 30
0.0
 40
6.75
  0
LINE
  5
3B9
330
18
100
AcDbEntity
  8
4
  6
CENTER
 48
0.4
100
AcDbLine
 10
227.096568686173
 20
365.4046661087495
 30
0.0
 11
227.096568686173
 21
348.9046665087496
 31
0.0
  0
ARC
  5
3BA
330
18
100
AcDbEntity
  8
1
  6
Continuous
100
AcDbCircle
 10
267.224478686173
 20
343.1546743087495
 30
0.0
 40
35.499996
100
AcDbArc
 50
160.7508325525016
 51
199.2430186894868
  0
ARC
  5
3BC
330
18
100
AcDbEntity
  8
1
  6
Continuous
100
AcDbCircle
 10
227.096568686173
 20
357.1546663087497
 30
0.0
 40
7.0
100
AcDbArc
 50
340.8485648767616
 51
89.99996799999987
  0
CIRCLE
  5
3BD
330
18
100
AcDbEntity
  8
1
  6
Continuous
100
AcDbCircle
 10
227.096568686173
 20
357.1546663087497
 30
0.0
 40
3.249999799999998
  0
ARC
  5
5A9
330
18
100
AcDbEntity
  8
1
  6
Continuous
100
AcDbCircle
 10
227.096568686173
 20
47.15466630874971
 30
0.0
 40
7.0
100
AcDbArc
 50
270.000032
 51
19.15143512323833
  0
ARC
  5
5AA
330
18
100
AcDbEntity
  8
1
  6
Continuous
100
AcDbCircle
 10
267.224478686173
 20
61.15465830874985
 30
0.0
 40
35.499996
100
AcDbArc
 50
160.756981310513
 51
199.249167447498
  0
ARC
  5
5AB
330
18
100
AcDbEntity
  8
1
  6
Continuous
100
AcDbCircle
 10
227.096568686173
 20
75.15466630874971
 30
0.0
 40
7.0
100
AcDbArc
 50
340.8172582205589
 51
90.00000000000005
  0
LINE
  5
5AF
330
18
100
AcDbEntity
  8
4
  6
CENTER
 48
0.4
100
AcDbLine
 10
236.7244826861743
 20
61.15466630874982
 30
0.0
 11
127.5965686861731
 21
61.15466630874982
 31
0.0
  0
LINE
  5
5B0
330
18
100
AcDbEntity
  8
4
  6
CENTER
 48
0.4
100
AcDbLine
 10
235.346568486173
 20
47.15466630874971
 30
0.0
 11
218.8465688861731
 21
47.15466630874971
 31
0.0
  0
LINE
  5
5B1
330
18
100
AcDbEntity
  8
4
  6
CENTER
 48
0.4
100
AcDbLine
 10
235.346568486173
 20
75.15466630874971
 30
0.0
 11
218.8465688861731
 21
75.15466630874971
 31
0.0
  0
ARC
  5
5B5
330
18
100
AcDbEntity
  8
5
  6
PHANTOM
 48
0.3
100
AcDbCircle
 10
139.2279750578549
 20
84.29654249006722
 30
0.0
 40
9.084748704034264
100
AcDbArc
 50
87.96485114978541
 51
240.3073475830577
  0
LINE
  5
5B6
330
18
100
AcDbEntity
  8
4
  6
CENTER
 48
0.4
100
AcDbLine
 10
170.0965686861731
 20
35.15466630874977
 30
0.0
 11
170.0965686861731
 21
92.5183412402522
 31
0.0
  0
LINE
  5
5B7
330
18
100
AcDbEntity
  8
1
  6
Continuous
100
AcDbLine
 10
185.1586278711188
 20
85.86821492671953
 30
0.0
 11
194.3901630629209
 21
92.79713126318023
 31
0.0
  0
ARC
  5
5B9
330
18
100
AcDbEntity
  8
1
  6
Continuous
100
AcDbCircle
 10
200.2676380791929
 20
86.22676578861272
 30
0.0
 40
8.460141317057507
100
AcDbArc
 50
330.0139176325965
 51
95.0036822551841
  0
LINE
  5
5BA
330
18
100
AcDbEntity
  8
1
  6
Continuous
100
AcDbLine
 10
160.0647184462733
 20
84.45075567707785
 30
0.0
 11
151.037130647698
 21
92.47564945764263
 31
0.0
  0
ARC
  5
5BB
330
18
100
AcDbEntity
  8
1
  6
Continuous
100
AcDbCircle
 10
147.0326188208358
 20
84.20650485585253
 30
0.0
 40
9.239211647125179
100
AcDbArc
 50
83.79480271217275
 51
247.7594017095665
  0
ARC
  5
5BD
330
18
100
AcDbEntity
  8
1
  6
Continuous
100
AcDbCircle
 10
147.5720763257705
 20
86.49444898482489
 30
0.0
 40
6.912406277841513
100
AcDbArc
 50
59.91524804783349
 51
86.19092481686346
  0
ARC
  5
5BE
330
18
100
AcDbEntity
  8
1
  6
Continuous
100
AcDbCircle
 10
201.1410029850488
 20
82.15742463603417
 30
0.0
 40
12.60068239286785
100
AcDbArc
 50
97.34655800822613
 51
122.3949198915759
  0
LINE
  5
5C1
330
18
100
AcDbEntity
  8
4
  6
CENTER
 48
0.4
100
AcDbLine
 10
162.8465688861732
 20
47.15466630874971
 30
0.0
 11
179.3465684861731
 21
47.15466630874971
 31
0.0
  0
LINE
  5
5C2
330
18
100
AcDbEntity
  8
4
  6
CENTER
 48
0.4
100
AcDbLine
 10
162.8465688861768
 20
75.15466630874971
 30
0.0
 11
179.3465684861692
 21
75.15466630874971
 31
0.0
  0
LINE
  5
5C9
330
18
100
AcDbEntity
  8
1
  6
Continuous
100
AcDbLine
 10
171.0965686861731
 20
40.15466630874977
 30
0.0
 11
199.0965686861731
 21
40.15466630874977
 31
0.0
  0
ARC
  5
5CB
330
18
100
AcDbEntity
  8
1
  6
Continuous
100
AcDbCircle
 10
171.0965686861731
 20
47.15467630874974
 30
0.0
 40
7.0
100
AcDbArc
 50
184.0961258188755
 51
270.0000179999999
  0
LINE
  5
5CC
330
18
100
AcDbEntity
  8
4
  6
CENTER
 48
0.4
100
AcDbLine
 10
171.0965686861731
 20
38.90466650874975
 30
0.0
 11
171.0965686861731
 21
55.40466610874978
 31
0.0
  0
LINE
  5
5CD
330
18
100
AcDbEntity
  8
1
  6
Continuous
100
AcDbLine
 10
162.6086386861731
 20
46.65466630874981
 30
0.0
 11
162.6086386861731
 21
48.15466630874971
 31
0.0
  0
LINE
  5
5D6
330
18
100
AcDbEntity
  8
4
  6
CENTER
 48
0.4
100
AcDbLine
 10
171.0965686861731
 20
83.40467410874977
 30
0.0
 11
171.0965686861731
 21
66.90467450874972
 31
0.0
  0
ARC
  5
5E1
330
18
100
AcDbEntity
  8
1
  6
Continuous
100
AcDbCircle
 10
172.5172157452531
 20
125.420893369639
 30
0.0
 40
43.33635964466478
100
AcDbArc
 50
256.221409544005
 51
259.1007419585717
  0
ARC
  5
5E2
330
18
100
AcDbEntity
  8
1
  6
Continuous
100
AcDbCircle
 10
163.3866234977173
 20
88.18772595113552
 30
0.0
 40
5.0
100
AcDbArc
 50
228.3651443001692
 51
256.221409544005
  0
LINE
  5
5EB
330
18
100
AcDbEntity
  8
1
  6
Continuous
100
AcDbLine
 10
167.0965686861731
 20
88.65466530874988
 30
0.0
 11
167.0965686861731
 21
85.05466630874986
 31
0.0
  0
LINE
  5
5EC
330
18
100
AcDbEntity
  8
2
  6
Continuous
100
AcDbLine
 10
167.596568686173
 20
89.15466630874986
 30
0.0
 11
167.596568686173
 21
85.05466630874984
 31
0.0
  0
LINE
  5
5ED
330
18
100
AcDbEntity
  8
1
  6
Continuous
100
AcDbLine
 10
185.8300937310609
 20
74.15466630874971
 30
0.0
 11
162.6086386861731
 21
74.15466630874971
 31
0.0
  0
LINE
  5
5EE
330
18
100
AcDbEntity
  8
1
  6
Continuous
100
AcDbLine
 10
202.7797929369546
 20
75.65466630874981
 30
0.0
 11
143.5356073360589
 21
75.65466630874983
 31
0.0
  0
LINE
  5
5F2
330
18
100
AcDbEntity
  8
1
  6
Continuous
100
AcDbLine
 10
162.6086386861731
 20
74.15466630874971
 30
0.0
 11
162.6086386861731
 21
75.65466630874983
 31
0.0
  0
LINE
  5
5F7
330
18
100
AcDbEntity
  8
1
  6
Continuous
100
AcDbLine
 10
159.6965746861731
 20
48.15466630874971
 30
0.0
 11
185.8300937310617
 21
48.15466630874972
 31
0.0
  0
LINE
  5
5FA
330
18
100
AcDbEntity
  8
1
  6
Continuous
100
AcDbLine
 10
185.9817156136019
 20
46.65466630874981
 30
0.0
 11
162.6086386861731
 21
46.65466630874981
 31
0.0
  0
LINE
  5
5FC
330
18
100
AcDbEntity
  8
4
  6
CENTER
 48
0.4
100
AcDbLine
 10
227.096568686173
 20
38.90466650874975
 30
0.0
 11
227.096568686173
 21
55.40466610874978
 31
0.0
  0
LINE
  5
5FD
330
18
100
AcDbEntity
  8
4
  6
CENTER
 48
0.4
100
AcDbLine
 10
199.0965686861731
 20
35.15466630874977
 30
0.0
 11
199.0965686861731
 21
87.15466630874969
 31
0.0
  0
CIRCLE
  5
5FE
330
18
100
AcDbEntity
  8
1
  6
Continuous
100
AcDbCircle
 10
227.096568686173
 20
47.15466630874971
 30
0.0
 40
3.249999799999998
  0
LINE
  5
601
330
18
100
AcDbEntity
  8
1
  6
Continuous
100
AcDbLine
 10
227.096568686173
 20
82.15466630874971
 30
0.0
 11
207.6832969798356
 21
82.15466630874969
 31
0.0
  0
ARC
  5
604
330
18
100
AcDbEntity
  8
1
  6
Continuous
100
AcDbCircle
 10
172.5172157452531
 20
125.420893369639
 30
0.0
 40
43.33635964466478
100
AcDbArc
 50
274.4373147103162
 51
280.5965163803678
  0
LINE
  5
60A
330
18
100
AcDbEntity
  8
1
  6
Continuous
100
AcDbLine
 10
173.0965686861731
 20
88.65466630874982
 30
0.0
 11
173.0965686861731
 21
85.05466630874986
 31
0.0
  0
LINE
  5
60B
330
18
100
AcDbEntity
  8
2
  6
Continuous
100
AcDbLine
 10
172.5965686861731
 20
89.1546673087498
 30
0.0
 11
172.5965686861731
 21
85.05466630874984
 31
0.0
  0
ARC
  5
60D
330
18
100
AcDbEntity
  8
1
  6
Continuous
100
AcDbCircle
 10
170.5266973157274
 20
103.2146803128232
 30
0.0
 40
22.69346278488784
100
AcDbArc
 50
296.0324522149218
 51
310.1479922788519
  0
LINE
  5
60F
330
18
100
AcDbEntity
  8
4
  6
CENTER
 48
0.4
100
AcDbLine
 10
227.096568686173
 20
83.40466610874978
 30
0.0
 11
227.096568686173
 21
66.90466650874975
 31
0.0
  0
CIRCLE
  5
610
330
18
100
AcDbEntity
  8
1
  6
Continuous
100
AcDbCircle
 10
227.096568686173
 20
75.15466630874971
 30
0.0
 40
3.249999799999998
  0
LINE
  5
611
330
18
100
AcDbEntity
  8
1
  6
Continuous
100
AcDbLine
 10
227.096568686173
 20
40.15466630874977
 30
0.0
 11
199.0965686861731
 21
40.15466630874977
 31
0.0
  0
LINE
  5
6CA
330
18
100
AcDbEntity
  8
4
  6
CENTER
 48
0.4
100
AcDbLine
 10
331.2244826861742
 20
253.1546663087495
 30
0.0
 11
331.2244826861742
 21
151.1546663087496
 31
0.0
  0
LINE
  5
6CB
330
18
100
AcDbEntity
  8
1
  6
Continuous
100
AcDbLine
 10
312.4744786861743
 20
220.8877343087496
 30
0.0
 11
313.0255936861741
 21
239.3293451087495
 31
0.0
  0
LINE
  5
6CE
330
18
100
AcDbEntity
  8
1
  6
Continuous
100
AcDbLine
 10
349.9744826861741
 20
220.8877343087496
 30
0.0
 11
349.4233616861742
 21
239.3293458087497
 31
0.0
  0
LINE
  5
6CF
330
18
100
AcDbEntity
  8
1
  6
Continuous
100
AcDbLine
 10
316.7244826861743
 20
204.6095949585746
 30
0.0
 11
316.7244826861742
 21
179.8852533087496
 31
0.0
  0
LINE
  5
6D1
330
18
100
AcDbEntity
  8
1
  6
Continuous
100
AcDbLine
 10
344.2244826861741
 20
231.8065884338363
 30
0.0
 11
344.2244826861741
 21
183.2546723087497
 31
0.0
  0
LINE
  5
6D2
330
18
100
AcDbEntity
  8
1
  6
Continuous
100
AcDbLine
 10
345.7244826861741
 20
204.6095949585743
 30
0.0
 11
345.7244826861741
 21
184.7546683087497
 31
0.0
  0
LINE
  5
6D3
330
18
100
AcDbEntity
  8
4
  6
CENTER
 48
0.4
100
AcDbLine
 10
353.7244826861741
 20
193.6546703087497
 30
0.0
 11
298.7246806861742
 21
193.6546703087497
 31
0.0
  0
LINE
  5
6D6
330
18
100
AcDbEntity
  8
1
  6
Continuous
100
AcDbLine
 10
316.7244826861742
 20
179.8852533087496
 30
0.0
 11
315.2244826861742
 21
179.8852533087496
 31
0.0
  0
LINE
  5
6DA
330
18
100
AcDbEntity
  8
1
  6
Continuous
100
AcDbLine
 10
318.2244826861742
 20
231.8065884338363
 30
0.0
 11
318.2244826861742
 21
188.2004444790011
 31
0.0
  0
LINE
  5
6E0
330
18
100
AcDbEntity
  8
1
  6
Continuous
100
AcDbLine
 10
345.7244826861741
 20
184.7546683087497
 30
0.0
 11
344.2244826861741
 21
184.7546683087497
 31
0.0
  0
LINE
  5
6E2
330
18
100
AcDbEntity
  8
1
  6
Continuous
100
AcDbLine
 10
318.2244826861742
 20
184.7546683087497
 30
0.0
 11
316.7244826861742
 21
184.7546683087497
 31
0.0
  0
ARC
  5
6EB
330
18
100
AcDbEntity
  8
1
  6
Continuous
100
AcDbCircle
 10
319.9869416861744
 20
220.0231923087495
 30
0.0
 40
30.0
100
AcDbArc
 50
329.0836500000001
 51
13.61463558939985
  0
LINE
  5
6F4
330
18
100
AcDbEntity
  8
1
  6
Continuous
100
AcDbLine
 10
319.3244806861744
 20
208.9455983087497
 30
0.0
 11
319.3244806861744
 21
207.0986053087497
 31
0.0
  0
LINE
  5
6FF
330
18
100
AcDbEntity
  8
1
  6
Continuous
100
AcDbLine
 10
319.3244806861744
 20
207.0986013087496
 30
0.0
 11
318.7244846861742
 21
205.8245843087497
 31
0.0
  0
ARC
  5
700
330
18
100
AcDbEntity
  8
1
  6
Continuous
100
AcDbCircle
 10
317.6596746861743
 20
204.7680883087497
 30
0.0
 40
1.5
100
AcDbArc
 50
44.77542000000006
 51
67.88055620068472
  0
LINE
  5
704
330
18
100
AcDbEntity
  8
1
  6
Continuous
100
AcDbLine
 10
318.2596736861742
 20
209.3891063087496
 30
0.0
 11
318.2244826861742
 21
209.3891063087495
 31
0.0
  0
ARC
  5
707
330
18
100
AcDbEntity
  8
1
  6
Continuous
100
AcDbCircle
 10
318.2596736861742
 20
207.8891063087497
 30
0.0
 40
1.5
100
AcDbArc
 50
44.77542000000006
 51
89.99999699999987
  0
ARC
  5
709
330
18
100
AcDbEntity
  8
1
  6
Continuous
100
AcDbCircle
 10
300.7244826861742
 20
184.8970563087496
 30
0.0
 40
3.0
100
AcDbArc
 50
180.0
 51
241.2647199999998
  0
LINE
  5
70A
330
18
100
AcDbEntity
  8
1
  6
Continuous
100
AcDbLine
 10
297.7244826861742
 20
186.6710733087495
 30
0.0
 11
297.7244826861742
 21
184.8970563087496
 31
0.0
  0
LINE
  5
70C
330
18
100
AcDbEntity
  8
1
  6
Continuous
100
AcDbLine
 10
315.2244826861742
 20
183.5747910687777
 30
0.0
 11
315.2244826861742
 21
179.8852533087496
 31
0.0
  0
ARC
  5
70D
330
18
100
AcDbEntity
  8
1
  6
Continuous
100
AcDbCircle
 10
306.2622786861743
 20
194.9972753087497
 30
0.0
 40
14.51875499999998
100
AcDbArc
 50
241.2647199999998
 51
308.1181122373021
  0
LINE
  5
70E
330
18
100
AcDbEntity
  8
1
  6
Continuous
100
AcDbLine
 10
307.5244816861742
 20
204.6800573087497
 30
0.0
 11
300.1697121861742
 21
209.9840003087495
 31
0.0
  0
LINE
  5
70F
330
18
100
AcDbEntity
  8
1
  6
Continuous
100
AcDbLine
 10
299.5029736861742
 20
189.4111323087497
 30
0.0
 11
308.0352718821325
 21
193.214802588959
 31
0.0
  0
LINE
  5
72F
330
18
100
AcDbEntity
  8
1
  6
Continuous
100
AcDbLine
 10
310.1244882328387
 20
204.6800603087497
 30
0.0
 11
307.5244856861742
 21
204.6800603087497
 31
0.0
  0
LINE
  5
737
330
18
100
AcDbEntity
  8
1
  6
Continuous
100
AcDbLine
 10
310.4593865502613
 20
206.5179243087496
 30
0.0
 11
308.0352718821325
 21
193.214802588959
 31
0.0
  0
ARC
  5
73B
330
18
100
AcDbEntity
  8
1
  6
Continuous
100
AcDbCircle
 10
300.7244826861742
 20
186.6710733087495
 30
0.0
 40
3.0
100
AcDbArc
 50
114.0271549999996
 51
180.0
  0
ARC
  5
73D
330
18
100
AcDbEntity
  8
1
  6
Continuous
100
AcDbCircle
 10
309.8863476861743
 20
194.9609063087495
 30
0.0
 40
23.40436599999998
100
AcDbArc
 50
83.54768263269903
 51
112.9671920000003
  0
ARC
  5
741
330
18
100
AcDbEntity
  8
1
  6
Continuous
100
AcDbCircle
 10
342.4620236861741
 20
220.0231923087495
 30
0.0
 40
30.0
100
AcDbArc
 50
166.3853644106
 51
210.9163826342193
  0
LINE
  5
742
330
18
100
AcDbEntity
  8
1
  6
Continuous
100
AcDbLine
 10
298.9244834861742
 20
213.7525703087495
 30
0.0
 11
298.9244834861742
 21
212.4172703087496
 31
0.0
  0
ARC
  5
743
330
18
100
AcDbEntity
  8
1
  6
Continuous
100
AcDbCircle
 10
301.9244796861741
 20
213.7477873087497
 30
0.0
 40
3.0
100
AcDbArc
 50
112.9671920000003
 51
180.0
  0
ARC
  5
744
330
18
100
AcDbEntity
  8
1
  6
Continuous
100
AcDbCircle
 10
301.9244796861741
 20
212.4172703087496
 30
0.0
 40
3.0
100
AcDbArc
 50
179.908805457845
 51
234.20248
  0
LINE
  5
746
330
18
100
AcDbEntity
  8
1
  6
Continuous
100
AcDbLine
 10
348.2244826861741
 20
242.3546670687496
 30
0.0
 11
314.2244826861742
 21
242.3546671087497
 31
0.0
  0
LINE
  5
747
330
18
100
AcDbEntity
  8
1
  6
Continuous
100
AcDbLine
 10
352.2244826861741
 20
248.1546663087496
 30
0.0
 11
310.2244826861742
 21
248.1546663087495
 31
0.0
  0
LINE
  5
748
330
18
100
AcDbEntity
  8
1
  6
Continuous
100
AcDbLine
 10
352.2244826861741
 20
246.6546663087497
 30
0.0
 11
310.2244826861742
 21
246.6546663087495
 31
0.0
  0
LINE
  5
74A
330
18
100
AcDbEntity
  8
1
  6
Continuous
100
AcDbLine
 10
346.9244796861741
 20
241.7546676087496
 30
0.0
 11
315.5244816861742
 21
241.7546676087496
 31
0.0
  0
ARC
  5
74B
330
18
100
AcDbEntity
  8
1
  6
Continuous
100
AcDbCircle
 10
346.9244796861741
 20
239.2546676087496
 30
0.0
 40
2.5
100
AcDbArc
 50
1.711719999999956
 51
90.00001800000005
  0
ARC
  5
74C
330
18
100
AcDbEntity
  8
1
  6
Continuous
100
AcDbCircle
 10
352.0239366861741
 20
246.1546663087496
 30
0.0
 40
0.5
100
AcDbArc
 50
89.99998400000034
 51
151.8358429999997
  0
LINE
  5
74D
330
18
100
AcDbEntity
  8
1
  6
Continuous
100
AcDbLine
 10
352.2244826861741
 20
248.1546663087496
 30
0.0
 11
352.2244826861741
 21
246.6546663087497
 31
0.0
  0
LINE
  5
74E
330
18
100
AcDbEntity
  8
1
  6
Continuous
100
AcDbLine
 10
351.5831406861741
 20
246.3906659087497
 30
0.0
 11
349.9876816861741
 21
243.4106713587495
 31
0.0
  0
ARC
  5
74F
330
18
100
AcDbEntity
  8
1
  6
Continuous
100
AcDbCircle
 10
348.2244826861741
 20
244.3546671087497
 30
0.0
 40
2.0
100
AcDbArc
 50
270.0
 51
331.8358999999996
  0
LINE
  5
750
330
18
100
AcDbEntity
  8
4
  6
CENTER
 48
0.4
100
AcDbLine
 10
317.2244826861742
 20
251.1546663087495
 30
0.0
 11
317.2244826861742
 21
243.6546663087496
 31
0.0
  0
LINE
  5
751
330
18
100
AcDbEntity
  8
4
  6
CENTER
 48
0.4
100
AcDbLine
 10
345.2244826861741
 20
251.1546663087495
 30
0.0
 11
345.2244826861741
 21
243.6546663087496
 31
0.0
  0
ARC
  5
758
330
18
100
AcDbEntity
  8
1
  6
Continuous
100
AcDbCircle
 10
343.1833446861742
 20
242.8391679587496
 30
0.0
 40
1.984500099999999
100
AcDbArc
 50
326.8737700000002
 51
345.8688400000001
  0
ARC
  5
759
330
18
100
AcDbEntity
  8
1
  6
Continuous
100
AcDbCircle
 10
343.7244826861741
 20
242.8391679587496
 30
0.0
 40
1.984500099999999
100
AcDbArc
 50
326.8737700000002
 51
345.8688400000001
  0
ARC
  5
75A
330
18
100
AcDbEntity
  8
1
  6
Continuous
100
AcDbCircle
 10
338.6667276861742
 20
242.8391679587496
 30
0.0
 40
1.984500099999999
100
AcDbArc
 50
326.8737700000002
 51
345.8688400000001
  0
ARC
  5
75B
330
18
100
AcDbEntity
  8
1
  6
Continuous
100
AcDbCircle
 10
341.4399976861742
 20
242.8391679587496
 30
0.0
 40
1.984500099999999
100
AcDbArc
 50
326.8737700000002
 51
345.8688400000001
  0
ARC
  5
75C
330
18
100
AcDbEntity
  8
1
  6
Continuous
100
AcDbCircle
 10
335.1431456861742
 20
242.8391679587496
 30
0.0
 40
1.984500099999999
100
AcDbArc
 50
326.8737700000002
 51
345.8688400000001
  0
ARC
  5
75D
330
18
100
AcDbEntity
  8
1
  6
Continuous
100
AcDbCircle
 10
338.6667276861742
 20
242.8391679587496
 30
0.0
 40
1.984500099999999
100
AcDbArc
 50
207.40479
 51
213.1262299999997
  0
ARC
  5
75E
330
18
100
AcDbEntity
  8
1
  6
Continuous
100
AcDbCircle
 10
335.1431456861742
 20
242.8391679587496
 30
0.0
 40
1.984500099999999
100
AcDbArc
 50
194.1311700000004
 51
213.1262299999997
  0
ARC
  5
75F
330
18
100
AcDbEntity
  8
1
  6
Continuous
100
AcDbCircle
 10
331.2244826861742
 20
242.8391679587496
 30
0.0
 40
1.984500099999999
100
AcDbArc
 50
326.8737700000002
 51
345.8688400000001
  0
ARC
  5
760
330
18
100
AcDbEntity
  8
1
  6
Continuous
100
AcDbCircle
 10
331.2244826861742
 20
242.8391679587496
 30
0.0
 40
1.984500099999999
100
AcDbArc
 50
194.1311600000002
 51
213.1262299999997
  0
ARC
  5
761
330
18
100
AcDbEntity
  8
1
  6
Continuous
100
AcDbCircle
 10
327.3058196861741
 20
242.8391679587496
 30
0.0
 40
1.984500099999999
100
AcDbArc
 50
326.8737700000002
 51
345.8688400000001
  0
ARC
  5
762
330
18
100
AcDbEntity
  8
1
  6
Continuous
100
AcDbCircle
 10
323.7822376861742
 20
242.8391679587496
 30
0.0
 40
1.984500099999999
100
AcDbArc
 50
326.8737700000002
 51
332.5952099999998
  0
ARC
  5
763
330
18
100
AcDbEntity
  8
1
  6
Continuous
100
AcDbCircle
 10
327.3058196861741
 20
242.8391679587496
 30
0.0
 40
1.984500099999999
100
AcDbArc
 50
194.1311600000002
 51
213.1262299999997
  0
ARC
  5
764
330
18
100
AcDbEntity
  8
1
  6
Continuous
100
AcDbCircle
 10
323.7822376861742
 20
242.8391679587496
 30
0.0
 40
1.984500099999999
100
AcDbArc
 50
194.1311600000002
 51
213.1262299999997
  0
ARC
  5
765
330
18
100
AcDbEntity
  8
1
  6
Continuous
100
AcDbCircle
 10
319.2656206861741
 20
242.8391679587496
 30
0.0
 40
1.984500099999999
100
AcDbArc
 50
194.1311600000002
 51
213.1262299999997
  0
ARC
  5
766
330
18
100
AcDbEntity
  8
1
  6
Continuous
100
AcDbCircle
 10
321.0089676861743
 20
242.8391679587496
 30
0.0
 40
1.984500099999999
100
AcDbArc
 50
194.1311600000002
 51
213.1262299999997
  0
ARC
  5
767
330
18
100
AcDbEntity
  8
1
  6
Continuous
100
AcDbCircle
 10
318.7244826861742
 20
242.8391679587496
 30
0.0
 40
1.984500099999999
100
AcDbArc
 50
194.1311600000002
 51
213.1262299999997
  0
LINE
  5
76A
330
18
100
AcDbEntity
  8
1
  6
Continuous
100
AcDbLine
 10
310.2244826861742
 20
248.1546663087496
 30
0.0
 11
310.2244826861742
 21
246.6546663087497
 31
0.0
  0
ARC
  5
76B
330
18
100
AcDbEntity
  8
1
  6
Continuous
100
AcDbCircle
 10
310.4250286861743
 20
246.1546663087496
 30
0.0
 40
0.5
100
AcDbArc
 50
28.16416999999999
 51
90.0000380000004
  0
LINE
  5
76C
330
18
100
AcDbEntity
  8
1
  6
Continuous
100
AcDbLine
 10
310.8658286861742
 20
246.3906611087495
 30
0.0
 11
312.4612876861742
 21
243.4106628887494
 31
0.0
  0
ARC
  5
76D
330
18
100
AcDbEntity
  8
1
  6
Continuous
100
AcDbCircle
 10
315.5244816861742
 20
239.2546676087496
 30
0.0
 40
2.5
100
AcDbArc
 50
90.00001800000005
 51
178.2882651
  0
ARC
  5
76E
330
18
100
AcDbEntity
  8
1
  6
Continuous
100
AcDbCircle
 10
314.2244826861742
 20
244.3546671087497
 30
0.0
 40
2.0
100
AcDbArc
 50
208.1641299999996
 51
270.0
  0
LINE
  5
7F3
330
18
100
AcDbEntity
  8
4
  6
CENTER
 48
0.4
100
AcDbLine
 10
492.3523966861753
 20
236.1546692087496
 30
0.0
 11
492.3523966861753
 21
151.1546663087496
 31
0.0
  0
LINE
  5
7F4
330
18
100
AcDbEntity
  8
4
  6
CENTER
 48
0.4
100
AcDbLine
 10
463.3523966861753
 20
253.1546663087495
 30
0.0
 11
463.3523966861753
 21
214.8141363087496
 31
0.0
  0
ARC
  5
7F5
330
18
100
AcDbEntity
  8
1
  6
Continuous
100
AcDbCircle
 10
418.3174366861753
 20
181.2411413087495
 30
0.0
 40
60.0
100
AcDbArc
 50
34.08472054740072
 51
63.75250000000023
  0
LINE
  5
7F7
330
18
100
AcDbEntity
  8
1
  6
Continuous
100
AcDbLine
 10
474.9450666861753
 20
239.9977485087497
 30
0.0
 11
474.9450666861753
 21
207.0562813087494
 31
0.0
  0
LINE
  5
7F8
330
18
100
AcDbEntity
  8
1
  6
Continuous
100
AcDbLine
 10
497.4523946861753
 20
234.7162117087497
 30
0.0
 11
499.8406015087456
 21
192.675130596279
 31
0.0
  0
LINE
  5
800
330
18
100
AcDbEntity
  8
4
  6
CENTER
 48
0.4
100
AcDbLine
 10
449.8523966861752
 20
193.6546703087497
 30
0.0
 11
534.8523966861753
 21
193.6546703087497
 31
0.0
  0
LINE
  5
816
330
18
100
AcDbEntity
  8
1
  6
Continuous
100
AcDbLine
 10
523.7949856861753
 20
218.3652743087495
 30
0.0
 11
521.544295166075
 21
217.1936393418069
 31
0.0
  0
LINE
  5
817
330
18
100
AcDbEntity
  8
1
  6
Continuous
100
AcDbLine
 10
524.4876046861754
 20
217.0347573087497
 30
0.0
 11
522.4767134435905
 21
215.9879535402613
 31
0.0
  0
LINE
  5
81B
330
18
100
AcDbEntity
  8
1
  6
Continuous
100
AcDbLine
 10
523.7949856861753
 20
218.3652743087495
 30
0.0
 11
524.4876046861754
 21
217.0347573087497
 31
0.0
  0
LINE
  5
839
330
18
100
AcDbEntity
  8
1
  6
Continuous
100
AcDbLine
 10
456.3266171353961
 20
183.2434644343726
 30
0.0
 11
453.6324266861753
 21
181.8409573087496
 31
0.0
  0
LINE
  5
83A
330
18
100
AcDbEntity
  8
1
  6
Continuous
100
AcDbLine
 10
456.7794427098926
 20
181.788122984389
 30
0.0
 11
454.3250366861752
 21
180.5104403087497
 31
0.0
  0
LINE
  5
840
330
18
100
AcDbEntity
  8
1
  6
Continuous
100
AcDbLine
 10
453.6324266861753
 20
181.8409573087496
 30
0.0
 11
454.3250366861752
 21
180.5104403087497
 31
0.0
  0
LINE
  5
85D
330
18
100
AcDbEntity
  8
1
  6
Continuous
100
AcDbLine
 10
498.3523966861753
 20
248.1546663087496
 30
0.0
 11
428.3523966861753
 21
248.1546663087496
 31
0.0
  0
LINE
  5
85E
330
18
100
AcDbEntity
  8
1
  6
Continuous
100
AcDbLine
 10
498.3523966861753
 20
246.6546663087497
 30
0.0
 11
428.3523966861753
 21
246.6546663087497
 31
0.0
  0
LINE
  5
861
330
18
100
AcDbEntity
  8
1
  6
Continuous
100
AcDbLine
 10
499.2528716861754
 20
235.9218792087496
 30
0.0
 11
476.1374666861753
 21
239.9977483087496
 31
0.0
  0
LINE
  5
862
330
18
100
AcDbEntity
  8
4
  6
CENTER
 48
0.4
100
AcDbLine
 10
491.3523966861752
 20
243.6546663087496
 30
0.0
 11
491.3523966861752
 21
251.1546663087495
 31
0.0
  0
LINE
  5
863
330
18
100
AcDbEntity
  8
1
  6
Continuous
100
AcDbLine
 10
498.9923956861753
 20
234.4446672087497
 30
0.0
 11
497.4523946861753
 21
234.7162117087497
 31
0.0
  0
LINE
  5
864
330
18
100
AcDbEntity
  8
1
  6
Continuous
100
AcDbLine
 10
498.9923956861753
 20
234.4446672087497
 30
0.0
 11
499.2528716861754
 21
235.9218787087495
 31
0.0
  0
LINE
  5
865
330
18
100
AcDbEntity
  8
1
  6
Continuous
100
AcDbLine
 10
497.4523946861753
 20
234.7162126087496
 30
0.0
 11
497.7128706861754
 21
236.1934241087495
 31
0.0
  0
LINE
  5
866
330
18
100
AcDbEntity
  8
1
  6
Continuous
100
AcDbLine
 10
498.3523966861753
 20
246.6546663087497
 30
0.0
 11
498.3523966861753
 21
248.1546625087496
 31
0.0
  0
LINE
  5
867
330
18
100
AcDbEntity
  8
1
  6
Continuous
100
AcDbLine
 10
480.3523966861753
 20
242.3546670687496
 30
0.0
 11
446.3523966861753
 21
242.3546671087497
 31
0.0
  0
LINE
  5
868
330
18
100
AcDbEntity
  8
1
  6
Continuous
100
AcDbLine
 10
479.0948266861753
 20
241.7546675087495
 30
0.0
 11
447.6099666861751
 21
241.7546675087495
 31
0.0
  0
ARC
  5
869
330
18
100
AcDbEntity
  8
1
  6
Continuous
100
AcDbCircle
 10
473.5679166861753
 20
242.8391679587496
 30
0.0
 40
1.984500099999999
100
AcDbArc
 50
326.8737700000002
 51
345.8688400000001
  0
LINE
  5
86A
330
18
100
AcDbEntity
  8
1
  6
Continuous
100
AcDbLine
 10
482.8723366861754
 20
238.8102063087495
 30
0.0
 11
481.4500266861751
 21
240.6128973087495
 31
0.0
  0
LINE
  5
86B
330
18
100
AcDbEntity
  8
1
  6
Continuous
100
AcDbLine
 10
483.7110566861753
 20
246.3906647087497
 30
0.0
 11
482.1155966861753
 21
243.4106702287496
 31
0.0
  0
ARC
  5
86C
330
18
100
AcDbEntity
  8
1
  6
Continuous
100
AcDbCircle
 10
484.1518466861753
 20
246.1546663087496
 30
0.0
 40
0.5
100
AcDbArc
 50
89.99998400000034
 51
151.8358429999997
  0
ARC
  5
86D
330
18
100
AcDbEntity
  8
1
  6
Continuous
100
AcDbCircle
 10
479.0948266861753
 20
238.7546676087497
 30
0.0
 40
3.0
100
AcDbArc
 50
38.27314000000035
 51
89.99999699999987
  0
ARC
  5
86E
330
18
100
AcDbEntity
  8
1
  6
Continuous
100
AcDbCircle
 10
475.8523966861753
 20
242.8391679587496
 30
0.0
 40
1.984500099999999
100
AcDbArc
 50
326.8737700000002
 51
345.8688400000001
  0
ARC
  5
86F
330
18
100
AcDbEntity
  8
1
  6
Continuous
100
AcDbCircle
 10
475.3112566861751
 20
242.8391679587496
 30
0.0
 40
1.984500099999999
100
AcDbArc
 50
326.8737700000002
 51
345.8688400000001
  0
ARC
  5
870
330
18
100
AcDbEntity
  8
1
  6
Continuous
100
AcDbCircle
 10
480.3523966861753
 20
244.3546671087497
 30
0.0
 40
2.0
100
AcDbArc
 50
270.0
 51
331.8358999999996
  0
ARC
  5
871
330
18
100
AcDbEntity
  8
1
  6
Continuous
100
AcDbCircle
 10
470.7946466861754
 20
242.8391679587496
 30
0.0
 40
1.984500099999999
100
AcDbArc
 50
326.8737700000002
 51
345.8688400000001
  0
ARC
  5
872
330
18
100
AcDbEntity
  8
1
  6
Continuous
100
AcDbCircle
 10
470.7946466861754
 20
242.8391679587496
 30
0.0
 40
1.984500099999999
100
AcDbArc
 50
207.40479
 51
213.1262299999997
  0
ARC
  5
873
330
18
100
AcDbEntity
  8
1
  6
Continuous
100
AcDbCircle
 10
467.2710566861753
 20
242.8391679587496
 30
0.0
 40
1.984500099999999
100
AcDbArc
 50
326.8737700000002
 51
345.8688400000001
  0
ARC
  5
874
330
18
100
AcDbEntity
  8
1
  6
Continuous
100
AcDbCircle
 10
467.2710566861753
 20
242.8391679587496
 30
0.0
 40
1.984500099999999
100
AcDbArc
 50
194.1311700000004
 51
213.1262299999997
  0
ARC
  5
875
330
18
100
AcDbEntity
  8
1
  6
Continuous
100
AcDbCircle
 10
463.3523966861753
 20
242.8391679587496
 30
0.0
 40
1.984500099999999
100
AcDbArc
 50
326.8737700000002
 51
345.8688400000001
  0
ARC
  5
876
330
18
100
AcDbEntity
  8
1
  6
Continuous
100
AcDbCircle
 10
463.3523966861753
 20
242.8391679587496
 30
0.0
 40
1.984500099999999
100
AcDbArc
 50
194.1311600000002
 51
213.1262299999997
  0
ARC
  5
877
330
18
100
AcDbEntity
  8
1
  6
Continuous
100
AcDbCircle
 10
459.4337266861753
 20
242.8391679587496
 30
0.0
 40
1.984500099999999
100
AcDbArc
 50
326.8737700000002
 51
345.8688400000001
  0
LINE
  5
878
330
18
100
AcDbEntity
  8
4
  6
CENTER
 48
0.4
100
AcDbLine
 10
435.3523966861754
 20
243.6546663087496
 30
0.0
 11
435.3523966861754
 21
251.1546663087495
 31
0.0
  0
LINE
  5
879
330
18
100
AcDbEntity
  8
1
  6
Continuous
100
AcDbLine
 10
442.9937366861753
 20
246.3906609087497
 30
0.0
 11
444.5891966861752
 21
243.4106631287495
 31
0.0
  0
LINE
  5
87A
330
18
100
AcDbEntity
  8
1
  6
Continuous
100
AcDbLine
 10
444.8523966861753
 20
235.0546678087496
 30
0.0
 11
445.1144966861753
 21
239.4050142087496
 31
0.0
  0
ARC
  5
87B
330
18
100
AcDbEntity
  8
1
  6
Continuous
100
AcDbCircle
 10
459.4337266861753
 20
242.8391679587496
 30
0.0
 40
1.984500099999999
100
AcDbArc
 50
194.1311600000002
 51
213.1262299999997
  0
ARC
  5
87C
330
18
100
AcDbEntity
  8
1
  6
Continuous
100
AcDbCircle
 10
455.9101466861753
 20
242.8391679587496
 30
0.0
 40
1.984500099999999
100
AcDbArc
 50
326.8737700000002
 51
332.5952099999998
  0
ARC
  5
87D
330
18
100
AcDbEntity
  8
1
  6
Continuous
100
AcDbCircle
 10
455.9101466861753
 20
242.8391679587496
 30
0.0
 40
1.984500099999999
100
AcDbArc
 50
194.1311600000002
 51
213.1262299999997
  0
ARC
  5
87E
330
18
100
AcDbEntity
  8
1
  6
Continuous
100
AcDbCircle
 10
450.8523966861753
 20
242.8391679587496
 30
0.0
 40
1.984500099999999
100
AcDbArc
 50
194.1311600000002
 51
213.1262299999997
  0
ARC
  5
87F
330
18
100
AcDbEntity
  8
1
  6
Continuous
100
AcDbCircle
 10
451.3935366861753
 20
242.8391679587496
 30
0.0
 40
1.984500099999999
100
AcDbArc
 50
194.1311600000002
 51
213.1262299999997
  0
ARC
  5
880
330
18
100
AcDbEntity
  8
1
  6
Continuous
100
AcDbCircle
 10
453.1368766861754
 20
242.8391679587496
 30
0.0
 40
1.984500099999999
100
AcDbArc
 50
194.1311600000002
 51
213.1262299999997
  0
ARC
  5
881
330
18
100
AcDbEntity
  8
1
  6
Continuous
100
AcDbCircle
 10
447.6099666861751
 20
239.2546676087496
 30
0.0
 40
2.5
100
AcDbArc
 50
90.00001800000005
 51
176.1069897999999
  0
ARC
  5
882
330
18
100
AcDbEntity
  8
1
  6
Continuous
100
AcDbCircle
 10
446.3523966861753
 20
244.3546671087497
 30
0.0
 40
2.0
100
AcDbArc
 50
208.1641299999996
 51
270.0
  0
ARC
  5
883
330
18
100
AcDbEntity
  8
1
  6
Continuous
100
AcDbCircle
 10
442.5529466861751
 20
246.1546663087496
 30
0.0
 40
0.5
100
AcDbArc
 50
28.16416999999999
 51
90.0000380000004
  0
LINE
  5
885
330
18
100
AcDbEntity
  8
1
  6
Continuous
100
AcDbLine
 10
428.3523966861753
 20
246.6546663087497
 30
0.0
 11
428.3523966861753
 21
248.1546663087496
 31
0.0
  0
ARC
  5
AF5
330
18
100
AcDbEntity
  8
1
  6
Continuous
100
AcDbCircle
 10
319.9869416861742
 20
220.0231923087495
 30
0.0
 40
28.5
100
AcDbArc
 50
329.3443549886171
 51
17.54587843806574
  0
ARC
  5
AF6
330
18
100
AcDbEntity
  8
1
  6
Continuous
100
AcDbCircle
 10
342.4620236861741
 20
220.0231923087495
 30
0.0
 40
28.5
100
AcDbArc
 50
162.4541215619341
 51
210.655645011382
  0
ARC
  5
B0E
330
18
100
AcDbEntity
  8
1
  6
Continuous
100
AcDbCircle
 10
316.2244826861742
 20
204.4719401960314
 30
0.0
 40
2.0
100
AcDbArc
 50
0.0
 51
30.65564501138282
  0
ARC
  5
B1D
330
18
100
AcDbEntity
  8
1
  6
Continuous
100
AcDbCircle
 10
346.2244826861741
 20
204.4719401960313
 30
0.0
 40
2.0
100
AcDbArc
 50
149.344354988617
 51
180.0
  0
ARC
  5
B24
330
18
100
AcDbEntity
  8
1
  6
Continuous
100
AcDbCircle
 10
331.2244826861742
 20
207.4152753087495
 30
0.0
 40
27.639395
100
AcDbArc
 50
54.76932426756135
 51
125.230675732438
  0
ARC
  5
B28
330
18
100
AcDbEntity
  8
1
  6
Continuous
100
AcDbCircle
 10
318.1645010774067
 20
225.9079518685307
 30
0.0
 40
5.0
100
AcDbArc
 50
125.230675732438
 51
166.3853644106004
  0
ARC
  5
B29
330
18
100
AcDbEntity
  8
1
  6
Continuous
100
AcDbCircle
 10
320.0553409542533
 20
227.1077225649513
 30
0.0
 40
5.0
100
AcDbArc
 50
119.560995175419
 51
162.4541215619341
  0
ARC
  5
B3D
330
18
100
AcDbEntity
  8
1
  6
Continuous
100
AcDbCircle
 10
344.2844642949418
 20
225.9079518685306
 30
0.0
 40
5.0
100
AcDbArc
 50
13.61463558939957
 51
54.76932426756135
  0
ARC
  5
B3E
330
18
100
AcDbEntity
  8
1
  6
Continuous
100
AcDbCircle
 10
342.3936244180952
 20
227.1077225649513
 30
0.0
 40
5.0
100
AcDbArc
 50
17.54587843806574
 51
60.4390048245809
  0
LINE
  5
B56
330
18
100
AcDbEntity
  8
1
  6
Continuous
100
AcDbLine
 10
468.0100255600538
 20
214.866230319958
 30
0.0
 11
486.1393466861754
 21
188.0537103087496
 31
0.0
  0
ARC
  5
B5A
330
18
100
AcDbEntity
  8
1
  6
Continuous
100
AcDbCircle
 10
492.3523966861753
 20
192.2546683087497
 30
0.0
 40
7.5
100
AcDbArc
 50
214.0646600000013
 51
3.213780206450556
  0
ARC
  5
BB1
330
18
100
AcDbEntity
  8
1
  6
Continuous
100
AcDbCircle
 10
199.0965686861745
 20
61.15466630874959
 30
0.0
 40
12.5
100
AcDbArc
 50
237.1401196211105
 51
122.8598803788894
  0
ARC
  5
BB2
330
18
100
AcDbEntity
  8
1
  6
Continuous
100
AcDbCircle
 10
199.0965686861745
 20
61.15466630874959
 30
0.0
 40
20.79945033161243
100
AcDbArc
 50
224.1974989021894
 51
68.4636779968611
  0
ARC
  5
BB3
330
18
100
AcDbEntity
  8
1
  6
Continuous
100
AcDbCircle
 10
199.0965686861743
 20
61.15466630874982
 30
0.0
 40
16.9999866194679
100
AcDbArc
 50
236.442738395028
 51
70.37106246379905
  0
ARC
  5
BB4
330
18
100
AcDbEntity
  8
1
  6
Continuous
100
AcDbCircle
 10
199.0965686861743
 20
61.15466630874982
 30
0.0
 40
18.49998661946789
100
AcDbArc
 50
236.0769365031435
 51
69.52314101888662
  0
ARC
  5
BB8
330
18
100
AcDbEntity
  8
1
  6
Continuous
100
AcDbCircle
 10
185.9817156136019
 20
41.65466630874959
 30
0.0
 40
5.0
100
AcDbArc
 50
56.07693650314364
 51
90.0
  0
ARC
  5
BBB
330
18
100
AcDbEntity
  8
1
  6
Continuous
100
AcDbCircle
 10
185.8300937310617
 20
41.15466630874959
 30
0.0
 40
7.0
100
AcDbArc
 50
56.44273839502815
 51
90.0
  0
ARC
  5
BC3
330
18
100
AcDbEntity
  8
1
  6
Continuous
100
AcDbCircle
 10
185.8300937310609
 20
81.15466630874959
 30
0.0
 40
7.0
100
AcDbArc
 50
270.0
 51
289.2305084126531
  0
ARC
  5
CA2
330
18
100
AcDbEntity
  8
1
  6
Continuous
100
AcDbCircle
 10
171.0965686861731
 20
75.15466630874971
 30
0.0
 40
7.0
100
AcDbArc
 50
188.2132107017383
 51
196.60154959902
  0
ARC
  5
D64
330
18
100
AcDbEntity
  8
1
  6
Continuous
100
AcDbCircle
 10
199.0965686861743
 20
61.15466630874982
 30
0.0
 40
16.9999866194679
100
AcDbArc
 50
121.4669026063118
 51
123.5572616049738
  0
ARC
  5
D65
330
18
100
AcDbEntity
  8
1
  6
Continuous
100
AcDbCircle
 10
199.6637873691156
 20
86.22676578861272
 30
0.0
 40
8.460141317057507
100
AcDbArc
 50
330.0139176325966
 51
87.95479506394981
  0
LINE
  5
D71
330
18
100
AcDbEntity
  8
1
  6
Continuous
100
AcDbLine
 10
159.1609210566954
 20
73.65466675494841
 30
0.0
 11
156.0563839974806
 21
73.65466475494837
 31
0.0
  0
ARC
  5
D72
330
18
100
AcDbEntity
  8
1
  6
Continuous
100
AcDbCircle
 10
158.1044260566954
 20
74.71947475494831
 30
0.0
 40
1.5
100
AcDbArc
 50
314.77542
 51
359.9999969999998
  0
ARC
  5
D73
330
18
100
AcDbEntity
  8
1
  6
Continuous
100
AcDbCircle
 10
159.2405640763011
 20
74.11947775494841
 30
0.0
 40
1.5
100
AcDbArc
 50
314.7754439163715
 51
359.9999969999998
  0
LINE
  5
D74
330
18
100
AcDbEntity
  8
1
  6
Continuous
100
AcDbLine
 10
160.2970591276473
 20
73.05466875494828
 30
0.0
 11
159.1609206635695
 21
73.65466531394671
 31
0.0
  0
LINE
  5
D75
330
18
100
AcDbEntity
  8
1
  6
Continuous
100
AcDbLine
 10
160.2970591276473
 20
73.05466875494828
 30
0.0
 11
157.1925182812827
 21
73.05466875494826
 31
0.0
  0
LINE
  5
D76
330
18
100
AcDbEntity
  8
1
  6
Continuous
100
AcDbLine
 10
159.6044260566954
 20
74.71947475494828
 30
0.0
 11
159.6044260566954
 21
75.65466675494839
 31
0.0
  0
LINE
  5
D77
330
18
100
AcDbEntity
  8
1
  6
Continuous
100
AcDbLine
 10
160.7405640763011
 20
74.11947775494839
 30
0.0
 11
160.7405640763011
 21
75.65466875494839
 31
0.0
  0
ARC
  5
D78
330
18
100
AcDbEntity
  8
1
  6
Continuous
100
AcDbCircle
 10
154.9998879974806
 20
74.71947475494828
 30
0.0
 40
1.5
100
AcDbArc
 50
314.77542
 51
359.9999969999998
  0
LINE
  5
D79
330
18
100
AcDbEntity
  8
1
  6
Continuous
100
AcDbLine
 10
156.4998879974806
 20
74.71947475494826
 30
0.0
 11
156.4998879974806
 21
75.65466675494838
 31
0.0
  0
LINE
  5
D7C
330
18
100
AcDbEntity
  8
1
  6
Continuous
100
AcDbLine
 10
204.5120866019344
 20
76.65508706813383
 30
0.0
 11
207.5953626833798
 21
81.99847497200881
 31
0.0
  0
LINE
  5
D7D
330
18
100
AcDbEntity
  8
1
  6
Continuous
100
AcDbLine
 10
204.4851409337946
 20
77.65487668844189
 30
0.0
 11
206.9915119733026
 21
81.99847497200881
 31
0.0
  0
ARC
  5
D7F
330
18
100
AcDbEntity
  8
1
  6
Continuous
100
AcDbCircle
 10
203.6189941013048
 20
78.15466630874985
 30
0.0
 40
1.0
100
AcDbArc
 50
270.0
 51
330.0139176325966
  0
ARC
  5
D80
330
18
100
AcDbEntity
  8
1
  6
Continuous
100
AcDbCircle
 10
202.7797929369546
 20
77.65466630874981
 30
0.0
 40
2.0
100
AcDbArc
 50
270.0
 51
330.0139176325958
  0
LINE
  5
D99
330
18
100
AcDbEntity
  8
1
  6
Continuous
100
AcDbLine
 10
167.0965686861731
 20
78.65466630874985
 30
0.0
 11
167.0965686861731
 21
77.47346939415495
 31
0.0
  0
LINE
  5
D9A
330
18
100
AcDbEntity
  8
1
  6
Continuous
100
AcDbLine
 10
173.0965686861731
 20
78.65466630874985
 30
0.0
 11
173.0965686861731
 21
77.47346748774731
 31
0.0
  0
LINE
  5
D9B
330
18
100
AcDbEntity
  8
2
  6
Continuous
100
AcDbLine
 10
172.5965686861731
 20
78.65466630874988
 30
0.0
 11
172.5965686861731
 21
78.15839853313301
 31
0.0
  0
LINE
  5
D9C
330
18
100
AcDbEntity
  8
2
  6
Continuous
100
AcDbLine
 10
167.596568686173
 20
78.65466630874985
 30
0.0
 11
167.596568686173
 21
78.15839965876526
 31
0.0
  0
LINE
  5
D9D
330
18
100
AcDbEntity
  8
1
  6
Continuous
100
AcDbLine
 10
141.0631460663985
 20
77.15466630874981
 30
0.0
 11
203.6189941013048
 21
77.15466630874985
 31
0.0
  0
LINE
  5
D9E
330
18
100
AcDbEntity
  8
1
  6
Continuous
100
AcDbLine
 10
183.7905840285545
 20
83.80102878906575
 30
0.0
 11
183.7905840285545
 21
78.15466630874985
 31
0.0
  0
LINE
  5
D9F
330
18
100
AcDbEntity
  8
1
  6
Continuous
100
AcDbLine
 10
162.9038059063242
 20
82.16426763448945
 30
0.0
 11
162.9038059063242
 21
78.15466630874983
 31
0.0
  0
ARC
  5
DA4
330
18
100
AcDbEntity
  8
1
  6
Continuous
100
AcDbCircle
 10
190.8179386861731
 20
75.55466830874974
 30
0.0
 40
1.0
100
AcDbArc
 50
229.8928642164313
 51
310.5264102703478
  0
ARC
  5
DA5
330
18
100
AcDbEntity
  8
1
  6
Continuous
100
AcDbCircle
 10
190.8179386861731
 20
75.55466830874974
 30
0.0
 40
2.5
100
AcDbArc
 50
229.8928642164313
 51
310.526410270348
  0
LINE
  5
DA6
330
18
100
AcDbEntity
  8
1
  6
Continuous
100
AcDbLine
 10
194.782258686173
 20
75.65466630874981
 30
0.0
 11
192.4424349000323
 21
73.65440199816134
 31
0.0
  0
LINE
  5
DA7
330
18
100
AcDbEntity
  8
1
  6
Continuous
100
AcDbLine
 10
186.8185486861731
 20
75.65466630874981
 30
0.0
 11
189.2073914604005
 21
73.64256537387494
 31
0.0
  0
LINE
  5
DA8
330
18
100
AcDbEntity
  8
1
  6
Continuous
100
AcDbLine
 10
189.1469498283385
 20
75.65466630874979
 30
0.0
 11
190.1737197958641
 21
74.78982713479981
 31
0.0
  0
LINE
  5
DA9
330
18
100
AcDbEntity
  8
1
  6
Continuous
100
AcDbLine
 10
192.4738507206714
 20
75.65466630874983
 30
0.0
 11
191.4677371717168
 21
74.79456178451439
 31
0.0
  0
ARC
  5
DAA
330
18
100
AcDbEntity
  8
1
  6
Continuous
100
AcDbCircle
 10
185.8300937310609
 20
81.15466630874959
 30
0.0
 40
7.0
100
AcDbArc
 50
302.6938174192165
 51
303.5572616049723
  0
ARC
  5
DB9
330
18
100
AcDbEntity
  8
1
  6
Continuous
100
AcDbCircle
 10
318.2596736861742
 20
206.0421093087497
 30
0.0
 40
1.5
100
AcDbArc
 50
44.77542000000006
 51
89.99999699999987
  0
LINE
  5
DBA
330
18
100
AcDbEntity
  8
1
  6
Continuous
100
AcDbLine
 10
318.2596736861742
 20
207.5421093087497
 30
0.0
 11
318.2244826861742
 21
207.5421093087497
 31
0.0
  0
LINE
  5
DC8
330
18
100
AcDbEntity
  8
1
  6
Continuous
100
AcDbLine
 10
309.2351881659543
 20
194.3119085519808
 30
0.0
 11
315.7244826861742
 21
194.3119085519809
 31
0.0
  0
LINE
  5
DC9
330
18
100
AcDbEntity
  8
1
  6
Continuous
100
AcDbLine
 10
310.4593865502613
 20
206.5179243087496
 30
0.0
 11
315.6738222488217
 21
206.5179243087496
 31
0.0
  0
ARC
  5
DCB
330
18
100
AcDbEntity
  8
1
  6
Continuous
100
AcDbCircle
 10
306.2622786861743
 20
196.3597123087495
 30
0.0
 40
14.51875499999998
100
AcDbArc
 50
241.2647199999998
 51
307.5697662312117
  0
ARC
  5
DCC
330
18
100
AcDbEntity
  8
1
  6
Continuous
100
AcDbCircle
 10
300.7244826861742
 20
186.2594933087495
 30
0.0
 40
3.0
100
AcDbArc
 50
180.0
 51
241.2647199999998
  0
ARC
  5
DCD
330
18
100
AcDbEntity
  8
1
  6
Continuous
100
AcDbCircle
 10
315.7244826861742
 20
184.0593687276776
 30
0.0
 40
1.0
100
AcDbArc
 50
359.9999999999983
 51
127.5697662312127
  0
LINE
  5
DCE
330
18
100
AcDbEntity
  8
1
  6
Continuous
100
AcDbLine
 10
319.3244806861744
 20
185.2009003087495
 30
0.0
 11
316.7244826861742
 21
185.2009003087495
 31
0.0
  0
LINE
  5
DCF
330
18
100
AcDbEntity
  8
1
  6
Continuous
100
AcDbLine
 10
319.3244806861744
 20
188.200444479001
 30
0.0
 11
316.7244826861742
 21
188.2004444790011
 31
0.0
  0
LINE
  5
DD0
330
18
100
AcDbEntity
  8
1
  6
Continuous
100
AcDbLine
 10
319.3244806861744
 20
188.200444479001
 30
0.0
 11
319.3244806861744
 21
185.2009003087495
 31
0.0
  0
LINE
  5
DD2
330
18
100
AcDbEntity
  8
1
  6
Continuous
100
AcDbLine
 10
318.2244826861742
 20
185.2009003087495
 30
0.0
 11
318.2244826861742
 21
184.7546683087497
 31
0.0
  0
LINE
  5
F70
330
18
100
AcDbEntity
  8
1
  6
Continuous
100
AcDbLine
 10
157.1925182812827
 20
73.05466875494826
 30
0.0
 11
156.0563836043548
 21
73.6546633139467
 31
0.0
  0
LINE
  5
FFC
330
18
100
AcDbEntity
  8
1
  6
Continuous
100
AcDbLine
 10
491.8367106861751
 20
199.1304433087497
 30
0.0
 11
487.8680826861754
 21
196.8391533087497
 31
0.0
  0
LINE
  5
FFD
330
18
100
AcDbEntity
  8
1
  6
Continuous
100
AcDbLine
 10
491.8367106861751
 20
188.1788993087495
 30
0.0
 11
487.8680826861754
 21
190.4701863087495
 31
0.0
  0
CIRCLE
  5
FFF
330
18
100
AcDbEntity
  8
1
  6
Continuous
100
AcDbCircle
 10
492.3523966861753
 20
193.6546703087497
 30
0.0
 40
4.5
  0
LINE
  5
1000
330
18
100
AcDbEntity
  8
1
  6
Continuous
100
AcDbLine
 10
487.3523966861752
 20
195.9459563087497
 30
0.0
 11
487.3523966861752
 21
191.3633843087495
 31
0.0
  0
ARC
  5
1001
330
18
100
AcDbEntity
  8
1
  6
Continuous
100
AcDbCircle
 10
492.3523966861753
 20
193.6546703087497
 30
0.0
 40
5.5
100
AcDbArc
 50
204.6199699999988
 51
215.380019999998
  0
ARC
  5
1002
330
18
100
AcDbEntity
  8
1
  6
Continuous
100
AcDbCircle
 10
492.3523966861753
 20
193.6546703087497
 30
0.0
 40
5.5
100
AcDbArc
 50
144.6199800000018
 51
155.380030000001
  0
LINE
  5
1003
330
18
100
AcDbEntity
  8
1
  6
Continuous
100
AcDbLine
 10
497.3523966861753
 20
195.9459563087497
 30
0.0
 11
497.3523966861753
 21
191.3633843087495
 31
0.0
  0
CIRCLE
  5
1004
330
18
100
AcDbEntity
  8
1
  6
Continuous
100
AcDbCircle
 10
492.3523966861753
 20
193.6546703087497
 30
0.0
 40
1.5
  0
LINE
  5
1006
330
18
100
AcDbEntity
  8
1
  6
Continuous
100
AcDbLine
 10
492.8680826861754
 20
188.1788993087495
 30
0.0
 11
496.8367106861751
 21
190.4701873087495
 31
0.0
  0
ARC
  5
1007
330
18
100
AcDbEntity
  8
1
  6
Continuous
100
AcDbCircle
 10
492.3523966861753
 20
193.6546703087497
 30
0.0
 40
5.5
100
AcDbArc
 50
264.6199799999999
 51
275.38002
  0
ARC
  5
1008
330
18
100
AcDbEntity
  8
1
  6
Continuous
100
AcDbCircle
 10
492.3523966861753
 20
193.6546703087497
 30
0.0
 40
5.5
100
AcDbArc
 50
324.6199800000018
 51
335.3800199999983
  0
LINE
  5
1009
330
18
100
AcDbEntity
  8
1
  6
Continuous
100
AcDbLine
 10
492.8680826861754
 20
199.1304393087497
 30
0.0
 11
496.8367106861751
 21
196.8391533087497
 31
0.0
  0
ARC
  5
100A
330
18
100
AcDbEntity
  8
1
  6
Continuous
100
AcDbCircle
 10
492.3523966861753
 20
193.6546703087497
 30
0.0
 40
5.5
100
AcDbArc
 50
84.61997899999982
 51
95.38002000000007
  0
ARC
  5
100B
330
18
100
AcDbEntity
  8
1
  6
Continuous
100
AcDbCircle
 10
492.3523966861753
 20
193.6546703087497
 30
0.0
 40
5.5
100
AcDbArc
 50
24.61997700000003
 51
35.38002100000161
  0
ARC
  5
100D
330
18
100
AcDbEntity
  8
1
  6
Continuous
100
AcDbCircle
 10
53.8900548861732
 20
193.6546703087497
 30
0.0
 40
3.296371499999998
100
AcDbArc
 50
147.9346199999995
 51
212.0653900000005
  0
ARC
  5
100E
330
18
100
AcDbEntity
  8
1
  6
Continuous
100
AcDbCircle
 10
50.49656868617322
 20
191.1546703087497
 30
0.0
 40
6.5
100
AcDbArc
 50
337.3801300000012
 51
22.61986500000087
  0
LINE
  5
100F
330
18
100
AcDbEntity
  8
1
  6
Continuous
100
AcDbLine
 10
56.99656868617322
 20
198.6546703087497
 30
0.0
 11
56.99656868617322
 21
188.6546703087495
 31
0.0
  0
ARC
  5
1010
330
18
100
AcDbEntity
  8
1
  6
Continuous
100
AcDbCircle
 10
46.79656888617333
 20
191.1546703087497
 30
0.0
 40
6.5
100
AcDbArc
 50
337.3801300000012
 51
22.61986500000087
  0
LINE
  5
1011
330
18
100
AcDbEntity
  8
1
  6
Continuous
100
AcDbLine
 10
51.09656848617333
 20
186.0537768817933
 30
0.0
 11
51.09656848617333
 21
200.6555647356919
 31
0.0
  0
LINE
  5
1012
330
18
100
AcDbEntity
  8
1
  6
Continuous
100
AcDbLine
 10
52.39656928617332
 20
187.1546703087497
 30
0.0
 11
52.39656928617332
 21
200.1546703087496
 31
0.0
  0
LINE
  5
1018
330
18
100
AcDbEntity
  8
1
  6
Continuous
100
AcDbLine
 10
52.79656866574001
 20
188.6546697797097
 30
0.0
 11
56.99656868617322
 21
188.6546703087495
 31
0.0
  0
LINE
  5
1019
330
18
100
AcDbEntity
  8
1
  6
Continuous
100
AcDbLine
 10
53.22244610874204
 20
188.6546698333541
 30
0.0
 11
52.39656928617332
 21
187.1546703087497
 31
0.0
  0
ARC
  5
101A
330
18
100
AcDbEntity
  8
1
  6
Continuous
100
AcDbCircle
 10
51.09656848617333
 20
188.1546758087466
 30
0.0
 40
0.5
100
AcDbArc
 50
160.5287699999996
 51
240.0000099999995
  0
LINE
  5
101B
330
18
100
AcDbEntity
  8
1
  6
Continuous
100
AcDbLine
 10
51.09656848617333
 20
189.6546798087466
 30
0.0
 11
50.62516348617331
 21
188.3213438087467
 31
0.0
  0
LINE
  5
101C
330
18
100
AcDbEntity
  8
1
  6
Continuous
100
AcDbLine
 10
50.84656848617331
 20
187.7216658087466
 30
0.0
 11
51.0965704861733
 21
187.5773258087465
 31
0.0
  0
LINE
  5
101D
330
18
100
AcDbEntity
  8
1
  6
Continuous
100
AcDbLine
 10
51.09656848617333
 20
187.1546703087497
 30
0.0
 11
52.39656928617332
 21
187.1546703087497
 31
0.0
  0
ARC
  5
1022
330
18
100
AcDbEntity
  8
1
  6
Continuous
100
AcDbCircle
 10
46.79656888390629
 20
196.1546703141909
 30
0.0
 40
6.5
100
AcDbArc
 50
337.3801300000012
 51
22.61986500000087
  0
LINE
  5
1023
330
18
100
AcDbEntity
  8
1
  6
Continuous
100
AcDbLine
 10
52.79656866347298
 20
193.6546697851509
 30
0.0
 11
56.49656868617322
 21
193.6546703087497
 31
0.0
  0
LINE
  5
1024
330
18
100
AcDbEntity
  8
1
  6
Continuous
100
AcDbLine
 10
52.79656888617345
 20
198.6546703087497
 30
0.0
 11
56.99656868617322
 21
198.6546703087497
 31
0.0
  0
LINE
  5
1025
330
18
100
AcDbEntity
  8
1
  6
Continuous
100
AcDbLine
 10
53.2224515670172
 20
198.6546703087497
 30
0.0
 11
52.39656828617333
 21
200.1546703087496
 31
0.0
  0
ARC
  5
1026
330
18
100
AcDbEntity
  8
1
  6
Continuous
100
AcDbCircle
 10
51.09656848617333
 20
199.1546758087466
 30
0.0
 40
0.5
100
AcDbArc
 50
119.9999999999999
 51
199.4712199999987
  0
LINE
  5
1027
330
18
100
AcDbEntity
  8
1
  6
Continuous
100
AcDbLine
 10
50.84656848617331
 20
199.5876858087466
 30
0.0
 11
51.0965704861733
 21
199.7320258087466
 31
0.0
  0
LINE
  5
1028
330
18
100
AcDbEntity
  8
1
  6
Continuous
100
AcDbLine
 10
51.09656848617333
 20
197.6546729803193
 30
0.0
 11
50.62516348617331
 21
198.9880078087466
 31
0.0
  0
LINE
  5
1029
330
18
100
AcDbEntity
  8
1
  6
Continuous
100
AcDbLine
 10
51.09656848617333
 20
200.1546703087496
 30
0.0
 11
52.39656928617332
 21
200.1546703087496
 31
0.0
  0
ARC
  5
102A
330
18
100
AcDbEntity
  8
1
  6
Continuous
100
AcDbCircle
 10
50.49656868617322
 20
196.1546703087497
 30
0.0
 40
6.5
100
AcDbArc
 50
337.3801300000012
 51
22.61986500000087
  0
LINE
  5
102D
330
18
100
AcDbEntity
  8
1
  6
Continuous
100
AcDbLine
 10
175.8700636861733
 20
193.6546743087497
 30
0.0
 11
172.9833136861731
 21
188.6546783087495
 31
0.0
  0
LINE
  5
102E
330
18
100
AcDbEntity
  8
1
  6
Continuous
100
AcDbLine
 10
164.3230626861731
 20
193.6546703087497
 30
0.0
 11
167.2098156861731
 21
188.6546663087495
 31
0.0
  0
CIRCLE
  5
1030
330
18
100
AcDbEntity
  8
1
  6
Continuous
100
AcDbCircle
 10
170.0965686861731
 20
193.6546703087497
 30
0.0
 40
5.0
  0
CIRCLE
  5
1031
330
18
100
AcDbEntity
  8
1
  6
Continuous
100
AcDbCircle
 10
170.0965686861731
 20
193.6546703087497
 30
0.0
 40
6.5
  0
LINE
  5
1032
330
18
100
AcDbEntity
  8
1
  6
Continuous
100
AcDbLine
 10
172.9833256861731
 20
188.6546783087495
 30
0.0
 11
167.2098236861732
 21
188.6546783087495
 31
0.0
  0
LINE
  5
1033
330
18
100
AcDbEntity
  8
1
  6
Continuous
100
AcDbLine
 10
172.9833176861731
 20
198.6546703087497
 30
0.0
 11
175.8700726861731
 21
193.6546623087497
 31
0.0
  0
LINE
  5
1034
330
18
100
AcDbEntity
  8
1
  6
Continuous
100
AcDbLine
 10
167.2098076861733
 20
198.6546743087497
 30
0.0
 11
164.3230546861731
 21
193.6546743087497
 31
0.0
  0
LINE
  5
1035
330
18
100
AcDbEntity
  8
1
  6
Continuous
100
AcDbLine
 10
172.9833216861731
 20
198.6546703087497
 30
0.0
 11
167.2098156861731
 21
198.6546703087497
 31
0.0
  0
LINE
  5
104B
330
18
100
AcDbEntity
  8
1
  6
Continuous
100
AcDbLine
 10
172.983321686173
 20
322.1546663087497
 30
0.0
 11
172.983321686173
 21
319.7546663087495
 31
0.0
  0
LINE
  5
104C
330
18
100
AcDbEntity
  8
1
  6
Continuous
100
AcDbLine
 10
175.8700706861731
 20
322.0949020861541
 30
0.0
 11
175.8700706861731
 21
319.7546663087495
 31
0.0
  0
LINE
  5
104D
330
18
100
AcDbEntity
  8
1
  6
Continuous
100
AcDbLine
 10
167.209815686173
 20
321.8985726104133
 30
0.0
 11
167.209815686173
 21
319.7546663087495
 31
0.0
  0
LINE
  5
104E
330
18
100
AcDbEntity
  8
1
  6
Continuous
100
AcDbLine
 10
164.323066686173
 20
321.4430628327225
 30
0.0
 11
164.323066686173
 21
319.7546663087495
 31
0.0
  0
ARC
  5
1050
330
18
100
AcDbEntity
  8
1
  6
Continuous
100
AcDbCircle
 10
174.426696686173
 20
321.5879998087495
 30
0.0
 40
2.3333333
100
AcDbArc
 50
231.786789999998
 51
297.5448650000018
  0
LINE
  5
1051
330
18
100
AcDbEntity
  8
1
  6
Continuous
100
AcDbLine
 10
165.0965686861731
 20
319.2546663087495
 30
0.0
 11
175.0965706861733
 21
319.2546663087497
 31
0.0
  0
ARC
  5
1052
330
18
100
AcDbEntity
  8
1
  6
Continuous
100
AcDbCircle
 10
165.7664406861731
 20
321.5879998087495
 30
0.0
 40
2.3333333
100
AcDbArc
 50
242.4551299999995
 51
308.2132109999983
  0
LINE
  5
1053
330
18
100
AcDbEntity
  8
1
  6
Continuous
100
AcDbLine
 10
164.323066686173
 20
319.7546658087495
 30
0.0
 11
165.0965686861731
 21
319.2546658087495
 31
0.0
  0
ARC
  5
1054
330
18
100
AcDbEntity
  8
1
  6
Continuous
100
AcDbCircle
 10
170.0965686861731
 20
327.8379995087494
 30
0.0
 40
8.583332999999999
100
AcDbArc
 50
250.3471399999996
 51
270.0
  0
ARC
  5
1055
330
18
100
AcDbEntity
  8
1
  6
Continuous
100
AcDbCircle
 10
170.0965686861731
 20
327.8379995087494
 30
0.0
 40
8.583332999999999
100
AcDbArc
 50
270.0
 51
289.6528600000003
  0
LINE
  5
1056
330
18
100
AcDbEntity
  8
1
  6
Continuous
100
AcDbLine
 10
175.8700706861731
 20
319.7546653087495
 30
0.0
 11
175.096570686173
 21
319.2546663087495
 31
0.0
  0
ARC
  5
106F
330
18
100
AcDbEntity
  8
1
  6
Continuous
100
AcDbCircle
 10
174.7965686861729
 20
43.9546663087498
 30
0.0
 40
0.3
100
AcDbArc
 50
270.0
 51
0.0
  0
ARC
  5
1070
330
18
100
AcDbEntity
  8
1
  6
Continuous
100
AcDbCircle
 10
165.3965686861732
 20
43.9546663087498
 30
0.0
 40
0.3
100
AcDbArc
 50
180.0
 51
270.0
  0
ARC
  5
1071
330
18
100
AcDbEntity
  8
1
  6
Continuous
100
AcDbCircle
 10
172.7808826861729
 20
45.15466630874985
 30
0.0
 40
1.8
100
AcDbArc
 50
303.5573200000013
 51
56.44269000000136
  0
ARC
  5
1072
330
18
100
AcDbEntity
  8
1
  6
Continuous
100
AcDbCircle
 10
167.4122546861733
 20
45.15466630874985
 30
0.0
 40
1.8
100
AcDbArc
 50
123.5573099999985
 51
236.4426799999986
  0
ARC
  5
1074
330
18
100
AcDbEntity
  8
1
  6
Continuous
100
AcDbCircle
 10
167.7808826861731
 20
45.15466630874985
 30
0.0
 40
1.8
100
AcDbArc
 50
303.5573200000013
 51
56.44269000000136
  0
ARC
  5
1075
330
18
100
AcDbEntity
  8
1
  6
Continuous
100
AcDbCircle
 10
172.4122546861731
 20
45.15466630874985
 30
0.0
 40
1.8
100
AcDbArc
 50
123.5573099999985
 51
236.4426799999986
  0
LINE
  5
1076
330
18
100
AcDbEntity
  8
1
  6
Continuous
100
AcDbLine
 10
165.3965686861732
 20
43.65466630874982
 30
0.0
 11
174.796568686173
 21
43.65466630874982
 31
0.0
  0
ARC
  5
1078
330
18
100
AcDbEntity
  8
1
  6
Continuous
100
AcDbCircle
 10
174.7965686861729
 20
46.35466630874989
 30
0.0
 40
0.3
100
AcDbArc
 50
0.0
 51
90.0
  0
LINE
  5
1079
330
18
100
AcDbEntity
  8
1
  6
Continuous
100
AcDbLine
 10
175.096568686173
 20
46.35466630874986
 30
0.0
 11
175.096568686173
 21
43.95466630874977
 31
0.0
  0
ARC
  5
107A
330
18
100
AcDbEntity
  8
1
  6
Continuous
100
AcDbCircle
 10
165.3965686861732
 20
46.35466630874989
 30
0.0
 40
0.3
100
AcDbArc
 50
90.0
 51
180.0
  0
LINE
  5
107B
330
18
100
AcDbEntity
  8
1
  6
Continuous
100
AcDbLine
 10
165.0965686861731
 20
46.35466630874986
 30
0.0
 11
165.0965686861731
 21
43.95466630874977
 31
0.0
  0
LINE
  5
1080
330
18
100
AcDbEntity
  8
1
  6
Continuous
100
AcDbLine
 10
15.59656868617322
 20
188.8317943087495
 30
0.0
 11
15.59656868617322
 21
198.4775459642819
 31
0.0
  0
ARC
  5
1081
330
18
100
AcDbEntity
  8
1
  6
Continuous
100
AcDbCircle
 10
17.09656868617322
 20
190.1546703087497
 30
0.0
 40
2.0
100
AcDbArc
 50
221.4096300000012
 51
318.590379999998
  0
ARC
  5
1082
330
18
100
AcDbEntity
  8
1
  6
Continuous
100
AcDbCircle
 10
17.09656868617322
 20
193.1853103087497
 30
0.0
 40
1.8
100
AcDbArc
 50
213.5573200000012
 51
326.4426900000013
  0
ARC
  5
1083
330
18
100
AcDbEntity
  8
1
  6
Continuous
100
AcDbCircle
 10
17.09656868617322
 20
188.7458263087497
 30
0.0
 40
1.8
100
AcDbArc
 50
33.5573099999987
 51
146.4426799999984
  0
ARC
  5
1084
330
18
100
AcDbEntity
  8
1
  6
Continuous
100
AcDbCircle
 10
17.09656868617322
 20
194.1240303087495
 30
0.0
 40
1.8
100
AcDbArc
 50
33.5573099999987
 51
146.4426799999984
  0
ARC
  5
1085
330
18
100
AcDbEntity
  8
1
  6
Continuous
100
AcDbCircle
 10
17.09656868617322
 20
198.5635143087495
 30
0.0
 40
1.8
100
AcDbArc
 50
213.5573200000012
 51
326.4426900000013
  0
ARC
  5
1086
330
18
100
AcDbEntity
  8
1
  6
Continuous
100
AcDbCircle
 10
17.09656868617322
 20
197.1546703087497
 30
0.0
 40
2.0
100
AcDbArc
 50
41.40962399999954
 51
138.5903699999986
  0
LINE
  5
1087
330
18
100
AcDbEntity
  8
1
  6
Continuous
100
AcDbLine
 10
60.59656868617323
 20
190.6546703087497
 30
0.0
 11
60.59656868617323
 21
196.6546703087495
 31
0.0
  0
LINE
  5
1088
330
18
100
AcDbEntity
  8
1
  6
Continuous
100
AcDbLine
 10
61.09656868617323
 20
191.1546703087497
 30
0.0
 11
61.09656868617323
 21
196.1546703087497
 31
0.0
  0
LINE
  5
108B
330
18
100
AcDbEntity
  8
1
  6
Continuous
100
AcDbLine
 10
61.09656968617322
 20
191.1546703087497
 30
0.0
 11
60.59656868617323
 21
190.6546703087497
 31
0.0
  0
LINE
  5
108E
330
18
100
AcDbEntity
  8
1
  6
Continuous
100
AcDbLine
 10
61.09656868617323
 20
196.1546703087497
 30
0.0
 11
60.59656768617323
 21
196.6546703087495
 31
0.0
  0
LINE
  5
1090
330
18
100
AcDbEntity
  8
1
  6
Continuous
100
AcDbLine
 10
173.0965686861731
 20
88.65466630874982
 30
0.0
 11
167.0965686861731
 21
88.65466630874982
 31
0.0
  0
LINE
  5
1091
330
18
100
AcDbEntity
  8
1
  6
Continuous
100
AcDbLine
 10
172.5965686861731
 20
89.15466630874986
 30
0.0
 11
167.596568686173
 21
89.15466630874986
 31
0.0
  0
LINE
  5
1092
330
18
100
AcDbEntity
  8
1
  6
Continuous
100
AcDbLine
 10
172.5965686861731
 20
89.1546673087498
 30
0.0
 11
173.0965686861731
 21
88.65466630874982
 31
0.0
  0
LINE
  5
1093
330
18
100
AcDbEntity
  8
1
  6
Continuous
100
AcDbLine
 10
167.596568686173
 20
89.15466630874986
 30
0.0
 11
167.0965686861731
 21
88.65466530874984
 31
0.0
  0
LINE
  5
109A
330
18
100
AcDbEntity
  8
1
  6
Continuous
100
AcDbLine
 10
173.0965686861731
 20
315.6546663087496
 30
0.0
 11
167.0965686861731
 21
315.6546663087496
 31
0.0
  0
LINE
  5
109B
330
18
100
AcDbEntity
  8
1
  6
Continuous
100
AcDbLine
 10
172.5965686861731
 20
315.1546663087496
 30
0.0
 11
167.596568686173
 21
315.1546663087496
 31
0.0
  0
LINE
  5
109C
330
18
100
AcDbEntity
  8
1
  6
Continuous
100
AcDbLine
 10
167.596568686173
 20
315.1546663087496
 30
0.0
 11
167.0965686861731
 21
315.6546673087496
 31
0.0
  0
LINE
  5
109D
330
18
100
AcDbEntity
  8
1
  6
Continuous
100
AcDbLine
 10
172.5965686861731
 20
315.1546653087496
 30
0.0
 11
173.0965686861731
 21
315.6546663087496
 31
0.0
  0
LINE
  5
10A6
330
18
100
AcDbEntity
  8
1
  6
Continuous
100
AcDbLine
 10
309.0265326861743
 20
198.6546703087497
 30
0.0
 11
307.3244826861742
 21
198.6546703087497
 31
0.0
  0
ARC
  5
10BA
330
18
100
AcDbEntity
  8
1
  6
Continuous
100
AcDbCircle
 10
313.8244826861741
 20
196.1546703087497
 30
0.0
 40
6.5
100
AcDbArc
 50
157.3801349999991
 51
202.6198699999988
  0
LINE
  5
10BB
330
18
100
AcDbEntity
  8
1
  6
Continuous
100
AcDbLine
 10
307.3244826861742
 20
198.6546703087497
 30
0.0
 11
307.3244826861742
 21
192.8979351192496
 31
0.0
  0
LINE
  5
10BD
330
18
100
AcDbEntity
  8
2
  6
Continuous
100
AcDbLine
 10
303.4140345921068
 20
191.1546703087497
 30
0.0
 11
303.2244816861742
 21
191.1546703087497
 31
0.0
  0
LINE
  5
10BE
330
18
100
AcDbEntity
  8
1
  6
Continuous
100
AcDbLine
 10
307.3244826861742
 20
196.6546703087495
 30
0.0
 11
303.7244836861741
 21
196.6546703087495
 31
0.0
  0
LINE
  5
10BF
330
18
100
AcDbEntity
  8
2
  6
Continuous
100
AcDbLine
 10
307.3244826861742
 20
196.1546703087497
 30
0.0
 11
303.2244826861742
 21
196.1546703087497
 31
0.0
  0
ARC
  5
10C0
330
18
100
AcDbEntity
  8
1
  6
Continuous
100
AcDbCircle
 10
313.8244826861741
 20
191.1546703087497
 30
0.0
 40
6.5
100
AcDbArc
 50
157.3801349999991
 51
163.3250856420946
  0
LINE
  5
10C1
330
18
100
AcDbEntity
  8
1
  6
Continuous
100
AcDbLine
 10
303.7244826861742
 20
191.2930670410053
 30
0.0
 11
303.7244826861742
 21
196.6546703087495
 31
0.0
  0
LINE
  5
10C2
330
18
100
AcDbEntity
  8
1
  6
Continuous
100
AcDbLine
 10
303.2244826861742
 20
191.1546703087497
 30
0.0
 11
303.2244826861742
 21
196.1546703087497
 31
0.0
  0
LINE
  5
10C3
330
18
100
AcDbEntity
  8
1
  6
Continuous
100
AcDbLine
 10
303.2244816861742
 20
191.1546703087497
 30
0.0
 11
303.2829284756244
 21
191.0962236361926
 31
0.0
  0
LINE
  5
10C4
330
18
100
AcDbEntity
  8
1
  6
Continuous
100
AcDbLine
 10
303.2244826861742
 20
196.1546703087497
 30
0.0
 11
303.7244836861741
 21
196.6546703087495
 31
0.0
  0
LINE
  5
10C5
330
18
100
AcDbEntity
  8
1
  6
Continuous
100
AcDbLine
 10
348.7244826861741
 20
188.8317943087495
 30
0.0
 11
348.7244826861741
 21
198.4775459642819
 31
0.0
  0
ARC
  5
10C6
330
18
100
AcDbEntity
  8
1
  6
Continuous
100
AcDbCircle
 10
347.2244826861741
 20
193.1853103087497
 30
0.0
 40
1.8
100
AcDbArc
 50
213.5573099999986
 51
326.4426799999986
  0
ARC
  5
10C7
330
18
100
AcDbEntity
  8
1
  6
Continuous
100
AcDbCircle
 10
347.2244826861741
 20
194.1240303087495
 30
0.0
 40
1.8
100
AcDbArc
 50
33.55732000000139
 51
146.4426900000013
  0
ARC
  5
10C8
330
18
100
AcDbEntity
  8
1
  6
Continuous
100
AcDbCircle
 10
347.2244826861741
 20
198.5635143087495
 30
0.0
 40
1.8
100
AcDbArc
 50
213.5573099999986
 51
326.4426799999986
  0
ARC
  5
10C9
330
18
100
AcDbEntity
  8
1
  6
Continuous
100
AcDbCircle
 10
347.2244826861741
 20
190.1546703087497
 30
0.0
 40
2.0
100
AcDbArc
 50
221.4096200000018
 51
318.5903699999988
  0
ARC
  5
10CA
330
18
100
AcDbEntity
  8
1
  6
Continuous
100
AcDbCircle
 10
347.2244826861741
 20
188.7458263087497
 30
0.0
 40
1.8
100
AcDbArc
 50
33.55732000000139
 51
146.4426900000013
  0
ARC
  5
10CB
330
18
100
AcDbEntity
  8
1
  6
Continuous
100
AcDbCircle
 10
347.2244826861741
 20
197.1546703087497
 30
0.0
 40
2.0
100
AcDbArc
 50
41.40963000000122
 51
138.5903760000003
  0
LINE
  5
10CC
330
18
100
AcDbEntity
  8
1
  6
Continuous
100
AcDbLine
 10
307.8244829066075
 20
193.6546697797098
 30
0.0
 11
308.1154251372546
 21
193.6546697797098
 31
0.0
  0
ARC
  5
10CE
330
18
100
AcDbEntity
  8
1
  6
Continuous
100
AcDbCircle
 10
170.0965686861731
 20
76.47133330874986
 30
0.0
 40
8.583332999999999
100
AcDbArc
 50
70.34713999999969
 51
90.00000000000005
  0
ARC
  5
10CF
330
18
100
AcDbEntity
  8
1
  6
Continuous
100
AcDbCircle
 10
170.0965686861731
 20
72.7713323087498
 30
0.0
 40
8.583332999999999
100
AcDbArc
 50
70.34713999999969
 51
90.00000000000005
  0
LINE
  5
10D0
330
18
100
AcDbEntity
  8
1
  6
Continuous
100
AcDbLine
 10
165.0965686861731
 20
85.05466650874984
 30
0.0
 11
175.0965706861733
 21
85.0546665087497
 31
0.0
  0
LINE
  5
10D1
330
18
100
AcDbEntity
  8
1
  6
Continuous
100
AcDbLine
 10
163.596568686173
 20
80.45466710874983
 30
0.0
 11
176.5965686861731
 21
80.45466710874983
 31
0.0
  0
LINE
  5
10D2
330
18
100
AcDbEntity
  8
1
  6
Continuous
100
AcDbLine
 10
163.596568686173
 20
79.15466630874981
 30
0.0
 11
176.5965686861731
 21
79.15466630874981
 31
0.0
  0
LINE
  5
10D3
330
18
100
AcDbEntity
  8
1
  6
Continuous
100
AcDbLine
 10
163.596568686173
 20
79.15466630874981
 30
0.0
 11
163.596568686173
 21
80.45466710874983
 31
0.0
  0
LINE
  5
10D4
330
18
100
AcDbEntity
  8
1
  6
Continuous
100
AcDbLine
 10
167.209815686173
 20
80.85466670874984
 30
0.0
 11
167.209815686173
 21
84.55466650874983
 31
0.0
  0
LINE
  5
10D5
330
18
100
AcDbEntity
  8
1
  6
Continuous
100
AcDbLine
 10
164.323066686173
 20
80.85466670874984
 30
0.0
 11
164.323066686173
 21
84.55466650874983
 31
0.0
  0
ARC
  5
10D6
330
18
100
AcDbEntity
  8
1
  6
Continuous
100
AcDbCircle
 10
165.7664406861731
 20
82.72133300874985
 30
0.0
 40
2.3333333
100
AcDbArc
 50
51.78678900000162
 51
117.5448700000002
  0
LINE
  5
10D7
330
18
100
AcDbEntity
  8
1
  6
Continuous
100
AcDbLine
 10
164.323066686173
 20
84.55466700874989
 30
0.0
 11
165.0965686861731
 21
85.05466700874988
 31
0.0
  0
ARC
  5
10D8
330
18
100
AcDbEntity
  8
1
  6
Continuous
100
AcDbCircle
 10
165.7664406861731
 20
79.0213323087498
 30
0.0
 40
2.3333333
100
AcDbArc
 50
51.78678900000162
 51
128.2132100000017
  0
LINE
  5
10D9
330
18
100
AcDbEntity
  8
1
  6
Continuous
100
AcDbLine
 10
164.323066686173
 20
80.85466580874991
 30
0.0
 11
163.596568686173
 21
80.45466710874983
 31
0.0
  0
ARC
  5
10DA
330
18
100
AcDbEntity
  8
1
  6
Continuous
100
AcDbCircle
 10
170.0965686861731
 20
76.47133330874986
 30
0.0
 40
8.583332999999999
100
AcDbArc
 50
90.00000000000005
 51
109.6528600000002
  0
ARC
  5
10DB
330
18
100
AcDbEntity
  8
1
  6
Continuous
100
AcDbCircle
 10
170.0965686861731
 20
72.7713323087498
 30
0.0
 40
8.583332999999999
100
AcDbArc
 50
90.00000000000005
 51
109.6528600000002
  0
LINE
  5
10DC
330
18
100
AcDbEntity
  8
1
  6
Continuous
100
AcDbLine
 10
164.3465686861731
 20
78.65466630874981
 30
0.0
 11
163.596568686173
 21
79.15466730874981
 31
0.0
  0
LINE
  5
10DD
330
18
100
AcDbEntity
  8
1
  6
Continuous
100
AcDbLine
 10
165.8364216861732
 20
79.0180453087498
 30
0.0
 11
164.3465686861731
 21
78.65466730874981
 31
0.0
  0
ARC
  5
10DE
330
18
100
AcDbEntity
  8
1
  6
Continuous
100
AcDbCircle
 10
167.3465686861731
 20
81.94815250874986
 30
0.0
 40
3.296371499999998
100
AcDbArc
 50
237.9346100000006
 51
302.0653800000018
  0
LINE
  5
10DF
330
18
100
AcDbEntity
  8
1
  6
Continuous
100
AcDbLine
 10
176.5965686861731
 20
79.15466630874981
 30
0.0
 11
176.5965686861731
 21
80.45466710874983
 31
0.0
  0
LINE
  5
10E0
330
18
100
AcDbEntity
  8
1
  6
Continuous
100
AcDbLine
 10
172.983321686173
 20
80.85466670874984
 30
0.0
 11
172.983321686173
 21
84.55466650874983
 31
0.0
  0
LINE
  5
10E1
330
18
100
AcDbEntity
  8
1
  6
Continuous
100
AcDbLine
 10
175.8700706861731
 20
80.85466670874984
 30
0.0
 11
175.8700706861731
 21
84.55466650874983
 31
0.0
  0
ARC
  5
10E2
330
18
100
AcDbEntity
  8
1
  6
Continuous
100
AcDbCircle
 10
174.426696686173
 20
82.72133300874985
 30
0.0
 40
2.3333333
100
AcDbArc
 50
62.45513499999804
 51
128.2132100000017
  0
LINE
  5
10E3
330
18
100
AcDbEntity
  8
1
  6
Continuous
100
AcDbLine
 10
175.8700706861731
 20
84.55466750874983
 30
0.0
 11
175.096570686173
 21
85.05466650874984
 31
0.0
  0
ARC
  5
10E4
330
18
100
AcDbEntity
  8
1
  6
Continuous
100
AcDbCircle
 10
174.426696686173
 20
79.0213323087498
 30
0.0
 40
2.3333333
100
AcDbArc
 50
51.78678900000162
 51
128.2132100000017
  0
LINE
  5
10E5
330
18
100
AcDbEntity
  8
1
  6
Continuous
100
AcDbLine
 10
175.870072686173
 20
80.85466670874984
 30
0.0
 11
176.5965686861731
 21
80.45466610874983
 31
0.0
  0
ARC
  5
10E6
330
18
100
AcDbEntity
  8
1
  6
Continuous
100
AcDbCircle
 10
172.846568686173
 20
81.94815250874986
 30
0.0
 40
3.296371499999998
100
AcDbArc
 50
237.9346100000006
 51
302.0653800000018
  0
LINE
  5
10E7
330
18
100
AcDbEntity
  8
1
  6
Continuous
100
AcDbLine
 10
174.356713686173
 20
79.0180453087498
 30
0.0
 11
175.8465666861731
 21
78.65466630874981
 31
0.0
  0
LINE
  5
10E8
330
18
100
AcDbEntity
  8
1
  6
Continuous
100
AcDbLine
 10
175.8465686861731
 20
78.65466730874981
 30
0.0
 11
176.5965686861731
 21
79.15466730874981
 31
0.0
  0
ARC
  5
10EB
330
18
100
AcDbEntity
  8
0
  6
Continuous
100
AcDbCircle
 10
170.0965681571331
 20
75.80843127171315
 30
0.0
 40
3.431085655436953
100
AcDbArc
 50
102.7687519104967
 51
156.8983155268494
  0
ARC
  5
10EC
330
18
100
AcDbEntity
  8
0
  6
Continuous
100
AcDbCircle
 10
170.0965681571331
 20
75.80843127171315
 30
0.0
 40
3.431085655436953
100
AcDbArc
 50
23.10168447315078
 51
77.23124808950313
  0
ARC
  5
14C0
330
18
100
AcDbEntity
  8
1
  6
Continuous
100
AcDbCircle
 10
33.0965686861732
 20
181.1546703087497
 30
0.0
 40
50.0
100
AcDbArc
 50
79.30580000000174
 51
90.0
  0
ARC
  5
14C1
330
18
100
AcDbEntity
  8
1
  6
Continuous
100
AcDbCircle
 10
33.0965686861732
 20
206.1546703087496
 30
0.0
 40
50.0
100
AcDbArc
 50
270.0
 51
280.6941999999981
  0
LINE
  5
14C8
330
18
100
AcDbEntity
  8
1
  6
Continuous
100
AcDbLine
 10
22.59656868617321
 20
228.8123050469503
 30
0.0
 11
22.59656868617321
 21
158.4970353087497
 31
0.0
  0
ARC
  5
14C9
330
18
100
AcDbEntity
  8
1
  6
Continuous
100
AcDbCircle
 10
33.0965686861732
 20
206.1546703087496
 30
0.0
 40
50.0
100
AcDbArc
 50
259.30581
 51
270.0
  0
ARC
  5
14CA
330
18
100
AcDbEntity
  8
1
  6
Continuous
100
AcDbCircle
 10
24.09656868617321
 20
158.4970353087497
 30
0.0
 40
1.5
100
AcDbArc
 50
179.9999899999988
 51
259.30581
  0
ARC
  5
14CD
330
18
100
AcDbEntity
  8
1
  6
Continuous
100
AcDbCircle
 10
21.59656868617321
 20
183.2546723087497
 30
0.0
 40
1.5
100
AcDbArc
 50
180.0000499999993
 51
244.4281199999989
  0
LINE
  5
14E2
330
18
100
AcDbEntity
  8
1
  6
Continuous
100
AcDbLine
 10
20.9490996861732
 20
181.9015993087496
 30
0.0
 11
22.59656868617321
 21
181.1132573087497
 31
0.0
  0
ARC
  5
14E4
330
18
100
AcDbEntity
  8
1
  6
Continuous
100
AcDbCircle
 10
21.59656868617321
 20
204.0546683087495
 30
0.0
 40
1.5
100
AcDbArc
 50
115.5719400000011
 51
180.0000100000002
  0
LINE
  5
14E6
330
18
100
AcDbEntity
  8
1
  6
Continuous
100
AcDbLine
 10
20.94910368617319
 20
205.4077373087495
 30
0.0
 11
22.59656868617321
 21
206.1960783087497
 31
0.0
  0
ARC
  5
14ED
330
18
100
AcDbEntity
  8
1
  6
Continuous
100
AcDbCircle
 10
33.0965686861732
 20
181.1546703087497
 30
0.0
 40
50.0
100
AcDbArc
 50
90.0
 51
100.6941899999997
  0
ARC
  5
14EE
330
18
100
AcDbEntity
  8
1
  6
Continuous
100
AcDbCircle
 10
24.09656868617321
 20
228.8123053087497
 30
0.0
 40
1.5
100
AcDbArc
 50
100.6941899999997
 51
180.0000099999993
  0
LINE
  5
14F7
330
18
100
AcDbEntity
  8
1
  6
Continuous
100
AcDbLine
 10
43.5965686861732
 20
228.8123053087497
 30
0.0
 11
43.5965686861732
 21
158.4970353087497
 31
0.0
  0
ARC
  5
14F8
330
18
100
AcDbEntity
  8
1
  6
Continuous
100
AcDbCircle
 10
42.09656868617321
 20
158.4970353087497
 30
0.0
 40
1.5
100
AcDbArc
 50
280.6941999999981
 51
0.0
  0
LINE
  5
150F
330
18
100
AcDbEntity
  8
1
  6
Continuous
100
AcDbLine
 10
45.09656868617319
 20
200.9046703087497
 30
0.0
 11
45.09656868617319
 21
186.4046703087495
 31
0.0
  0
ARC
  5
1510
330
18
100
AcDbEntity
  8
1
  6
Continuous
100
AcDbCircle
 10
44.59656868617321
 20
186.4046703087495
 30
0.0
 40
0.5
100
AcDbArc
 50
283.9058900000001
 51
0.0
  0
LINE
  5
1512
330
18
100
AcDbEntity
  8
1
  6
Continuous
100
AcDbLine
 10
44.71673168617321
 20
185.9193233087495
 30
0.0
 11
43.5965726861732
 21
185.6419885087497
 31
0.0
  0
LINE
  5
1513
330
18
100
AcDbEntity
  8
1
  6
Continuous
100
AcDbLine
 10
45.09656868617319
 20
190.4046703087495
 30
0.0
 11
46.0965686861732
 21
190.4046703087495
 31
0.0
  0
LINE
  5
1515
330
18
100
AcDbEntity
  8
1
  6
Continuous
100
AcDbLine
 10
45.09656868617319
 20
196.9046703087497
 30
0.0
 11
46.0965686861732
 21
196.9046703087497
 31
0.0
  0
ARC
  5
1516
330
18
100
AcDbEntity
  8
1
  6
Continuous
100
AcDbCircle
 10
44.59656868617321
 20
200.9046703087497
 30
0.0
 40
0.5
100
AcDbArc
 50
0.0
 51
76.09410999999976
  0
LINE
  5
1517
330
18
100
AcDbEntity
  8
1
  6
Continuous
100
AcDbLine
 10
44.71673168617321
 20
201.3900173087495
 30
0.0
 11
43.5965726861732
 21
201.6673521087497
 31
0.0
  0
ARC
  5
1551
330
18
100
AcDbEntity
  8
1
  6
Continuous
100
AcDbCircle
 10
42.09656868617321
 20
228.8123053087497
 30
0.0
 40
1.5
100
AcDbArc
 50
0.0
 51
79.30580000000174
  0
ARC
  5
15E6
330
18
100
AcDbEntity
  8
1
  6
Continuous
100
AcDbCircle
 10
170.0965686861731
 20
193.6546703087497
 30
0.0
 40
37.5
100
AcDbArc
 50
143.5105127755365
 51
341.5521565927941
  0
ARC
  5
15E7
330
18
100
AcDbEntity
  8
1
  6
Continuous
100
AcDbCircle
 10
170.0965686861731
 20
193.6546703087497
 30
0.0
 40
32.00000399999999
100
AcDbArc
 50
146.9954558605924
 51
340.3553922171407
  0
ARC
  5
15E8
330
18
100
AcDbEntity
  8
1
  6
Continuous
100
AcDbCircle
 10
170.0965686861731
 20
193.6546703087497
 30
0.0
 40
27.110828
100
AcDbArc
 50
154.0806970930433
 51
330.538507132575
  0
ARC
  5
15E9
330
18
100
AcDbEntity
  8
1
  6
Continuous
100
AcDbCircle
 10
170.0965686861731
 20
193.6546703087497
 30
0.0
 40
32.00000399999999
100
AcDbArc
 50
100.1573048795532
 51
139.1293212791399
  0
ARC
  5
15EA
330
18
100
AcDbEntity
  8
1
  6
Continuous
100
AcDbCircle
 10
170.0965686861731
 20
193.6546703087497
 30
0.0
 40
27.110828
100
AcDbArc
 50
102.6340778446335
 51
136.6598895947892
  0
ARC
  5
15EB
330
18
100
AcDbEntity
  8
1
  6
Continuous
100
AcDbCircle
 10
170.0965686861731
 20
193.6546703087497
 30
0.0
 40
37.5
100
AcDbArc
 50
98.16188735661601
 51
141.1189342763769
  0
ARC
  5
15EC
330
18
100
AcDbEntity
  8
1
  6
Continuous
100
AcDbCircle
 10
170.0965686861731
 20
193.6546703087497
 30
0.0
 40
37.5
100
AcDbArc
 50
343.8810648787196
 51
42.80043408565098
  0
ARC
  5
15ED
330
18
100
AcDbEntity
  8
1
  6
Continuous
100
AcDbCircle
 10
170.0965686861731
 20
193.6546703087497
 30
0.0
 40
27.110828
100
AcDbArc
 50
348.3401086683727
 51
38.14305765667599
  0
ARC
  5
15EE
330
18
100
AcDbEntity
  8
1
  6
Continuous
100
AcDbCircle
 10
170.0965686861731
 20
193.6546703087497
 30
0.0
 40
32.00000399999999
100
AcDbArc
 50
345.8706774821051
 51
40.93169991080272
  0
ARC
  5
15EF
330
18
100
AcDbEntity
  8
1
  6
Continuous
100
AcDbCircle
 10
492.3523966861753
 20
193.6546703087497
 30
0.0
 40
27.110828
100
AcDbArc
 50
141.8569419400661
 51
77.3659221553645
  0
ARC
  5
15F0
330
18
100
AcDbEntity
  8
1
  6
Continuous
100
AcDbCircle
 10
492.3523966861753
 20
193.6546703087497
 30
0.0
 40
32.00000399999999
100
AcDbArc
 50
139.0683000718607
 51
79.84269512044652
  0
ARC
  5
15F1
330
18
100
AcDbEntity
  8
1
  6
Continuous
100
AcDbCircle
 10
492.3523966861753
 20
193.6546703087497
 30
0.0
 40
37.5
100
AcDbArc
 50
137.1995659143479
 51
81.83811264338286
  0
ARC
  5
15F3
330
18
100
AcDbEntity
  8
1
  6
Continuous
100
AcDbCircle
 10
182.5965686861731
 20
343.1546663087496
 30
0.0
 40
50.0
100
AcDbArc
 50
180.0
 51
190.6941999999983
  0
LINE
  5
15F7
330
18
100
AcDbEntity
  8
1
  6
Continuous
100
AcDbLine
 10
164.8802979374216
 20
353.6546663087495
 30
0.0
 11
134.9389336861731
 21
353.6546663087495
 31
0.0
  0
ARC
  5
15FA
330
18
100
AcDbEntity
  8
1
  6
Continuous
100
AcDbCircle
 10
182.5965686861731
 20
343.1546663087496
 30
0.0
 40
50.0
100
AcDbArc
 50
169.30581
 51
180.0
  0
ARC
  5
15FB
330
18
100
AcDbEntity
  8
1
  6
Continuous
100
AcDbCircle
 10
134.9389336861731
 20
352.1546663087494
 30
0.0
 40
1.5
100
AcDbArc
 50
89.99998999999901
 51
169.30581
  0
ARC
  5
15FC
330
18
100
AcDbEntity
  8
1
  6
Continuous
100
AcDbCircle
 10
159.696570686173
 20
354.6546663087496
 30
0.0
 40
1.5
100
AcDbArc
 50
90.00004999999935
 51
154.4281199999989
  0
LINE
  5
15FE
330
18
100
AcDbEntity
  8
1
  6
Continuous
100
AcDbLine
 10
158.3434976861731
 20
355.3021353087495
 30
0.0
 11
157.555155686173
 21
353.6546663087495
 31
0.0
  0
LINE
  5
160C
330
18
100
AcDbEntity
  8
1
  6
Continuous
100
AcDbLine
 10
164.3883647536737
 20
331.1546663087495
 30
0.0
 11
162.8465686861731
 21
331.1546663087495
 31
0.0
  0
LINE
  5
160D
330
18
100
AcDbEntity
  8
1
  6
Continuous
100
AcDbLine
 10
164.8803028914719
 20
332.6546663087496
 30
0.0
 11
134.9389336861731
 21
332.6546663087496
 31
0.0
  0
ARC
  5
1612
330
18
100
AcDbEntity
  8
1
  6
Continuous
100
AcDbCircle
 10
134.9389336861731
 20
334.1546663087496
 30
0.0
 40
1.5
100
AcDbArc
 50
190.6941999999983
 51
270.0
  0
ARC
  5
1613
330
18
100
AcDbEntity
  8
1
  6
Continuous
100
AcDbCircle
 10
162.8465686861731
 20
331.6546663087496
 30
0.0
 40
0.5
100
AcDbArc
 50
193.9058900000001
 51
270.0
  0
LINE
  5
1614
330
18
100
AcDbEntity
  8
1
  6
Continuous
100
AcDbLine
 10
162.3612216861731
 20
331.5345033087496
 30
0.0
 11
162.0838868861731
 21
332.6546623087496
 31
0.0
  0
LINE
  5
1630
330
18
100
AcDbEntity
  8
1
  6
Continuous
100
AcDbLine
 10
320.7244826861742
 20
228.8123053087497
 30
0.0
 11
320.7244826861742
 21
158.4970353087497
 31
0.0
  0
LINE
  5
1631
330
18
100
AcDbEntity
  8
1
  6
Continuous
100
AcDbLine
 10
319.2244826861742
 20
200.9046703087497
 30
0.0
 11
319.2244826861742
 21
188.200444479001
 31
0.0
  0
LINE
  5
1632
330
18
100
AcDbEntity
  8
1
  6
Continuous
100
AcDbLine
 10
341.7244826861742
 20
228.8123050469503
 30
0.0
 11
341.7244826861742
 21
158.4970353087497
 31
0.0
  0
ARC
  5
1633
330
18
100
AcDbEntity
  8
1
  6
Continuous
100
AcDbCircle
 10
331.2244826861742
 20
206.1546703087496
 30
0.0
 40
50.0
100
AcDbArc
 50
259.3058000000016
 51
270.0
  0
ARC
  5
1634
330
18
100
AcDbEntity
  8
1
  6
Continuous
100
AcDbCircle
 10
322.2244826861742
 20
158.4970353087497
 30
0.0
 40
1.5
100
AcDbArc
 50
180.0
 51
259.3058000000016
  0
ARC
  5
1635
330
18
100
AcDbEntity
  8
1
  6
Continuous
100
AcDbCircle
 10
331.2244826861742
 20
206.1546703087496
 30
0.0
 40
50.0
100
AcDbArc
 50
270.0
 51
280.6941899999998
  0
ARC
  5
1636
330
18
100
AcDbEntity
  8
1
  6
Continuous
100
AcDbCircle
 10
340.2244826861742
 20
158.4970353087497
 30
0.0
 40
1.5
100
AcDbArc
 50
280.6941899999998
 51
0.0000100000010134
  0
LINE
  5
1637
330
18
100
AcDbEntity
  8
1
  6
Continuous
100
AcDbLine
 10
319.6043196861742
 20
185.9193233087495
 30
0.0
 11
320.7244786861743
 21
185.6419885087497
 31
0.0
  0
ARC
  5
1638
330
18
100
AcDbEntity
  8
1
  6
Continuous
100
AcDbCircle
 10
319.7244826861742
 20
186.4046703087495
 30
0.0
 40
0.5
100
AcDbArc
 50
216.8695156723088
 51
256.0941099999997
  0
LINE
  5
1639
330
18
100
AcDbEntity
  8
1
  6
Continuous
100
AcDbLine
 10
343.3719516861742
 20
181.9015993087496
 30
0.0
 11
341.7244826861742
 21
181.1132573087497
 31
0.0
  0
ARC
  5
163A
330
18
100
AcDbEntity
  8
1
  6
Continuous
100
AcDbCircle
 10
342.7244826861742
 20
183.2546723087497
 30
0.0
 40
1.5
100
AcDbArc
 50
295.5718800000009
 51
359.9999500000006
  0
ARC
  5
163B
330
18
100
AcDbEntity
  8
1
  6
Continuous
100
AcDbCircle
 10
331.2244826861742
 20
181.1546703087497
 30
0.0
 40
50.0
100
AcDbArc
 50
79.30581000000015
 51
90.0
  0
ARC
  5
163C
330
18
100
AcDbEntity
  8
1
  6
Continuous
100
AcDbCircle
 10
340.2244826861742
 20
228.8123053087497
 30
0.0
 40
1.5
100
AcDbArc
 50
359.9999900000006
 51
79.30581000000015
  0
ARC
  5
163D
330
18
100
AcDbEntity
  8
1
  6
Continuous
100
AcDbCircle
 10
331.2244826861742
 20
181.1546703087497
 30
0.0
 40
50.0
100
AcDbArc
 50
90.0
 51
100.6941999999982
  0
ARC
  5
163E
330
18
100
AcDbEntity
  8
1
  6
Continuous
100
AcDbCircle
 10
322.2244826861742
 20
228.8123053087497
 30
0.0
 40
1.5
100
AcDbArc
 50
100.6941999999982
 51
180.0
  0
LINE
  5
163F
330
18
100
AcDbEntity
  8
1
  6
Continuous
100
AcDbLine
 10
319.2244826861742
 20
190.4046703087495
 30
0.0
 11
318.2244826861742
 21
190.4046703087495
 31
0.0
  0
LINE
  5
1640
330
18
100
AcDbEntity
  8
1
  6
Continuous
100
AcDbLine
 10
319.2244826861742
 20
196.9046703087497
 30
0.0
 11
318.2244826861742
 21
196.9046703087497
 31
0.0
  0
LINE
  5
1641
330
18
100
AcDbEntity
  8
1
  6
Continuous
100
AcDbLine
 10
319.6043196861742
 20
201.3900173087495
 30
0.0
 11
320.7244786861743
 21
201.6673521087497
 31
0.0
  0
ARC
  5
1642
330
18
100
AcDbEntity
  8
1
  6
Continuous
100
AcDbCircle
 10
319.7244826861742
 20
200.9046703087497
 30
0.0
 40
0.5
100
AcDbArc
 50
103.9058900000002
 51
180.0
  0
LINE
  5
1643
330
18
100
AcDbEntity
  8
1
  6
Continuous
100
AcDbLine
 10
343.3719476861742
 20
205.4077373087495
 30
0.0
 11
341.7244826861742
 21
206.1960783087497
 31
0.0
  0
ARC
  5
1644
330
18
100
AcDbEntity
  8
1
  6
Continuous
100
AcDbCircle
 10
342.7244826861742
 20
204.0546683087495
 30
0.0
 40
1.5
100
AcDbArc
 50
359.9999899999998
 51
64.42805999999889
  0
LINE
  5
1645
330
18
100
AcDbEntity
  8
1
  6
Continuous
100
AcDbLine
 10
205.2542034243737
 20
50.65466630874983
 30
0.0
 11
134.9389336861731
 21
50.65466630874983
 31
0.0
  0
LINE
  5
1646
330
18
100
AcDbEntity
  8
1
  6
Continuous
100
AcDbLine
 10
177.3465686861731
 20
73.15466630874983
 30
0.0
 11
162.8465686861731
 21
73.15466630874983
 31
0.0
  0
LINE
  5
1647
330
18
100
AcDbEntity
  8
1
  6
Continuous
100
AcDbLine
 10
205.254203686173
 20
71.65466630874981
 30
0.0
 11
134.9389336861731
 21
71.65466630874981
 31
0.0
  0
ARC
  5
1648
330
18
100
AcDbEntity
  8
1
  6
Continuous
100
AcDbCircle
 10
182.5965686861731
 20
61.1546663087498
 30
0.0
 40
50.0
100
AcDbArc
 50
169.3058000000016
 51
180.0
  0
ARC
  5
1649
330
18
100
AcDbEntity
  8
1
  6
Continuous
100
AcDbCircle
 10
182.5965686861731
 20
61.1546663087498
 30
0.0
 40
50.0
100
AcDbArc
 50
180.0
 51
190.6941899999997
  0
ARC
  5
164A
330
18
100
AcDbEntity
  8
1
  6
Continuous
100
AcDbCircle
 10
134.9389336861731
 20
52.15466630874981
 30
0.0
 40
1.5
100
AcDbArc
 50
190.6941899999997
 51
270.000010000001
  0
ARC
  5
164B
330
18
100
AcDbEntity
  8
1
  6
Continuous
100
AcDbCircle
 10
159.696570686173
 20
49.65466630874979
 30
0.0
 40
1.5
100
AcDbArc
 50
205.5718800000009
 51
269.9999500000007
  0
LINE
  5
164C
330
18
100
AcDbEntity
  8
1
  6
Continuous
100
AcDbLine
 10
158.3434976861731
 20
49.00719730874982
 30
0.0
 11
157.555155686173
 21
50.65466630874983
 31
0.0
  0
ARC
  5
164D
330
18
100
AcDbEntity
  8
1
  6
Continuous
100
AcDbCircle
 10
134.9389336861731
 20
70.15466630874982
 30
0.0
 40
1.5
100
AcDbArc
 50
89.99999999999998
 51
169.3058000000016
  0
ARC
  5
164E
330
18
100
AcDbEntity
  8
1
  6
Continuous
100
AcDbCircle
 10
162.8465686861731
 20
72.65466630874979
 30
0.0
 40
0.5
100
AcDbArc
 50
89.99999999999998
 51
166.0941099999996
  0
LINE
  5
164F
330
18
100
AcDbEntity
  8
1
  6
Continuous
100
AcDbLine
 10
162.3612216861731
 20
72.77482930874981
 30
0.0
 11
162.0838868861731
 21
71.65467030874982
 31
0.0
  0
LINE
  5
1650
330
18
100
AcDbEntity
  8
1
  6
Continuous
100
AcDbLine
 10
173.3465686861731
 20
73.15466630874983
 30
0.0
 11
173.3465686861731
 21
74.15466630874981
 31
0.0
  0
LINE
  5
1651
330
18
100
AcDbEntity
  8
1
  6
Continuous
100
AcDbLine
 10
166.8465686861731
 20
73.15466630874983
 30
0.0
 11
166.8465686861731
 21
74.15466630874981
 31
0.0
  0
ARC
  5
1652
330
18
100
AcDbEntity
  8
1
  6
Continuous
100
AcDbCircle
 10
157.5965686861731
 20
61.1546663087498
 30
0.0
 40
50.0
100
AcDbArc
 50
0.0
 51
10.69419999999826
  0
ARC
  5
1653
330
18
100
AcDbEntity
  8
1
  6
Continuous
100
AcDbCircle
 10
180.4965666861729
 20
49.65466630874979
 30
0.0
 40
1.5
100
AcDbArc
 50
269.9999899999998
 51
334.4280599999988
  0
LINE
  5
1654
330
18
100
AcDbEntity
  8
1
  6
Continuous
100
AcDbLine
 10
181.849635686173
 20
49.00720130874979
 30
0.0
 11
182.637976686173
 21
50.65466630874983
 31
0.0
  0
ARC
  5
1655
330
18
100
AcDbEntity
  8
1
  6
Continuous
100
AcDbCircle
 10
157.5965686861731
 20
61.1546663087498
 30
0.0
 40
50.0
100
AcDbArc
 50
349.3058100000002
 51
0.0
  0
ARC
  5
1656
330
18
100
AcDbEntity
  8
1
  6
Continuous
100
AcDbCircle
 10
205.254203686173
 20
52.15466630874979
 30
0.0
 40
1.5
100
AcDbArc
 50
269.9999900000006
 51
349.3058100000002
  0
ARC
  5
1657
330
18
100
AcDbEntity
  8
1
  6
Continuous
100
AcDbCircle
 10
177.3465686861731
 20
72.65466630874979
 30
0.0
 40
0.5
100
AcDbArc
 50
13.90589000000023
 51
89.99999999999998
  0
LINE
  5
1658
330
18
100
AcDbEntity
  8
1
  6
Continuous
100
AcDbLine
 10
177.831915686173
 20
72.77482930874981
 30
0.0
 11
178.1092504861731
 21
71.65467030874982
 31
0.0
  0
ARC
  5
1659
330
18
100
AcDbEntity
  8
1
  6
Continuous
100
AcDbCircle
 10
205.254203686173
 20
70.15466630874979
 30
0.0
 40
1.5
100
AcDbArc
 50
10.69419999999826
 51
89.99999999999998
  0
ARC
  5
165E
330
18
100
AcDbEntity
  8
0
  6
Continuous
100
AcDbCircle
 10
492.3523966861753
 20
193.6546703087497
 30
0.0
 40
12.54141299999997
100
AcDbArc
 50
165.4061868870275
 51
56.97442932888472
  0
ENDSEC
  0
SECTION
  2
OBJECTS
  0
DICTIONARY
  5
C
330
0
100
AcDbDictionary
281
     1
  3
ACAD_CIP_PREVIOUS_PRODUCT_INFO
350
177D
  3
ACAD_COLOR
350
1760
  3
ACAD_DETAILVIEWSTYLE
350
1779
  3
ACAD_GROUP
350
D
  3
ACAD_LAYOUT
350
5D
  3
ACAD_MATERIAL
350
172E
  3
ACAD_MLEADERSTYLE
350
1775
  3
ACAD_MLINESTYLE
350
1B
  3
ACAD_PLOTSETTINGS
350
5E
  3
ACAD_PLOTSTYLENAME
350
172C
  3
ACAD_SCALELIST
350
1763
  3
ACAD_SECTIONVIEWSTYLE
350
1777
  3
ACAD_TABLESTYLE
350
1761
  3
ACAD_VISUALSTYLE
350
1747
  3
ACDB_RECOMPOSE_DATA
350
179B
  3
AcDbVariableDictionary
350
178E
  3
CONTENTDICTIONARY
350
3D
  3
DWGPROPS
350
179C
  0
DICTIONARY
  5
177E
330
E
100
AcDbDictionary
280
     1
281
     1
  3
ADSK_XREC_LAYER_RECONCILED
360
177F
  0
DICTIONARY
  5
1780
330
65
100
AcDbDictionary
280
     1
281
     1
  3
ADSK_XREC_LAYER_RECONCILED
360
1781
  0
DICTIONARY
  5
1782
330
66
100
AcDbDictionary
280
     1
281
     1
  3
ADSK_XREC_LAYER_RECONCILED
360
1783
  0
DICTIONARY
  5
1784
330
67
100
AcDbDictionary
280
     1
281
     1
  3
ADSK_XREC_LAYER_RECONCILED
360
1785
  0
DICTIONARY
  5
1786
330
68
100
AcDbDictionary
280
     1
281
     1
  3
ADSK_XREC_LAYER_RECONCILED
360
1787
  0
DICTIONARY
  5
1788
330
69
100
AcDbDictionary
280
     1
281
     1
  3
ADSK_XREC_LAYER_RECONCILED
360
1789
  0
DICTIONARY
  5
178A
330
6A
100
AcDbDictionary
280
     1
281
     1
  3
ADSK_XREC_LAYER_RECONCILED
360
178B
  0
DICTIONARY
  5
178C
330
6B
100
AcDbDictionary
280
     1
281
     1
  3
ADSK_XREC_LAYER_RECONCILED
360
178D
  0
DICTIONARY
  5
1710
330
18
100
AcDbDictionary
281
     1
  3
ACAD_LAYOUTSELFREF
350
1728
  0
DICTIONARY
  5
170E
330
15
100
AcDbDictionary
281
     1
  3
ACAD_LAYOUTSELFREF
350
1727
  0
XRECORD
  5
177D
102
{ACAD_REACTORS
330
C
102
}
330
C
100
AcDbXrecord
280
     1
300
ACDLT
300
2014
300
ACDLT_F_S
  0
DICTIONARY
  5
1760
102
{ACAD_REACTORS
330
C
102
}
330
C
100
AcDbDictionary
281
     1
  0
DICTIONARY
  5
1779
102
{ACAD_REACTORS
330
C
102
}
330
C
100
AcDbDictionary
281
     1
  3
Imperial24
350
177A
  0
DICTIONARY
  5
D
102
{ACAD_REACTORS
330
C
102
}
330
C
100
AcDbDictionary
281
     1
  0
DICTIONARY
  5
5D
102
{ACAD_REACTORS
330
C
102
}
330
C
100
AcDbDictionary
281
     1
  3
Model
350
177B
  3
レイアウト1
350
177C
  0
DICTIONARY
  5
172E
102
{ACAD_REACTORS
330
C
102
}
330
C
100
AcDbDictionary
281
     1
  3
ByBlock
350
1737
  3
ByLayer
350
172F
  3
Global
350
173F
  0
DICTIONARY
  5
1775
102
{ACAD_REACTORS
330
C
102
}
330
C
100
AcDbDictionary
281
     1
  3
Standard
350
1776
  0
DICTIONARY
  5
1B
102
{ACAD_REACTORS
330
C
102
}
330
C
100
AcDbDictionary
281
     1
  3
STANDARD
350
1C
  0
DICTIONARY
  5
5E
102
{ACAD_REACTORS
330
C
102
}
330
C
100
AcDbDictionary
281
     1
  0
ACDBDICTIONARYWDFLT
  5
172C
102
{ACAD_REACTORS
330
C
102
}
330
C
100
AcDbDictionary
281
     1
  3
Normal
350
172D
100
AcDbDictionaryWithDefault
340
172D
  0
DICTIONARY
  5
1763
102
{ACAD_REACTORS
330
C
102
}
330
C
100
AcDbDictionary
281
     1
  3
A0
350
1764
  3
A1
350
1765
  3
A2
350
1766
  3
A3
350
1767
  3
A4
350
1768
  3
A5
350
1769
  3
A6
350
176A
  3
A7
350
176B
  3
A8
350
176C
  3
A9
350
176D
  3
B0
350
176E
  3
B1
350
176F
  3
B2
350
1770
  3
B3
350
1771
  3
B4
350
1772
  3
B5
350
1773
  3
B6
350
1774
  0
DICTIONARY
  5
1777
102
{ACAD_REACTORS
330
C
102
}
330
C
100
AcDbDictionary
281
     1
  3
Imperial24
350
1778
  0
DICTIONARY
  5
1761
102
{ACAD_REACTORS
330
C
102
}
330
C
100
AcDbDictionary
281
     1
  3
Standard
350
1762
  0
DICTIONARY
  5
1747
102
{ACAD_REACTORS
330
C
102
}
330
C
100
AcDbDictionary
281
     1
  3
2dWireframe
350
174D
  3
Basic
350
174C
  3
Brighten
350
1753
  3
ColorChange
350
1757
  3
Conceptual
350
1750
  3
Dim
350
1752
  3
EdgeColorOff
350
175F
  3
Facepattern
350
1756
  3
Flat
350
1748
  3
FlatWithEdges
350
1749
  3
Gouraud
350
174A
  3
GouraudWithEdges
350
174B
  3
Hidden
350
174F
  3
JitterOff
350
175D
  3
Linepattern
350
1755
  3
OverhangOff
350
175E
  3
Realistic
350
1751
  3
Shaded
350
175C
  3
Shaded with edges
350
175B
  3
Shades of Gray
350
1758
  3
Sketchy
350
1759
  3
Thicken
350
1754
  3
Wireframe
350
174E
  3
X-Ray
350
175A
  0
XRECORD
  5
179B
102
{ACAD_REACTORS
330
C
102
}
330
C
100
AcDbXrecord
280
     1
 90
        1
330
1762
  0
DICTIONARY
  5
178E
102
{ACAD_REACTORS
330
C
102
}
330
C
100
AcDbDictionary
281
     1
  3
CANNOSCALE
350
1793
  3
CMLEADERSTYLE
350
1790
  3
CTABLESTYLE
350
178F
  3
CVIEWDETAILSTYLE
350
1791
  3
CVIEWSECTIONSTYLE
350
1792
  3
DIMASSOC
350
1796
  3
INDEXCTL
350
1795
  3
SORTENTS
350
1794
  3
XCLIPFRAME
350
1797
  0
DICTIONARY
  5
3D
102
{ACAD_REACTORS
330
C
102
}
330
C
100
AcDbDictionary
281
     1
  0
XRECORD
  5
179C
102
{ACAD_REACTORS
330
C
102
}
330
C
100
AcDbXrecord
280
     1
  1
DWGPROPS COOKIE
  2

  3

  4

  6

  7

  8
Yoshitsune
  9

300
=
301
=
302
=
303
=
304
=
305
=
306
=
307
=
308
=
309
=
 40
0.3462665393518518
 41
2453278.558367871
 42
2457192.688956447
  1

 90
        0
  0
XRECORD
  5
177F
102
{ACAD_REACTORS
330
177E
102
}
330
177E
100
AcDbXrecord
280
     1
290
     1
  0
XRECORD
  5
1781
102
{ACAD_REACTORS
330
1780
102
}
330
1780
100
AcDbXrecord
280
     1
290
     1
  0
XRECORD
  5
1783
102
{ACAD_REACTORS
330
1782
102
}
330
1782
100
AcDbXrecord
280
     1
290
     1
  0
XRECORD
  5
1785
102
{ACAD_REACTORS
330
1784
102
}
330
1784
100
AcDbXrecord
280
     1
290
     1
  0
XRECORD
  5
1787
102
{ACAD_REACTORS
330
1786
102
}
330
1786
100
AcDbXrecord
280
     1
290
     1
  0
XRECORD
  5
1789
102
{ACAD_REACTORS
330
1788
102
}
330
1788
100
AcDbXrecord
280
     1
290
     1
  0
XRECORD
  5
178B
102
{ACAD_REACTORS
330
178A
102
}
330
178A
100
AcDbXrecord
280
     1
290
     1
  0
XRECORD
  5
178D
102
{ACAD_REACTORS
330
178C
102
}
330
178C
100
AcDbXrecord
280
     1
290
     1
  0
XRECORD
  5
1728
102
{ACAD_REACTORS
330
1710
102
}
330
1710
100
AcDbXrecord
280
     1
340
18
  0
XRECORD
  5
1727
102
{ACAD_REACTORS
330
170E
102
}
330
170E
100
AcDbXrecord
280
     1
340
15
  0
ACDBDETAILVIEWSTYLE
  5
177A
102
{ACAD_XDICTIONARY
360
17D4
102
}
102
{ACAD_REACTORS
330
1779
102
}
330
1779
100
AcDbModelDocViewStyle
 70
     0
  3
Imperial24
290
     0
100
AcDbDetailViewStyle
 70
     0
 71
     0
 90
        3
 71
     1
340
F
 40
0.24
340
0
 40
0.24
300

 40
0.36
280
     3
 71
     2
340
14
 90
       25
 71
     3
340
F
 40
0.24
 90
        1
 40
0.75
 90
        1
300
%<\AcVar ViewType \f "%tc1">% %<\AcVar ViewDetailId>%\PSCALE %<\AcVar ViewScale \f "%sn">%
 71
     4
340
14
 90
       25
340
14
 90
       25
280
     0
  0
LAYOUT
  5
177B
102
{ACAD_XDICTIONARY
360
17D6
102
}
102
{ACAD_REACTORS
330
5D
102
}
330
5D
100
AcDbPlotSettings
  1

  2
Canon LBP9100C
  4

  6

 40
0.0
 41
0.0
 42
0.0
 43
0.0
 44
0.0
 45
0.0
 46
0.0
 47
0.0
 48
0.0
 49
0.0
140
0.0
141
0.0
142
1.0
143
1.0
 70
  1712
 72
     0
 73
     0
 74
     0
  7

 75
     0
147
1.0
148
0.0
149
0.0
100
AcDbLayout
  1
Model
 70
     1
 71
     0
 10
0.0
 20
0.0
 11
12.0
 21
9.0
 12
0.0
 22
0.0
 32
0.0
 14
0.0
 24
0.0
 34
0.0
 15
0.0
 25
0.0
 35
0.0
146
0.0
 13
0.0
 23
0.0
 33
0.0
 16
1.0
 26
0.0
 36
0.0
 17
0.0
 27
1.0
 37
0.0
 76
     0
330
18
331
1726
  0
LAYOUT
  5
177C
102
{ACAD_XDICTIONARY
360
17D8
102
}
102
{ACAD_REACTORS
330
5D
102
}
330
5D
100
AcDbPlotSettings
  1

  2
Canon LBP9100C
  4

  6

 40
0.0
 41
0.0
 42
0.0
 43
0.0
 44
0.0
 45
0.0
 46
0.0
 47
0.0
 48
0.0
 49
0.0
140
0.0
141
0.0
142
1.0
143
1.0
 70
   688
 72
     0
 73
     0
 74
     5
  7

 75
    16
147
1.0
148
0.0
149
0.0
100
AcDbLayout
  1
レイアウト1
 70
     1
 71
     1
 10
0.0
 20
0.0
 11
420.0
 21
297.0
 12
0.0
 22
0.0
 32
0.0
 14
1.000000000000000E+20
 24
1.000000000000000E+20
 34
1.000000000000000E+20
 15
-1.000000000000000E+20
 25
-1.000000000000000E+20
 35
-1.000000000000000E+20
146
0.0
 13
0.0
 23
0.0
 33
0.0
 16
1.0
 26
0.0
 36
0.0
 17
0.0
 27
1.0
 37
0.0
 76
     0
330
15
  0
MATERIAL
  5
1737
102
{ACAD_XDICTIONARY
360
1738
102
}
102
{ACAD_REACTORS
330
172E
102
}
330
172E
100
AcDbMaterial
  1
ByBlock
 72
     0
 43
0.0208333333333333
 43
0.0
 43
0.0
 43
0.0
 43
0.0
 43
0.0208333333333333
 43
0.0
 43
0.0
 43
0.0
 43
0.0
 43
1.0
 43
0.0
 43
0.0
 43
0.0
 43
0.0
 43
1.0
 77
     0
 47
0.0208333333333333
 47
0.0
 47
0.0
 47
0.0
 47
0.0
 47
0.0208333333333333
 47
0.0
 47
0.0
 47
0.0
 47
0.0
 47
1.0
 47
0.0
 47
0.0
 47
0.0
 47
0.0
 47
1.0
171
     0
 49
0.0208333333333333
 49
0.0
 49
0.0
 49
0.0
 49
0.0
 49
0.0208333333333333
 49
0.0
 49
0.0
 49
0.0
 49
0.0
 49
1.0
 49
0.0
 49
0.0
 49
0.0
 49
0.0
 49
1.0
175
     0
142
0.0208333333333333
142
0.0
142
0.0
142
0.0
142
0.0
142
0.0208333333333333
142
0.0
142
0.0
142
0.0
142
0.0
142
1.0
142
0.0
142
0.0
142
0.0
142
0.0
142
1.0
179
     0
144
0.0208333333333333
144
0.0
144
0.0
144
0.0
144
0.0
144
0.0208333333333333
144
0.0
144
0.0
144
0.0
144
0.0
144
1.0
144
0.0
144
0.0
144
0.0
144
0.0
144
1.0
147
0.0208333333333333
147
0.0
147
0.0
147
0.0
147
0.0
147
0.0208333333333333
147
0.0
147
0.0
147
0.0
147
0.0
147
1.0
147
0.0
147
0.0
147
0.0
147
0.0
147
1.0
  0
MATERIAL
  5
172F
102
{ACAD_XDICTIONARY
360
1730
102
}
102
{ACAD_REACTORS
330
172E
102
}
330
172E
100
AcDbMaterial
  1
ByLayer
 72
     0
 43
0.0208333333333333
 43
0.0
 43
0.0
 43
0.0
 43
0.0
 43
0.0208333333333333
 43
0.0
 43
0.0
 43
0.0
 43
0.0
 43
1.0
 43
0.0
 43
0.0
 43
0.0
 43
0.0
 43
1.0
 77
     0
 47
0.0208333333333333
 47
0.0
 47
0.0
 47
0.0
 47
0.0
 47
0.0208333333333333
 47
0.0
 47
0.0
 47
0.0
 47
0.0
 47
1.0
 47
0.0
 47
0.0
 47
0.0
 47
0.0
 47
1.0
171
     0
 49
0.0208333333333333
 49
0.0
 49
0.0
 49
0.0
 49
0.0
 49
0.0208333333333333
 49
0.0
 49
0.0
 49
0.0
 49
0.0
 49
1.0
 49
0.0
 49
0.0
 49
0.0
 49
0.0
 49
1.0
175
     0
142
0.0208333333333333
142
0.0
142
0.0
142
0.0
142
0.0
142
0.0208333333333333
142
0.0
142
0.0
142
0.0
142
0.0
142
1.0
142
0.0
142
0.0
142
0.0
142
0.0
142
1.0
179
     0
144
0.0208333333333333
144
0.0
144
0.0
144
0.0
144
0.0
144
0.0208333333333333
144
0.0
144
0.0
144
0.0
144
0.0
144
1.0
144
0.0
144
0.0
144
0.0
144
0.0
144
1.0
147
0.0208333333333333
147
0.0
147
0.0
147
0.0
147
0.0
147
0.0208333333333333
147
0.0
147
0.0
147
0.0
147
0.0
147
1.0
147
0.0
147
0.0
147
0.0
147
0.0
147
1.0
  0
MATERIAL
  5
173F
102
{ACAD_XDICTIONARY
360
1740
102
}
102
{ACAD_REACTORS
330
172E
102
}
330
172E
100
AcDbMaterial
  1
Global
 72
     0
 43
0.0208333333333333
 43
0.0
 43
0.0
 43
0.0
 43
0.0
 43
0.0208333333333333
 43
0.0
 43
0.0
 43
0.0
 43
0.0
 43
1.0
 43
0.0
 43
0.0
 43
0.0
 43
0.0
 43
1.0
 77
     0
 47
0.0208333333333333
 47
0.0
 47
0.0
 47
0.0
 47
0.0
 47
0.0208333333333333
 47
0.0
 47
0.0
 47
0.0
 47
0.0
 47
1.0
 47
0.0
 47
0.0
 47
0.0
 47
0.0
 47
1.0
171
     0
 49
0.0208333333333333
 49
0.0
 49
0.0
 49
0.0
 49
0.0
 49
0.0208333333333333
 49
0.0
 49
0.0
 49
0.0
 49
0.0
 49
1.0
 49
0.0
 49
0.0
 49
0.0
 49
0.0
 49
1.0
175
     0
142
0.0208333333333333
142
0.0
142
0.0
142
0.0
142
0.0
142
0.0208333333333333
142
0.0
142
0.0
142
0.0
142
0.0
142
1.0
142
0.0
142
0.0
142
0.0
142
0.0
142
1.0
179
     0
144
0.0208333333333333
144
0.0
144
0.0
144
0.0
144
0.0
144
0.0208333333333333
144
0.0
144
0.0
144
0.0
144
0.0
144
1.0
144
0.0
144
0.0
144
0.0
144
0.0
144
1.0
147
0.0208333333333333
147
0.0
147
0.0
147
0.0
147
0.0
147
0.0208333333333333
147
0.0
147
0.0
147
0.0
147
0.0
147
1.0
147
0.0
147
0.0
147
0.0
147
0.0
147
1.0
  0
MLEADERSTYLE
  5
1776
102
{ACAD_REACTORS
330
1775
102
}
330
1775
100
AcDbMLeaderStyle
170
     2
171
     1
172
     0
 90
        2
 40
0.0
 41
0.0
173
     1
 91
-1056964608
340
12
 92
       -2
290
     1
 42
0.09
291
     1
 43
0.36
  3
Standard
 44
0.18
300

342
F
174
     1
178
     6
175
     1
176
     0
 93
-1056964608
 45
0.18
292
     0
297
     0
 46
0.18
 94
-1056964608
 47
1.0
 49
1.0
140
1.0
293
     1
141
0.0
294
     1
177
     0
142
1.0
295
     0
296
     0
143
0.125
1001
ACAD_MLEADERVER
1070
     2
  0
MLINESTYLE
  5
1C
102
{ACAD_REACTORS
330
1B
102
}
330
1B
100
AcDbMlineStyle
  2
STANDARD
 70
     0
  3

 62
   256
 51
90.0
 52
90.0
 71
     2
 49
0.5
 62
   256
  6
BYLAYER
 49
-0.5
 62
   256
  6
BYLAYER
  0
ACDBPLACEHOLDER
  5
172D
102
{ACAD_REACTORS
330
172C
102
}
330
172C
  0
SCALE
  5
1764
102
{ACAD_REACTORS
330
1763
102
}
330
1763
100
AcDbScale
 70
     0
300
1:1
140
1.0
141
1.0
290
     1
  0
SCALE
  5
1765
102
{ACAD_REACTORS
330
1763
102
}
330
1763
100
AcDbScale
 70
     0
300
1/128" = 1'-0"
140
0.0078125
141
12.0
290
     0
  0
SCALE
  5
1766
102
{ACAD_REACTORS
330
1763
102
}
330
1763
100
AcDbScale
 70
     0
300
1/64" = 1'-0"
140
0.015625
141
12.0
290
     0
  0
SCALE
  5
1767
102
{ACAD_REACTORS
330
1763
102
}
330
1763
100
AcDbScale
 70
     0
300
1/32" = 1'-0"
140
0.03125
141
12.0
290
     0
  0
SCALE
  5
1768
102
{ACAD_REACTORS
330
1763
102
}
330
1763
100
AcDbScale
 70
     0
300
1/16" = 1'-0"
140
0.0625
141
12.0
290
     0
  0
SCALE
  5
1769
102
{ACAD_REACTORS
330
1763
102
}
330
1763
100
AcDbScale
 70
     0
300
3/32" = 1'-0"
140
0.09375
141
12.0
290
     0
  0
SCALE
  5
176A
102
{ACAD_REACTORS
330
1763
102
}
330
1763
100
AcDbScale
 70
     0
300
1/8" = 1'-0"
140
0.125
141
12.0
290
     0
  0
SCALE
  5
176B
102
{ACAD_REACTORS
330
1763
102
}
330
1763
100
AcDbScale
 70
     0
300
3/16" = 1'-0"
140
0.1875
141
12.0
290
     0
  0
SCALE
  5
176C
102
{ACAD_REACTORS
330
1763
102
}
330
1763
100
AcDbScale
 70
     0
300
1/4" = 1'-0"
140
0.25
141
12.0
290
     0
  0
SCALE
  5
176D
102
{ACAD_REACTORS
330
1763
102
}
330
1763
100
AcDbScale
 70
     0
300
3/8" = 1'-0"
140
0.375
141
12.0
290
     0
  0
SCALE
  5
176E
102
{ACAD_REACTORS
330
1763
102
}
330
1763
100
AcDbScale
 70
     0
300
1/2" = 1'-0"
140
0.5
141
12.0
290
     0
  0
SCALE
  5
176F
102
{ACAD_REACTORS
330
1763
102
}
330
1763
100
AcDbScale
 70
     0
300
3/4" = 1'-0"
140
0.75
141
12.0
290
     0
  0
SCALE
  5
1770
102
{ACAD_REACTORS
330
1763
102
}
330
1763
100
AcDbScale
 70
     0
300
1" = 1'-0"
140
1.0
141
12.0
290
     0
  0
SCALE
  5
1771
102
{ACAD_REACTORS
330
1763
102
}
330
1763
100
AcDbScale
 70
     0
300
1-1/2" = 1'-0"
140
1.5
141
12.0
290
     0
  0
SCALE
  5
1772
102
{ACAD_REACTORS
330
1763
102
}
330
1763
100
AcDbScale
 70
     0
300
3" = 1'-0"
140
3.0
141
12.0
290
     0
  0
SCALE
  5
1773
102
{ACAD_REACTORS
330
1763
102
}
330
1763
100
AcDbScale
 70
     0
300
6" = 1'-0"
140
6.0
141
12.0
290
     0
  0
SCALE
  5
1774
102
{ACAD_REACTORS
330
1763
102
}
330
1763
100
AcDbScale
 70
     0
300
1'-0" = 1'-0"
140
12.0
141
12.0
290
     0
  0
ACDBSECTIONVIEWSTYLE
  5
1778
102
{ACAD_XDICTIONARY
360
17D2
102
}
102
{ACAD_REACTORS
330
1777
102
}
330
1777
100
AcDbModelDocViewStyle
 70
     0
  3
Imperial24
290
     0
100
AcDbSectionViewStyle
 70
     0
 71
     0
 90
       78
 71
     1
340
F
 40
0.24
340
0
340
0
 40
0.24
300
I, O, Q, S, X, Z
 40
0.48
 90
        3
 40
0.18
 90
        1
 71
     2
340
14
 90
       25
340
14
 90
       50
 40
0.24
 40
0.0
 40
0.24
 71
     3
340
F
 40
0.24
 90
        1
 40
0.75
 90
        1
300
%<\AcVar ViewType \f "%tc1">% %<\AcVar ViewSectionStartId>%-%<\AcVar ViewSectionEndId>%\PSCALE %<\AcVar ViewScale \f "%sn">%
 71
     4
300
ANSI31
 40
1.0
 90
        0
290
     0
290
     0
 90
        6
 40
0.0
 40
1.570796326794896
 40
0.2617993877991494
 40
1.308996938995747
 40
-0.2617993877991494
 40
1.832595714594046
  0
TABLESTYLE
  5
1762
102
{ACAD_XDICTIONARY
360
1799
102
}
102
{ACAD_REACTORS
330
1761
102
}
330
1761
100
AcDbTableStyle
  3
Standard
 70
     0
 71
     0
 40
0.06
 41
0.06
280
     0
281
     0
  7
STANDARD
140
0.18
170
     2
 62
     0
 63
     7
283
     0
274
    -2
284
     1
 64
     0
275
    -2
285
     1
 65
     0
276
    -2
286
     1
 66
     0
277
    -2
287
     1
 67
     0
278
    -2
288
     1
 68
     0
279
    -2
289
     1
 69
     0
  7
STANDARD
140
0.25
170
     5
 62
     0
 63
     7
283
     0
274
    -2
284
     1
 64
     0
275
    -2
285
     1
 65
     0
276
    -2
286
     1
 66
     0
277
    -2
287
     1
 67
     0
278
    -2
288
     1
 68
     0
279
    -2
289
     1
 69
     0
  7
STANDARD
140
0.18
170
     5
 62
     0
 63
     7
283
     0
274
    -2
284
     1
 64
     0
275
    -2
285
     1
 65
     0
276
    -2
286
     1
 66
     0
277
    -2
287
     1
 67
     0
278
    -2
288
     1
 68
     0
279
    -2
289
     1
 69
     0
  0
VISUALSTYLE
  5
174D
102
{ACAD_XDICTIONARY
360
17AA
102
}
102
{ACAD_REACTORS
330
1747
102
}
330
1747
100
AcDbVisualStyle
  2
2dWireframe
 70
     4
 71
     0
 72
     2
 73
     0
 90
        0
 40
-0.6
 41
-30.0
 62
     5
 63
     7
 74
     1
 91
        4
 64
     7
 65
   257
 75
     1
175
     1
 42
1.0
 92
        0
 66
   257
 43
1.0
 76
     1
 77
     6
 78
     2
 67
     7
 79
     5
170
     0
171
     0
290
     0
174
     0
 93
        1
 44
0.0
173
     0
291
     0
 45
0.0
1001
ACAD
1000
AcDbSavedByObjectVersion
1070
     0
  0
VISUALSTYLE
  5
174C
102
{ACAD_XDICTIONARY
360
17A8
102
}
102
{ACAD_REACTORS
330
1747
102
}
330
1747
100
AcDbVisualStyle
  2
Basic
 70
     7
 71
     1
 72
     0
 73
     1
 90
        0
 40
-0.6
 41
-30.0
 62
     5
 63
     7
 74
     0
 91
        4
 64
     7
 65
   257
 75
     1
175
     1
 42
1.0
 92
        8
 66
     7
 43
1.0
 76
     1
 77
     6
 78
     2
 67
     7
 79
     5
170
     0
171
     0
290
     0
174
     0
 93
        1
 44
0.0
173
     0
291
     1
 45
0.0
1001
ACAD
1000
AcDbSavedByObjectVersion
1070
     0
  0
VISUALSTYLE
  5
1753
102
{ACAD_XDICTIONARY
360
17B6
102
}
102
{ACAD_REACTORS
330
1747
102
}
330
1747
100
AcDbVisualStyle
  2
Brighten
 70
    12
 71
     2
 72
     2
 73
     0
 90
        0
 40
-0.6
 41
-30.0
 62
     5
 63
     7
 74
     1
 91
        4
 64
     7
 65
   257
 75
     1
175
     1
 42
1.0
 92
        8
 66
     7
 43
1.0
 76
     1
 77
     6
 78
     2
 67
     7
 79
     5
170
     0
171
     0
290
     0
174
     0
 93
        1
 44
50.0
173
     0
291
     1
 45
0.0
1001
ACAD
1000
AcDbSavedByObjectVersion
1070
     0
  0
VISUALSTYLE
  5
1757
102
{ACAD_XDICTIONARY
360
17BE
102
}
102
{ACAD_REACTORS
330
1747
102
}
330
1747
100
AcDbVisualStyle
  2
ColorChange
 70
    16
 71
     2
 72
     2
 73
     3
 90
        0
 40
-0.6
 41
-30.0
 62
     5
 63
     8
 74
     1
 91
        4
 64
     7
 65
   257
 75
     1
175
     1
 42
1.0
 92
        8
 66
     8
 43
1.0
 76
     1
 77
     6
 78
     2
 67
     7
 79
     5
170
     0
171
     0
290
     0
174
     0
 93
        1
 44
0.0
173
     0
291
     1
 45
0.0
1001
ACAD
1000
AcDbSavedByObjectVersion
1070
     0
  0
VISUALSTYLE
  5
1750
102
{ACAD_XDICTIONARY
360
17B0
102
}
102
{ACAD_REACTORS
330
1747
102
}
330
1747
100
AcDbVisualStyle
  2
Conceptual
 70
     9
 71
     3
 72
     2
 73
     0
 90
        0
 40
-0.6
 41
-30.0
 62
     5
 63
     7
 74
     2
 91
        2
 64
     7
 65
   257
 75
     1
175
     1
 42
179.0
 92
        8
 66
     7
 43
1.0
 76
     1
 77
     6
 78
     2
 67
     7
 79
     3
170
     0
171
     0
290
     0
174
     0
 93
        1
 44
0.0
173
     0
291
     0
 45
0.0
1001
ACAD
1000
AcDbSavedByObjectVersion
1070
     0
  0
VISUALSTYLE
  5
1752
102
{ACAD_XDICTIONARY
360
17B4
102
}
102
{ACAD_REACTORS
330
1747
102
}
330
1747
100
AcDbVisualStyle
  2
Dim
 70
    11
 71
     2
 72
     2
 73
     0
 90
        0
 40
-0.6
 41
-30.0
 62
     5
 63
     7
 74
     1
 91
        4
 64
     7
 65
   257
 75
     1
175
     1
 42
1.0
 92
        8
 66
     7
 43
1.0
 76
     1
 77
     6
 78
     2
 67
     7
 79
     5
170
     0
171
     0
290
     0
174
     0
 93
        1
 44
-50.0
173
     0
291
     1
 45
0.0
1001
ACAD
1000
AcDbSavedByObjectVersion
1070
     0
  0
VISUALSTYLE
  5
175F
102
{ACAD_XDICTIONARY
360
17CE
102
}
102
{ACAD_REACTORS
330
1747
102
}
330
1747
100
AcDbVisualStyle
  2
EdgeColorOff
 70
    22
 71
     2
 72
     2
 73
     0
 90
        0
 40
-0.6
 41
-30.0
 62
     5
 63
     7
 74
     1
 91
        4
 64
     7
 65
   257
 75
     1
175
     1
 42
1.0
 92
        8
 66
     7
 43
1.0
 76
     1
 77
     6
 78
     2
 67
     7
 79
     5
170
     0
171
     0
290
     0
174
     0
 93
        1
 44
0.0
173
     0
291
     1
 45
0.0
1001
ACAD
1000
AcDbSavedByObjectVersion
1070
     0
  0
VISUALSTYLE
  5
1756
102
{ACAD_XDICTIONARY
360
17BC
102
}
102
{ACAD_REACTORS
330
1747
102
}
330
1747
100
AcDbVisualStyle
  2
Facepattern
 70
    15
 71
     2
 72
     2
 73
     0
 90
        0
 40
-0.6
 41
-30.0
 62
     5
 63
     7
 74
     1
 91
        4
 64
     7
 65
   257
 75
     1
175
     1
 42
1.0
 92
        8
 66
     7
 43
1.0
 76
     1
 77
     6
 78
     2
 67
     7
 79
     5
170
     0
171
     0
290
     0
174
     0
 93
        1
 44
0.0
173
     0
291
     1
 45
0.0
1001
ACAD
1000
AcDbSavedByObjectVersion
1070
     0
  0
VISUALSTYLE
  5
1748
102
{ACAD_XDICTIONARY
360
17A0
102
}
102
{ACAD_REACTORS
330
1747
102
}
330
1747
100
AcDbVisualStyle
  2
Flat
 70
     0
 71
     2
 72
     1
 73
     1
 90
        2
 40
-0.6
 41
30.0
 62
     5
 63
     7
 74
     0
 91
        0
 64
     7
 65
   257
 75
     1
175
     1
 42
1.0
 92
        8
 66
     7
 43
1.0
 76
     1
 77
     6
 78
     2
 67
     7
 79
     5
170
     0
171
     0
290
     0
174
     0
 93
       13
 44
0.0
173
     0
291
     1
 45
0.0
1001
ACAD
1000
AcDbSavedByObjectVersion
1070
     0
  0
VISUALSTYLE
  5
1749
102
{ACAD_XDICTIONARY
360
17A2
102
}
102
{ACAD_REACTORS
330
1747
102
}
330
1747
100
AcDbVisualStyle
  2
FlatWithEdges
 70
     1
 71
     2
 72
     1
 73
     1
 90
        2
 40
-0.6
 41
30.0
 62
     5
 63
     7
 74
     1
 91
        0
 64
     7
 65
   257
 75
     1
175
     1
 42
1.0
 92
        0
 66
   257
 43
1.0
 76
     1
 77
     6
 78
     2
 67
     7
 79
     5
170
     0
171
     0
290
     0
174
     0
 93
       13
 44
0.0
173
     0
291
     1
 45
0.0
1001
ACAD
1000
AcDbSavedByObjectVersion
1070
     0
  0
VISUALSTYLE
  5
174A
102
{ACAD_XDICTIONARY
360
17A4
102
}
102
{ACAD_REACTORS
330
1747
102
}
330
1747
100
AcDbVisualStyle
  2
Gouraud
 70
     2
 71
     2
 72
     2
 73
     1
 90
        2
 40
-0.6
 41
30.0
 62
     5
 63
     7
 74
     0
 91
        0
 64
     7
 65
   257
 75
     1
175
     1
 42
1.0
 92
        0
 66
     7
 43
1.0
 76
     1
 77
     6
 78
     2
 67
     7
 79
     5
170
     0
171
     0
290
     0
174
     0
 93
       13
 44
0.0
173
     0
291
     1
 45
0.0
1001
ACAD
1000
AcDbSavedByObjectVersion
1070
     0
  0
VISUALSTYLE
  5
174B
102
{ACAD_XDICTIONARY
360
17A6
102
}
102
{ACAD_REACTORS
330
1747
102
}
330
1747
100
AcDbVisualStyle
  2
GouraudWithEdges
 70
     3
 71
     2
 72
     2
 73
     1
 90
        2
 40
-0.6
 41
30.0
 62
     5
 63
     7
 74
     1
 91
        0
 64
     7
 65
   257
 75
     1
175
     1
 42
1.0
 92
        0
 66
   257
 43
1.0
 76
     1
 77
     6
 78
     2
 67
     7
 79
     5
170
     0
171
     0
290
     0
174
     0
 93
       13
 44
0.0
173
     0
291
     1
 45
0.0
1001
ACAD
1000
AcDbSavedByObjectVersion
1070
     0
  0
VISUALSTYLE
  5
174F
102
{ACAD_XDICTIONARY
360
17AE
102
}
102
{ACAD_REACTORS
330
1747
102
}
330
1747
100
AcDbVisualStyle
  2
Hidden
 70
     6
 71
     1
 72
     2
 73
     2
 90
        0
 40
-0.6
 41
-30.0
 62
     5
 63
     7
 74
     2
 91
        2
 64
     7
 65
   257
 75
     2
175
     1
 42
40.0
 92
        0
 66
   257
 43
1.0
 76
     1
 77
     6
 78
     2
 67
     7
 79
     3
170
     0
171
     0
290
     0
174
     0
 93
        1
 44
0.0
173
     0
291
     0
 45
0.0
1001
ACAD
1000
AcDbSavedByObjectVersion
1070
     0
  0
VISUALSTYLE
  5
175D
102
{ACAD_XDICTIONARY
360
17CA
102
}
102
{ACAD_REACTORS
330
1747
102
}
330
1747
100
AcDbVisualStyle
  2
JitterOff
 70
    20
 71
     2
 72
     2
 73
     0
 90
        0
 40
-0.6
 41
-30.0
 62
     5
 63
     7
 74
     1
 91
        4
 64
     7
 65
   257
 75
     1
175
     1
 42
1.0
 92
       10
 66
     7
 43
1.0
 76
     1
 77
     6
 78
     2
 67
     7
 79
     5
170
     0
171
     0
290
     0
174
     0
 93
        1
 44
0.0
173
     0
291
     1
 45
0.0
1001
ACAD
1000
AcDbSavedByObjectVersion
1070
     0
  0
VISUALSTYLE
  5
1755
102
{ACAD_XDICTIONARY
360
17BA
102
}
102
{ACAD_REACTORS
330
1747
102
}
330
1747
100
AcDbVisualStyle
  2
Linepattern
 70
    14
 71
     2
 72
     2
 73
     0
 90
        0
 40
-0.6
 41
-30.0
 62
     5
 63
     7
 74
     1
 91
        4
 64
     7
 65
   257
 75
     7
175
     7
 42
1.0
 92
        8
 66
     7
 43
1.0
 76
     1
 77
     6
 78
     2
 67
     7
 79
     5
170
     0
171
     0
290
     0
174
     0
 93
        1
 44
0.0
173
     0
291
     1
 45
0.0
1001
ACAD
1000
AcDbSavedByObjectVersion
1070
     0
  0
VISUALSTYLE
  5
175E
102
{ACAD_XDICTIONARY
360
17CC
102
}
102
{ACAD_REACTORS
330
1747
102
}
330
1747
100
AcDbVisualStyle
  2
OverhangOff
 70
    21
 71
     2
 72
     2
 73
     0
 90
        0
 40
-0.6
 41
-30.0
 62
     5
 63
     7
 74
     1
 91
        4
 64
     7
 65
   257
 75
     1
175
     1
 42
1.0
 92
        9
 66
     7
 43
1.0
 76
     1
 77
     6
 78
     2
 67
     7
 79
     5
170
     0
171
     0
290
     0
174
     0
 93
        1
 44
0.0
173
     0
291
     1
 45
0.0
1001
ACAD
1000
AcDbSavedByObjectVersion
1070
     0
  0
VISUALSTYLE
  5
1751
102
{ACAD_XDICTIONARY
360
17B2
102
}
102
{ACAD_REACTORS
330
1747
102
}
330
1747
100
AcDbVisualStyle
  2
Realistic
 70
     8
 71
     2
 72
     3
 73
     0
 90
        2
 40
-0.6
 41
30.0
 62
     5
 63
     7
 74
     0
 91
        0
 64
     7
 65
   257
 75
     1
175
     1
 42
1.0
 92
        8
 66
   257
 43
1.0
 76
     1
 77
     6
 78
     2
 67
     7
 79
     3
170
     0
171
     0
290
     0
174
     0
 93
       13
 44
0.0
173
     0
291
     0
 45
0.0
1001
ACAD
1000
AcDbSavedByObjectVersion
1070
     0
  0
VISUALSTYLE
  5
175C
102
{ACAD_XDICTIONARY
360
17C8
102
}
102
{ACAD_REACTORS
330
1747
102
}
330
1747
100
AcDbVisualStyle
  2
Shaded
 70
    27
 71
     2
 72
     2
 73
     1
 90
        2
 40
-0.6
 41
30.0
 62
     5
 63
     7
 74
     0
 91
        4
 64
     7
 65
   257
 75
     1
175
     1
 42
1.0
 92
        8
 66
   257
 43
1.0
 76
     1
 77
     6
 78
     2
 67
     8
 79
     3
170
     0
171
     0
290
     0
174
     0
 93
        5
 44
0.0
173
     0
291
     0
 45
0.0
1001
ACAD
1000
AcDbSavedByObjectVersion
1070
     0
  0
VISUALSTYLE
  5
175B
102
{ACAD_XDICTIONARY
360
17C6
102
}
102
{ACAD_REACTORS
330
1747
102
}
330
1747
100
AcDbVisualStyle
  2
Shaded with edges
 70
    26
 71
     2
 72
     2
 73
     1
 90
        2
 40
-0.6
 41
30.0
 62
     5
 63
     7
 74
     1
 91
       10
 64
     7
 65
   257
 75
     2
175
     1
 42
1.0
 92
        8
 66
   257
 43
1.0
 76
     1
 77
     6
 78
     2
 67
     7
 79
     3
170
     0
171
     0
290
     0
174
     0
 93
        5
 44
0.0
173
     0
291
     0
 45
0.0
1001
ACAD
1000
AcDbSavedByObjectVersion
1070
     0
  0
VISUALSTYLE
  5
1758
102
{ACAD_XDICTIONARY
360
17C0
102
}
102
{ACAD_REACTORS
330
1747
102
}
330
1747
100
AcDbVisualStyle
  2
Shades of Gray
 70
    23
 71
     2
 72
     2
 73
     3
 90
        0
 40
-0.6
 41
-30.0
 62
     5
 63
     7
 74
     2
 91
        2
 64
     7
 65
     7
 75
     1
175
     1
 42
40.0
 92
        8
 66
     7
 43
1.0
 76
     1
 77
     6
 78
     2
 67
     7
 79
     3
170
     0
171
     0
290
     0
174
     0
 93
        1
 44
0.0
173
     0
291
     0
 45
0.0
1001
ACAD
1000
AcDbSavedByObjectVersion
1070
     0
  0
VISUALSTYLE
  5
1759
102
{ACAD_XDICTIONARY
360
17C2
102
}
102
{ACAD_REACTORS
330
1747
102
}
330
1747
100
AcDbVisualStyle
  2
Sketchy
 70
    24
 71
     1
 72
     2
 73
     2
 90
        0
 40
-0.6
 41
-30.0
 62
     5
 63
     7
 74
     2
 91
        2
 64
     7
 65
     7
 75
     1
175
     1
 42
40.0
 92
       11
 66
     7
 43
1.0
 76
     1
 77
     6
 78
     2
 67
     7
 79
     6
170
     0
171
     0
290
     0
174
     0
 93
        1
 44
0.0
173
     0
291
     0
 45
0.0
1001
ACAD
1000
AcDbSavedByObjectVersion
1070
     0
  0
VISUALSTYLE
  5
1754
102
{ACAD_XDICTIONARY
360
17B8
102
}
102
{ACAD_REACTORS
330
1747
102
}
330
1747
100
AcDbVisualStyle
  2
Thicken
 70
    13
 71
     2
 72
     2
 73
     0
 90
        0
 40
-0.6
 41
-30.0
 62
     5
 63
     7
 74
     1
 91
        4
 64
     7
 65
   257
 75
     1
175
     1
 42
1.0
 92
       12
 66
     7
 43
1.0
 76
     1
 77
     6
 78
     2
 67
     7
 79
     5
170
     0
171
     0
290
     0
174
     0
 93
        1
 44
0.0
173
     0
291
     1
 45
0.0
1001
ACAD
1000
AcDbSavedByObjectVersion
1070
     0
  0
VISUALSTYLE
  5
174E
102
{ACAD_XDICTIONARY
360
17AC
102
}
102
{ACAD_REACTORS
330
1747
102
}
330
1747
100
AcDbVisualStyle
  2
Wireframe
 70
     5
 71
     0
 72
     2
 73
     0
 90
        0
 40
-0.6
 41
-30.0
 62
     5
 63
     7
 74
     1
 91
        4
 64
     7
 65
   257
 75
     1
175
     1
 42
1.0
 92
        0
 66
   257
 43
1.0
 76
     1
 77
     6
 78
     2
 67
     7
 79
     3
170
     0
171
     0
290
     0
174
     0
 93
        1
 44
0.0
173
     0
291
     0
 45
0.0
1001
ACAD
1000
AcDbSavedByObjectVersion
1070
     0
  0
VISUALSTYLE
  5
175A
102
{ACAD_XDICTIONARY
360
17C4
102
}
102
{ACAD_REACTORS
330
1747
102
}
330
1747
100
AcDbVisualStyle
  2
X-Ray
 70
    25
 71
     2
 72
     2
 73
     1
 90
        1
 40
0.5
 41
-30.0
 62
     5
 63
     7
 74
     1
 91
        0
 64
     7
 65
   257
 75
     1
175
     1
 42
1.0
 92
        8
 66
     7
 43
1.0
 76
     1
 77
     6
 78
     2
 67
     7
 79
     3
170
     0
171
     0
290
     0
174
     0
 93
       13
 44
0.0
173
     0
291
     0
 45
0.0
1001
ACAD
1000
AcDbSavedByObjectVersion
1070
     0
  0
DICTIONARYVAR
  5
1793
102
{ACAD_REACTORS
330
178E
102
}
330
178E
100
DictionaryVariables
280
     0
  1
1:1
  0
DICTIONARYVAR
  5
1790
102
{ACAD_REACTORS
330
178E
102
}
330
178E
100
DictionaryVariables
280
     0
  1
STANDARD
  0
DICTIONARYVAR
  5
178F
102
{ACAD_REACTORS
330
178E
102
}
330
178E
100
DictionaryVariables
280
     0
  1
STANDARD
  0
DICTIONARYVAR
  5
1791
102
{ACAD_REACTORS
330
178E
102
}
330
178E
100
DictionaryVariables
280
     0
  1
Imperial24
  0
DICTIONARYVAR
  5
1792
102
{ACAD_REACTORS
330
178E
102
}
330
178E
100
DictionaryVariables
280
     0
  1
Imperial24
  0
DICTIONARYVAR
  5
1796
102
{ACAD_REACTORS
330
178E
102
}
330
178E
100
DictionaryVariables
280
     0
  1
1
  0
DICTIONARYVAR
  5
1795
102
{ACAD_REACTORS
330
178E
102
}
330
178E
100
DictionaryVariables
280
     0
  1
0
  0
DICTIONARYVAR
  5
1794
102
{ACAD_REACTORS
330
178E
102
}
330
178E
100
DictionaryVariables
280
     0
  1
127
  0
DICTIONARYVAR
  5
1797
102
{ACAD_REACTORS
330
178E
102
}
330
178E
100
DictionaryVariables
280
     0
  1
2
  0
DICTIONARY
  5
17D4
330
177A
100
AcDbDictionary
280
     1
281
     1
  3
ACAD_XREC_ROUNDTRIP
360
17D5
  0
DICTIONARY
  5
17D6
330
177B
100
AcDbDictionary
280
     1
281
     1
  3
ACAD_XREC_ROUNDTRIP
360
17D7
  0
DICTIONARY
  5
17D8
330
177C
100
AcDbDictionary
280
     1
281
     1
  3
ACAD_XREC_ROUNDTRIP
360
17D9
  0
DICTIONARY
  5
1738
330
1737
100
AcDbDictionary
280
     1
281
     1
  3
ACAD_XREC_ROUNDTRIP
360
179E
  3
BUMPTILE
360
173A
  3
DIFFUSETILE
360
1739
  3
OPACITYTILE
360
173D
  3
REFLECTIONTILE
360
173C
  3
REFRACTIONTILE
360
173E
  3
SPECULARTILE
360
173B
  0
DICTIONARY
  5
1730
330
172F
100
AcDbDictionary
280
     1
281
     1
  3
ACAD_XREC_ROUNDTRIP
360
179D
  3
BUMPTILE
360
1732
  3
DIFFUSETILE
360
1731
  3
OPACITYTILE
360
1735
  3
REFLECTIONTILE
360
1734
  3
REFRACTIONTILE
360
1736
  3
SPECULARTILE
360
1733
  0
DICTIONARY
  5
1740
330
173F
100
AcDbDictionary
280
     1
281
     1
  3
ACAD_XREC_ROUNDTRIP
360
179F
  3
BUMPTILE
360
1742
  3
DIFFUSETILE
360
1741
  3
OPACITYTILE
360
1745
  3
REFLECTIONTILE
360
1744
  3
REFRACTIONTILE
360
1746
  3
SPECULARTILE
360
1743
  0
DICTIONARY
  5
17D2
330
1778
100
AcDbDictionary
280
     1
281
     1
  3
ACAD_XREC_ROUNDTRIP
360
17D3
  0
DICTIONARY
  5
1799
330
1762
100
AcDbDictionary
280
     1
281
     1
  3
ACAD_ROUNDTRIP_2008_TABLESTYLE_CELLSTYLEMAP
360
179A
  3
ACAD_XREC_ROUNDTRIP
360
17D0
  0
DICTIONARY
  5
17AA
330
174D
100
AcDbDictionary
280
     1
281
     1
  3
ACAD_XREC_ROUNDTRIP
360
17AB
  0
DICTIONARY
  5
17A8
330
174C
100
AcDbDictionary
280
     1
281
     1
  3
ACAD_XREC_ROUNDTRIP
360
17A9
  0
DICTIONARY
  5
17B6
330
1753
100
AcDbDictionary
280
     1
281
     1
  3
ACAD_XREC_ROUNDTRIP
360
17B7
  0
DICTIONARY
  5
17BE
330
1757
100
AcDbDictionary
280
     1
281
     1
  3
ACAD_XREC_ROUNDTRIP
360
17BF
  0
DICTIONARY
  5
17B0
330
1750
100
AcDbDictionary
280
     1
281
     1
  3
ACAD_XREC_ROUNDTRIP
360
17B1
  0
DICTIONARY
  5
17B4
330
1752
100
AcDbDictionary
280
     1
281
     1
  3
ACAD_XREC_ROUNDTRIP
360
17B5
  0
DICTIONARY
  5
17CE
330
175F
100
AcDbDictionary
280
     1
281
     1
  3
ACAD_XREC_ROUNDTRIP
360
17CF
  0
DICTIONARY
  5
17BC
330
1756
100
AcDbDictionary
280
     1
281
     1
  3
ACAD_XREC_ROUNDTRIP
360
17BD
  0
DICTIONARY
  5
17A0
330
1748
100
AcDbDictionary
280
     1
281
     1
  3
ACAD_XREC_ROUNDTRIP
360
17A1
  0
DICTIONARY
  5
17A2
330
1749
100
AcDbDictionary
280
     1
281
     1
  3
ACAD_XREC_ROUNDTRIP
360
17A3
  0
DICTIONARY
  5
17A4
330
174A
100
AcDbDictionary
280
     1
281
     1
  3
ACAD_XREC_ROUNDTRIP
360
17A5
  0
DICTIONARY
  5
17A6
330
174B
100
AcDbDictionary
280
     1
281
     1
  3
ACAD_XREC_ROUNDTRIP
360
17A7
  0
DICTIONARY
  5
17AE
330
174F
100
AcDbDictionary
280
     1
281
     1
  3
ACAD_XREC_ROUNDTRIP
360
17AF
  0
DICTIONARY
  5
17CA
330
175D
100
AcDbDictionary
280
     1
281
     1
  3
ACAD_XREC_ROUNDTRIP
360
17CB
  0
DICTIONARY
  5
17BA
330
1755
100
AcDbDictionary
280
     1
281
     1
  3
ACAD_XREC_ROUNDTRIP
360
17BB
  0
DICTIONARY
  5
17CC
330
175E
100
AcDbDictionary
280
     1
281
     1
  3
ACAD_XREC_ROUNDTRIP
360
17CD
  0
DICTIONARY
  5
17B2
330
1751
100
AcDbDictionary
280
     1
281
     1
  3
ACAD_XREC_ROUNDTRIP
360
17B3
  0
DICTIONARY
  5
17C8
330
175C
100
AcDbDictionary
280
     1
281
     1
  3
ACAD_XREC_ROUNDTRIP
360
17C9
  0
DICTIONARY
  5
17C6
330
175B
100
AcDbDictionary
280
     1
281
     1
  3
ACAD_XREC_ROUNDTRIP
360
17C7
  0
DICTIONARY
  5
17C0
330
1758
100
AcDbDictionary
280
     1
281
     1
  3
ACAD_XREC_ROUNDTRIP
360
17C1
  0
DICTIONARY
  5
17C2
330
1759
100
AcDbDictionary
280
     1
281
     1
  3
ACAD_XREC_ROUNDTRIP
360
17C3
  0
DICTIONARY
  5
17B8
330
1754
100
AcDbDictionary
280
     1
281
     1
  3
ACAD_XREC_ROUNDTRIP
360
17B9
  0
DICTIONARY
  5
17AC
330
174E
100
AcDbDictionary
280
     1
281
     1
  3
ACAD_XREC_ROUNDTRIP
360
17AD
  0
DICTIONARY
  5
17C4
330
175A
100
AcDbDictionary
280
     1
281
     1
  3
ACAD_XREC_ROUNDTRIP
360
17C5
  0
XRECORD
  5
17D5
102
{ACAD_REACTORS
330
17D4
102
}
330
17D4
100
AcDbXrecord
280
     1
102
DISPLAYNAME
  1
Imperial24
102
FLAGS
 90
        0
  0
XRECORD
  5
17D7
102
{ACAD_REACTORS
330
17D6
102
}
330
17D6
100
AcDbXrecord
280
     1
102
SHADEPLOT
 70
     0
102
SHADEPLOTRESLEVEL
 70
     2
102
SHADEPLOTCUSTOMDPI
 70
   300
  0
XRECORD
  5
17D9
102
{ACAD_REACTORS
330
17D8
102
}
330
17D8
100
AcDbXrecord
280
     1
102
SHADEPLOT
 70
     0
102
SHADEPLOTRESLEVEL
 70
     2
102
SHADEPLOTCUSTOMDPI
 70
   300
  0
XRECORD
  5
179E
102
{ACAD_REACTORS
330
1738
102
}
330
1738
100
AcDbXrecord
280
     1
102
MATERIAL
148
0.0
149
0.0
149
0.0
 93
        0
 94
      127
282
     0
 72
     0
 77
     0
171
     0
175
     0
179
     0
273
     0
  0
XRECORD
  5
173A
102
{ACAD_REACTORS
330
1738
102
}
330
1738
100
AcDbXrecord
280
     1
270
     1
271
     1
  0
XRECORD
  5
1739
102
{ACAD_REACTORS
330
1738
102
}
330
1738
100
AcDbXrecord
280
     1
270
     1
271
     1
  0
XRECORD
  5
173D
102
{ACAD_REACTORS
330
1738
102
}
330
1738
100
AcDbXrecord
280
     1
270
     1
271
     1
  0
XRECORD
  5
173C
102
{ACAD_REACTORS
330
1738
102
}
330
1738
100
AcDbXrecord
280
     1
270
     1
271
     1
  0
XRECORD
  5
173E
102
{ACAD_REACTORS
330
1738
102
}
330
1738
100
AcDbXrecord
280
     1
270
     1
271
     1
  0
XRECORD
  5
173B
102
{ACAD_REACTORS
330
1738
102
}
330
1738
100
AcDbXrecord
280
     1
270
     1
271
     1
  0
XRECORD
  5
179D
102
{ACAD_REACTORS
330
1730
102
}
330
1730
100
AcDbXrecord
280
     1
102
MATERIAL
148
0.0
149
0.0
149
0.0
 93
        0
 94
      127
282
     0
 72
     0
 77
     0
171
     0
175
     0
179
     0
273
     0
  0
XRECORD
  5
1732
102
{ACAD_REACTORS
330
1730
102
}
330
1730
100
AcDbXrecord
280
     1
270
     1
271
     1
  0
XRECORD
  5
1731
102
{ACAD_REACTORS
330
1730
102
}
330
1730
100
AcDbXrecord
280
     1
270
     1
271
     1
  0
XRECORD
  5
1735
102
{ACAD_REACTORS
330
1730
102
}
330
1730
100
AcDbXrecord
280
     1
270
     1
271
     1
  0
XRECORD
  5
1734
102
{ACAD_REACTORS
330
1730
102
}
330
1730
100
AcDbXrecord
280
     1
270
     1
271
     1
  0
XRECORD
  5
1736
102
{ACAD_REACTORS
330
1730
102
}
330
1730
100
AcDbXrecord
280
     1
270
     1
271
     1
  0
XRECORD
  5
1733
102
{ACAD_REACTORS
330
1730
102
}
330
1730
100
AcDbXrecord
280
     1
270
     1
271
     1
  0
XRECORD
  5
179F
102
{ACAD_REACTORS
330
1740
102
}
330
1740
100
AcDbXrecord
280
     1
102
MATERIAL
148
0.0
149
0.0
149
0.0
 93
        0
 94
      127
282
     0
 72
     0
 77
     0
171
     0
175
     0
179
     0
273
     0
  0
XRECORD
  5
1742
102
{ACAD_REACTORS
330
1740
102
}
330
1740
100
AcDbXrecord
280
     1
270
     1
271
     1
  0
XRECORD
  5
1741
102
{ACAD_REACTORS
330
1740
102
}
330
1740
100
AcDbXrecord
280
     1
270
     1
271
     1
  0
XRECORD
  5
1745
102
{ACAD_REACTORS
330
1740
102
}
330
1740
100
AcDbXrecord
280
     1
270
     1
271
     1
  0
XRECORD
  5
1744
102
{ACAD_REACTORS
330
1740
102
}
330
1740
100
AcDbXrecord
280
     1
270
     1
271
     1
  0
XRECORD
  5
1746
102
{ACAD_REACTORS
330
1740
102
}
330
1740
100
AcDbXrecord
280
     1
270
     1
271
     1
  0
XRECORD
  5
1743
102
{ACAD_REACTORS
330
1740
102
}
330
1740
100
AcDbXrecord
280
     1
270
     1
271
     1
  0
XRECORD
  5
17D3
102
{ACAD_REACTORS
330
17D2
102
}
330
17D2
100
AcDbXrecord
280
     1
102
DISPLAYNAME
  1
Imperial24
102
FLAGS
 90
        0
  0
CELLSTYLEMAP
  5
179A
102
{ACAD_REACTORS
330
1799
102
}
330
1799
100
AcDbCellStyleMap
 90
        3
300
CELLSTYLE
  1
TABLEFORMAT_BEGIN
 90
        5
170
     1
 91
        0
 92
    32768
 62
   257
 93
        1
300
CONTENTFORMAT
  1
CONTENTFORMAT_BEGIN
 90
        0
 91
        0
 92
      512
 93
        0
300

 40
0.0
140
1.0
 94
        5
 62
     0
340
F
144
0.25
309
CONTENTFORMAT_END
171
     0
 94
        0
309
TABLEFORMAT_END
  1
CELLSTYLE_BEGIN
 90
        1
 91
        1
300
_TITLE
309
CELLSTYLE_END
300
CELLSTYLE
  1
TABLEFORMAT_BEGIN
 90
        5
170
     1
 91
        0
 92
        0
 62
   257
 93
        1
300
CONTENTFORMAT
  1
CONTENTFORMAT_BEGIN
 90
        0
 91
        0
 92
      512
 93
        0
300

 40
0.0
140
1.0
 94
        5
 62
     0
340
F
144
0.18
309
CONTENTFORMAT_END
171
     0
 94
        0
309
TABLEFORMAT_END
  1
CELLSTYLE_BEGIN
 90
        2
 91
        1
300
_HEADER
309
CELLSTYLE_END
300
CELLSTYLE
  1
TABLEFORMAT_BEGIN
 90
        5
170
     1
 91
        0
 92
        0
 62
   257
 93
        1
300
CONTENTFORMAT
  1
CONTENTFORMAT_BEGIN
 90
        0
 91
        0
 92
      512
 93
        0
300

 40
0.0
140
1.0
 94
        2
 62
     0
340
F
144
0.18
309
CONTENTFORMAT_END
171
     0
 94
        0
309
TABLEFORMAT_END
  1
CELLSTYLE_BEGIN
 90
        3
 91
        2
300
_DATA
309
CELLSTYLE_END
  0
XRECORD
  5
17D0
102
{ACAD_REACTORS
330
1799
102
}
330
1799
100
AcDbXrecord
280
     1
102
ACAD_ROUNDTRIP_PRE2007_TABLESTYLE
 90
      512
 91
        0
  1

 92
      512
 93
        0
  2

 94
      512
 95
        0
  3

  0
XRECORD
  5
17AB
102
{ACAD_REACTORS
330
17AA
102
}
330
17AA
100
AcDbXrecord
280
     1
102
RTVSPost2010Prop28
280
     1
102
RTVSPost2010PropOp28
 70
     1
102
RTVSPost2010Prop29
280
     1
102
RTVSPost2010PropOp29
 70
     1
102
RTVSPost2010Prop30
280
     0
102
RTVSPost2010PropOp30
 70
     1
102
RTVSPost2010Prop31
280
     0
102
RTVSPost2010PropOp31
 70
     1
102
RTVSPost2010Prop32
280
     0
102
RTVSPost2010PropOp32
 70
     1
102
RTVSPost2010Prop33
280
     0
102
RTVSPost2010PropOp33
 70
     1
102
RTVSPost2010Prop34
280
     0
102
RTVSPost2010PropOp34
 70
     1
102
RTVSPost2010Prop35
280
     0
102
RTVSPost2010PropOp35
 70
     1
102
RTVSPost2010Prop36
280
     0
102
RTVSPost2010PropOp36
 70
     1
102
RTVSPost2010Prop37
 90
       50
102
RTVSPost2010PropOp37
 70
     1
102
RTVSPost2010Prop38
140
0.0
102
RTVSPost2010PropOp38
 70
     1
102
RTVSPost2010Prop39
140
1.0
102
RTVSPost2010PropOp39
 70
     1
102
RTVSPost2010Prop40
 90
        0
102
RTVSPost2010PropOp40
 70
     1
102
RTVSPost2010Prop41ColorIndex
 90
       18
102
RTVSPost2010Prop41ColorRGB
 90
        0
102
RTVSPost2010PropOp41
 70
     1
102
RTVSPost2010Prop42
 90
       50
102
RTVSPost2010PropOp42
 70
     1
102
RTVSPost2010Prop43
 90
        3
102
RTVSPost2010PropOp43
 70
     1
102
RTVSPost2010Prop44ColorIndex
 90
        5
102
RTVSPost2010Prop44ColorRGB
 90
      255
102
RTVSPost2010PropOp44
 70
     1
102
RTVSPost2010Prop45
280
     0
102
RTVSPost2010PropOp45
 70
     1
102
RTVSPost2010Prop46
 90
       50
102
RTVSPost2010PropOp46
 70
     1
102
RTVSPost2010Prop47
 90
       50
102
RTVSPost2010PropOp47
 70
     1
102
RTVSPost2010Prop48
 90
       50
102
RTVSPost2010PropOp48
 70
     1
102
RTVSPost2010Prop49
280
     0
102
RTVSPost2010PropOp49
 70
     1
102
RTVSPost2010Prop50
 90
       50
102
RTVSPost2010PropOp50
 70
     1
102
RTVSPost2010Prop51ColorIndex
 90
      256
102
RTVSPost2010Prop51ColorRGB
 90
-16777216
102
RTVSPost2010PropOp51
 70
     0
102
RTVSPost2010Prop52
140
1.0
102
RTVSPost2010PropOp52
 70
     0
102
RTVSPost2010Prop53
 90
        2
102
RTVSPost2010PropOp53
 70
     1
102
RTVSPost2010Prop54
  1
strokes_ogs.tif
102
RTVSPost2010PropOp54
 70
     1
102
RTVSPost2010Prop55
280
     0
102
RTVSPost2010PropOp55
 70
     1
102
RTVSPost2010Prop56
140
1.0
102
RTVSPost2010PropOp56
 70
     1
102
RTVSPost2010Prop57
140
1.0
102
RTVSPost2010PropOp57
 70
     1
102
RTVSPropertyOp0
 70
     1
102
RTVSPropertyOp1
 70
     1
102
RTVSPropertyOp2
 70
     1
102
RTVSPropertyOp3
 70
     1
102
RTVSPropertyOp4
 70
     1
102
RTVSPropertyOp5
 70
     1
102
RTVSPropertyOp6
 70
     1
102
RTVSPropertyOp7
 70
     1
102
RTVSPropertyOp8
 70
     1
102
RTVSPropertyOp9
 70
     1
102
RTVSPropertyOp10
 70
     1
102
RTVSPropertyOp11
 70
     1
102
RTVSPropertyOp12
 70
     1
102
RTVSPropertyOp13
 70
     1
102
RTVSPropertyOp14
 70
     1
102
RTVSPropertyOp15
 70
     1
102
RTVSPropertyOp16
 70
     1
102
RTVSPropertyOp17
 70
     1
102
RTVSPropertyOp18
 70
     1
102
RTVSPropertyOp19
 70
     1
102
RTVSPropertyOp20
 70
     1
102
RTVSPropertyOp21
 70
     1
102
RTVSPropertyOp22
 70
     1
102
RTVSPropertyOp23
 70
     1
102
RTVSPropertyOp24
 70
     1
102
RTVSPropertyOp25
 70
     1
102
RTVSPropertyOp26
 70
     1
102
RTVSPropertyOp27
 70
     1
102
RTVSPropertyOp28
 70
     1
102
RTVSPropertyOp29
 70
     1
102
RTVSPropertyOp30
 70
     1
102
RTVSPropertyOp31
 70
     1
102
RTVSPropertyOp32
 70
     1
102
RTVSPropertyOp33
 70
     1
102
RTVSPropertyOp34
 70
     1
102
RTVSPropertyOp35
 70
     1
102
RTVSPropertyOp36
 70
     1
102
RTVSPropertyOp37
 70
     1
102
RTVSPropertyOp38
 70
     1
102
RTVSPropertyOp39
 70
     1
102
RTVSPropertyOp40
 70
     1
102
RTVSPropertyOp41
 70
     1
102
RTVSPropertyOp42
 70
     1
102
RTVSPropertyOp43
 70
     1
102
RTVSPropertyOp44
 70
     1
102
RTVSPropertyOp45
 70
     1
102
RTVSPropertyOp46
 70
     1
102
RTVSPropertyOp47
 70
     1
102
RTVSPropertyOp48
 70
     1
102
RTVSPropertyOp49
 70
     1
102
RTVSPropertyOp50
 70
     1
102
RTVSPropertyOp51
 70
     0
102
RTVSPropertyOp52
 70
     0
102
RTVSPropertyOp53
 70
     1
102
RTVSPropertyOp54
 70
     1
102
RTVSPropertyOp55
 70
     1
102
RTVSPropertyOp56
 70
     1
102
RTVSPropertyOp57
 70
     1
102
RTVSPropertyOp58
 70
     1
102
RTVSPropertyOp59
 70
     1
102
RTVSPropertyOp60
 70
     1
102
RTVSPropertyOp61
 70
     1
102
RTVSPropertyOp62
 70
     1
  0
XRECORD
  5
17A9
102
{ACAD_REACTORS
330
17A8
102
}
330
17A8
100
AcDbXrecord
280
     1
102
RTVSPost2010Prop28
280
     0
102
RTVSPost2010PropOp28
 70
     1
102
RTVSPost2010Prop29
280
     1
102
RTVSPost2010PropOp29
 70
     1
102
RTVSPost2010Prop30
280
     1
102
RTVSPost2010PropOp30
 70
     1
102
RTVSPost2010Prop31
280
     0
102
RTVSPost2010PropOp31
 70
     1
102
RTVSPost2010Prop32
280
     0
102
RTVSPost2010PropOp32
 70
     1
102
RTVSPost2010Prop33
280
     0
102
RTVSPost2010PropOp33
 70
     1
102
RTVSPost2010Prop34
280
     0
102
RTVSPost2010PropOp34
 70
     1
102
RTVSPost2010Prop35
280
     0
102
RTVSPost2010PropOp35
 70
     1
102
RTVSPost2010Prop36
280
     0
102
RTVSPost2010PropOp36
 70
     1
102
RTVSPost2010Prop37
 90
       50
102
RTVSPost2010PropOp37
 70
     1
102
RTVSPost2010Prop38
140
0.0
102
RTVSPost2010PropOp38
 70
     1
102
RTVSPost2010Prop39
140
1.0
102
RTVSPost2010PropOp39
 70
     1
102
RTVSPost2010Prop40
 90
        0
102
RTVSPost2010PropOp40
 70
     1
102
RTVSPost2010Prop41ColorIndex
 90
       18
102
RTVSPost2010Prop41ColorRGB
 90
        0
102
RTVSPost2010PropOp41
 70
     1
102
RTVSPost2010Prop42
 90
       50
102
RTVSPost2010PropOp42
 70
     1
102
RTVSPost2010Prop43
 90
        3
102
RTVSPost2010PropOp43
 70
     1
102
RTVSPost2010Prop44ColorIndex
 90
        5
102
RTVSPost2010Prop44ColorRGB
 90
      255
102
RTVSPost2010PropOp44
 70
     1
102
RTVSPost2010Prop45
280
     0
102
RTVSPost2010PropOp45
 70
     1
102
RTVSPost2010Prop46
 90
       50
102
RTVSPost2010PropOp46
 70
     1
102
RTVSPost2010Prop47
 90
       50
102
RTVSPost2010PropOp47
 70
     1
102
RTVSPost2010Prop48
 90
       50
102
RTVSPost2010PropOp48
 70
     1
102
RTVSPost2010Prop49
280
     0
102
RTVSPost2010PropOp49
 70
     1
102
RTVSPost2010Prop50
 90
       50
102
RTVSPost2010PropOp50
 70
     1
102
RTVSPost2010Prop51ColorIndex
 90
      256
102
RTVSPost2010Prop51ColorRGB
 90
-16777216
102
RTVSPost2010PropOp51
 70
     0
102
RTVSPost2010Prop52
140
1.0
102
RTVSPost2010PropOp52
 70
     0
102
RTVSPost2010Prop53
 90
        2
102
RTVSPost2010PropOp53
 70
     1
102
RTVSPost2010Prop54
  1
strokes_ogs.tif
102
RTVSPost2010PropOp54
 70
     1
102
RTVSPost2010Prop55
280
     0
102
RTVSPost2010PropOp55
 70
     1
102
RTVSPost2010Prop56
140
1.0
102
RTVSPost2010PropOp56
 70
     1
102
RTVSPost2010Prop57
140
1.0
102
RTVSPost2010PropOp57
 70
     1
102
RTVSPropertyOp0
 70
     1
102
RTVSPropertyOp1
 70
     1
102
RTVSPropertyOp2
 70
     1
102
RTVSPropertyOp3
 70
     1
102
RTVSPropertyOp4
 70
     1
102
RTVSPropertyOp5
 70
     1
102
RTVSPropertyOp6
 70
     1
102
RTVSPropertyOp7
 70
     1
102
RTVSPropertyOp8
 70
     1
102
RTVSPropertyOp9
 70
     1
102
RTVSPropertyOp10
 70
     1
102
RTVSPropertyOp11
 70
     1
102
RTVSPropertyOp12
 70
     1
102
RTVSPropertyOp13
 70
     1
102
RTVSPropertyOp14
 70
     1
102
RTVSPropertyOp15
 70
     1
102
RTVSPropertyOp16
 70
     1
102
RTVSPropertyOp17
 70
     1
102
RTVSPropertyOp18
 70
     1
102
RTVSPropertyOp19
 70
     1
102
RTVSPropertyOp20
 70
     1
102
RTVSPropertyOp21
 70
     1
102
RTVSPropertyOp22
 70
     1
102
RTVSPropertyOp23
 70
     1
102
RTVSPropertyOp24
 70
     1
102
RTVSPropertyOp25
 70
     1
102
RTVSPropertyOp26
 70
     1
102
RTVSPropertyOp27
 70
     1
102
RTVSPropertyOp28
 70
     1
102
RTVSPropertyOp29
 70
     1
102
RTVSPropertyOp30
 70
     1
102
RTVSPropertyOp31
 70
     1
102
RTVSPropertyOp32
 70
     1
102
RTVSPropertyOp33
 70
     1
102
RTVSPropertyOp34
 70
     1
102
RTVSPropertyOp35
 70
     1
102
RTVSPropertyOp36
 70
     1
102
RTVSPropertyOp37
 70
     1
102
RTVSPropertyOp38
 70
     1
102
RTVSPropertyOp39
 70
     1
102
RTVSPropertyOp40
 70
     1
102
RTVSPropertyOp41
 70
     1
102
RTVSPropertyOp42
 70
     1
102
RTVSPropertyOp43
 70
     1
102
RTVSPropertyOp44
 70
     1
102
RTVSPropertyOp45
 70
     1
102
RTVSPropertyOp46
 70
     1
102
RTVSPropertyOp47
 70
     1
102
RTVSPropertyOp48
 70
     1
102
RTVSPropertyOp49
 70
     1
102
RTVSPropertyOp50
 70
     1
102
RTVSPropertyOp51
 70
     0
102
RTVSPropertyOp52
 70
     0
102
RTVSPropertyOp53
 70
     1
102
RTVSPropertyOp54
 70
     1
102
RTVSPropertyOp55
 70
     1
102
RTVSPropertyOp56
 70
     1
102
RTVSPropertyOp57
 70
     1
102
RTVSPropertyOp58
 70
     1
102
RTVSPropertyOp59
 70
     1
102
RTVSPropertyOp60
 70
     1
102
RTVSPropertyOp61
 70
     1
102
RTVSPropertyOp62
 70
     1
  0
XRECORD
  5
17B7
102
{ACAD_REACTORS
330
17B6
102
}
330
17B6
100
AcDbXrecord
280
     1
102
RTVSPost2010Prop28
280
     0
102
RTVSPost2010PropOp28
 70
     1
102
RTVSPost2010Prop29
280
     1
102
RTVSPost2010PropOp29
 70
     1
102
RTVSPost2010Prop30
280
     1
102
RTVSPost2010PropOp30
 70
     1
102
RTVSPost2010Prop31
280
     0
102
RTVSPost2010PropOp31
 70
     1
102
RTVSPost2010Prop32
280
     0
102
RTVSPost2010PropOp32
 70
     1
102
RTVSPost2010Prop33
280
     0
102
RTVSPost2010PropOp33
 70
     1
102
RTVSPost2010Prop34
280
     0
102
RTVSPost2010PropOp34
 70
     1
102
RTVSPost2010Prop35
280
     0
102
RTVSPost2010PropOp35
 70
     1
102
RTVSPost2010Prop36
280
     0
102
RTVSPost2010PropOp36
 70
     1
102
RTVSPost2010Prop37
 90
       50
102
RTVSPost2010PropOp37
 70
     1
102
RTVSPost2010Prop38
140
0.0
102
RTVSPost2010PropOp38
 70
     1
102
RTVSPost2010Prop39
140
1.0
102
RTVSPost2010PropOp39
 70
     1
102
RTVSPost2010Prop40
 90
        0
102
RTVSPost2010PropOp40
 70
     1
102
RTVSPost2010Prop41ColorIndex
 90
       18
102
RTVSPost2010Prop41ColorRGB
 90
        0
102
RTVSPost2010PropOp41
 70
     1
102
RTVSPost2010Prop42
 90
       50
102
RTVSPost2010PropOp42
 70
     1
102
RTVSPost2010Prop43
 90
        3
102
RTVSPost2010PropOp43
 70
     1
102
RTVSPost2010Prop44ColorIndex
 90
        5
102
RTVSPost2010Prop44ColorRGB
 90
      255
102
RTVSPost2010PropOp44
 70
     1
102
RTVSPost2010Prop45
280
     0
102
RTVSPost2010PropOp45
 70
     1
102
RTVSPost2010Prop46
 90
       50
102
RTVSPost2010PropOp46
 70
     1
102
RTVSPost2010Prop47
 90
       50
102
RTVSPost2010PropOp47
 70
     1
102
RTVSPost2010Prop48
 90
       50
102
RTVSPost2010PropOp48
 70
     1
102
RTVSPost2010Prop49
280
     0
102
RTVSPost2010PropOp49
 70
     1
102
RTVSPost2010Prop50
 90
       50
102
RTVSPost2010PropOp50
 70
     1
102
RTVSPost2010Prop51ColorIndex
 90
      256
102
RTVSPost2010Prop51ColorRGB
 90
-16777216
102
RTVSPost2010PropOp51
 70
     0
102
RTVSPost2010Prop52
140
1.0
102
RTVSPost2010PropOp52
 70
     0
102
RTVSPost2010Prop53
 90
        2
102
RTVSPost2010PropOp53
 70
     1
102
RTVSPost2010Prop54
  1
strokes_ogs.tif
102
RTVSPost2010PropOp54
 70
     1
102
RTVSPost2010Prop55
280
     0
102
RTVSPost2010PropOp55
 70
     1
102
RTVSPost2010Prop56
140
1.0
102
RTVSPost2010PropOp56
 70
     1
102
RTVSPost2010Prop57
140
1.0
102
RTVSPost2010PropOp57
 70
     1
102
RTVSPropertyOp0
 70
     1
102
RTVSPropertyOp1
 70
     1
102
RTVSPropertyOp2
 70
     1
102
RTVSPropertyOp3
 70
     1
102
RTVSPropertyOp4
 70
     1
102
RTVSPropertyOp5
 70
     1
102
RTVSPropertyOp6
 70
     1
102
RTVSPropertyOp7
 70
     1
102
RTVSPropertyOp8
 70
     1
102
RTVSPropertyOp9
 70
     1
102
RTVSPropertyOp10
 70
     1
102
RTVSPropertyOp11
 70
     1
102
RTVSPropertyOp12
 70
     1
102
RTVSPropertyOp13
 70
     1
102
RTVSPropertyOp14
 70
     1
102
RTVSPropertyOp15
 70
     1
102
RTVSPropertyOp16
 70
     1
102
RTVSPropertyOp17
 70
     1
102
RTVSPropertyOp18
 70
     1
102
RTVSPropertyOp19
 70
     1
102
RTVSPropertyOp20
 70
     1
102
RTVSPropertyOp21
 70
     1
102
RTVSPropertyOp22
 70
     1
102
RTVSPropertyOp23
 70
     1
102
RTVSPropertyOp24
 70
     1
102
RTVSPropertyOp25
 70
     1
102
RTVSPropertyOp26
 70
     1
102
RTVSPropertyOp27
 70
     1
102
RTVSPropertyOp28
 70
     1
102
RTVSPropertyOp29
 70
     1
102
RTVSPropertyOp30
 70
     1
102
RTVSPropertyOp31
 70
     1
102
RTVSPropertyOp32
 70
     1
102
RTVSPropertyOp33
 70
     1
102
RTVSPropertyOp34
 70
     1
102
RTVSPropertyOp35
 70
     1
102
RTVSPropertyOp36
 70
     1
102
RTVSPropertyOp37
 70
     1
102
RTVSPropertyOp38
 70
     1
102
RTVSPropertyOp39
 70
     1
102
RTVSPropertyOp40
 70
     1
102
RTVSPropertyOp41
 70
     1
102
RTVSPropertyOp42
 70
     1
102
RTVSPropertyOp43
 70
     1
102
RTVSPropertyOp44
 70
     1
102
RTVSPropertyOp45
 70
     1
102
RTVSPropertyOp46
 70
     1
102
RTVSPropertyOp47
 70
     1
102
RTVSPropertyOp48
 70
     1
102
RTVSPropertyOp49
 70
     1
102
RTVSPropertyOp50
 70
     1
102
RTVSPropertyOp51
 70
     0
102
RTVSPropertyOp52
 70
     0
102
RTVSPropertyOp53
 70
     1
102
RTVSPropertyOp54
 70
     1
102
RTVSPropertyOp55
 70
     1
102
RTVSPropertyOp56
 70
     1
102
RTVSPropertyOp57
 70
     1
102
RTVSPropertyOp58
 70
     1
102
RTVSPropertyOp59
 70
     1
102
RTVSPropertyOp60
 70
     1
102
RTVSPropertyOp61
 70
     1
102
RTVSPropertyOp62
 70
     1
  0
XRECORD
  5
17BF
102
{ACAD_REACTORS
330
17BE
102
}
330
17BE
100
AcDbXrecord
280
     1
102
RTVSPost2010Prop28
280
     0
102
RTVSPost2010PropOp28
 70
     1
102
RTVSPost2010Prop29
280
     1
102
RTVSPost2010PropOp29
 70
     1
102
RTVSPost2010Prop30
280
     1
102
RTVSPost2010PropOp30
 70
     1
102
RTVSPost2010Prop31
280
     0
102
RTVSPost2010PropOp31
 70
     1
102
RTVSPost2010Prop32
280
     0
102
RTVSPost2010PropOp32
 70
     1
102
RTVSPost2010Prop33
280
     0
102
RTVSPost2010PropOp33
 70
     1
102
RTVSPost2010Prop34
280
     0
102
RTVSPost2010PropOp34
 70
     1
102
RTVSPost2010Prop35
280
     0
102
RTVSPost2010PropOp35
 70
     1
102
RTVSPost2010Prop36
280
     0
102
RTVSPost2010PropOp36
 70
     1
102
RTVSPost2010Prop37
 90
       50
102
RTVSPost2010PropOp37
 70
     1
102
RTVSPost2010Prop38
140
0.0
102
RTVSPost2010PropOp38
 70
     1
102
RTVSPost2010Prop39
140
1.0
102
RTVSPost2010PropOp39
 70
     1
102
RTVSPost2010Prop40
 90
        0
102
RTVSPost2010PropOp40
 70
     1
102
RTVSPost2010Prop41ColorIndex
 90
       18
102
RTVSPost2010Prop41ColorRGB
 90
        0
102
RTVSPost2010PropOp41
 70
     1
102
RTVSPost2010Prop42
 90
       50
102
RTVSPost2010PropOp42
 70
     1
102
RTVSPost2010Prop43
 90
        3
102
RTVSPost2010PropOp43
 70
     1
102
RTVSPost2010Prop44ColorIndex
 90
        5
102
RTVSPost2010Prop44ColorRGB
 90
      255
102
RTVSPost2010PropOp44
 70
     1
102
RTVSPost2010Prop45
280
     0
102
RTVSPost2010PropOp45
 70
     1
102
RTVSPost2010Prop46
 90
       50
102
RTVSPost2010PropOp46
 70
     1
102
RTVSPost2010Prop47
 90
       50
102
RTVSPost2010PropOp47
 70
     1
102
RTVSPost2010Prop48
 90
       50
102
RTVSPost2010PropOp48
 70
     1
102
RTVSPost2010Prop49
280
     0
102
RTVSPost2010PropOp49
 70
     1
102
RTVSPost2010Prop50
 90
       50
102
RTVSPost2010PropOp50
 70
     1
102
RTVSPost2010Prop51ColorIndex
 90
      256
102
RTVSPost2010Prop51ColorRGB
 90
-16777216
102
RTVSPost2010PropOp51
 70
     0
102
RTVSPost2010Prop52
140
1.0
102
RTVSPost2010PropOp52
 70
     0
102
RTVSPost2010Prop53
 90
        2
102
RTVSPost2010PropOp53
 70
     1
102
RTVSPost2010Prop54
  1
strokes_ogs.tif
102
RTVSPost2010PropOp54
 70
     1
102
RTVSPost2010Prop55
280
     0
102
RTVSPost2010PropOp55
 70
     1
102
RTVSPost2010Prop56
140
1.0
102
RTVSPost2010PropOp56
 70
     1
102
RTVSPost2010Prop57
140
1.0
102
RTVSPost2010PropOp57
 70
     1
102
RTVSPropertyOp0
 70
     1
102
RTVSPropertyOp1
 70
     1
102
RTVSPropertyOp2
 70
     1
102
RTVSPropertyOp3
 70
     1
102
RTVSPropertyOp4
 70
     1
102
RTVSPropertyOp5
 70
     1
102
RTVSPropertyOp6
 70
     1
102
RTVSPropertyOp7
 70
     1
102
RTVSPropertyOp8
 70
     1
102
RTVSPropertyOp9
 70
     1
102
RTVSPropertyOp10
 70
     1
102
RTVSPropertyOp11
 70
     1
102
RTVSPropertyOp12
 70
     1
102
RTVSPropertyOp13
 70
     1
102
RTVSPropertyOp14
 70
     1
102
RTVSPropertyOp15
 70
     1
102
RTVSPropertyOp16
 70
     1
102
RTVSPropertyOp17
 70
     1
102
RTVSPropertyOp18
 70
     1
102
RTVSPropertyOp19
 70
     1
102
RTVSPropertyOp20
 70
     1
102
RTVSPropertyOp21
 70
     1
102
RTVSPropertyOp22
 70
     1
102
RTVSPropertyOp23
 70
     1
102
RTVSPropertyOp24
 70
     1
102
RTVSPropertyOp25
 70
     1
102
RTVSPropertyOp26
 70
     1
102
RTVSPropertyOp27
 70
     1
102
RTVSPropertyOp28
 70
     1
102
RTVSPropertyOp29
 70
     1
102
RTVSPropertyOp30
 70
     1
102
RTVSPropertyOp31
 70
     1
102
RTVSPropertyOp32
 70
     1
102
RTVSPropertyOp33
 70
     1
102
RTVSPropertyOp34
 70
     1
102
RTVSPropertyOp35
 70
     1
102
RTVSPropertyOp36
 70
     1
102
RTVSPropertyOp37
 70
     1
102
RTVSPropertyOp38
 70
     1
102
RTVSPropertyOp39
 70
     1
102
RTVSPropertyOp40
 70
     1
102
RTVSPropertyOp41
 70
     1
102
RTVSPropertyOp42
 70
     1
102
RTVSPropertyOp43
 70
     1
102
RTVSPropertyOp44
 70
     1
102
RTVSPropertyOp45
 70
     1
102
RTVSPropertyOp46
 70
     1
102
RTVSPropertyOp47
 70
     1
102
RTVSPropertyOp48
 70
     1
102
RTVSPropertyOp49
 70
     1
102
RTVSPropertyOp50
 70
     1
102
RTVSPropertyOp51
 70
     0
102
RTVSPropertyOp52
 70
     0
102
RTVSPropertyOp53
 70
     1
102
RTVSPropertyOp54
 70
     1
102
RTVSPropertyOp55
 70
     1
102
RTVSPropertyOp56
 70
     1
102
RTVSPropertyOp57
 70
     1
102
RTVSPropertyOp58
 70
     1
102
RTVSPropertyOp59
 70
     1
102
RTVSPropertyOp60
 70
     1
102
RTVSPropertyOp61
 70
     1
102
RTVSPropertyOp62
 70
     1
  0
XRECORD
  5
17B1
102
{ACAD_REACTORS
330
17B0
102
}
330
17B0
100
AcDbXrecord
280
     1
102
RTVSPost2010Prop28
280
     0
102
RTVSPost2010PropOp28
 70
     1
102
RTVSPost2010Prop29
280
     1
102
RTVSPost2010PropOp29
 70
     1
102
RTVSPost2010Prop30
280
     1
102
RTVSPost2010PropOp30
 70
     1
102
RTVSPost2010Prop31
280
     0
102
RTVSPost2010PropOp31
 70
     1
102
RTVSPost2010Prop32
280
     0
102
RTVSPost2010PropOp32
 70
     1
102
RTVSPost2010Prop33
280
     0
102
RTVSPost2010PropOp33
 70
     1
102
RTVSPost2010Prop34
280
     0
102
RTVSPost2010PropOp34
 70
     1
102
RTVSPost2010Prop35
280
     0
102
RTVSPost2010PropOp35
 70
     1
102
RTVSPost2010Prop36
280
     0
102
RTVSPost2010PropOp36
 70
     1
102
RTVSPost2010Prop37
 90
       50
102
RTVSPost2010PropOp37
 70
     1
102
RTVSPost2010Prop38
140
0.0
102
RTVSPost2010PropOp38
 70
     1
102
RTVSPost2010Prop39
140
1.0
102
RTVSPost2010PropOp39
 70
     1
102
RTVSPost2010Prop40
 90
        0
102
RTVSPost2010PropOp40
 70
     1
102
RTVSPost2010Prop41ColorIndex
 90
       18
102
RTVSPost2010Prop41ColorRGB
 90
        0
102
RTVSPost2010PropOp41
 70
     1
102
RTVSPost2010Prop42
 90
       50
102
RTVSPost2010PropOp42
 70
     1
102
RTVSPost2010Prop43
 90
        3
102
RTVSPost2010PropOp43
 70
     1
102
RTVSPost2010Prop44ColorIndex
 90
        5
102
RTVSPost2010Prop44ColorRGB
 90
      255
102
RTVSPost2010PropOp44
 70
     1
102
RTVSPost2010Prop45
280
     0
102
RTVSPost2010PropOp45
 70
     1
102
RTVSPost2010Prop46
 90
       50
102
RTVSPost2010PropOp46
 70
     1
102
RTVSPost2010Prop47
 90
       50
102
RTVSPost2010PropOp47
 70
     1
102
RTVSPost2010Prop48
 90
       50
102
RTVSPost2010PropOp48
 70
     1
102
RTVSPost2010Prop49
280
     0
102
RTVSPost2010PropOp49
 70
     1
102
RTVSPost2010Prop50
 90
       50
102
RTVSPost2010PropOp50
 70
     1
102
RTVSPost2010Prop51ColorIndex
 90
      256
102
RTVSPost2010Prop51ColorRGB
 90
-16777216
102
RTVSPost2010PropOp51
 70
     0
102
RTVSPost2010Prop52
140
1.0
102
RTVSPost2010PropOp52
 70
     0
102
RTVSPost2010Prop53
 90
        2
102
RTVSPost2010PropOp53
 70
     1
102
RTVSPost2010Prop54
  1
strokes_ogs.tif
102
RTVSPost2010PropOp54
 70
     1
102
RTVSPost2010Prop55
280
     0
102
RTVSPost2010PropOp55
 70
     1
102
RTVSPost2010Prop56
140
1.0
102
RTVSPost2010PropOp56
 70
     1
102
RTVSPost2010Prop57
140
1.0
102
RTVSPost2010PropOp57
 70
     1
102
RTVSPropertyOp0
 70
     1
102
RTVSPropertyOp1
 70
     1
102
RTVSPropertyOp2
 70
     1
102
RTVSPropertyOp3
 70
     1
102
RTVSPropertyOp4
 70
     1
102
RTVSPropertyOp5
 70
     1
102
RTVSPropertyOp6
 70
     1
102
RTVSPropertyOp7
 70
     1
102
RTVSPropertyOp8
 70
     1
102
RTVSPropertyOp9
 70
     1
102
RTVSPropertyOp10
 70
     1
102
RTVSPropertyOp11
 70
     1
102
RTVSPropertyOp12
 70
     1
102
RTVSPropertyOp13
 70
     1
102
RTVSPropertyOp14
 70
     1
102
RTVSPropertyOp15
 70
     1
102
RTVSPropertyOp16
 70
     1
102
RTVSPropertyOp17
 70
     1
102
RTVSPropertyOp18
 70
     1
102
RTVSPropertyOp19
 70
     1
102
RTVSPropertyOp20
 70
     1
102
RTVSPropertyOp21
 70
     1
102
RTVSPropertyOp22
 70
     1
102
RTVSPropertyOp23
 70
     1
102
RTVSPropertyOp24
 70
     1
102
RTVSPropertyOp25
 70
     1
102
RTVSPropertyOp26
 70
     1
102
RTVSPropertyOp27
 70
     1
102
RTVSPropertyOp28
 70
     1
102
RTVSPropertyOp29
 70
     1
102
RTVSPropertyOp30
 70
     1
102
RTVSPropertyOp31
 70
     1
102
RTVSPropertyOp32
 70
     1
102
RTVSPropertyOp33
 70
     1
102
RTVSPropertyOp34
 70
     1
102
RTVSPropertyOp35
 70
     1
102
RTVSPropertyOp36
 70
     1
102
RTVSPropertyOp37
 70
     1
102
RTVSPropertyOp38
 70
     1
102
RTVSPropertyOp39
 70
     1
102
RTVSPropertyOp40
 70
     1
102
RTVSPropertyOp41
 70
     1
102
RTVSPropertyOp42
 70
     1
102
RTVSPropertyOp43
 70
     1
102
RTVSPropertyOp44
 70
     1
102
RTVSPropertyOp45
 70
     1
102
RTVSPropertyOp46
 70
     1
102
RTVSPropertyOp47
 70
     1
102
RTVSPropertyOp48
 70
     1
102
RTVSPropertyOp49
 70
     1
102
RTVSPropertyOp50
 70
     1
102
RTVSPropertyOp51
 70
     0
102
RTVSPropertyOp52
 70
     0
102
RTVSPropertyOp53
 70
     1
102
RTVSPropertyOp54
 70
     1
102
RTVSPropertyOp55
 70
     1
102
RTVSPropertyOp56
 70
     1
102
RTVSPropertyOp57
 70
     1
102
RTVSPropertyOp58
 70
     1
102
RTVSPropertyOp59
 70
     1
102
RTVSPropertyOp60
 70
     1
102
RTVSPropertyOp61
 70
     1
102
RTVSPropertyOp62
 70
     1
  0
XRECORD
  5
17B5
102
{ACAD_REACTORS
330
17B4
102
}
330
17B4
100
AcDbXrecord
280
     1
102
RTVSPost2010Prop28
280
     0
102
RTVSPost2010PropOp28
 70
     1
102
RTVSPost2010Prop29
280
     1
102
RTVSPost2010PropOp29
 70
     1
102
RTVSPost2010Prop30
280
     1
102
RTVSPost2010PropOp30
 70
     1
102
RTVSPost2010Prop31
280
     0
102
RTVSPost2010PropOp31
 70
     1
102
RTVSPost2010Prop32
280
     0
102
RTVSPost2010PropOp32
 70
     1
102
RTVSPost2010Prop33
280
     0
102
RTVSPost2010PropOp33
 70
     1
102
RTVSPost2010Prop34
280
     0
102
RTVSPost2010PropOp34
 70
     1
102
RTVSPost2010Prop35
280
     0
102
RTVSPost2010PropOp35
 70
     1
102
RTVSPost2010Prop36
280
     0
102
RTVSPost2010PropOp36
 70
     1
102
RTVSPost2010Prop37
 90
       50
102
RTVSPost2010PropOp37
 70
     1
102
RTVSPost2010Prop38
140
0.0
102
RTVSPost2010PropOp38
 70
     1
102
RTVSPost2010Prop39
140
1.0
102
RTVSPost2010PropOp39
 70
     1
102
RTVSPost2010Prop40
 90
        0
102
RTVSPost2010PropOp40
 70
     1
102
RTVSPost2010Prop41ColorIndex
 90
       18
102
RTVSPost2010Prop41ColorRGB
 90
        0
102
RTVSPost2010PropOp41
 70
     1
102
RTVSPost2010Prop42
 90
       50
102
RTVSPost2010PropOp42
 70
     1
102
RTVSPost2010Prop43
 90
        3
102
RTVSPost2010PropOp43
 70
     1
102
RTVSPost2010Prop44ColorIndex
 90
        5
102
RTVSPost2010Prop44ColorRGB
 90
      255
102
RTVSPost2010PropOp44
 70
     1
102
RTVSPost2010Prop45
280
     0
102
RTVSPost2010PropOp45
 70
     1
102
RTVSPost2010Prop46
 90
       50
102
RTVSPost2010PropOp46
 70
     1
102
RTVSPost2010Prop47
 90
       50
102
RTVSPost2010PropOp47
 70
     1
102
RTVSPost2010Prop48
 90
       50
102
RTVSPost2010PropOp48
 70
     1
102
RTVSPost2010Prop49
280
     0
102
RTVSPost2010PropOp49
 70
     1
102
RTVSPost2010Prop50
 90
       50
102
RTVSPost2010PropOp50
 70
     1
102
RTVSPost2010Prop51ColorIndex
 90
      256
102
RTVSPost2010Prop51ColorRGB
 90
-16777216
102
RTVSPost2010PropOp51
 70
     0
102
RTVSPost2010Prop52
140
1.0
102
RTVSPost2010PropOp52
 70
     0
102
RTVSPost2010Prop53
 90
        2
102
RTVSPost2010PropOp53
 70
     1
102
RTVSPost2010Prop54
  1
strokes_ogs.tif
102
RTVSPost2010PropOp54
 70
     1
102
RTVSPost2010Prop55
280
     0
102
RTVSPost2010PropOp55
 70
     1
102
RTVSPost2010Prop56
140
1.0
102
RTVSPost2010PropOp56
 70
     1
102
RTVSPost2010Prop57
140
1.0
102
RTVSPost2010PropOp57
 70
     1
102
RTVSPropertyOp0
 70
     1
102
RTVSPropertyOp1
 70
     1
102
RTVSPropertyOp2
 70
     1
102
RTVSPropertyOp3
 70
     1
102
RTVSPropertyOp4
 70
     1
102
RTVSPropertyOp5
 70
     1
102
RTVSPropertyOp6
 70
     1
102
RTVSPropertyOp7
 70
     1
102
RTVSPropertyOp8
 70
     1
102
RTVSPropertyOp9
 70
     1
102
RTVSPropertyOp10
 70
     1
102
RTVSPropertyOp11
 70
     1
102
RTVSPropertyOp12
 70
     1
102
RTVSPropertyOp13
 70
     1
102
RTVSPropertyOp14
 70
     1
102
RTVSPropertyOp15
 70
     1
102
RTVSPropertyOp16
 70
     1
102
RTVSPropertyOp17
 70
     1
102
RTVSPropertyOp18
 70
     1
102
RTVSPropertyOp19
 70
     1
102
RTVSPropertyOp20
 70
     1
102
RTVSPropertyOp21
 70
     1
102
RTVSPropertyOp22
 70
     1
102
RTVSPropertyOp23
 70
     1
102
RTVSPropertyOp24
 70
     1
102
RTVSPropertyOp25
 70
     1
102
RTVSPropertyOp26
 70
     1
102
RTVSPropertyOp27
 70
     1
102
RTVSPropertyOp28
 70
     1
102
RTVSPropertyOp29
 70
     1
102
RTVSPropertyOp30
 70
     1
102
RTVSPropertyOp31
 70
     1
102
RTVSPropertyOp32
 70
     1
102
RTVSPropertyOp33
 70
     1
102
RTVSPropertyOp34
 70
     1
102
RTVSPropertyOp35
 70
     1
102
RTVSPropertyOp36
 70
     1
102
RTVSPropertyOp37
 70
     1
102
RTVSPropertyOp38
 70
     1
102
RTVSPropertyOp39
 70
     1
102
RTVSPropertyOp40
 70
     1
102
RTVSPropertyOp41
 70
     1
102
RTVSPropertyOp42
 70
     1
102
RTVSPropertyOp43
 70
     1
102
RTVSPropertyOp44
 70
     1
102
RTVSPropertyOp45
 70
     1
102
RTVSPropertyOp46
 70
     1
102
RTVSPropertyOp47
 70
     1
102
RTVSPropertyOp48
 70
     1
102
RTVSPropertyOp49
 70
     1
102
RTVSPropertyOp50
 70
     1
102
RTVSPropertyOp51
 70
     0
102
RTVSPropertyOp52
 70
     0
102
RTVSPropertyOp53
 70
     1
102
RTVSPropertyOp54
 70
     1
102
RTVSPropertyOp55
 70
     1
102
RTVSPropertyOp56
 70
     1
102
RTVSPropertyOp57
 70
     1
102
RTVSPropertyOp58
 70
     1
102
RTVSPropertyOp59
 70
     1
102
RTVSPropertyOp60
 70
     1
102
RTVSPropertyOp61
 70
     1
102
RTVSPropertyOp62
 70
     1
  0
XRECORD
  5
17CF
102
{ACAD_REACTORS
330
17CE
102
}
330
17CE
100
AcDbXrecord
280
     1
102
RTVSPost2010Prop28
280
     0
102
RTVSPost2010PropOp28
 70
     1
102
RTVSPost2010Prop29
280
     1
102
RTVSPost2010PropOp29
 70
     1
102
RTVSPost2010Prop30
280
     1
102
RTVSPost2010PropOp30
 70
     1
102
RTVSPost2010Prop31
280
     0
102
RTVSPost2010PropOp31
 70
     1
102
RTVSPost2010Prop32
280
     0
102
RTVSPost2010PropOp32
 70
     1
102
RTVSPost2010Prop33
280
     0
102
RTVSPost2010PropOp33
 70
     1
102
RTVSPost2010Prop34
280
     0
102
RTVSPost2010PropOp34
 70
     1
102
RTVSPost2010Prop35
280
     0
102
RTVSPost2010PropOp35
 70
     1
102
RTVSPost2010Prop36
280
     0
102
RTVSPost2010PropOp36
 70
     1
102
RTVSPost2010Prop37
 90
       50
102
RTVSPost2010PropOp37
 70
     0
102
RTVSPost2010Prop38
140
0.0
102
RTVSPost2010PropOp38
 70
     0
102
RTVSPost2010Prop39
140
1.0
102
RTVSPost2010PropOp39
 70
     0
102
RTVSPost2010Prop40
 90
        0
102
RTVSPost2010PropOp40
 70
     0
102
RTVSPost2010Prop41ColorIndex
 90
       18
102
RTVSPost2010Prop41ColorRGB
 90
        0
102
RTVSPost2010PropOp41
 70
     0
102
RTVSPost2010Prop42
 90
       50
102
RTVSPost2010PropOp42
 70
     0
102
RTVSPost2010Prop43
 90
        3
102
RTVSPost2010PropOp43
 70
     0
102
RTVSPost2010Prop44ColorIndex
 90
        5
102
RTVSPost2010Prop44ColorRGB
 90
      255
102
RTVSPost2010PropOp44
 70
     0
102
RTVSPost2010Prop45
280
     0
102
RTVSPost2010PropOp45
 70
     1
102
RTVSPost2010Prop46
 90
       50
102
RTVSPost2010PropOp46
 70
     0
102
RTVSPost2010Prop47
 90
       50
102
RTVSPost2010PropOp47
 70
     0
102
RTVSPost2010Prop48
 90
       50
102
RTVSPost2010PropOp48
 70
     0
102
RTVSPost2010Prop49
280
     0
102
RTVSPost2010PropOp49
 70
     1
102
RTVSPost2010Prop50
 90
       50
102
RTVSPost2010PropOp50
 70
     0
102
RTVSPost2010Prop51ColorIndex
 90
      256
102
RTVSPost2010Prop51ColorRGB
 90
-16777216
102
RTVSPost2010PropOp51
 70
     0
102
RTVSPost2010Prop52
140
1.0
102
RTVSPost2010PropOp52
 70
     0
102
RTVSPost2010Prop53
 90
        2
102
RTVSPost2010PropOp53
 70
     0
102
RTVSPost2010Prop54
  1
strokes_ogs.tif
102
RTVSPost2010PropOp54
 70
     0
102
RTVSPost2010Prop55
280
     0
102
RTVSPost2010PropOp55
 70
     1
102
RTVSPost2010Prop56
140
1.0
102
RTVSPost2010PropOp56
 70
     0
102
RTVSPost2010Prop57
140
1.0
102
RTVSPost2010PropOp57
 70
     0
102
RTVSPropertyOp0
 70
     0
102
RTVSPropertyOp1
 70
     0
102
RTVSPropertyOp2
 70
     0
102
RTVSPropertyOp3
 70
     0
102
RTVSPropertyOp4
 70
     0
102
RTVSPropertyOp5
 70
     0
102
RTVSPropertyOp6
 70
     0
102
RTVSPropertyOp7
 70
     0
102
RTVSPropertyOp8
 70
     0
102
RTVSPropertyOp9
 70
     0
102
RTVSPropertyOp10
 70
     0
102
RTVSPropertyOp11
 70
     0
102
RTVSPropertyOp12
 70
     0
102
RTVSPropertyOp13
 70
     0
102
RTVSPropertyOp14
 70
     2
102
RTVSPropertyOp15
 70
     0
102
RTVSPropertyOp16
 70
     0
102
RTVSPropertyOp17
 70
     0
102
RTVSPropertyOp18
 70
     0
102
RTVSPropertyOp19
 70
     0
102
RTVSPropertyOp20
 70
     0
102
RTVSPropertyOp21
 70
     0
102
RTVSPropertyOp22
 70
     0
102
RTVSPropertyOp23
 70
     0
102
RTVSPropertyOp24
 70
     0
102
RTVSPropertyOp25
 70
     0
102
RTVSPropertyOp26
 70
     0
102
RTVSPropertyOp27
 70
     0
102
RTVSPropertyOp28
 70
     1
102
RTVSPropertyOp29
 70
     1
102
RTVSPropertyOp30
 70
     1
102
RTVSPropertyOp31
 70
     1
102
RTVSPropertyOp32
 70
     1
102
RTVSPropertyOp33
 70
     1
102
RTVSPropertyOp34
 70
     1
102
RTVSPropertyOp35
 70
     1
102
RTVSPropertyOp36
 70
     1
102
RTVSPropertyOp37
 70
     0
102
RTVSPropertyOp38
 70
     0
102
RTVSPropertyOp39
 70
     0
102
RTVSPropertyOp40
 70
     0
102
RTVSPropertyOp41
 70
     0
102
RTVSPropertyOp42
 70
     0
102
RTVSPropertyOp43
 70
     0
102
RTVSPropertyOp44
 70
     0
102
RTVSPropertyOp45
 70
     1
102
RTVSPropertyOp46
 70
     0
102
RTVSPropertyOp47
 70
     0
102
RTVSPropertyOp48
 70
     0
102
RTVSPropertyOp49
 70
     1
102
RTVSPropertyOp50
 70
     0
102
RTVSPropertyOp51
 70
     0
102
RTVSPropertyOp52
 70
     0
102
RTVSPropertyOp53
 70
     0
102
RTVSPropertyOp54
 70
     0
102
RTVSPropertyOp55
 70
     1
102
RTVSPropertyOp56
 70
     0
102
RTVSPropertyOp57
 70
     0
102
RTVSPropertyOp58
 70
     0
102
RTVSPropertyOp59
 70
     0
102
RTVSPropertyOp60
 70
     0
102
RTVSPropertyOp61
 70
     0
102
RTVSPropertyOp62
 70
     0
  0
XRECORD
  5
17BD
102
{ACAD_REACTORS
330
17BC
102
}
330
17BC
100
AcDbXrecord
280
     1
102
RTVSPost2010Prop28
280
     0
102
RTVSPost2010PropOp28
 70
     1
102
RTVSPost2010Prop29
280
     1
102
RTVSPost2010PropOp29
 70
     1
102
RTVSPost2010Prop30
280
     1
102
RTVSPost2010PropOp30
 70
     1
102
RTVSPost2010Prop31
280
     0
102
RTVSPost2010PropOp31
 70
     1
102
RTVSPost2010Prop32
280
     0
102
RTVSPost2010PropOp32
 70
     1
102
RTVSPost2010Prop33
280
     0
102
RTVSPost2010PropOp33
 70
     1
102
RTVSPost2010Prop34
280
     0
102
RTVSPost2010PropOp34
 70
     1
102
RTVSPost2010Prop35
280
     0
102
RTVSPost2010PropOp35
 70
     1
102
RTVSPost2010Prop36
280
     0
102
RTVSPost2010PropOp36
 70
     1
102
RTVSPost2010Prop37
 90
       50
102
RTVSPost2010PropOp37
 70
     1
102
RTVSPost2010Prop38
140
0.0
102
RTVSPost2010PropOp38
 70
     1
102
RTVSPost2010Prop39
140
1.0
102
RTVSPost2010PropOp39
 70
     1
102
RTVSPost2010Prop40
 90
        0
102
RTVSPost2010PropOp40
 70
     1
102
RTVSPost2010Prop41ColorIndex
 90
       18
102
RTVSPost2010Prop41ColorRGB
 90
        0
102
RTVSPost2010PropOp41
 70
     1
102
RTVSPost2010Prop42
 90
       50
102
RTVSPost2010PropOp42
 70
     1
102
RTVSPost2010Prop43
 90
        3
102
RTVSPost2010PropOp43
 70
     1
102
RTVSPost2010Prop44ColorIndex
 90
        5
102
RTVSPost2010Prop44ColorRGB
 90
      255
102
RTVSPost2010PropOp44
 70
     1
102
RTVSPost2010Prop45
280
     0
102
RTVSPost2010PropOp45
 70
     1
102
RTVSPost2010Prop46
 90
       50
102
RTVSPost2010PropOp46
 70
     1
102
RTVSPost2010Prop47
 90
       50
102
RTVSPost2010PropOp47
 70
     1
102
RTVSPost2010Prop48
 90
       50
102
RTVSPost2010PropOp48
 70
     1
102
RTVSPost2010Prop49
280
     0
102
RTVSPost2010PropOp49
 70
     1
102
RTVSPost2010Prop50
 90
       50
102
RTVSPost2010PropOp50
 70
     1
102
RTVSPost2010Prop51ColorIndex
 90
      256
102
RTVSPost2010Prop51ColorRGB
 90
-16777216
102
RTVSPost2010PropOp51
 70
     0
102
RTVSPost2010Prop52
140
1.0
102
RTVSPost2010PropOp52
 70
     0
102
RTVSPost2010Prop53
 90
        2
102
RTVSPost2010PropOp53
 70
     1
102
RTVSPost2010Prop54
  1
strokes_ogs.tif
102
RTVSPost2010PropOp54
 70
     1
102
RTVSPost2010Prop55
280
     0
102
RTVSPost2010PropOp55
 70
     1
102
RTVSPost2010Prop56
140
1.0
102
RTVSPost2010PropOp56
 70
     1
102
RTVSPost2010Prop57
140
1.0
102
RTVSPost2010PropOp57
 70
     1
102
RTVSPropertyOp0
 70
     1
102
RTVSPropertyOp1
 70
     1
102
RTVSPropertyOp2
 70
     1
102
RTVSPropertyOp3
 70
     1
102
RTVSPropertyOp4
 70
     1
102
RTVSPropertyOp5
 70
     1
102
RTVSPropertyOp6
 70
     1
102
RTVSPropertyOp7
 70
     1
102
RTVSPropertyOp8
 70
     1
102
RTVSPropertyOp9
 70
     1
102
RTVSPropertyOp10
 70
     1
102
RTVSPropertyOp11
 70
     1
102
RTVSPropertyOp12
 70
     1
102
RTVSPropertyOp13
 70
     1
102
RTVSPropertyOp14
 70
     1
102
RTVSPropertyOp15
 70
     1
102
RTVSPropertyOp16
 70
     1
102
RTVSPropertyOp17
 70
     1
102
RTVSPropertyOp18
 70
     1
102
RTVSPropertyOp19
 70
     1
102
RTVSPropertyOp20
 70
     1
102
RTVSPropertyOp21
 70
     1
102
RTVSPropertyOp22
 70
     1
102
RTVSPropertyOp23
 70
     1
102
RTVSPropertyOp24
 70
     1
102
RTVSPropertyOp25
 70
     1
102
RTVSPropertyOp26
 70
     1
102
RTVSPropertyOp27
 70
     1
102
RTVSPropertyOp28
 70
     1
102
RTVSPropertyOp29
 70
     1
102
RTVSPropertyOp30
 70
     1
102
RTVSPropertyOp31
 70
     1
102
RTVSPropertyOp32
 70
     1
102
RTVSPropertyOp33
 70
     1
102
RTVSPropertyOp34
 70
     1
102
RTVSPropertyOp35
 70
     1
102
RTVSPropertyOp36
 70
     1
102
RTVSPropertyOp37
 70
     1
102
RTVSPropertyOp38
 70
     1
102
RTVSPropertyOp39
 70
     1
102
RTVSPropertyOp40
 70
     1
102
RTVSPropertyOp41
 70
     1
102
RTVSPropertyOp42
 70
     1
102
RTVSPropertyOp43
 70
     1
102
RTVSPropertyOp44
 70
     1
102
RTVSPropertyOp45
 70
     1
102
RTVSPropertyOp46
 70
     1
102
RTVSPropertyOp47
 70
     1
102
RTVSPropertyOp48
 70
     1
102
RTVSPropertyOp49
 70
     1
102
RTVSPropertyOp50
 70
     1
102
RTVSPropertyOp51
 70
     0
102
RTVSPropertyOp52
 70
     0
102
RTVSPropertyOp53
 70
     1
102
RTVSPropertyOp54
 70
     1
102
RTVSPropertyOp55
 70
     1
102
RTVSPropertyOp56
 70
     1
102
RTVSPropertyOp57
 70
     1
102
RTVSPropertyOp58
 70
     1
102
RTVSPropertyOp59
 70
     1
102
RTVSPropertyOp60
 70
     1
102
RTVSPropertyOp61
 70
     1
102
RTVSPropertyOp62
 70
     1
  0
XRECORD
  5
17A1
102
{ACAD_REACTORS
330
17A0
102
}
330
17A0
100
AcDbXrecord
280
     1
102
RTVSPost2010Prop28
280
     0
102
RTVSPost2010PropOp28
 70
     1
102
RTVSPost2010Prop29
280
     1
102
RTVSPost2010PropOp29
 70
     1
102
RTVSPost2010Prop30
280
     1
102
RTVSPost2010PropOp30
 70
     1
102
RTVSPost2010Prop31
280
     0
102
RTVSPost2010PropOp31
 70
     1
102
RTVSPost2010Prop32
280
     0
102
RTVSPost2010PropOp32
 70
     1
102
RTVSPost2010Prop33
280
     0
102
RTVSPost2010PropOp33
 70
     1
102
RTVSPost2010Prop34
280
     0
102
RTVSPost2010PropOp34
 70
     1
102
RTVSPost2010Prop35
280
     0
102
RTVSPost2010PropOp35
 70
     1
102
RTVSPost2010Prop36
280
     0
102
RTVSPost2010PropOp36
 70
     1
102
RTVSPost2010Prop37
 90
       50
102
RTVSPost2010PropOp37
 70
     1
102
RTVSPost2010Prop38
140
0.0
102
RTVSPost2010PropOp38
 70
     1
102
RTVSPost2010Prop39
140
1.0
102
RTVSPost2010PropOp39
 70
     1
102
RTVSPost2010Prop40
 90
        0
102
RTVSPost2010PropOp40
 70
     1
102
RTVSPost2010Prop41ColorIndex
 90
       18
102
RTVSPost2010Prop41ColorRGB
 90
        0
102
RTVSPost2010PropOp41
 70
     1
102
RTVSPost2010Prop42
 90
       50
102
RTVSPost2010PropOp42
 70
     1
102
RTVSPost2010Prop43
 90
        3
102
RTVSPost2010PropOp43
 70
     1
102
RTVSPost2010Prop44ColorIndex
 90
        5
102
RTVSPost2010Prop44ColorRGB
 90
      255
102
RTVSPost2010PropOp44
 70
     1
102
RTVSPost2010Prop45
280
     0
102
RTVSPost2010PropOp45
 70
     1
102
RTVSPost2010Prop46
 90
       50
102
RTVSPost2010PropOp46
 70
     1
102
RTVSPost2010Prop47
 90
       50
102
RTVSPost2010PropOp47
 70
     1
102
RTVSPost2010Prop48
 90
       50
102
RTVSPost2010PropOp48
 70
     1
102
RTVSPost2010Prop49
280
     0
102
RTVSPost2010PropOp49
 70
     1
102
RTVSPost2010Prop50
 90
       50
102
RTVSPost2010PropOp50
 70
     1
102
RTVSPost2010Prop51ColorIndex
 90
      256
102
RTVSPost2010Prop51ColorRGB
 90
-16777216
102
RTVSPost2010PropOp51
 70
     0
102
RTVSPost2010Prop52
140
1.0
102
RTVSPost2010PropOp52
 70
     0
102
RTVSPost2010Prop53
 90
        2
102
RTVSPost2010PropOp53
 70
     1
102
RTVSPost2010Prop54
  1
strokes_ogs.tif
102
RTVSPost2010PropOp54
 70
     1
102
RTVSPost2010Prop55
280
     0
102
RTVSPost2010PropOp55
 70
     1
102
RTVSPost2010Prop56
140
1.0
102
RTVSPost2010PropOp56
 70
     1
102
RTVSPost2010Prop57
140
1.0
102
RTVSPost2010PropOp57
 70
     1
102
RTVSPropertyOp0
 70
     1
102
RTVSPropertyOp1
 70
     1
102
RTVSPropertyOp2
 70
     1
102
RTVSPropertyOp3
 70
     1
102
RTVSPropertyOp4
 70
     1
102
RTVSPropertyOp5
 70
     1
102
RTVSPropertyOp6
 70
     1
102
RTVSPropertyOp7
 70
     1
102
RTVSPropertyOp8
 70
     1
102
RTVSPropertyOp9
 70
     1
102
RTVSPropertyOp10
 70
     1
102
RTVSPropertyOp11
 70
     1
102
RTVSPropertyOp12
 70
     1
102
RTVSPropertyOp13
 70
     1
102
RTVSPropertyOp14
 70
     1
102
RTVSPropertyOp15
 70
     1
102
RTVSPropertyOp16
 70
     1
102
RTVSPropertyOp17
 70
     1
102
RTVSPropertyOp18
 70
     1
102
RTVSPropertyOp19
 70
     1
102
RTVSPropertyOp20
 70
     1
102
RTVSPropertyOp21
 70
     1
102
RTVSPropertyOp22
 70
     1
102
RTVSPropertyOp23
 70
     1
102
RTVSPropertyOp24
 70
     1
102
RTVSPropertyOp25
 70
     1
102
RTVSPropertyOp26
 70
     1
102
RTVSPropertyOp27
 70
     1
102
RTVSPropertyOp28
 70
     1
102
RTVSPropertyOp29
 70
     1
102
RTVSPropertyOp30
 70
     1
102
RTVSPropertyOp31
 70
     1
102
RTVSPropertyOp32
 70
     1
102
RTVSPropertyOp33
 70
     1
102
RTVSPropertyOp34
 70
     1
102
RTVSPropertyOp35
 70
     1
102
RTVSPropertyOp36
 70
     1
102
RTVSPropertyOp37
 70
     1
102
RTVSPropertyOp38
 70
     1
102
RTVSPropertyOp39
 70
     1
102
RTVSPropertyOp40
 70
     1
102
RTVSPropertyOp41
 70
     1
102
RTVSPropertyOp42
 70
     1
102
RTVSPropertyOp43
 70
     1
102
RTVSPropertyOp44
 70
     1
102
RTVSPropertyOp45
 70
     1
102
RTVSPropertyOp46
 70
     1
102
RTVSPropertyOp47
 70
     1
102
RTVSPropertyOp48
 70
     1
102
RTVSPropertyOp49
 70
     1
102
RTVSPropertyOp50
 70
     1
102
RTVSPropertyOp51
 70
     0
102
RTVSPropertyOp52
 70
     0
102
RTVSPropertyOp53
 70
     1
102
RTVSPropertyOp54
 70
     1
102
RTVSPropertyOp55
 70
     1
102
RTVSPropertyOp56
 70
     1
102
RTVSPropertyOp57
 70
     1
102
RTVSPropertyOp58
 70
     1
102
RTVSPropertyOp59
 70
     1
102
RTVSPropertyOp60
 70
     1
102
RTVSPropertyOp61
 70
     1
102
RTVSPropertyOp62
 70
     1
  0
XRECORD
  5
17A3
102
{ACAD_REACTORS
330
17A2
102
}
330
17A2
100
AcDbXrecord
280
     1
102
RTVSPost2010Prop28
280
     0
102
RTVSPost2010PropOp28
 70
     1
102
RTVSPost2010Prop29
280
     1
102
RTVSPost2010PropOp29
 70
     1
102
RTVSPost2010Prop30
280
     1
102
RTVSPost2010PropOp30
 70
     1
102
RTVSPost2010Prop31
280
     0
102
RTVSPost2010PropOp31
 70
     1
102
RTVSPost2010Prop32
280
     0
102
RTVSPost2010PropOp32
 70
     1
102
RTVSPost2010Prop33
280
     0
102
RTVSPost2010PropOp33
 70
     1
102
RTVSPost2010Prop34
280
     0
102
RTVSPost2010PropOp34
 70
     1
102
RTVSPost2010Prop35
280
     0
102
RTVSPost2010PropOp35
 70
     1
102
RTVSPost2010Prop36
280
     0
102
RTVSPost2010PropOp36
 70
     1
102
RTVSPost2010Prop37
 90
       50
102
RTVSPost2010PropOp37
 70
     1
102
RTVSPost2010Prop38
140
0.0
102
RTVSPost2010PropOp38
 70
     1
102
RTVSPost2010Prop39
140
1.0
102
RTVSPost2010PropOp39
 70
     1
102
RTVSPost2010Prop40
 90
        0
102
RTVSPost2010PropOp40
 70
     1
102
RTVSPost2010Prop41ColorIndex
 90
       18
102
RTVSPost2010Prop41ColorRGB
 90
        0
102
RTVSPost2010PropOp41
 70
     1
102
RTVSPost2010Prop42
 90
       50
102
RTVSPost2010PropOp42
 70
     1
102
RTVSPost2010Prop43
 90
        3
102
RTVSPost2010PropOp43
 70
     1
102
RTVSPost2010Prop44ColorIndex
 90
        5
102
RTVSPost2010Prop44ColorRGB
 90
      255
102
RTVSPost2010PropOp44
 70
     1
102
RTVSPost2010Prop45
280
     0
102
RTVSPost2010PropOp45
 70
     1
102
RTVSPost2010Prop46
 90
       50
102
RTVSPost2010PropOp46
 70
     1
102
RTVSPost2010Prop47
 90
       50
102
RTVSPost2010PropOp47
 70
     1
102
RTVSPost2010Prop48
 90
       50
102
RTVSPost2010PropOp48
 70
     1
102
RTVSPost2010Prop49
280
     0
102
RTVSPost2010PropOp49
 70
     1
102
RTVSPost2010Prop50
 90
       50
102
RTVSPost2010PropOp50
 70
     1
102
RTVSPost2010Prop51ColorIndex
 90
      256
102
RTVSPost2010Prop51ColorRGB
 90
-16777216
102
RTVSPost2010PropOp51
 70
     0
102
RTVSPost2010Prop52
140
1.0
102
RTVSPost2010PropOp52
 70
     0
102
RTVSPost2010Prop53
 90
        2
102
RTVSPost2010PropOp53
 70
     1
102
RTVSPost2010Prop54
  1
strokes_ogs.tif
102
RTVSPost2010PropOp54
 70
     1
102
RTVSPost2010Prop55
280
     0
102
RTVSPost2010PropOp55
 70
     1
102
RTVSPost2010Prop56
140
1.0
102
RTVSPost2010PropOp56
 70
     1
102
RTVSPost2010Prop57
140
1.0
102
RTVSPost2010PropOp57
 70
     1
102
RTVSPropertyOp0
 70
     1
102
RTVSPropertyOp1
 70
     1
102
RTVSPropertyOp2
 70
     1
102
RTVSPropertyOp3
 70
     1
102
RTVSPropertyOp4
 70
     1
102
RTVSPropertyOp5
 70
     1
102
RTVSPropertyOp6
 70
     1
102
RTVSPropertyOp7
 70
     1
102
RTVSPropertyOp8
 70
     1
102
RTVSPropertyOp9
 70
     1
102
RTVSPropertyOp10
 70
     1
102
RTVSPropertyOp11
 70
     1
102
RTVSPropertyOp12
 70
     1
102
RTVSPropertyOp13
 70
     1
102
RTVSPropertyOp14
 70
     1
102
RTVSPropertyOp15
 70
     1
102
RTVSPropertyOp16
 70
     1
102
RTVSPropertyOp17
 70
     1
102
RTVSPropertyOp18
 70
     1
102
RTVSPropertyOp19
 70
     1
102
RTVSPropertyOp20
 70
     1
102
RTVSPropertyOp21
 70
     1
102
RTVSPropertyOp22
 70
     1
102
RTVSPropertyOp23
 70
     1
102
RTVSPropertyOp24
 70
     1
102
RTVSPropertyOp25
 70
     1
102
RTVSPropertyOp26
 70
     1
102
RTVSPropertyOp27
 70
     1
102
RTVSPropertyOp28
 70
     1
102
RTVSPropertyOp29
 70
     1
102
RTVSPropertyOp30
 70
     1
102
RTVSPropertyOp31
 70
     1
102
RTVSPropertyOp32
 70
     1
102
RTVSPropertyOp33
 70
     1
102
RTVSPropertyOp34
 70
     1
102
RTVSPropertyOp35
 70
     1
102
RTVSPropertyOp36
 70
     1
102
RTVSPropertyOp37
 70
     1
102
RTVSPropertyOp38
 70
     1
102
RTVSPropertyOp39
 70
     1
102
RTVSPropertyOp40
 70
     1
102
RTVSPropertyOp41
 70
     1
102
RTVSPropertyOp42
 70
     1
102
RTVSPropertyOp43
 70
     1
102
RTVSPropertyOp44
 70
     1
102
RTVSPropertyOp45
 70
     1
102
RTVSPropertyOp46
 70
     1
102
RTVSPropertyOp47
 70
     1
102
RTVSPropertyOp48
 70
     1
102
RTVSPropertyOp49
 70
     1
102
RTVSPropertyOp50
 70
     1
102
RTVSPropertyOp51
 70
     0
102
RTVSPropertyOp52
 70
     0
102
RTVSPropertyOp53
 70
     1
102
RTVSPropertyOp54
 70
     1
102
RTVSPropertyOp55
 70
     1
102
RTVSPropertyOp56
 70
     1
102
RTVSPropertyOp57
 70
     1
102
RTVSPropertyOp58
 70
     1
102
RTVSPropertyOp59
 70
     1
102
RTVSPropertyOp60
 70
     1
102
RTVSPropertyOp61
 70
     1
102
RTVSPropertyOp62
 70
     1
  0
XRECORD
  5
17A5
102
{ACAD_REACTORS
330
17A4
102
}
330
17A4
100
AcDbXrecord
280
     1
102
RTVSPost2010Prop28
280
     0
102
RTVSPost2010PropOp28
 70
     1
102
RTVSPost2010Prop29
280
     1
102
RTVSPost2010PropOp29
 70
     1
102
RTVSPost2010Prop30
280
     1
102
RTVSPost2010PropOp30
 70
     1
102
RTVSPost2010Prop31
280
     0
102
RTVSPost2010PropOp31
 70
     1
102
RTVSPost2010Prop32
280
     0
102
RTVSPost2010PropOp32
 70
     1
102
RTVSPost2010Prop33
280
     0
102
RTVSPost2010PropOp33
 70
     1
102
RTVSPost2010Prop34
280
     0
102
RTVSPost2010PropOp34
 70
     1
102
RTVSPost2010Prop35
280
     0
102
RTVSPost2010PropOp35
 70
     1
102
RTVSPost2010Prop36
280
     0
102
RTVSPost2010PropOp36
 70
     1
102
RTVSPost2010Prop37
 90
       50
102
RTVSPost2010PropOp37
 70
     1
102
RTVSPost2010Prop38
140
0.0
102
RTVSPost2010PropOp38
 70
     1
102
RTVSPost2010Prop39
140
1.0
102
RTVSPost2010PropOp39
 70
     1
102
RTVSPost2010Prop40
 90
        0
102
RTVSPost2010PropOp40
 70
     1
102
RTVSPost2010Prop41ColorIndex
 90
       18
102
RTVSPost2010Prop41ColorRGB
 90
        0
102
RTVSPost2010PropOp41
 70
     1
102
RTVSPost2010Prop42
 90
       50
102
RTVSPost2010PropOp42
 70
     1
102
RTVSPost2010Prop43
 90
        3
102
RTVSPost2010PropOp43
 70
     1
102
RTVSPost2010Prop44ColorIndex
 90
        5
102
RTVSPost2010Prop44ColorRGB
 90
      255
102
RTVSPost2010PropOp44
 70
     1
102
RTVSPost2010Prop45
280
     0
102
RTVSPost2010PropOp45
 70
     1
102
RTVSPost2010Prop46
 90
       50
102
RTVSPost2010PropOp46
 70
     1
102
RTVSPost2010Prop47
 90
       50
102
RTVSPost2010PropOp47
 70
     1
102
RTVSPost2010Prop48
 90
       50
102
RTVSPost2010PropOp48
 70
     1
102
RTVSPost2010Prop49
280
     0
102
RTVSPost2010PropOp49
 70
     1
102
RTVSPost2010Prop50
 90
       50
102
RTVSPost2010PropOp50
 70
     1
102
RTVSPost2010Prop51ColorIndex
 90
      256
102
RTVSPost2010Prop51ColorRGB
 90
-16777216
102
RTVSPost2010PropOp51
 70
     0
102
RTVSPost2010Prop52
140
1.0
102
RTVSPost2010PropOp52
 70
     0
102
RTVSPost2010Prop53
 90
        2
102
RTVSPost2010PropOp53
 70
     1
102
RTVSPost2010Prop54
  1
strokes_ogs.tif
102
RTVSPost2010PropOp54
 70
     1
102
RTVSPost2010Prop55
280
     0
102
RTVSPost2010PropOp55
 70
     1
102
RTVSPost2010Prop56
140
1.0
102
RTVSPost2010PropOp56
 70
     1
102
RTVSPost2010Prop57
140
1.0
102
RTVSPost2010PropOp57
 70
     1
102
RTVSPropertyOp0
 70
     1
102
RTVSPropertyOp1
 70
     1
102
RTVSPropertyOp2
 70
     1
102
RTVSPropertyOp3
 70
     1
102
RTVSPropertyOp4
 70
     1
102
RTVSPropertyOp5
 70
     1
102
RTVSPropertyOp6
 70
     1
102
RTVSPropertyOp7
 70
     1
102
RTVSPropertyOp8
 70
     1
102
RTVSPropertyOp9
 70
     1
102
RTVSPropertyOp10
 70
     1
102
RTVSPropertyOp11
 70
     1
102
RTVSPropertyOp12
 70
     1
102
RTVSPropertyOp13
 70
     1
102
RTVSPropertyOp14
 70
     1
102
RTVSPropertyOp15
 70
     1
102
RTVSPropertyOp16
 70
     1
102
RTVSPropertyOp17
 70
     1
102
RTVSPropertyOp18
 70
     1
102
RTVSPropertyOp19
 70
     1
102
RTVSPropertyOp20
 70
     1
102
RTVSPropertyOp21
 70
     1
102
RTVSPropertyOp22
 70
     1
102
RTVSPropertyOp23
 70
     1
102
RTVSPropertyOp24
 70
     1
102
RTVSPropertyOp25
 70
     1
102
RTVSPropertyOp26
 70
     1
102
RTVSPropertyOp27
 70
     1
102
RTVSPropertyOp28
 70
     1
102
RTVSPropertyOp29
 70
     1
102
RTVSPropertyOp30
 70
     1
102
RTVSPropertyOp31
 70
     1
102
RTVSPropertyOp32
 70
     1
102
RTVSPropertyOp33
 70
     1
102
RTVSPropertyOp34
 70
     1
102
RTVSPropertyOp35
 70
     1
102
RTVSPropertyOp36
 70
     1
102
RTVSPropertyOp37
 70
     1
102
RTVSPropertyOp38
 70
     1
102
RTVSPropertyOp39
 70
     1
102
RTVSPropertyOp40
 70
     1
102
RTVSPropertyOp41
 70
     1
102
RTVSPropertyOp42
 70
     1
102
RTVSPropertyOp43
 70
     1
102
RTVSPropertyOp44
 70
     1
102
RTVSPropertyOp45
 70
     1
102
RTVSPropertyOp46
 70
     1
102
RTVSPropertyOp47
 70
     1
102
RTVSPropertyOp48
 70
     1
102
RTVSPropertyOp49
 70
     1
102
RTVSPropertyOp50
 70
     1
102
RTVSPropertyOp51
 70
     0
102
RTVSPropertyOp52
 70
     0
102
RTVSPropertyOp53
 70
     1
102
RTVSPropertyOp54
 70
     1
102
RTVSPropertyOp55
 70
     1
102
RTVSPropertyOp56
 70
     1
102
RTVSPropertyOp57
 70
     1
102
RTVSPropertyOp58
 70
     1
102
RTVSPropertyOp59
 70
     1
102
RTVSPropertyOp60
 70
     1
102
RTVSPropertyOp61
 70
     1
102
RTVSPropertyOp62
 70
     1
  0
XRECORD
  5
17A7
102
{ACAD_REACTORS
330
17A6
102
}
330
17A6
100
AcDbXrecord
280
     1
102
RTVSPost2010Prop28
280
     0
102
RTVSPost2010PropOp28
 70
     1
102
RTVSPost2010Prop29
280
     1
102
RTVSPost2010PropOp29
 70
     1
102
RTVSPost2010Prop30
280
     1
102
RTVSPost2010PropOp30
 70
     1
102
RTVSPost2010Prop31
280
     0
102
RTVSPost2010PropOp31
 70
     1
102
RTVSPost2010Prop32
280
     0
102
RTVSPost2010PropOp32
 70
     1
102
RTVSPost2010Prop33
280
     0
102
RTVSPost2010PropOp33
 70
     1
102
RTVSPost2010Prop34
280
     0
102
RTVSPost2010PropOp34
 70
     1
102
RTVSPost2010Prop35
280
     0
102
RTVSPost2010PropOp35
 70
     1
102
RTVSPost2010Prop36
280
     0
102
RTVSPost2010PropOp36
 70
     1
102
RTVSPost2010Prop37
 90
       50
102
RTVSPost2010PropOp37
 70
     1
102
RTVSPost2010Prop38
140
0.0
102
RTVSPost2010PropOp38
 70
     1
102
RTVSPost2010Prop39
140
1.0
102
RTVSPost2010PropOp39
 70
     1
102
RTVSPost2010Prop40
 90
        0
102
RTVSPost2010PropOp40
 70
     1
102
RTVSPost2010Prop41ColorIndex
 90
       18
102
RTVSPost2010Prop41ColorRGB
 90
        0
102
RTVSPost2010PropOp41
 70
     1
102
RTVSPost2010Prop42
 90
       50
102
RTVSPost2010PropOp42
 70
     1
102
RTVSPost2010Prop43
 90
        3
102
RTVSPost2010PropOp43
 70
     1
102
RTVSPost2010Prop44ColorIndex
 90
        5
102
RTVSPost2010Prop44ColorRGB
 90
      255
102
RTVSPost2010PropOp44
 70
     1
102
RTVSPost2010Prop45
280
     0
102
RTVSPost2010PropOp45
 70
     1
102
RTVSPost2010Prop46
 90
       50
102
RTVSPost2010PropOp46
 70
     1
102
RTVSPost2010Prop47
 90
       50
102
RTVSPost2010PropOp47
 70
     1
102
RTVSPost2010Prop48
 90
       50
102
RTVSPost2010PropOp48
 70
     1
102
RTVSPost2010Prop49
280
     0
102
RTVSPost2010PropOp49
 70
     1
102
RTVSPost2010Prop50
 90
       50
102
RTVSPost2010PropOp50
 70
     1
102
RTVSPost2010Prop51ColorIndex
 90
      256
102
RTVSPost2010Prop51ColorRGB
 90
-16777216
102
RTVSPost2010PropOp51
 70
     0
102
RTVSPost2010Prop52
140
1.0
102
RTVSPost2010PropOp52
 70
     0
102
RTVSPost2010Prop53
 90
        2
102
RTVSPost2010PropOp53
 70
     1
102
RTVSPost2010Prop54
  1
strokes_ogs.tif
102
RTVSPost2010PropOp54
 70
     1
102
RTVSPost2010Prop55
280
     0
102
RTVSPost2010PropOp55
 70
     1
102
RTVSPost2010Prop56
140
1.0
102
RTVSPost2010PropOp56
 70
     1
102
RTVSPost2010Prop57
140
1.0
102
RTVSPost2010PropOp57
 70
     1
102
RTVSPropertyOp0
 70
     1
102
RTVSPropertyOp1
 70
     1
102
RTVSPropertyOp2
 70
     1
102
RTVSPropertyOp3
 70
     1
102
RTVSPropertyOp4
 70
     1
102
RTVSPropertyOp5
 70
     1
102
RTVSPropertyOp6
 70
     1
102
RTVSPropertyOp7
 70
     1
102
RTVSPropertyOp8
 70
     1
102
RTVSPropertyOp9
 70
     1
102
RTVSPropertyOp10
 70
     1
102
RTVSPropertyOp11
 70
     1
102
RTVSPropertyOp12
 70
     1
102
RTVSPropertyOp13
 70
     1
102
RTVSPropertyOp14
 70
     1
102
RTVSPropertyOp15
 70
     1
102
RTVSPropertyOp16
 70
     1
102
RTVSPropertyOp17
 70
     1
102
RTVSPropertyOp18
 70
     1
102
RTVSPropertyOp19
 70
     1
102
RTVSPropertyOp20
 70
     1
102
RTVSPropertyOp21
 70
     1
102
RTVSPropertyOp22
 70
     1
102
RTVSPropertyOp23
 70
     1
102
RTVSPropertyOp24
 70
     1
102
RTVSPropertyOp25
 70
     1
102
RTVSPropertyOp26
 70
     1
102
RTVSPropertyOp27
 70
     1
102
RTVSPropertyOp28
 70
     1
102
RTVSPropertyOp29
 70
     1
102
RTVSPropertyOp30
 70
     1
102
RTVSPropertyOp31
 70
     1
102
RTVSPropertyOp32
 70
     1
102
RTVSPropertyOp33
 70
     1
102
RTVSPropertyOp34
 70
     1
102
RTVSPropertyOp35
 70
     1
102
RTVSPropertyOp36
 70
     1
102
RTVSPropertyOp37
 70
     1
102
RTVSPropertyOp38
 70
     1
102
RTVSPropertyOp39
 70
     1
102
RTVSPropertyOp40
 70
     1
102
RTVSPropertyOp41
 70
     1
102
RTVSPropertyOp42
 70
     1
102
RTVSPropertyOp43
 70
     1
102
RTVSPropertyOp44
 70
     1
102
RTVSPropertyOp45
 70
     1
102
RTVSPropertyOp46
 70
     1
102
RTVSPropertyOp47
 70
     1
102
RTVSPropertyOp48
 70
     1
102
RTVSPropertyOp49
 70
     1
102
RTVSPropertyOp50
 70
     1
102
RTVSPropertyOp51
 70
     0
102
RTVSPropertyOp52
 70
     0
102
RTVSPropertyOp53
 70
     1
102
RTVSPropertyOp54
 70
     1
102
RTVSPropertyOp55
 70
     1
102
RTVSPropertyOp56
 70
     1
102
RTVSPropertyOp57
 70
     1
102
RTVSPropertyOp58
 70
     1
102
RTVSPropertyOp59
 70
     1
102
RTVSPropertyOp60
 70
     1
102
RTVSPropertyOp61
 70
     1
102
RTVSPropertyOp62
 70
     1
  0
XRECORD
  5
17AF
102
{ACAD_REACTORS
330
17AE
102
}
330
17AE
100
AcDbXrecord
280
     1
102
RTVSPost2010Prop28
280
     0
102
RTVSPost2010PropOp28
 70
     1
102
RTVSPost2010Prop29
280
     1
102
RTVSPost2010PropOp29
 70
     1
102
RTVSPost2010Prop30
280
     1
102
RTVSPost2010PropOp30
 70
     1
102
RTVSPost2010Prop31
280
     0
102
RTVSPost2010PropOp31
 70
     1
102
RTVSPost2010Prop32
280
     0
102
RTVSPost2010PropOp32
 70
     1
102
RTVSPost2010Prop33
280
     0
102
RTVSPost2010PropOp33
 70
     1
102
RTVSPost2010Prop34
280
     0
102
RTVSPost2010PropOp34
 70
     1
102
RTVSPost2010Prop35
280
     0
102
RTVSPost2010PropOp35
 70
     1
102
RTVSPost2010Prop36
280
     0
102
RTVSPost2010PropOp36
 70
     1
102
RTVSPost2010Prop37
 90
       50
102
RTVSPost2010PropOp37
 70
     1
102
RTVSPost2010Prop38
140
0.0
102
RTVSPost2010PropOp38
 70
     1
102
RTVSPost2010Prop39
140
1.0
102
RTVSPost2010PropOp39
 70
     1
102
RTVSPost2010Prop40
 90
        0
102
RTVSPost2010PropOp40
 70
     1
102
RTVSPost2010Prop41ColorIndex
 90
       18
102
RTVSPost2010Prop41ColorRGB
 90
        0
102
RTVSPost2010PropOp41
 70
     1
102
RTVSPost2010Prop42
 90
       50
102
RTVSPost2010PropOp42
 70
     1
102
RTVSPost2010Prop43
 90
        3
102
RTVSPost2010PropOp43
 70
     1
102
RTVSPost2010Prop44ColorIndex
 90
        5
102
RTVSPost2010Prop44ColorRGB
 90
      255
102
RTVSPost2010PropOp44
 70
     1
102
RTVSPost2010Prop45
280
     0
102
RTVSPost2010PropOp45
 70
     1
102
RTVSPost2010Prop46
 90
       50
102
RTVSPost2010PropOp46
 70
     1
102
RTVSPost2010Prop47
 90
       50
102
RTVSPost2010PropOp47
 70
     1
102
RTVSPost2010Prop48
 90
       50
102
RTVSPost2010PropOp48
 70
     1
102
RTVSPost2010Prop49
280
     0
102
RTVSPost2010PropOp49
 70
     1
102
RTVSPost2010Prop50
 90
       50
102
RTVSPost2010PropOp50
 70
     1
102
RTVSPost2010Prop51ColorIndex
 90
      256
102
RTVSPost2010Prop51ColorRGB
 90
-16777216
102
RTVSPost2010PropOp51
 70
     0
102
RTVSPost2010Prop52
140
1.0
102
RTVSPost2010PropOp52
 70
     0
102
RTVSPost2010Prop53
 90
        2
102
RTVSPost2010PropOp53
 70
     1
102
RTVSPost2010Prop54
  1
strokes_ogs.tif
102
RTVSPost2010PropOp54
 70
     1
102
RTVSPost2010Prop55
280
     0
102
RTVSPost2010PropOp55
 70
     1
102
RTVSPost2010Prop56
140
1.0
102
RTVSPost2010PropOp56
 70
     1
102
RTVSPost2010Prop57
140
1.0
102
RTVSPost2010PropOp57
 70
     1
102
RTVSPropertyOp0
 70
     1
102
RTVSPropertyOp1
 70
     1
102
RTVSPropertyOp2
 70
     1
102
RTVSPropertyOp3
 70
     1
102
RTVSPropertyOp4
 70
     1
102
RTVSPropertyOp5
 70
     1
102
RTVSPropertyOp6
 70
     1
102
RTVSPropertyOp7
 70
     1
102
RTVSPropertyOp8
 70
     1
102
RTVSPropertyOp9
 70
     1
102
RTVSPropertyOp10
 70
     1
102
RTVSPropertyOp11
 70
     1
102
RTVSPropertyOp12
 70
     1
102
RTVSPropertyOp13
 70
     1
102
RTVSPropertyOp14
 70
     1
102
RTVSPropertyOp15
 70
     1
102
RTVSPropertyOp16
 70
     1
102
RTVSPropertyOp17
 70
     1
102
RTVSPropertyOp18
 70
     1
102
RTVSPropertyOp19
 70
     1
102
RTVSPropertyOp20
 70
     1
102
RTVSPropertyOp21
 70
     1
102
RTVSPropertyOp22
 70
     1
102
RTVSPropertyOp23
 70
     1
102
RTVSPropertyOp24
 70
     1
102
RTVSPropertyOp25
 70
     1
102
RTVSPropertyOp26
 70
     1
102
RTVSPropertyOp27
 70
     1
102
RTVSPropertyOp28
 70
     1
102
RTVSPropertyOp29
 70
     1
102
RTVSPropertyOp30
 70
     1
102
RTVSPropertyOp31
 70
     1
102
RTVSPropertyOp32
 70
     1
102
RTVSPropertyOp33
 70
     1
102
RTVSPropertyOp34
 70
     1
102
RTVSPropertyOp35
 70
     1
102
RTVSPropertyOp36
 70
     1
102
RTVSPropertyOp37
 70
     1
102
RTVSPropertyOp38
 70
     1
102
RTVSPropertyOp39
 70
     1
102
RTVSPropertyOp40
 70
     1
102
RTVSPropertyOp41
 70
     1
102
RTVSPropertyOp42
 70
     1
102
RTVSPropertyOp43
 70
     1
102
RTVSPropertyOp44
 70
     1
102
RTVSPropertyOp45
 70
     1
102
RTVSPropertyOp46
 70
     1
102
RTVSPropertyOp47
 70
     1
102
RTVSPropertyOp48
 70
     1
102
RTVSPropertyOp49
 70
     1
102
RTVSPropertyOp50
 70
     1
102
RTVSPropertyOp51
 70
     0
102
RTVSPropertyOp52
 70
     0
102
RTVSPropertyOp53
 70
     1
102
RTVSPropertyOp54
 70
     1
102
RTVSPropertyOp55
 70
     1
102
RTVSPropertyOp56
 70
     1
102
RTVSPropertyOp57
 70
     1
102
RTVSPropertyOp58
 70
     1
102
RTVSPropertyOp59
 70
     1
102
RTVSPropertyOp60
 70
     1
102
RTVSPropertyOp61
 70
     1
102
RTVSPropertyOp62
 70
     1
  0
XRECORD
  5
17CB
102
{ACAD_REACTORS
330
17CA
102
}
330
17CA
100
AcDbXrecord
280
     1
102
RTVSPost2010Prop28
280
     0
102
RTVSPost2010PropOp28
 70
     1
102
RTVSPost2010Prop29
280
     1
102
RTVSPost2010PropOp29
 70
     1
102
RTVSPost2010Prop30
280
     1
102
RTVSPost2010PropOp30
 70
     1
102
RTVSPost2010Prop31
280
     0
102
RTVSPost2010PropOp31
 70
     1
102
RTVSPost2010Prop32
280
     0
102
RTVSPost2010PropOp32
 70
     1
102
RTVSPost2010Prop33
280
     0
102
RTVSPost2010PropOp33
 70
     1
102
RTVSPost2010Prop34
280
     0
102
RTVSPost2010PropOp34
 70
     1
102
RTVSPost2010Prop35
280
     0
102
RTVSPost2010PropOp35
 70
     1
102
RTVSPost2010Prop36
280
     0
102
RTVSPost2010PropOp36
 70
     1
102
RTVSPost2010Prop37
 90
       50
102
RTVSPost2010PropOp37
 70
     0
102
RTVSPost2010Prop38
140
0.0
102
RTVSPost2010PropOp38
 70
     0
102
RTVSPost2010Prop39
140
1.0
102
RTVSPost2010PropOp39
 70
     0
102
RTVSPost2010Prop40
 90
        0
102
RTVSPost2010PropOp40
 70
     0
102
RTVSPost2010Prop41ColorIndex
 90
       18
102
RTVSPost2010Prop41ColorRGB
 90
        0
102
RTVSPost2010PropOp41
 70
     0
102
RTVSPost2010Prop42
 90
       50
102
RTVSPost2010PropOp42
 70
     0
102
RTVSPost2010Prop43
 90
        3
102
RTVSPost2010PropOp43
 70
     0
102
RTVSPost2010Prop44ColorIndex
 90
        5
102
RTVSPost2010Prop44ColorRGB
 90
      255
102
RTVSPost2010PropOp44
 70
     0
102
RTVSPost2010Prop45
280
     0
102
RTVSPost2010PropOp45
 70
     1
102
RTVSPost2010Prop46
 90
       50
102
RTVSPost2010PropOp46
 70
     0
102
RTVSPost2010Prop47
 90
       50
102
RTVSPost2010PropOp47
 70
     0
102
RTVSPost2010Prop48
 90
       50
102
RTVSPost2010PropOp48
 70
     0
102
RTVSPost2010Prop49
280
     0
102
RTVSPost2010PropOp49
 70
     1
102
RTVSPost2010Prop50
 90
       50
102
RTVSPost2010PropOp50
 70
     0
102
RTVSPost2010Prop51ColorIndex
 90
      256
102
RTVSPost2010Prop51ColorRGB
 90
-16777216
102
RTVSPost2010PropOp51
 70
     0
102
RTVSPost2010Prop52
140
1.0
102
RTVSPost2010PropOp52
 70
     0
102
RTVSPost2010Prop53
 90
        2
102
RTVSPost2010PropOp53
 70
     0
102
RTVSPost2010Prop54
  1
strokes_ogs.tif
102
RTVSPost2010PropOp54
 70
     0
102
RTVSPost2010Prop55
280
     0
102
RTVSPost2010PropOp55
 70
     1
102
RTVSPost2010Prop56
140
1.0
102
RTVSPost2010PropOp56
 70
     0
102
RTVSPost2010Prop57
140
1.0
102
RTVSPost2010PropOp57
 70
     0
102
RTVSPropertyOp0
 70
     0
102
RTVSPropertyOp1
 70
     0
102
RTVSPropertyOp2
 70
     0
102
RTVSPropertyOp3
 70
     0
102
RTVSPropertyOp4
 70
     0
102
RTVSPropertyOp5
 70
     0
102
RTVSPropertyOp6
 70
     0
102
RTVSPropertyOp7
 70
     0
102
RTVSPropertyOp8
 70
     0
102
RTVSPropertyOp9
 70
     0
102
RTVSPropertyOp10
 70
     0
102
RTVSPropertyOp11
 70
     0
102
RTVSPropertyOp12
 70
     0
102
RTVSPropertyOp13
 70
     0
102
RTVSPropertyOp14
 70
     2
102
RTVSPropertyOp15
 70
     0
102
RTVSPropertyOp16
 70
     0
102
RTVSPropertyOp17
 70
     0
102
RTVSPropertyOp18
 70
     0
102
RTVSPropertyOp19
 70
     0
102
RTVSPropertyOp20
 70
     0
102
RTVSPropertyOp21
 70
     0
102
RTVSPropertyOp22
 70
     0
102
RTVSPropertyOp23
 70
     0
102
RTVSPropertyOp24
 70
     0
102
RTVSPropertyOp25
 70
     0
102
RTVSPropertyOp26
 70
     0
102
RTVSPropertyOp27
 70
     0
102
RTVSPropertyOp28
 70
     1
102
RTVSPropertyOp29
 70
     1
102
RTVSPropertyOp30
 70
     1
102
RTVSPropertyOp31
 70
     1
102
RTVSPropertyOp32
 70
     1
102
RTVSPropertyOp33
 70
     1
102
RTVSPropertyOp34
 70
     1
102
RTVSPropertyOp35
 70
     1
102
RTVSPropertyOp36
 70
     1
102
RTVSPropertyOp37
 70
     0
102
RTVSPropertyOp38
 70
     0
102
RTVSPropertyOp39
 70
     0
102
RTVSPropertyOp40
 70
     0
102
RTVSPropertyOp41
 70
     0
102
RTVSPropertyOp42
 70
     0
102
RTVSPropertyOp43
 70
     0
102
RTVSPropertyOp44
 70
     0
102
RTVSPropertyOp45
 70
     1
102
RTVSPropertyOp46
 70
     0
102
RTVSPropertyOp47
 70
     0
102
RTVSPropertyOp48
 70
     0
102
RTVSPropertyOp49
 70
     1
102
RTVSPropertyOp50
 70
     0
102
RTVSPropertyOp51
 70
     0
102
RTVSPropertyOp52
 70
     0
102
RTVSPropertyOp53
 70
     0
102
RTVSPropertyOp54
 70
     0
102
RTVSPropertyOp55
 70
     1
102
RTVSPropertyOp56
 70
     0
102
RTVSPropertyOp57
 70
     0
102
RTVSPropertyOp58
 70
     0
102
RTVSPropertyOp59
 70
     0
102
RTVSPropertyOp60
 70
     0
102
RTVSPropertyOp61
 70
     0
102
RTVSPropertyOp62
 70
     0
  0
XRECORD
  5
17BB
102
{ACAD_REACTORS
330
17BA
102
}
330
17BA
100
AcDbXrecord
280
     1
102
RTVSPost2010Prop28
280
     0
102
RTVSPost2010PropOp28
 70
     1
102
RTVSPost2010Prop29
280
     1
102
RTVSPost2010PropOp29
 70
     1
102
RTVSPost2010Prop30
280
     1
102
RTVSPost2010PropOp30
 70
     1
102
RTVSPost2010Prop31
280
     0
102
RTVSPost2010PropOp31
 70
     1
102
RTVSPost2010Prop32
280
     0
102
RTVSPost2010PropOp32
 70
     1
102
RTVSPost2010Prop33
280
     0
102
RTVSPost2010PropOp33
 70
     1
102
RTVSPost2010Prop34
280
     0
102
RTVSPost2010PropOp34
 70
     1
102
RTVSPost2010Prop35
280
     0
102
RTVSPost2010PropOp35
 70
     1
102
RTVSPost2010Prop36
280
     0
102
RTVSPost2010PropOp36
 70
     1
102
RTVSPost2010Prop37
 90
       50
102
RTVSPost2010PropOp37
 70
     1
102
RTVSPost2010Prop38
140
0.0
102
RTVSPost2010PropOp38
 70
     1
102
RTVSPost2010Prop39
140
1.0
102
RTVSPost2010PropOp39
 70
     1
102
RTVSPost2010Prop40
 90
        0
102
RTVSPost2010PropOp40
 70
     1
102
RTVSPost2010Prop41ColorIndex
 90
       18
102
RTVSPost2010Prop41ColorRGB
 90
        0
102
RTVSPost2010PropOp41
 70
     1
102
RTVSPost2010Prop42
 90
       50
102
RTVSPost2010PropOp42
 70
     1
102
RTVSPost2010Prop43
 90
        3
102
RTVSPost2010PropOp43
 70
     1
102
RTVSPost2010Prop44ColorIndex
 90
        5
102
RTVSPost2010Prop44ColorRGB
 90
      255
102
RTVSPost2010PropOp44
 70
     1
102
RTVSPost2010Prop45
280
     0
102
RTVSPost2010PropOp45
 70
     1
102
RTVSPost2010Prop46
 90
       50
102
RTVSPost2010PropOp46
 70
     1
102
RTVSPost2010Prop47
 90
       50
102
RTVSPost2010PropOp47
 70
     1
102
RTVSPost2010Prop48
 90
       50
102
RTVSPost2010PropOp48
 70
     1
102
RTVSPost2010Prop49
280
     0
102
RTVSPost2010PropOp49
 70
     1
102
RTVSPost2010Prop50
 90
       50
102
RTVSPost2010PropOp50
 70
     1
102
RTVSPost2010Prop51ColorIndex
 90
      256
102
RTVSPost2010Prop51ColorRGB
 90
-16777216
102
RTVSPost2010PropOp51
 70
     0
102
RTVSPost2010Prop52
140
1.0
102
RTVSPost2010PropOp52
 70
     0
102
RTVSPost2010Prop53
 90
        2
102
RTVSPost2010PropOp53
 70
     1
102
RTVSPost2010Prop54
  1
strokes_ogs.tif
102
RTVSPost2010PropOp54
 70
     1
102
RTVSPost2010Prop55
280
     0
102
RTVSPost2010PropOp55
 70
     1
102
RTVSPost2010Prop56
140
1.0
102
RTVSPost2010PropOp56
 70
     1
102
RTVSPost2010Prop57
140
1.0
102
RTVSPost2010PropOp57
 70
     1
102
RTVSPropertyOp0
 70
     1
102
RTVSPropertyOp1
 70
     1
102
RTVSPropertyOp2
 70
     1
102
RTVSPropertyOp3
 70
     1
102
RTVSPropertyOp4
 70
     1
102
RTVSPropertyOp5
 70
     1
102
RTVSPropertyOp6
 70
     1
102
RTVSPropertyOp7
 70
     1
102
RTVSPropertyOp8
 70
     1
102
RTVSPropertyOp9
 70
     1
102
RTVSPropertyOp10
 70
     1
102
RTVSPropertyOp11
 70
     1
102
RTVSPropertyOp12
 70
     1
102
RTVSPropertyOp13
 70
     1
102
RTVSPropertyOp14
 70
     1
102
RTVSPropertyOp15
 70
     1
102
RTVSPropertyOp16
 70
     1
102
RTVSPropertyOp17
 70
     1
102
RTVSPropertyOp18
 70
     1
102
RTVSPropertyOp19
 70
     1
102
RTVSPropertyOp20
 70
     1
102
RTVSPropertyOp21
 70
     1
102
RTVSPropertyOp22
 70
     1
102
RTVSPropertyOp23
 70
     1
102
RTVSPropertyOp24
 70
     1
102
RTVSPropertyOp25
 70
     1
102
RTVSPropertyOp26
 70
     1
102
RTVSPropertyOp27
 70
     1
102
RTVSPropertyOp28
 70
     1
102
RTVSPropertyOp29
 70
     1
102
RTVSPropertyOp30
 70
     1
102
RTVSPropertyOp31
 70
     1
102
RTVSPropertyOp32
 70
     1
102
RTVSPropertyOp33
 70
     1
102
RTVSPropertyOp34
 70
     1
102
RTVSPropertyOp35
 70
     1
102
RTVSPropertyOp36
 70
     1
102
RTVSPropertyOp37
 70
     1
102
RTVSPropertyOp38
 70
     1
102
RTVSPropertyOp39
 70
     1
102
RTVSPropertyOp40
 70
     1
102
RTVSPropertyOp41
 70
     1
102
RTVSPropertyOp42
 70
     1
102
RTVSPropertyOp43
 70
     1
102
RTVSPropertyOp44
 70
     1
102
RTVSPropertyOp45
 70
     1
102
RTVSPropertyOp46
 70
     1
102
RTVSPropertyOp47
 70
     1
102
RTVSPropertyOp48
 70
     1
102
RTVSPropertyOp49
 70
     1
102
RTVSPropertyOp50
 70
     1
102
RTVSPropertyOp51
 70
     0
102
RTVSPropertyOp52
 70
     0
102
RTVSPropertyOp53
 70
     1
102
RTVSPropertyOp54
 70
     1
102
RTVSPropertyOp55
 70
     1
102
RTVSPropertyOp56
 70
     1
102
RTVSPropertyOp57
 70
     1
102
RTVSPropertyOp58
 70
     1
102
RTVSPropertyOp59
 70
     1
102
RTVSPropertyOp60
 70
     1
102
RTVSPropertyOp61
 70
     1
102
RTVSPropertyOp62
 70
     1
  0
XRECORD
  5
17CD
102
{ACAD_REACTORS
330
17CC
102
}
330
17CC
100
AcDbXrecord
280
     1
102
RTVSPost2010Prop28
280
     0
102
RTVSPost2010PropOp28
 70
     1
102
RTVSPost2010Prop29
280
     1
102
RTVSPost2010PropOp29
 70
     1
102
RTVSPost2010Prop30
280
     1
102
RTVSPost2010PropOp30
 70
     1
102
RTVSPost2010Prop31
280
     0
102
RTVSPost2010PropOp31
 70
     1
102
RTVSPost2010Prop32
280
     0
102
RTVSPost2010PropOp32
 70
     1
102
RTVSPost2010Prop33
280
     0
102
RTVSPost2010PropOp33
 70
     1
102
RTVSPost2010Prop34
280
     0
102
RTVSPost2010PropOp34
 70
     1
102
RTVSPost2010Prop35
280
     0
102
RTVSPost2010PropOp35
 70
     1
102
RTVSPost2010Prop36
280
     0
102
RTVSPost2010PropOp36
 70
     1
102
RTVSPost2010Prop37
 90
       50
102
RTVSPost2010PropOp37
 70
     0
102
RTVSPost2010Prop38
140
0.0
102
RTVSPost2010PropOp38
 70
     0
102
RTVSPost2010Prop39
140
1.0
102
RTVSPost2010PropOp39
 70
     0
102
RTVSPost2010Prop40
 90
        0
102
RTVSPost2010PropOp40
 70
     0
102
RTVSPost2010Prop41ColorIndex
 90
       18
102
RTVSPost2010Prop41ColorRGB
 90
        0
102
RTVSPost2010PropOp41
 70
     0
102
RTVSPost2010Prop42
 90
       50
102
RTVSPost2010PropOp42
 70
     0
102
RTVSPost2010Prop43
 90
        3
102
RTVSPost2010PropOp43
 70
     0
102
RTVSPost2010Prop44ColorIndex
 90
        5
102
RTVSPost2010Prop44ColorRGB
 90
      255
102
RTVSPost2010PropOp44
 70
     0
102
RTVSPost2010Prop45
280
     0
102
RTVSPost2010PropOp45
 70
     1
102
RTVSPost2010Prop46
 90
       50
102
RTVSPost2010PropOp46
 70
     0
102
RTVSPost2010Prop47
 90
       50
102
RTVSPost2010PropOp47
 70
     0
102
RTVSPost2010Prop48
 90
       50
102
RTVSPost2010PropOp48
 70
     0
102
RTVSPost2010Prop49
280
     0
102
RTVSPost2010PropOp49
 70
     1
102
RTVSPost2010Prop50
 90
       50
102
RTVSPost2010PropOp50
 70
     0
102
RTVSPost2010Prop51ColorIndex
 90
      256
102
RTVSPost2010Prop51ColorRGB
 90
-16777216
102
RTVSPost2010PropOp51
 70
     0
102
RTVSPost2010Prop52
140
1.0
102
RTVSPost2010PropOp52
 70
     0
102
RTVSPost2010Prop53
 90
        2
102
RTVSPost2010PropOp53
 70
     0
102
RTVSPost2010Prop54
  1
strokes_ogs.tif
102
RTVSPost2010PropOp54
 70
     0
102
RTVSPost2010Prop55
280
     0
102
RTVSPost2010PropOp55
 70
     1
102
RTVSPost2010Prop56
140
1.0
102
RTVSPost2010PropOp56
 70
     0
102
RTVSPost2010Prop57
140
1.0
102
RTVSPost2010PropOp57
 70
     0
102
RTVSPropertyOp0
 70
     0
102
RTVSPropertyOp1
 70
     0
102
RTVSPropertyOp2
 70
     0
102
RTVSPropertyOp3
 70
     0
102
RTVSPropertyOp4
 70
     0
102
RTVSPropertyOp5
 70
     0
102
RTVSPropertyOp6
 70
     0
102
RTVSPropertyOp7
 70
     0
102
RTVSPropertyOp8
 70
     0
102
RTVSPropertyOp9
 70
     0
102
RTVSPropertyOp10
 70
     0
102
RTVSPropertyOp11
 70
     0
102
RTVSPropertyOp12
 70
     0
102
RTVSPropertyOp13
 70
     0
102
RTVSPropertyOp14
 70
     2
102
RTVSPropertyOp15
 70
     0
102
RTVSPropertyOp16
 70
     0
102
RTVSPropertyOp17
 70
     0
102
RTVSPropertyOp18
 70
     0
102
RTVSPropertyOp19
 70
     0
102
RTVSPropertyOp20
 70
     0
102
RTVSPropertyOp21
 70
     0
102
RTVSPropertyOp22
 70
     0
102
RTVSPropertyOp23
 70
     0
102
RTVSPropertyOp24
 70
     0
102
RTVSPropertyOp25
 70
     0
102
RTVSPropertyOp26
 70
     0
102
RTVSPropertyOp27
 70
     0
102
RTVSPropertyOp28
 70
     1
102
RTVSPropertyOp29
 70
     1
102
RTVSPropertyOp30
 70
     1
102
RTVSPropertyOp31
 70
     1
102
RTVSPropertyOp32
 70
     1
102
RTVSPropertyOp33
 70
     1
102
RTVSPropertyOp34
 70
     1
102
RTVSPropertyOp35
 70
     1
102
RTVSPropertyOp36
 70
     1
102
RTVSPropertyOp37
 70
     0
102
RTVSPropertyOp38
 70
     0
102
RTVSPropertyOp39
 70
     0
102
RTVSPropertyOp40
 70
     0
102
RTVSPropertyOp41
 70
     0
102
RTVSPropertyOp42
 70
     0
102
RTVSPropertyOp43
 70
     0
102
RTVSPropertyOp44
 70
     0
102
RTVSPropertyOp45
 70
     1
102
RTVSPropertyOp46
 70
     0
102
RTVSPropertyOp47
 70
     0
102
RTVSPropertyOp48
 70
     0
102
RTVSPropertyOp49
 70
     1
102
RTVSPropertyOp50
 70
     0
102
RTVSPropertyOp51
 70
     0
102
RTVSPropertyOp52
 70
     0
102
RTVSPropertyOp53
 70
     0
102
RTVSPropertyOp54
 70
     0
102
RTVSPropertyOp55
 70
     1
102
RTVSPropertyOp56
 70
     0
102
RTVSPropertyOp57
 70
     0
102
RTVSPropertyOp58
 70
     0
102
RTVSPropertyOp59
 70
     0
102
RTVSPropertyOp60
 70
     0
102
RTVSPropertyOp61
 70
     0
102
RTVSPropertyOp62
 70
     0
  0
XRECORD
  5
17B3
102
{ACAD_REACTORS
330
17B2
102
}
330
17B2
100
AcDbXrecord
280
     1
102
RTVSPost2010Prop28
280
     0
102
RTVSPost2010PropOp28
 70
     1
102
RTVSPost2010Prop29
280
     1
102
RTVSPost2010PropOp29
 70
     1
102
RTVSPost2010Prop30
280
     1
102
RTVSPost2010PropOp30
 70
     1
102
RTVSPost2010Prop31
280
     0
102
RTVSPost2010PropOp31
 70
     1
102
RTVSPost2010Prop32
280
     0
102
RTVSPost2010PropOp32
 70
     1
102
RTVSPost2010Prop33
280
     0
102
RTVSPost2010PropOp33
 70
     1
102
RTVSPost2010Prop34
280
     0
102
RTVSPost2010PropOp34
 70
     1
102
RTVSPost2010Prop35
280
     0
102
RTVSPost2010PropOp35
 70
     1
102
RTVSPost2010Prop36
280
     0
102
RTVSPost2010PropOp36
 70
     1
102
RTVSPost2010Prop37
 90
       50
102
RTVSPost2010PropOp37
 70
     1
102
RTVSPost2010Prop38
140
0.0
102
RTVSPost2010PropOp38
 70
     1
102
RTVSPost2010Prop39
140
1.0
102
RTVSPost2010PropOp39
 70
     1
102
RTVSPost2010Prop40
 90
        0
102
RTVSPost2010PropOp40
 70
     1
102
RTVSPost2010Prop41ColorIndex
 90
       18
102
RTVSPost2010Prop41ColorRGB
 90
        0
102
RTVSPost2010PropOp41
 70
     1
102
RTVSPost2010Prop42
 90
       50
102
RTVSPost2010PropOp42
 70
     1
102
RTVSPost2010Prop43
 90
        3
102
RTVSPost2010PropOp43
 70
     1
102
RTVSPost2010Prop44ColorIndex
 90
        5
102
RTVSPost2010Prop44ColorRGB
 90
      255
102
RTVSPost2010PropOp44
 70
     1
102
RTVSPost2010Prop45
280
     0
102
RTVSPost2010PropOp45
 70
     1
102
RTVSPost2010Prop46
 90
       50
102
RTVSPost2010PropOp46
 70
     1
102
RTVSPost2010Prop47
 90
       50
102
RTVSPost2010PropOp47
 70
     1
102
RTVSPost2010Prop48
 90
       50
102
RTVSPost2010PropOp48
 70
     1
102
RTVSPost2010Prop49
280
     0
102
RTVSPost2010PropOp49
 70
     1
102
RTVSPost2010Prop50
 90
       50
102
RTVSPost2010PropOp50
 70
     1
102
RTVSPost2010Prop51ColorIndex
 90
      256
102
RTVSPost2010Prop51ColorRGB
 90
-16777216
102
RTVSPost2010PropOp51
 70
     0
102
RTVSPost2010Prop52
140
1.0
102
RTVSPost2010PropOp52
 70
     0
102
RTVSPost2010Prop53
 90
        2
102
RTVSPost2010PropOp53
 70
     1
102
RTVSPost2010Prop54
  1
strokes_ogs.tif
102
RTVSPost2010PropOp54
 70
     1
102
RTVSPost2010Prop55
280
     0
102
RTVSPost2010PropOp55
 70
     1
102
RTVSPost2010Prop56
140
1.0
102
RTVSPost2010PropOp56
 70
     1
102
RTVSPost2010Prop57
140
1.0
102
RTVSPost2010PropOp57
 70
     1
102
RTVSPropertyOp0
 70
     1
102
RTVSPropertyOp1
 70
     1
102
RTVSPropertyOp2
 70
     1
102
RTVSPropertyOp3
 70
     1
102
RTVSPropertyOp4
 70
     1
102
RTVSPropertyOp5
 70
     1
102
RTVSPropertyOp6
 70
     1
102
RTVSPropertyOp7
 70
     1
102
RTVSPropertyOp8
 70
     1
102
RTVSPropertyOp9
 70
     1
102
RTVSPropertyOp10
 70
     1
102
RTVSPropertyOp11
 70
     1
102
RTVSPropertyOp12
 70
     1
102
RTVSPropertyOp13
 70
     1
102
RTVSPropertyOp14
 70
     1
102
RTVSPropertyOp15
 70
     1
102
RTVSPropertyOp16
 70
     1
102
RTVSPropertyOp17
 70
     1
102
RTVSPropertyOp18
 70
     1
102
RTVSPropertyOp19
 70
     1
102
RTVSPropertyOp20
 70
     1
102
RTVSPropertyOp21
 70
     1
102
RTVSPropertyOp22
 70
     1
102
RTVSPropertyOp23
 70
     1
102
RTVSPropertyOp24
 70
     1
102
RTVSPropertyOp25
 70
     1
102
RTVSPropertyOp26
 70
     1
102
RTVSPropertyOp27
 70
     1
102
RTVSPropertyOp28
 70
     1
102
RTVSPropertyOp29
 70
     1
102
RTVSPropertyOp30
 70
     1
102
RTVSPropertyOp31
 70
     1
102
RTVSPropertyOp32
 70
     1
102
RTVSPropertyOp33
 70
     1
102
RTVSPropertyOp34
 70
     1
102
RTVSPropertyOp35
 70
     1
102
RTVSPropertyOp36
 70
     1
102
RTVSPropertyOp37
 70
     1
102
RTVSPropertyOp38
 70
     1
102
RTVSPropertyOp39
 70
     1
102
RTVSPropertyOp40
 70
     1
102
RTVSPropertyOp41
 70
     1
102
RTVSPropertyOp42
 70
     1
102
RTVSPropertyOp43
 70
     1
102
RTVSPropertyOp44
 70
     1
102
RTVSPropertyOp45
 70
     1
102
RTVSPropertyOp46
 70
     1
102
RTVSPropertyOp47
 70
     1
102
RTVSPropertyOp48
 70
     1
102
RTVSPropertyOp49
 70
     1
102
RTVSPropertyOp50
 70
     1
102
RTVSPropertyOp51
 70
     0
102
RTVSPropertyOp52
 70
     0
102
RTVSPropertyOp53
 70
     1
102
RTVSPropertyOp54
 70
     1
102
RTVSPropertyOp55
 70
     1
102
RTVSPropertyOp56
 70
     1
102
RTVSPropertyOp57
 70
     1
102
RTVSPropertyOp58
 70
     1
102
RTVSPropertyOp59
 70
     1
102
RTVSPropertyOp60
 70
     1
102
RTVSPropertyOp61
 70
     1
102
RTVSPropertyOp62
 70
     1
  0
XRECORD
  5
17C9
102
{ACAD_REACTORS
330
17C8
102
}
330
17C8
100
AcDbXrecord
280
     1
102
RTVSPost2010Prop28
280
     0
102
RTVSPost2010PropOp28
 70
     1
102
RTVSPost2010Prop29
280
     1
102
RTVSPost2010PropOp29
 70
     1
102
RTVSPost2010Prop30
280
     1
102
RTVSPost2010PropOp30
 70
     1
102
RTVSPost2010Prop31
280
     0
102
RTVSPost2010PropOp31
 70
     1
102
RTVSPost2010Prop32
280
     0
102
RTVSPost2010PropOp32
 70
     1
102
RTVSPost2010Prop33
280
     0
102
RTVSPost2010PropOp33
 70
     1
102
RTVSPost2010Prop34
280
     0
102
RTVSPost2010PropOp34
 70
     1
102
RTVSPost2010Prop35
280
     0
102
RTVSPost2010PropOp35
 70
     1
102
RTVSPost2010Prop36
280
     0
102
RTVSPost2010PropOp36
 70
     1
102
RTVSPost2010Prop37
 90
       50
102
RTVSPost2010PropOp37
 70
     1
102
RTVSPost2010Prop38
140
0.0
102
RTVSPost2010PropOp38
 70
     1
102
RTVSPost2010Prop39
140
1.0
102
RTVSPost2010PropOp39
 70
     1
102
RTVSPost2010Prop40
 90
        0
102
RTVSPost2010PropOp40
 70
     1
102
RTVSPost2010Prop41ColorIndex
 90
       18
102
RTVSPost2010Prop41ColorRGB
 90
        0
102
RTVSPost2010PropOp41
 70
     1
102
RTVSPost2010Prop42
 90
       50
102
RTVSPost2010PropOp42
 70
     1
102
RTVSPost2010Prop43
 90
        3
102
RTVSPost2010PropOp43
 70
     1
102
RTVSPost2010Prop44ColorIndex
 90
        5
102
RTVSPost2010Prop44ColorRGB
 90
      255
102
RTVSPost2010PropOp44
 70
     1
102
RTVSPost2010Prop45
280
     0
102
RTVSPost2010PropOp45
 70
     1
102
RTVSPost2010Prop46
 90
       50
102
RTVSPost2010PropOp46
 70
     1
102
RTVSPost2010Prop47
 90
       50
102
RTVSPost2010PropOp47
 70
     1
102
RTVSPost2010Prop48
 90
       50
102
RTVSPost2010PropOp48
 70
     1
102
RTVSPost2010Prop49
280
     0
102
RTVSPost2010PropOp49
 70
     1
102
RTVSPost2010Prop50
 90
       50
102
RTVSPost2010PropOp50
 70
     1
102
RTVSPost2010Prop51ColorIndex
 90
      256
102
RTVSPost2010Prop51ColorRGB
 90
-16777216
102
RTVSPost2010PropOp51
 70
     0
102
RTVSPost2010Prop52
140
1.0
102
RTVSPost2010PropOp52
 70
     0
102
RTVSPost2010Prop53
 90
        2
102
RTVSPost2010PropOp53
 70
     1
102
RTVSPost2010Prop54
  1
strokes_ogs.tif
102
RTVSPost2010PropOp54
 70
     1
102
RTVSPost2010Prop55
280
     0
102
RTVSPost2010PropOp55
 70
     1
102
RTVSPost2010Prop56
140
1.0
102
RTVSPost2010PropOp56
 70
     1
102
RTVSPost2010Prop57
140
1.0
102
RTVSPost2010PropOp57
 70
     1
102
RTVSPropertyOp0
 70
     1
102
RTVSPropertyOp1
 70
     1
102
RTVSPropertyOp2
 70
     1
102
RTVSPropertyOp3
 70
     1
102
RTVSPropertyOp4
 70
     1
102
RTVSPropertyOp5
 70
     1
102
RTVSPropertyOp6
 70
     1
102
RTVSPropertyOp7
 70
     1
102
RTVSPropertyOp8
 70
     1
102
RTVSPropertyOp9
 70
     1
102
RTVSPropertyOp10
 70
     1
102
RTVSPropertyOp11
 70
     1
102
RTVSPropertyOp12
 70
     1
102
RTVSPropertyOp13
 70
     1
102
RTVSPropertyOp14
 70
     1
102
RTVSPropertyOp15
 70
     1
102
RTVSPropertyOp16
 70
     1
102
RTVSPropertyOp17
 70
     1
102
RTVSPropertyOp18
 70
     1
102
RTVSPropertyOp19
 70
     1
102
RTVSPropertyOp20
 70
     1
102
RTVSPropertyOp21
 70
     1
102
RTVSPropertyOp22
 70
     1
102
RTVSPropertyOp23
 70
     1
102
RTVSPropertyOp24
 70
     1
102
RTVSPropertyOp25
 70
     1
102
RTVSPropertyOp26
 70
     1
102
RTVSPropertyOp27
 70
     1
102
RTVSPropertyOp28
 70
     1
102
RTVSPropertyOp29
 70
     1
102
RTVSPropertyOp30
 70
     1
102
RTVSPropertyOp31
 70
     1
102
RTVSPropertyOp32
 70
     1
102
RTVSPropertyOp33
 70
     1
102
RTVSPropertyOp34
 70
     1
102
RTVSPropertyOp35
 70
     1
102
RTVSPropertyOp36
 70
     1
102
RTVSPropertyOp37
 70
     1
102
RTVSPropertyOp38
 70
     1
102
RTVSPropertyOp39
 70
     1
102
RTVSPropertyOp40
 70
     1
102
RTVSPropertyOp41
 70
     1
102
RTVSPropertyOp42
 70
     1
102
RTVSPropertyOp43
 70
     1
102
RTVSPropertyOp44
 70
     1
102
RTVSPropertyOp45
 70
     1
102
RTVSPropertyOp46
 70
     1
102
RTVSPropertyOp47
 70
     1
102
RTVSPropertyOp48
 70
     1
102
RTVSPropertyOp49
 70
     1
102
RTVSPropertyOp50
 70
     1
102
RTVSPropertyOp51
 70
     0
102
RTVSPropertyOp52
 70
     0
102
RTVSPropertyOp53
 70
     1
102
RTVSPropertyOp54
 70
     1
102
RTVSPropertyOp55
 70
     1
102
RTVSPropertyOp56
 70
     1
102
RTVSPropertyOp57
 70
     1
102
RTVSPropertyOp58
 70
     1
102
RTVSPropertyOp59
 70
     1
102
RTVSPropertyOp60
 70
     1
102
RTVSPropertyOp61
 70
     1
102
RTVSPropertyOp62
 70
     1
  0
XRECORD
  5
17C7
102
{ACAD_REACTORS
330
17C6
102
}
330
17C6
100
AcDbXrecord
280
     1
102
RTVSPost2010Prop28
280
     0
102
RTVSPost2010PropOp28
 70
     1
102
RTVSPost2010Prop29
280
     1
102
RTVSPost2010PropOp29
 70
     1
102
RTVSPost2010Prop30
280
     1
102
RTVSPost2010PropOp30
 70
     1
102
RTVSPost2010Prop31
280
     0
102
RTVSPost2010PropOp31
 70
     1
102
RTVSPost2010Prop32
280
     0
102
RTVSPost2010PropOp32
 70
     1
102
RTVSPost2010Prop33
280
     0
102
RTVSPost2010PropOp33
 70
     1
102
RTVSPost2010Prop34
280
     0
102
RTVSPost2010PropOp34
 70
     1
102
RTVSPost2010Prop35
280
     0
102
RTVSPost2010PropOp35
 70
     1
102
RTVSPost2010Prop36
280
     0
102
RTVSPost2010PropOp36
 70
     1
102
RTVSPost2010Prop37
 90
       50
102
RTVSPost2010PropOp37
 70
     1
102
RTVSPost2010Prop38
140
0.0
102
RTVSPost2010PropOp38
 70
     1
102
RTVSPost2010Prop39
140
1.0
102
RTVSPost2010PropOp39
 70
     1
102
RTVSPost2010Prop40
 90
        0
102
RTVSPost2010PropOp40
 70
     1
102
RTVSPost2010Prop41ColorIndex
 90
       18
102
RTVSPost2010Prop41ColorRGB
 90
        0
102
RTVSPost2010PropOp41
 70
     1
102
RTVSPost2010Prop42
 90
       50
102
RTVSPost2010PropOp42
 70
     1
102
RTVSPost2010Prop43
 90
        3
102
RTVSPost2010PropOp43
 70
     1
102
RTVSPost2010Prop44ColorIndex
 90
        5
102
RTVSPost2010Prop44ColorRGB
 90
      255
102
RTVSPost2010PropOp44
 70
     1
102
RTVSPost2010Prop45
280
     0
102
RTVSPost2010PropOp45
 70
     1
102
RTVSPost2010Prop46
 90
       50
102
RTVSPost2010PropOp46
 70
     1
102
RTVSPost2010Prop47
 90
       50
102
RTVSPost2010PropOp47
 70
     1
102
RTVSPost2010Prop48
 90
       50
102
RTVSPost2010PropOp48
 70
     1
102
RTVSPost2010Prop49
280
     0
102
RTVSPost2010PropOp49
 70
     1
102
RTVSPost2010Prop50
 90
       50
102
RTVSPost2010PropOp50
 70
     1
102
RTVSPost2010Prop51ColorIndex
 90
      256
102
RTVSPost2010Prop51ColorRGB
 90
-16777216
102
RTVSPost2010PropOp51
 70
     0
102
RTVSPost2010Prop52
140
1.0
102
RTVSPost2010PropOp52
 70
     0
102
RTVSPost2010Prop53
 90
        2
102
RTVSPost2010PropOp53
 70
     1
102
RTVSPost2010Prop54
  1
strokes_ogs.tif
102
RTVSPost2010PropOp54
 70
     1
102
RTVSPost2010Prop55
280
     0
102
RTVSPost2010PropOp55
 70
     1
102
RTVSPost2010Prop56
140
1.0
102
RTVSPost2010PropOp56
 70
     1
102
RTVSPost2010Prop57
140
1.0
102
RTVSPost2010PropOp57
 70
     1
102
RTVSPropertyOp0
 70
     1
102
RTVSPropertyOp1
 70
     1
102
RTVSPropertyOp2
 70
     1
102
RTVSPropertyOp3
 70
     1
102
RTVSPropertyOp4
 70
     1
102
RTVSPropertyOp5
 70
     1
102
RTVSPropertyOp6
 70
     1
102
RTVSPropertyOp7
 70
     1
102
RTVSPropertyOp8
 70
     1
102
RTVSPropertyOp9
 70
     1
102
RTVSPropertyOp10
 70
     1
102
RTVSPropertyOp11
 70
     1
102
RTVSPropertyOp12
 70
     1
102
RTVSPropertyOp13
 70
     1
102
RTVSPropertyOp14
 70
     1
102
RTVSPropertyOp15
 70
     1
102
RTVSPropertyOp16
 70
     1
102
RTVSPropertyOp17
 70
     1
102
RTVSPropertyOp18
 70
     1
102
RTVSPropertyOp19
 70
     1
102
RTVSPropertyOp20
 70
     1
102
RTVSPropertyOp21
 70
     1
102
RTVSPropertyOp22
 70
     1
102
RTVSPropertyOp23
 70
     1
102
RTVSPropertyOp24
 70
     1
102
RTVSPropertyOp25
 70
     1
102
RTVSPropertyOp26
 70
     1
102
RTVSPropertyOp27
 70
     1
102
RTVSPropertyOp28
 70
     1
102
RTVSPropertyOp29
 70
     1
102
RTVSPropertyOp30
 70
     1
102
RTVSPropertyOp31
 70
     1
102
RTVSPropertyOp32
 70
     1
102
RTVSPropertyOp33
 70
     1
102
RTVSPropertyOp34
 70
     1
102
RTVSPropertyOp35
 70
     1
102
RTVSPropertyOp36
 70
     1
102
RTVSPropertyOp37
 70
     1
102
RTVSPropertyOp38
 70
     1
102
RTVSPropertyOp39
 70
     1
102
RTVSPropertyOp40
 70
     1
102
RTVSPropertyOp41
 70
     1
102
RTVSPropertyOp42
 70
     1
102
RTVSPropertyOp43
 70
     1
102
RTVSPropertyOp44
 70
     1
102
RTVSPropertyOp45
 70
     1
102
RTVSPropertyOp46
 70
     1
102
RTVSPropertyOp47
 70
     1
102
RTVSPropertyOp48
 70
     1
102
RTVSPropertyOp49
 70
     1
102
RTVSPropertyOp50
 70
     1
102
RTVSPropertyOp51
 70
     0
102
RTVSPropertyOp52
 70
     0
102
RTVSPropertyOp53
 70
     1
102
RTVSPropertyOp54
 70
     1
102
RTVSPropertyOp55
 70
     1
102
RTVSPropertyOp56
 70
     1
102
RTVSPropertyOp57
 70
     1
102
RTVSPropertyOp58
 70
     1
102
RTVSPropertyOp59
 70
     1
102
RTVSPropertyOp60
 70
     1
102
RTVSPropertyOp61
 70
     1
102
RTVSPropertyOp62
 70
     1
  0
XRECORD
  5
17C1
102
{ACAD_REACTORS
330
17C0
102
}
330
17C0
100
AcDbXrecord
280
     1
102
RTVSPost2010Prop28
280
     0
102
RTVSPost2010PropOp28
 70
     1
102
RTVSPost2010Prop29
280
     1
102
RTVSPost2010PropOp29
 70
     1
102
RTVSPost2010Prop30
280
     1
102
RTVSPost2010PropOp30
 70
     1
102
RTVSPost2010Prop31
280
     0
102
RTVSPost2010PropOp31
 70
     1
102
RTVSPost2010Prop32
280
     0
102
RTVSPost2010PropOp32
 70
     1
102
RTVSPost2010Prop33
280
     0
102
RTVSPost2010PropOp33
 70
     1
102
RTVSPost2010Prop34
280
     0
102
RTVSPost2010PropOp34
 70
     1
102
RTVSPost2010Prop35
280
     0
102
RTVSPost2010PropOp35
 70
     1
102
RTVSPost2010Prop36
280
     0
102
RTVSPost2010PropOp36
 70
     1
102
RTVSPost2010Prop37
 90
       50
102
RTVSPost2010PropOp37
 70
     1
102
RTVSPost2010Prop38
140
0.0
102
RTVSPost2010PropOp38
 70
     1
102
RTVSPost2010Prop39
140
1.0
102
RTVSPost2010PropOp39
 70
     1
102
RTVSPost2010Prop40
 90
        0
102
RTVSPost2010PropOp40
 70
     1
102
RTVSPost2010Prop41ColorIndex
 90
       18
102
RTVSPost2010Prop41ColorRGB
 90
        0
102
RTVSPost2010PropOp41
 70
     1
102
RTVSPost2010Prop42
 90
       50
102
RTVSPost2010PropOp42
 70
     1
102
RTVSPost2010Prop43
 90
        3
102
RTVSPost2010PropOp43
 70
     1
102
RTVSPost2010Prop44ColorIndex
 90
        5
102
RTVSPost2010Prop44ColorRGB
 90
      255
102
RTVSPost2010PropOp44
 70
     1
102
RTVSPost2010Prop45
280
     0
102
RTVSPost2010PropOp45
 70
     1
102
RTVSPost2010Prop46
 90
       50
102
RTVSPost2010PropOp46
 70
     1
102
RTVSPost2010Prop47
 90
       50
102
RTVSPost2010PropOp47
 70
     1
102
RTVSPost2010Prop48
 90
       50
102
RTVSPost2010PropOp48
 70
     1
102
RTVSPost2010Prop49
280
     0
102
RTVSPost2010PropOp49
 70
     1
102
RTVSPost2010Prop50
 90
       50
102
RTVSPost2010PropOp50
 70
     1
102
RTVSPost2010Prop51ColorIndex
 90
      256
102
RTVSPost2010Prop51ColorRGB
 90
-16777216
102
RTVSPost2010PropOp51
 70
     0
102
RTVSPost2010Prop52
140
1.0
102
RTVSPost2010PropOp52
 70
     0
102
RTVSPost2010Prop53
 90
        2
102
RTVSPost2010PropOp53
 70
     1
102
RTVSPost2010Prop54
  1
strokes_ogs.tif
102
RTVSPost2010PropOp54
 70
     1
102
RTVSPost2010Prop55
280
     0
102
RTVSPost2010PropOp55
 70
     1
102
RTVSPost2010Prop56
140
1.0
102
RTVSPost2010PropOp56
 70
     1
102
RTVSPost2010Prop57
140
1.0
102
RTVSPost2010PropOp57
 70
     1
102
RTVSPropertyOp0
 70
     1
102
RTVSPropertyOp1
 70
     1
102
RTVSPropertyOp2
 70
     1
102
RTVSPropertyOp3
 70
     1
102
RTVSPropertyOp4
 70
     1
102
RTVSPropertyOp5
 70
     1
102
RTVSPropertyOp6
 70
     1
102
RTVSPropertyOp7
 70
     1
102
RTVSPropertyOp8
 70
     1
102
RTVSPropertyOp9
 70
     1
102
RTVSPropertyOp10
 70
     1
102
RTVSPropertyOp11
 70
     1
102
RTVSPropertyOp12
 70
     1
102
RTVSPropertyOp13
 70
     1
102
RTVSPropertyOp14
 70
     1
102
RTVSPropertyOp15
 70
     1
102
RTVSPropertyOp16
 70
     1
102
RTVSPropertyOp17
 70
     1
102
RTVSPropertyOp18
 70
     1
102
RTVSPropertyOp19
 70
     1
102
RTVSPropertyOp20
 70
     1
102
RTVSPropertyOp21
 70
     1
102
RTVSPropertyOp22
 70
     1
102
RTVSPropertyOp23
 70
     1
102
RTVSPropertyOp24
 70
     1
102
RTVSPropertyOp25
 70
     1
102
RTVSPropertyOp26
 70
     1
102
RTVSPropertyOp27
 70
     1
102
RTVSPropertyOp28
 70
     1
102
RTVSPropertyOp29
 70
     1
102
RTVSPropertyOp30
 70
     1
102
RTVSPropertyOp31
 70
     1
102
RTVSPropertyOp32
 70
     1
102
RTVSPropertyOp33
 70
     1
102
RTVSPropertyOp34
 70
     1
102
RTVSPropertyOp35
 70
     1
102
RTVSPropertyOp36
 70
     1
102
RTVSPropertyOp37
 70
     1
102
RTVSPropertyOp38
 70
     1
102
RTVSPropertyOp39
 70
     1
102
RTVSPropertyOp40
 70
     1
102
RTVSPropertyOp41
 70
     1
102
RTVSPropertyOp42
 70
     1
102
RTVSPropertyOp43
 70
     1
102
RTVSPropertyOp44
 70
     1
102
RTVSPropertyOp45
 70
     1
102
RTVSPropertyOp46
 70
     1
102
RTVSPropertyOp47
 70
     1
102
RTVSPropertyOp48
 70
     1
102
RTVSPropertyOp49
 70
     1
102
RTVSPropertyOp50
 70
     1
102
RTVSPropertyOp51
 70
     0
102
RTVSPropertyOp52
 70
     0
102
RTVSPropertyOp53
 70
     1
102
RTVSPropertyOp54
 70
     1
102
RTVSPropertyOp55
 70
     1
102
RTVSPropertyOp56
 70
     1
102
RTVSPropertyOp57
 70
     1
102
RTVSPropertyOp58
 70
     1
102
RTVSPropertyOp59
 70
     1
102
RTVSPropertyOp60
 70
     1
102
RTVSPropertyOp61
 70
     1
102
RTVSPropertyOp62
 70
     1
  0
XRECORD
  5
17C3
102
{ACAD_REACTORS
330
17C2
102
}
330
17C2
100
AcDbXrecord
280
     1
102
RTVSPost2010Prop28
280
     0
102
RTVSPost2010PropOp28
 70
     1
102
RTVSPost2010Prop29
280
     1
102
RTVSPost2010PropOp29
 70
     1
102
RTVSPost2010Prop30
280
     1
102
RTVSPost2010PropOp30
 70
     1
102
RTVSPost2010Prop31
280
     0
102
RTVSPost2010PropOp31
 70
     1
102
RTVSPost2010Prop32
280
     0
102
RTVSPost2010PropOp32
 70
     1
102
RTVSPost2010Prop33
280
     0
102
RTVSPost2010PropOp33
 70
     1
102
RTVSPost2010Prop34
280
     0
102
RTVSPost2010PropOp34
 70
     1
102
RTVSPost2010Prop35
280
     0
102
RTVSPost2010PropOp35
 70
     1
102
RTVSPost2010Prop36
280
     0
102
RTVSPost2010PropOp36
 70
     1
102
RTVSPost2010Prop37
 90
       50
102
RTVSPost2010PropOp37
 70
     1
102
RTVSPost2010Prop38
140
0.0
102
RTVSPost2010PropOp38
 70
     1
102
RTVSPost2010Prop39
140
1.0
102
RTVSPost2010PropOp39
 70
     1
102
RTVSPost2010Prop40
 90
        0
102
RTVSPost2010PropOp40
 70
     1
102
RTVSPost2010Prop41ColorIndex
 90
       18
102
RTVSPost2010Prop41ColorRGB
 90
        0
102
RTVSPost2010PropOp41
 70
     1
102
RTVSPost2010Prop42
 90
       50
102
RTVSPost2010PropOp42
 70
     1
102
RTVSPost2010Prop43
 90
        3
102
RTVSPost2010PropOp43
 70
     1
102
RTVSPost2010Prop44ColorIndex
 90
        5
102
RTVSPost2010Prop44ColorRGB
 90
      255
102
RTVSPost2010PropOp44
 70
     1
102
RTVSPost2010Prop45
280
     0
102
RTVSPost2010PropOp45
 70
     1
102
RTVSPost2010Prop46
 90
       50
102
RTVSPost2010PropOp46
 70
     1
102
RTVSPost2010Prop47
 90
       50
102
RTVSPost2010PropOp47
 70
     1
102
RTVSPost2010Prop48
 90
       50
102
RTVSPost2010PropOp48
 70
     1
102
RTVSPost2010Prop49
280
     0
102
RTVSPost2010PropOp49
 70
     1
102
RTVSPost2010Prop50
 90
       50
102
RTVSPost2010PropOp50
 70
     1
102
RTVSPost2010Prop51ColorIndex
 90
      256
102
RTVSPost2010Prop51ColorRGB
 90
-16777216
102
RTVSPost2010PropOp51
 70
     0
102
RTVSPost2010Prop52
140
1.0
102
RTVSPost2010PropOp52
 70
     0
102
RTVSPost2010Prop53
 90
        2
102
RTVSPost2010PropOp53
 70
     1
102
RTVSPost2010Prop54
  1
strokes_ogs.tif
102
RTVSPost2010PropOp54
 70
     1
102
RTVSPost2010Prop55
280
     0
102
RTVSPost2010PropOp55
 70
     1
102
RTVSPost2010Prop56
140
1.0
102
RTVSPost2010PropOp56
 70
     1
102
RTVSPost2010Prop57
140
1.0
102
RTVSPost2010PropOp57
 70
     1
102
RTVSPropertyOp0
 70
     1
102
RTVSPropertyOp1
 70
     1
102
RTVSPropertyOp2
 70
     1
102
RTVSPropertyOp3
 70
     1
102
RTVSPropertyOp4
 70
     1
102
RTVSPropertyOp5
 70
     1
102
RTVSPropertyOp6
 70
     1
102
RTVSPropertyOp7
 70
     1
102
RTVSPropertyOp8
 70
     1
102
RTVSPropertyOp9
 70
     1
102
RTVSPropertyOp10
 70
     1
102
RTVSPropertyOp11
 70
     1
102
RTVSPropertyOp12
 70
     1
102
RTVSPropertyOp13
 70
     1
102
RTVSPropertyOp14
 70
     1
102
RTVSPropertyOp15
 70
     1
102
RTVSPropertyOp16
 70
     1
102
RTVSPropertyOp17
 70
     1
102
RTVSPropertyOp18
 70
     1
102
RTVSPropertyOp19
 70
     1
102
RTVSPropertyOp20
 70
     1
102
RTVSPropertyOp21
 70
     1
102
RTVSPropertyOp22
 70
     1
102
RTVSPropertyOp23
 70
     1
102
RTVSPropertyOp24
 70
     1
102
RTVSPropertyOp25
 70
     1
102
RTVSPropertyOp26
 70
     1
102
RTVSPropertyOp27
 70
     1
102
RTVSPropertyOp28
 70
     1
102
RTVSPropertyOp29
 70
     1
102
RTVSPropertyOp30
 70
     1
102
RTVSPropertyOp31
 70
     1
102
RTVSPropertyOp32
 70
     1
102
RTVSPropertyOp33
 70
     1
102
RTVSPropertyOp34
 70
     1
102
RTVSPropertyOp35
 70
     1
102
RTVSPropertyOp36
 70
     1
102
RTVSPropertyOp37
 70
     1
102
RTVSPropertyOp38
 70
     1
102
RTVSPropertyOp39
 70
     1
102
RTVSPropertyOp40
 70
     1
102
RTVSPropertyOp41
 70
     1
102
RTVSPropertyOp42
 70
     1
102
RTVSPropertyOp43
 70
     1
102
RTVSPropertyOp44
 70
     1
102
RTVSPropertyOp45
 70
     1
102
RTVSPropertyOp46
 70
     1
102
RTVSPropertyOp47
 70
     1
102
RTVSPropertyOp48
 70
     1
102
RTVSPropertyOp49
 70
     1
102
RTVSPropertyOp50
 70
     1
102
RTVSPropertyOp51
 70
     0
102
RTVSPropertyOp52
 70
     0
102
RTVSPropertyOp53
 70
     1
102
RTVSPropertyOp54
 70
     1
102
RTVSPropertyOp55
 70
     1
102
RTVSPropertyOp56
 70
     1
102
RTVSPropertyOp57
 70
     1
102
RTVSPropertyOp58
 70
     1
102
RTVSPropertyOp59
 70
     1
102
RTVSPropertyOp60
 70
     1
102
RTVSPropertyOp61
 70
     1
102
RTVSPropertyOp62
 70
     1
  0
XRECORD
  5
17B9
102
{ACAD_REACTORS
330
17B8
102
}
330
17B8
100
AcDbXrecord
280
     1
102
RTVSPost2010Prop28
280
     0
102
RTVSPost2010PropOp28
 70
     1
102
RTVSPost2010Prop29
280
     1
102
RTVSPost2010PropOp29
 70
     1
102
RTVSPost2010Prop30
280
     1
102
RTVSPost2010PropOp30
 70
     1
102
RTVSPost2010Prop31
280
     0
102
RTVSPost2010PropOp31
 70
     1
102
RTVSPost2010Prop32
280
     0
102
RTVSPost2010PropOp32
 70
     1
102
RTVSPost2010Prop33
280
     0
102
RTVSPost2010PropOp33
 70
     1
102
RTVSPost2010Prop34
280
     0
102
RTVSPost2010PropOp34
 70
     1
102
RTVSPost2010Prop35
280
     0
102
RTVSPost2010PropOp35
 70
     1
102
RTVSPost2010Prop36
280
     0
102
RTVSPost2010PropOp36
 70
     1
102
RTVSPost2010Prop37
 90
       50
102
RTVSPost2010PropOp37
 70
     1
102
RTVSPost2010Prop38
140
0.0
102
RTVSPost2010PropOp38
 70
     1
102
RTVSPost2010Prop39
140
1.0
102
RTVSPost2010PropOp39
 70
     1
102
RTVSPost2010Prop40
 90
        0
102
RTVSPost2010PropOp40
 70
     1
102
RTVSPost2010Prop41ColorIndex
 90
       18
102
RTVSPost2010Prop41ColorRGB
 90
        0
102
RTVSPost2010PropOp41
 70
     1
102
RTVSPost2010Prop42
 90
       50
102
RTVSPost2010PropOp42
 70
     1
102
RTVSPost2010Prop43
 90
        3
102
RTVSPost2010PropOp43
 70
     1
102
RTVSPost2010Prop44ColorIndex
 90
        5
102
RTVSPost2010Prop44ColorRGB
 90
      255
102
RTVSPost2010PropOp44
 70
     1
102
RTVSPost2010Prop45
280
     0
102
RTVSPost2010PropOp45
 70
     1
102
RTVSPost2010Prop46
 90
       50
102
RTVSPost2010PropOp46
 70
     1
102
RTVSPost2010Prop47
 90
       50
102
RTVSPost2010PropOp47
 70
     1
102
RTVSPost2010Prop48
 90
       50
102
RTVSPost2010PropOp48
 70
     1
102
RTVSPost2010Prop49
280
     0
102
RTVSPost2010PropOp49
 70
     1
102
RTVSPost2010Prop50
 90
       50
102
RTVSPost2010PropOp50
 70
     1
102
RTVSPost2010Prop51ColorIndex
 90
      256
102
RTVSPost2010Prop51ColorRGB
 90
-16777216
102
RTVSPost2010PropOp51
 70
     0
102
RTVSPost2010Prop52
140
1.0
102
RTVSPost2010PropOp52
 70
     0
102
RTVSPost2010Prop53
 90
        2
102
RTVSPost2010PropOp53
 70
     1
102
RTVSPost2010Prop54
  1
strokes_ogs.tif
102
RTVSPost2010PropOp54
 70
     1
102
RTVSPost2010Prop55
280
     0
102
RTVSPost2010PropOp55
 70
     1
102
RTVSPost2010Prop56
140
1.0
102
RTVSPost2010PropOp56
 70
     1
102
RTVSPost2010Prop57
140
1.0
102
RTVSPost2010PropOp57
 70
     1
102
RTVSPropertyOp0
 70
     1
102
RTVSPropertyOp1
 70
     1
102
RTVSPropertyOp2
 70
     1
102
RTVSPropertyOp3
 70
     1
102
RTVSPropertyOp4
 70
     1
102
RTVSPropertyOp5
 70
     1
102
RTVSPropertyOp6
 70
     1
102
RTVSPropertyOp7
 70
     1
102
RTVSPropertyOp8
 70
     1
102
RTVSPropertyOp9
 70
     1
102
RTVSPropertyOp10
 70
     1
102
RTVSPropertyOp11
 70
     1
102
RTVSPropertyOp12
 70
     1
102
RTVSPropertyOp13
 70
     1
102
RTVSPropertyOp14
 70
     1
102
RTVSPropertyOp15
 70
     1
102
RTVSPropertyOp16
 70
     1
102
RTVSPropertyOp17
 70
     1
102
RTVSPropertyOp18
 70
     1
102
RTVSPropertyOp19
 70
     1
102
RTVSPropertyOp20
 70
     1
102
RTVSPropertyOp21
 70
     1
102
RTVSPropertyOp22
 70
     1
102
RTVSPropertyOp23
 70
     1
102
RTVSPropertyOp24
 70
     1
102
RTVSPropertyOp25
 70
     1
102
RTVSPropertyOp26
 70
     1
102
RTVSPropertyOp27
 70
     1
102
RTVSPropertyOp28
 70
     1
102
RTVSPropertyOp29
 70
     1
102
RTVSPropertyOp30
 70
     1
102
RTVSPropertyOp31
 70
     1
102
RTVSPropertyOp32
 70
     1
102
RTVSPropertyOp33
 70
     1
102
RTVSPropertyOp34
 70
     1
102
RTVSPropertyOp35
 70
     1
102
RTVSPropertyOp36
 70
     1
102
RTVSPropertyOp37
 70
     1
102
RTVSPropertyOp38
 70
     1
102
RTVSPropertyOp39
 70
     1
102
RTVSPropertyOp40
 70
     1
102
RTVSPropertyOp41
 70
     1
102
RTVSPropertyOp42
 70
     1
102
RTVSPropertyOp43
 70
     1
102
RTVSPropertyOp44
 70
     1
102
RTVSPropertyOp45
 70
     1
102
RTVSPropertyOp46
 70
     1
102
RTVSPropertyOp47
 70
     1
102
RTVSPropertyOp48
 70
     1
102
RTVSPropertyOp49
 70
     1
102
RTVSPropertyOp50
 70
     1
102
RTVSPropertyOp51
 70
     0
102
RTVSPropertyOp52
 70
     0
102
RTVSPropertyOp53
 70
     1
102
RTVSPropertyOp54
 70
     1
102
RTVSPropertyOp55
 70
     1
102
RTVSPropertyOp56
 70
     1
102
RTVSPropertyOp57
 70
     1
102
RTVSPropertyOp58
 70
     1
102
RTVSPropertyOp59
 70
     1
102
RTVSPropertyOp60
 70
     1
102
RTVSPropertyOp61
 70
     1
102
RTVSPropertyOp62
 70
     1
  0
XRECORD
  5
17AD
102
{ACAD_REACTORS
330
17AC
102
}
330
17AC
100
AcDbXrecord
280
     1
102
RTVSPost2010Prop28
280
     0
102
RTVSPost2010PropOp28
 70
     1
102
RTVSPost2010Prop29
280
     1
102
RTVSPost2010PropOp29
 70
     1
102
RTVSPost2010Prop30
280
     1
102
RTVSPost2010PropOp30
 70
     1
102
RTVSPost2010Prop31
280
     0
102
RTVSPost2010PropOp31
 70
     1
102
RTVSPost2010Prop32
280
     0
102
RTVSPost2010PropOp32
 70
     1
102
RTVSPost2010Prop33
280
     0
102
RTVSPost2010PropOp33
 70
     1
102
RTVSPost2010Prop34
280
     0
102
RTVSPost2010PropOp34
 70
     1
102
RTVSPost2010Prop35
280
     0
102
RTVSPost2010PropOp35
 70
     1
102
RTVSPost2010Prop36
280
     0
102
RTVSPost2010PropOp36
 70
     1
102
RTVSPost2010Prop37
 90
       50
102
RTVSPost2010PropOp37
 70
     1
102
RTVSPost2010Prop38
140
0.0
102
RTVSPost2010PropOp38
 70
     1
102
RTVSPost2010Prop39
140
1.0
102
RTVSPost2010PropOp39
 70
     1
102
RTVSPost2010Prop40
 90
        0
102
RTVSPost2010PropOp40
 70
     1
102
RTVSPost2010Prop41ColorIndex
 90
       18
102
RTVSPost2010Prop41ColorRGB
 90
        0
102
RTVSPost2010PropOp41
 70
     1
102
RTVSPost2010Prop42
 90
       50
102
RTVSPost2010PropOp42
 70
     1
102
RTVSPost2010Prop43
 90
        3
102
RTVSPost2010PropOp43
 70
     1
102
RTVSPost2010Prop44ColorIndex
 90
        5
102
RTVSPost2010Prop44ColorRGB
 90
      255
102
RTVSPost2010PropOp44
 70
     1
102
RTVSPost2010Prop45
280
     0
102
RTVSPost2010PropOp45
 70
     1
102
RTVSPost2010Prop46
 90
       50
102
RTVSPost2010PropOp46
 70
     1
102
RTVSPost2010Prop47
 90
       50
102
RTVSPost2010PropOp47
 70
     1
102
RTVSPost2010Prop48
 90
       50
102
RTVSPost2010PropOp48
 70
     1
102
RTVSPost2010Prop49
280
     0
102
RTVSPost2010PropOp49
 70
     1
102
RTVSPost2010Prop50
 90
       50
102
RTVSPost2010PropOp50
 70
     1
102
RTVSPost2010Prop51ColorIndex
 90
      256
102
RTVSPost2010Prop51ColorRGB
 90
-16777216
102
RTVSPost2010PropOp51
 70
     0
102
RTVSPost2010Prop52
140
1.0
102
RTVSPost2010PropOp52
 70
     0
102
RTVSPost2010Prop53
 90
        2
102
RTVSPost2010PropOp53
 70
     1
102
RTVSPost2010Prop54
  1
strokes_ogs.tif
102
RTVSPost2010PropOp54
 70
     1
102
RTVSPost2010Prop55
280
     0
102
RTVSPost2010PropOp55
 70
     1
102
RTVSPost2010Prop56
140
1.0
102
RTVSPost2010PropOp56
 70
     1
102
RTVSPost2010Prop57
140
1.0
102
RTVSPost2010PropOp57
 70
     1
102
RTVSPropertyOp0
 70
     1
102
RTVSPropertyOp1
 70
     1
102
RTVSPropertyOp2
 70
     1
102
RTVSPropertyOp3
 70
     1
102
RTVSPropertyOp4
 70
     1
102
RTVSPropertyOp5
 70
     1
102
RTVSPropertyOp6
 70
     1
102
RTVSPropertyOp7
 70
     1
102
RTVSPropertyOp8
 70
     1
102
RTVSPropertyOp9
 70
     1
102
RTVSPropertyOp10
 70
     1
102
RTVSPropertyOp11
 70
     1
102
RTVSPropertyOp12
 70
     1
102
RTVSPropertyOp13
 70
     1
102
RTVSPropertyOp14
 70
     1
102
RTVSPropertyOp15
 70
     1
102
RTVSPropertyOp16
 70
     1
102
RTVSPropertyOp17
 70
     1
102
RTVSPropertyOp18
 70
     1
102
RTVSPropertyOp19
 70
     1
102
RTVSPropertyOp20
 70
     1
102
RTVSPropertyOp21
 70
     1
102
RTVSPropertyOp22
 70
     1
102
RTVSPropertyOp23
 70
     1
102
RTVSPropertyOp24
 70
     1
102
RTVSPropertyOp25
 70
     1
102
RTVSPropertyOp26
 70
     1
102
RTVSPropertyOp27
 70
     1
102
RTVSPropertyOp28
 70
     1
102
RTVSPropertyOp29
 70
     1
102
RTVSPropertyOp30
 70
     1
102
RTVSPropertyOp31
 70
     1
102
RTVSPropertyOp32
 70
     1
102
RTVSPropertyOp33
 70
     1
102
RTVSPropertyOp34
 70
     1
102
RTVSPropertyOp35
 70
     1
102
RTVSPropertyOp36
 70
     1
102
RTVSPropertyOp37
 70
     1
102
RTVSPropertyOp38
 70
     1
102
RTVSPropertyOp39
 70
     1
102
RTVSPropertyOp40
 70
     1
102
RTVSPropertyOp41
 70
     1
102
RTVSPropertyOp42
 70
     1
102
RTVSPropertyOp43
 70
     1
102
RTVSPropertyOp44
 70
     1
102
RTVSPropertyOp45
 70
     1
102
RTVSPropertyOp46
 70
     1
102
RTVSPropertyOp47
 70
     1
102
RTVSPropertyOp48
 70
     1
102
RTVSPropertyOp49
 70
     1
102
RTVSPropertyOp50
 70
     1
102
RTVSPropertyOp51
 70
     0
102
RTVSPropertyOp52
 70
     0
102
RTVSPropertyOp53
 70
     1
102
RTVSPropertyOp54
 70
     1
102
RTVSPropertyOp55
 70
     1
102
RTVSPropertyOp56
 70
     1
102
RTVSPropertyOp57
 70
     1
102
RTVSPropertyOp58
 70
     1
102
RTVSPropertyOp59
 70
     1
102
RTVSPropertyOp60
 70
     1
102
RTVSPropertyOp61
 70
     1
102
RTVSPropertyOp62
 70
     1
  0
XRECORD
  5
17C5
102
{ACAD_REACTORS
330
17C4
102
}
330
17C4
100
AcDbXrecord
280
     1
102
RTVSPost2010Prop28
280
     0
102
RTVSPost2010PropOp28
 70
     1
102
RTVSPost2010Prop29
280
     1
102
RTVSPost2010PropOp29
 70
     1
102
RTVSPost2010Prop30
280
     1
102
RTVSPost2010PropOp30
 70
     1
102
RTVSPost2010Prop31
280
     0
102
RTVSPost2010PropOp31
 70
     1
102
RTVSPost2010Prop32
280
     0
102
RTVSPost2010PropOp32
 70
     1
102
RTVSPost2010Prop33
280
     0
102
RTVSPost2010PropOp33
 70
     1
102
RTVSPost2010Prop34
280
     0
102
RTVSPost2010PropOp34
 70
     1
102
RTVSPost2010Prop35
280
     0
102
RTVSPost2010PropOp35
 70
     1
102
RTVSPost2010Prop36
280
     0
102
RTVSPost2010PropOp36
 70
     1
102
RTVSPost2010Prop37
 90
       50
102
RTVSPost2010PropOp37
 70
     1
102
RTVSPost2010Prop38
140
0.0
102
RTVSPost2010PropOp38
 70
     1
102
RTVSPost2010Prop39
140
1.0
102
RTVSPost2010PropOp39
 70
     1
102
RTVSPost2010Prop40
 90
        0
102
RTVSPost2010PropOp40
 70
     1
102
RTVSPost2010Prop41ColorIndex
 90
       18
102
RTVSPost2010Prop41ColorRGB
 90
        0
102
RTVSPost2010PropOp41
 70
     1
102
RTVSPost2010Prop42
 90
       50
102
RTVSPost2010PropOp42
 70
     1
102
RTVSPost2010Prop43
 90
        3
102
RTVSPost2010PropOp43
 70
     1
102
RTVSPost2010Prop44ColorIndex
 90
        5
102
RTVSPost2010Prop44ColorRGB
 90
      255
102
RTVSPost2010PropOp44
 70
     1
102
RTVSPost2010Prop45
280
     0
102
RTVSPost2010PropOp45
 70
     1
102
RTVSPost2010Prop46
 90
       50
102
RTVSPost2010PropOp46
 70
     1
102
RTVSPost2010Prop47
 90
       50
102
RTVSPost2010PropOp47
 70
     1
102
RTVSPost2010Prop48
 90
       50
102
RTVSPost2010PropOp48
 70
     1
102
RTVSPost2010Prop49
280
     0
102
RTVSPost2010PropOp49
 70
     1
102
RTVSPost2010Prop50
 90
       50
102
RTVSPost2010PropOp50
 70
     1
102
RTVSPost2010Prop51ColorIndex
 90
      256
102
RTVSPost2010Prop51ColorRGB
 90
-16777216
102
RTVSPost2010PropOp51
 70
     0
102
RTVSPost2010Prop52
140
1.0
102
RTVSPost2010PropOp52
 70
     0
102
RTVSPost2010Prop53
 90
        2
102
RTVSPost2010PropOp53
 70
     1
102
RTVSPost2010Prop54
  1
strokes_ogs.tif
102
RTVSPost2010PropOp54
 70
     1
102
RTVSPost2010Prop55
280
     0
102
RTVSPost2010PropOp55
 70
     1
102
RTVSPost2010Prop56
140
1.0
102
RTVSPost2010PropOp56
 70
     1
102
RTVSPost2010Prop57
140
1.0
102
RTVSPost2010PropOp57
 70
     1
102
RTVSPropertyOp0
 70
     1
102
RTVSPropertyOp1
 70
     1
102
RTVSPropertyOp2
 70
     1
102
RTVSPropertyOp3
 70
     1
102
RTVSPropertyOp4
 70
     1
102
RTVSPropertyOp5
 70
     1
102
RTVSPropertyOp6
 70
     1
102
RTVSPropertyOp7
 70
     1
102
RTVSPropertyOp8
 70
     1
102
RTVSPropertyOp9
 70
     1
102
RTVSPropertyOp10
 70
     1
102
RTVSPropertyOp11
 70
     1
102
RTVSPropertyOp12
 70
     1
102
RTVSPropertyOp13
 70
     1
102
RTVSPropertyOp14
 70
     1
102
RTVSPropertyOp15
 70
     1
102
RTVSPropertyOp16
 70
     1
102
RTVSPropertyOp17
 70
     1
102
RTVSPropertyOp18
 70
     1
102
RTVSPropertyOp19
 70
     1
102
RTVSPropertyOp20
 70
     1
102
RTVSPropertyOp21
 70
     1
102
RTVSPropertyOp22
 70
     1
102
RTVSPropertyOp23
 70
     1
102
RTVSPropertyOp24
 70
     1
102
RTVSPropertyOp25
 70
     1
102
RTVSPropertyOp26
 70
     1
102
RTVSPropertyOp27
 70
     1
102
RTVSPropertyOp28
 70
     1
102
RTVSPropertyOp29
 70
     1
102
RTVSPropertyOp30
 70
     1
102
RTVSPropertyOp31
 70
     1
102
RTVSPropertyOp32
 70
     1
102
RTVSPropertyOp33
 70
     1
102
RTVSPropertyOp34
 70
     1
102
RTVSPropertyOp35
 70
     1
102
RTVSPropertyOp36
 70
     1
102
RTVSPropertyOp37
 70
     1
102
RTVSPropertyOp38
 70
     1
102
RTVSPropertyOp39
 70
     1
102
RTVSPropertyOp40
 70
     1
102
RTVSPropertyOp41
 70
     1
102
RTVSPropertyOp42
 70
     1
102
RTVSPropertyOp43
 70
     1
102
RTVSPropertyOp44
 70
     1
102
RTVSPropertyOp45
 70
     1
102
RTVSPropertyOp46
 70
     1
102
RTVSPropertyOp47
 70
     1
102
RTVSPropertyOp48
 70
     1
102
RTVSPropertyOp49
 70
     1
102
RTVSPropertyOp50
 70
     1
102
RTVSPropertyOp51
 70
     0
102
RTVSPropertyOp52
 70
     0
102
RTVSPropertyOp53
 70
     1
102
RTVSPropertyOp54
 70
     1
102
RTVSPropertyOp55
 70
     1
102
RTVSPropertyOp56
 70
     1
102
RTVSPropertyOp57
 70
     1
102
RTVSPropertyOp58
 70
     1
102
RTVSPropertyOp59
 70
     1
102
RTVSPropertyOp60
 70
     1
102
RTVSPropertyOp61
 70
     1
102
RTVSPropertyOp62
 70
     1
  0
ENDSEC
  0
EOF
