  0
SECTION
  2
HEADER
  9
$ACADVER
  1
AC1015
  9
$ACADMAINTVER
 70
    20
  9
$DWGCODEPAGE
  3
ANSI_932
  9
$INSBASE
 10
0.0
 20
0.0
 30
0.0
  9
$EXTMIN
 10
9.999999064246615
 20
9.999999806846743
 30
0.0
  9
$EXTMAX
 10
548.0387950177666
 20
387.6178317508506
 30
0.0
  9
$LIMMIN
 10
0.0000015376081137
 20
-0.0000001931532552
  9
$LIMMAX
 10
605.0000015376081
 20
417.0833331401799
  9
$ORTHOMODE
 70
     0
  9
$REGENMODE
 70
     1
  9
$FILLMODE
 70
     1
  9
$QTEXTMODE
 70
     0
  9
$MIRRTEXT
 70
     1
  9
$LTSCALE
 40
1.0
  9
$ATTMODE
 70
     1
  9
$TEXTSIZE
 40
2.5
  9
$TRACEWID
 40
1.0
  9
$TEXTSTYLE
  7
STANDARD
  9
$CLAYER
  8
0
  9
$CELTYPE
  6
BYLAYER
  9
$CECOLOR
 62
   256
  9
$CELTSCALE
 40
1.0
  9
$DISPSILH
 70
     0
  9
$DIMSCALE
 40
1.0
  9
$DIMASZ
 40
3.0
  9
$DIMEXO
 40
1.0
  9
$DIMDLI
 40
10.0
  9
$DIMRND
 40
0.0
  9
$DIMDLE
 40
0.0
  9
$DIMEXE
 40
1.0
  9
$DIMTP
 40
0.0
  9
$DIMTM
 40
0.0
  9
$DIMTXT
 40
3.2
  9
$DIMCEN
 40
0.0
  9
$DIMTSZ
 40
0.0
  9
$DIMTOL
 70
     0
  9
$DIMLIM
 70
     0
  9
$DIMTIH
 70
     0
  9
$DIMTOH
 70
     0
  9
$DIMSE1
 70
     0
  9
$DIMSE2
 70
     0
  9
$DIMTAD
 70
     3
  9
$DIMZIN
 70
     8
  9
$DIMBLK
  1

  9
$DIMASO
 70
     1
  9
$DIMSHO
 70
     1
  9
$DIMPOST
  1

  9
$DIMAPOST
  1

  9
$DIMALT
 70
     0
  9
$DIMALTD
 70
     2
  9
$DIMALTF
 40
25.4
  9
$DIMLFAC
 40
1.0
  9
$DIMTOFL
 70
     1
  9
$DIMTVP
 40
0.0
  9
$DIMTIX
 70
     0
  9
$DIMSOXD
 70
     0
  9
$DIMSAH
 70
     1
  9
$DIMBLK1
  1
OPEN
  9
$DIMBLK2
  1
OPEN
  9
$DIMSTYLE
  2
STANDARD
  9
$DIMCLRD
 70
     0
  9
$DIMCLRE
 70
     0
  9
$DIMCLRT
 70
     0
  9
$DIMTFAC
 40
1.0
  9
$DIMGAP
 40
1.0
  9
$DIMJUST
 70
     0
  9
$DIMSD1
 70
     0
  9
$DIMSD2
 70
     0
  9
$DIMTOLJ
 70
     1
  9
$DIMTZIN
 70
     0
  9
$DIMALTZ
 70
     0
  9
$DIMALTTZ
 70
     0
  9
$DIMUPT
 70
     0
  9
$DIMDEC
 70
     4
  9
$DIMTDEC
 70
     4
  9
$DIMALTU
 70
     2
  9
$DIMALTTD
 70
     2
  9
$DIMTXSTY
  7
STANDARD
  9
$DIMAUNIT
 70
     0
  9
$DIMADEC
 70
     0
  9
$DIMALTRND
 40
0.0
  9
$DIMAZIN
 70
     0
  9
$DIMDSEP
 70
    46
  9
$DIMATFIT
 70
     3
  9
$DIMFRAC
 70
     0
  9
$DIMLDRBLK
  1
OPEN
  9
$DIMLUNIT
 70
     2
  9
$DIMLWD
 70
    -2
  9
$DIMLWE
 70
    -2
  9
$DIMTMOVE
 70
     0
  9
$LUNITS
 70
     2
  9
$LUPREC
 70
     4
  9
$SKETCHINC
 40
1.0
  9
$FILLETRAD
 40
2.0
  9
$AUNITS
 70
     0
  9
$AUPREC
 70
     0
  9
$MENU
  1
.
  9
$ELEVATION
 40
0.0
  9
$PELEVATION
 40
0.0
  9
$THICKNESS
 40
0.0
  9
$LIMCHECK
 70
     0
  9
$CHAMFERA
 40
10.0
  9
$CHAMFERB
 40
10.0
  9
$CHAMFERC
 40
20.0
  9
$CHAMFERD
 40
0.0
  9
$SKPOLY
 70
     0
  9
$TDCREATE
 40
2453281.485634398
  9
$TDUCREATE
 40
2453281.110634398
  9
$TDUPDATE
 40
2457192.689051539
  9
$TDUUPDATE
 40
2457192.314051539
  9
$TDINDWG
 40
0.1315108681
  9
$TDUSRTIMER
 40
0.1315108449
  9
$USRTIMER
 70
     1
  9
$ANGBASE
 50
0.0
  9
$ANGDIR
 70
     0
  9
$PDMODE
 70
     0
  9
$PDSIZE
 40
0.0
  9
$PLINEWID
 40
0.0
  9
$SPLFRAME
 70
     0
  9
$SPLINETYPE
 70
     6
  9
$SPLINESEGS
 70
     8
  9
$HANDSEED
  5
1556
  9
$SURFTAB1
 70
     6
  9
$SURFTAB2
 70
     6
  9
$SURFTYPE
 70
     6
  9
$SURFU
 70
     6
  9
$SURFV
 70
     6
  9
$UCSBASE
  2

  9
$UCSNAME
  2

  9
$UCSORG
 10
0.0
 20
0.0
 30
0.0
  9
$UCSXDIR
 10
1.0
 20
0.0
 30
0.0
  9
$UCSYDIR
 10
0.0
 20
1.0
 30
0.0
  9
$UCSORTHOREF
  2

  9
$UCSORTHOVIEW
 70
     0
  9
$UCSORGTOP
 10
0.0
 20
0.0
 30
0.0
  9
$UCSORGBOTTOM
 10
0.0
 20
0.0
 30
0.0
  9
$UCSORGLEFT
 10
0.0
 20
0.0
 30
0.0
  9
$UCSORGRIGHT
 10
0.0
 20
0.0
 30
0.0
  9
$UCSORGFRONT
 10
0.0
 20
0.0
 30
0.0
  9
$UCSORGBACK
 10
0.0
 20
0.0
 30
0.0
  9
$PUCSBASE
  2

  9
$PUCSNAME
  2

  9
$PUCSORG
 10
0.0
 20
0.0
 30
0.0
  9
$PUCSXDIR
 10
1.0
 20
0.0
 30
0.0
  9
$PUCSYDIR
 10
0.0
 20
1.0
 30
0.0
  9
$PUCSORTHOREF
  2

  9
$PUCSORTHOVIEW
 70
     0
  9
$PUCSORGTOP
 10
0.0
 20
0.0
 30
0.0
  9
$PUCSORGBOTTOM
 10
0.0
 20
0.0
 30
0.0
  9
$PUCSORGLEFT
 10
0.0
 20
0.0
 30
0.0
  9
$PUCSORGRIGHT
 10
0.0
 20
0.0
 30
0.0
  9
$PUCSORGFRONT
 10
0.0
 20
0.0
 30
0.0
  9
$PUCSORGBACK
 10
0.0
 20
0.0
 30
0.0
  9
$USERI1
 70
     0
  9
$USERI2
 70
     0
  9
$USERI3
 70
     0
  9
$USERI4
 70
     0
  9
$USERI5
 70
     0
  9
$USERR1
 40
0.0
  9
$USERR2
 40
0.0
  9
$USERR3
 40
0.0
  9
$USERR4
 40
0.0
  9
$USERR5
 40
0.0
  9
$WORLDVIEW
 70
     1
  9
$SHADEDGE
 70
     3
  9
$SHADEDIF
 70
    70
  9
$TILEMODE
 70
     1
  9
$MAXACTVP
 70
    48
  9
$PINSBASE
 10
0.0
 20
0.0
 30
0.0
  9
$PLIMCHECK
 70
     0
  9
$PEXTMIN
 10
1.000000000000000E+20
 20
1.000000000000000E+20
 30
1.000000000000000E+20
  9
$PEXTMAX
 10
-1.000000000000000E+20
 20
-1.000000000000000E+20
 30
-1.000000000000000E+20
  9
$PLIMMIN
 10
0.0
 20
0.0
  9
$PLIMMAX
 10
420.0
 20
297.0
  9
$UNITMODE
 70
     0
  9
$VISRETAIN
 70
     1
  9
$PLINEGEN
 70
     0
  9
$PSLTSCALE
 70
     1
  9
$TREEDEPTH
 70
  3020
  9
$CMLSTYLE
  2
STANDARD
  9
$CMLJUST
 70
     0
  9
$CMLSCALE
 40
20.0
  9
$PROXYGRAPHICS
 70
     1
  9
$MEASUREMENT
 70
     0
  9
$CELWEIGHT
370
    -1
  9
$ENDCAPS
280
     0
  9
$JOINSTYLE
280
     0
  9
$LWDISPLAY
290
     0
  9
$INSUNITS
 70
     0
  9
$HYPERLINKBASE
  1

  9
$STYLESHEET
  1

  9
$XEDIT
290
     1
  9
$CEPSNTYPE
380
     0
  9
$PSTYLEMODE
290
     1
  9
$FINGERPRINTGUID
  2
{1389354F-EEBE-42F6-BCC6-1F86E6D9D529}
  9
$VERSIONGUID
  2
{D1ED5E71-0AB5-4205-868C-6218BFC357B9}
  9
$EXTNAMES
290
     1
  9
$PSVPSCALE
 40
0.0
  9
$OLESTARTUP
290
     0
  0
ENDSEC
  0
SECTION
  2
CLASSES
  0
CLASS
  1
ACDBDICTIONARYWDFLT
  2
AcDbDictionaryWithDefault
  3
ObjectDBX Classes
 90
        0
280
     0
281
     0
  0
CLASS
  1
ACDBPLACEHOLDER
  2
AcDbPlaceHolder
  3
ObjectDBX Classes
 90
        0
280
     0
281
     0
  0
CLASS
  1
LAYOUT
  2
AcDbLayout
  3
ObjectDBX Classes
 90
        0
280
     0
281
     0
  0
CLASS
  1
DICTIONARYVAR
  2
AcDbDictionaryVar
  3
ObjectDBX Classes
 90
        0
280
     0
281
     0
  0
CLASS
  1
MATERIAL
  2
AcDbMaterial
  3
ObjectDBX Classes
 90
     1153
280
     0
281
     0
  0
CLASS
  1
VISUALSTYLE
  2
AcDbVisualStyle
  3
ObjectDBX Classes
 90
     4095
280
     0
281
     0
  0
CLASS
  1
TABLESTYLE
  2
AcDbTableStyle
  3
ObjectDBX Classes
 90
     4095
280
     0
281
     0
  0
CLASS
  1
SCALE
  2
AcDbScale
  3
ObjectDBX Classes
 90
     1153
280
     0
281
     0
  0
CLASS
  1
MLEADERSTYLE
  2
AcDbMLeaderStyle
  3
ACDB_MLEADERSTYLE_CLASS
 90
     4095
280
     0
281
     0
  0
CLASS
  1
ACDBSECTIONVIEWSTYLE
  2
AcDbSectionViewStyle
  3
ObjectDBX Classes
 90
     1025
280
     0
281
     0
  0
CLASS
  1
ACDBDETAILVIEWSTYLE
  2
AcDbDetailViewStyle
  3
ObjectDBX Classes
 90
     1025
280
     0
281
     0
  0
CLASS
  1
CELLSTYLEMAP
  2
AcDbCellStyleMap
  3
ObjectDBX Classes
 90
     1152
280
     0
281
     0
  0
ENDSEC
  0
SECTION
  2
TABLES
  0
TABLE
  2
VPORT
  5
8
330
0
100
AcDbSymbolTable
 70
     1
  0
VPORT
  5
14A2
330
8
100
AcDbSymbolTableRecord
100
AcDbViewportTableRecord
  2
*ACTIVE
 70
     0
 10
0.0
 20
0.0
 11
1.0
 21
1.0
 12
424.3861783373088
 22
198.8044619279043
 13
0.0
 23
0.0
 14
10.0
 24
10.0
 15
10.0
 25
10.0
 16
0.0
 26
0.0
 36
1.0
 17
0.0
 27
0.0
 37
0.0
 40
380.6322870293769
 41
2.35006605019815
 42
50.0
 43
0.0
 44
0.0
 50
0.0
 51
0.0
 71
     0
 72
   100
 73
     1
 74
     0
 75
     0
 76
     0
 77
     0
 78
     0
281
     0
 65
     1
110
0.0
120
0.0
130
0.0
111
1.0
121
0.0
131
0.0
112
0.0
122
1.0
132
0.0
 79
     0
146
0.0
1001
ACAD_NAV_VCDISPLAY
1070
     3
  0
ENDTAB
  0
TABLE
  2
LTYPE
  5
5
330
0
100
AcDbSymbolTable
 70
     4
  0
LTYPE
  5
12
330
5
100
AcDbSymbolTableRecord
100
AcDbLinetypeTableRecord
  2
BYBLOCK
 70
     0
  3

 72
    65
 73
     0
 40
0.0
  0
LTYPE
  5
13
330
5
100
AcDbSymbolTableRecord
100
AcDbLinetypeTableRecord
  2
BYLAYER
 70
     0
  3

 72
    65
 73
     0
 40
0.0
  0
LTYPE
  5
14
330
5
100
AcDbSymbolTableRecord
100
AcDbLinetypeTableRecord
  2
CONTINUOUS
 70
     0
  3
Solid line
 72
    65
 73
     0
 40
0.0
  0
LTYPE
  5
62
330
5
100
AcDbSymbolTableRecord
100
AcDbLinetypeTableRecord
  2
DASHED
 70
     0
  3
Dashed __ __ __ __ __ __ __ __ __ __ __ __ __ _
 72
    65
 73
     2
 40
19.04999999999998
 49
12.7
 74
     0
 49
-6.349999999999997
 74
     0
  0
LTYPE
  5
63
330
5
100
AcDbSymbolTableRecord
100
AcDbLinetypeTableRecord
  2
CENTER
 70
     0
  3
Center ____ _ ____ _ ____ _ ____ _ ____ _ ____
 72
    65
 73
     4
 40
50.8
 49
31.75
 74
     0
 49
-6.349999999999997
 74
     0
 49
6.349999999999997
 74
     0
 49
-6.349999999999997
 74
     0
  0
LTYPE
  5
64
330
5
100
AcDbSymbolTableRecord
100
AcDbLinetypeTableRecord
  2
PHANTOM
 70
     0
  3
Phantom ______  __  __  ______  __  __  ______
 72
    65
 73
     6
 40
63.5
 49
31.75
 74
     0
 49
-6.349999999999997
 74
     0
 49
6.349999999999997
 74
     0
 49
-6.349999999999997
 74
     0
 49
6.349999999999997
 74
     0
 49
-6.349999999999997
 74
     0
  0
ENDTAB
  0
TABLE
  2
LAYER
  5
2
330
0
100
AcDbSymbolTable
 70
     8
  0
LAYER
  5
E
102
{ACAD_XDICTIONARY
360
14FA
102
}
330
2
100
AcDbSymbolTableRecord
100
AcDbLayerTableRecord
  2
0
 70
     0
 62
     7
  6
CONTINUOUS
370
    -3
390
14A9
  0
LAYER
  5
65
102
{ACAD_XDICTIONARY
360
14FC
102
}
330
2
100
AcDbSymbolTableRecord
100
AcDbLayerTableRecord
  2
4
 70
     0
 62
     1
  6
CENTER
370
    -3
390
14A9
  0
LAYER
  5
66
102
{ACAD_XDICTIONARY
360
14FE
102
}
330
2
100
AcDbSymbolTableRecord
100
AcDbLayerTableRecord
  2
5
 70
     0
 62
     6
  6
PHANTOM
370
    -3
390
14A9
  0
LAYER
  5
67
102
{ACAD_XDICTIONARY
360
1500
102
}
330
2
100
AcDbSymbolTableRecord
100
AcDbLayerTableRecord
  2
1
 70
     0
 62
     7
  6
CONTINUOUS
370
    -3
390
14A9
  0
LAYER
  5
68
102
{ACAD_XDICTIONARY
360
1502
102
}
330
2
100
AcDbSymbolTableRecord
100
AcDbLayerTableRecord
  2
2
 70
     0
 62
     4
  6
CONTINUOUS
370
    -3
390
14A9
  0
LAYER
  5
69
102
{ACAD_XDICTIONARY
360
1504
102
}
330
2
100
AcDbSymbolTableRecord
100
AcDbLayerTableRecord
  2
3
 70
     0
 62
     2
  6
DASHED
370
    -3
390
14A9
  0
LAYER
  5
6A
102
{ACAD_XDICTIONARY
360
1506
102
}
330
2
100
AcDbSymbolTableRecord
100
AcDbLayerTableRecord
  2
6
 70
     0
 62
     5
  6
CONTINUOUS
370
    -3
390
14A9
  0
LAYER
  5
6B
102
{ACAD_XDICTIONARY
360
1508
102
}
330
2
100
AcDbSymbolTableRecord
100
AcDbLayerTableRecord
  2
7
 70
     0
 62
     3
  6
CONTINUOUS
370
    -3
390
14A9
  0
ENDTAB
  0
TABLE
  2
STYLE
  5
3
330
0
100
AcDbSymbolTable
 70
     1
  0
STYLE
  5
F
330
3
100
AcDbSymbolTableRecord
100
AcDbTextStyleTableRecord
  2
STANDARD
 70
     0
 40
0.0
 41
1.0
 50
0.0
 71
     0
 42
2.5
  3
simplex.shx
  4

  0
ENDTAB
  0
TABLE
  2
VIEW
  5
6
330
0
100
AcDbSymbolTable
 70
     0
  0
ENDTAB
  0
TABLE
  2
UCS
  5
7
330
0
100
AcDbSymbolTable
 70
     0
  0
ENDTAB
  0
TABLE
  2
APPID
  5
9
330
0
100
AcDbSymbolTable
 70
     5
  0
APPID
  5
10
330
9
100
AcDbSymbolTableRecord
100
AcDbRegAppTableRecord
  2
ACAD
 70
     0
  0
APPID
  5
3E
330
9
100
AcDbSymbolTableRecord
100
AcDbRegAppTableRecord
  2
CONTENTTABDATA
 70
     0
  0
APPID
  5
3F
330
9
100
AcDbSymbolTableRecord
100
AcDbRegAppTableRecord
  2
CONTENTCURRENTTAB
 70
     0
  0
APPID
  5
1514
330
9
100
AcDbSymbolTableRecord
100
AcDbRegAppTableRecord
  2
ACAD_NAV_VCDISPLAY
 70
     0
  0
APPID
  5
154D
330
9
100
AcDbSymbolTableRecord
100
AcDbRegAppTableRecord
  2
ACAD_MLEADERVER
 70
     0
  0
ENDTAB
  0
TABLE
  2
DIMSTYLE
  5
A
330
0
100
AcDbSymbolTable
 70
     1
100
AcDbDimStyleTable
 71
     0
  0
DIMSTYLE
105
1D
330
A
100
AcDbSymbolTableRecord
100
AcDbDimStyleTableRecord
  2
STANDARD
 70
     0
 41
3.0
 42
1.0
 43
10.0
 44
1.0
 73
     0
 74
     0
 77
     3
 78
     8
140
3.2
141
0.0
147
1.0
172
     1
173
     1
340
F
341
2E
343
2E
344
2E
  0
ENDTAB
  0
TABLE
  2
BLOCK_RECORD
  5
1
330
0
100
AcDbSymbolTable
 70
     1
  0
BLOCK_RECORD
  5
18
102
{ACAD_XDICTIONARY
360
1487
102
}
330
1
100
AcDbSymbolTableRecord
100
AcDbBlockTableRecord
  2
*MODEL_SPACE
340
14F7
  0
BLOCK_RECORD
  5
15
102
{ACAD_XDICTIONARY
360
1485
102
}
330
1
100
AcDbSymbolTableRecord
100
AcDbBlockTableRecord
  2
*PAPER_SPACE
340
14F8
  0
BLOCK_RECORD
  5
2E
330
1
100
AcDbSymbolTableRecord
100
AcDbBlockTableRecord
  2
_OPEN
340
0
  0
ENDTAB
  0
ENDSEC
  0
SECTION
  2
BLOCKS
  0
BLOCK
  5
19
330
18
100
AcDbEntity
  8
0
100
AcDbBlockBegin
  2
*MODEL_SPACE
 70
     0
 10
0.0
 20
0.0
 30
0.0
  3
*MODEL_SPACE
  1

  0
ENDBLK
  5
1A
330
18
100
AcDbEntity
  8
0
100
AcDbBlockEnd
  0
BLOCK
  5
16
330
15
100
AcDbEntity
 67
     1
  8
0
100
AcDbBlockBegin
  2
*PAPER_SPACE
 70
     0
 10
0.0
 20
0.0
 30
0.0
  3
*PAPER_SPACE
  1

  0
ENDBLK
  5
17
330
15
100
AcDbEntity
 67
     1
  8
0
100
AcDbBlockEnd
  0
BLOCK
  5
2F
330
2E
100
AcDbEntity
  8
0
100
AcDbBlockBegin
  2
_OPEN
 70
     0
 10
0.0
 20
0.0
 30
0.0
  3
_OPEN
  1

  0
LINE
  5
30
330
2E
100
AcDbEntity
  8
0
  6
ByBlock
 62
     0
100
AcDbLine
 10
-1.0
 20
0.1666666666666666
 30
0.0
 11
0.0
 21
0.0
 31
0.0
  0
LINE
  5
31
330
2E
100
AcDbEntity
  8
0
  6
ByBlock
 62
     0
100
AcDbLine
 10
0.0
 20
0.0
 30
0.0
 11
-1.0
 21
-0.1666666666666666
 31
0.0
  0
LINE
  5
32
330
2E
100
AcDbEntity
  8
0
  6
ByBlock
 62
     0
100
AcDbLine
 10
0.0
 20
0.0
 30
0.0
 11
-1.0
 21
0.0
 31
0.0
  0
ENDBLK
  5
33
330
2E
100
AcDbEntity
  8
0
100
AcDbBlockEnd
  0
ENDSEC
  0
SECTION
  2
ENTITIES
  0
ARC
  5
224
330
18
100
AcDbEntity
  8
1
  6
Continuous
100
AcDbCircle
 10
175.0458430808853
 20
375.3178317508507
 30
0.0
 40
0.30000001
100
AcDbArc
 50
104.9247210836064
 51
180.0000100000002
  0
ARC
  5
225
330
18
100
AcDbEntity
  8
1
  6
Continuous
100
AcDbCircle
 10
175.0458430808853
 20
371.9178317508506
 30
0.0
 40
0.30000001
100
AcDbArc
 50
179.9999899999995
 51
270.0
  0
LINE
  5
226
330
18
100
AcDbEntity
  8
1
  6
Continuous
100
AcDbLine
 10
175.5044910808853
 20
369.6178317508506
 30
0.0
 11
166.7518400808854
 21
369.6178317508506
 31
0.0
  0
LINE
  5
227
330
18
100
AcDbEntity
  8
1
  6
Continuous
100
AcDbLine
 10
175.1713190808853
 20
371.6178317508506
 30
0.0
 11
170.7458430808854
 21
371.6178317508506
 31
0.0
  0
LINE
  5
228
330
18
100
AcDbEntity
  8
1
  6
Continuous
100
AcDbLine
 10
147.5232575359908
 20
366.6178317508506
 30
0.0
 11
175.9291740808853
 21
366.6178317508506
 31
0.0
  0
ARC
  5
229
330
18
100
AcDbEntity
  8
1
  6
Continuous
100
AcDbCircle
 10
183.7458430808853
 20
373.6178317508506
 30
0.0
 40
9.0
100
AcDbArc
 50
89.99998199999998
 51
178.4427853385319
  0
LINE
  5
22A
330
18
100
AcDbEntity
  8
4
  6
CENTER
 48
0.5
100
AcDbLine
 10
191.6458431808853
 20
374.6178317508506
 30
0.0
 11
172.8458429808853
 21
374.6178317508506
 31
0.0
  0
LINE
  5
22B
330
18
100
AcDbEntity
  8
1
  6
Continuous
100
AcDbLine
 10
175.5044910808853
 20
337.6178317508506
 30
0.0
 11
171.0202878729156
 21
337.6178317508506
 31
0.0
  0
LINE
  5
22C
330
18
100
AcDbEntity
  8
1
  6
Continuous
100
AcDbLine
 10
170.7845675357342
 20
338.6178317508507
 30
0.0
 11
175.6560150808853
 21
338.6178317508507
 31
0.0
  0
LINE
  5
22D
330
18
100
AcDbEntity
  8
1
  6
Continuous
100
AcDbLine
 10
175.1713190808853
 20
335.6178317508506
 30
0.0
 11
171.041369253102
 21
335.6178317508506
 31
0.0
  0
LINE
  5
22E
330
18
100
AcDbEntity
  8
1
  6
Continuous
100
AcDbLine
 10
147.5232610808854
 20
340.6178317508507
 30
0.0
 11
175.9291740808853
 21
340.6178317508507
 31
0.0
  0
ARC
  5
22F
330
18
100
AcDbEntity
  8
1
  6
Continuous
100
AcDbCircle
 10
183.7458430808853
 20
333.6178317508506
 30
0.0
 40
9.0
100
AcDbArc
 50
181.5575799999999
 51
270.0000200000004
  0
ARC
  5
230
330
18
100
AcDbEntity
  8
1
  6
Continuous
100
AcDbCircle
 10
234.3076921720447
 20
205.1771384823727
 30
0.0
 40
130.886652760822
100
AcDbArc
 50
115.1887818877084
 51
121.1716840476925
  0
LINE
  5
231
330
18
100
AcDbEntity
  8
4
  6
CENTER
 48
0.5
100
AcDbLine
 10
191.6458431808853
 20
332.6178317508507
 30
0.0
 11
172.8458429808853
 21
332.6178317508507
 31
0.0
  0
ARC
  5
232
330
18
100
AcDbEntity
  8
1
  6
Continuous
100
AcDbCircle
 10
73.28783508088545
 20
353.6178317508506
 30
0.0
 40
103.46132
100
AcDbArc
 50
348.7159299999998
 51
11.2840680000001
  0
ARC
  5
233
330
18
100
AcDbEntity
  8
1
  6
Continuous
100
AcDbCircle
 10
181.7458430808853
 20
200.1367718955894
 30
0.0
 40
27.5
100
AcDbArc
 50
102.2408399999993
 51
121.3457800000002
  0
LINE
  5
234
330
18
100
AcDbEntity
  8
1
  6
Continuous
100
AcDbLine
 10
152.2572740808854
 20
235.4852418955895
 30
0.0
 11
176.1632510808853
 21
216.8078448955895
 31
0.0
  0
ARC
  5
235
330
18
100
AcDbEntity
  8
1
  6
Continuous
100
AcDbCircle
 10
181.7458430808853
 20
200.1367718955894
 30
0.0
 40
37.5
100
AcDbArc
 50
95.72027899999985
 51
127.00903
  0
LINE
  5
236
330
18
100
AcDbEntity
  8
1
  6
Continuous
100
AcDbLine
 10
174.1800890808853
 20
218.3572618955896
 30
0.0
 11
178.4002050808854
 21
239.4054765955896
 31
0.0
  0
ARC
  5
239
330
18
100
AcDbEntity
  8
5
  6
PHANTOM
 48
0.3
100
AcDbCircle
 10
175.2217650808853
 20
197.8903488955896
 30
0.0
 40
3.099999899999998
100
AcDbArc
 50
129.5688390924156
 51
268.4312047705505
  0
ARC
  5
23A
330
18
100
AcDbEntity
  8
1
  6
Continuous
100
AcDbCircle
 10
175.7702650808853
 20
203.5867728955896
 30
0.0
 40
3.099999899999998
100
AcDbArc
 50
80.56877272580813
 51
219.4312354270969
  0
ARC
  5
23B
330
18
100
AcDbEntity
  8
1
  6
Continuous
100
AcDbCircle
 10
181.7458430808853
 20
200.1367718955894
 30
0.0
 40
15.84999999999999
100
AcDbArc
 50
181.41405
 51
282.5859500000003
  0
ARC
  5
23D
330
18
100
AcDbEntity
  8
5
  6
PHANTOM
 48
0.3
100
AcDbCircle
 10
179.0745170808853
 20
213.8795508955893
 30
0.0
 40
27.0
100
AcDbArc
 50
245.5690499999998
 51
309.6245500000001
  0
ARC
  5
23E
330
18
100
AcDbEntity
  8
1
  6
Continuous
100
AcDbCircle
 10
190.3651060808853
 20
211.1689228955895
 30
0.0
 40
27.0
100
AcDbArc
 50
196.56905
 51
260.6245499999999
  0
ARC
  5
241
330
18
100
AcDbEntity
  8
5
  6
PHANTOM
 48
0.3
100
AcDbCircle
 10
182.7571350808853
 20
194.9341488955894
 30
0.0
 40
18.0
100
AcDbArc
 50
63.34154200000019
 51
138.6584699999995
  0
ARC
  5
242
330
18
100
AcDbEntity
  8
5
  6
PHANTOM
 48
0.3
100
AcDbCircle
 10
182.7571350808853
 20
194.9341488955894
 30
0.0
 40
20.0
100
AcDbArc
 50
63.34154200000019
 51
138.6584699999995
  0
ARC
  5
243
330
18
100
AcDbEntity
  8
1
  6
Continuous
100
AcDbCircle
 10
178.6259010808853
 20
219.9598888955894
 30
0.0
 40
6.0
100
AcDbArc
 50
232.0000000000004
 51
269.6584599999997
  0
ARC
  5
244
330
18
100
AcDbEntity
  8
1
  6
Continuous
100
AcDbCircle
 10
181.7458430808853
 20
200.1367718955894
 30
0.0
 40
37.5
100
AcDbArc
 50
134.7636500000001
 51
329.4122400000001
  0
ARC
  5
245
330
18
100
AcDbEntity
  8
1
  6
Continuous
100
AcDbCircle
 10
181.7458430808853
 20
200.1367718955894
 30
0.0
 40
27.5
100
AcDbArc
 50
148.9137099999998
 51
312.59934
  0
LINE
  5
246
330
18
100
AcDbEntity
  8
4
  6
CENTER
 48
0.5
100
AcDbLine
 10
139.2458430808854
 20
200.1367718955894
 30
0.0
 11
224.2458430808853
 21
200.1367718955894
 31
0.0
  0
LINE
  5
247
330
18
100
AcDbEntity
  8
4
  6
CENTER
 48
0.5
100
AcDbLine
 10
138.0047250808854
 20
353.6178317508506
 30
0.0
 11
246.3433130808855
 21
353.6178317508506
 31
0.0
  0
LINE
  5
248
330
18
100
AcDbEntity
  8
1
  6
Continuous
100
AcDbLine
 10
174.7458430808853
 20
253.6367778955895
 30
0.0
 11
174.7458430808853
 21
255.6367778955894
 31
0.0
  0
LINE
  5
249
330
18
100
AcDbEntity
  8
1
  6
Continuous
100
AcDbLine
 10
69.70571911244485
 20
255.6367778955894
 30
0.0
 11
69.70571911244485
 21
253.6367778955895
 31
0.0
  0
LINE
  5
24A
330
18
100
AcDbEntity
  8
1
  6
Continuous
100
AcDbLine
 10
11.70571911244484
 20
255.6367778955894
 30
0.0
 11
11.70571911244484
 21
253.6367778955895
 31
0.0
  0
LINE
  5
24B
330
18
100
AcDbEntity
  8
4
  6
CENTER
 48
0.5
100
AcDbLine
 10
40.70571911244485
 20
260.6367778955894
 30
0.0
 11
40.70571911244485
 21
157.6367718955896
 31
0.0
  0
LINE
  5
24C
330
18
100
AcDbEntity
  8
4
  6
CENTER
 48
0.5
100
AcDbLine
 10
19.70571911244485
 20
260.6367778955894
 30
0.0
 11
19.70571911244485
 21
248.6367778955896
 31
0.0
  0
LINE
  5
24D
330
18
100
AcDbEntity
  8
4
  6
CENTER
 48
0.5
100
AcDbLine
 10
61.70571911244485
 20
260.6367778955894
 30
0.0
 11
61.70571911244485
 21
248.6367778955896
 31
0.0
  0
LINE
  5
24E
330
18
100
AcDbEntity
  8
1
  6
Continuous
100
AcDbLine
 10
62.20571911244483
 20
247.5307768955896
 30
0.0
 11
19.20571911244485
 21
247.5307768955896
 31
0.0
  0
LINE
  5
24F
330
18
100
AcDbEntity
  8
1
  6
Continuous
100
AcDbLine
 10
63.20571911244485
 20
248.9367768955894
 30
0.0
 11
18.20571911244485
 21
248.9367768955894
 31
0.0
  0
ARC
  5
250
330
18
100
AcDbEntity
  8
1
  6
Continuous
100
AcDbCircle
 10
40.70571911244485
 20
187.6367738955896
 30
0.0
 40
50.0
100
AcDbArc
 50
76.7519829999998
 51
103.2480149056768
  0
ARC
  5
251
330
18
100
AcDbEntity
  8
1
  6
Continuous
100
AcDbCircle
 10
40.70571911244485
 20
471.3628778955892
 30
0.0
 40
228.99847
100
AcDbArc
 50
266.4216674036556
 51
273.5760000000002
  0
ARC
  5
252
330
18
100
AcDbEntity
  8
1
  6
Continuous
100
AcDbCircle
 10
40.70571911244485
 20
434.0807778955896
 30
0.0
 40
190.0
100
AcDbArc
 50
264.86565
 51
275.1343499999998
  0
ARC
  5
253
330
18
100
AcDbEntity
  8
1
  6
Continuous
100
AcDbCircle
 10
40.70571911244485
 20
469.3932778955892
 30
0.0
 40
228.99847
100
AcDbArc
 50
266.3933047843694
 51
273.6066899999999
  0
ARC
  5
254
330
18
100
AcDbEntity
  8
1
  6
Continuous
100
AcDbCircle
 10
40.70571911244485
 20
-133.8005721044102
 30
0.0
 40
371.0813299999998
100
AcDbArc
 50
87.52879900000037
 51
89.01189299999961
  0
LINE
  5
255
330
18
100
AcDbEntity
  8
1
  6
Continuous
100
AcDbLine
 10
69.70571911244485
 20
253.6367778955895
 30
0.0
 11
11.70571911244484
 21
253.6367778955895
 31
0.0
  0
LINE
  5
257
330
18
100
AcDbEntity
  8
4
  6
CENTER
 48
0.5
100
AcDbLine
 10
13.70576911244484
 20
200.1367718955894
 30
0.0
 11
79.70573411244481
 21
200.1367718955894
 31
0.0
  0
TEXT
  5
259
330
18
100
AcDbEntity
  8
1
  6
Continuous
 48
0.25
100
AcDbText
 10
9.999999064246617
 20
10.00000056761564
 30
0.0
 40
1.399999999999999
  1
LAYER
100
AcDbText
  0
TEXT
  5
25A
330
18
100
AcDbEntity
  8
7
  6
Continuous
 48
0.25
100
AcDbText
 10
9.999999064246617
 20
18.00000056761564
 30
0.0
 40
3.0
  1
TYPE No.TCA-315S-R75
100
AcDbText
  0
TEXT
  5
25B
330
18
100
AcDbEntity
  8
7
  6
Continuous
 48
0.25
100
AcDbText
 10
9.999999064246617
 20
26.00000056761564
 30
0.0
 40
3.0
  1
CODE No.19157
100
AcDbText
  0
TEXT
  5
25C
330
18
100
AcDbEntity
  8
2
  6
Continuous
 48
0.25
100
AcDbText
 10
19.9795100642466
 20
9.999999806846743
 30
0.0
 40
1.399999999999999
  1
2
100
AcDbText
  0
TEXT
  5
25D
330
18
100
AcDbEntity
  8
1
  6
Continuous
 48
0.25
100
AcDbText
 10
17.9795100642466
 20
9.999999806846743
 30
0.0
 40
1.399999999999999
  1
1
100
AcDbText
  0
TEXT
  5
25E
330
18
100
AcDbEntity
  8
3
  6
DASHED
 48
0.25
100
AcDbText
 10
21.97951006424661
 20
9.999999806846743
 30
0.0
 40
1.399999999999999
  1
3
100
AcDbText
  0
TEXT
  5
25F
330
18
100
AcDbEntity
  8
5
  6
PHANTOM
 48
0.3
100
AcDbText
 10
25.97951006424661
 20
9.999999806846743
 30
0.0
 40
1.399999999999999
  1
5
100
AcDbText
  0
TEXT
  5
260
330
18
100
AcDbEntity
  8
4
  6
CENTER
 48
0.5
100
AcDbText
 10
23.97951006424661
 20
9.999999806846743
 30
0.0
 40
1.399999999999999
  1
4
100
AcDbText
  0
TEXT
  5
261
330
18
100
AcDbEntity
  8
7
  6
Continuous
 48
0.25
100
AcDbText
 10
29.97951006424661
 20
9.999999806846743
 30
0.0
 40
1.399999999999999
  1
7
100
AcDbText
  0
TEXT
  5
262
330
18
100
AcDbEntity
  8
6
  6
Continuous
 48
0.25
100
AcDbText
 10
27.97951006424661
 20
9.999999806846743
 30
0.0
 40
1.399999999999999
  1
6
100
AcDbText
  0
ARC
  5
263
330
18
100
AcDbEntity
  8
1
  6
Continuous
100
AcDbCircle
 10
40.70571911244485
 20
212.6367718955894
 30
0.0
 40
50.0
100
AcDbArc
 50
256.75191
 51
283.2480149056769
  0
ARC
  5
264
330
18
100
AcDbEntity
  8
1
  6
Continuous
100
AcDbCircle
 10
29.70571911244486
 20
165.9141898955896
 30
0.0
 40
2.0
100
AcDbArc
 50
179.9999799999999
 51
256.7518400000003
  0
LINE
  5
265
330
18
100
AcDbEntity
  8
1
  6
Continuous
100
AcDbLine
 10
27.70571911244485
 20
234.3593594404842
 30
0.0
 11
27.70571911244485
 21
165.9141898955896
 31
0.0
  0
LINE
  5
266
330
18
100
AcDbEntity
  8
1
  6
Continuous
100
AcDbLine
 10
24.70571911244486
 20
239.3513367797551
 30
0.0
 11
24.70571911244486
 21
185.1367698955894
 31
0.0
  0
LINE
  5
267
330
18
100
AcDbEntity
  8
1
  6
Continuous
100
AcDbLine
 10
22.70571911244485
 20
239.4204482955895
 30
0.0
 11
22.70571911244485
 21
189.1367738955896
 31
0.0
  0
ARC
  5
268
330
18
100
AcDbEntity
  8
1
  6
Continuous
100
AcDbCircle
 10
51.66682411244483
 20
217.9784238955896
 30
0.0
 40
36.0
100
AcDbArc
 50
178.5639899999998
 51
203.71106
  0
LINE
  5
269
330
18
100
AcDbEntity
  8
1
  6
Continuous
100
AcDbLine
 10
20.20576911244484
 20
203.6367718955895
 30
0.0
 11
21.20576911244484
 21
203.6367718955895
 31
0.0
  0
LINE
  5
26A
330
18
100
AcDbEntity
  8
1
  6
Continuous
100
AcDbLine
 10
20.20576911244484
 20
203.1367718955896
 30
0.0
 11
21.20576911244484
 21
203.1367718955896
 31
0.0
  0
LINE
  5
26B
330
18
100
AcDbEntity
  8
1
  6
Continuous
100
AcDbLine
 10
20.20576911244484
 20
207.6367718955896
 30
0.0
 11
21.20576911244484
 21
207.6367718955896
 31
0.0
  0
LINE
  5
26C
330
18
100
AcDbEntity
  8
1
  6
Continuous
100
AcDbLine
 10
20.20576911244484
 20
196.6367698955894
 30
0.0
 11
21.20576911244484
 21
196.6367698955894
 31
0.0
  0
LINE
  5
26D
330
18
100
AcDbEntity
  8
1
  6
Continuous
100
AcDbLine
 10
20.20576911244484
 20
197.1367698955894
 30
0.0
 11
21.20576911244484
 21
197.1367698955894
 31
0.0
  0
LINE
  5
26E
330
18
100
AcDbEntity
  8
1
  6
Continuous
100
AcDbLine
 10
20.20576911244484
 20
192.6367698955894
 30
0.0
 11
21.20576911244484
 21
192.6367698955894
 31
0.0
  0
LINE
  5
26F
330
18
100
AcDbEntity
  8
1
  6
Continuous
100
AcDbLine
 10
18.70576911244484
 20
194.1367698955894
 30
0.0
 11
18.70576911244484
 21
206.1367718955895
 31
0.0
  0
ARC
  5
270
330
18
100
AcDbEntity
  8
1
  6
Continuous
100
AcDbCircle
 10
20.20576911244484
 20
201.6367718955895
 30
0.0
 40
1.5
100
AcDbArc
 50
89.99996799999987
 51
180.0000100000002
  0
ARC
  5
271
330
18
100
AcDbEntity
  8
1
  6
Continuous
100
AcDbCircle
 10
20.20576911244484
 20
195.1367698955894
 30
0.0
 40
1.5
100
AcDbArc
 50
89.99996799999987
 51
180.0000100000002
  0
ARC
  5
272
330
18
100
AcDbEntity
  8
1
  6
Continuous
100
AcDbCircle
 10
20.20576911244484
 20
198.6367698955895
 30
0.0
 40
1.5
100
AcDbArc
 50
180.0000100000002
 51
270.0
  0
ARC
  5
273
330
18
100
AcDbEntity
  8
1
  6
Continuous
100
AcDbCircle
 10
20.20576911244484
 20
194.1367698955894
 30
0.0
 40
1.5
100
AcDbArc
 50
180.0000100000002
 51
270.0
  0
ARC
  5
274
330
18
100
AcDbEntity
  8
1
  6
Continuous
100
AcDbCircle
 10
20.20576911244484
 20
206.1367718955895
 30
0.0
 40
1.5
100
AcDbArc
 50
89.99996799999987
 51
180.0000100000002
  0
ARC
  5
275
330
18
100
AcDbEntity
  8
1
  6
Continuous
100
AcDbCircle
 10
20.20576911244484
 20
205.1367718955896
 30
0.0
 40
1.5
100
AcDbArc
 50
180.0000100000002
 51
270.0
  0
LINE
  5
277
330
18
100
AcDbEntity
  8
1
  6
Continuous
100
AcDbLine
 10
27.22079911244486
 20
182.4939178955895
 30
0.0
 11
25.67555911244483
 21
183.4224908955896
 31
0.0
  0
ARC
  5
278
330
18
100
AcDbEntity
  8
1
  6
Continuous
100
AcDbCircle
 10
26.70571911244485
 20
185.1367698955894
 30
0.0
 40
2.0
100
AcDbArc
 50
180.0000499999996
 51
238.9972800000002
  0
ARC
  5
279
330
18
100
AcDbEntity
  8
1
  6
Continuous
100
AcDbCircle
 10
26.70571911244485
 20
181.6367698955894
 30
0.0
 40
1.0
100
AcDbArc
 50
0.0000359721780749
 51
58.99729599999981
  0
LINE
  5
27A
330
18
100
AcDbEntity
  8
1
  6
Continuous
100
AcDbLine
 10
22.70571911244485
 20
189.1367738955896
 30
0.0
 11
24.70571911244486
 21
189.1367738955896
 31
0.0
  0
ARC
  5
27B
330
18
100
AcDbEntity
  8
1
  6
Continuous
100
AcDbCircle
 10
21.20576911244484
 20
201.6367718955895
 30
0.0
 40
1.5
100
AcDbArc
 50
0.0
 51
89.9999619999996
  0
ARC
  5
27C
330
18
100
AcDbEntity
  8
1
  6
Continuous
100
AcDbCircle
 10
21.20576911244484
 20
198.6367698955895
 30
0.0
 40
1.5
100
AcDbArc
 50
270.0
 51
0.0
  0
ARC
  5
27D
330
18
100
AcDbEntity
  8
1
  6
Continuous
100
AcDbCircle
 10
21.20576911244484
 20
195.1367698955894
 30
0.0
 40
1.5
100
AcDbArc
 50
0.0
 51
89.9999619999996
  0
ARC
  5
27E
330
18
100
AcDbEntity
  8
1
  6
Continuous
100
AcDbCircle
 10
21.20576911244484
 20
194.1367698955894
 30
0.0
 40
1.5
100
AcDbArc
 50
270.0
 51
0.0
  0
ARC
  5
27F
330
18
100
AcDbEntity
  8
1
  6
Continuous
100
AcDbCircle
 10
21.20576911244484
 20
206.1367718955895
 30
0.0
 40
1.5
100
AcDbArc
 50
0.0
 51
89.9999619999996
  0
ARC
  5
280
330
18
100
AcDbEntity
  8
1
  6
Continuous
100
AcDbCircle
 10
21.20576911244484
 20
205.1367718955896
 30
0.0
 40
1.5
100
AcDbArc
 50
270.0
 51
0.0
  0
ARC
  5
284
330
18
100
AcDbEntity
  8
1
  6
Continuous
100
AcDbCircle
 10
20.35862911244487
 20
252.6367778955894
 30
0.0
 40
3.0
100
AcDbArc
 50
194.8123899999999
 51
270.0
  0
LINE
  5
285
330
18
100
AcDbEntity
  8
1
  6
Continuous
100
AcDbLine
 10
15.67143911244483
 20
218.5550798955894
 30
0.0
 11
16.20634911244484
 21
244.5923948955894
 31
0.0
  0
ARC
  5
286
330
18
100
AcDbEntity
  8
1
  6
Continuous
100
AcDbCircle
 10
19.20571911244485
 20
244.5307768955895
 30
0.0
 40
3.0
100
AcDbArc
 50
89.99999600000005
 51
178.8230999999998
  0
ARC
  5
287
330
18
100
AcDbEntity
  8
1
  6
Continuous
100
AcDbCircle
 10
18.20571911244485
 20
251.9367768955894
 30
0.0
 40
3.0
100
AcDbArc
 50
213.0681
 51
269.9999599999999
  0
ARC
  5
288
330
18
100
AcDbEntity
  8
1
  6
Continuous
100
AcDbCircle
 10
16.22112911244482
 20
252.6367778955894
 30
0.0
 40
1.0
100
AcDbArc
 50
14.812389
 51
90.00000300000015
  0
ARC
  5
289
330
18
100
AcDbEntity
  8
1
  6
Continuous
100
AcDbCircle
 10
12.70571911244484
 20
252.1367778955895
 30
0.0
 40
1.5
100
AcDbArc
 50
33.06801899999995
 51
90.00000300000015
  0
LINE
  5
28A
330
18
100
AcDbEntity
  8
1
  6
Continuous
100
AcDbLine
 10
15.69164911244484
 20
250.2998718955895
 30
0.0
 11
13.96274911244484
 21
252.9552268955894
 31
0.0
  0
LINE
  5
28B
330
18
100
AcDbEntity
  8
1
  6
Continuous
100
AcDbLine
 10
17.18790911244485
 20
252.8924328955894
 30
0.0
 11
17.45832911244485
 21
251.8698158955894
 31
0.0
  0
ARC
  5
28C
330
18
100
AcDbEntity
  8
1
  6
Continuous
100
AcDbCircle
 10
26.70571911244485
 20
218.6367718955894
 30
0.0
 40
1.0
100
AcDbArc
 50
301.0027599999999
 51
0.0000186693348781
  0
ARC
  5
28D
330
18
100
AcDbEntity
  8
1
  6
Continuous
100
AcDbCircle
 10
26.70571911244485
 20
215.1367718955895
 30
0.0
 40
2.0
100
AcDbArc
 50
121.0027699999996
 51
180.0000100000002
  0
LINE
  5
28E
330
18
100
AcDbEntity
  8
1
  6
Continuous
100
AcDbLine
 10
27.22079911244486
 20
217.7796278955895
 30
0.0
 11
25.67556911244486
 21
216.8510578955895
 31
0.0
  0
ARC
  5
293
330
18
100
AcDbEntity
  8
1
  6
Continuous
100
AcDbCircle
 10
40.70571911244485
 20
-133.8005721044102
 30
0.0
 40
371.0813299999998
100
AcDbArc
 50
90.98810499999977
 51
92.47119899999978
  0
ARC
  5
296
330
18
100
AcDbEntity
  8
1
  6
Continuous
100
AcDbCircle
 10
26.20418911244486
 20
239.3171100955896
 30
0.0
 40
3.5
100
AcDbArc
 50
86.42399499999964
 51
181.6919199999999
  0
ARC
  5
297
330
18
100
AcDbEntity
  8
1
  6
Continuous
100
AcDbCircle
 10
30.80571711244488
 20
249.4087768955894
 30
0.0
 40
2.778000099999998
100
AcDbArc
 50
189.7823799999999
 51
222.5338800000002
  0
LINE
  5
298
330
18
100
AcDbEntity
  8
1
  6
Continuous
100
AcDbLine
 10
20.85422911244484
 20
250.0706078955896
 30
0.0
 11
21.21451911244486
 21
252.7691158955895
 31
0.0
  0
ARC
  5
299
330
18
100
AcDbEntity
  8
1
  6
Continuous
100
AcDbCircle
 10
20.35862911244487
 20
250.1367778955895
 30
0.0
 40
0.5
100
AcDbArc
 50
270.0
 51
352.3953099999997
  0
ARC
  5
29A
330
18
100
AcDbEntity
  8
1
  6
Continuous
100
AcDbCircle
 10
23.30571911244487
 20
249.4087768955894
 30
0.0
 40
2.778000099999998
100
AcDbArc
 50
189.7823799999999
 51
222.5338800000002
  0
ARC
  5
29B
330
18
100
AcDbEntity
  8
1
  6
Continuous
100
AcDbCircle
 10
24.80571911244487
 20
249.4087768955894
 30
0.0
 40
2.778000099999998
100
AcDbArc
 50
189.7823799999999
 51
222.5338800000002
  0
ARC
  5
29C
330
18
100
AcDbEntity
  8
1
  6
Continuous
100
AcDbCircle
 10
27.30571911244487
 20
249.4087768955894
 30
0.0
 40
2.778000099999998
100
AcDbArc
 50
189.7823799999999
 51
222.5338800000002
  0
ARC
  5
29D
330
18
100
AcDbEntity
  8
1
  6
Continuous
100
AcDbCircle
 10
22.20571911244485
 20
252.6367778955894
 30
0.0
 40
1.0
100
AcDbArc
 50
90.00000300000015
 51
172.3953100000001
  0
ARC
  5
29E
330
18
100
AcDbEntity
  8
1
  6
Continuous
100
AcDbCircle
 10
30.80571711244488
 20
249.4087768955894
 30
0.0
 40
2.778000099999998
100
AcDbArc
 50
317.4661199999996
 51
324.0896000000003
  0
ARC
  5
29F
330
18
100
AcDbEntity
  8
1
  6
Continuous
100
AcDbCircle
 10
35.30571711244488
 20
249.4087768955894
 30
0.0
 40
2.778000099999998
100
AcDbArc
 50
189.7823799999999
 51
222.5338800000002
  0
ARC
  5
2A0
330
18
100
AcDbEntity
  8
1
  6
Continuous
100
AcDbCircle
 10
40.70571911244485
 20
249.4087768955894
 30
0.0
 40
2.778000099999998
100
AcDbArc
 50
317.4661199999996
 51
350.21762
  0
ARC
  5
2A1
330
18
100
AcDbEntity
  8
1
  6
Continuous
100
AcDbCircle
 10
46.10572111244471
 20
249.4087768955894
 30
0.0
 40
2.778000099999998
100
AcDbArc
 50
193.60946
 51
222.5338800000002
  0
ARC
  5
2A2
330
18
100
AcDbEntity
  8
1
  6
Continuous
100
AcDbCircle
 10
35.30571711244488
 20
249.4087768955894
 30
0.0
 40
2.778000099999998
100
AcDbArc
 50
317.4661199999996
 51
346.3905399999999
  0
ARC
  5
2A3
330
18
100
AcDbEntity
  8
1
  6
Continuous
100
AcDbCircle
 10
40.70571911244485
 20
249.4087768955894
 30
0.0
 40
2.778000099999998
100
AcDbArc
 50
189.7823799999999
 51
222.5338800000002
  0
ARC
  5
2A4
330
18
100
AcDbEntity
  8
1
  6
Continuous
100
AcDbCircle
 10
50.60572111244471
 20
249.4087768955894
 30
0.0
 40
2.778000099999998
100
AcDbArc
 50
215.9104000000004
 51
222.5338800000002
  0
ARC
  5
2A5
330
18
100
AcDbEntity
  8
1
  6
Continuous
100
AcDbCircle
 10
46.10572111244471
 20
249.4087768955894
 30
0.0
 40
2.778000099999998
100
AcDbArc
 50
317.4661199999996
 51
350.21762
  0
ARC
  5
2A8
330
18
100
AcDbEntity
  8
1
  6
Continuous
100
AcDbCircle
 10
69.70571911244485
 20
210.1445118955896
 30
0.0
 40
3.0
100
AcDbArc
 50
115.7961200000001
 51
215.7567299999997
  0
LINE
  5
2A9
330
18
100
AcDbEntity
  8
1
  6
Continuous
100
AcDbLine
 10
56.70571911244485
 20
218.2714228955894
 30
0.0
 11
56.70571911244485
 21
189.1367738955896
 31
0.0
  0
LINE
  5
2AA
330
18
100
AcDbEntity
  8
1
  6
Continuous
100
AcDbLine
 10
60.70571911244485
 20
228.4932098955894
 30
0.0
 11
60.70571911244485
 21
184.7672938955896
 31
0.0
  0
LINE
  5
2AB
330
18
100
AcDbEntity
  8
1
  6
Continuous
100
AcDbLine
 10
53.70571911244486
 20
234.3593561955894
 30
0.0
 11
53.70571911244486
 21
165.9141863506948
 31
0.0
  0
LINE
  5
2AC
330
18
100
AcDbEntity
  8
1
  6
Continuous
100
AcDbLine
 10
55.70571911244485
 20
214.9867708955894
 30
0.0
 11
55.70571911244447
 21
185.2867750229249
 31
0.0
  0
LINE
  5
2AD
330
18
100
AcDbEntity
  8
1
  6
Continuous
100
AcDbLine
 10
58.70571911244486
 20
239.4204482955895
 30
0.0
 11
58.70571911244486
 21
184.7673018955896
 31
0.0
  0
LINE
  5
2AE
330
18
100
AcDbEntity
  8
1
  6
Continuous
100
AcDbLine
 10
70.70571911244484
 20
213.9598918955896
 30
0.0
 11
68.40021111244472
 21
212.8455578955894
 31
0.0
  0
ARC
  5
2AF
330
18
100
AcDbEntity
  8
1
  6
Continuous
100
AcDbCircle
 10
73.23786911244486
 20
191.1453528955894
 30
0.0
 40
12.03
100
AcDbArc
 50
228.74859
 51
320.5731999999995
  0
LINE
  5
2B0
330
18
100
AcDbEntity
  8
1
  6
Continuous
100
AcDbLine
 10
74.70573411244481
 20
198.0589698955894
 30
0.0
 11
82.55181511244485
 21
187.0088058955896
 31
0.0
  0
LINE
  5
2B1
330
18
100
AcDbEntity
  8
1
  6
Continuous
100
AcDbLine
 10
74.70573411244481
 20
198.1359998955896
 30
0.0
 11
82.42268411244484
 21
188.7536908955896
 31
0.0
  0
LINE
  5
2B3
330
18
100
AcDbEntity
  8
1
  6
Continuous
100
AcDbLine
 10
65.30571711244482
 20
191.8196848955894
 30
0.0
 11
65.30571711244482
 21
178.3359128955894
 31
0.0
  0
ARC
  5
2B4
330
18
100
AcDbEntity
  8
1
  6
Continuous
100
AcDbCircle
 10
78.15029911244483
 20
195.9127258955895
 30
0.0
 40
20.0
100
AcDbArc
 50
214.69145
 51
230.04177
  0
ARC
  5
2B5
330
18
100
AcDbEntity
  8
1
  6
Continuous
100
AcDbCircle
 10
76.15029911244469
 20
195.9127258955895
 30
0.0
 40
20.0
100
AcDbArc
 50
214.69145
 51
230.04177
  0
LINE
  5
2B6
330
18
100
AcDbEntity
  8
1
  6
Continuous
100
AcDbLine
 10
63.30571711244481
 20
179.8936518955894
 30
0.0
 11
65.30571711244482
 21
179.8936518955894
 31
0.0
  0
LINE
  5
2B7
330
18
100
AcDbEntity
  8
1
  6
Continuous
100
AcDbLine
 10
63.30571711244481
 20
178.3359128955894
 30
0.0
 11
65.30571711244482
 21
178.3359128955894
 31
0.0
  0
LINE
  5
2B8
330
18
100
AcDbEntity
  8
1
  6
Continuous
100
AcDbLine
 10
63.30571711244481
 20
180.5824638955894
 30
0.0
 11
63.30571711244481
 21
178.3359128955894
 31
0.0
  0
LINE
  5
2B9
330
18
100
AcDbEntity
  8
1
  6
Continuous
100
AcDbLine
 10
59.70571911244483
 20
184.5295928955894
 30
0.0
 11
58.70571911244486
 21
184.7673018955896
 31
0.0
  0
ARC
  5
2BA
330
18
100
AcDbEntity
  8
1
  6
Continuous
100
AcDbCircle
 10
54.70571911244483
 20
185.2867758955894
 30
0.0
 40
1.0
100
AcDbArc
 50
269.9999599999999
 51
359.9999499999999
  0
LINE
  5
2BB
330
18
100
AcDbEntity
  8
1
  6
Continuous
100
AcDbLine
 10
53.70571911244486
 20
184.2867758955894
 30
0.0
 11
54.70571911244483
 21
184.2867758955894
 31
0.0
  0
LINE
  5
2BC
330
18
100
AcDbEntity
  8
1
  6
Continuous
100
AcDbLine
 10
56.70571911244485
 20
189.1367698955896
 30
0.0
 11
58.70571911244486
 21
189.1367698955896
 31
0.0
  0
LINE
  5
2BD
330
18
100
AcDbEntity
  8
1
  6
Continuous
100
AcDbLine
 10
56.70571911244485
 20
189.1367738955896
 30
0.0
 11
58.70571911244486
 21
189.1367738955896
 31
0.0
  0
LINE
  5
2BE
330
18
100
AcDbEntity
  8
1
  6
Continuous
100
AcDbLine
 10
60.70571911244485
 20
184.7672978955894
 30
0.0
 11
61.70571911244485
 21
184.5295928955894
 31
0.0
  0
LINE
  5
2C8
330
18
100
AcDbEntity
  8
1
  6
Continuous
100
AcDbLine
 10
55.70571911244485
 20
196.1367738955896
 30
0.0
 11
56.70572711244483
 21
196.1367738955896
 31
0.0
  0
LINE
  5
2CA
330
18
100
AcDbEntity
  8
2
  6
Continuous
100
AcDbLine
 10
60.70571911244485
 20
196.7617698955896
 30
0.0
 11
63.80571711244481
 21
196.7617698955896
 31
0.0
  0
LINE
  5
2CB
330
18
100
AcDbEntity
  8
1
  6
Continuous
100
AcDbLine
 10
60.70571911244485
 20
196.1367698955894
 30
0.0
 11
63.80571711244481
 21
196.1367698955894
 31
0.0
  0
ARC
  5
2CC
330
18
100
AcDbEntity
  8
1
  6
Continuous
100
AcDbCircle
 10
60.80756411244482
 20
196.5850428955896
 30
0.0
 40
3.0
100
AcDbArc
 50
271.9454499999999
 51
343.23157
  0
ARC
  5
2D3
330
18
100
AcDbEntity
  8
1
  6
Continuous
100
AcDbCircle
 10
70.29574611244481
 20
194.6789078955894
 30
0.0
 40
10.0
100
AcDbArc
 50
132.9747899999998
 51
163.5370599999999
  0
LINE
  5
2D4
330
18
100
AcDbEntity
  8
1
  6
Continuous
100
AcDbLine
 10
55.70571911244485
 20
204.1367718955895
 30
0.0
 11
56.70572711244483
 21
204.1367718955895
 31
0.0
  0
ARC
  5
2D6
330
18
100
AcDbEntity
  8
1
  6
Continuous
100
AcDbCircle
 10
60.80756411244482
 20
203.6885028955896
 30
0.0
 40
3.0
100
AcDbArc
 50
16.76842999999998
 51
91.94543800000037
  0
LINE
  5
2DE
330
18
100
AcDbEntity
  8
1
  6
Continuous
100
AcDbLine
 10
74.08073411244481
 20
204.1367718955895
 30
0.0
 11
74.08073411244481
 21
196.1367698955894
 31
0.0
  0
LINE
  5
2DF
330
18
100
AcDbEntity
  8
1
  6
Continuous
100
AcDbLine
 10
74.70573411244481
 20
203.5117718955895
 30
0.0
 11
74.70573411244481
 21
196.7617698955896
 31
0.0
  0
LINE
  5
2E0
330
18
100
AcDbEntity
  8
2
  6
Continuous
100
AcDbLine
 10
71.20571711244483
 20
196.7617698955894
 30
0.0
 11
74.70573411244481
 21
196.7617698955896
 31
0.0
  0
LINE
  5
2E1
330
18
100
AcDbEntity
  8
1
  6
Continuous
100
AcDbLine
 10
74.70573011244471
 20
196.7617738955896
 30
0.0
 11
74.08073411244481
 21
196.1367778955896
 31
0.0
  0
LINE
  5
2E3
330
18
100
AcDbEntity
  8
1
  6
Continuous
100
AcDbLine
 10
71.20571711244481
 20
196.1367698955894
 30
0.0
 11
74.08073411244481
 21
196.1367698955894
 31
0.0
  0
LINE
  5
2E4
330
18
100
AcDbEntity
  8
1
  6
Continuous
100
AcDbLine
 10
74.08073411244481
 20
204.1367738955896
 30
0.0
 11
74.70573411244481
 21
203.5117738955896
 31
0.0
  0
LINE
  5
2E5
330
18
100
AcDbEntity
  8
2
  6
Continuous
100
AcDbLine
 10
71.20571711244483
 20
203.5117718955895
 30
0.0
 11
74.70573411244481
 21
203.5117718955895
 31
0.0
  0
LINE
  5
2E6
330
18
100
AcDbEntity
  8
1
  6
Continuous
100
AcDbLine
 10
68.89479411244486
 20
206.1367248955896
 30
0.0
 11
67.27120211244471
 21
208.3914798955896
 31
0.0
  0
LINE
  5
2E7
330
18
100
AcDbEntity
  8
1
  6
Continuous
100
AcDbLine
 10
71.20571711244481
 20
204.1367718955895
 30
0.0
 11
74.08073411244481
 21
204.1367718955895
 31
0.0
  0
LINE
  5
2E8
330
18
100
AcDbEntity
  8
1
  6
Continuous
100
AcDbLine
 10
83.1057211124448
 20
186.8479898955894
 30
0.0
 11
83.1057211124448
 21
185.2719628955895
 31
0.0
  0
ARC
  5
2E9
330
18
100
AcDbEntity
  8
1
  6
Continuous
100
AcDbCircle
 10
80.10572111244483
 20
185.2719628955895
 30
0.0
 40
3.0
100
AcDbArc
 50
323.9193500000002
 51
35.37635999999993
  0
ARC
  5
2EA
330
18
100
AcDbEntity
  8
1
  6
Continuous
100
AcDbCircle
 10
80.10572111244483
 20
186.8479898955894
 30
0.0
 40
3.0
100
AcDbArc
 50
0.0
 51
39.43729000000015
  0
ARC
  5
2EB
330
18
100
AcDbEntity
  8
1
  6
Continuous
100
AcDbCircle
 10
68.65654811244485
 20
221.4721660955895
 30
0.0
 40
12.437059
100
AcDbArc
 50
40.87401400000032
 51
134.7867500000002
  0
ARC
  5
2EC
330
18
100
AcDbEntity
  8
1
  6
Continuous
100
AcDbCircle
 10
68.5258481124448
 20
222.7422141955896
 30
0.0
 40
12.743032
100
AcDbArc
 50
42.5315440000002
 51
135.6127399999998
  0
LINE
  5
2ED
330
18
100
AcDbEntity
  8
1
  6
Continuous
100
AcDbLine
 10
56.70571911244485
 20
239.4181403955895
 30
0.0
 11
56.70571911244485
 21
222.5563544955896
 31
0.0
  0
LINE
  5
2EE
330
18
100
AcDbEntity
  8
1
  6
Continuous
100
AcDbLine
 10
60.70571911244485
 20
213.9598918955896
 30
0.0
 11
70.70571911244484
 21
213.9598918955896
 31
0.0
  0
LINE
  5
2EF
330
18
100
AcDbEntity
  8
1
  6
Continuous
100
AcDbLine
 10
56.0057221124448
 20
217.8774198955895
 30
0.0
 11
55.30571711244482
 21
219.4534428955896
 31
0.0
  0
ARC
  5
2F0
330
18
100
AcDbEntity
  8
1
  6
Continuous
100
AcDbCircle
 10
56.49435411244486
 20
217.7714228955895
 30
0.0
 40
0.5
100
AcDbArc
 50
90.00000300000015
 51
167.7610399999998
  0
LINE
  5
2F1
330
18
100
AcDbEntity
  8
1
  6
Continuous
100
AcDbLine
 10
56.0057221124448
 20
220.5863268955896
 30
0.0
 11
56.0057221124448
 21
217.8774188955894
 31
0.0
  0
ARC
  5
2F2
330
18
100
AcDbEntity
  8
1
  6
Continuous
100
AcDbCircle
 10
54.70571911244483
 20
214.9867708955894
 30
0.0
 40
1.0
100
AcDbArc
 50
0.000054641512953
 51
90.00003699999981
  0
LINE
  5
2F3
330
18
100
AcDbEntity
  8
1
  6
Continuous
100
AcDbLine
 10
53.70571911244486
 20
215.9867708955894
 30
0.0
 11
54.70571911244483
 21
215.9867708955894
 31
0.0
  0
LINE
  5
2F4
330
18
100
AcDbEntity
  8
1
  6
Continuous
100
AcDbLine
 10
56.80118611244484
 20
220.9803333955894
 30
0.0
 11
58.70571911244486
 21
220.9803333955894
 31
0.0
  0
ARC
  5
2F5
330
18
100
AcDbEntity
  8
1
  6
Continuous
100
AcDbCircle
 10
56.10118911244484
 20
221.5563544955895
 30
0.0
 40
1.0
100
AcDbArc
 50
90.00000300000015
 51
142.6995499999998
  0
LINE
  5
2F6
330
18
100
AcDbEntity
  8
1
  6
Continuous
100
AcDbLine
 10
55.30571711244482
 20
222.1623496955894
 30
0.0
 11
56.0057141124447
 21
220.5863288955896
 31
0.0
  0
LINE
  5
2F7
330
18
100
AcDbEntity
  8
1
  6
Continuous
100
AcDbLine
 10
56.10118911244484
 20
222.5563544955896
 30
0.0
 11
58.70571911244486
 21
222.5563544955896
 31
0.0
  0
ARC
  5
2F8
330
18
100
AcDbEntity
  8
1
  6
Continuous
100
AcDbCircle
 10
56.80118611244484
 20
219.9803318955894
 30
0.0
 40
1.0
100
AcDbArc
 50
90.00000300000015
 51
142.6995499999998
  0
LINE
  5
2F9
330
18
100
AcDbEntity
  8
1
  6
Continuous
100
AcDbLine
 10
56.49435411244486
 20
218.2714228955894
 30
0.0
 11
58.70571911244486
 21
218.2714228955894
 31
0.0
  0
LINE
  5
2FA
330
18
100
AcDbEntity
  8
1
  6
Continuous
100
AcDbLine
 10
55.30571711244482
 20
222.1623496955894
 30
0.0
 11
55.30571711244482
 21
219.4534378955895
 31
0.0
  0
ARC
  5
2FB
330
18
100
AcDbEntity
  8
1
  6
Continuous
100
AcDbCircle
 10
61.20571911244486
 20
229.9074249455895
 30
0.0
 40
2.5
100
AcDbArc
 50
135.6127399999998
 51
180.0000100000002
  0
ARC
  5
2FC
330
18
100
AcDbEntity
  8
1
  6
Continuous
100
AcDbCircle
 10
59.70571911244483
 20
228.4932098955894
 30
0.0
 40
1.0
100
AcDbArc
 50
0.0
 51
70.52877900000016
  0
ARC
  5
2FD
330
18
100
AcDbEntity
  8
1
  6
Continuous
100
AcDbCircle
 10
60.20571911244484
 20
229.9074249455895
 30
0.0
 40
0.5
100
AcDbArc
 50
128.4196699999996
 51
250.52877
  0
LINE
  5
2FE
330
18
100
AcDbEntity
  8
1
  6
Continuous
100
AcDbLine
 10
70.70571911244484
 20
213.9598918955896
 30
0.0
 11
78.25745411244483
 21
226.1750669955894
 31
0.0
  0
ARC
  5
2FF
330
18
100
AcDbEntity
  8
1
  6
Continuous
100
AcDbCircle
 10
75.70571911244484
 20
227.7526092955894
 30
0.0
 40
3.0
100
AcDbArc
 50
328.27457
 51
45.12296899999999
  0
LINE
  5
300
330
18
100
AcDbEntity
  8
1
  6
Continuous
100
AcDbLine
 10
78.70571911244481
 20
229.3286323955896
 30
0.0
 11
78.70571911244481
 21
227.7526092955894
 31
0.0
  0
ARC
  5
301
330
18
100
AcDbEntity
  8
1
  6
Continuous
100
AcDbCircle
 10
75.70571911244484
 20
229.3286323955896
 30
0.0
 40
3.0
100
AcDbArc
 50
0.0
 51
42.5315440000002
  0
LINE
  5
302
330
18
100
AcDbEntity
  8
1
  6
Continuous
100
AcDbLine
 10
67.44868511244482
 20
252.9552228955894
 30
0.0
 11
65.71978811244481
 21
250.2998698955895
 31
0.0
  0
ARC
  5
303
330
18
100
AcDbEntity
  8
1
  6
Continuous
100
AcDbCircle
 10
62.20571911244483
 20
244.5307768955895
 30
0.0
 40
3.0
100
AcDbArc
 50
1.176911000000137
 51
90.00000300000015
  0
ARC
  5
304
330
18
100
AcDbEntity
  8
1
  6
Continuous
100
AcDbCircle
 10
55.2072451124448
 20
239.3171100955896
 30
0.0
 40
3.5
100
AcDbArc
 50
358.30808
 51
93.57600300000028
  0
ARC
  5
305
330
18
100
AcDbEntity
  8
1
  6
Continuous
100
AcDbCircle
 10
55.20571911244484
 20
239.3513354955894
 30
0.0
 40
1.5
100
AcDbArc
 50
2.552639800000037
 51
93.60669799999985
  0
ARC
  5
306
330
18
100
AcDbEntity
  8
1
  6
Continuous
100
AcDbCircle
 10
51.70571911244485
 20
234.3593561955894
 30
0.0
 40
2.0
100
AcDbArc
 50
0.000054641512953
 51
76.75190800000007
  0
LINE
  5
307
330
18
100
AcDbEntity
  8
1
  6
Continuous
100
AcDbLine
 10
65.20508611244486
 20
244.5923948955894
 30
0.0
 11
65.40017711244479
 21
235.0959605955896
 31
0.0
  0
ARC
  5
308
330
18
100
AcDbEntity
  8
1
  6
Continuous
100
AcDbCircle
 10
56.60572111244471
 20
249.4087768955894
 30
0.0
 40
2.778000099999998
100
AcDbArc
 50
317.4661199999996
 51
350.21762
  0
ARC
  5
309
330
18
100
AcDbEntity
  8
1
  6
Continuous
100
AcDbCircle
 10
50.60572111244471
 20
249.4087768955894
 30
0.0
 40
2.778000099999998
100
AcDbArc
 50
317.4661199999996
 51
350.21762
  0
ARC
  5
30A
330
18
100
AcDbEntity
  8
1
  6
Continuous
100
AcDbCircle
 10
54.10572111244484
 20
249.4087768955894
 30
0.0
 40
2.778000099999998
100
AcDbArc
 50
317.4661199999996
 51
350.21762
  0
ARC
  5
30B
330
18
100
AcDbEntity
  8
1
  6
Continuous
100
AcDbCircle
 10
61.05281111244483
 20
252.6367778955894
 30
0.0
 40
3.0
100
AcDbArc
 50
270.0
 51
345.18761
  0
ARC
  5
30C
330
18
100
AcDbEntity
  8
1
  6
Continuous
100
AcDbCircle
 10
63.20571911244485
 20
251.9367768955894
 30
0.0
 40
3.0
100
AcDbArc
 50
269.9999799999996
 51
326.9318999999998
  0
LINE
  5
30D
330
18
100
AcDbEntity
  8
1
  6
Continuous
100
AcDbLine
 10
60.55720511244482
 20
250.0706078955896
 30
0.0
 11
60.19692211244484
 21
252.7691158955895
 31
0.0
  0
ARC
  5
30E
330
18
100
AcDbEntity
  8
1
  6
Continuous
100
AcDbCircle
 10
61.05281111244483
 20
250.1367778955895
 30
0.0
 40
0.5
100
AcDbArc
 50
187.6046899999998
 51
270.0
  0
ARC
  5
30F
330
18
100
AcDbEntity
  8
1
  6
Continuous
100
AcDbCircle
 10
58.10572111244482
 20
249.4087768955894
 30
0.0
 40
2.778000099999998
100
AcDbArc
 50
317.4661199999996
 51
350.21762
  0
ARC
  5
310
330
18
100
AcDbEntity
  8
1
  6
Continuous
100
AcDbCircle
 10
59.20571911244485
 20
252.6367778955894
 30
0.0
 40
1.0
100
AcDbArc
 50
7.604693300000017
 51
89.99999600000005
  0
LINE
  5
311
330
18
100
AcDbEntity
  8
1
  6
Continuous
100
AcDbLine
 10
64.22354111244482
 20
252.8924328955894
 30
0.0
 11
63.95311711244483
 21
251.8698138955894
 31
0.0
  0
ARC
  5
312
330
18
100
AcDbEntity
  8
1
  6
Continuous
100
AcDbCircle
 10
65.19030811244483
 20
252.6367778955894
 30
0.0
 40
1.0
100
AcDbArc
 50
89.99999600000005
 51
165.18761
  0
ARC
  5
313
330
18
100
AcDbEntity
  8
1
  6
Continuous
100
AcDbCircle
 10
68.70571911244486
 20
252.1367778955895
 30
0.0
 40
1.5
100
AcDbArc
 50
89.99994800000029
 51
146.9319899999999
  0
ARC
  5
314
330
18
100
AcDbEntity
  8
1
  6
Continuous
100
AcDbCircle
 10
182.2829980808853
 20
221.0270766955894
 30
0.0
 40
25.0
100
AcDbArc
 50
182.66986
 51
224.6126699999998
  0
ARC
  5
315
330
18
100
AcDbEntity
  8
5
  6
PHANTOM
 48
0.3
100
AcDbCircle
 10
151.5301140808853
 20
204.6114578955894
 30
0.0
 40
10.0
100
AcDbArc
 50
205.22857
 51
265.9701100000002
  0
LINE
  5
316
330
18
100
AcDbEntity
  8
5
  6
PHANTOM
 48
0.3
100
AcDbLine
 10
136.1033910808854
 20
199.1088978955895
 30
0.0
 11
165.8831340808854
 21
204.8974948955895
 31
0.0
  0
LINE
  5
317
330
18
100
AcDbEntity
  8
5
  6
PHANTOM
 48
0.3
100
AcDbLine
 10
135.7217730808854
 20
201.0721528955894
 30
0.0
 11
165.5015150808854
 21
206.8607478955896
 31
0.0
  0
LINE
  5
318
330
18
100
AcDbEntity
  8
5
  6
PHANTOM
 48
0.3
100
AcDbLine
 10
135.7217730808854
 20
201.0721528955894
 30
0.0
 11
136.1033910808854
 21
199.1088978955895
 31
0.0
  0
ARC
  5
319
330
18
100
AcDbEntity
  8
5
  6
PHANTOM
 48
0.3
100
AcDbCircle
 10
166.3321310808854
 20
214.2474398955894
 30
0.0
 40
25.0
100
AcDbArc
 50
231.6698699999999
 51
273.6126799999997
  0
LINE
  5
31A
330
18
100
AcDbEntity
  8
5
  6
PHANTOM
 48
0.3
100
AcDbLine
 10
157.4807980808854
 20
199.1893788955895
 30
0.0
 11
161.7999510808854
 21
200.0289368955896
 31
0.0
  0
LINE
  5
31B
330
18
100
AcDbEntity
  8
5
  6
PHANTOM
 48
0.3
100
AcDbLine
 10
156.7175610808854
 20
203.1158868955896
 30
0.0
 11
157.4807980808854
 21
199.1893788955895
 31
0.0
  0
LINE
  5
31C
330
18
100
AcDbEntity
  8
5
  6
PHANTOM
 48
0.3
100
AcDbLine
 10
161.0367140808854
 20
203.9554458955896
 30
0.0
 11
161.7999510808854
 21
200.0289368955896
 31
0.0
  0
ARC
  5
31D
330
18
100
AcDbEntity
  8
5
  6
PHANTOM
 48
0.3
100
AcDbCircle
 10
164.7382820808854
 20
210.7872578955896
 30
0.0
 40
4.0
100
AcDbArc
 50
280.9999999999998
 51
318.6584599999999
  0
ARC
  5
31E
330
18
100
AcDbEntity
  8
5
  6
PHANTOM
 48
0.3
100
AcDbCircle
 10
164.7382820808854
 20
210.7872578955896
 30
0.0
 40
6.0
100
AcDbArc
 50
280.9999999999998
 51
318.6584599999999
  0
LINE
  5
31F
330
18
100
AcDbEntity
  8
1
  6
Continuous
100
AcDbLine
 10
152.2572740808854
 20
235.4852418955895
 30
0.0
 11
151.0259500808854
 21
233.9092201955895
 31
0.0
  0
LINE
  5
320
330
18
100
AcDbEntity
  8
1
  6
Continuous
100
AcDbLine
 10
151.0259500808854
 20
233.9092201955895
 30
0.0
 11
174.9319280808854
 21
215.2318238955896
 31
0.0
  0
ARC
  5
321
330
18
100
AcDbEntity
  8
1
  6
Continuous
100
AcDbCircle
 10
165.2996300808854
 20
225.8765296955894
 30
0.0
 40
10.0
100
AcDbArc
 50
156.2285699999999
 51
216.9701099999997
  0
LINE
  5
322
330
18
100
AcDbEntity
  8
1
  6
Continuous
100
AcDbLine
 10
165.1115310808854
 20
217.8282868955895
 30
0.0
 11
168.5787780808853
 21
215.1193748955893
 31
0.0
  0
LINE
  5
323
330
18
100
AcDbEntity
  8
1
  6
Continuous
100
AcDbLine
 10
167.5741740808853
 20
220.9803294955894
 30
0.0
 11
165.1115310808854
 21
217.8282868955895
 31
0.0
  0
LINE
  5
324
330
18
100
AcDbEntity
  8
1
  6
Continuous
100
AcDbLine
 10
171.0414250808853
 20
218.2714178955896
 30
0.0
 11
168.5787780808853
 21
215.1193748955893
 31
0.0
  0
LINE
  5
325
330
18
100
AcDbEntity
  8
1
  6
Continuous
100
AcDbLine
 10
69.70571911244485
 20
255.6367778955894
 30
0.0
 11
11.70571911244484
 21
255.6367778955894
 31
0.0
  0
ARC
  5
327
330
18
100
AcDbEntity
  8
1
  6
Continuous
100
AcDbCircle
 10
147.5232610808854
 20
342.6178317508507
 30
0.0
 40
2.0
100
AcDbArc
 50
193.2480899999999
 51
269.9999399999995
  0
ARC
  5
328
330
18
100
AcDbEntity
  8
5
  6
PHANTOM
 48
0.3
100
AcDbCircle
 10
145.2454617666631
 20
324.9289125321183
 30
0.0
 40
9.528561970159287
100
AcDbArc
 50
126.202566828277
 51
257.7691049925288
  0
ARC
  5
329
330
18
100
AcDbEntity
  8
1
  6
Continuous
100
AcDbCircle
 10
160.1014219749943
 20
324.6242356735064
 30
0.0
 40
9.014173069428037
100
AcDbArc
 50
119.5928701739876
 51
267.8124623072214
  0
ARC
  5
32A
330
18
100
AcDbEntity
  8
1
  6
Continuous
100
AcDbCircle
 10
161.7759899169508
 20
324.9289125321183
 30
0.0
 40
9.528561970159287
100
AcDbArc
 50
126.202566828277
 51
257.7691049925288
  0
ARC
  5
32B
330
18
100
AcDbEntity
  8
1
  6
Continuous
100
AcDbCircle
 10
160.2399515214405
 20
329.2040059788627
 30
0.0
 40
13.59594225091025
100
AcDbArc
 50
267.9657885531718
 51
297.7013865018598
  0
LINE
  5
32C
330
18
100
AcDbEntity
  8
1
  6
Continuous
100
AcDbLine
 10
166.4241884674597
 20
335.6178317508506
 30
0.0
 11
155.365889185731
 21
335.6178317508506
 31
0.0
  0
LINE
  5
32D
330
18
100
AcDbEntity
  8
1
  6
Continuous
100
AcDbLine
 10
155.365889185731
 20
335.6178317508506
 30
0.0
 11
155.365889185731
 21
333.6178317508506
 31
0.0
  0
ARC
  5
32E
330
18
100
AcDbEntity
  8
1
  6
Continuous
100
AcDbCircle
 10
154.9328993744595
 20
333.9029909785791
 30
0.0
 40
1.768660241795906
100
AcDbArc
 50
313.3954974089121
 51
75.8292574950908
  0
ARC
  5
32F
330
18
100
AcDbEntity
  8
1
  6
Continuous
100
AcDbCircle
 10
154.9323314139626
 20
332.7089852187853
 30
0.0
 40
1.00696293889502
100
AcDbArc
 50
21.81104042281481
 51
64.49690765721893
  0
ARC
  5
330
330
18
100
AcDbEntity
  8
1
  6
Continuous
100
AcDbCircle
 10
155.4030030307225
 20
332.897345646131
 30
0.0
 40
0.5
100
AcDbArc
 50
299.5928701739869
 51
21.81104042281532
  0
ARC
  5
331
330
18
100
AcDbEntity
  8
1
  6
Continuous
100
AcDbCircle
 10
160.8092757532333
 20
331.7450752048196
 30
0.0
 40
6.820959467201523
100
AcDbArc
 50
7.351271869064081
 51
34.59507506815585
  0
ARC
  5
332
330
18
100
AcDbEntity
  8
1
  6
Continuous
100
AcDbCircle
 10
163.5741692531019
 20
337.2077017508506
 30
0.0
 40
4.0
100
AcDbArc
 50
0.0000030000001391
 51
26.9064199999998
  0
LINE
  5
333
330
18
100
AcDbEntity
  8
1
  6
Continuous
100
AcDbLine
 10
170.608363253102
 20
339.0178517508506
 30
0.0
 11
167.141163253102
 21
339.0178517508506
 31
0.0
  0
LINE
  5
334
330
18
100
AcDbEntity
  8
1
  6
Continuous
100
AcDbLine
 10
165.8958450808854
 20
340.6178317508507
 30
0.0
 11
165.8958450808854
 21
339.6178317508506
 31
0.0
  0
ARC
  5
335
330
18
100
AcDbEntity
  8
1
  6
Continuous
100
AcDbCircle
 10
166.8958450808853
 20
339.6178317508506
 30
0.0
 40
1.0
100
AcDbArc
 50
179.99996
 51
251.12516993441
  0
LINE
  5
336
330
18
100
AcDbEntity
  8
1
  6
Continuous
100
AcDbLine
 10
165.9911542531022
 20
338.3178317508507
 30
0.0
 11
167.141170253102
 21
339.0178517508506
 31
0.0
  0
LINE
  5
337
330
18
100
AcDbEntity
  8
1
  6
Continuous
100
AcDbLine
 10
166.424175253102
 20
336.6315219341101
 30
0.0
 11
166.4241884674597
 21
335.6178317508506
 31
0.0
  0
ARC
  5
338
330
18
100
AcDbEntity
  8
1
  6
Continuous
100
AcDbCircle
 10
162.9241752531019
 20
336.6315217508506
 30
0.0
 40
3.5
100
AcDbArc
 50
0.000002999999732
 51
28.80293199999996
  0
LINE
  5
339
330
18
100
AcDbEntity
  8
1
  6
Continuous
100
AcDbLine
 10
171.041369253102
 20
337.2077017508506
 30
0.0
 11
171.041369253102
 21
332.6178317508507
 31
0.0
  0
LINE
  5
33A
330
18
100
AcDbEntity
  8
1
  6
Continuous
100
AcDbLine
 10
167.5741692531019
 20
337.2077017508506
 30
0.0
 11
167.5741692531019
 21
332.6178317508507
 31
0.0
  0
ARC
  5
33B
330
18
100
AcDbEntity
  8
1
  6
Continuous
100
AcDbCircle
 10
167.041369253102
 20
337.2077017508506
 30
0.0
 40
4.0
100
AcDbArc
 50
0.0000030000001391
 51
26.9064199999998
  0
ARC
  5
33D
330
18
100
AcDbEntity
  8
1
  6
Continuous
100
AcDbCircle
 10
194.2458430808855
 20
353.6178317508506
 30
0.0
 40
50.0
100
AcDbArc
 50
166.7519850943232
 51
193.2480199999998
  0
LINE
  5
33F
330
18
100
AcDbEntity
  8
1
  6
Continuous
100
AcDbLine
 10
174.7458430808853
 20
375.3178317508507
 30
0.0
 11
174.7458430808853
 21
371.9178317508506
 31
0.0
  0
LINE
  5
341
330
18
100
AcDbEntity
  8
1
  6
Continuous
100
AcDbLine
 10
164.1089830808854
 20
367.1027557508505
 30
0.0
 11
165.0375570808854
 21
368.6479907508506
 31
0.0
  0
ARC
  5
342
330
18
100
AcDbEntity
  8
1
  6
Continuous
100
AcDbCircle
 10
163.2518400808854
 20
367.6178317508506
 30
0.0
 40
1.0
100
AcDbArc
 50
270.000035972178
 51
328.9972960000001
  0
ARC
  5
343
330
18
100
AcDbEntity
  8
1
  6
Continuous
100
AcDbCircle
 10
166.7518400808854
 20
367.6178317508506
 30
0.0
 40
2.0
100
AcDbArc
 50
90.00005000000014
 51
148.9972799999995
  0
LINE
  5
344
330
18
100
AcDbEntity
  8
1
  6
Continuous
100
AcDbLine
 10
170.7458430808854
 20
371.6178317508506
 30
0.0
 11
170.7458430808854
 21
369.6178317508506
 31
0.0
  0
LINE
  5
345
330
18
100
AcDbEntity
  8
1
  6
Continuous
100
AcDbLine
 10
244.7458430808854
 20
253.6367778955895
 30
0.0
 11
244.7458430808854
 21
255.6367778955894
 31
0.0
  0
LINE
  5
346
330
18
100
AcDbEntity
  8
4
  6
CENTER
 48
0.5
100
AcDbLine
 10
209.7458430808853
 20
260.6367778955894
 30
0.0
 11
209.7458430808853
 21
213.3700998955894
 31
0.0
  0
LINE
  5
347
330
18
100
AcDbEntity
  8
4
  6
CENTER
 48
0.5
100
AcDbLine
 10
182.2458430808854
 20
260.6367778955894
 30
0.0
 11
182.2458430808853
 21
248.6367778955896
 31
0.0
  0
LINE
  5
348
330
18
100
AcDbEntity
  8
4
  6
CENTER
 48
0.5
100
AcDbLine
 10
237.2458330808855
 20
260.6367778955894
 30
0.0
 11
237.2458330808855
 21
248.6367778955896
 31
0.0
  0
LINE
  5
349
330
18
100
AcDbEntity
  8
4
  6
CENTER
 48
0.5
100
AcDbLine
 10
181.7458430808853
 20
241.0367618955895
 30
0.0
 11
181.7458430808853
 21
157.6367718955896
 31
0.0
  0
ARC
  5
34A
330
18
100
AcDbEntity
  8
1
  6
Continuous
100
AcDbCircle
 10
237.7458430808855
 20
252.1367778955895
 30
0.0
 40
1.5
100
AcDbArc
 50
89.99994800000029
 51
146.9319899999999
  0
LINE
  5
34B
330
18
100
AcDbEntity
  8
1
  6
Continuous
100
AcDbLine
 10
244.7458430808854
 20
253.6367778955895
 30
0.0
 11
174.7458430808853
 21
253.6367778955895
 31
0.0
  0
ARC
  5
34C
330
18
100
AcDbEntity
  8
1
  6
Continuous
100
AcDbCircle
 10
181.7458430808853
 20
200.1367718955894
 30
0.0
 40
37.5
100
AcDbArc
 50
336.9909599999998
 51
33.20746099999976
  0
LINE
  5
34D
330
18
100
AcDbEntity
  8
5
  6
PHANTOM
 48
0.3
100
AcDbLine
 10
213.3574530808854
 20
214.1255668955896
 30
0.0
 11
214.3114940808855
 21
209.2174318955895
 31
0.0
  0
ARC
  5
34E
330
18
100
AcDbEntity
  8
5
  6
PHANTOM
 48
0.3
100
AcDbCircle
 10
220.2943810808855
 20
212.4178158955896
 30
0.0
 40
3.0
100
AcDbArc
 50
100.9999999999997
 51
187.8732299999999
  0
ARC
  5
34F
330
18
100
AcDbEntity
  8
1
  6
Continuous
100
AcDbCircle
 10
178.4828350808854
 20
195.9603178955896
 30
0.0
 40
20.0
100
AcDbArc
 50
14.34153900000016
 51
89.65845900000015
  0
ARC
  5
350
330
18
100
AcDbEntity
  8
1
  6
Continuous
100
AcDbCircle
 10
178.4828350808854
 20
195.9603178955896
 30
0.0
 40
18.0
100
AcDbArc
 50
14.34153900000016
 51
89.65845900000015
  0
LINE
  5
351
330
18
100
AcDbEntity
  8
1
  6
Continuous
100
AcDbLine
 10
193.2458430808853
 20
243.8204398955896
 30
0.0
 11
193.2458430808853
 21
209.4530388955896
 31
0.0
  0
LINE
  5
352
330
18
100
AcDbEntity
  8
5
  6
PHANTOM
 48
0.3
100
AcDbLine
 10
194.6700830808854
 20
210.4931108955895
 30
0.0
 11
223.4682020808854
 21
216.0908978955894
 31
0.0
  0
LINE
  5
353
330
18
100
AcDbEntity
  8
5
  6
PHANTOM
 48
0.3
100
AcDbLine
 10
194.2884680808854
 20
212.4563658955894
 30
0.0
 11
223.0865790808854
 21
218.0541528955894
 31
0.0
  0
LINE
  5
354
330
18
100
AcDbEntity
  8
1
  6
Continuous
100
AcDbLine
 10
197.5627530808854
 20
201.9567008955895
 30
0.0
 11
224.7382900808853
 21
234.6492395955894
 31
0.0
  0
LINE
  5
355
330
18
100
AcDbEntity
  8
5
  6
PHANTOM
 48
0.3
100
AcDbLine
 10
209.6272670808853
 20
213.4004918955894
 30
0.0
 11
210.5813070808855
 21
208.4923568955896
 31
0.0
  0
LINE
  5
356
330
18
100
AcDbEntity
  8
1
  6
Continuous
100
AcDbLine
 10
199.2722640808853
 20
198.7531048955895
 30
0.0
 11
222.3902220808855
 21
180.6913738955896
 31
0.0
  0
ARC
  5
357
330
18
100
AcDbEntity
  8
5
  6
PHANTOM
 48
0.3
100
AcDbCircle
 10
190.4390270808853
 20
217.3878178955894
 30
0.0
 40
25.0
100
AcDbArc
 50
283.5441199999996
 51
325.0268399999997
  0
LINE
  5
358
330
18
100
AcDbEntity
  8
1
  6
Continuous
100
AcDbLine
 10
198.0409400808853
 20
197.1770838955894
 30
0.0
 11
221.1588980808854
 21
179.1153548955896
 31
0.0
  0
ARC
  5
359
330
18
100
AcDbEntity
  8
1
  6
Continuous
100
AcDbCircle
 10
208.0187620808853
 20
186.3359128955895
 30
0.0
 40
8.0
100
AcDbArc
 50
232.0000000000004
 51
318.8732200000001
  0
LINE
  5
35A
330
18
100
AcDbEntity
  8
1
  6
Continuous
100
AcDbLine
 10
203.4200140808855
 20
191.8196808955896
 30
0.0
 11
195.5764930808854
 21
181.7804278955896
 31
0.0
  0
LINE
  5
35B
330
18
100
AcDbEntity
  8
1
  6
Continuous
100
AcDbLine
 10
192.5835280808853
 20
194.8419928955896
 30
0.0
 11
184.7123080808853
 21
184.7672938955896
 31
0.0
  0
ARC
  5
35C
330
18
100
AcDbEntity
  8
1
  6
Continuous
100
AcDbCircle
 10
200.4686140808852
 20
204.8936498955896
 30
0.0
 40
25.0
100
AcDbArc
 50
234.5441200000003
 51
276.0268299999996
  0
LINE
  5
35D
330
18
100
AcDbEntity
  8
5
  6
PHANTOM
 48
0.3
100
AcDbLine
 10
192.8520210808855
 20
204.8423858955894
 30
0.0
 11
179.1264580808853
 21
212.5641838955895
 31
0.0
  0
ARC
  5
35E
330
18
100
AcDbEntity
  8
1
  6
Continuous
100
AcDbCircle
 10
187.7214210808853
 20
196.6867728955896
 30
0.0
 40
3.099999899999998
100
AcDbArc
 50
260.5688099652803
 51
39.43122695261204
  0
LINE
  5
35F
330
18
100
AcDbEntity
  8
1
  6
Continuous
100
AcDbLine
 10
192.5835280808853
 20
194.8419928955896
 30
0.0
 11
189.4064570808853
 21
210.2667708955896
 31
0.0
  0
ARC
  5
360
330
18
100
AcDbEntity
  8
5
  6
PHANTOM
 48
0.3
100
AcDbCircle
 10
188.2699210808853
 20
202.3831898955894
 30
0.0
 40
3.099999899999998
100
AcDbArc
 50
309.5688370432899
 51
88.43112830631673
  0
CIRCLE
  5
362
330
18
100
AcDbEntity
  8
1
  6
Continuous
100
AcDbCircle
 10
181.7458430808853
 20
200.1367718955894
 30
0.0
 40
4.0
  0
CIRCLE
  5
363
330
18
100
AcDbEntity
  8
2
  6
Continuous
100
AcDbCircle
 10
181.7458430808853
 20
200.1367718955894
 30
0.0
 40
3.4000001
  0
LINE
  5
368
330
18
100
AcDbEntity
  8
5
  6
PHANTOM
 48
0.3
100
AcDbLine
 10
202.2423720808853
 20
211.0379808955896
 30
0.0
 11
204.6732720808853
 21
198.5320488955896
 31
0.0
  0
LINE
  5
369
330
18
100
AcDbEntity
  8
5
  6
PHANTOM
 48
0.3
100
AcDbLine
 10
192.8520210808855
 20
204.8423858955894
 30
0.0
 11
195.2915050808853
 21
192.2923108955894
 31
0.0
  0
ARC
  5
36A
330
18
100
AcDbEntity
  8
1
  6
Continuous
100
AcDbCircle
 10
201.7349100808853
 20
201.9051508955896
 30
0.0
 40
4.0
100
AcDbArc
 50
194.34153
 51
232.0000000000004
  0
LINE
  5
36B
330
18
100
AcDbEntity
  8
1
  6
Continuous
100
AcDbLine
 10
192.5835200808853
 20
194.8419968955896
 30
0.0
 11
202.3452770808853
 21
192.8674828955896
 31
0.0
  0
ARC
  5
36C
330
18
100
AcDbEntity
  8
1
  6
Continuous
100
AcDbCircle
 10
201.7349100808853
 20
201.9051508955896
 30
0.0
 40
6.0
100
AcDbArc
 50
194.34153
 51
232.0000000000004
  0
LINE
  5
36D
330
18
100
AcDbEntity
  8
5
  6
PHANTOM
 48
0.3
100
AcDbLine
 10
192.8520210808855
 20
204.8423858955894
 30
0.0
 11
200.7464910808853
 21
210.9142818955894
 31
0.0
  0
ARC
  5
36E
330
18
100
AcDbEntity
  8
5
  6
PHANTOM
 48
0.3
100
AcDbCircle
 10
193.5252390808854
 20
216.3828738955894
 30
0.0
 40
6.0
100
AcDbArc
 50
243.3415399999999
 51
280.9999999999998
  0
ARC
  5
36F
330
18
100
AcDbEntity
  8
5
  6
PHANTOM
 48
0.3
100
AcDbCircle
 10
193.5252390808854
 20
216.3828738955894
 30
0.0
 40
4.0
100
AcDbArc
 50
243.3415399999999
 51
280.9999999999998
  0
LINE
  5
370
330
18
100
AcDbEntity
  8
1
  6
Continuous
100
AcDbLine
 10
222.3902220808855
 20
180.6913738955896
 30
0.0
 11
221.1588980808854
 21
179.1153548955896
 31
0.0
  0
LINE
  5
371
330
18
100
AcDbEntity
  8
1
  6
Continuous
100
AcDbLine
 10
210.0479590808853
 20
187.7961748955895
 30
0.0
 11
206.9696510808852
 21
183.8561228955896
 31
0.0
  0
LINE
  5
372
330
18
100
AcDbEntity
  8
1
  6
Continuous
100
AcDbLine
 10
206.9696510808852
 20
183.8561228955896
 30
0.0
 11
209.9640890808854
 21
181.5166068955896
 31
0.0
  0
LINE
  5
373
330
18
100
AcDbEntity
  8
1
  6
Continuous
100
AcDbLine
 10
213.0423980808854
 20
185.4566588955896
 30
0.0
 11
209.9640890808854
 21
181.5166068955896
 31
0.0
  0
ARC
  5
374
330
18
100
AcDbEntity
  8
1
  6
Continuous
100
AcDbCircle
 10
216.3045890808855
 20
179.1009118955896
 30
0.0
 40
3.0
100
AcDbArc
 50
52.00000299999977
 51
138.87322
  0
ARC
  5
375
330
18
100
AcDbEntity
  8
5
  6
PHANTOM
 48
0.3
100
AcDbCircle
 10
209.3980650808854
 20
210.9110178955896
 30
0.0
 40
8.0
100
AcDbArc
 50
280.9999999999998
 51
7.873223900000185
  0
ARC
  5
376
330
18
100
AcDbEntity
  8
1
  6
Continuous
100
AcDbCircle
 10
181.7458430808853
 20
200.1367718955894
 30
0.0
 40
27.5
100
AcDbArc
 50
342.6542100000001
 51
26.68689799999993
  0
LINE
  5
377
330
18
100
AcDbEntity
  8
5
  6
PHANTOM
 48
0.3
100
AcDbLine
 10
210.5813070808855
 20
208.4923568955896
 30
0.0
 11
214.3114940808855
 21
209.2174318955895
 31
0.0
  0
ARC
  5
37A
330
18
100
AcDbEntity
  8
1
  6
Continuous
100
AcDbCircle
 10
178.6259010808853
 20
219.9598888955894
 30
0.0
 40
4.0
100
AcDbArc
 50
232.0000000000004
 51
269.6584599999997
  0
ARC
  5
37B
330
18
100
AcDbEntity
  8
1
  6
Continuous
100
AcDbCircle
 10
191.2458430808855
 20
252.6367778955894
 30
0.0
 40
1.0
100
AcDbArc
 50
90.00000300000015
 51
172.3953100000001
  0
ARC
  5
37C
330
18
100
AcDbEntity
  8
1
  6
Continuous
100
AcDbCircle
 10
189.2576840808853
 20
243.6608698955895
 30
0.0
 40
4.0
100
AcDbArc
 50
104.65275
 51
169.11415
  0
LINE
  5
37D
330
18
100
AcDbEntity
  8
1
  6
Continuous
100
AcDbLine
 10
175.5458460808853
 20
242.3644218955895
 30
0.0
 11
189.1569530808853
 21
244.7644268955896
 31
0.0
  0
ARC
  5
37E
330
18
100
AcDbEntity
  8
1
  6
Continuous
100
AcDbCircle
 10
175.9489910808853
 20
239.8969402955895
 30
0.0
 40
2.5
100
AcDbArc
 50
348.66444
 51
100.0000000000001
  0
ARC
  5
37F
330
18
100
AcDbEntity
  8
1
  6
Continuous
100
AcDbCircle
 10
177.4293830808854
 20
239.6502608955896
 30
0.0
 40
1.0
100
AcDbArc
 50
348.66444
 51
100.0000000000001
  0
LINE
  5
380
330
18
100
AcDbEntity
  8
1
  6
Continuous
100
AcDbLine
 10
175.5458460808853
 20
242.3644218955895
 30
0.0
 11
175.8931440808853
 21
240.3948049955894
 31
0.0
  0
LINE
  5
381
330
18
100
AcDbEntity
  8
1
  6
Continuous
100
AcDbLine
 10
175.8931440808853
 20
240.3948049955894
 30
0.0
 11
177.2557380808853
 21
240.6350679955894
 31
0.0
  0
ARC
  5
382
330
18
100
AcDbEntity
  8
1
  6
Continuous
100
AcDbCircle
 10
184.8386580808853
 20
244.5107088955894
 30
0.0
 40
0.5
100
AcDbArc
 50
280.0
 51
349.1141499999995
  0
ARC
  5
383
330
18
100
AcDbEntity
  8
1
  6
Continuous
100
AcDbCircle
 10
181.7458430808853
 20
252.1367778955895
 30
0.0
 40
1.5
100
AcDbArc
 50
33.06801899999995
 51
90.00000300000015
  0
LINE
  5
384
330
18
100
AcDbEntity
  8
1
  6
Continuous
100
AcDbLine
 10
189.8943570808853
 20
250.0706078955896
 30
0.0
 11
190.2546400808853
 21
252.7691158955895
 31
0.0
  0
ARC
  5
385
330
18
100
AcDbEntity
  8
1
  6
Continuous
100
AcDbCircle
 10
189.3987510808853
 20
252.6367778955894
 30
0.0
 40
3.0
100
AcDbArc
 50
194.8123899999999
 51
270.0
  0
ARC
  5
386
330
18
100
AcDbEntity
  8
1
  6
Continuous
100
AcDbCircle
 10
187.2458430808853
 20
251.9367768955894
 30
0.0
 40
3.0
100
AcDbArc
 50
213.0681
 51
269.9999599999999
  0
ARC
  5
387
330
18
100
AcDbEntity
  8
1
  6
Continuous
100
AcDbCircle
 10
189.3987510808853
 20
250.1367778955895
 30
0.0
 40
0.5
100
AcDbArc
 50
270.0
 51
352.3953099999997
  0
ARC
  5
388
330
18
100
AcDbEntity
  8
1
  6
Continuous
100
AcDbCircle
 10
192.3458410808853
 20
249.4087768955894
 30
0.0
 40
2.778000099999998
100
AcDbArc
 50
189.7823799999999
 51
222.5338800000002
  0
LINE
  5
389
330
18
100
AcDbEntity
  8
1
  6
Continuous
100
AcDbLine
 10
186.2280210808853
 20
252.8924308955895
 30
0.0
 11
186.4984480808853
 21
251.8698118955894
 31
0.0
  0
LINE
  5
38A
330
18
100
AcDbEntity
  8
1
  6
Continuous
100
AcDbLine
 10
184.7317740808854
 20
250.2998728955895
 30
0.0
 11
183.0028810808853
 21
252.9552288955894
 31
0.0
  0
ARC
  5
38B
330
18
100
AcDbEntity
  8
1
  6
Continuous
100
AcDbCircle
 10
185.2612540808853
 20
252.6367778955894
 30
0.0
 40
1.0
100
AcDbArc
 50
14.812389
 51
90.00000300000015
  0
ARC
  5
38C
330
18
100
AcDbEntity
  8
1
  6
Continuous
100
AcDbCircle
 10
196.3458410808853
 20
249.4087768955894
 30
0.0
 40
2.778000099999998
100
AcDbArc
 50
189.7823799999999
 51
222.5338800000002
  0
ARC
  5
38D
330
18
100
AcDbEntity
  8
1
  6
Continuous
100
AcDbCircle
 10
193.8458410808853
 20
249.4087768955894
 30
0.0
 40
2.778000099999998
100
AcDbArc
 50
189.7823799999999
 51
222.5338800000002
  0
ARC
  5
38E
330
18
100
AcDbEntity
  8
1
  6
Continuous
100
AcDbCircle
 10
199.8458410808853
 20
249.4087768955894
 30
0.0
 40
2.778000099999998
100
AcDbArc
 50
189.7823799999999
 51
222.5338800000002
  0
ARC
  5
38F
330
18
100
AcDbEntity
  8
1
  6
Continuous
100
AcDbCircle
 10
199.8458410808853
 20
249.4087768955894
 30
0.0
 40
2.778000099999998
100
AcDbArc
 50
317.4661199999996
 51
324.0896000000003
  0
ARC
  5
390
330
18
100
AcDbEntity
  8
1
  6
Continuous
100
AcDbCircle
 10
204.3458410808853
 20
249.4087768955894
 30
0.0
 40
2.778000099999998
100
AcDbArc
 50
189.7823799999999
 51
222.5338800000002
  0
LINE
  5
391
330
18
100
AcDbEntity
  8
5
  6
PHANTOM
 48
0.3
100
AcDbLine
 10
223.0865790808854
 20
218.0541528955894
 30
0.0
 11
223.4682020808854
 21
216.0908978955894
 31
0.0
  0
LINE
  5
392
330
18
100
AcDbEntity
  8
1
  6
Continuous
100
AcDbLine
 10
231.2458430808855
 20
247.5307768955896
 30
0.0
 11
188.2458442658203
 21
247.5307768955896
 31
0.0
  0
LINE
  5
393
330
18
100
AcDbEntity
  8
1
  6
Continuous
100
AcDbLine
 10
232.2458430808854
 20
248.9367768955894
 30
0.0
 11
187.2458430808853
 21
248.9367768955894
 31
0.0
  0
ARC
  5
394
330
18
100
AcDbEntity
  8
1
  6
Continuous
100
AcDbCircle
 10
209.7458430808853
 20
249.4087768955894
 30
0.0
 40
2.778000099999998
100
AcDbArc
 50
189.7823799999999
 51
222.5338800000002
  0
ARC
  5
395
330
18
100
AcDbEntity
  8
1
  6
Continuous
100
AcDbCircle
 10
204.3458410808853
 20
249.4087768955894
 30
0.0
 40
2.778000099999998
100
AcDbArc
 50
317.4661199999996
 51
346.3905399999999
  0
ARC
  5
396
330
18
100
AcDbEntity
  8
1
  6
Continuous
100
AcDbCircle
 10
215.1458450808853
 20
249.4087768955894
 30
0.0
 40
2.778000099999998
100
AcDbArc
 50
193.60946
 51
222.5338800000002
  0
ARC
  5
397
330
18
100
AcDbEntity
  8
1
  6
Continuous
100
AcDbCircle
 10
209.7458430808853
 20
249.4087768955894
 30
0.0
 40
2.778000099999998
100
AcDbArc
 50
317.4661199999996
 51
350.21762
  0
ARC
  5
398
330
18
100
AcDbEntity
  8
1
  6
Continuous
100
AcDbCircle
 10
219.6458450808854
 20
249.4087768955894
 30
0.0
 40
2.778000099999998
100
AcDbArc
 50
215.9104000000004
 51
222.5338800000002
  0
ARC
  5
399
330
18
100
AcDbEntity
  8
1
  6
Continuous
100
AcDbCircle
 10
215.1458450808853
 20
249.4087768955894
 30
0.0
 40
2.778000099999998
100
AcDbArc
 50
317.4661199999996
 51
350.21762
  0
ARC
  5
39A
330
18
100
AcDbEntity
  8
1
  6
Continuous
100
AcDbCircle
 10
231.2458430808855
 20
244.5307768955895
 30
0.0
 40
3.0
100
AcDbArc
 50
4.653094499999848
 51
90.00000300000015
  0
LINE
  5
39B
330
18
100
AcDbEntity
  8
1
  6
Continuous
100
AcDbLine
 10
228.8656230808853
 20
236.7940435955894
 30
0.0
 11
234.8458430808855
 21
237.2807783955895
 31
0.0
  0
ARC
  5
39C
330
18
100
AcDbEntity
  8
1
  6
Continuous
100
AcDbCircle
 10
229.3523530808855
 20
230.8138179955895
 30
0.0
 40
6.0
100
AcDbArc
 50
94.65309600000015
 51
140.2691499999999
  0
LINE
  5
39D
330
18
100
AcDbEntity
  8
1
  6
Continuous
100
AcDbLine
 10
234.8458430808855
 20
237.2807783955895
 30
0.0
 11
234.2359430808854
 21
244.7741438955894
 31
0.0
  0
ARC
  5
39E
330
18
100
AcDbEntity
  8
1
  6
Continuous
100
AcDbCircle
 10
228.2458430808854
 20
252.6367778955894
 30
0.0
 40
1.0
100
AcDbArc
 50
7.604693300000017
 51
89.99999600000005
  0
ARC
  5
39F
330
18
100
AcDbEntity
  8
1
  6
Continuous
100
AcDbCircle
 10
223.1458450808853
 20
249.4087768955894
 30
0.0
 40
2.778000099999998
100
AcDbArc
 50
317.4661199999996
 51
350.21762
  0
ARC
  5
3A0
330
18
100
AcDbEntity
  8
1
  6
Continuous
100
AcDbCircle
 10
219.6458450808854
 20
249.4087768955894
 30
0.0
 40
2.778000099999998
100
AcDbArc
 50
317.4661199999996
 51
350.21762
  0
ARC
  5
3A1
330
18
100
AcDbEntity
  8
1
  6
Continuous
100
AcDbCircle
 10
225.6458430808853
 20
249.4087768955894
 30
0.0
 40
2.778000099999998
100
AcDbArc
 50
317.4661199999996
 51
350.21762
  0
LINE
  5
3A2
330
18
100
AcDbEntity
  8
1
  6
Continuous
100
AcDbLine
 10
229.5973330808855
 20
250.0706078955896
 30
0.0
 11
229.2370430808853
 21
252.7691158955895
 31
0.0
  0
ARC
  5
3A3
330
18
100
AcDbEntity
  8
1
  6
Continuous
100
AcDbCircle
 10
230.0929330808854
 20
252.6367778955894
 30
0.0
 40
3.0
100
AcDbArc
 50
270.0
 51
345.18761
  0
ARC
  5
3A4
330
18
100
AcDbEntity
  8
1
  6
Continuous
100
AcDbCircle
 10
232.2458430808854
 20
251.9367768955894
 30
0.0
 40
3.0
100
AcDbArc
 50
269.9999799999996
 51
326.9318999999998
  0
ARC
  5
3A5
330
18
100
AcDbEntity
  8
1
  6
Continuous
100
AcDbCircle
 10
230.0929330808854
 20
250.1367778955895
 30
0.0
 40
0.5
100
AcDbArc
 50
187.6046899999998
 51
270.0
  0
ARC
  5
3A6
330
18
100
AcDbEntity
  8
1
  6
Continuous
100
AcDbCircle
 10
227.1458430808855
 20
249.4087768955894
 30
0.0
 40
2.778000099999998
100
AcDbArc
 50
317.4661199999996
 51
350.21762
  0
ARC
  5
3A7
330
18
100
AcDbEntity
  8
1
  6
Continuous
100
AcDbCircle
 10
234.2304330808855
 20
252.6367778955894
 30
0.0
 40
1.0
100
AcDbArc
 50
89.99999600000005
 51
165.18761
  0
LINE
  5
3A8
330
18
100
AcDbEntity
  8
1
  6
Continuous
100
AcDbLine
 10
233.2636530808855
 20
252.8924328955894
 30
0.0
 11
232.9932330808853
 21
251.8698138955894
 31
0.0
  0
LINE
  5
3A9
330
18
100
AcDbEntity
  8
1
  6
Continuous
100
AcDbLine
 10
236.4888130808854
 20
252.9552288955894
 30
0.0
 11
234.7599130808855
 21
250.2998728955895
 31
0.0
  0
LINE
  5
3AA
330
18
100
AcDbEntity
  8
4
  6
CENTER
 48
0.5
100
AcDbLine
 10
181.7458430808853
 20
383.6178317508506
 30
0.0
 11
181.7458430808853
 21
314.8978966453477
 31
0.0
  0
LINE
  5
3AB
330
18
100
AcDbEntity
  8
4
  6
CENTER
 48
0.5
100
AcDbLine
 10
237.2458330808855
 20
323.2178316508507
 30
0.0
 11
237.2458330808855
 21
342.0178318508507
 31
0.0
  0
LINE
  5
3AC
330
18
100
AcDbEntity
  8
4
  6
CENTER
 48
0.5
100
AcDbLine
 10
182.2458430808853
 20
323.2178316508507
 30
0.0
 11
182.2458430808853
 21
342.0178318508507
 31
0.0
  0
CIRCLE
  5
3AD
330
18
100
AcDbEntity
  8
1
  6
Continuous
100
AcDbCircle
 10
209.7458430808853
 20
353.6178317508506
 30
0.0
 40
21.49999999999999
  0
CIRCLE
  5
3AE
330
18
100
AcDbEntity
  8
1
  6
Continuous
100
AcDbCircle
 10
209.7458430808853
 20
353.6178317508506
 30
0.0
 40
23.5
  0
LINE
  5
3AF
330
18
100
AcDbEntity
  8
4
  6
CENTER
 48
0.5
100
AcDbLine
 10
209.7458430808853
 20
387.6178317508506
 30
0.0
 11
209.7458430808853
 21
319.6178317508507
 31
0.0
  0
ARC
  5
3B0
330
18
100
AcDbEntity
  8
1
  6
Continuous
100
AcDbCircle
 10
346.2038330808853
 20
353.6178317508506
 30
0.0
 40
103.46132
100
AcDbArc
 50
168.71589
 51
191.2840400000001
  0
CIRCLE
  5
3B1
330
18
100
AcDbEntity
  8
1
  6
Continuous
100
AcDbCircle
 10
237.2458330808855
 20
332.6178317508507
 30
0.0
 40
4.400000099999997
  0
ARC
  5
3B2
330
18
100
AcDbEntity
  8
1
  6
Continuous
100
AcDbCircle
 10
235.7458330808855
 20
333.6178317508506
 30
0.0
 40
9.0
100
AcDbArc
 50
270.0000200000004
 51
358.44251
  0
LINE
  5
3B3
330
18
100
AcDbEntity
  8
4
  6
CENTER
 48
0.5
100
AcDbLine
 10
227.8458329808855
 20
332.6178317508507
 30
0.0
 11
246.6458331808855
 21
332.6178317508507
 31
0.0
  0
LINE
  5
3B4
330
18
100
AcDbEntity
  8
1
  6
Continuous
100
AcDbLine
 10
244.7458430808854
 20
255.6367778955894
 30
0.0
 11
174.7458430808853
 21
255.6367778955894
 31
0.0
  0
ARC
  5
3B5
330
18
100
AcDbEntity
  8
1
  6
Continuous
100
AcDbCircle
 10
237.2204808656036
 20
368.1979710761752
 30
0.0
 40
62.25166321005164
100
AcDbArc
 50
231.7203431394618
 51
242.5309256609545
  0
ARC
  5
3B6
330
18
100
AcDbEntity
  8
1
  6
Continuous
100
AcDbCircle
 10
863.3690601706385
 20
1167.795288147887
 30
0.0
 40
1076.838718652249
100
AcDbArc
 50
231.9237503726183
 51
232.5452217603289
  0
LINE
  5
3B7
330
18
100
AcDbEntity
  8
1
  6
Continuous
100
AcDbLine
 10
183.7458350808853
 20
324.6178317508507
 30
0.0
 11
235.7458330808855
 21
324.6178317508507
 31
0.0
  0
ARC
  5
3B8
330
18
100
AcDbEntity
  8
1
  6
Continuous
100
AcDbCircle
 10
178.640939550967
 20
297.3427371269762
 30
0.0
 40
29.73302351983562
100
AcDbArc
 50
47.68979391933281
 51
66.53930032093803
  0
CIRCLE
  5
3B9
330
18
100
AcDbEntity
  8
1
  6
Continuous
100
AcDbCircle
 10
182.2458430808853
 20
332.6178317508507
 30
0.0
 40
4.400000099999997
  0
LINE
  5
3BB
330
18
100
AcDbEntity
  8
1
  6
Continuous
100
AcDbLine
 10
185.7458430808853
 20
320.2428627508506
 30
0.0
 11
177.7458430808853
 21
320.2428627508506
 31
0.0
  0
LINE
  5
3BC
330
18
100
AcDbEntity
  8
1
  6
Continuous
100
AcDbLine
 10
185.1208430808853
 20
319.6178627508507
 30
0.0
 11
178.3708430808853
 21
319.6178627508507
 31
0.0
  0
LINE
  5
3BE
330
18
100
AcDbEntity
  8
1
  6
Continuous
100
AcDbLine
 10
176.388085538581
 20
328.434839955694
 30
0.0
 11
176.3844571006308
 21
323.9544589649327
 31
0.0
  0
ARC
  5
3BF
330
18
100
AcDbEntity
  8
1
  6
Continuous
100
AcDbCircle
 10
186.350685029025
 20
306.5927021825164
 30
0.0
 40
18.70551547513595
100
AcDbArc
 50
103.4237812087269
 51
114.4716587055382
  0
LINE
  5
3C0
330
18
100
AcDbEntity
  8
1
  6
Continuous
100
AcDbLine
 10
177.7458430808853
 20
323.1178797508508
 30
0.0
 11
177.7458430808853
 21
320.2428627508506
 31
0.0
  0
LINE
  5
3C1
330
18
100
AcDbEntity
  8
1
  6
Continuous
100
AcDbLine
 10
178.3708450808854
 20
319.6178647508506
 30
0.0
 11
177.7458460808853
 21
320.2428627508506
 31
0.0
  0
LINE
  5
3C2
330
18
100
AcDbEntity
  8
2
  6
Continuous
100
AcDbLine
 10
178.3708430808853
 20
323.1178797508508
 30
0.0
 11
178.3708430808853
 21
319.6178627508507
 31
0.0
  0
LINE
  5
3C4
330
18
100
AcDbEntity
  8
1
  6
Continuous
100
AcDbLine
 10
185.7458430808853
 20
323.1178797508508
 30
0.0
 11
185.7458430808853
 21
320.2428627508506
 31
0.0
  0
LINE
  5
3C6
330
18
100
AcDbEntity
  8
1
  6
Continuous
100
AcDbLine
 10
185.7458450808854
 20
320.2428607508506
 30
0.0
 11
185.1208450808853
 21
319.6178607508507
 31
0.0
  0
LINE
  5
3C7
330
18
100
AcDbEntity
  8
2
  6
Continuous
100
AcDbLine
 10
185.1208430808853
 20
323.1178797508508
 30
0.0
 11
185.1208430808853
 21
319.6178627508507
 31
0.0
  0
ARC
  5
3CA
330
18
100
AcDbEntity
  8
1
  6
Continuous
100
AcDbCircle
 10
186.350685029025
 20
306.5927021825164
 30
0.0
 40
18.70551547513595
100
AcDbArc
 50
46.30734432166614
 51
74.49914283296846
  0
LINE
  5
3CB
330
18
100
AcDbEntity
  8
1
  6
Continuous
100
AcDbLine
 10
195.5436417260048
 20
324.6178317508507
 30
0.0
 11
195.5436417260048
 21
323.4352396339208
 31
0.0
  0
ARC
  5
3CC
330
18
100
AcDbEntity
  8
1
  6
Continuous
100
AcDbCircle
 10
209.6569884048555
 20
322.6448177789519
 30
0.0
 40
12.98156091158014
100
AcDbArc
 50
301.7134573937847
 51
8.742028845065167
  0
ARC
  5
3CD
330
18
100
AcDbEntity
  8
1
  6
Continuous
100
AcDbCircle
 10
213.8129184868219
 20
320.0043004436257
 30
0.0
 40
8.816165241644052
100
AcDbArc
 50
232.9874037232061
 51
287.6161134103075
  0
CIRCLE
  5
3CE
330
18
100
AcDbEntity
  8
1
  6
Continuous
100
AcDbCircle
 10
237.2458330808855
 20
374.6178317508506
 30
0.0
 40
4.400000099999997
  0
LINE
  5
3D0
330
18
100
AcDbEntity
  8
4
  6
CENTER
 48
0.5
100
AcDbLine
 10
227.8458329808855
 20
374.6178317508506
 30
0.0
 11
246.6458331808855
 21
374.6178317508506
 31
0.0
  0
LINE
  5
3D1
330
18
100
AcDbEntity
  8
4
  6
CENTER
 48
0.5
100
AcDbLine
 10
182.2458430808853
 20
384.0178318508506
 30
0.0
 11
182.2458430808853
 21
365.2178316508506
 31
0.0
  0
LINE
  5
3D2
330
18
100
AcDbEntity
  8
1
  6
Continuous
100
AcDbLine
 10
183.7458350808853
 20
382.6178317508506
 30
0.0
 11
235.7458330808855
 21
382.6178317508506
 31
0.0
  0
CIRCLE
  5
3D3
330
18
100
AcDbEntity
  8
1
  6
Continuous
100
AcDbCircle
 10
209.7458430808853
 20
353.6178317508506
 30
0.0
 40
9.5
  0
CIRCLE
  5
3D4
330
18
100
AcDbEntity
  8
1
  6
Continuous
100
AcDbCircle
 10
209.7458430808853
 20
353.6178317508506
 30
0.0
 40
12.0
  0
ARC
  5
3D5
330
18
100
AcDbEntity
  8
1
  6
Continuous
100
AcDbCircle
 10
225.7710230808855
 20
353.6178317508506
 30
0.0
 40
50.22517
100
AcDbArc
 50
169.6851399999999
 51
190.3148699999999
  0
CIRCLE
  5
3D6
330
18
100
AcDbEntity
  8
1
  6
Continuous
100
AcDbCircle
 10
182.2458430808853
 20
374.6178317508506
 30
0.0
 40
4.400000099999997
  0
LINE
  5
3D7
330
18
100
AcDbEntity
  8
4
  6
CENTER
 48
0.5
100
AcDbLine
 10
237.2458330808855
 20
384.0178318508506
 30
0.0
 11
237.2458330808855
 21
365.2178316508506
 31
0.0
  0
ARC
  5
41A
330
18
100
AcDbEntity
  8
1
  6
Continuous
100
AcDbCircle
 10
235.7458330808855
 20
373.6178317508506
 30
0.0
 40
9.0
100
AcDbArc
 50
1.557439383597903
 51
89.99998199999998
  0
ARC
  5
501
330
18
100
AcDbEntity
  8
1
  6
Continuous
100
AcDbCircle
 10
26.20571911244486
 20
239.3513367797551
 30
0.0
 40
1.5
100
AcDbArc
 50
86.39330478436603
 51
180.0
  0
ARC
  5
502
330
18
100
AcDbEntity
  8
1
  6
Continuous
100
AcDbCircle
 10
29.70571911244486
 20
234.3593594404842
 30
0.0
 40
2.0
100
AcDbArc
 50
103.2480149056767
 51
180.0
  0
ARC
  5
503
330
18
100
AcDbEntity
  8
1
  6
Continuous
100
AcDbCircle
 10
51.70571911244485
 20
165.9141863506948
 30
0.0
 40
2.0
100
AcDbArc
 50
283.2480149056771
 51
0.0
  0
ARC
  5
504
330
18
100
AcDbEntity
  8
1
  6
Continuous
100
AcDbCircle
 10
147.5232575359908
 20
364.6178317508506
 30
0.0
 40
2.0
100
AcDbArc
 50
90.0
 51
166.7519850943237
  0
LINE
  5
507
330
18
100
AcDbEntity
  8
4
  6
CENTER
 48
0.5
100
AcDbLine
 10
343.6423190493261
 20
260.6367778955894
 30
0.0
 11
343.6423190493261
 21
157.6367718955896
 31
0.0
  0
LINE
  5
508
330
18
100
AcDbEntity
  8
1
  6
Continuous
100
AcDbLine
 10
319.1429520493259
 20
244.5923948955894
 30
0.0
 11
318.6147787292199
 21
218.8825300970978
 31
0.0
  0
LINE
  5
50B
330
18
100
AcDbEntity
  8
1
  6
Continuous
100
AcDbLine
 10
368.6765990493261
 20
218.5550798955894
 30
0.0
 11
368.141689049326
 21
244.5923948955894
 31
0.0
  0
LINE
  5
50D
330
18
100
AcDbEntity
  8
4
  6
CENTER
 48
0.5
100
AcDbLine
 10
370.6422690493261
 20
200.1367718955894
 30
0.0
 11
304.6423040493261
 21
200.1367718955894
 31
0.0
  0
ARC
  5
50F
330
18
100
AcDbEntity
  8
1
  6
Continuous
100
AcDbCircle
 10
315.8221900493261
 20
222.7422141955896
 30
0.0
 40
12.743032
100
AcDbArc
 50
75.80133977149879
 51
137.4684559999998
  0
LINE
  5
512
330
18
100
AcDbEntity
  8
1
  6
Continuous
100
AcDbLine
 10
321.0423210493261
 20
178.3359128955894
 30
0.0
 11
319.0423210493261
 21
178.3359128955894
 31
0.0
  0
LINE
  5
51D
330
18
100
AcDbEntity
  8
1
  6
Continuous
100
AcDbLine
 10
328.6423190493259
 20
214.9867708955894
 30
0.0
 11
328.6423190493263
 21
185.2867750229249
 31
0.0
  0
LINE
  5
51E
330
18
100
AcDbEntity
  8
1
  6
Continuous
100
AcDbLine
 10
330.6423190493259
 20
234.3593561955894
 30
0.0
 11
330.6423190493259
 21
165.9141863506948
 31
0.0
  0
LINE
  5
51F
330
18
100
AcDbEntity
  8
1
  6
Continuous
100
AcDbLine
 10
356.6423190493261
 20
234.3593594404842
 30
0.0
 11
356.6423190493261
 21
165.9141898955896
 31
0.0
  0
LINE
  5
520
330
18
100
AcDbEntity
  8
1
  6
Continuous
100
AcDbLine
 10
359.642319049326
 20
236.7421453559718
 30
0.0
 11
359.642319049326
 21
185.1367698955894
 31
0.0
  0
LINE
  5
521
330
18
100
AcDbEntity
  8
1
  6
Continuous
100
AcDbLine
 10
327.6423190493261
 20
236.7421453559718
 30
0.0
 11
327.6423190493261
 21
189.1367738955896
 31
0.0
  0
LINE
  5
523
330
18
100
AcDbEntity
  8
1
  6
Continuous
100
AcDbLine
 10
365.6422690493261
 20
194.1367698955894
 30
0.0
 11
365.6422690493261
 21
203.5019307675223
 31
0.0
  0
LINE
  5
524
330
18
100
AcDbEntity
  8
1
  6
Continuous
100
AcDbLine
 10
361.642319049326
 20
196.5949162979344
 30
0.0
 11
361.642319049326
 21
189.1367738955896
 31
0.0
  0
LINE
  5
526
330
18
100
AcDbEntity
  8
1
  6
Continuous
100
AcDbLine
 10
325.6423190493261
 20
196.5949162979344
 30
0.0
 11
325.6423190493261
 21
184.7673018955896
 31
0.0
  0
ARC
  5
527
330
18
100
AcDbEntity
  8
1
  6
Continuous
100
AcDbCircle
 10
343.6423190493261
 20
212.6367718955894
 30
0.0
 40
50.0
100
AcDbArc
 50
256.751985094323
 51
283.2480899999998
  0
ARC
  5
528
330
18
100
AcDbEntity
  8
1
  6
Continuous
100
AcDbCircle
 10
354.6423190493261
 20
165.9141898955896
 30
0.0
 40
2.0
100
AcDbArc
 50
283.2481599999995
 51
0.0000199999999843
  0
ARC
  5
529
330
18
100
AcDbEntity
  8
1
  6
Continuous
100
AcDbCircle
 10
357.642319049326
 20
185.1367698955894
 30
0.0
 40
2.0
100
AcDbArc
 50
301.0027199999997
 51
359.9999500000001
  0
LINE
  5
52A
330
18
100
AcDbEntity
  8
1
  6
Continuous
100
AcDbLine
 10
361.642319049326
 20
189.1367738955896
 30
0.0
 11
359.642319049326
 21
189.1367738955896
 31
0.0
  0
LINE
  5
52B
330
18
100
AcDbEntity
  8
1
  6
Continuous
100
AcDbLine
 10
357.127239049326
 20
182.4939178955895
 30
0.0
 11
358.6724790493261
 21
183.4224908955896
 31
0.0
  0
ARC
  5
52C
330
18
100
AcDbEntity
  8
1
  6
Continuous
100
AcDbCircle
 10
357.642319049326
 20
181.6367698955894
 30
0.0
 40
1.0
100
AcDbArc
 50
121.002704
 51
179.9999640278219
  0
LINE
  5
52D
330
18
100
AcDbEntity
  8
1
  6
Continuous
100
AcDbLine
 10
364.1422690493261
 20
196.6367698955894
 30
0.0
 11
363.142269049326
 21
196.6367698955894
 31
0.0
  0
LINE
  5
52E
330
18
100
AcDbEntity
  8
1
  6
Continuous
100
AcDbLine
 10
364.1422690493261
 20
197.1367698955894
 30
0.0
 11
363.142269049326
 21
197.1367698955894
 31
0.0
  0
LINE
  5
52F
330
18
100
AcDbEntity
  8
1
  6
Continuous
100
AcDbLine
 10
364.1422690493261
 20
192.6367698955894
 30
0.0
 11
363.142269049326
 21
192.6367698955894
 31
0.0
  0
ARC
  5
530
330
18
100
AcDbEntity
  8
1
  6
Continuous
100
AcDbCircle
 10
364.1422690493261
 20
195.1367698955894
 30
0.0
 40
1.5
100
AcDbArc
 50
359.9999899999998
 51
90.00003200000014
  0
ARC
  5
531
330
18
100
AcDbEntity
  8
1
  6
Continuous
100
AcDbCircle
 10
364.1422690493261
 20
198.6367698955895
 30
0.0
 40
1.5
100
AcDbArc
 50
270.0
 51
359.9999899999998
  0
ARC
  5
532
330
18
100
AcDbEntity
  8
1
  6
Continuous
100
AcDbCircle
 10
364.1422690493261
 20
194.1367698955894
 30
0.0
 40
1.5
100
AcDbArc
 50
270.0
 51
359.9999899999998
  0
ARC
  5
533
330
18
100
AcDbEntity
  8
1
  6
Continuous
100
AcDbCircle
 10
363.142269049326
 20
198.6367698955895
 30
0.0
 40
1.5
100
AcDbArc
 50
233.2280358004439
 51
270.0
  0
ARC
  5
534
330
18
100
AcDbEntity
  8
1
  6
Continuous
100
AcDbCircle
 10
363.142269049326
 20
195.1367698955894
 30
0.0
 40
1.5
100
AcDbArc
 50
90.0000380000004
 51
180.0
  0
ARC
  5
535
330
18
100
AcDbEntity
  8
1
  6
Continuous
100
AcDbCircle
 10
363.142269049326
 20
194.1367698955894
 30
0.0
 40
1.5
100
AcDbArc
 50
180.0
 51
270.0
  0
LINE
  5
536
330
18
100
AcDbEntity
  8
1
  6
Continuous
100
AcDbLine
 10
322.4697665265721
 20
198.4414034978017
 30
0.0
 11
321.0423210493261
 21
189.3721938703331
 31
0.0
  0
ARC
  5
537
330
18
100
AcDbEntity
  8
1
  6
Continuous
100
AcDbCircle
 10
332.6423190493259
 20
165.9141863506948
 30
0.0
 40
2.0
100
AcDbArc
 50
180.0
 51
256.7519850943229
  0
ARC
  5
538
330
18
100
AcDbEntity
  8
1
  6
Continuous
100
AcDbCircle
 10
329.6423190493261
 20
185.2867758955894
 30
0.0
 40
1.0
100
AcDbArc
 50
180.00005
 51
270.0000399999999
  0
LINE
  5
539
330
18
100
AcDbEntity
  8
1
  6
Continuous
100
AcDbLine
 10
330.6423190493259
 20
184.2867758955894
 30
0.0
 11
329.6423190493261
 21
184.2867758955894
 31
0.0
  0
ARC
  5
53A
330
18
100
AcDbEntity
  8
1
  6
Continuous
100
AcDbCircle
 10
308.1977390493261
 20
195.9127258955895
 30
0.0
 40
20.0
100
AcDbArc
 50
309.9582299999998
 51
325.3085499999999
  0
LINE
  5
53B
330
18
100
AcDbEntity
  8
1
  6
Continuous
100
AcDbLine
 10
324.6423190493259
 20
184.5295928955894
 30
0.0
 11
325.6423190493261
 21
184.7673018955896
 31
0.0
  0
LINE
  5
53C
330
18
100
AcDbEntity
  8
1
  6
Continuous
100
AcDbLine
 10
327.6423190493261
 20
189.1367698955896
 30
0.0
 11
325.6423190493261
 21
189.1367698955896
 31
0.0
  0
LINE
  5
53D
330
18
100
AcDbEntity
  8
1
  6
Continuous
100
AcDbLine
 10
327.6423190493261
 20
189.1367738955896
 30
0.0
 11
325.6423190493261
 21
189.1367738955896
 31
0.0
  0
LINE
  5
53F
330
18
100
AcDbEntity
  8
1
  6
Continuous
100
AcDbLine
 10
328.6423190493259
 20
196.1367738955896
 30
0.0
 11
327.6423110493261
 21
196.1367738955896
 31
0.0
  0
ARC
  5
541
330
18
100
AcDbEntity
  8
1
  6
Continuous
100
AcDbCircle
 10
343.6423190493261
 20
187.6367738955896
 30
0.0
 40
50.0
100
AcDbArc
 50
76.75198509432309
 51
82.64680646052878
  0
ARC
  5
545
330
18
100
AcDbEntity
  8
1
  6
Continuous
100
AcDbCircle
 10
332.6812140493261
 20
217.9784238955896
 30
0.0
 40
36.0
100
AcDbArc
 50
323.5595970069072
 51
26.68053465466545
  0
ARC
  5
549
330
18
100
AcDbEntity
  8
1
  6
Continuous
100
AcDbCircle
 10
364.1422690493261
 20
201.6367718955895
 30
0.0
 40
1.5
100
AcDbArc
 50
359.9999899999998
 51
42.24939591270445
  0
ARC
  5
54F
330
18
100
AcDbEntity
  8
1
  6
Continuous
100
AcDbCircle
 10
357.642319049326
 20
215.1367718955895
 30
0.0
 40
2.0
100
AcDbArc
 50
359.9999899999998
 51
58.99723000000038
  0
ARC
  5
550
330
18
100
AcDbEntity
  8
1
  6
Continuous
100
AcDbCircle
 10
357.642319049326
 20
218.6367718955894
 30
0.0
 40
1.0
100
AcDbArc
 50
179.9999813306651
 51
238.9972399999999
  0
LINE
  5
551
330
18
100
AcDbEntity
  8
1
  6
Continuous
100
AcDbLine
 10
357.127239049326
 20
217.7796278955895
 30
0.0
 11
358.6724690493261
 21
216.8510578955895
 31
0.0
  0
ARC
  5
553
330
18
100
AcDbEntity
  8
1
  6
Continuous
100
AcDbCircle
 10
354.6423190493261
 20
234.3593594404842
 30
0.0
 40
2.0
100
AcDbArc
 50
0.000000000000007
 51
76.75198509432313
  0
LINE
  5
555
330
18
100
AcDbEntity
  8
1
  6
Continuous
100
AcDbLine
 10
329.0423210493261
 20
222.1623496955894
 30
0.0
 11
329.0423210493261
 21
219.4534378955895
 31
0.0
  0
LINE
  5
556
330
18
100
AcDbEntity
  8
1
  6
Continuous
100
AcDbLine
 10
328.6423190493259
 20
204.1367718955895
 30
0.0
 11
327.6423110493261
 21
204.1367718955895
 31
0.0
  0
LINE
  5
558
330
18
100
AcDbEntity
  8
1
  6
Continuous
100
AcDbLine
 10
328.3423160493261
 20
217.8774198955895
 30
0.0
 11
329.0423210493261
 21
219.4534428955896
 31
0.0
  0
ARC
  5
559
330
18
100
AcDbEntity
  8
1
  6
Continuous
100
AcDbCircle
 10
329.6423190493261
 20
214.9867708955894
 30
0.0
 40
1.0
100
AcDbArc
 50
89.99996300000018
 51
179.999945358487
  0
LINE
  5
55A
330
18
100
AcDbEntity
  8
1
  6
Continuous
100
AcDbLine
 10
330.6423190493259
 20
215.9867708955894
 30
0.0
 11
329.6423190493261
 21
215.9867708955894
 31
0.0
  0
ARC
  5
55B
330
18
100
AcDbEntity
  8
1
  6
Continuous
100
AcDbCircle
 10
327.8536840493261
 20
217.7714228955895
 30
0.0
 40
0.5
100
AcDbArc
 50
12.23896000000012
 51
89.99999699999987
  0
LINE
  5
55F
330
18
100
AcDbEntity
  8
1
  6
Continuous
100
AcDbLine
 10
327.8536840493261
 20
218.2714228955894
 30
0.0
 11
327.6423190493261
 21
218.2714228955894
 31
0.0
  0
ARC
  5
560
330
18
100
AcDbEntity
  8
1
  6
Continuous
100
AcDbCircle
 10
343.6423190493261
 20
-133.8005721044102
 30
0.0
 40
371.0813299999998
100
AcDbArc
 50
87.37938244938026
 51
92.62061755061971
  0
ARC
  5
562
330
18
100
AcDbEntity
  8
1
  6
Continuous
100
AcDbCircle
 10
328.2468490493262
 20
221.5563544955895
 30
0.0
 40
1.0
100
AcDbArc
 50
37.3004500000001
 51
89.99999699999987
  0
LINE
  5
563
330
18
100
AcDbEntity
  8
1
  6
Continuous
100
AcDbLine
 10
328.2468490493262
 20
222.5563544955896
 30
0.0
 11
327.6423190493261
 21
222.5563544955896
 31
0.0
  0
ARC
  5
568
330
18
100
AcDbEntity
  8
1
  6
Continuous
100
AcDbCircle
 10
332.6423190493259
 20
234.3593561955894
 30
0.0
 40
2.0
100
AcDbArc
 50
103.2480919999998
 51
179.999945358487
  0
LINE
  5
56D
330
18
100
AcDbEntity
  8
1
  6
Continuous
100
AcDbLine
 10
310.2673040493261
 20
204.1367718955895
 30
0.0
 11
310.2673040493261
 21
198.9347775192173
 31
0.0
  0
LINE
  5
56E
330
18
100
AcDbEntity
  8
1
  6
Continuous
100
AcDbLine
 10
309.6423040493261
 20
203.5117718955895
 30
0.0
 11
309.6423040493261
 21
198.1359998955896
 31
0.0
  0
ARC
  5
56F
330
18
100
AcDbEntity
  8
1
  6
Continuous
100
AcDbCircle
 10
311.110169049326
 20
191.1453528955894
 30
0.0
 40
12.03
100
AcDbArc
 50
219.4268000000004
 51
306.3807624640086
  0
LINE
  5
570
330
18
100
AcDbEntity
  8
1
  6
Continuous
100
AcDbLine
 10
319.0423210493261
 20
181.0575376391075
 30
0.0
 11
319.0423210493261
 21
178.3359128955894
 31
0.0
  0
LINE
  5
572
330
18
100
AcDbEntity
  8
1
  6
Continuous
100
AcDbLine
 10
310.0423740085502
 20
198.622407087428
 30
0.0
 11
301.9253540493259
 21
188.7536908955896
 31
0.0
  0
LINE
  5
57F
330
18
100
AcDbEntity
  8
1
  6
Continuous
100
AcDbLine
 10
301.2423170493261
 20
186.8479898955894
 30
0.0
 11
301.2423170493261
 21
185.2719628955895
 31
0.0
  0
ARC
  5
580
330
18
100
AcDbEntity
  8
1
  6
Continuous
100
AcDbCircle
 10
304.2423170493261
 20
185.2719628955895
 30
0.0
 40
3.0
100
AcDbArc
 50
180.0
 51
216.0806499999998
  0
ARC
  5
581
330
18
100
AcDbEntity
  8
1
  6
Continuous
100
AcDbCircle
 10
304.2423170493261
 20
186.8479898955894
 30
0.0
 40
3.0
100
AcDbArc
 50
140.5627099999997
 51
180.0
  0
LINE
  5
582
330
18
100
AcDbEntity
  8
1
  6
Continuous
100
AcDbLine
 10
313.642319049326
 20
213.9598918955896
 30
0.0
 11
306.0905840493262
 21
226.1750669955894
 31
0.0
  0
ARC
  5
583
330
18
100
AcDbEntity
  8
1
  6
Continuous
100
AcDbCircle
 10
314.6423190493262
 20
210.1445118955896
 30
0.0
 40
3.0
100
AcDbArc
 50
324.2432700000001
 51
64.20387999999983
  0
LINE
  5
589
330
18
100
AcDbEntity
  8
1
  6
Continuous
100
AcDbLine
 10
310.0423740085499
 20
198.6224070874276
 30
0.0
 11
317.0768360493261
 21
208.3914798955896
 31
0.0
  0
LINE
  5
58A
330
18
100
AcDbEntity
  8
1
  6
Continuous
100
AcDbLine
 10
310.2673040493261
 20
204.1367738955896
 30
0.0
 11
309.6423040493261
 21
203.5117738955896
 31
0.0
  0
LINE
  5
58B
330
18
100
AcDbEntity
  8
2
  6
Continuous
100
AcDbLine
 10
313.1423210493261
 20
203.5117718955895
 30
0.0
 11
309.6423040493261
 21
203.5117718955895
 31
0.0
  0
LINE
  5
58C
330
18
100
AcDbEntity
  8
1
  6
Continuous
100
AcDbLine
 10
313.1423210493261
 20
204.1367718955895
 30
0.0
 11
310.2673040493261
 21
204.1367718955895
 31
0.0
  0
LINE
  5
58D
330
18
100
AcDbEntity
  8
1
  6
Continuous
100
AcDbLine
 10
313.642319049326
 20
213.9598918955896
 30
0.0
 11
315.9478270493262
 21
212.8455578955894
 31
0.0
  0
ARC
  5
58E
330
18
100
AcDbEntity
  8
1
  6
Continuous
100
AcDbCircle
 10
308.6423190493261
 20
227.7526092955894
 30
0.0
 40
3.0
100
AcDbArc
 50
180.0
 51
211.7254299999999
  0
LINE
  5
58F
330
18
100
AcDbEntity
  8
1
  6
Continuous
100
AcDbLine
 10
305.6423190493262
 20
229.3286323955896
 30
0.0
 11
305.6423190493262
 21
227.7526092955894
 31
0.0
  0
ARC
  5
590
330
18
100
AcDbEntity
  8
1
  6
Continuous
100
AcDbCircle
 10
308.6423190493261
 20
229.3286323955896
 30
0.0
 40
3.0
100
AcDbArc
 50
137.4684559999998
 51
180.0
  0
LINE
  5
591
330
18
100
AcDbEntity
  8
1
  6
Continuous
100
AcDbLine
 10
314.6423190493262
 20
253.6367778955895
 30
0.0
 11
372.642319049326
 21
253.6367778955895
 31
0.0
  0
LINE
  5
592
330
18
100
AcDbEntity
  8
1
  6
Continuous
100
AcDbLine
 10
314.6423190493262
 20
255.6367778955894
 30
0.0
 11
372.642319049326
 21
255.6367778955894
 31
0.0
  0
ARC
  5
594
330
18
100
AcDbEntity
  8
1
  6
Continuous
100
AcDbCircle
 10
322.1423190493259
 20
244.5307768955895
 30
0.0
 40
3.0
100
AcDbArc
 50
89.99999699999987
 51
178.8230889999998
  0
ARC
  5
595
330
18
100
AcDbEntity
  8
1
  6
Continuous
100
AcDbCircle
 10
323.2952270493261
 20
252.6367778955894
 30
0.0
 40
3.0
100
AcDbArc
 50
194.8123899999999
 51
270.0
  0
ARC
  5
596
330
18
100
AcDbEntity
  8
1
  6
Continuous
100
AcDbCircle
 10
321.1423190493261
 20
251.9367768955894
 30
0.0
 40
3.0
100
AcDbArc
 50
213.0681
 51
270.0000200000004
  0
LINE
  5
597
330
18
100
AcDbEntity
  8
1
  6
Continuous
100
AcDbLine
 10
322.1423190493259
 20
247.5307768955896
 30
0.0
 11
365.1423190493261
 21
247.5307768955896
 31
0.0
  0
LINE
  5
598
330
18
100
AcDbEntity
  8
1
  6
Continuous
100
AcDbLine
 10
321.1423190493261
 20
248.9367768955894
 30
0.0
 11
366.142319049326
 21
248.9367768955894
 31
0.0
  0
ARC
  5
59B
330
18
100
AcDbEntity
  8
1
  6
Continuous
100
AcDbCircle
 10
349.0423210493259
 20
249.4087768955894
 30
0.0
 40
2.778000099999998
100
AcDbArc
 50
317.4661199999998
 51
350.21762
  0
ARC
  5
59C
330
18
100
AcDbEntity
  8
1
  6
Continuous
100
AcDbCircle
 10
363.989409049326
 20
252.6367778955894
 30
0.0
 40
3.0
100
AcDbArc
 50
270.0
 51
345.18761
  0
ARC
  5
59D
330
18
100
AcDbEntity
  8
1
  6
Continuous
100
AcDbCircle
 10
365.1423190493261
 20
244.5307768955895
 30
0.0
 40
3.0
100
AcDbArc
 50
1.176900000000194
 51
90.00000399999995
  0
ARC
  5
59E
330
18
100
AcDbEntity
  8
1
  6
Continuous
100
AcDbCircle
 10
366.142319049326
 20
251.9367768955894
 30
0.0
 40
3.0
100
AcDbArc
 50
270.0000399999999
 51
326.9318999999998
  0
ARC
  5
59F
330
18
100
AcDbEntity
  8
1
  6
Continuous
100
AcDbCircle
 10
368.1269090493261
 20
252.6367778955894
 30
0.0
 40
1.0
100
AcDbArc
 50
89.99999699999987
 51
165.187611
  0
ARC
  5
5A0
330
18
100
AcDbEntity
  8
1
  6
Continuous
100
AcDbCircle
 10
371.642319049326
 20
252.1367778955895
 30
0.0
 40
1.5
100
AcDbArc
 50
89.99999699999987
 51
146.931981
  0
LINE
  5
5A1
330
18
100
AcDbEntity
  8
1
  6
Continuous
100
AcDbLine
 10
368.656389049326
 20
250.2998718955895
 30
0.0
 11
370.3852890493261
 21
252.9552268955894
 31
0.0
  0
LINE
  5
5A2
330
18
100
AcDbEntity
  8
1
  6
Continuous
100
AcDbLine
 10
372.642319049326
 20
255.6367778955894
 30
0.0
 11
372.642319049326
 21
253.6367778955895
 31
0.0
  0
LINE
  5
5A3
330
18
100
AcDbEntity
  8
4
  6
CENTER
 48
0.5
100
AcDbLine
 10
364.6423190493261
 20
260.6367778955894
 30
0.0
 11
364.6423190493261
 21
248.6367778955896
 31
0.0
  0
ARC
  5
5A4
330
18
100
AcDbEntity
  8
1
  6
Continuous
100
AcDbCircle
 10
362.142319049326
 20
252.6367778955894
 30
0.0
 40
1.0
100
AcDbArc
 50
7.604689999999886
 51
89.99999699999987
  0
ARC
  5
5A5
330
18
100
AcDbEntity
  8
1
  6
Continuous
100
AcDbCircle
 10
357.042319049326
 20
249.4087768955894
 30
0.0
 40
2.778000099999998
100
AcDbArc
 50
317.4661199999998
 51
350.21762
  0
LINE
  5
5A6
330
18
100
AcDbEntity
  8
1
  6
Continuous
100
AcDbLine
 10
367.160129049326
 20
252.8924328955894
 30
0.0
 11
366.889709049326
 21
251.8698158955894
 31
0.0
  0
LINE
  5
5A7
330
18
100
AcDbEntity
  8
1
  6
Continuous
100
AcDbLine
 10
363.493809049326
 20
250.0706078955896
 30
0.0
 11
363.133519049326
 21
252.7691158955895
 31
0.0
  0
ARC
  5
5A8
330
18
100
AcDbEntity
  8
1
  6
Continuous
100
AcDbCircle
 10
363.989409049326
 20
250.1367778955895
 30
0.0
 40
0.5
100
AcDbArc
 50
187.6046900000002
 51
270.0
  0
ARC
  5
5A9
330
18
100
AcDbEntity
  8
1
  6
Continuous
100
AcDbCircle
 10
361.042319049326
 20
249.4087768955894
 30
0.0
 40
2.778000099999998
100
AcDbArc
 50
317.4661199999998
 51
350.21762
  0
ARC
  5
5AA
330
18
100
AcDbEntity
  8
1
  6
Continuous
100
AcDbCircle
 10
359.542319049326
 20
249.4087768955894
 30
0.0
 40
2.778000099999998
100
AcDbArc
 50
317.4661199999998
 51
350.21762
  0
ARC
  5
5AB
330
18
100
AcDbEntity
  8
1
  6
Continuous
100
AcDbCircle
 10
353.5423210493259
 20
249.4087768955894
 30
0.0
 40
2.778000099999998
100
AcDbArc
 50
317.4661199999998
 51
350.21762
  0
ARC
  5
5AC
330
18
100
AcDbEntity
  8
1
  6
Continuous
100
AcDbCircle
 10
353.5423210493259
 20
249.4087768955894
 30
0.0
 40
2.778000099999998
100
AcDbArc
 50
215.9103999999995
 51
222.5338800000002
  0
ARC
  5
5AD
330
18
100
AcDbEntity
  8
1
  6
Continuous
100
AcDbCircle
 10
349.0423210493259
 20
249.4087768955894
 30
0.0
 40
2.778000099999998
100
AcDbArc
 50
193.60946
 51
222.5338800000002
  0
ARC
  5
5AE
330
18
100
AcDbEntity
  8
1
  6
Continuous
100
AcDbCircle
 10
343.6423190493261
 20
249.4087768955894
 30
0.0
 40
2.778000099999998
100
AcDbArc
 50
317.4661199999998
 51
350.21762
  0
ARC
  5
5AF
330
18
100
AcDbEntity
  8
1
  6
Continuous
100
AcDbCircle
 10
343.6423190493261
 20
249.4087768955894
 30
0.0
 40
2.778000099999998
100
AcDbArc
 50
189.7823799999999
 51
222.5338800000002
  0
ARC
  5
5B0
330
18
100
AcDbEntity
  8
1
  6
Continuous
100
AcDbCircle
 10
338.2423170493261
 20
249.4087768955894
 30
0.0
 40
2.778000099999998
100
AcDbArc
 50
317.4661199999998
 51
346.3905399999999
  0
LINE
  5
5B1
330
18
100
AcDbEntity
  8
4
  6
CENTER
 48
0.5
100
AcDbLine
 10
322.6423190493258
 20
260.6367778955894
 30
0.0
 11
322.6423190493258
 21
248.6367778955896
 31
0.0
  0
ARC
  5
5B2
330
18
100
AcDbEntity
  8
1
  6
Continuous
100
AcDbCircle
 10
325.1423190493262
 20
252.6367778955894
 30
0.0
 40
1.0
100
AcDbArc
 50
90.00000399999995
 51
172.3953067
  0
ARC
  5
5B3
330
18
100
AcDbEntity
  8
1
  6
Continuous
100
AcDbCircle
 10
333.7423170493261
 20
249.4087768955894
 30
0.0
 40
2.778000099999998
100
AcDbArc
 50
317.4661199999998
 51
324.0895999999995
  0
ARC
  5
5B4
330
18
100
AcDbEntity
  8
1
  6
Continuous
100
AcDbCircle
 10
338.2423170493261
 20
249.4087768955894
 30
0.0
 40
2.778000099999998
100
AcDbArc
 50
189.7823799999999
 51
222.5338800000002
  0
ARC
  5
5B5
330
18
100
AcDbEntity
  8
1
  6
Continuous
100
AcDbCircle
 10
333.7423170493261
 20
249.4087768955894
 30
0.0
 40
2.778000099999998
100
AcDbArc
 50
189.7823799999999
 51
222.5338800000002
  0
ARC
  5
5B6
330
18
100
AcDbEntity
  8
1
  6
Continuous
100
AcDbCircle
 10
327.7423170493261
 20
249.4087768955894
 30
0.0
 40
2.778000099999998
100
AcDbArc
 50
189.7823799999999
 51
222.5338800000002
  0
ARC
  5
5B7
330
18
100
AcDbEntity
  8
1
  6
Continuous
100
AcDbCircle
 10
330.2423170493261
 20
249.4087768955894
 30
0.0
 40
2.778000099999998
100
AcDbArc
 50
189.7823799999999
 51
222.5338800000002
  0
LINE
  5
5B8
330
18
100
AcDbEntity
  8
1
  6
Continuous
100
AcDbLine
 10
323.7908330493261
 20
250.0706078955896
 30
0.0
 11
324.151116049326
 21
252.7691158955895
 31
0.0
  0
ARC
  5
5B9
330
18
100
AcDbEntity
  8
1
  6
Continuous
100
AcDbCircle
 10
323.2952270493261
 20
250.1367778955895
 30
0.0
 40
0.5
100
AcDbArc
 50
270.0
 51
352.3953100000002
  0
ARC
  5
5BA
330
18
100
AcDbEntity
  8
1
  6
Continuous
100
AcDbCircle
 10
326.2423170493261
 20
249.4087768955894
 30
0.0
 40
2.778000099999998
100
AcDbArc
 50
189.7823799999999
 51
222.5338800000002
  0
ARC
  5
5BC
330
18
100
AcDbEntity
  8
1
  6
Continuous
100
AcDbCircle
 10
319.1577300493261
 20
252.6367778955894
 30
0.0
 40
1.0
100
AcDbArc
 50
14.81238999999995
 51
90.00000399999995
  0
ARC
  5
5BD
330
18
100
AcDbEntity
  8
1
  6
Continuous
100
AcDbCircle
 10
315.642319049326
 20
252.1367778955895
 30
0.0
 40
1.5
100
AcDbArc
 50
33.06801000000008
 51
90.0000519999997
  0
LINE
  5
5BE
330
18
100
AcDbEntity
  8
1
  6
Continuous
100
AcDbLine
 10
316.8993530493261
 20
252.9552228955894
 30
0.0
 11
318.6282500493261
 21
250.2998698955895
 31
0.0
  0
LINE
  5
5BF
330
18
100
AcDbEntity
  8
1
  6
Continuous
100
AcDbLine
 10
320.1244970493261
 20
252.8924328955894
 30
0.0
 11
320.3949210493261
 21
251.8698138955894
 31
0.0
  0
LINE
  5
5C0
330
18
100
AcDbEntity
  8
1
  6
Continuous
100
AcDbLine
 10
314.6423190493262
 20
255.6367778955894
 30
0.0
 11
314.6423190493262
 21
253.6367778955895
 31
0.0
  0
LINE
  5
62F
330
18
100
AcDbEntity
  8
4
  6
CENTER
 48
0.5
100
AcDbLine
 10
477.5387950177668
 20
260.6367778955894
 30
0.0
 11
477.5387950177666
 21
213.3700998955894
 31
0.0
  0
LINE
  5
630
330
18
100
AcDbEntity
  8
1
  6
Continuous
100
AcDbLine
 10
452.4387950177667
 20
237.2807783955895
 30
0.0
 11
453.0486950177667
 21
244.7741438955894
 31
0.0
  0
ARC
  5
631
330
18
100
AcDbEntity
  8
1
  6
Continuous
100
AcDbCircle
 10
511.3356470177667
 20
239.8969402955895
 30
0.0
 40
2.5
100
AcDbArc
 50
79.99999999999983
 51
191.33556
  0
LINE
  5
632
330
18
100
AcDbEntity
  8
1
  6
Continuous
100
AcDbLine
 10
511.7387920177667
 20
242.3644218955895
 30
0.0
 11
498.1276850177667
 21
244.7644268955896
 31
0.0
  0
LINE
  5
633
330
18
100
AcDbEntity
  8
1
  6
Continuous
100
AcDbLine
 10
494.0387950177666
 20
243.8204398955896
 30
0.0
 11
494.0387950177666
 21
209.4530388955896
 31
0.0
  0
LINE
  5
639
330
18
100
AcDbEntity
  8
4
  6
CENTER
 48
0.5
100
AcDbLine
 10
548.0387950177666
 20
200.1367718955894
 30
0.0
 11
463.0387950177667
 21
200.1367718955894
 31
0.0
  0
ARC
  5
63B
330
18
100
AcDbEntity
  8
1
  6
Continuous
100
AcDbCircle
 10
505.5387950177666
 20
200.1367718955894
 30
0.0
 40
27.5
100
AcDbArc
 50
153.3130905833665
 51
77.75916283634969
  0
ARC
  5
644
330
18
100
AcDbEntity
  8
1
  6
Continuous
100
AcDbCircle
 10
505.5387950177666
 20
200.1367718955894
 30
0.0
 40
37.5
100
AcDbArc
 50
146.7925358441135
 51
84.27971798233416
  0
LINE
  5
64B
330
18
100
AcDbEntity
  8
4
  6
CENTER
 48
0.5
100
AcDbLine
 10
505.5387950177666
 20
241.0367618955895
 30
0.0
 11
505.5387950177666
 21
157.6367718955896
 31
0.0
  0
LINE
  5
657
330
18
100
AcDbEntity
  8
1
  6
Continuous
100
AcDbLine
 10
535.0273640177666
 20
235.4852418955895
 30
0.0
 11
528.1115838611501
 21
230.0820420368324
 31
0.0
  0
LINE
  5
658
330
18
100
AcDbEntity
  8
1
  6
Continuous
100
AcDbLine
 10
536.2586880177666
 20
233.9092201955895
 30
0.0
 11
531.1366160792389
 21
229.9074191618484
 31
0.0
  0
ARC
  5
659
330
18
100
AcDbEntity
  8
1
  6
Continuous
100
AcDbCircle
 10
521.9850080177667
 20
225.8765296955894
 30
0.0
 40
10.0
100
AcDbArc
 50
5.082526304087836
 51
23.77142999999993
  0
LINE
  5
65A
330
18
100
AcDbEntity
  8
1
  6
Continuous
100
AcDbLine
 10
535.0273640177666
 20
235.4852418955895
 30
0.0
 11
536.2586880177666
 21
233.9092201955895
 31
0.0
  0
LINE
  5
65B
330
18
100
AcDbEntity
  8
1
  6
Continuous
100
AcDbLine
 10
516.3241492792657
 20
202.2992088204417
 30
0.0
 11
508.8844330177667
 21
239.4054765955896
 31
0.0
  0
ARC
  5
667
330
18
100
AcDbEntity
  8
1
  6
Continuous
100
AcDbCircle
 10
509.8552550177666
 20
239.6502608955896
 30
0.0
 40
1.0
100
AcDbArc
 50
79.99999999999983
 51
191.33556
  0
LINE
  5
668
330
18
100
AcDbEntity
  8
1
  6
Continuous
100
AcDbLine
 10
511.7387920177667
 20
242.3644218955895
 30
0.0
 11
511.3914940177667
 21
240.3948049955894
 31
0.0
  0
LINE
  5
669
330
18
100
AcDbEntity
  8
1
  6
Continuous
100
AcDbLine
 10
511.3914940177667
 20
240.3948049955894
 30
0.0
 11
510.0289000177666
 21
240.6350679955894
 31
0.0
  0
LINE
  5
673
330
18
100
AcDbEntity
  8
1
  6
Continuous
100
AcDbLine
 10
471.0221764174639
 20
185.4789057343353
 30
0.0
 11
464.8944160177666
 21
180.6913738955896
 31
0.0
  0
LINE
  5
674
330
18
100
AcDbEntity
  8
1
  6
Continuous
100
AcDbLine
 10
469.1384073818858
 20
181.4691086958978
 30
0.0
 11
466.1257400177666
 21
179.1153548955896
 31
0.0
  0
ARC
  5
67B
330
18
100
AcDbEntity
  8
1
  6
Continuous
100
AcDbCircle
 10
470.9800490177666
 20
179.1009118955896
 30
0.0
 40
3.0
100
AcDbArc
 50
41.12677999999981
 51
127.9999970000002
  0
LINE
  5
67C
330
18
100
AcDbEntity
  8
1
  6
Continuous
100
AcDbLine
 10
464.8944160177666
 20
180.6913738955896
 30
0.0
 11
466.1257400177666
 21
179.1153548955896
 31
0.0
  0
LINE
  5
681
330
18
100
AcDbEntity
  8
1
  6
Continuous
100
AcDbLine
 10
497.0809403893838
 20
193.1036577144359
 30
0.0
 11
462.5463480177668
 21
234.6492395955894
 31
0.0
  0
LINE
  5
689
330
18
100
AcDbEntity
  8
1
  6
Continuous
100
AcDbLine
 10
458.4190150177667
 20
236.7940435955894
 30
0.0
 11
452.4387950177667
 21
237.2807783955895
 31
0.0
  0
ARC
  5
68A
330
18
100
AcDbEntity
  8
1
  6
Continuous
100
AcDbCircle
 10
457.9322850177667
 20
230.8138179955895
 30
0.0
 40
6.0
100
AcDbArc
 50
39.73085000000003
 51
85.34690399999986
  0
LINE
  5
68C
330
18
100
AcDbEntity
  8
1
  6
Continuous
100
AcDbLine
 10
455.0387950177666
 20
248.9367768955894
 30
0.0
 11
500.0387950177667
 21
248.9367768955894
 31
0.0
  0
LINE
  5
68D
330
18
100
AcDbEntity
  8
1
  6
Continuous
100
AcDbLine
 10
442.5387950177666
 20
253.6367778955895
 30
0.0
 11
512.5387950177667
 21
253.6367778955895
 31
0.0
  0
LINE
  5
68E
330
18
100
AcDbEntity
  8
1
  6
Continuous
100
AcDbLine
 10
442.5387950177666
 20
255.6367778955894
 30
0.0
 11
512.5387950177667
 21
255.6367778955894
 31
0.0
  0
ARC
  5
691
330
18
100
AcDbEntity
  8
1
  6
Continuous
100
AcDbCircle
 10
498.0269540177665
 20
243.6608698955895
 30
0.0
 40
4.0
100
AcDbArc
 50
10.88584999999997
 51
75.34724999999986
  0
ARC
  5
692
330
18
100
AcDbEntity
  8
1
  6
Continuous
100
AcDbCircle
 10
497.8858870177666
 20
252.6367778955894
 30
0.0
 40
3.0
100
AcDbArc
 50
270.0
 51
345.18761
  0
LINE
  5
693
330
18
100
AcDbEntity
  8
4
  6
CENTER
 48
0.5
100
AcDbLine
 10
505.0387950177666
 20
260.6367778955894
 30
0.0
 11
505.0387950177667
 21
248.6367778955896
 31
0.0
  0
ARC
  5
694
330
18
100
AcDbEntity
  8
1
  6
Continuous
100
AcDbCircle
 10
505.5387950177666
 20
252.1367778955895
 30
0.0
 40
1.5
100
AcDbArc
 50
89.99999699999987
 51
146.931981
  0
ARC
  5
695
330
18
100
AcDbEntity
  8
1
  6
Continuous
100
AcDbCircle
 10
502.0233840177668
 20
252.6367778955894
 30
0.0
 40
1.0
100
AcDbArc
 50
89.99999699999987
 51
165.187611
  0
ARC
  5
696
330
18
100
AcDbEntity
  8
1
  6
Continuous
100
AcDbCircle
 10
502.4459800177667
 20
244.5107088955894
 30
0.0
 40
0.5
100
AcDbArc
 50
190.8858500000004
 51
259.9999999999998
  0
ARC
  5
697
330
18
100
AcDbEntity
  8
1
  6
Continuous
100
AcDbCircle
 10
500.0387950177667
 20
251.9367768955894
 30
0.0
 40
3.0
100
AcDbArc
 50
270.0000399999999
 51
326.9318999999998
  0
LINE
  5
698
330
18
100
AcDbEntity
  8
1
  6
Continuous
100
AcDbLine
 10
501.0566170177667
 20
252.8924308955895
 30
0.0
 11
500.7861900177666
 21
251.8698118955894
 31
0.0
  0
LINE
  5
699
330
18
100
AcDbEntity
  8
1
  6
Continuous
100
AcDbLine
 10
502.5528640177667
 20
250.2998728955895
 30
0.0
 11
504.2817570177668
 21
252.9552288955894
 31
0.0
  0
LINE
  5
69A
330
18
100
AcDbEntity
  8
1
  6
Continuous
100
AcDbLine
 10
512.5387950177667
 20
253.6367778955895
 30
0.0
 11
512.5387950177667
 21
255.6367778955894
 31
0.0
  0
LINE
  5
69B
330
18
100
AcDbEntity
  8
1
  6
Continuous
100
AcDbLine
 10
456.0387950177666
 20
247.5307768955896
 30
0.0
 11
499.0387938328316
 21
247.5307768955896
 31
0.0
  0
ARC
  5
69C
330
18
100
AcDbEntity
  8
1
  6
Continuous
100
AcDbCircle
 10
496.0387950177667
 20
252.6367778955894
 30
0.0
 40
1.0
100
AcDbArc
 50
7.604689999999886
 51
89.99999699999987
  0
LINE
  5
69D
330
18
100
AcDbEntity
  8
1
  6
Continuous
100
AcDbLine
 10
497.3902810177666
 20
250.0706078955896
 30
0.0
 11
497.0299980177667
 21
252.7691158955895
 31
0.0
  0
ARC
  5
69E
330
18
100
AcDbEntity
  8
1
  6
Continuous
100
AcDbCircle
 10
497.8858870177666
 20
250.1367778955895
 30
0.0
 40
0.5
100
AcDbArc
 50
187.6046900000002
 51
270.0
  0
ARC
  5
69F
330
18
100
AcDbEntity
  8
1
  6
Continuous
100
AcDbCircle
 10
494.9387970177666
 20
249.4087768955894
 30
0.0
 40
2.778000099999998
100
AcDbArc
 50
317.4661199999998
 51
350.21762
  0
ARC
  5
6A0
330
18
100
AcDbEntity
  8
1
  6
Continuous
100
AcDbCircle
 10
490.9387970177667
 20
249.4087768955894
 30
0.0
 40
2.778000099999998
100
AcDbArc
 50
317.4661199999998
 51
350.21762
  0
ARC
  5
6A1
330
18
100
AcDbEntity
  8
1
  6
Continuous
100
AcDbCircle
 10
493.4387970177668
 20
249.4087768955894
 30
0.0
 40
2.778000099999998
100
AcDbArc
 50
317.4661199999998
 51
350.21762
  0
ARC
  5
6A2
330
18
100
AcDbEntity
  8
1
  6
Continuous
100
AcDbCircle
 10
487.4387970177667
 20
249.4087768955894
 30
0.0
 40
2.778000099999998
100
AcDbArc
 50
317.4661199999998
 51
350.21762
  0
ARC
  5
6A3
330
18
100
AcDbEntity
  8
1
  6
Continuous
100
AcDbCircle
 10
487.4387970177667
 20
249.4087768955894
 30
0.0
 40
2.778000099999998
100
AcDbArc
 50
215.9103999999995
 51
222.5338800000002
  0
ARC
  5
6A4
330
18
100
AcDbEntity
  8
1
  6
Continuous
100
AcDbCircle
 10
482.9387970177667
 20
249.4087768955894
 30
0.0
 40
2.778000099999998
100
AcDbArc
 50
317.4661199999998
 51
350.21762
  0
ARC
  5
6A5
330
18
100
AcDbEntity
  8
1
  6
Continuous
100
AcDbCircle
 10
477.5387950177666
 20
249.4087768955894
 30
0.0
 40
2.778000099999998
100
AcDbArc
 50
317.4661199999998
 51
350.21762
  0
ARC
  5
6A6
330
18
100
AcDbEntity
  8
1
  6
Continuous
100
AcDbCircle
 10
482.9387970177667
 20
249.4087768955894
 30
0.0
 40
2.778000099999998
100
AcDbArc
 50
193.60946
 51
222.5338800000002
  0
ARC
  5
6A7
330
18
100
AcDbEntity
  8
1
  6
Continuous
100
AcDbCircle
 10
472.1387930177667
 20
249.4087768955894
 30
0.0
 40
2.778000099999998
100
AcDbArc
 50
317.4661199999998
 51
346.3905399999999
  0
ARC
  5
6A8
330
18
100
AcDbEntity
  8
1
  6
Continuous
100
AcDbCircle
 10
477.5387950177666
 20
249.4087768955894
 30
0.0
 40
2.778000099999998
100
AcDbArc
 50
189.7823799999999
 51
222.5338800000002
  0
ARC
  5
6A9
330
18
100
AcDbEntity
  8
1
  6
Continuous
100
AcDbCircle
 10
467.6387930177666
 20
249.4087768955894
 30
0.0
 40
2.778000099999998
100
AcDbArc
 50
317.4661199999998
 51
324.0895999999995
  0
ARC
  5
6AA
330
18
100
AcDbEntity
  8
1
  6
Continuous
100
AcDbCircle
 10
472.1387930177667
 20
249.4087768955894
 30
0.0
 40
2.778000099999998
100
AcDbArc
 50
189.7823799999999
 51
222.5338800000002
  0
ARC
  5
6AB
330
18
100
AcDbEntity
  8
1
  6
Continuous
100
AcDbCircle
 10
456.0387950177666
 20
244.5307768955895
 30
0.0
 40
3.0
100
AcDbArc
 50
89.99999699999987
 51
175.3469055
  0
ARC
  5
6AC
330
18
100
AcDbEntity
  8
1
  6
Continuous
100
AcDbCircle
 10
455.0387950177666
 20
251.9367768955894
 30
0.0
 40
3.0
100
AcDbArc
 50
213.0681
 51
270.0000200000004
  0
ARC
  5
6AD
330
18
100
AcDbEntity
  8
1
  6
Continuous
100
AcDbCircle
 10
453.0542050177666
 20
252.6367778955894
 30
0.0
 40
1.0
100
AcDbArc
 50
14.81238999999995
 51
90.00000399999995
  0
ARC
  5
6AE
330
18
100
AcDbEntity
  8
1
  6
Continuous
100
AcDbCircle
 10
459.0387950177666
 20
252.6367778955894
 30
0.0
 40
1.0
100
AcDbArc
 50
90.00000399999995
 51
172.3953067
  0
ARC
  5
6AF
330
18
100
AcDbEntity
  8
1
  6
Continuous
100
AcDbCircle
 10
464.1387930177668
 20
249.4087768955894
 30
0.0
 40
2.778000099999998
100
AcDbArc
 50
189.7823799999999
 51
222.5338800000002
  0
ARC
  5
6B0
330
18
100
AcDbEntity
  8
1
  6
Continuous
100
AcDbCircle
 10
467.6387930177666
 20
249.4087768955894
 30
0.0
 40
2.778000099999998
100
AcDbArc
 50
189.7823799999999
 51
222.5338800000002
  0
ARC
  5
6B1
330
18
100
AcDbEntity
  8
1
  6
Continuous
100
AcDbCircle
 10
461.6387950177668
 20
249.4087768955894
 30
0.0
 40
2.778000099999998
100
AcDbArc
 50
189.7823799999999
 51
222.5338800000002
  0
LINE
  5
6B2
330
18
100
AcDbEntity
  8
1
  6
Continuous
100
AcDbLine
 10
457.6873050177666
 20
250.0706078955896
 30
0.0
 11
458.0475950177667
 21
252.7691158955895
 31
0.0
  0
ARC
  5
6B3
330
18
100
AcDbEntity
  8
1
  6
Continuous
100
AcDbCircle
 10
457.1917050177666
 20
252.6367778955894
 30
0.0
 40
3.0
100
AcDbArc
 50
194.8123899999999
 51
270.0
  0
ARC
  5
6B4
330
18
100
AcDbEntity
  8
1
  6
Continuous
100
AcDbCircle
 10
457.1917050177666
 20
250.1367778955895
 30
0.0
 40
0.5
100
AcDbArc
 50
270.0
 51
352.3953100000002
  0
ARC
  5
6B5
330
18
100
AcDbEntity
  8
1
  6
Continuous
100
AcDbCircle
 10
460.1387950177666
 20
249.4087768955894
 30
0.0
 40
2.778000099999998
100
AcDbArc
 50
189.7823799999999
 51
222.5338800000002
  0
LINE
  5
6B6
330
18
100
AcDbEntity
  8
1
  6
Continuous
100
AcDbLine
 10
454.0209850177666
 20
252.8924328955894
 30
0.0
 11
454.2914050177667
 21
251.8698138955894
 31
0.0
  0
LINE
  5
6B7
330
18
100
AcDbEntity
  8
4
  6
CENTER
 48
0.5
100
AcDbLine
 10
450.0388050177666
 20
260.6367778955894
 30
0.0
 11
450.0388050177666
 21
248.6367778955896
 31
0.0
  0
ARC
  5
6B8
330
18
100
AcDbEntity
  8
1
  6
Continuous
100
AcDbCircle
 10
449.5387950177667
 20
252.1367778955895
 30
0.0
 40
1.5
100
AcDbArc
 50
33.06801000000008
 51
90.0000519999997
  0
LINE
  5
6B9
330
18
100
AcDbEntity
  8
1
  6
Continuous
100
AcDbLine
 10
450.7958250177666
 20
252.9552288955894
 30
0.0
 11
452.5247250177667
 21
250.2998728955895
 31
0.0
  0
LINE
  5
6BA
330
18
100
AcDbEntity
  8
1
  6
Continuous
100
AcDbLine
 10
442.5387950177666
 20
253.6367778955895
 30
0.0
 11
442.5387950177666
 21
255.6367778955894
 31
0.0
  0
ARC
  5
72A
330
18
100
AcDbEntity
  8
5
  6
PHANTOM
 48
0.3
100
AcDbCircle
 10
145.2454617666631
 20
93.34463725906084
 30
0.0
 40
9.528561970159287
100
AcDbArc
 50
102.2308950074712
 51
233.7974331717227
  0
LINE
  5
72B
330
18
100
AcDbEntity
  8
4
  6
CENTER
 48
0.5
100
AcDbLine
 10
209.7458430808853
 20
30.65571804032856
 30
0.0
 11
209.7458430808853
 21
98.65571804032857
 31
0.0
  0
LINE
  5
72C
330
18
100
AcDbEntity
  8
4
  6
CENTER
 48
0.5
100
AcDbLine
 10
182.2458430808853
 20
95.05571814032853
 30
0.0
 11
182.2458430808853
 21
76.2557179403285
 31
0.0
  0
LINE
  5
72D
330
18
100
AcDbEntity
  8
4
  6
CENTER
 48
0.5
100
AcDbLine
 10
237.2458330808855
 20
95.05571814032853
 30
0.0
 11
237.2458330808855
 21
76.2557179403285
 31
0.0
  0
LINE
  5
72E
330
18
100
AcDbEntity
  8
4
  6
CENTER
 48
0.5
100
AcDbLine
 10
181.7458430808853
 20
34.65571804032845
 30
0.0
 11
181.7458430808853
 21
103.3756531458315
 31
0.0
  0
ARC
  5
72F
330
18
100
AcDbEntity
  8
1
  6
Continuous
100
AcDbCircle
 10
235.7458330808855
 20
84.65571804032846
 30
0.0
 40
9.0
100
AcDbArc
 50
1.557489999999965
 51
89.99997999999962
  0
ARC
  5
732
330
18
100
AcDbEntity
  8
1
  6
Continuous
100
AcDbCircle
 10
160.1014219749943
 20
93.64931411767278
 30
0.0
 40
9.014173069428037
100
AcDbArc
 50
92.18753769277858
 51
240.407129826012
  0
LINE
  5
735
330
18
100
AcDbEntity
  8
1
  6
Continuous
100
AcDbLine
 10
222.4877381712471
 20
93.65571804032857
 30
0.0
 11
235.7458330808855
 21
93.65571804032857
 31
0.0
  0
ARC
  5
738
330
18
100
AcDbEntity
  8
1
  6
Continuous
100
AcDbCircle
 10
234.3076921720447
 20
213.0964113088064
 30
0.0
 40
130.886652760822
100
AcDbArc
 50
238.8283159523073
 51
244.3018029803568
  0
ARC
  5
739
330
18
100
AcDbEntity
  8
1
  6
Continuous
100
AcDbCircle
 10
160.2399515214405
 20
89.06954381231646
 30
0.0
 40
13.59594225091025
100
AcDbArc
 50
62.2986134981402
 51
92.0342114468281
  0
LINE
  5
73B
330
18
100
AcDbEntity
  8
1
  6
Continuous
100
AcDbLine
 10
185.7458430808853
 20
98.03068704032853
 30
0.0
 11
177.7458430808853
 21
98.03068704032853
 31
0.0
  0
LINE
  5
73C
330
18
100
AcDbEntity
  8
1
  6
Continuous
100
AcDbLine
 10
185.1208430808853
 20
98.65568704032849
 30
0.0
 11
178.3708430808853
 21
98.65568704032849
 31
0.0
  0
LINE
  5
73E
330
18
100
AcDbEntity
  8
1
  6
Continuous
100
AcDbLine
 10
177.7458430808853
 20
95.15567004032849
 30
0.0
 11
177.7458430808853
 21
98.03068704032853
 31
0.0
  0
LINE
  5
73F
330
18
100
AcDbEntity
  8
1
  6
Continuous
100
AcDbLine
 10
178.3708450808854
 20
98.65568504032854
 30
0.0
 11
177.7458460808853
 21
98.03068704032853
 31
0.0
  0
LINE
  5
740
330
18
100
AcDbEntity
  8
2
  6
Continuous
100
AcDbLine
 10
178.3708430808853
 20
95.15567004032851
 30
0.0
 11
178.3708430808853
 21
98.65568704032849
 31
0.0
  0
LINE
  5
741
330
18
100
AcDbEntity
  8
1
  6
Continuous
100
AcDbLine
 10
185.7458430808853
 20
95.15567004032851
 30
0.0
 11
185.7458430808853
 21
98.03068704032853
 31
0.0
  0
LINE
  5
743
330
18
100
AcDbEntity
  8
1
  6
Continuous
100
AcDbLine
 10
185.7458450808854
 20
98.03068904032853
 30
0.0
 11
185.1208450808853
 21
98.65568904032853
 31
0.0
  0
LINE
  5
744
330
18
100
AcDbEntity
  8
2
  6
Continuous
100
AcDbLine
 10
185.1208430808853
 20
95.15567004032851
 30
0.0
 11
185.1208430808853
 21
98.65568704032849
 31
0.0
  0
ARC
  5
745
330
18
100
AcDbEntity
  8
1
  6
Continuous
100
AcDbCircle
 10
209.6569884048555
 20
95.62873201222712
 30
0.0
 40
12.98156091158014
100
AcDbArc
 50
351.2579711549349
 51
58.28654260621525
  0
ARC
  5
746
330
18
100
AcDbEntity
  8
1
  6
Continuous
100
AcDbCircle
 10
237.2204808656036
 20
50.07557871500409
 30
0.0
 40
62.25166321005164
100
AcDbArc
 50
117.4690743390452
 51
128.2796568605381
  0
ARC
  5
748
330
18
100
AcDbEntity
  8
1
  6
Continuous
100
AcDbCircle
 10
178.640939550967
 20
120.930812664203
 30
0.0
 40
29.73302351983562
100
AcDbArc
 50
289.7210124292247
 51
312.3102060806671
  0
ARC
  5
74D
330
18
100
AcDbEntity
  8
1
  6
Continuous
100
AcDbCircle
 10
213.8129184868219
 20
98.26924934755345
 30
0.0
 40
8.816165241644052
100
AcDbArc
 50
72.38388658969249
 51
127.0125962767937
  0
LINE
  5
750
330
18
100
AcDbEntity
  8
4
  6
CENTER
 48
0.5
100
AcDbLine
 10
138.0047250808854
 20
64.65571804032845
 30
0.0
 11
246.3433130808855
 21
64.65571804032845
 31
0.0
  0
LINE
  5
751
330
18
100
AcDbEntity
  8
4
  6
CENTER
 48
0.5
100
AcDbLine
 10
191.6458431808853
 20
85.65571804032845
 30
0.0
 11
172.8458429808853
 21
85.65571804032845
 31
0.0
  0
LINE
  5
752
330
18
100
AcDbEntity
  8
4
  6
CENTER
 48
0.5
100
AcDbLine
 10
191.6458431808853
 20
43.65571804032856
 30
0.0
 11
172.8458429808853
 21
43.65571804032856
 31
0.0
  0
LINE
  5
754
330
18
100
AcDbEntity
  8
1
  6
Continuous
100
AcDbLine
 10
183.7458350808853
 20
35.65571804032857
 30
0.0
 11
235.7458330808855
 21
35.65571804032857
 31
0.0
  0
LINE
  5
755
330
18
100
AcDbEntity
  8
4
  6
CENTER
 48
0.5
100
AcDbLine
 10
182.2458430808853
 20
34.25571794032856
 30
0.0
 11
182.2458430808853
 21
53.05571814032845
 31
0.0
  0
LINE
  5
756
330
18
100
AcDbEntity
  8
1
  6
Continuous
100
AcDbLine
 10
170.7458430808854
 20
46.65571804032845
 30
0.0
 11
170.7458430808854
 21
48.65571804032845
 31
0.0
  0
ARC
  5
757
330
18
100
AcDbEntity
  8
1
  6
Continuous
100
AcDbCircle
 10
182.2458430808853
 20
43.65571804032856
 30
0.0
 40
4.400000099999997
100
AcDbArc
 50
193.1364250336199
 51
346.8635749663802
  0
LINE
  5
759
330
18
100
AcDbEntity
  8
1
  6
Continuous
100
AcDbLine
 10
147.5232575359908
 20
51.65571804032857
 30
0.0
 11
215.96842862578
 21
51.65571804032857
 31
0.0
  0
LINE
  5
75A
330
18
100
AcDbEntity
  8
1
  6
Continuous
100
AcDbLine
 10
147.5232610808854
 20
77.65571804032845
 30
0.0
 11
215.9684271752805
 21
77.65571804032735
 31
0.0
  0
LINE
  5
75B
330
18
100
AcDbEntity
  8
1
  6
Continuous
100
AcDbLine
 10
192.729581679483
 20
82.65571804032845
 30
0.0
 11
155.365889185731
 21
82.65571804032845
 31
0.0
  0
ARC
  5
75D
330
18
100
AcDbEntity
  8
1
  6
Continuous
100
AcDbCircle
 10
194.2458430808855
 20
64.65571804032845
 30
0.0
 40
50.0
100
AcDbArc
 50
166.7519800000001
 51
193.2480149056766
  0
LINE
  5
75F
330
18
100
AcDbEntity
  8
1
  6
Continuous
100
AcDbLine
 10
155.365889185731
 20
82.65571804032845
 30
0.0
 11
155.365889185731
 21
84.65571804032846
 31
0.0
  0
ARC
  5
760
330
18
100
AcDbEntity
  8
1
  6
Continuous
100
AcDbCircle
 10
154.9323314139626
 20
85.56456457239386
 30
0.0
 40
1.00696293889502
100
AcDbArc
 50
295.5030923427809
 51
338.1889595771851
  0
ARC
  5
761
330
18
100
AcDbEntity
  8
1
  6
Continuous
100
AcDbCircle
 10
155.4030030307225
 20
85.37620414504823
 30
0.0
 40
0.5
100
AcDbArc
 50
338.1889595771846
 51
60.40712982601309
  0
ARC
  5
762
330
18
100
AcDbEntity
  8
1
  6
Continuous
100
AcDbCircle
 10
147.5232610808854
 20
75.65571804032845
 30
0.0
 40
2.0
100
AcDbArc
 50
90.00006000000034
 51
166.7519099999999
  0
ARC
  5
763
330
18
100
AcDbEntity
  8
1
  6
Continuous
100
AcDbCircle
 10
147.5232575359908
 20
53.65571804032857
 30
0.0
 40
2.0
100
AcDbArc
 50
193.2480149056763
 51
270.0
  0
LINE
  5
765
330
18
100
AcDbEntity
  8
1
  6
Continuous
100
AcDbLine
 10
190.3290977305466
 20
80.65571804032854
 30
0.0
 11
170.7458430808854
 21
80.65571804032845
 31
0.0
  0
LINE
  5
766
330
18
100
AcDbEntity
  8
1
  6
Continuous
100
AcDbLine
 10
166.8958450808854
 20
79.65571804032845
 30
0.0
 11
196.5958410808853
 21
79.65571804032845
 31
0.0
  0
LINE
  5
76A
330
18
100
AcDbEntity
  8
1
  6
Continuous
100
AcDbLine
 10
165.9911542531022
 20
79.9557180403285
 30
0.0
 11
166.5723433075508
 21
79.60194560421006
 31
0.0
  0
ARC
  5
76B
330
18
100
AcDbEntity
  8
1
  6
Continuous
100
AcDbCircle
 10
167.041369253102
 20
81.06584804032843
 30
0.0
 40
4.0
100
AcDbArc
 50
339.3577074163886
 51
354.1149781513587
  0
LINE
  5
76D
330
18
100
AcDbEntity
  8
1
  6
Continuous
100
AcDbLine
 10
166.424175253102
 20
81.64202785706896
 30
0.0
 11
166.4241884674597
 21
82.65571804032845
 31
0.0
  0
ARC
  5
76E
330
18
100
AcDbEntity
  8
1
  6
Continuous
100
AcDbCircle
 10
162.9241752531019
 20
81.64202804032855
 30
0.0
 40
3.5
100
AcDbArc
 50
331.1970679999999
 51
359.9999970000002
  0
LINE
  5
772
330
18
100
AcDbEntity
  8
1
  6
Continuous
100
AcDbLine
 10
165.8958450808854
 20
77.65571804032845
 30
0.0
 11
165.8958450808854
 21
78.65571804032845
 31
0.0
  0
LINE
  5
774
330
18
100
AcDbEntity
  8
1
  6
Continuous
100
AcDbLine
 10
196.7398460808853
 20
48.65571804032845
 30
0.0
 11
166.7518400808854
 21
48.65571804032845
 31
0.0
  0
LINE
  5
775
330
18
100
AcDbEntity
  8
1
  6
Continuous
100
AcDbLine
 10
164.1089830808854
 20
51.17079404032853
 30
0.0
 11
165.0375570808854
 21
49.62555904032853
 31
0.0
  0
ARC
  5
776
330
18
100
AcDbEntity
  8
1
  6
Continuous
100
AcDbCircle
 10
163.2518400808854
 20
50.65571804032845
 30
0.0
 40
1.0
100
AcDbArc
 50
31.00270399999986
 51
89.99996402782192
  0
ARC
  5
777
330
18
100
AcDbEntity
  8
1
  6
Continuous
100
AcDbCircle
 10
166.7518400808854
 20
50.65571804032845
 30
0.0
 40
2.0
100
AcDbArc
 50
211.0027200000002
 51
269.9999499999999
  0
LINE
  5
778
330
18
100
AcDbEntity
  8
1
  6
Continuous
100
AcDbLine
 10
190.329097730545
 20
46.65571804032845
 30
0.0
 11
170.7458430808854
 21
46.65571804032845
 31
0.0
  0
ARC
  5
779
330
18
100
AcDbEntity
  8
1
  6
Continuous
100
AcDbCircle
 10
183.7458430808853
 20
44.65571804032845
 30
0.0
 40
9.0
100
AcDbArc
 50
192.773446461612
 51
270.0000179999999
  0
LINE
  5
77D
330
18
100
AcDbEntity
  8
4
  6
CENTER
 48
0.5
100
AcDbLine
 10
237.2458330808855
 20
34.25571794032856
 30
0.0
 11
237.2458330808855
 21
53.05571814032845
 31
0.0
  0
CIRCLE
  5
77E
330
18
100
AcDbEntity
  8
1
  6
Continuous
100
AcDbCircle
 10
237.2458330808855
 20
43.65571804032856
 30
0.0
 40
4.400000099999997
  0
ARC
  5
780
330
18
100
AcDbEntity
  8
1
  6
Continuous
100
AcDbCircle
 10
346.2038330808853
 20
64.65571804032845
 30
0.0
 40
103.46132
100
AcDbArc
 50
168.7159599999997
 51
191.2841099999999
  0
LINE
  5
783
330
18
100
AcDbEntity
  8
4
  6
CENTER
 48
0.5
100
AcDbLine
 10
227.8458329808855
 20
85.65571804032845
 30
0.0
 11
246.6458331808855
 21
85.65571804032845
 31
0.0
  0
CIRCLE
  5
784
330
18
100
AcDbEntity
  8
1
  6
Continuous
100
AcDbCircle
 10
237.2458330808855
 20
85.65571804032845
 30
0.0
 40
4.400000099999997
  0
LINE
  5
785
330
18
100
AcDbEntity
  8
4
  6
CENTER
 48
0.5
100
AcDbLine
 10
227.8458329808855
 20
43.65571804032856
 30
0.0
 11
246.6458331808855
 21
43.65571804032856
 31
0.0
  0
ARC
  5
786
330
18
100
AcDbEntity
  8
1
  6
Continuous
100
AcDbCircle
 10
235.7458330808855
 20
44.65571804032845
 30
0.0
 40
9.0
100
AcDbArc
 50
270.0000179999999
 51
358.4425606164022
  0
ARC
  5
82D
330
18
100
AcDbEntity
  8
1
  6
Continuous
100
AcDbCircle
 10
469.7487250177666
 20
180.6769308955896
 30
0.0
 40
3.0
100
AcDbArc
 50
41.12677999999981
 51
127.9999970000002
  0
LINE
  5
82E
330
18
100
AcDbEntity
  8
1
  6
Continuous
100
AcDbLine
 10
472.0084931778276
 20
182.6501130622368
 30
0.0
 11
473.2398171778275
 21
181.0740940622368
 31
0.0
  0
LINE
  5
82F
330
18
100
AcDbEntity
  8
1
  6
Continuous
100
AcDbLine
 10
529.9052920792388
 20
231.4834408618485
 30
0.0
 11
531.1366160792389
 21
229.9074191618484
 31
0.0
  0
LINE
  5
889
330
18
100
AcDbEntity
  8
1
  6
Continuous
100
AcDbLine
 10
184.2714915074546
 20
84.65571804032848
 30
0.0
 11
155.365889185731
 21
84.65571804032846
 31
0.0
  0
LINE
  5
88A
330
18
100
AcDbEntity
  8
1
  6
Continuous
100
AcDbLine
 10
169.4583623444166
 20
79.95573323166967
 30
0.0
 11
165.9911623444166
 21
79.95573323166967
 31
0.0
  0
ARC
  5
88B
330
18
100
AcDbEntity
  8
1
  6
Continuous
100
AcDbCircle
 10
166.3913752531021
 20
81.64202804032855
 30
0.0
 40
3.5
100
AcDbArc
 50
331.1970679999999
 51
359.9999970000002
  0
LINE
  5
88C
330
18
100
AcDbEntity
  8
1
  6
Continuous
100
AcDbLine
 10
169.8913752531021
 20
81.64202785706896
 30
0.0
 11
169.8913884674598
 21
82.65571804032845
 31
0.0
  0
LINE
  5
88D
330
18
100
AcDbEntity
  8
1
  6
Continuous
100
AcDbLine
 10
169.4583542531023
 20
79.9557180403285
 30
0.0
 11
169.9512041716761
 21
79.65571804032845
 31
0.0
  0
ARC
  5
88E
330
18
100
AcDbEntity
  8
1
  6
Continuous
100
AcDbCircle
 10
166.8958450808854
 20
78.65571804032845
 30
0.0
 40
1.0
100
AcDbArc
 50
90.0
 51
180.0
  0
LINE
  5
88F
330
18
100
AcDbEntity
  8
1
  6
Continuous
100
AcDbLine
 10
170.7458430808854
 20
82.65571804032845
 30
0.0
 11
170.7458430808854
 21
80.65571804032845
 31
0.0
  0
ARC
  5
890
330
18
100
AcDbEntity
  8
1
  6
Continuous
100
AcDbCircle
 10
169.2458430808854
 20
64.65571804032845
 30
0.0
 40
50.0
100
AcDbArc
 50
346.7519850943231
 51
13.24801999999984
  0
ARC
  5
891
330
18
100
AcDbEntity
  8
1
  6
Continuous
100
AcDbCircle
 10
215.96842862578
 20
53.65571804032857
 30
0.0
 40
2.0
100
AcDbArc
 50
270.0
 51
346.7519850943237
  0
ARC
  5
892
330
18
100
AcDbEntity
  8
1
  6
Continuous
100
AcDbCircle
 10
215.9684250808854
 20
75.65571804032845
 30
0.0
 40
2.0
100
AcDbArc
 50
13.24808999999992
 51
89.99993999999965
  0
LINE
  5
893
330
18
100
AcDbEntity
  8
1
  6
Continuous
100
AcDbLine
 10
199.3827030808853
 20
51.17079404032853
 30
0.0
 11
198.4541290808854
 21
49.62555904032853
 31
0.0
  0
ARC
  5
894
330
18
100
AcDbEntity
  8
1
  6
Continuous
100
AcDbCircle
 10
196.7398460808853
 20
50.65571804032845
 30
0.0
 40
2.0
100
AcDbArc
 50
270.0000500000001
 51
328.9972799999996
  0
ARC
  5
895
330
18
100
AcDbEntity
  8
1
  6
Continuous
100
AcDbCircle
 10
200.2398460808854
 20
50.65571804032845
 30
0.0
 40
1.0
100
AcDbArc
 50
90.00003597217805
 51
148.997296
  0
LINE
  5
896
330
18
100
AcDbEntity
  8
1
  6
Continuous
100
AcDbLine
 10
197.5958410808853
 20
77.65571804032845
 30
0.0
 11
197.5958410808853
 21
78.65571804032845
 31
0.0
  0
ARC
  5
897
330
18
100
AcDbEntity
  8
1
  6
Continuous
100
AcDbCircle
 10
196.5958410808853
 20
78.65571804032845
 30
0.0
 40
1.0
100
AcDbArc
 50
0.000000000000007
 51
90.0
  0
ARC
  5
B3C
330
18
100
AcDbEntity
  8
1
  6
Continuous
100
AcDbCircle
 10
332.6812140493261
 20
217.9784238955894
 30
0.0
 40
34.0
100
AcDbArc
 50
323.5595970069057
 51
28.90632405533096
  0
ARC
  5
B43
330
18
100
AcDbEntity
  8
1
  6
Continuous
100
AcDbCircle
 10
361.642319049326
 20
196.5949162979343
 30
0.0
 40
2.0
100
AcDbArc
 50
143.5595970069057
 51
180.0
  0
ARC
  5
B85
330
18
100
AcDbEntity
  8
1
  6
Continuous
100
AcDbCircle
 10
505.5387950177666
 20
200.1367718955894
 30
0.0
 40
11.0
100
AcDbArc
 50
219.745157307565
 51
11.33733999999962
  0
ARC
  5
BD6
330
18
100
AcDbEntity
  8
1
  6
Continuous
100
AcDbCircle
 10
209.7458430808873
 20
64.65571804032845
 30
0.0
 40
18.0
100
AcDbArc
 50
232.8199916994766
 51
132.4541588328166
  0
ARC
  5
BD7
330
18
100
AcDbEntity
  8
1
  6
Continuous
100
AcDbCircle
 10
209.7458430808873
 20
64.65571804032845
 30
0.0
 40
28.0
100
AcDbArc
 50
221.4096221578611
 51
65.86525187830787
  0
ARC
  5
BD8
330
18
100
AcDbEntity
  8
1
  6
Continuous
100
AcDbCircle
 10
209.7458430808873
 20
64.65571804032776
 30
0.0
 40
23.10000000000001
100
AcDbArc
 50
229.8287313220861
 51
78.05725935838378
  0
ARC
  5
BD9
330
18
100
AcDbEntity
  8
1
  6
Continuous
100
AcDbCircle
 10
209.7458430808873
 20
64.65571804032776
 30
0.0
 40
25.10000000000002
100
AcDbArc
 50
229.8287313220861
 51
68.02159071209034
  0
ARC
  5
C00
330
18
100
AcDbEntity
  8
1
  6
Continuous
100
AcDbCircle
 10
190.329097730545
 20
41.65571804032845
 30
0.0
 40
7.0
100
AcDbArc
 50
49.82873132208631
 51
90.0
  0
ARC
  5
C04
330
18
100
AcDbEntity
  8
1
  6
Continuous
100
AcDbCircle
 10
190.329097730545
 20
41.65571804032845
 30
0.0
 40
5.0
100
AcDbArc
 50
49.82873132208631
 51
90.0
  0
ARC
  5
C2B
330
18
100
AcDbEntity
  8
1
  6
Continuous
100
AcDbCircle
 10
190.3290977305466
 20
87.65571804032845
 30
0.0
 40
7.0
100
AcDbArc
 50
270.0
 51
310.1712686779118
  0
LINE
  5
E33
330
18
100
AcDbEntity
  8
1
  6
Continuous
100
AcDbLine
 10
175.0458430965935
 20
42.65572802032841
 30
0.0
 11
188.4458430965933
 21
42.65572802032841
 31
0.0
  0
ARC
  5
E34
330
18
100
AcDbEntity
  8
1
  6
Continuous
100
AcDbCircle
 10
177.4139930965935
 20
45.15572802032841
 30
0.0
 40
1.5
100
AcDbArc
 50
90.00000299999769
 51
180.0000100000009
  0
ARC
  5
E35
330
18
100
AcDbEntity
  8
1
  6
Continuous
100
AcDbCircle
 10
177.4139930965935
 20
44.15572802032817
 30
0.0
 40
1.5
100
AcDbArc
 50
179.9999899999988
 51
270.0
  0
LINE
  5
E36
330
18
100
AcDbEntity
  8
1
  6
Continuous
100
AcDbLine
 10
175.9139930965935
 20
44.15572802032817
 30
0.0
 11
175.9139930965935
 21
45.15572802032841
 31
0.0
  0
LINE
  5
E37
330
18
100
AcDbEntity
  8
1
  6
Continuous
100
AcDbLine
 10
174.7458430965935
 20
42.95572802032814
 30
0.0
 11
174.7458430965935
 21
46.35571802032825
 31
0.0
  0
ARC
  5
E38
330
18
100
AcDbEntity
  8
1
  6
Continuous
100
AcDbCircle
 10
175.0458430965935
 20
42.95572802032814
 30
0.0
 40
0.30000001
100
AcDbArc
 50
179.9999899999988
 51
270.0
  0
ARC
  5
E39
330
18
100
AcDbEntity
  8
1
  6
Continuous
100
AcDbCircle
 10
175.0458430965935
 20
46.35571802032825
 30
0.0
 40
0.30000001
100
AcDbArc
 50
90.00000299999769
 51
180.0000100000009
  0
ARC
  5
E3A
330
18
100
AcDbEntity
  8
1
  6
Continuous
100
AcDbCircle
 10
188.4458430965933
 20
46.35571802032825
 30
0.0
 40
0.30000001
100
AcDbArc
 50
0.0
 51
90.00000299999769
  0
ARC
  5
E3B
330
18
100
AcDbEntity
  8
1
  6
Continuous
100
AcDbCircle
 10
186.0776930965935
 20
45.15572802032841
 30
0.0
 40
1.5
100
AcDbArc
 50
0.0
 51
90.00000299999769
  0
ARC
  5
E3C
330
18
100
AcDbEntity
  8
1
  6
Continuous
100
AcDbCircle
 10
188.4458430965933
 20
42.95572802032814
 30
0.0
 40
0.30000001
100
AcDbArc
 50
270.0
 51
0.0
  0
ARC
  5
E3D
330
18
100
AcDbEntity
  8
1
  6
Continuous
100
AcDbCircle
 10
186.0776930965935
 20
44.15572802032817
 30
0.0
 40
1.5
100
AcDbArc
 50
270.0
 51
0.0
  0
LINE
  5
E3E
330
18
100
AcDbEntity
  8
1
  6
Continuous
100
AcDbLine
 10
188.7458430965935
 20
42.95572802032814
 30
0.0
 11
188.7458430965935
 21
46.35571802032825
 31
0.0
  0
LINE
  5
E3F
330
18
100
AcDbEntity
  8
1
  6
Continuous
100
AcDbLine
 10
187.5776930965935
 20
44.15572802032817
 30
0.0
 11
187.5776930965935
 21
45.15572802032841
 31
0.0
  0
ARC
  5
E40
330
18
100
AcDbEntity
  8
1
  6
Continuous
100
AcDbCircle
 10
184.4139930965935
 20
45.15572802032841
 30
0.0
 40
1.5
100
AcDbArc
 50
90.00000299999769
 51
180.0000100000009
  0
ARC
  5
E41
330
18
100
AcDbEntity
  8
1
  6
Continuous
100
AcDbCircle
 10
179.0776930965935
 20
45.15572802032841
 30
0.0
 40
1.5
100
AcDbArc
 50
0.0
 51
90.00000299999769
  0
ARC
  5
E42
330
18
100
AcDbEntity
  8
1
  6
Continuous
100
AcDbCircle
 10
184.4139930965935
 20
44.15572802032817
 30
0.0
 40
1.5
100
AcDbArc
 50
179.9999899999988
 51
270.0
  0
ARC
  5
E43
330
18
100
AcDbEntity
  8
1
  6
Continuous
100
AcDbCircle
 10
179.0776930965935
 20
44.15572802032817
 30
0.0
 40
1.5
100
AcDbArc
 50
270.0
 51
0.0
  0
LINE
  5
E44
330
18
100
AcDbEntity
  8
1
  6
Continuous
100
AcDbLine
 10
180.5776930965935
 20
44.15572802032817
 30
0.0
 11
180.5776930965935
 21
45.15572802032841
 31
0.0
  0
LINE
  5
E45
330
18
100
AcDbEntity
  8
1
  6
Continuous
100
AcDbLine
 10
182.9139930965935
 20
44.15572802032817
 30
0.0
 11
182.9139930965935
 21
45.15572802032841
 31
0.0
  0
LINE
  5
F09
330
18
100
AcDbEntity
  8
1
  6
Continuous
100
AcDbLine
 10
173.9458430808854
 20
87.05567324032854
 30
0.0
 11
174.0863951339647
 21
87.16728697128257
 31
0.0
  0
ARC
  5
F0E
330
18
100
AcDbEntity
  8
1
  6
Continuous
100
AcDbCircle
 10
188.2458450808853
 20
86.55567324032851
 30
0.0
 40
1.199999999999999
100
AcDbArc
 50
13.39894326278504
 51
27.14425954320873
  0
ARC
  5
F14
330
18
100
AcDbEntity
  8
1
  6
Continuous
100
AcDbCircle
 10
175.6539198577852
 20
84.60886348700325
 30
0.0
 40
2.984022550208728
100
AcDbArc
 50
124.9181829901957
 51
179.1003156190914
  0
ARC
  5
F18
330
18
100
AcDbEntity
  8
1
  6
Continuous
100
AcDbCircle
 10
187.4539218577853
 20
84.60886348700325
 30
0.0
 40
2.984022550208728
100
AcDbArc
 50
125.0089719828721
 51
179.1003156190914
  0
ARC
  5
F19
330
18
100
AcDbEntity
  8
1
  6
Continuous
100
AcDbCircle
 10
177.8830955320819
 20
84.79240466751079
 30
0.0
 40
2.641867807910599
100
AcDbArc
 50
357.0342705713845
 51
64.6497954138238
  0
LINE
  5
F1C
330
18
100
AcDbEntity
  8
1
  6
Continuous
100
AcDbLine
 10
195.5221771921433
 20
89.25571604032844
 30
0.0
 11
218.151573383082
 21
89.25571604032844
 31
0.0
  0
LINE
  5
F1D
330
18
100
AcDbEntity
  8
1
  6
Continuous
100
AcDbLine
 10
195.5221771921433
 20
87.25571604032841
 30
0.0
 11
218.151573383082
 21
87.25571604032841
 31
0.0
  0
LINE
  5
F1E
330
18
100
AcDbEntity
  8
1
  6
Continuous
100
AcDbLine
 10
185.1122793388195
 20
84.84103464573072
 30
0.0
 11
193.8406015294136
 21
88.88508282952399
 31
0.0
  0
LINE
  5
F1F
330
18
100
AcDbEntity
  8
1
  6
Continuous
100
AcDbLine
 10
185.9530671701843
 20
83.0263512511329
 30
0.0
 11
194.6813893607784
 21
87.07039943492619
 31
0.0
  0
ARC
  5
F20
330
18
100
AcDbEntity
  8
1
  6
Continuous
100
AcDbCircle
 10
184.2714915074546
 20
86.65571804032849
 30
0.0
 40
2.0
100
AcDbArc
 50
270.0
 51
294.8594595278549
  0
ARC
  5
F21
330
18
100
AcDbEntity
  8
1
  6
Continuous
100
AcDbCircle
 10
195.5221771921433
 20
85.25571604032842
 30
0.0
 40
2.0
100
AcDbArc
 50
90.0
 51
114.8594595278549
  0
ARC
  5
F22
330
18
100
AcDbEntity
  8
1
  6
Continuous
100
AcDbCircle
 10
195.5221771921433
 20
85.25571604032846
 30
0.0
 40
4.0
100
AcDbArc
 50
89.99999999999992
 51
114.8594595278548
  0
ARC
  5
F23
330
18
100
AcDbEntity
  8
1
  6
Continuous
100
AcDbCircle
 10
184.2714915074546
 20
86.65571804032845
 30
0.0
 40
4.0
100
AcDbArc
 50
270.0
 51
294.8594595278549
  0
ARC
  5
F25
330
18
100
AcDbEntity
  8
1
  6
Continuous
100
AcDbCircle
 10
203.9802673641716
 20
85.25571604032844
 30
0.0
 40
2.0
100
AcDbArc
 50
90.0
 51
114.8594595278549
  0
LINE
  5
F26
330
18
100
AcDbEntity
  8
1
  6
Continuous
100
AcDbLine
 10
194.4111573422125
 20
83.02635125113292
 30
0.0
 11
203.1394795328067
 21
87.0703994349262
 31
0.0
  0
ARC
  5
F27
330
18
100
AcDbEntity
  8
1
  6
Continuous
100
AcDbCircle
 10
192.729581679483
 20
86.65571804032847
 30
0.0
 40
4.0
100
AcDbArc
 50
270.0
 51
294.8594595278549
  0
LINE
  5
F28
330
18
100
AcDbEntity
  8
1
  6
Continuous
100
AcDbLine
 10
218.151573383082
 20
89.25571604032844
 30
0.0
 11
218.151573383082
 21
87.25571604032841
 31
0.0
  0
ARC
  5
F29
330
18
100
AcDbEntity
  8
1
  6
Continuous
100
AcDbCircle
 10
209.7458430808873
 20
64.65571804032776
 30
0.0
 40
23.10000000000001
100
AcDbArc
 50
101.9427406416161
 51
130.1712686779119
  0
ARC
  5
F2A
330
18
100
AcDbEntity
  8
1
  6
Continuous
100
AcDbCircle
 10
213.5516368242504
 20
95.04122271193006
 30
0.0
 40
9.042871804843217
100
AcDbArc
 50
300.5760079102966
 51
351.1867063955136
  0
ARC
  5
F2C
330
18
100
AcDbEntity
  8
1
  6
Continuous
100
AcDbCircle
 10
208.1773371693052
 20
95.62873201222712
 30
0.0
 40
12.98156091158014
100
AcDbArc
 50
351.2579711549349
 51
58.28654260621525
  0
ARC
  5
F2D
330
18
100
AcDbEntity
  8
1
  6
Continuous
100
AcDbCircle
 10
216.1802838178419
 20
93.66272744562396
 30
0.0
 40
4.827808206259764
100
AcDbArc
 50
294.0993293747224
 51
359.9168132891144
  0
ARC
  5
F2E
330
18
100
AcDbEntity
  8
1
  6
Continuous
100
AcDbCircle
 10
212.3332672512716
 20
98.26924934755345
 30
0.0
 40
8.816165241644052
100
AcDbArc
 50
72.38388658969249
 51
85.1862523639644
  0
ARC
  5
F32
330
18
100
AcDbEntity
  8
1
  6
Continuous
100
AcDbCircle
 10
209.5423853679045
 20
86.24202604032852
 30
0.0
 40
3.5
100
AcDbArc
 50
331.1970679999999
 51
359.9999970000002
  0
ARC
  5
F33
330
18
100
AcDbEntity
  8
1
  6
Continuous
100
AcDbCircle
 10
206.5479458665278
 20
86.24202604032852
 30
0.0
 40
3.5
100
AcDbArc
 50
331.1970679999999
 51
359.9999970000002
  0
LINE
  5
F34
330
18
100
AcDbEntity
  8
1
  6
Continuous
100
AcDbLine
 10
212.6093376458079
 20
84.55573123166962
 30
0.0
 11
209.6149329578424
 21
84.55573123166962
 31
0.0
  0
LINE
  5
F35
330
18
100
AcDbEntity
  8
1
  6
Continuous
100
AcDbLine
 10
213.0423853679045
 20
86.24202585706894
 30
0.0
 11
213.042398582262
 21
87.25571604032841
 31
0.0
  0
LINE
  5
F36
330
18
100
AcDbEntity
  8
1
  6
Continuous
100
AcDbLine
 10
210.0479458665278
 20
86.24202585706894
 30
0.0
 11
210.0479590808853
 21
87.25571604032841
 31
0.0
  0
ARC
  5
F37
330
18
100
AcDbEntity
  8
1
  6
Continuous
100
AcDbCircle
 10
210.273721801273
 20
85.66584604032838
 30
0.0
 40
4.0
100
AcDbArc
 50
333.0935414712636
 51
0.0
  0
LINE
  5
F38
330
18
100
AcDbEntity
  8
1
  6
Continuous
100
AcDbLine
 10
212.6093376458079
 20
84.55573123166962
 30
0.0
 11
213.8406811764834
 21
83.85572030300712
 31
0.0
  0
LINE
  5
F39
330
18
100
AcDbEntity
  8
1
  6
Continuous
100
AcDbLine
 10
214.273721801273
 20
85.66584604032838
 30
0.0
 11
214.273721801273
 21
87.25571604032841
 31
0.0
  0
LINE
  5
F3A
330
18
100
AcDbEntity
  8
1
  6
Continuous
100
AcDbLine
 10
213.8406811764834
 20
83.85572030300712
 30
0.0
 11
210.8462416751069
 21
83.85572030300712
 31
0.0
  0
LINE
  5
F3C
330
18
100
AcDbEntity
  8
1
  6
Continuous
100
AcDbLine
 10
209.6149248665279
 20
84.55571604032845
 30
0.0
 11
210.8462416751069
 21
83.85572030300712
 31
0.0
  0
ARC
  5
1129
330
18
100
AcDbEntity
  8
1
  6
Continuous
100
AcDbCircle
 10
505.5387950177666
 20
200.1367718955894
 30
0.0
 40
18.50000199999996
100
AcDbArc
 50
166.2186443082308
 51
64.85360915784274
  0
LINE
  5
113C
330
18
100
AcDbEntity
  8
1
  6
Continuous
100
AcDbLine
 10
512.5387950177667
 20
202.8293530955896
 30
0.0
 11
512.5387950177667
 21
197.4441908955894
 31
0.0
  0
CIRCLE
  5
113D
330
18
100
AcDbEntity
  8
1
  6
Continuous
100
AcDbCircle
 10
505.5387950177666
 20
200.1367718955894
 30
0.0
 40
2.299999999999998
  0
CIRCLE
  5
113E
330
18
100
AcDbEntity
  8
1
  6
Continuous
100
AcDbCircle
 10
505.5387950177666
 20
200.1367718955894
 30
0.0
 40
6.3000002
  0
LINE
  5
113F
330
18
100
AcDbEntity
  8
1
  6
Continuous
100
AcDbLine
 10
498.5387950177666
 20
202.8293530955896
 30
0.0
 11
498.5387950177666
 21
197.4441908955894
 31
0.0
  0
LINE
  5
1140
330
18
100
AcDbEntity
  8
1
  6
Continuous
100
AcDbLine
 10
499.7069450177666
 20
195.4208728955896
 30
0.0
 11
504.3706250177662
 21
192.7282918955896
 31
0.0
  0
ARC
  5
1141
330
18
100
AcDbEntity
  8
1
  6
Continuous
100
AcDbCircle
 10
505.5387950177666
 20
200.1367718955894
 30
0.0
 40
7.5
100
AcDbArc
 50
201.0394399999987
 51
218.9605300000001
  0
ARC
  5
1142
330
18
100
AcDbEntity
  8
1
  6
Continuous
100
AcDbCircle
 10
505.5387950177666
 20
200.1367718955894
 30
0.0
 40
7.5
100
AcDbArc
 50
321.0394400000053
 51
338.9605399999993
  0
ARC
  5
1143
330
18
100
AcDbEntity
  8
1
  6
Continuous
100
AcDbCircle
 10
505.5387950177666
 20
200.1367718955894
 30
0.0
 40
7.5
100
AcDbArc
 50
261.0394499999967
 51
278.960560000004
  0
LINE
  5
1144
330
18
100
AcDbEntity
  8
1
  6
Continuous
100
AcDbLine
 10
506.7069650177666
 20
192.7282918955896
 30
0.0
 11
511.3706450177667
 21
195.4208728955896
 31
0.0
  0
LINE
  5
1145
330
18
100
AcDbEntity
  8
1
  6
Continuous
100
AcDbLine
 10
499.7069450177666
 20
204.8526407955896
 30
0.0
 11
504.3706450177666
 21
207.5452296955897
 31
0.0
  0
ARC
  5
1146
330
18
100
AcDbEntity
  8
1
  6
Continuous
100
AcDbCircle
 10
505.5387950177666
 20
200.1367718955894
 30
0.0
 40
7.5
100
AcDbArc
 50
141.0395299999985
 51
158.9605600000011
  0
ARC
  5
1147
330
18
100
AcDbEntity
  8
1
  6
Continuous
100
AcDbCircle
 10
505.5387950177666
 20
200.1367718955894
 30
0.0
 40
7.5
100
AcDbArc
 50
21.03946000000068
 51
38.96051600000396
  0
ARC
  5
1148
330
18
100
AcDbEntity
  8
1
  6
Continuous
100
AcDbCircle
 10
505.5387950177666
 20
200.1367718955894
 30
0.0
 40
7.5
100
AcDbArc
 50
81.0394840000055
 51
98.960513999997
  0
LINE
  5
1149
330
18
100
AcDbEntity
  8
1
  6
Continuous
100
AcDbLine
 10
506.7069450177666
 20
207.5452424955893
 30
0.0
 11
511.3706450177667
 21
204.8526613955896
 31
0.0
  0
ARC
  5
11BA
330
18
100
AcDbEntity
  8
1
  6
Continuous
100
AcDbCircle
 10
343.6423190493261
 20
187.6367738955896
 30
0.0
 40
50.0
100
AcDbArc
 50
97.35319353947121
 51
103.2480170000002
  0
ARC
  5
11C4
330
18
100
AcDbEntity
  8
1
  6
Continuous
100
AcDbCircle
 10
358.0681382429448
 20
231.9964151920431
 30
0.0
 40
5.0
100
AcDbArc
 50
28.90632405533096
 51
87.74161490652025
  0
ARC
  5
11C5
330
18
100
AcDbEntity
  8
1
  6
Continuous
100
AcDbCircle
 10
360.3804576114161
 20
231.8979032711989
 30
0.0
 40
5.0
100
AcDbArc
 50
26.6805346546654
 51
87.37938244938019
  0
ARC
  5
11C7
330
18
100
AcDbEntity
  8
1
  6
Continuous
100
AcDbCircle
 10
311.110169049326
 20
192.7213738955896
 30
0.0
 40
12.03
100
AcDbArc
 50
219.4268000000004
 51
304.4280426807632
  0
ARC
  5
11C8
330
18
100
AcDbEntity
  8
1
  6
Continuous
100
AcDbCircle
 10
304.2423170493261
 20
186.8479838955895
 30
0.0
 40
3.0
100
AcDbArc
 50
180.0
 51
216.0806499999998
  0
ARC
  5
11C9
330
18
100
AcDbEntity
  8
1
  6
Continuous
100
AcDbCircle
 10
318.5423210493261
 20
181.0575376391075
 30
0.0
 40
0.5
100
AcDbArc
 50
359.9999999999967
 51
126.380762464009
  0
ARC
  5
11CA
330
18
100
AcDbEntity
  8
1
  6
Continuous
100
AcDbCircle
 10
319.0423210493261
 20
181.14891241806
 30
0.0
 40
2.0
100
AcDbArc
 50
0.0000000000008142
 51
124.4280426807629
  0
ARC
  5
11CF
330
18
100
AcDbEntity
  8
1
  6
Continuous
100
AcDbCircle
 10
328.2468490493262
 20
218.8474426955896
 30
0.0
 40
1.0
100
AcDbArc
 50
37.3004500000001
 51
89.99999699999987
  0
LINE
  5
11D0
330
18
100
AcDbEntity
  8
1
  6
Continuous
100
AcDbLine
 10
328.2468490493262
 20
219.8474426955896
 30
0.0
 11
327.6423190493261
 21
219.8474426955896
 31
0.0
  0
LINE
  5
11D1
330
18
100
AcDbEntity
  8
1
  6
Continuous
100
AcDbLine
 10
323.6468510493261
 20
187.0326798496786
 30
0.0
 11
320.0423210493261
 21
187.0326798496786
 31
0.0
  0
LINE
  5
11D2
330
18
100
AcDbEntity
  8
1
  6
Continuous
100
AcDbLine
 10
323.6468510493261
 20
189.3721938703331
 30
0.0
 11
320.0423210493261
 21
189.3721938703331
 31
0.0
  0
LINE
  5
11D3
330
18
100
AcDbEntity
  8
1
  6
Continuous
100
AcDbLine
 10
323.2536860493261
 20
185.4566600496786
 30
0.0
 11
321.0423210493261
 21
185.4566600496786
 31
0.0
  0
ARC
  5
11D4
330
18
100
AcDbEntity
  8
1
  6
Continuous
100
AcDbCircle
 10
323.6468510493261
 20
186.0326798496786
 30
0.0
 40
1.0
100
AcDbArc
 50
37.3004500000001
 51
89.99999699999987
  0
ARC
  5
11D5
330
18
100
AcDbEntity
  8
1
  6
Continuous
100
AcDbCircle
 10
323.6468510493261
 20
188.3721938703331
 30
0.0
 40
1.0
100
AcDbArc
 50
37.3004500000001
 51
89.99999699999987
  0
LINE
  5
11D6
330
18
100
AcDbEntity
  8
1
  6
Continuous
100
AcDbLine
 10
323.7423220351452
 20
185.062654735218
 30
0.0
 11
324.4423270351451
 21
186.638677735218
 31
0.0
  0
ARC
  5
11D7
330
18
100
AcDbEntity
  8
1
  6
Continuous
100
AcDbCircle
 10
323.2536860493261
 20
184.9566600496786
 30
0.0
 40
0.5
100
AcDbArc
 50
12.23896000000012
 51
89.99999699999987
  0
LINE
  5
11D8
330
18
100
AcDbEntity
  8
1
  6
Continuous
100
AcDbLine
 10
324.4423230493262
 20
188.9781890703329
 30
0.0
 11
324.4423230493262
 21
186.6386687613644
 31
0.0
  0
LINE
  5
11D9
330
18
100
AcDbEntity
  8
1
  6
Continuous
100
AcDbLine
 10
320.0423210493261
 20
187.0326798496786
 30
0.0
 11
321.0423210493261
 21
185.4566600496786
 31
0.0
  0
LINE
  5
11DA
330
18
100
AcDbEntity
  8
1
  6
Continuous
100
AcDbLine
 10
321.0423210493261
 20
185.4566600496786
 30
0.0
 11
321.0423210493261
 21
178.3359128955894
 31
0.0
  0
ARC
  5
11DB
330
18
100
AcDbEntity
  8
1
  6
Continuous
100
AcDbCircle
 10
329.2164998557071
 20
231.9964151920431
 30
0.0
 40
5.0
100
AcDbArc
 50
92.25838509347971
 51
151.093675944669
  0
ARC
  5
11DC
330
18
100
AcDbEntity
  8
1
  6
Continuous
100
AcDbCircle
 10
326.9041804872359
 20
231.8979032711989
 30
0.0
 40
5.0
100
AcDbArc
 50
92.6206175506198
 51
153.3194653453344
  0
ARC
  5
11DD
330
18
100
AcDbEntity
  8
1
  6
Continuous
100
AcDbCircle
 10
354.603424049326
 20
217.9784238955894
 30
0.0
 40
34.0
100
AcDbArc
 50
151.093675944669
 51
216.4404029930943
  0
ARC
  5
11DE
330
18
100
AcDbEntity
  8
1
  6
Continuous
100
AcDbCircle
 10
354.603424049326
 20
217.9784238955896
 30
0.0
 40
36.0
100
AcDbArc
 50
153.3194653453344
 51
216.4404029930925
  0
ARC
  5
11DF
330
18
100
AcDbEntity
  8
1
  6
Continuous
100
AcDbCircle
 10
325.6423190493261
 20
196.5949162979343
 30
0.0
 40
2.0
100
AcDbArc
 50
0.000000000000007
 51
36.44040299309414
  0
LINE
  5
11E0
330
18
100
AcDbEntity
  8
1
  6
Continuous
100
AcDbLine
 10
313.4058239919423
 20
215.9599625596458
 30
0.0
 11
318.660054510073
 21
215.9599625596458
 31
0.0
  0
LINE
  5
11E1
330
18
100
AcDbEntity
  8
1
  6
Continuous
100
AcDbLine
 10
311.772264473651
 20
199.6360386990879
 30
0.0
 11
321.6267085148611
 21
199.6360386990879
 31
0.0
  0
LINE
  5
1396
330
18
100
AcDbEntity
  8
0
  6
Continuous
100
AcDbLine
 10
196.2970897470237
 20
96.00774747837478
 30
0.0
 11
196.2970897470237
 21
90.25571604032846
 31
0.0
  0
LINE
  5
13FA
330
18
100
AcDbEntity
  8
1
  6
Continuous
100
AcDbLine
 10
71.20571711244483
 20
206.1367181955895
 30
0.0
 11
71.20571711244483
 21
194.1366818955896
 31
0.0
  0
ARC
  5
13FB
330
18
100
AcDbEntity
  8
1
  6
Continuous
100
AcDbCircle
 10
60.98056161672012
 20
197.1367238955896
 30
0.0
 40
6.025157499999997
100
AcDbArc
 50
330.1375650387541
 51
29.8624339999999
  0
LINE
  5
13FC
330
18
100
AcDbEntity
  8
1
  6
Continuous
100
AcDbLine
 10
65.20571711244483
 20
191.6367658955896
 30
0.0
 11
65.20571711244483
 21
208.6367658955896
 31
0.0
  0
LINE
  5
13FD
330
18
100
AcDbEntity
  8
1
  6
Continuous
100
AcDbLine
 10
63.80571701244483
 20
208.6367658955894
 30
0.0
 11
63.80571701244488
 21
191.6367658955896
 31
0.0
  0
ARC
  5
13FE
330
18
100
AcDbEntity
  8
1
  6
Continuous
100
AcDbCircle
 10
67.92000001244488
 20
200.1367658955897
 30
0.0
 40
4.8142858
100
AcDbArc
 50
148.7155100000009
 51
211.2844999999992
  0
ARC
  5
13FF
330
18
100
AcDbEntity
  8
1
  6
Continuous
100
AcDbCircle
 10
65.18056021244487
 20
197.1367238955896
 30
0.0
 40
6.025157499999997
100
AcDbArc
 50
330.1375700000023
 51
29.8624339999999
  0
LINE
  5
1400
330
18
100
AcDbEntity
  8
1
  6
Continuous
100
AcDbLine
 10
66.20571911655222
 20
194.1366818955896
 30
0.0
 11
71.20571711244483
 21
194.1366818955896
 31
0.0
  0
LINE
  5
1401
330
18
100
AcDbEntity
  8
1
  6
Continuous
100
AcDbLine
 10
66.79620074933095
 20
194.1366818955896
 30
0.0
 11
65.20571711244483
 21
191.6367658955896
 31
0.0
  0
LINE
  5
1402
330
18
100
AcDbEntity
  8
1
  6
Continuous
100
AcDbLine
 10
63.80571701244488
 20
192.3367648955896
 30
0.0
 11
63.36598101244485
 21
192.8905098955896
 31
0.0
  0
ARC
  5
1403
330
18
100
AcDbEntity
  8
1
  6
Continuous
100
AcDbCircle
 10
64.30571701244478
 20
193.6367658955896
 30
0.0
 40
1.199999999999999
100
AcDbArc
 50
163.2315600000002
 51
218.453530000001
  0
LINE
  5
1404
330
18
100
AcDbEntity
  8
1
  6
Continuous
100
AcDbLine
 10
63.80571701244488
 20
196.1367668955896
 30
0.0
 11
63.15674101244493
 21
193.9829698955896
 31
0.0
  0
LINE
  5
1405
330
18
100
AcDbEntity
  8
1
  6
Continuous
100
AcDbLine
 10
63.80571701244488
 20
191.6367658955896
 30
0.0
 11
65.20571711244483
 21
191.6367658955896
 31
0.0
  0
LINE
  5
1406
330
18
100
AcDbEntity
  8
1
  6
Continuous
100
AcDbLine
 10
66.20571916688297
 20
200.1367658079271
 30
0.0
 11
70.40571821244481
 21
200.1367658955897
 31
0.0
  0
LINE
  5
1407
330
18
100
AcDbEntity
  8
1
  6
Continuous
100
AcDbLine
 10
66.20571753724313
 20
206.1367181955895
 30
0.0
 11
71.20571711244483
 21
206.1367181955895
 31
0.0
  0
ARC
  5
1408
330
18
100
AcDbEntity
  8
1
  6
Continuous
100
AcDbCircle
 10
60.98080661672007
 20
203.1367429955897
 30
0.0
 40
6.0249104
100
AcDbArc
 50
330.1369399999976
 51
29.86305163530118
  0
LINE
  5
1409
330
18
100
AcDbEntity
  8
1
  6
Continuous
100
AcDbLine
 10
66.79628453882415
 20
206.1367181955895
 30
0.0
 11
65.20571711244483
 21
208.6367658955896
 31
0.0
  0
LINE
  5
140A
330
18
100
AcDbEntity
  8
1
  6
Continuous
100
AcDbLine
 10
63.80571701244488
 20
204.1367668955897
 30
0.0
 11
63.15674301244482
 21
206.2905603955896
 31
0.0
  0
ARC
  5
140B
330
18
100
AcDbEntity
  8
1
  6
Continuous
100
AcDbCircle
 10
64.30571701244478
 20
206.6367658955897
 30
0.0
 40
1.199999999999999
100
AcDbArc
 50
141.5464599999998
 51
196.768429999999
  0
LINE
  5
140C
330
18
100
AcDbEntity
  8
1
  6
Continuous
100
AcDbLine
 10
63.80571701244488
 20
207.9367685255896
 30
0.0
 11
63.36598101244485
 21
207.3830235955896
 31
0.0
  0
LINE
  5
140D
330
18
100
AcDbEntity
  8
1
  6
Continuous
100
AcDbLine
 10
63.80571701244488
 20
208.6367658955896
 30
0.0
 11
65.20571711244483
 21
208.6367658955896
 31
0.0
  0
ARC
  5
140E
330
18
100
AcDbEntity
  8
1
  6
Continuous
100
AcDbCircle
 10
65.18080821244481
 20
203.1367429955897
 30
0.0
 40
6.0249104
100
AcDbArc
 50
330.1369399999976
 51
29.86306199999825
  0
CIRCLE
  5
1414
330
18
100
AcDbEntity
  8
1
  6
Continuous
100
AcDbCircle
 10
181.7458430808853
 20
200.1367718955893
 30
0.0
 40
6.0
  0
CIRCLE
  5
1415
330
18
100
AcDbEntity
  8
1
  6
Continuous
100
AcDbCircle
 10
181.7458430808853
 20
200.1367718955893
 30
0.0
 40
8.5
  0
LINE
  5
1419
330
18
100
AcDbEntity
  8
1
  6
Continuous
100
AcDbLine
 10
185.2099391808853
 20
206.1367718955893
 30
0.0
 11
178.2817469808852
 21
206.1367718955893
 31
0.0
  0
LINE
  5
141A
330
18
100
AcDbEntity
  8
1
  6
Continuous
100
AcDbLine
 10
185.2099391808853
 20
194.1367718955893
 30
0.0
 11
178.2817469808852
 21
194.1367718955893
 31
0.0
  0
LINE
  5
141B
330
18
100
AcDbEntity
  8
1
  6
Continuous
100
AcDbLine
 10
174.8176356808851
 20
200.1367528955892
 30
0.0
 11
178.2817352808853
 21
194.1367568955891
 31
0.0
  0
LINE
  5
141C
330
18
100
AcDbEntity
  8
1
  6
Continuous
100
AcDbLine
 10
174.817636680885
 20
200.1367798955892
 30
0.0
 11
178.2817369808853
 21
206.1367758955892
 31
0.0
  0
LINE
  5
141D
330
18
100
AcDbEntity
  8
1
  6
Continuous
100
AcDbLine
 10
185.2099426808853
 20
194.1367798955891
 30
0.0
 11
188.6740428808853
 21
200.1367758955892
 31
0.0
  0
LINE
  5
141E
330
18
100
AcDbEntity
  8
1
  6
Continuous
100
AcDbLine
 10
185.2099434808853
 20
206.1367678955893
 30
0.0
 11
188.6740428808853
 21
200.1367678955892
 31
0.0
  0
ARC
  5
1424
330
18
100
AcDbEntity
  8
1
  6
Continuous
100
AcDbCircle
 10
181.7458430808855
 20
331.0178798508506
 30
0.0
 40
7.900000099999997
100
AcDbArc
 50
247.9313897800751
 51
270.0
  0
ARC
  5
1439
330
18
100
AcDbEntity
  8
1
  6
Continuous
100
AcDbCircle
 10
186.9419952808853
 20
325.3928793808506
 30
0.0
 40
2.2750001
100
AcDbArc
 50
220.4174400000026
 51
301.9322410000008
  0
LINE
  5
143A
330
18
100
AcDbEntity
  8
1
  6
Continuous
100
AcDbLine
 10
177.5512174755488
 20
323.1178797508508
 30
0.0
 11
187.7458430808853
 21
323.1178797508508
 31
0.0
  0
LINE
  5
143C
330
18
100
AcDbEntity
  8
1
  6
Continuous
100
AcDbLine
 10
185.2099446808855
 20
324.6178317508507
 30
0.0
 11
185.2099446808855
 21
323.9178799508508
 31
0.0
  0
ARC
  5
143E
330
18
100
AcDbEntity
  8
1
  6
Continuous
100
AcDbCircle
 10
181.7458430808855
 20
331.0178798508506
 30
0.0
 40
7.900000099999997
100
AcDbArc
 50
270.0
 51
296.007824000001
  0
LINE
  5
143F
330
18
100
AcDbEntity
  8
1
  6
Continuous
100
AcDbLine
 10
188.6740461808853
 20
324.6178317508507
 30
0.0
 11
188.6740461808853
 21
323.9178799508508
 31
0.0
  0
LINE
  5
1440
330
18
100
AcDbEntity
  8
1
  6
Continuous
100
AcDbLine
 10
188.6740466808854
 20
323.9178793608508
 30
0.0
 11
187.7458430808853
 21
323.1178792508507
 31
0.0
  0
ARC
  5
1447
330
18
100
AcDbEntity
  8
1
  6
Continuous
100
AcDbCircle
 10
319.1672299493262
 20
203.1367429955897
 30
0.0
 40
6.0249104
100
AcDbArc
 50
150.1369380000016
 51
181.944961408188
  0
LINE
  5
1448
330
18
100
AcDbEntity
  8
1
  6
Continuous
100
AcDbLine
 10
315.4532392248257
 20
206.1367181955895
 30
0.0
 11
313.1423210493261
 21
206.1367181955895
 31
0.0
  0
LINE
  5
1449
330
18
100
AcDbEntity
  8
1
  6
Continuous
100
AcDbLine
 10
313.1423210493261
 20
206.1367181955895
 30
0.0
 11
313.1423210493261
 21
202.9274425211601
 31
0.0
  0
ARC
  5
144C
330
18
100
AcDbEntity
  8
1
  6
Continuous
100
AcDbCircle
 10
177.9958470808853
 20
90.96335824032856
 30
0.0
 40
3.9181328
100
AcDbArc
 50
234.9526500000001
 51
305.0473400000007
  0
LINE
  5
144F
330
18
100
AcDbEntity
  8
1
  6
Continuous
100
AcDbLine
 10
187.7458476610126
 20
95.15567004032849
 30
0.0
 11
175.7458470808854
 21
95.15567004032849
 31
0.0
  0
ARC
  5
1450
330
18
100
AcDbEntity
  8
1
  6
Continuous
100
AcDbCircle
 10
181.7458470808853
 20
87.25566994032861
 30
0.0
 40
7.900000099999997
100
AcDbArc
 50
90.0
 51
116.0078240000009
  0
ARC
  5
1451
330
18
100
AcDbEntity
  8
1
  6
Continuous
100
AcDbCircle
 10
181.7458470808853
 20
83.0556701403286
 30
0.0
 40
7.900000099999997
100
AcDbArc
 50
90.0
 51
116.0078240000009
  0
LINE
  5
1455
330
18
100
AcDbEntity
  8
1
  6
Continuous
100
AcDbLine
 10
185.2099486808855
 20
90.15567004032849
 30
0.0
 11
185.2099486808855
 21
94.35566984032849
 31
0.0
  0
LINE
  5
1456
330
18
100
AcDbEntity
  8
1
  6
Continuous
100
AcDbLine
 10
188.6740501808853
 20
90.15567004032849
 30
0.0
 11
188.6740501808853
 21
94.35566984032849
 31
0.0
  0
ARC
  5
1457
330
18
100
AcDbEntity
  8
1
  6
Continuous
100
AcDbCircle
 10
186.9419992808852
 20
88.68067014032861
 30
0.0
 40
2.2750001
100
AcDbArc
 50
40.41744000000262
 51
139.5825629999982
  0
ARC
  5
1458
330
18
100
AcDbEntity
  8
1
  6
Continuous
100
AcDbCircle
 10
181.7458470808853
 20
83.0556701403286
 30
0.0
 40
7.900000099999997
100
AcDbArc
 50
63.9921799999991
 51
90.0
  0
ARC
  5
1459
330
18
100
AcDbEntity
  8
1
  6
Continuous
100
AcDbCircle
 10
186.9419992808852
 20
92.88067041032851
 30
0.0
 40
2.2750001
100
AcDbArc
 50
58.06775999999803
 51
139.5825629999982
  0
LINE
  5
145B
330
18
100
AcDbEntity
  8
1
  6
Continuous
100
AcDbLine
 10
188.6740506808853
 20
94.3556704303285
 30
0.0
 11
187.7458470808853
 21
95.15567054032855
 31
0.0
  0
ARC
  5
145F
330
18
100
AcDbEntity
  8
1
  6
Continuous
100
AcDbCircle
 10
181.7458470808853
 20
87.25566994032861
 30
0.0
 40
7.900000099999997
100
AcDbArc
 50
63.9921799999991
 51
90.0
  0
ARC
  5
1460
330
18
100
AcDbEntity
  8
1
  6
Continuous
100
AcDbCircle
 10
185.4958470808853
 20
90.96335824032856
 30
0.0
 40
3.9181328
100
AcDbArc
 50
234.9526500000001
 51
305.0473400000007
  0
LINE
  5
1461
330
18
100
AcDbEntity
  8
1
  6
Continuous
100
AcDbLine
 10
173.2458470808853
 20
87.75566994032855
 30
0.0
 11
190.2458470808854
 21
87.75566994032855
 31
0.0
  0
LINE
  5
1462
330
18
100
AcDbEntity
  8
1
  6
Continuous
100
AcDbLine
 10
173.2458470808853
 20
89.15567004032849
 30
0.0
 11
190.2458470808854
 21
89.15567004032849
 31
0.0
  0
LINE
  5
1463
330
18
100
AcDbEntity
  8
1
  6
Continuous
100
AcDbLine
 10
189.2458470808854
 20
87.05566964032852
 30
0.0
 11
187.4396689808854
 21
87.56139984032852
 31
0.0
  0
LINE
  5
1464
330
18
100
AcDbEntity
  8
1
  6
Continuous
100
AcDbLine
 10
190.2458470808854
 20
87.75566994032855
 30
0.0
 11
190.2458470808854
 21
89.15567004032849
 31
0.0
  0
LINE
  5
1465
330
18
100
AcDbEntity
  8
1
  6
Continuous
100
AcDbLine
 10
188.6740501808853
 20
90.15567054032855
 30
0.0
 11
190.2458470808854
 21
89.15567004032849
 31
0.0
  0
LINE
  5
1466
330
18
100
AcDbEntity
  8
1
  6
Continuous
100
AcDbLine
 10
190.2458470808854
 20
87.7556704403285
 30
0.0
 11
189.2458470808854
 21
87.0556706403285
 31
0.0
  0
ARC
  5
1467
330
18
100
AcDbEntity
  8
1
  6
Continuous
100
AcDbCircle
 10
176.5496948808854
 20
88.68067014032861
 30
0.0
 40
2.2750001
100
AcDbArc
 50
40.41744000000262
 51
139.5825629999982
  0
LINE
  5
1468
330
18
100
AcDbEntity
  8
1
  6
Continuous
100
AcDbLine
 10
178.2817454808854
 20
90.15567004032849
 30
0.0
 11
178.2817454808854
 21
94.35566984032849
 31
0.0
  0
LINE
  5
1469
330
18
100
AcDbEntity
  8
1
  6
Continuous
100
AcDbLine
 10
174.8176439808853
 20
90.15567004032849
 30
0.0
 11
174.8176439808853
 21
94.35566984032849
 31
0.0
  0
ARC
  5
146D
330
18
100
AcDbEntity
  8
1
  6
Continuous
100
AcDbCircle
 10
176.5496948808854
 20
92.88067041032851
 30
0.0
 40
2.2750001
100
AcDbArc
 50
40.41744000000262
 51
121.9322410000009
  0
LINE
  5
146E
330
18
100
AcDbEntity
  8
1
  6
Continuous
100
AcDbLine
 10
174.8176434808853
 20
94.3556704303285
 30
0.0
 11
175.7458470808854
 21
95.15567054032855
 31
0.0
  0
LINE
  5
146F
330
18
100
AcDbEntity
  8
1
  6
Continuous
100
AcDbLine
 10
173.2458470808853
 20
87.75566994032855
 30
0.0
 11
173.2458470808853
 21
89.15567004032849
 31
0.0
  0
LINE
  5
1470
330
18
100
AcDbEntity
  8
1
  6
Continuous
100
AcDbLine
 10
173.2458470808853
 20
87.7556704403285
 30
0.0
 11
174.2458470808854
 21
87.0556706403285
 31
0.0
  0
LINE
  5
1471
330
18
100
AcDbEntity
  8
1
  6
Continuous
100
AcDbLine
 10
174.8176439808853
 20
90.15567054032855
 30
0.0
 11
173.2458470808853
 21
89.15567004032849
 31
0.0
  0
LINE
  5
1472
330
18
100
AcDbEntity
  8
1
  6
Continuous
100
AcDbLine
 10
174.2458470808854
 20
87.05566964032852
 30
0.0
 11
176.0520251808853
 21
87.56139984032852
 31
0.0
  0
ENDSEC
  0
SECTION
  2
OBJECTS
  0
DICTIONARY
  5
C
330
0
100
AcDbDictionary
281
     1
  3
ACAD_CIP_PREVIOUS_PRODUCT_INFO
350
14F9
  3
ACAD_COLOR
350
14DC
  3
ACAD_DETAILVIEWSTYLE
350
14F5
  3
ACAD_GROUP
350
D
  3
ACAD_LAYOUT
350
5D
  3
ACAD_MATERIAL
350
14AA
  3
ACAD_MLEADERSTYLE
350
14F1
  3
ACAD_MLINESTYLE
350
1B
  3
ACAD_PLOTSETTINGS
350
5E
  3
ACAD_PLOTSTYLENAME
350
14A8
  3
ACAD_SCALELIST
350
14DF
  3
ACAD_SECTIONVIEWSTYLE
350
14F3
  3
ACAD_TABLESTYLE
350
14DD
  3
ACAD_VISUALSTYLE
350
14C3
  3
ACDB_RECOMPOSE_DATA
350
1517
  3
AcDbVariableDictionary
350
150A
  3
CONTENTDICTIONARY
350
3D
  3
DWGPROPS
350
1518
  0
DICTIONARY
  5
14FA
330
E
100
AcDbDictionary
280
     1
281
     1
  3
ADSK_XREC_LAYER_RECONCILED
360
14FB
  0
DICTIONARY
  5
14FC
330
65
100
AcDbDictionary
280
     1
281
     1
  3
ADSK_XREC_LAYER_RECONCILED
360
14FD
  0
DICTIONARY
  5
14FE
330
66
100
AcDbDictionary
280
     1
281
     1
  3
ADSK_XREC_LAYER_RECONCILED
360
14FF
  0
DICTIONARY
  5
1500
330
67
100
AcDbDictionary
280
     1
281
     1
  3
ADSK_XREC_LAYER_RECONCILED
360
1501
  0
DICTIONARY
  5
1502
330
68
100
AcDbDictionary
280
     1
281
     1
  3
ADSK_XREC_LAYER_RECONCILED
360
1503
  0
DICTIONARY
  5
1504
330
69
100
AcDbDictionary
280
     1
281
     1
  3
ADSK_XREC_LAYER_RECONCILED
360
1505
  0
DICTIONARY
  5
1506
330
6A
100
AcDbDictionary
280
     1
281
     1
  3
ADSK_XREC_LAYER_RECONCILED
360
1507
  0
DICTIONARY
  5
1508
330
6B
100
AcDbDictionary
280
     1
281
     1
  3
ADSK_XREC_LAYER_RECONCILED
360
1509
  0
DICTIONARY
  5
1487
330
18
100
AcDbDictionary
281
     1
  3
ACAD_LAYOUTSELFREF
350
14A4
  0
DICTIONARY
  5
1485
330
15
100
AcDbDictionary
281
     1
  3
ACAD_LAYOUTSELFREF
350
14A3
  0
XRECORD
  5
14F9
102
{ACAD_REACTORS
330
C
102
}
330
C
100
AcDbXrecord
280
     1
300
ACDLT
300
2014
300
ACDLT_F_S
  0
DICTIONARY
  5
14DC
102
{ACAD_REACTORS
330
C
102
}
330
C
100
AcDbDictionary
281
     1
  0
DICTIONARY
  5
14F5
102
{ACAD_REACTORS
330
C
102
}
330
C
100
AcDbDictionary
281
     1
  3
Imperial24
350
14F6
  0
DICTIONARY
  5
D
102
{ACAD_REACTORS
330
C
102
}
330
C
100
AcDbDictionary
281
     1
  0
DICTIONARY
  5
5D
102
{ACAD_REACTORS
330
C
102
}
330
C
100
AcDbDictionary
281
     1
  3
Model
350
14F7
  3
レイアウト1
350
14F8
  0
DICTIONARY
  5
14AA
102
{ACAD_REACTORS
330
C
102
}
330
C
100
AcDbDictionary
281
     1
  3
ByBlock
350
14B3
  3
ByLayer
350
14AB
  3
Global
350
14BB
  0
DICTIONARY
  5
14F1
102
{ACAD_REACTORS
330
C
102
}
330
C
100
AcDbDictionary
281
     1
  3
Standard
350
14F2
  0
DICTIONARY
  5
1B
102
{ACAD_REACTORS
330
C
102
}
330
C
100
AcDbDictionary
281
     1
  3
STANDARD
350
1C
  0
DICTIONARY
  5
5E
102
{ACAD_REACTORS
330
C
102
}
330
C
100
AcDbDictionary
281
     1
  0
ACDBDICTIONARYWDFLT
  5
14A8
102
{ACAD_REACTORS
330
C
102
}
330
C
100
AcDbDictionary
281
     1
  3
Normal
350
14A9
100
AcDbDictionaryWithDefault
340
14A9
  0
DICTIONARY
  5
14DF
102
{ACAD_REACTORS
330
C
102
}
330
C
100
AcDbDictionary
281
     1
  3
A0
350
14E0
  3
A1
350
14E1
  3
A2
350
14E2
  3
A3
350
14E3
  3
A4
350
14E4
  3
A5
350
14E5
  3
A6
350
14E6
  3
A7
350
14E7
  3
A8
350
14E8
  3
A9
350
14E9
  3
B0
350
14EA
  3
B1
350
14EB
  3
B2
350
14EC
  3
B3
350
14ED
  3
B4
350
14EE
  3
B5
350
14EF
  3
B6
350
14F0
  0
DICTIONARY
  5
14F3
102
{ACAD_REACTORS
330
C
102
}
330
C
100
AcDbDictionary
281
     1
  3
Imperial24
350
14F4
  0
DICTIONARY
  5
14DD
102
{ACAD_REACTORS
330
C
102
}
330
C
100
AcDbDictionary
281
     1
  3
Standard
350
14DE
  0
DICTIONARY
  5
14C3
102
{ACAD_REACTORS
330
C
102
}
330
C
100
AcDbDictionary
281
     1
  3
2dWireframe
350
14C9
  3
Basic
350
14C8
  3
Brighten
350
14CF
  3
ColorChange
350
14D3
  3
Conceptual
350
14CC
  3
Dim
350
14CE
  3
EdgeColorOff
350
14DB
  3
Facepattern
350
14D2
  3
Flat
350
14C4
  3
FlatWithEdges
350
14C5
  3
Gouraud
350
14C6
  3
GouraudWithEdges
350
14C7
  3
Hidden
350
14CB
  3
JitterOff
350
14D9
  3
Linepattern
350
14D1
  3
OverhangOff
350
14DA
  3
Realistic
350
14CD
  3
Shaded
350
14D8
  3
Shaded with edges
350
14D7
  3
Shades of Gray
350
14D4
  3
Sketchy
350
14D5
  3
Thicken
350
14D0
  3
Wireframe
350
14CA
  3
X-Ray
350
14D6
  0
XRECORD
  5
1517
102
{ACAD_REACTORS
330
C
102
}
330
C
100
AcDbXrecord
280
     1
 90
        1
330
14DE
  0
DICTIONARY
  5
150A
102
{ACAD_REACTORS
330
C
102
}
330
C
100
AcDbDictionary
281
     1
  3
CANNOSCALE
350
150F
  3
CMLEADERSTYLE
350
150C
  3
CTABLESTYLE
350
150B
  3
CVIEWDETAILSTYLE
350
150D
  3
CVIEWSECTIONSTYLE
350
150E
  3
DIMASSOC
350
1512
  3
INDEXCTL
350
1511
  3
SORTENTS
350
1510
  3
XCLIPFRAME
350
1513
  0
DICTIONARY
  5
3D
102
{ACAD_REACTORS
330
C
102
}
330
C
100
AcDbDictionary
281
     1
  0
XRECORD
  5
1518
102
{ACAD_REACTORS
330
C
102
}
330
C
100
AcDbXrecord
280
     1
  1
DWGPROPS COOKIE
  2

  3

  4

  6

  7

  8
Yoshitsune
  9

300
=
301
=
302
=
303
=
304
=
305
=
306
=
307
=
308
=
309
=
 40
0.1315101851851852
 41
2453281.485634398
 42
2457192.689051539
  1

 90
        0
  0
XRECORD
  5
14FB
102
{ACAD_REACTORS
330
14FA
102
}
330
14FA
100
AcDbXrecord
280
     1
290
     1
  0
XRECORD
  5
14FD
102
{ACAD_REACTORS
330
14FC
102
}
330
14FC
100
AcDbXrecord
280
     1
290
     1
  0
XRECORD
  5
14FF
102
{ACAD_REACTORS
330
14FE
102
}
330
14FE
100
AcDbXrecord
280
     1
290
     1
  0
XRECORD
  5
1501
102
{ACAD_REACTORS
330
1500
102
}
330
1500
100
AcDbXrecord
280
     1
290
     1
  0
XRECORD
  5
1503
102
{ACAD_REACTORS
330
1502
102
}
330
1502
100
AcDbXrecord
280
     1
290
     1
  0
XRECORD
  5
1505
102
{ACAD_REACTORS
330
1504
102
}
330
1504
100
AcDbXrecord
280
     1
290
     1
  0
XRECORD
  5
1507
102
{ACAD_REACTORS
330
1506
102
}
330
1506
100
AcDbXrecord
280
     1
290
     1
  0
XRECORD
  5
1509
102
{ACAD_REACTORS
330
1508
102
}
330
1508
100
AcDbXrecord
280
     1
290
     1
  0
XRECORD
  5
14A4
102
{ACAD_REACTORS
330
1487
102
}
330
1487
100
AcDbXrecord
280
     1
340
18
  0
XRECORD
  5
14A3
102
{ACAD_REACTORS
330
1485
102
}
330
1485
100
AcDbXrecord
280
     1
340
15
  0
ACDBDETAILVIEWSTYLE
  5
14F6
102
{ACAD_XDICTIONARY
360
1550
102
}
102
{ACAD_REACTORS
330
14F5
102
}
330
14F5
100
AcDbModelDocViewStyle
 70
     0
  3
Imperial24
290
     0
100
AcDbDetailViewStyle
 70
     0
 71
     0
 90
        3
 71
     1
340
F
 40
0.24
340
0
 40
0.24
300

 40
0.36
280
     3
 71
     2
340
14
 90
       25
 71
     3
340
F
 40
0.24
 90
        1
 40
0.75
 90
        1
300
%<\AcVar ViewType \f "%tc1">% %<\AcVar ViewDetailId>%\PSCALE %<\AcVar ViewScale \f "%sn">%
 71
     4
340
14
 90
       25
340
14
 90
       25
280
     0
  0
LAYOUT
  5
14F7
102
{ACAD_XDICTIONARY
360
1552
102
}
102
{ACAD_REACTORS
330
5D
102
}
330
5D
100
AcDbPlotSettings
  1

  2
Canon LBP9100C
  4

  6

 40
0.0
 41
0.0
 42
0.0
 43
0.0
 44
0.0
 45
0.0
 46
0.0
 47
0.0
 48
0.0
 49
0.0
140
0.0
141
0.0
142
1.0
143
1.0
 70
  1712
 72
     0
 73
     0
 74
     0
  7

 75
     0
147
1.0
148
0.0
149
0.0
100
AcDbLayout
  1
Model
 70
     1
 71
     0
 10
0.0
 20
0.0
 11
12.0
 21
9.0
 12
0.0
 22
0.0
 32
0.0
 14
0.0
 24
0.0
 34
0.0
 15
0.0
 25
0.0
 35
0.0
146
0.0
 13
0.0
 23
0.0
 33
0.0
 16
1.0
 26
0.0
 36
0.0
 17
0.0
 27
1.0
 37
0.0
 76
     0
330
18
331
14A2
  0
LAYOUT
  5
14F8
102
{ACAD_XDICTIONARY
360
1554
102
}
102
{ACAD_REACTORS
330
5D
102
}
330
5D
100
AcDbPlotSettings
  1

  2
Canon LBP9100C
  4

  6

 40
0.0
 41
0.0
 42
0.0
 43
0.0
 44
0.0
 45
0.0
 46
0.0
 47
0.0
 48
0.0
 49
0.0
140
0.0
141
0.0
142
1.0
143
1.0
 70
   688
 72
     0
 73
     0
 74
     5
  7

 75
    16
147
1.0
148
0.0
149
0.0
100
AcDbLayout
  1
レイアウト1
 70
     1
 71
     1
 10
0.0
 20
0.0
 11
420.0
 21
297.0
 12
0.0
 22
0.0
 32
0.0
 14
1.000000000000000E+20
 24
1.000000000000000E+20
 34
1.000000000000000E+20
 15
-1.000000000000000E+20
 25
-1.000000000000000E+20
 35
-1.000000000000000E+20
146
0.0
 13
0.0
 23
0.0
 33
0.0
 16
1.0
 26
0.0
 36
0.0
 17
0.0
 27
1.0
 37
0.0
 76
     0
330
15
  0
MATERIAL
  5
14B3
102
{ACAD_XDICTIONARY
360
14B4
102
}
102
{ACAD_REACTORS
330
14AA
102
}
330
14AA
100
AcDbMaterial
  1
ByBlock
 72
     0
 43
0.0208333333333333
 43
0.0
 43
0.0
 43
0.0
 43
0.0
 43
0.0208333333333333
 43
0.0
 43
0.0
 43
0.0
 43
0.0
 43
1.0
 43
0.0
 43
0.0
 43
0.0
 43
0.0
 43
1.0
 77
     0
 47
0.0208333333333333
 47
0.0
 47
0.0
 47
0.0
 47
0.0
 47
0.0208333333333333
 47
0.0
 47
0.0
 47
0.0
 47
0.0
 47
1.0
 47
0.0
 47
0.0
 47
0.0
 47
0.0
 47
1.0
171
     0
 49
0.0208333333333333
 49
0.0
 49
0.0
 49
0.0
 49
0.0
 49
0.0208333333333333
 49
0.0
 49
0.0
 49
0.0
 49
0.0
 49
1.0
 49
0.0
 49
0.0
 49
0.0
 49
0.0
 49
1.0
175
     0
142
0.0208333333333333
142
0.0
142
0.0
142
0.0
142
0.0
142
0.0208333333333333
142
0.0
142
0.0
142
0.0
142
0.0
142
1.0
142
0.0
142
0.0
142
0.0
142
0.0
142
1.0
179
     0
144
0.0208333333333333
144
0.0
144
0.0
144
0.0
144
0.0
144
0.0208333333333333
144
0.0
144
0.0
144
0.0
144
0.0
144
1.0
144
0.0
144
0.0
144
0.0
144
0.0
144
1.0
147
0.0208333333333333
147
0.0
147
0.0
147
0.0
147
0.0
147
0.0208333333333333
147
0.0
147
0.0
147
0.0
147
0.0
147
1.0
147
0.0
147
0.0
147
0.0
147
0.0
147
1.0
  0
MATERIAL
  5
14AB
102
{ACAD_XDICTIONARY
360
14AC
102
}
102
{ACAD_REACTORS
330
14AA
102
}
330
14AA
100
AcDbMaterial
  1
ByLayer
 72
     0
 43
0.0208333333333333
 43
0.0
 43
0.0
 43
0.0
 43
0.0
 43
0.0208333333333333
 43
0.0
 43
0.0
 43
0.0
 43
0.0
 43
1.0
 43
0.0
 43
0.0
 43
0.0
 43
0.0
 43
1.0
 77
     0
 47
0.0208333333333333
 47
0.0
 47
0.0
 47
0.0
 47
0.0
 47
0.0208333333333333
 47
0.0
 47
0.0
 47
0.0
 47
0.0
 47
1.0
 47
0.0
 47
0.0
 47
0.0
 47
0.0
 47
1.0
171
     0
 49
0.0208333333333333
 49
0.0
 49
0.0
 49
0.0
 49
0.0
 49
0.0208333333333333
 49
0.0
 49
0.0
 49
0.0
 49
0.0
 49
1.0
 49
0.0
 49
0.0
 49
0.0
 49
0.0
 49
1.0
175
     0
142
0.0208333333333333
142
0.0
142
0.0
142
0.0
142
0.0
142
0.0208333333333333
142
0.0
142
0.0
142
0.0
142
0.0
142
1.0
142
0.0
142
0.0
142
0.0
142
0.0
142
1.0
179
     0
144
0.0208333333333333
144
0.0
144
0.0
144
0.0
144
0.0
144
0.0208333333333333
144
0.0
144
0.0
144
0.0
144
0.0
144
1.0
144
0.0
144
0.0
144
0.0
144
0.0
144
1.0
147
0.0208333333333333
147
0.0
147
0.0
147
0.0
147
0.0
147
0.0208333333333333
147
0.0
147
0.0
147
0.0
147
0.0
147
1.0
147
0.0
147
0.0
147
0.0
147
0.0
147
1.0
  0
MATERIAL
  5
14BB
102
{ACAD_XDICTIONARY
360
14BC
102
}
102
{ACAD_REACTORS
330
14AA
102
}
330
14AA
100
AcDbMaterial
  1
Global
 72
     0
 43
0.0208333333333333
 43
0.0
 43
0.0
 43
0.0
 43
0.0
 43
0.0208333333333333
 43
0.0
 43
0.0
 43
0.0
 43
0.0
 43
1.0
 43
0.0
 43
0.0
 43
0.0
 43
0.0
 43
1.0
 77
     0
 47
0.0208333333333333
 47
0.0
 47
0.0
 47
0.0
 47
0.0
 47
0.0208333333333333
 47
0.0
 47
0.0
 47
0.0
 47
0.0
 47
1.0
 47
0.0
 47
0.0
 47
0.0
 47
0.0
 47
1.0
171
     0
 49
0.0208333333333333
 49
0.0
 49
0.0
 49
0.0
 49
0.0
 49
0.0208333333333333
 49
0.0
 49
0.0
 49
0.0
 49
0.0
 49
1.0
 49
0.0
 49
0.0
 49
0.0
 49
0.0
 49
1.0
175
     0
142
0.0208333333333333
142
0.0
142
0.0
142
0.0
142
0.0
142
0.0208333333333333
142
0.0
142
0.0
142
0.0
142
0.0
142
1.0
142
0.0
142
0.0
142
0.0
142
0.0
142
1.0
179
     0
144
0.0208333333333333
144
0.0
144
0.0
144
0.0
144
0.0
144
0.0208333333333333
144
0.0
144
0.0
144
0.0
144
0.0
144
1.0
144
0.0
144
0.0
144
0.0
144
0.0
144
1.0
147
0.0208333333333333
147
0.0
147
0.0
147
0.0
147
0.0
147
0.0208333333333333
147
0.0
147
0.0
147
0.0
147
0.0
147
1.0
147
0.0
147
0.0
147
0.0
147
0.0
147
1.0
  0
MLEADERSTYLE
  5
14F2
102
{ACAD_REACTORS
330
14F1
102
}
330
14F1
100
AcDbMLeaderStyle
170
     2
171
     1
172
     0
 90
        2
 40
0.0
 41
0.0
173
     1
 91
-1056964608
340
12
 92
       -2
290
     1
 42
0.09
291
     1
 43
0.36
  3
Standard
 44
0.18
300

342
F
174
     1
178
     6
175
     1
176
     0
 93
-1056964608
 45
0.18
292
     0
297
     0
 46
0.18
 94
-1056964608
 47
1.0
 49
1.0
140
1.0
293
     1
141
0.0
294
     1
177
     0
142
1.0
295
     0
296
     0
143
0.125
1001
ACAD_MLEADERVER
1070
     2
  0
MLINESTYLE
  5
1C
102
{ACAD_REACTORS
330
1B
102
}
330
1B
100
AcDbMlineStyle
  2
STANDARD
 70
     0
  3

 62
   256
 51
90.0
 52
90.0
 71
     2
 49
0.5
 62
   256
  6
BYLAYER
 49
-0.5
 62
   256
  6
BYLAYER
  0
ACDBPLACEHOLDER
  5
14A9
102
{ACAD_REACTORS
330
14A8
102
}
330
14A8
  0
SCALE
  5
14E0
102
{ACAD_REACTORS
330
14DF
102
}
330
14DF
100
AcDbScale
 70
     0
300
1:1
140
1.0
141
1.0
290
     1
  0
SCALE
  5
14E1
102
{ACAD_REACTORS
330
14DF
102
}
330
14DF
100
AcDbScale
 70
     0
300
1/128" = 1'-0"
140
0.0078125
141
12.0
290
     0
  0
SCALE
  5
14E2
102
{ACAD_REACTORS
330
14DF
102
}
330
14DF
100
AcDbScale
 70
     0
300
1/64" = 1'-0"
140
0.015625
141
12.0
290
     0
  0
SCALE
  5
14E3
102
{ACAD_REACTORS
330
14DF
102
}
330
14DF
100
AcDbScale
 70
     0
300
1/32" = 1'-0"
140
0.03125
141
12.0
290
     0
  0
SCALE
  5
14E4
102
{ACAD_REACTORS
330
14DF
102
}
330
14DF
100
AcDbScale
 70
     0
300
1/16" = 1'-0"
140
0.0625
141
12.0
290
     0
  0
SCALE
  5
14E5
102
{ACAD_REACTORS
330
14DF
102
}
330
14DF
100
AcDbScale
 70
     0
300
3/32" = 1'-0"
140
0.09375
141
12.0
290
     0
  0
SCALE
  5
14E6
102
{ACAD_REACTORS
330
14DF
102
}
330
14DF
100
AcDbScale
 70
     0
300
1/8" = 1'-0"
140
0.125
141
12.0
290
     0
  0
SCALE
  5
14E7
102
{ACAD_REACTORS
330
14DF
102
}
330
14DF
100
AcDbScale
 70
     0
300
3/16" = 1'-0"
140
0.1875
141
12.0
290
     0
  0
SCALE
  5
14E8
102
{ACAD_REACTORS
330
14DF
102
}
330
14DF
100
AcDbScale
 70
     0
300
1/4" = 1'-0"
140
0.25
141
12.0
290
     0
  0
SCALE
  5
14E9
102
{ACAD_REACTORS
330
14DF
102
}
330
14DF
100
AcDbScale
 70
     0
300
3/8" = 1'-0"
140
0.375
141
12.0
290
     0
  0
SCALE
  5
14EA
102
{ACAD_REACTORS
330
14DF
102
}
330
14DF
100
AcDbScale
 70
     0
300
1/2" = 1'-0"
140
0.5
141
12.0
290
     0
  0
SCALE
  5
14EB
102
{ACAD_REACTORS
330
14DF
102
}
330
14DF
100
AcDbScale
 70
     0
300
3/4" = 1'-0"
140
0.75
141
12.0
290
     0
  0
SCALE
  5
14EC
102
{ACAD_REACTORS
330
14DF
102
}
330
14DF
100
AcDbScale
 70
     0
300
1" = 1'-0"
140
1.0
141
12.0
290
     0
  0
SCALE
  5
14ED
102
{ACAD_REACTORS
330
14DF
102
}
330
14DF
100
AcDbScale
 70
     0
300
1-1/2" = 1'-0"
140
1.5
141
12.0
290
     0
  0
SCALE
  5
14EE
102
{ACAD_REACTORS
330
14DF
102
}
330
14DF
100
AcDbScale
 70
     0
300
3" = 1'-0"
140
3.0
141
12.0
290
     0
  0
SCALE
  5
14EF
102
{ACAD_REACTORS
330
14DF
102
}
330
14DF
100
AcDbScale
 70
     0
300
6" = 1'-0"
140
6.0
141
12.0
290
     0
  0
SCALE
  5
14F0
102
{ACAD_REACTORS
330
14DF
102
}
330
14DF
100
AcDbScale
 70
     0
300
1'-0" = 1'-0"
140
12.0
141
12.0
290
     0
  0
ACDBSECTIONVIEWSTYLE
  5
14F4
102
{ACAD_XDICTIONARY
360
154E
102
}
102
{ACAD_REACTORS
330
14F3
102
}
330
14F3
100
AcDbModelDocViewStyle
 70
     0
  3
Imperial24
290
     0
100
AcDbSectionViewStyle
 70
     0
 71
     0
 90
       78
 71
     1
340
F
 40
0.24
340
0
340
0
 40
0.24
300
I, O, Q, S, X, Z
 40
0.48
 90
        3
 40
0.18
 90
        1
 71
     2
340
14
 90
       25
340
14
 90
       50
 40
0.24
 40
0.0
 40
0.24
 71
     3
340
F
 40
0.24
 90
        1
 40
0.75
 90
        1
300
%<\AcVar ViewType \f "%tc1">% %<\AcVar ViewSectionStartId>%-%<\AcVar ViewSectionEndId>%\PSCALE %<\AcVar ViewScale \f "%sn">%
 71
     4
300
ANSI31
 40
1.0
 90
        0
290
     0
290
     0
 90
        6
 40
0.0
 40
1.570796326794896
 40
0.2617993877991494
 40
1.308996938995747
 40
-0.2617993877991494
 40
1.832595714594046
  0
TABLESTYLE
  5
14DE
102
{ACAD_XDICTIONARY
360
1515
102
}
102
{ACAD_REACTORS
330
14DD
102
}
330
14DD
100
AcDbTableStyle
  3
Standard
 70
     0
 71
     0
 40
0.06
 41
0.06
280
     0
281
     0
  7
STANDARD
140
0.18
170
     2
 62
     0
 63
     7
283
     0
274
    -2
284
     1
 64
     0
275
    -2
285
     1
 65
     0
276
    -2
286
     1
 66
     0
277
    -2
287
     1
 67
     0
278
    -2
288
     1
 68
     0
279
    -2
289
     1
 69
     0
  7
STANDARD
140
0.25
170
     5
 62
     0
 63
     7
283
     0
274
    -2
284
     1
 64
     0
275
    -2
285
     1
 65
     0
276
    -2
286
     1
 66
     0
277
    -2
287
     1
 67
     0
278
    -2
288
     1
 68
     0
279
    -2
289
     1
 69
     0
  7
STANDARD
140
0.18
170
     5
 62
     0
 63
     7
283
     0
274
    -2
284
     1
 64
     0
275
    -2
285
     1
 65
     0
276
    -2
286
     1
 66
     0
277
    -2
287
     1
 67
     0
278
    -2
288
     1
 68
     0
279
    -2
289
     1
 69
     0
  0
VISUALSTYLE
  5
14C9
102
{ACAD_XDICTIONARY
360
1526
102
}
102
{ACAD_REACTORS
330
14C3
102
}
330
14C3
100
AcDbVisualStyle
  2
2dWireframe
 70
     4
 71
     0
 72
     2
 73
     0
 90
        0
 40
-0.6
 41
-30.0
 62
     5
 63
     7
 74
     1
 91
        4
 64
     7
 65
   257
 75
     1
175
     1
 42
1.0
 92
        0
 66
   257
 43
1.0
 76
     1
 77
     6
 78
     2
 67
     7
 79
     5
170
     0
171
     0
290
     0
174
     0
 93
        1
 44
0.0
173
     0
291
     0
 45
0.0
1001
ACAD
1000
AcDbSavedByObjectVersion
1070
     0
  0
VISUALSTYLE
  5
14C8
102
{ACAD_XDICTIONARY
360
1524
102
}
102
{ACAD_REACTORS
330
14C3
102
}
330
14C3
100
AcDbVisualStyle
  2
Basic
 70
     7
 71
     1
 72
     0
 73
     1
 90
        0
 40
-0.6
 41
-30.0
 62
     5
 63
     7
 74
     0
 91
        4
 64
     7
 65
   257
 75
     1
175
     1
 42
1.0
 92
        8
 66
     7
 43
1.0
 76
     1
 77
     6
 78
     2
 67
     7
 79
     5
170
     0
171
     0
290
     0
174
     0
 93
        1
 44
0.0
173
     0
291
     1
 45
0.0
1001
ACAD
1000
AcDbSavedByObjectVersion
1070
     0
  0
VISUALSTYLE
  5
14CF
102
{ACAD_XDICTIONARY
360
1532
102
}
102
{ACAD_REACTORS
330
14C3
102
}
330
14C3
100
AcDbVisualStyle
  2
Brighten
 70
    12
 71
     2
 72
     2
 73
     0
 90
        0
 40
-0.6
 41
-30.0
 62
     5
 63
     7
 74
     1
 91
        4
 64
     7
 65
   257
 75
     1
175
     1
 42
1.0
 92
        8
 66
     7
 43
1.0
 76
     1
 77
     6
 78
     2
 67
     7
 79
     5
170
     0
171
     0
290
     0
174
     0
 93
        1
 44
50.0
173
     0
291
     1
 45
0.0
1001
ACAD
1000
AcDbSavedByObjectVersion
1070
     0
  0
VISUALSTYLE
  5
14D3
102
{ACAD_XDICTIONARY
360
153A
102
}
102
{ACAD_REACTORS
330
14C3
102
}
330
14C3
100
AcDbVisualStyle
  2
ColorChange
 70
    16
 71
     2
 72
     2
 73
     3
 90
        0
 40
-0.6
 41
-30.0
 62
     5
 63
     8
 74
     1
 91
        4
 64
     7
 65
   257
 75
     1
175
     1
 42
1.0
 92
        8
 66
     8
 43
1.0
 76
     1
 77
     6
 78
     2
 67
     7
 79
     5
170
     0
171
     0
290
     0
174
     0
 93
        1
 44
0.0
173
     0
291
     1
 45
0.0
1001
ACAD
1000
AcDbSavedByObjectVersion
1070
     0
  0
VISUALSTYLE
  5
14CC
102
{ACAD_XDICTIONARY
360
152C
102
}
102
{ACAD_REACTORS
330
14C3
102
}
330
14C3
100
AcDbVisualStyle
  2
Conceptual
 70
     9
 71
     3
 72
     2
 73
     0
 90
        0
 40
-0.6
 41
-30.0
 62
     5
 63
     7
 74
     2
 91
        2
 64
     7
 65
   257
 75
     1
175
     1
 42
179.0
 92
        8
 66
     7
 43
1.0
 76
     1
 77
     6
 78
     2
 67
     7
 79
     3
170
     0
171
     0
290
     0
174
     0
 93
        1
 44
0.0
173
     0
291
     0
 45
0.0
1001
ACAD
1000
AcDbSavedByObjectVersion
1070
     0
  0
VISUALSTYLE
  5
14CE
102
{ACAD_XDICTIONARY
360
1530
102
}
102
{ACAD_REACTORS
330
14C3
102
}
330
14C3
100
AcDbVisualStyle
  2
Dim
 70
    11
 71
     2
 72
     2
 73
     0
 90
        0
 40
-0.6
 41
-30.0
 62
     5
 63
     7
 74
     1
 91
        4
 64
     7
 65
   257
 75
     1
175
     1
 42
1.0
 92
        8
 66
     7
 43
1.0
 76
     1
 77
     6
 78
     2
 67
     7
 79
     5
170
     0
171
     0
290
     0
174
     0
 93
        1
 44
-50.0
173
     0
291
     1
 45
0.0
1001
ACAD
1000
AcDbSavedByObjectVersion
1070
     0
  0
VISUALSTYLE
  5
14DB
102
{ACAD_XDICTIONARY
360
154A
102
}
102
{ACAD_REACTORS
330
14C3
102
}
330
14C3
100
AcDbVisualStyle
  2
EdgeColorOff
 70
    22
 71
     2
 72
     2
 73
     0
 90
        0
 40
-0.6
 41
-30.0
 62
     5
 63
     7
 74
     1
 91
        4
 64
     7
 65
   257
 75
     1
175
     1
 42
1.0
 92
        8
 66
     7
 43
1.0
 76
     1
 77
     6
 78
     2
 67
     7
 79
     5
170
     0
171
     0
290
     0
174
     0
 93
        1
 44
0.0
173
     0
291
     1
 45
0.0
1001
ACAD
1000
AcDbSavedByObjectVersion
1070
     0
  0
VISUALSTYLE
  5
14D2
102
{ACAD_XDICTIONARY
360
1538
102
}
102
{ACAD_REACTORS
330
14C3
102
}
330
14C3
100
AcDbVisualStyle
  2
Facepattern
 70
    15
 71
     2
 72
     2
 73
     0
 90
        0
 40
-0.6
 41
-30.0
 62
     5
 63
     7
 74
     1
 91
        4
 64
     7
 65
   257
 75
     1
175
     1
 42
1.0
 92
        8
 66
     7
 43
1.0
 76
     1
 77
     6
 78
     2
 67
     7
 79
     5
170
     0
171
     0
290
     0
174
     0
 93
        1
 44
0.0
173
     0
291
     1
 45
0.0
1001
ACAD
1000
AcDbSavedByObjectVersion
1070
     0
  0
VISUALSTYLE
  5
14C4
102
{ACAD_XDICTIONARY
360
151C
102
}
102
{ACAD_REACTORS
330
14C3
102
}
330
14C3
100
AcDbVisualStyle
  2
Flat
 70
     0
 71
     2
 72
     1
 73
     1
 90
        2
 40
-0.6
 41
30.0
 62
     5
 63
     7
 74
     0
 91
        0
 64
     7
 65
   257
 75
     1
175
     1
 42
1.0
 92
        8
 66
     7
 43
1.0
 76
     1
 77
     6
 78
     2
 67
     7
 79
     5
170
     0
171
     0
290
     0
174
     0
 93
       13
 44
0.0
173
     0
291
     1
 45
0.0
1001
ACAD
1000
AcDbSavedByObjectVersion
1070
     0
  0
VISUALSTYLE
  5
14C5
102
{ACAD_XDICTIONARY
360
151E
102
}
102
{ACAD_REACTORS
330
14C3
102
}
330
14C3
100
AcDbVisualStyle
  2
FlatWithEdges
 70
     1
 71
     2
 72
     1
 73
     1
 90
        2
 40
-0.6
 41
30.0
 62
     5
 63
     7
 74
     1
 91
        0
 64
     7
 65
   257
 75
     1
175
     1
 42
1.0
 92
        0
 66
   257
 43
1.0
 76
     1
 77
     6
 78
     2
 67
     7
 79
     5
170
     0
171
     0
290
     0
174
     0
 93
       13
 44
0.0
173
     0
291
     1
 45
0.0
1001
ACAD
1000
AcDbSavedByObjectVersion
1070
     0
  0
VISUALSTYLE
  5
14C6
102
{ACAD_XDICTIONARY
360
1520
102
}
102
{ACAD_REACTORS
330
14C3
102
}
330
14C3
100
AcDbVisualStyle
  2
Gouraud
 70
     2
 71
     2
 72
     2
 73
     1
 90
        2
 40
-0.6
 41
30.0
 62
     5
 63
     7
 74
     0
 91
        0
 64
     7
 65
   257
 75
     1
175
     1
 42
1.0
 92
        0
 66
     7
 43
1.0
 76
     1
 77
     6
 78
     2
 67
     7
 79
     5
170
     0
171
     0
290
     0
174
     0
 93
       13
 44
0.0
173
     0
291
     1
 45
0.0
1001
ACAD
1000
AcDbSavedByObjectVersion
1070
     0
  0
VISUALSTYLE
  5
14C7
102
{ACAD_XDICTIONARY
360
1522
102
}
102
{ACAD_REACTORS
330
14C3
102
}
330
14C3
100
AcDbVisualStyle
  2
GouraudWithEdges
 70
     3
 71
     2
 72
     2
 73
     1
 90
        2
 40
-0.6
 41
30.0
 62
     5
 63
     7
 74
     1
 91
        0
 64
     7
 65
   257
 75
     1
175
     1
 42
1.0
 92
        0
 66
   257
 43
1.0
 76
     1
 77
     6
 78
     2
 67
     7
 79
     5
170
     0
171
     0
290
     0
174
     0
 93
       13
 44
0.0
173
     0
291
     1
 45
0.0
1001
ACAD
1000
AcDbSavedByObjectVersion
1070
     0
  0
VISUALSTYLE
  5
14CB
102
{ACAD_XDICTIONARY
360
152A
102
}
102
{ACAD_REACTORS
330
14C3
102
}
330
14C3
100
AcDbVisualStyle
  2
Hidden
 70
     6
 71
     1
 72
     2
 73
     2
 90
        0
 40
-0.6
 41
-30.0
 62
     5
 63
     7
 74
     2
 91
        2
 64
     7
 65
   257
 75
     2
175
     1
 42
40.0
 92
        0
 66
   257
 43
1.0
 76
     1
 77
     6
 78
     2
 67
     7
 79
     3
170
     0
171
     0
290
     0
174
     0
 93
        1
 44
0.0
173
     0
291
     0
 45
0.0
1001
ACAD
1000
AcDbSavedByObjectVersion
1070
     0
  0
VISUALSTYLE
  5
14D9
102
{ACAD_XDICTIONARY
360
1546
102
}
102
{ACAD_REACTORS
330
14C3
102
}
330
14C3
100
AcDbVisualStyle
  2
JitterOff
 70
    20
 71
     2
 72
     2
 73
     0
 90
        0
 40
-0.6
 41
-30.0
 62
     5
 63
     7
 74
     1
 91
        4
 64
     7
 65
   257
 75
     1
175
     1
 42
1.0
 92
       10
 66
     7
 43
1.0
 76
     1
 77
     6
 78
     2
 67
     7
 79
     5
170
     0
171
     0
290
     0
174
     0
 93
        1
 44
0.0
173
     0
291
     1
 45
0.0
1001
ACAD
1000
AcDbSavedByObjectVersion
1070
     0
  0
VISUALSTYLE
  5
14D1
102
{ACAD_XDICTIONARY
360
1536
102
}
102
{ACAD_REACTORS
330
14C3
102
}
330
14C3
100
AcDbVisualStyle
  2
Linepattern
 70
    14
 71
     2
 72
     2
 73
     0
 90
        0
 40
-0.6
 41
-30.0
 62
     5
 63
     7
 74
     1
 91
        4
 64
     7
 65
   257
 75
     7
175
     7
 42
1.0
 92
        8
 66
     7
 43
1.0
 76
     1
 77
     6
 78
     2
 67
     7
 79
     5
170
     0
171
     0
290
     0
174
     0
 93
        1
 44
0.0
173
     0
291
     1
 45
0.0
1001
ACAD
1000
AcDbSavedByObjectVersion
1070
     0
  0
VISUALSTYLE
  5
14DA
102
{ACAD_XDICTIONARY
360
1548
102
}
102
{ACAD_REACTORS
330
14C3
102
}
330
14C3
100
AcDbVisualStyle
  2
OverhangOff
 70
    21
 71
     2
 72
     2
 73
     0
 90
        0
 40
-0.6
 41
-30.0
 62
     5
 63
     7
 74
     1
 91
        4
 64
     7
 65
   257
 75
     1
175
     1
 42
1.0
 92
        9
 66
     7
 43
1.0
 76
     1
 77
     6
 78
     2
 67
     7
 79
     5
170
     0
171
     0
290
     0
174
     0
 93
        1
 44
0.0
173
     0
291
     1
 45
0.0
1001
ACAD
1000
AcDbSavedByObjectVersion
1070
     0
  0
VISUALSTYLE
  5
14CD
102
{ACAD_XDICTIONARY
360
152E
102
}
102
{ACAD_REACTORS
330
14C3
102
}
330
14C3
100
AcDbVisualStyle
  2
Realistic
 70
     8
 71
     2
 72
     3
 73
     0
 90
        2
 40
-0.6
 41
30.0
 62
     5
 63
     7
 74
     0
 91
        0
 64
     7
 65
   257
 75
     1
175
     1
 42
1.0
 92
        8
 66
   257
 43
1.0
 76
     1
 77
     6
 78
     2
 67
     7
 79
     3
170
     0
171
     0
290
     0
174
     0
 93
       13
 44
0.0
173
     0
291
     0
 45
0.0
1001
ACAD
1000
AcDbSavedByObjectVersion
1070
     0
  0
VISUALSTYLE
  5
14D8
102
{ACAD_XDICTIONARY
360
1544
102
}
102
{ACAD_REACTORS
330
14C3
102
}
330
14C3
100
AcDbVisualStyle
  2
Shaded
 70
    27
 71
     2
 72
     2
 73
     1
 90
        2
 40
-0.6
 41
30.0
 62
     5
 63
     7
 74
     0
 91
        4
 64
     7
 65
   257
 75
     1
175
     1
 42
1.0
 92
        8
 66
   257
 43
1.0
 76
     1
 77
     6
 78
     2
 67
     8
 79
     3
170
     0
171
     0
290
     0
174
     0
 93
        5
 44
0.0
173
     0
291
     0
 45
0.0
1001
ACAD
1000
AcDbSavedByObjectVersion
1070
     0
  0
VISUALSTYLE
  5
14D7
102
{ACAD_XDICTIONARY
360
1542
102
}
102
{ACAD_REACTORS
330
14C3
102
}
330
14C3
100
AcDbVisualStyle
  2
Shaded with edges
 70
    26
 71
     2
 72
     2
 73
     1
 90
        2
 40
-0.6
 41
30.0
 62
     5
 63
     7
 74
     1
 91
       10
 64
     7
 65
   257
 75
     2
175
     1
 42
1.0
 92
        8
 66
   257
 43
1.0
 76
     1
 77
     6
 78
     2
 67
     7
 79
     3
170
     0
171
     0
290
     0
174
     0
 93
        5
 44
0.0
173
     0
291
     0
 45
0.0
1001
ACAD
1000
AcDbSavedByObjectVersion
1070
     0
  0
VISUALSTYLE
  5
14D4
102
{ACAD_XDICTIONARY
360
153C
102
}
102
{ACAD_REACTORS
330
14C3
102
}
330
14C3
100
AcDbVisualStyle
  2
Shades of Gray
 70
    23
 71
     2
 72
     2
 73
     3
 90
        0
 40
-0.6
 41
-30.0
 62
     5
 63
     7
 74
     2
 91
        2
 64
     7
 65
     7
 75
     1
175
     1
 42
40.0
 92
        8
 66
     7
 43
1.0
 76
     1
 77
     6
 78
     2
 67
     7
 79
     3
170
     0
171
     0
290
     0
174
     0
 93
        1
 44
0.0
173
     0
291
     0
 45
0.0
1001
ACAD
1000
AcDbSavedByObjectVersion
1070
     0
  0
VISUALSTYLE
  5
14D5
102
{ACAD_XDICTIONARY
360
153E
102
}
102
{ACAD_REACTORS
330
14C3
102
}
330
14C3
100
AcDbVisualStyle
  2
Sketchy
 70
    24
 71
     1
 72
     2
 73
     2
 90
        0
 40
-0.6
 41
-30.0
 62
     5
 63
     7
 74
     2
 91
        2
 64
     7
 65
     7
 75
     1
175
     1
 42
40.0
 92
       11
 66
     7
 43
1.0
 76
     1
 77
     6
 78
     2
 67
     7
 79
     6
170
     0
171
     0
290
     0
174
     0
 93
        1
 44
0.0
173
     0
291
     0
 45
0.0
1001
ACAD
1000
AcDbSavedByObjectVersion
1070
     0
  0
VISUALSTYLE
  5
14D0
102
{ACAD_XDICTIONARY
360
1534
102
}
102
{ACAD_REACTORS
330
14C3
102
}
330
14C3
100
AcDbVisualStyle
  2
Thicken
 70
    13
 71
     2
 72
     2
 73
     0
 90
        0
 40
-0.6
 41
-30.0
 62
     5
 63
     7
 74
     1
 91
        4
 64
     7
 65
   257
 75
     1
175
     1
 42
1.0
 92
       12
 66
     7
 43
1.0
 76
     1
 77
     6
 78
     2
 67
     7
 79
     5
170
     0
171
     0
290
     0
174
     0
 93
        1
 44
0.0
173
     0
291
     1
 45
0.0
1001
ACAD
1000
AcDbSavedByObjectVersion
1070
     0
  0
VISUALSTYLE
  5
14CA
102
{ACAD_XDICTIONARY
360
1528
102
}
102
{ACAD_REACTORS
330
14C3
102
}
330
14C3
100
AcDbVisualStyle
  2
Wireframe
 70
     5
 71
     0
 72
     2
 73
     0
 90
        0
 40
-0.6
 41
-30.0
 62
     5
 63
     7
 74
     1
 91
        4
 64
     7
 65
   257
 75
     1
175
     1
 42
1.0
 92
        0
 66
   257
 43
1.0
 76
     1
 77
     6
 78
     2
 67
     7
 79
     3
170
     0
171
     0
290
     0
174
     0
 93
        1
 44
0.0
173
     0
291
     0
 45
0.0
1001
ACAD
1000
AcDbSavedByObjectVersion
1070
     0
  0
VISUALSTYLE
  5
14D6
102
{ACAD_XDICTIONARY
360
1540
102
}
102
{ACAD_REACTORS
330
14C3
102
}
330
14C3
100
AcDbVisualStyle
  2
X-Ray
 70
    25
 71
     2
 72
     2
 73
     1
 90
        1
 40
0.5
 41
-30.0
 62
     5
 63
     7
 74
     1
 91
        0
 64
     7
 65
   257
 75
     1
175
     1
 42
1.0
 92
        8
 66
     7
 43
1.0
 76
     1
 77
     6
 78
     2
 67
     7
 79
     3
170
     0
171
     0
290
     0
174
     0
 93
       13
 44
0.0
173
     0
291
     0
 45
0.0
1001
ACAD
1000
AcDbSavedByObjectVersion
1070
     0
  0
DICTIONARYVAR
  5
150F
102
{ACAD_REACTORS
330
150A
102
}
330
150A
100
DictionaryVariables
280
     0
  1
1:1
  0
DICTIONARYVAR
  5
150C
102
{ACAD_REACTORS
330
150A
102
}
330
150A
100
DictionaryVariables
280
     0
  1
STANDARD
  0
DICTIONARYVAR
  5
150B
102
{ACAD_REACTORS
330
150A
102
}
330
150A
100
DictionaryVariables
280
     0
  1
STANDARD
  0
DICTIONARYVAR
  5
150D
102
{ACAD_REACTORS
330
150A
102
}
330
150A
100
DictionaryVariables
280
     0
  1
Imperial24
  0
DICTIONARYVAR
  5
150E
102
{ACAD_REACTORS
330
150A
102
}
330
150A
100
DictionaryVariables
280
     0
  1
Imperial24
  0
DICTIONARYVAR
  5
1512
102
{ACAD_REACTORS
330
150A
102
}
330
150A
100
DictionaryVariables
280
     0
  1
1
  0
DICTIONARYVAR
  5
1511
102
{ACAD_REACTORS
330
150A
102
}
330
150A
100
DictionaryVariables
280
     0
  1
0
  0
DICTIONARYVAR
  5
1510
102
{ACAD_REACTORS
330
150A
102
}
330
150A
100
DictionaryVariables
280
     0
  1
127
  0
DICTIONARYVAR
  5
1513
102
{ACAD_REACTORS
330
150A
102
}
330
150A
100
DictionaryVariables
280
     0
  1
2
  0
DICTIONARY
  5
1550
330
14F6
100
AcDbDictionary
280
     1
281
     1
  3
ACAD_XREC_ROUNDTRIP
360
1551
  0
DICTIONARY
  5
1552
330
14F7
100
AcDbDictionary
280
     1
281
     1
  3
ACAD_XREC_ROUNDTRIP
360
1553
  0
DICTIONARY
  5
1554
330
14F8
100
AcDbDictionary
280
     1
281
     1
  3
ACAD_XREC_ROUNDTRIP
360
1555
  0
DICTIONARY
  5
14B4
330
14B3
100
AcDbDictionary
280
     1
281
     1
  3
ACAD_XREC_ROUNDTRIP
360
151A
  3
BUMPTILE
360
14B6
  3
DIFFUSETILE
360
14B5
  3
OPACITYTILE
360
14B9
  3
REFLECTIONTILE
360
14B8
  3
REFRACTIONTILE
360
14BA
  3
SPECULARTILE
360
14B7
  0
DICTIONARY
  5
14AC
330
14AB
100
AcDbDictionary
280
     1
281
     1
  3
ACAD_XREC_ROUNDTRIP
360
1519
  3
BUMPTILE
360
14AE
  3
DIFFUSETILE
360
14AD
  3
OPACITYTILE
360
14B1
  3
REFLECTIONTILE
360
14B0
  3
REFRACTIONTILE
360
14B2
  3
SPECULARTILE
360
14AF
  0
DICTIONARY
  5
14BC
330
14BB
100
AcDbDictionary
280
     1
281
     1
  3
ACAD_XREC_ROUNDTRIP
360
151B
  3
BUMPTILE
360
14BE
  3
DIFFUSETILE
360
14BD
  3
OPACITYTILE
360
14C1
  3
REFLECTIONTILE
360
14C0
  3
REFRACTIONTILE
360
14C2
  3
SPECULARTILE
360
14BF
  0
DICTIONARY
  5
154E
330
14F4
100
AcDbDictionary
280
     1
281
     1
  3
ACAD_XREC_ROUNDTRIP
360
154F
  0
DICTIONARY
  5
1515
330
14DE
100
AcDbDictionary
280
     1
281
     1
  3
ACAD_ROUNDTRIP_2008_TABLESTYLE_CELLSTYLEMAP
360
1516
  3
ACAD_XREC_ROUNDTRIP
360
154C
  0
DICTIONARY
  5
1526
330
14C9
100
AcDbDictionary
280
     1
281
     1
  3
ACAD_XREC_ROUNDTRIP
360
1527
  0
DICTIONARY
  5
1524
330
14C8
100
AcDbDictionary
280
     1
281
     1
  3
ACAD_XREC_ROUNDTRIP
360
1525
  0
DICTIONARY
  5
1532
330
14CF
100
AcDbDictionary
280
     1
281
     1
  3
ACAD_XREC_ROUNDTRIP
360
1533
  0
DICTIONARY
  5
153A
330
14D3
100
AcDbDictionary
280
     1
281
     1
  3
ACAD_XREC_ROUNDTRIP
360
153B
  0
DICTIONARY
  5
152C
330
14CC
100
AcDbDictionary
280
     1
281
     1
  3
ACAD_XREC_ROUNDTRIP
360
152D
  0
DICTIONARY
  5
1530
330
14CE
100
AcDbDictionary
280
     1
281
     1
  3
ACAD_XREC_ROUNDTRIP
360
1531
  0
DICTIONARY
  5
154A
330
14DB
100
AcDbDictionary
280
     1
281
     1
  3
ACAD_XREC_ROUNDTRIP
360
154B
  0
DICTIONARY
  5
1538
330
14D2
100
AcDbDictionary
280
     1
281
     1
  3
ACAD_XREC_ROUNDTRIP
360
1539
  0
DICTIONARY
  5
151C
330
14C4
100
AcDbDictionary
280
     1
281
     1
  3
ACAD_XREC_ROUNDTRIP
360
151D
  0
DICTIONARY
  5
151E
330
14C5
100
AcDbDictionary
280
     1
281
     1
  3
ACAD_XREC_ROUNDTRIP
360
151F
  0
DICTIONARY
  5
1520
330
14C6
100
AcDbDictionary
280
     1
281
     1
  3
ACAD_XREC_ROUNDTRIP
360
1521
  0
DICTIONARY
  5
1522
330
14C7
100
AcDbDictionary
280
     1
281
     1
  3
ACAD_XREC_ROUNDTRIP
360
1523
  0
DICTIONARY
  5
152A
330
14CB
100
AcDbDictionary
280
     1
281
     1
  3
ACAD_XREC_ROUNDTRIP
360
152B
  0
DICTIONARY
  5
1546
330
14D9
100
AcDbDictionary
280
     1
281
     1
  3
ACAD_XREC_ROUNDTRIP
360
1547
  0
DICTIONARY
  5
1536
330
14D1
100
AcDbDictionary
280
     1
281
     1
  3
ACAD_XREC_ROUNDTRIP
360
1537
  0
DICTIONARY
  5
1548
330
14DA
100
AcDbDictionary
280
     1
281
     1
  3
ACAD_XREC_ROUNDTRIP
360
1549
  0
DICTIONARY
  5
152E
330
14CD
100
AcDbDictionary
280
     1
281
     1
  3
ACAD_XREC_ROUNDTRIP
360
152F
  0
DICTIONARY
  5
1544
330
14D8
100
AcDbDictionary
280
     1
281
     1
  3
ACAD_XREC_ROUNDTRIP
360
1545
  0
DICTIONARY
  5
1542
330
14D7
100
AcDbDictionary
280
     1
281
     1
  3
ACAD_XREC_ROUNDTRIP
360
1543
  0
DICTIONARY
  5
153C
330
14D4
100
AcDbDictionary
280
     1
281
     1
  3
ACAD_XREC_ROUNDTRIP
360
153D
  0
DICTIONARY
  5
153E
330
14D5
100
AcDbDictionary
280
     1
281
     1
  3
ACAD_XREC_ROUNDTRIP
360
153F
  0
DICTIONARY
  5
1534
330
14D0
100
AcDbDictionary
280
     1
281
     1
  3
ACAD_XREC_ROUNDTRIP
360
1535
  0
DICTIONARY
  5
1528
330
14CA
100
AcDbDictionary
280
     1
281
     1
  3
ACAD_XREC_ROUNDTRIP
360
1529
  0
DICTIONARY
  5
1540
330
14D6
100
AcDbDictionary
280
     1
281
     1
  3
ACAD_XREC_ROUNDTRIP
360
1541
  0
XRECORD
  5
1551
102
{ACAD_REACTORS
330
1550
102
}
330
1550
100
AcDbXrecord
280
     1
102
DISPLAYNAME
  1
Imperial24
102
FLAGS
 90
        0
  0
XRECORD
  5
1553
102
{ACAD_REACTORS
330
1552
102
}
330
1552
100
AcDbXrecord
280
     1
102
SHADEPLOT
 70
     0
102
SHADEPLOTRESLEVEL
 70
     2
102
SHADEPLOTCUSTOMDPI
 70
   300
  0
XRECORD
  5
1555
102
{ACAD_REACTORS
330
1554
102
}
330
1554
100
AcDbXrecord
280
     1
102
SHADEPLOT
 70
     0
102
SHADEPLOTRESLEVEL
 70
     2
102
SHADEPLOTCUSTOMDPI
 70
   300
  0
XRECORD
  5
151A
102
{ACAD_REACTORS
330
14B4
102
}
330
14B4
100
AcDbXrecord
280
     1
102
MATERIAL
148
0.0
149
0.0
149
0.0
 93
        0
 94
      127
282
     0
 72
     0
 77
     0
171
     0
175
     0
179
     0
273
     0
  0
XRECORD
  5
14B6
102
{ACAD_REACTORS
330
14B4
102
}
330
14B4
100
AcDbXrecord
280
     1
270
     1
271
     1
  0
XRECORD
  5
14B5
102
{ACAD_REACTORS
330
14B4
102
}
330
14B4
100
AcDbXrecord
280
     1
270
     1
271
     1
  0
XRECORD
  5
14B9
102
{ACAD_REACTORS
330
14B4
102
}
330
14B4
100
AcDbXrecord
280
     1
270
     1
271
     1
  0
XRECORD
  5
14B8
102
{ACAD_REACTORS
330
14B4
102
}
330
14B4
100
AcDbXrecord
280
     1
270
     1
271
     1
  0
XRECORD
  5
14BA
102
{ACAD_REACTORS
330
14B4
102
}
330
14B4
100
AcDbXrecord
280
     1
270
     1
271
     1
  0
XRECORD
  5
14B7
102
{ACAD_REACTORS
330
14B4
102
}
330
14B4
100
AcDbXrecord
280
     1
270
     1
271
     1
  0
XRECORD
  5
1519
102
{ACAD_REACTORS
330
14AC
102
}
330
14AC
100
AcDbXrecord
280
     1
102
MATERIAL
148
0.0
149
0.0
149
0.0
 93
        0
 94
      127
282
     0
 72
     0
 77
     0
171
     0
175
     0
179
     0
273
     0
  0
XRECORD
  5
14AE
102
{ACAD_REACTORS
330
14AC
102
}
330
14AC
100
AcDbXrecord
280
     1
270
     1
271
     1
  0
XRECORD
  5
14AD
102
{ACAD_REACTORS
330
14AC
102
}
330
14AC
100
AcDbXrecord
280
     1
270
     1
271
     1
  0
XRECORD
  5
14B1
102
{ACAD_REACTORS
330
14AC
102
}
330
14AC
100
AcDbXrecord
280
     1
270
     1
271
     1
  0
XRECORD
  5
14B0
102
{ACAD_REACTORS
330
14AC
102
}
330
14AC
100
AcDbXrecord
280
     1
270
     1
271
     1
  0
XRECORD
  5
14B2
102
{ACAD_REACTORS
330
14AC
102
}
330
14AC
100
AcDbXrecord
280
     1
270
     1
271
     1
  0
XRECORD
  5
14AF
102
{ACAD_REACTORS
330
14AC
102
}
330
14AC
100
AcDbXrecord
280
     1
270
     1
271
     1
  0
XRECORD
  5
151B
102
{ACAD_REACTORS
330
14BC
102
}
330
14BC
100
AcDbXrecord
280
     1
102
MATERIAL
148
0.0
149
0.0
149
0.0
 93
        0
 94
      127
282
     0
 72
     0
 77
     0
171
     0
175
     0
179
     0
273
     0
  0
XRECORD
  5
14BE
102
{ACAD_REACTORS
330
14BC
102
}
330
14BC
100
AcDbXrecord
280
     1
270
     1
271
     1
  0
XRECORD
  5
14BD
102
{ACAD_REACTORS
330
14BC
102
}
330
14BC
100
AcDbXrecord
280
     1
270
     1
271
     1
  0
XRECORD
  5
14C1
102
{ACAD_REACTORS
330
14BC
102
}
330
14BC
100
AcDbXrecord
280
     1
270
     1
271
     1
  0
XRECORD
  5
14C0
102
{ACAD_REACTORS
330
14BC
102
}
330
14BC
100
AcDbXrecord
280
     1
270
     1
271
     1
  0
XRECORD
  5
14C2
102
{ACAD_REACTORS
330
14BC
102
}
330
14BC
100
AcDbXrecord
280
     1
270
     1
271
     1
  0
XRECORD
  5
14BF
102
{ACAD_REACTORS
330
14BC
102
}
330
14BC
100
AcDbXrecord
280
     1
270
     1
271
     1
  0
XRECORD
  5
154F
102
{ACAD_REACTORS
330
154E
102
}
330
154E
100
AcDbXrecord
280
     1
102
DISPLAYNAME
  1
Imperial24
102
FLAGS
 90
        0
  0
CELLSTYLEMAP
  5
1516
102
{ACAD_REACTORS
330
1515
102
}
330
1515
100
AcDbCellStyleMap
 90
        3
300
CELLSTYLE
  1
TABLEFORMAT_BEGIN
 90
        5
170
     1
 91
        0
 92
    32768
 62
   257
 93
        1
300
CONTENTFORMAT
  1
CONTENTFORMAT_BEGIN
 90
        0
 91
        0
 92
      512
 93
        0
300

 40
0.0
140
1.0
 94
        5
 62
     0
340
F
144
0.25
309
CONTENTFORMAT_END
171
     0
 94
        0
309
TABLEFORMAT_END
  1
CELLSTYLE_BEGIN
 90
        1
 91
        1
300
_TITLE
309
CELLSTYLE_END
300
CELLSTYLE
  1
TABLEFORMAT_BEGIN
 90
        5
170
     1
 91
        0
 92
        0
 62
   257
 93
        1
300
CONTENTFORMAT
  1
CONTENTFORMAT_BEGIN
 90
        0
 91
        0
 92
      512
 93
        0
300

 40
0.0
140
1.0
 94
        5
 62
     0
340
F
144
0.18
309
CONTENTFORMAT_END
171
     0
 94
        0
309
TABLEFORMAT_END
  1
CELLSTYLE_BEGIN
 90
        2
 91
        1
300
_HEADER
309
CELLSTYLE_END
300
CELLSTYLE
  1
TABLEFORMAT_BEGIN
 90
        5
170
     1
 91
        0
 92
        0
 62
   257
 93
        1
300
CONTENTFORMAT
  1
CONTENTFORMAT_BEGIN
 90
        0
 91
        0
 92
      512
 93
        0
300

 40
0.0
140
1.0
 94
        2
 62
     0
340
F
144
0.18
309
CONTENTFORMAT_END
171
     0
 94
        0
309
TABLEFORMAT_END
  1
CELLSTYLE_BEGIN
 90
        3
 91
        2
300
_DATA
309
CELLSTYLE_END
  0
XRECORD
  5
154C
102
{ACAD_REACTORS
330
1515
102
}
330
1515
100
AcDbXrecord
280
     1
102
ACAD_ROUNDTRIP_PRE2007_TABLESTYLE
 90
      512
 91
        0
  1

 92
      512
 93
        0
  2

 94
      512
 95
        0
  3

  0
XRECORD
  5
1527
102
{ACAD_REACTORS
330
1526
102
}
330
1526
100
AcDbXrecord
280
     1
102
RTVSPost2010Prop28
280
     1
102
RTVSPost2010PropOp28
 70
     1
102
RTVSPost2010Prop29
280
     1
102
RTVSPost2010PropOp29
 70
     1
102
RTVSPost2010Prop30
280
     0
102
RTVSPost2010PropOp30
 70
     1
102
RTVSPost2010Prop31
280
     0
102
RTVSPost2010PropOp31
 70
     1
102
RTVSPost2010Prop32
280
     0
102
RTVSPost2010PropOp32
 70
     1
102
RTVSPost2010Prop33
280
     0
102
RTVSPost2010PropOp33
 70
     1
102
RTVSPost2010Prop34
280
     0
102
RTVSPost2010PropOp34
 70
     1
102
RTVSPost2010Prop35
280
     0
102
RTVSPost2010PropOp35
 70
     1
102
RTVSPost2010Prop36
280
     0
102
RTVSPost2010PropOp36
 70
     1
102
RTVSPost2010Prop37
 90
       50
102
RTVSPost2010PropOp37
 70
     1
102
RTVSPost2010Prop38
140
0.0
102
RTVSPost2010PropOp38
 70
     1
102
RTVSPost2010Prop39
140
1.0
102
RTVSPost2010PropOp39
 70
     1
102
RTVSPost2010Prop40
 90
        0
102
RTVSPost2010PropOp40
 70
     1
102
RTVSPost2010Prop41ColorIndex
 90
       18
102
RTVSPost2010Prop41ColorRGB
 90
        0
102
RTVSPost2010PropOp41
 70
     1
102
RTVSPost2010Prop42
 90
       50
102
RTVSPost2010PropOp42
 70
     1
102
RTVSPost2010Prop43
 90
        3
102
RTVSPost2010PropOp43
 70
     1
102
RTVSPost2010Prop44ColorIndex
 90
        5
102
RTVSPost2010Prop44ColorRGB
 90
      255
102
RTVSPost2010PropOp44
 70
     1
102
RTVSPost2010Prop45
280
     0
102
RTVSPost2010PropOp45
 70
     1
102
RTVSPost2010Prop46
 90
       50
102
RTVSPost2010PropOp46
 70
     1
102
RTVSPost2010Prop47
 90
       50
102
RTVSPost2010PropOp47
 70
     1
102
RTVSPost2010Prop48
 90
       50
102
RTVSPost2010PropOp48
 70
     1
102
RTVSPost2010Prop49
280
     0
102
RTVSPost2010PropOp49
 70
     1
102
RTVSPost2010Prop50
 90
       50
102
RTVSPost2010PropOp50
 70
     1
102
RTVSPost2010Prop51ColorIndex
 90
      256
102
RTVSPost2010Prop51ColorRGB
 90
-16777216
102
RTVSPost2010PropOp51
 70
     0
102
RTVSPost2010Prop52
140
1.0
102
RTVSPost2010PropOp52
 70
     0
102
RTVSPost2010Prop53
 90
        2
102
RTVSPost2010PropOp53
 70
     1
102
RTVSPost2010Prop54
  1
strokes_ogs.tif
102
RTVSPost2010PropOp54
 70
     1
102
RTVSPost2010Prop55
280
     0
102
RTVSPost2010PropOp55
 70
     1
102
RTVSPost2010Prop56
140
1.0
102
RTVSPost2010PropOp56
 70
     1
102
RTVSPost2010Prop57
140
1.0
102
RTVSPost2010PropOp57
 70
     1
102
RTVSPropertyOp0
 70
     1
102
RTVSPropertyOp1
 70
     1
102
RTVSPropertyOp2
 70
     1
102
RTVSPropertyOp3
 70
     1
102
RTVSPropertyOp4
 70
     1
102
RTVSPropertyOp5
 70
     1
102
RTVSPropertyOp6
 70
     1
102
RTVSPropertyOp7
 70
     1
102
RTVSPropertyOp8
 70
     1
102
RTVSPropertyOp9
 70
     1
102
RTVSPropertyOp10
 70
     1
102
RTVSPropertyOp11
 70
     1
102
RTVSPropertyOp12
 70
     1
102
RTVSPropertyOp13
 70
     1
102
RTVSPropertyOp14
 70
     1
102
RTVSPropertyOp15
 70
     1
102
RTVSPropertyOp16
 70
     1
102
RTVSPropertyOp17
 70
     1
102
RTVSPropertyOp18
 70
     1
102
RTVSPropertyOp19
 70
     1
102
RTVSPropertyOp20
 70
     1
102
RTVSPropertyOp21
 70
     1
102
RTVSPropertyOp22
 70
     1
102
RTVSPropertyOp23
 70
     1
102
RTVSPropertyOp24
 70
     1
102
RTVSPropertyOp25
 70
     1
102
RTVSPropertyOp26
 70
     1
102
RTVSPropertyOp27
 70
     1
102
RTVSPropertyOp28
 70
     1
102
RTVSPropertyOp29
 70
     1
102
RTVSPropertyOp30
 70
     1
102
RTVSPropertyOp31
 70
     1
102
RTVSPropertyOp32
 70
     1
102
RTVSPropertyOp33
 70
     1
102
RTVSPropertyOp34
 70
     1
102
RTVSPropertyOp35
 70
     1
102
RTVSPropertyOp36
 70
     1
102
RTVSPropertyOp37
 70
     1
102
RTVSPropertyOp38
 70
     1
102
RTVSPropertyOp39
 70
     1
102
RTVSPropertyOp40
 70
     1
102
RTVSPropertyOp41
 70
     1
102
RTVSPropertyOp42
 70
     1
102
RTVSPropertyOp43
 70
     1
102
RTVSPropertyOp44
 70
     1
102
RTVSPropertyOp45
 70
     1
102
RTVSPropertyOp46
 70
     1
102
RTVSPropertyOp47
 70
     1
102
RTVSPropertyOp48
 70
     1
102
RTVSPropertyOp49
 70
     1
102
RTVSPropertyOp50
 70
     1
102
RTVSPropertyOp51
 70
     0
102
RTVSPropertyOp52
 70
     0
102
RTVSPropertyOp53
 70
     1
102
RTVSPropertyOp54
 70
     1
102
RTVSPropertyOp55
 70
     1
102
RTVSPropertyOp56
 70
     1
102
RTVSPropertyOp57
 70
     1
102
RTVSPropertyOp58
 70
     1
102
RTVSPropertyOp59
 70
     1
102
RTVSPropertyOp60
 70
     1
102
RTVSPropertyOp61
 70
     1
102
RTVSPropertyOp62
 70
     1
  0
XRECORD
  5
1525
102
{ACAD_REACTORS
330
1524
102
}
330
1524
100
AcDbXrecord
280
     1
102
RTVSPost2010Prop28
280
     0
102
RTVSPost2010PropOp28
 70
     1
102
RTVSPost2010Prop29
280
     1
102
RTVSPost2010PropOp29
 70
     1
102
RTVSPost2010Prop30
280
     1
102
RTVSPost2010PropOp30
 70
     1
102
RTVSPost2010Prop31
280
     0
102
RTVSPost2010PropOp31
 70
     1
102
RTVSPost2010Prop32
280
     0
102
RTVSPost2010PropOp32
 70
     1
102
RTVSPost2010Prop33
280
     0
102
RTVSPost2010PropOp33
 70
     1
102
RTVSPost2010Prop34
280
     0
102
RTVSPost2010PropOp34
 70
     1
102
RTVSPost2010Prop35
280
     0
102
RTVSPost2010PropOp35
 70
     1
102
RTVSPost2010Prop36
280
     0
102
RTVSPost2010PropOp36
 70
     1
102
RTVSPost2010Prop37
 90
       50
102
RTVSPost2010PropOp37
 70
     1
102
RTVSPost2010Prop38
140
0.0
102
RTVSPost2010PropOp38
 70
     1
102
RTVSPost2010Prop39
140
1.0
102
RTVSPost2010PropOp39
 70
     1
102
RTVSPost2010Prop40
 90
        0
102
RTVSPost2010PropOp40
 70
     1
102
RTVSPost2010Prop41ColorIndex
 90
       18
102
RTVSPost2010Prop41ColorRGB
 90
        0
102
RTVSPost2010PropOp41
 70
     1
102
RTVSPost2010Prop42
 90
       50
102
RTVSPost2010PropOp42
 70
     1
102
RTVSPost2010Prop43
 90
        3
102
RTVSPost2010PropOp43
 70
     1
102
RTVSPost2010Prop44ColorIndex
 90
        5
102
RTVSPost2010Prop44ColorRGB
 90
      255
102
RTVSPost2010PropOp44
 70
     1
102
RTVSPost2010Prop45
280
     0
102
RTVSPost2010PropOp45
 70
     1
102
RTVSPost2010Prop46
 90
       50
102
RTVSPost2010PropOp46
 70
     1
102
RTVSPost2010Prop47
 90
       50
102
RTVSPost2010PropOp47
 70
     1
102
RTVSPost2010Prop48
 90
       50
102
RTVSPost2010PropOp48
 70
     1
102
RTVSPost2010Prop49
280
     0
102
RTVSPost2010PropOp49
 70
     1
102
RTVSPost2010Prop50
 90
       50
102
RTVSPost2010PropOp50
 70
     1
102
RTVSPost2010Prop51ColorIndex
 90
      256
102
RTVSPost2010Prop51ColorRGB
 90
-16777216
102
RTVSPost2010PropOp51
 70
     0
102
RTVSPost2010Prop52
140
1.0
102
RTVSPost2010PropOp52
 70
     0
102
RTVSPost2010Prop53
 90
        2
102
RTVSPost2010PropOp53
 70
     1
102
RTVSPost2010Prop54
  1
strokes_ogs.tif
102
RTVSPost2010PropOp54
 70
     1
102
RTVSPost2010Prop55
280
     0
102
RTVSPost2010PropOp55
 70
     1
102
RTVSPost2010Prop56
140
1.0
102
RTVSPost2010PropOp56
 70
     1
102
RTVSPost2010Prop57
140
1.0
102
RTVSPost2010PropOp57
 70
     1
102
RTVSPropertyOp0
 70
     1
102
RTVSPropertyOp1
 70
     1
102
RTVSPropertyOp2
 70
     1
102
RTVSPropertyOp3
 70
     1
102
RTVSPropertyOp4
 70
     1
102
RTVSPropertyOp5
 70
     1
102
RTVSPropertyOp6
 70
     1
102
RTVSPropertyOp7
 70
     1
102
RTVSPropertyOp8
 70
     1
102
RTVSPropertyOp9
 70
     1
102
RTVSPropertyOp10
 70
     1
102
RTVSPropertyOp11
 70
     1
102
RTVSPropertyOp12
 70
     1
102
RTVSPropertyOp13
 70
     1
102
RTVSPropertyOp14
 70
     1
102
RTVSPropertyOp15
 70
     1
102
RTVSPropertyOp16
 70
     1
102
RTVSPropertyOp17
 70
     1
102
RTVSPropertyOp18
 70
     1
102
RTVSPropertyOp19
 70
     1
102
RTVSPropertyOp20
 70
     1
102
RTVSPropertyOp21
 70
     1
102
RTVSPropertyOp22
 70
     1
102
RTVSPropertyOp23
 70
     1
102
RTVSPropertyOp24
 70
     1
102
RTVSPropertyOp25
 70
     1
102
RTVSPropertyOp26
 70
     1
102
RTVSPropertyOp27
 70
     1
102
RTVSPropertyOp28
 70
     1
102
RTVSPropertyOp29
 70
     1
102
RTVSPropertyOp30
 70
     1
102
RTVSPropertyOp31
 70
     1
102
RTVSPropertyOp32
 70
     1
102
RTVSPropertyOp33
 70
     1
102
RTVSPropertyOp34
 70
     1
102
RTVSPropertyOp35
 70
     1
102
RTVSPropertyOp36
 70
     1
102
RTVSPropertyOp37
 70
     1
102
RTVSPropertyOp38
 70
     1
102
RTVSPropertyOp39
 70
     1
102
RTVSPropertyOp40
 70
     1
102
RTVSPropertyOp41
 70
     1
102
RTVSPropertyOp42
 70
     1
102
RTVSPropertyOp43
 70
     1
102
RTVSPropertyOp44
 70
     1
102
RTVSPropertyOp45
 70
     1
102
RTVSPropertyOp46
 70
     1
102
RTVSPropertyOp47
 70
     1
102
RTVSPropertyOp48
 70
     1
102
RTVSPropertyOp49
 70
     1
102
RTVSPropertyOp50
 70
     1
102
RTVSPropertyOp51
 70
     0
102
RTVSPropertyOp52
 70
     0
102
RTVSPropertyOp53
 70
     1
102
RTVSPropertyOp54
 70
     1
102
RTVSPropertyOp55
 70
     1
102
RTVSPropertyOp56
 70
     1
102
RTVSPropertyOp57
 70
     1
102
RTVSPropertyOp58
 70
     1
102
RTVSPropertyOp59
 70
     1
102
RTVSPropertyOp60
 70
     1
102
RTVSPropertyOp61
 70
     1
102
RTVSPropertyOp62
 70
     1
  0
XRECORD
  5
1533
102
{ACAD_REACTORS
330
1532
102
}
330
1532
100
AcDbXrecord
280
     1
102
RTVSPost2010Prop28
280
     0
102
RTVSPost2010PropOp28
 70
     1
102
RTVSPost2010Prop29
280
     1
102
RTVSPost2010PropOp29
 70
     1
102
RTVSPost2010Prop30
280
     1
102
RTVSPost2010PropOp30
 70
     1
102
RTVSPost2010Prop31
280
     0
102
RTVSPost2010PropOp31
 70
     1
102
RTVSPost2010Prop32
280
     0
102
RTVSPost2010PropOp32
 70
     1
102
RTVSPost2010Prop33
280
     0
102
RTVSPost2010PropOp33
 70
     1
102
RTVSPost2010Prop34
280
     0
102
RTVSPost2010PropOp34
 70
     1
102
RTVSPost2010Prop35
280
     0
102
RTVSPost2010PropOp35
 70
     1
102
RTVSPost2010Prop36
280
     0
102
RTVSPost2010PropOp36
 70
     1
102
RTVSPost2010Prop37
 90
       50
102
RTVSPost2010PropOp37
 70
     1
102
RTVSPost2010Prop38
140
0.0
102
RTVSPost2010PropOp38
 70
     1
102
RTVSPost2010Prop39
140
1.0
102
RTVSPost2010PropOp39
 70
     1
102
RTVSPost2010Prop40
 90
        0
102
RTVSPost2010PropOp40
 70
     1
102
RTVSPost2010Prop41ColorIndex
 90
       18
102
RTVSPost2010Prop41ColorRGB
 90
        0
102
RTVSPost2010PropOp41
 70
     1
102
RTVSPost2010Prop42
 90
       50
102
RTVSPost2010PropOp42
 70
     1
102
RTVSPost2010Prop43
 90
        3
102
RTVSPost2010PropOp43
 70
     1
102
RTVSPost2010Prop44ColorIndex
 90
        5
102
RTVSPost2010Prop44ColorRGB
 90
      255
102
RTVSPost2010PropOp44
 70
     1
102
RTVSPost2010Prop45
280
     0
102
RTVSPost2010PropOp45
 70
     1
102
RTVSPost2010Prop46
 90
       50
102
RTVSPost2010PropOp46
 70
     1
102
RTVSPost2010Prop47
 90
       50
102
RTVSPost2010PropOp47
 70
     1
102
RTVSPost2010Prop48
 90
       50
102
RTVSPost2010PropOp48
 70
     1
102
RTVSPost2010Prop49
280
     0
102
RTVSPost2010PropOp49
 70
     1
102
RTVSPost2010Prop50
 90
       50
102
RTVSPost2010PropOp50
 70
     1
102
RTVSPost2010Prop51ColorIndex
 90
      256
102
RTVSPost2010Prop51ColorRGB
 90
-16777216
102
RTVSPost2010PropOp51
 70
     0
102
RTVSPost2010Prop52
140
1.0
102
RTVSPost2010PropOp52
 70
     0
102
RTVSPost2010Prop53
 90
        2
102
RTVSPost2010PropOp53
 70
     1
102
RTVSPost2010Prop54
  1
strokes_ogs.tif
102
RTVSPost2010PropOp54
 70
     1
102
RTVSPost2010Prop55
280
     0
102
RTVSPost2010PropOp55
 70
     1
102
RTVSPost2010Prop56
140
1.0
102
RTVSPost2010PropOp56
 70
     1
102
RTVSPost2010Prop57
140
1.0
102
RTVSPost2010PropOp57
 70
     1
102
RTVSPropertyOp0
 70
     1
102
RTVSPropertyOp1
 70
     1
102
RTVSPropertyOp2
 70
     1
102
RTVSPropertyOp3
 70
     1
102
RTVSPropertyOp4
 70
     1
102
RTVSPropertyOp5
 70
     1
102
RTVSPropertyOp6
 70
     1
102
RTVSPropertyOp7
 70
     1
102
RTVSPropertyOp8
 70
     1
102
RTVSPropertyOp9
 70
     1
102
RTVSPropertyOp10
 70
     1
102
RTVSPropertyOp11
 70
     1
102
RTVSPropertyOp12
 70
     1
102
RTVSPropertyOp13
 70
     1
102
RTVSPropertyOp14
 70
     1
102
RTVSPropertyOp15
 70
     1
102
RTVSPropertyOp16
 70
     1
102
RTVSPropertyOp17
 70
     1
102
RTVSPropertyOp18
 70
     1
102
RTVSPropertyOp19
 70
     1
102
RTVSPropertyOp20
 70
     1
102
RTVSPropertyOp21
 70
     1
102
RTVSPropertyOp22
 70
     1
102
RTVSPropertyOp23
 70
     1
102
RTVSPropertyOp24
 70
     1
102
RTVSPropertyOp25
 70
     1
102
RTVSPropertyOp26
 70
     1
102
RTVSPropertyOp27
 70
     1
102
RTVSPropertyOp28
 70
     1
102
RTVSPropertyOp29
 70
     1
102
RTVSPropertyOp30
 70
     1
102
RTVSPropertyOp31
 70
     1
102
RTVSPropertyOp32
 70
     1
102
RTVSPropertyOp33
 70
     1
102
RTVSPropertyOp34
 70
     1
102
RTVSPropertyOp35
 70
     1
102
RTVSPropertyOp36
 70
     1
102
RTVSPropertyOp37
 70
     1
102
RTVSPropertyOp38
 70
     1
102
RTVSPropertyOp39
 70
     1
102
RTVSPropertyOp40
 70
     1
102
RTVSPropertyOp41
 70
     1
102
RTVSPropertyOp42
 70
     1
102
RTVSPropertyOp43
 70
     1
102
RTVSPropertyOp44
 70
     1
102
RTVSPropertyOp45
 70
     1
102
RTVSPropertyOp46
 70
     1
102
RTVSPropertyOp47
 70
     1
102
RTVSPropertyOp48
 70
     1
102
RTVSPropertyOp49
 70
     1
102
RTVSPropertyOp50
 70
     1
102
RTVSPropertyOp51
 70
     0
102
RTVSPropertyOp52
 70
     0
102
RTVSPropertyOp53
 70
     1
102
RTVSPropertyOp54
 70
     1
102
RTVSPropertyOp55
 70
     1
102
RTVSPropertyOp56
 70
     1
102
RTVSPropertyOp57
 70
     1
102
RTVSPropertyOp58
 70
     1
102
RTVSPropertyOp59
 70
     1
102
RTVSPropertyOp60
 70
     1
102
RTVSPropertyOp61
 70
     1
102
RTVSPropertyOp62
 70
     1
  0
XRECORD
  5
153B
102
{ACAD_REACTORS
330
153A
102
}
330
153A
100
AcDbXrecord
280
     1
102
RTVSPost2010Prop28
280
     0
102
RTVSPost2010PropOp28
 70
     1
102
RTVSPost2010Prop29
280
     1
102
RTVSPost2010PropOp29
 70
     1
102
RTVSPost2010Prop30
280
     1
102
RTVSPost2010PropOp30
 70
     1
102
RTVSPost2010Prop31
280
     0
102
RTVSPost2010PropOp31
 70
     1
102
RTVSPost2010Prop32
280
     0
102
RTVSPost2010PropOp32
 70
     1
102
RTVSPost2010Prop33
280
     0
102
RTVSPost2010PropOp33
 70
     1
102
RTVSPost2010Prop34
280
     0
102
RTVSPost2010PropOp34
 70
     1
102
RTVSPost2010Prop35
280
     0
102
RTVSPost2010PropOp35
 70
     1
102
RTVSPost2010Prop36
280
     0
102
RTVSPost2010PropOp36
 70
     1
102
RTVSPost2010Prop37
 90
       50
102
RTVSPost2010PropOp37
 70
     1
102
RTVSPost2010Prop38
140
0.0
102
RTVSPost2010PropOp38
 70
     1
102
RTVSPost2010Prop39
140
1.0
102
RTVSPost2010PropOp39
 70
     1
102
RTVSPost2010Prop40
 90
        0
102
RTVSPost2010PropOp40
 70
     1
102
RTVSPost2010Prop41ColorIndex
 90
       18
102
RTVSPost2010Prop41ColorRGB
 90
        0
102
RTVSPost2010PropOp41
 70
     1
102
RTVSPost2010Prop42
 90
       50
102
RTVSPost2010PropOp42
 70
     1
102
RTVSPost2010Prop43
 90
        3
102
RTVSPost2010PropOp43
 70
     1
102
RTVSPost2010Prop44ColorIndex
 90
        5
102
RTVSPost2010Prop44ColorRGB
 90
      255
102
RTVSPost2010PropOp44
 70
     1
102
RTVSPost2010Prop45
280
     0
102
RTVSPost2010PropOp45
 70
     1
102
RTVSPost2010Prop46
 90
       50
102
RTVSPost2010PropOp46
 70
     1
102
RTVSPost2010Prop47
 90
       50
102
RTVSPost2010PropOp47
 70
     1
102
RTVSPost2010Prop48
 90
       50
102
RTVSPost2010PropOp48
 70
     1
102
RTVSPost2010Prop49
280
     0
102
RTVSPost2010PropOp49
 70
     1
102
RTVSPost2010Prop50
 90
       50
102
RTVSPost2010PropOp50
 70
     1
102
RTVSPost2010Prop51ColorIndex
 90
      256
102
RTVSPost2010Prop51ColorRGB
 90
-16777216
102
RTVSPost2010PropOp51
 70
     0
102
RTVSPost2010Prop52
140
1.0
102
RTVSPost2010PropOp52
 70
     0
102
RTVSPost2010Prop53
 90
        2
102
RTVSPost2010PropOp53
 70
     1
102
RTVSPost2010Prop54
  1
strokes_ogs.tif
102
RTVSPost2010PropOp54
 70
     1
102
RTVSPost2010Prop55
280
     0
102
RTVSPost2010PropOp55
 70
     1
102
RTVSPost2010Prop56
140
1.0
102
RTVSPost2010PropOp56
 70
     1
102
RTVSPost2010Prop57
140
1.0
102
RTVSPost2010PropOp57
 70
     1
102
RTVSPropertyOp0
 70
     1
102
RTVSPropertyOp1
 70
     1
102
RTVSPropertyOp2
 70
     1
102
RTVSPropertyOp3
 70
     1
102
RTVSPropertyOp4
 70
     1
102
RTVSPropertyOp5
 70
     1
102
RTVSPropertyOp6
 70
     1
102
RTVSPropertyOp7
 70
     1
102
RTVSPropertyOp8
 70
     1
102
RTVSPropertyOp9
 70
     1
102
RTVSPropertyOp10
 70
     1
102
RTVSPropertyOp11
 70
     1
102
RTVSPropertyOp12
 70
     1
102
RTVSPropertyOp13
 70
     1
102
RTVSPropertyOp14
 70
     1
102
RTVSPropertyOp15
 70
     1
102
RTVSPropertyOp16
 70
     1
102
RTVSPropertyOp17
 70
     1
102
RTVSPropertyOp18
 70
     1
102
RTVSPropertyOp19
 70
     1
102
RTVSPropertyOp20
 70
     1
102
RTVSPropertyOp21
 70
     1
102
RTVSPropertyOp22
 70
     1
102
RTVSPropertyOp23
 70
     1
102
RTVSPropertyOp24
 70
     1
102
RTVSPropertyOp25
 70
     1
102
RTVSPropertyOp26
 70
     1
102
RTVSPropertyOp27
 70
     1
102
RTVSPropertyOp28
 70
     1
102
RTVSPropertyOp29
 70
     1
102
RTVSPropertyOp30
 70
     1
102
RTVSPropertyOp31
 70
     1
102
RTVSPropertyOp32
 70
     1
102
RTVSPropertyOp33
 70
     1
102
RTVSPropertyOp34
 70
     1
102
RTVSPropertyOp35
 70
     1
102
RTVSPropertyOp36
 70
     1
102
RTVSPropertyOp37
 70
     1
102
RTVSPropertyOp38
 70
     1
102
RTVSPropertyOp39
 70
     1
102
RTVSPropertyOp40
 70
     1
102
RTVSPropertyOp41
 70
     1
102
RTVSPropertyOp42
 70
     1
102
RTVSPropertyOp43
 70
     1
102
RTVSPropertyOp44
 70
     1
102
RTVSPropertyOp45
 70
     1
102
RTVSPropertyOp46
 70
     1
102
RTVSPropertyOp47
 70
     1
102
RTVSPropertyOp48
 70
     1
102
RTVSPropertyOp49
 70
     1
102
RTVSPropertyOp50
 70
     1
102
RTVSPropertyOp51
 70
     0
102
RTVSPropertyOp52
 70
     0
102
RTVSPropertyOp53
 70
     1
102
RTVSPropertyOp54
 70
     1
102
RTVSPropertyOp55
 70
     1
102
RTVSPropertyOp56
 70
     1
102
RTVSPropertyOp57
 70
     1
102
RTVSPropertyOp58
 70
     1
102
RTVSPropertyOp59
 70
     1
102
RTVSPropertyOp60
 70
     1
102
RTVSPropertyOp61
 70
     1
102
RTVSPropertyOp62
 70
     1
  0
XRECORD
  5
152D
102
{ACAD_REACTORS
330
152C
102
}
330
152C
100
AcDbXrecord
280
     1
102
RTVSPost2010Prop28
280
     0
102
RTVSPost2010PropOp28
 70
     1
102
RTVSPost2010Prop29
280
     1
102
RTVSPost2010PropOp29
 70
     1
102
RTVSPost2010Prop30
280
     1
102
RTVSPost2010PropOp30
 70
     1
102
RTVSPost2010Prop31
280
     0
102
RTVSPost2010PropOp31
 70
     1
102
RTVSPost2010Prop32
280
     0
102
RTVSPost2010PropOp32
 70
     1
102
RTVSPost2010Prop33
280
     0
102
RTVSPost2010PropOp33
 70
     1
102
RTVSPost2010Prop34
280
     0
102
RTVSPost2010PropOp34
 70
     1
102
RTVSPost2010Prop35
280
     0
102
RTVSPost2010PropOp35
 70
     1
102
RTVSPost2010Prop36
280
     0
102
RTVSPost2010PropOp36
 70
     1
102
RTVSPost2010Prop37
 90
       50
102
RTVSPost2010PropOp37
 70
     1
102
RTVSPost2010Prop38
140
0.0
102
RTVSPost2010PropOp38
 70
     1
102
RTVSPost2010Prop39
140
1.0
102
RTVSPost2010PropOp39
 70
     1
102
RTVSPost2010Prop40
 90
        0
102
RTVSPost2010PropOp40
 70
     1
102
RTVSPost2010Prop41ColorIndex
 90
       18
102
RTVSPost2010Prop41ColorRGB
 90
        0
102
RTVSPost2010PropOp41
 70
     1
102
RTVSPost2010Prop42
 90
       50
102
RTVSPost2010PropOp42
 70
     1
102
RTVSPost2010Prop43
 90
        3
102
RTVSPost2010PropOp43
 70
     1
102
RTVSPost2010Prop44ColorIndex
 90
        5
102
RTVSPost2010Prop44ColorRGB
 90
      255
102
RTVSPost2010PropOp44
 70
     1
102
RTVSPost2010Prop45
280
     0
102
RTVSPost2010PropOp45
 70
     1
102
RTVSPost2010Prop46
 90
       50
102
RTVSPost2010PropOp46
 70
     1
102
RTVSPost2010Prop47
 90
       50
102
RTVSPost2010PropOp47
 70
     1
102
RTVSPost2010Prop48
 90
       50
102
RTVSPost2010PropOp48
 70
     1
102
RTVSPost2010Prop49
280
     0
102
RTVSPost2010PropOp49
 70
     1
102
RTVSPost2010Prop50
 90
       50
102
RTVSPost2010PropOp50
 70
     1
102
RTVSPost2010Prop51ColorIndex
 90
      256
102
RTVSPost2010Prop51ColorRGB
 90
-16777216
102
RTVSPost2010PropOp51
 70
     0
102
RTVSPost2010Prop52
140
1.0
102
RTVSPost2010PropOp52
 70
     0
102
RTVSPost2010Prop53
 90
        2
102
RTVSPost2010PropOp53
 70
     1
102
RTVSPost2010Prop54
  1
strokes_ogs.tif
102
RTVSPost2010PropOp54
 70
     1
102
RTVSPost2010Prop55
280
     0
102
RTVSPost2010PropOp55
 70
     1
102
RTVSPost2010Prop56
140
1.0
102
RTVSPost2010PropOp56
 70
     1
102
RTVSPost2010Prop57
140
1.0
102
RTVSPost2010PropOp57
 70
     1
102
RTVSPropertyOp0
 70
     1
102
RTVSPropertyOp1
 70
     1
102
RTVSPropertyOp2
 70
     1
102
RTVSPropertyOp3
 70
     1
102
RTVSPropertyOp4
 70
     1
102
RTVSPropertyOp5
 70
     1
102
RTVSPropertyOp6
 70
     1
102
RTVSPropertyOp7
 70
     1
102
RTVSPropertyOp8
 70
     1
102
RTVSPropertyOp9
 70
     1
102
RTVSPropertyOp10
 70
     1
102
RTVSPropertyOp11
 70
     1
102
RTVSPropertyOp12
 70
     1
102
RTVSPropertyOp13
 70
     1
102
RTVSPropertyOp14
 70
     1
102
RTVSPropertyOp15
 70
     1
102
RTVSPropertyOp16
 70
     1
102
RTVSPropertyOp17
 70
     1
102
RTVSPropertyOp18
 70
     1
102
RTVSPropertyOp19
 70
     1
102
RTVSPropertyOp20
 70
     1
102
RTVSPropertyOp21
 70
     1
102
RTVSPropertyOp22
 70
     1
102
RTVSPropertyOp23
 70
     1
102
RTVSPropertyOp24
 70
     1
102
RTVSPropertyOp25
 70
     1
102
RTVSPropertyOp26
 70
     1
102
RTVSPropertyOp27
 70
     1
102
RTVSPropertyOp28
 70
     1
102
RTVSPropertyOp29
 70
     1
102
RTVSPropertyOp30
 70
     1
102
RTVSPropertyOp31
 70
     1
102
RTVSPropertyOp32
 70
     1
102
RTVSPropertyOp33
 70
     1
102
RTVSPropertyOp34
 70
     1
102
RTVSPropertyOp35
 70
     1
102
RTVSPropertyOp36
 70
     1
102
RTVSPropertyOp37
 70
     1
102
RTVSPropertyOp38
 70
     1
102
RTVSPropertyOp39
 70
     1
102
RTVSPropertyOp40
 70
     1
102
RTVSPropertyOp41
 70
     1
102
RTVSPropertyOp42
 70
     1
102
RTVSPropertyOp43
 70
     1
102
RTVSPropertyOp44
 70
     1
102
RTVSPropertyOp45
 70
     1
102
RTVSPropertyOp46
 70
     1
102
RTVSPropertyOp47
 70
     1
102
RTVSPropertyOp48
 70
     1
102
RTVSPropertyOp49
 70
     1
102
RTVSPropertyOp50
 70
     1
102
RTVSPropertyOp51
 70
     0
102
RTVSPropertyOp52
 70
     0
102
RTVSPropertyOp53
 70
     1
102
RTVSPropertyOp54
 70
     1
102
RTVSPropertyOp55
 70
     1
102
RTVSPropertyOp56
 70
     1
102
RTVSPropertyOp57
 70
     1
102
RTVSPropertyOp58
 70
     1
102
RTVSPropertyOp59
 70
     1
102
RTVSPropertyOp60
 70
     1
102
RTVSPropertyOp61
 70
     1
102
RTVSPropertyOp62
 70
     1
  0
XRECORD
  5
1531
102
{ACAD_REACTORS
330
1530
102
}
330
1530
100
AcDbXrecord
280
     1
102
RTVSPost2010Prop28
280
     0
102
RTVSPost2010PropOp28
 70
     1
102
RTVSPost2010Prop29
280
     1
102
RTVSPost2010PropOp29
 70
     1
102
RTVSPost2010Prop30
280
     1
102
RTVSPost2010PropOp30
 70
     1
102
RTVSPost2010Prop31
280
     0
102
RTVSPost2010PropOp31
 70
     1
102
RTVSPost2010Prop32
280
     0
102
RTVSPost2010PropOp32
 70
     1
102
RTVSPost2010Prop33
280
     0
102
RTVSPost2010PropOp33
 70
     1
102
RTVSPost2010Prop34
280
     0
102
RTVSPost2010PropOp34
 70
     1
102
RTVSPost2010Prop35
280
     0
102
RTVSPost2010PropOp35
 70
     1
102
RTVSPost2010Prop36
280
     0
102
RTVSPost2010PropOp36
 70
     1
102
RTVSPost2010Prop37
 90
       50
102
RTVSPost2010PropOp37
 70
     1
102
RTVSPost2010Prop38
140
0.0
102
RTVSPost2010PropOp38
 70
     1
102
RTVSPost2010Prop39
140
1.0
102
RTVSPost2010PropOp39
 70
     1
102
RTVSPost2010Prop40
 90
        0
102
RTVSPost2010PropOp40
 70
     1
102
RTVSPost2010Prop41ColorIndex
 90
       18
102
RTVSPost2010Prop41ColorRGB
 90
        0
102
RTVSPost2010PropOp41
 70
     1
102
RTVSPost2010Prop42
 90
       50
102
RTVSPost2010PropOp42
 70
     1
102
RTVSPost2010Prop43
 90
        3
102
RTVSPost2010PropOp43
 70
     1
102
RTVSPost2010Prop44ColorIndex
 90
        5
102
RTVSPost2010Prop44ColorRGB
 90
      255
102
RTVSPost2010PropOp44
 70
     1
102
RTVSPost2010Prop45
280
     0
102
RTVSPost2010PropOp45
 70
     1
102
RTVSPost2010Prop46
 90
       50
102
RTVSPost2010PropOp46
 70
     1
102
RTVSPost2010Prop47
 90
       50
102
RTVSPost2010PropOp47
 70
     1
102
RTVSPost2010Prop48
 90
       50
102
RTVSPost2010PropOp48
 70
     1
102
RTVSPost2010Prop49
280
     0
102
RTVSPost2010PropOp49
 70
     1
102
RTVSPost2010Prop50
 90
       50
102
RTVSPost2010PropOp50
 70
     1
102
RTVSPost2010Prop51ColorIndex
 90
      256
102
RTVSPost2010Prop51ColorRGB
 90
-16777216
102
RTVSPost2010PropOp51
 70
     0
102
RTVSPost2010Prop52
140
1.0
102
RTVSPost2010PropOp52
 70
     0
102
RTVSPost2010Prop53
 90
        2
102
RTVSPost2010PropOp53
 70
     1
102
RTVSPost2010Prop54
  1
strokes_ogs.tif
102
RTVSPost2010PropOp54
 70
     1
102
RTVSPost2010Prop55
280
     0
102
RTVSPost2010PropOp55
 70
     1
102
RTVSPost2010Prop56
140
1.0
102
RTVSPost2010PropOp56
 70
     1
102
RTVSPost2010Prop57
140
1.0
102
RTVSPost2010PropOp57
 70
     1
102
RTVSPropertyOp0
 70
     1
102
RTVSPropertyOp1
 70
     1
102
RTVSPropertyOp2
 70
     1
102
RTVSPropertyOp3
 70
     1
102
RTVSPropertyOp4
 70
     1
102
RTVSPropertyOp5
 70
     1
102
RTVSPropertyOp6
 70
     1
102
RTVSPropertyOp7
 70
     1
102
RTVSPropertyOp8
 70
     1
102
RTVSPropertyOp9
 70
     1
102
RTVSPropertyOp10
 70
     1
102
RTVSPropertyOp11
 70
     1
102
RTVSPropertyOp12
 70
     1
102
RTVSPropertyOp13
 70
     1
102
RTVSPropertyOp14
 70
     1
102
RTVSPropertyOp15
 70
     1
102
RTVSPropertyOp16
 70
     1
102
RTVSPropertyOp17
 70
     1
102
RTVSPropertyOp18
 70
     1
102
RTVSPropertyOp19
 70
     1
102
RTVSPropertyOp20
 70
     1
102
RTVSPropertyOp21
 70
     1
102
RTVSPropertyOp22
 70
     1
102
RTVSPropertyOp23
 70
     1
102
RTVSPropertyOp24
 70
     1
102
RTVSPropertyOp25
 70
     1
102
RTVSPropertyOp26
 70
     1
102
RTVSPropertyOp27
 70
     1
102
RTVSPropertyOp28
 70
     1
102
RTVSPropertyOp29
 70
     1
102
RTVSPropertyOp30
 70
     1
102
RTVSPropertyOp31
 70
     1
102
RTVSPropertyOp32
 70
     1
102
RTVSPropertyOp33
 70
     1
102
RTVSPropertyOp34
 70
     1
102
RTVSPropertyOp35
 70
     1
102
RTVSPropertyOp36
 70
     1
102
RTVSPropertyOp37
 70
     1
102
RTVSPropertyOp38
 70
     1
102
RTVSPropertyOp39
 70
     1
102
RTVSPropertyOp40
 70
     1
102
RTVSPropertyOp41
 70
     1
102
RTVSPropertyOp42
 70
     1
102
RTVSPropertyOp43
 70
     1
102
RTVSPropertyOp44
 70
     1
102
RTVSPropertyOp45
 70
     1
102
RTVSPropertyOp46
 70
     1
102
RTVSPropertyOp47
 70
     1
102
RTVSPropertyOp48
 70
     1
102
RTVSPropertyOp49
 70
     1
102
RTVSPropertyOp50
 70
     1
102
RTVSPropertyOp51
 70
     0
102
RTVSPropertyOp52
 70
     0
102
RTVSPropertyOp53
 70
     1
102
RTVSPropertyOp54
 70
     1
102
RTVSPropertyOp55
 70
     1
102
RTVSPropertyOp56
 70
     1
102
RTVSPropertyOp57
 70
     1
102
RTVSPropertyOp58
 70
     1
102
RTVSPropertyOp59
 70
     1
102
RTVSPropertyOp60
 70
     1
102
RTVSPropertyOp61
 70
     1
102
RTVSPropertyOp62
 70
     1
  0
XRECORD
  5
154B
102
{ACAD_REACTORS
330
154A
102
}
330
154A
100
AcDbXrecord
280
     1
102
RTVSPost2010Prop28
280
     0
102
RTVSPost2010PropOp28
 70
     1
102
RTVSPost2010Prop29
280
     1
102
RTVSPost2010PropOp29
 70
     1
102
RTVSPost2010Prop30
280
     1
102
RTVSPost2010PropOp30
 70
     1
102
RTVSPost2010Prop31
280
     0
102
RTVSPost2010PropOp31
 70
     1
102
RTVSPost2010Prop32
280
     0
102
RTVSPost2010PropOp32
 70
     1
102
RTVSPost2010Prop33
280
     0
102
RTVSPost2010PropOp33
 70
     1
102
RTVSPost2010Prop34
280
     0
102
RTVSPost2010PropOp34
 70
     1
102
RTVSPost2010Prop35
280
     0
102
RTVSPost2010PropOp35
 70
     1
102
RTVSPost2010Prop36
280
     0
102
RTVSPost2010PropOp36
 70
     1
102
RTVSPost2010Prop37
 90
       50
102
RTVSPost2010PropOp37
 70
     0
102
RTVSPost2010Prop38
140
0.0
102
RTVSPost2010PropOp38
 70
     0
102
RTVSPost2010Prop39
140
1.0
102
RTVSPost2010PropOp39
 70
     0
102
RTVSPost2010Prop40
 90
        0
102
RTVSPost2010PropOp40
 70
     0
102
RTVSPost2010Prop41ColorIndex
 90
       18
102
RTVSPost2010Prop41ColorRGB
 90
        0
102
RTVSPost2010PropOp41
 70
     0
102
RTVSPost2010Prop42
 90
       50
102
RTVSPost2010PropOp42
 70
     0
102
RTVSPost2010Prop43
 90
        3
102
RTVSPost2010PropOp43
 70
     0
102
RTVSPost2010Prop44ColorIndex
 90
        5
102
RTVSPost2010Prop44ColorRGB
 90
      255
102
RTVSPost2010PropOp44
 70
     0
102
RTVSPost2010Prop45
280
     0
102
RTVSPost2010PropOp45
 70
     1
102
RTVSPost2010Prop46
 90
       50
102
RTVSPost2010PropOp46
 70
     0
102
RTVSPost2010Prop47
 90
       50
102
RTVSPost2010PropOp47
 70
     0
102
RTVSPost2010Prop48
 90
       50
102
RTVSPost2010PropOp48
 70
     0
102
RTVSPost2010Prop49
280
     0
102
RTVSPost2010PropOp49
 70
     1
102
RTVSPost2010Prop50
 90
       50
102
RTVSPost2010PropOp50
 70
     0
102
RTVSPost2010Prop51ColorIndex
 90
      256
102
RTVSPost2010Prop51ColorRGB
 90
-16777216
102
RTVSPost2010PropOp51
 70
     0
102
RTVSPost2010Prop52
140
1.0
102
RTVSPost2010PropOp52
 70
     0
102
RTVSPost2010Prop53
 90
        2
102
RTVSPost2010PropOp53
 70
     0
102
RTVSPost2010Prop54
  1
strokes_ogs.tif
102
RTVSPost2010PropOp54
 70
     0
102
RTVSPost2010Prop55
280
     0
102
RTVSPost2010PropOp55
 70
     1
102
RTVSPost2010Prop56
140
1.0
102
RTVSPost2010PropOp56
 70
     0
102
RTVSPost2010Prop57
140
1.0
102
RTVSPost2010PropOp57
 70
     0
102
RTVSPropertyOp0
 70
     0
102
RTVSPropertyOp1
 70
     0
102
RTVSPropertyOp2
 70
     0
102
RTVSPropertyOp3
 70
     0
102
RTVSPropertyOp4
 70
     0
102
RTVSPropertyOp5
 70
     0
102
RTVSPropertyOp6
 70
     0
102
RTVSPropertyOp7
 70
     0
102
RTVSPropertyOp8
 70
     0
102
RTVSPropertyOp9
 70
     0
102
RTVSPropertyOp10
 70
     0
102
RTVSPropertyOp11
 70
     0
102
RTVSPropertyOp12
 70
     0
102
RTVSPropertyOp13
 70
     0
102
RTVSPropertyOp14
 70
     2
102
RTVSPropertyOp15
 70
     0
102
RTVSPropertyOp16
 70
     0
102
RTVSPropertyOp17
 70
     0
102
RTVSPropertyOp18
 70
     0
102
RTVSPropertyOp19
 70
     0
102
RTVSPropertyOp20
 70
     0
102
RTVSPropertyOp21
 70
     0
102
RTVSPropertyOp22
 70
     0
102
RTVSPropertyOp23
 70
     0
102
RTVSPropertyOp24
 70
     0
102
RTVSPropertyOp25
 70
     0
102
RTVSPropertyOp26
 70
     0
102
RTVSPropertyOp27
 70
     0
102
RTVSPropertyOp28
 70
     1
102
RTVSPropertyOp29
 70
     1
102
RTVSPropertyOp30
 70
     1
102
RTVSPropertyOp31
 70
     1
102
RTVSPropertyOp32
 70
     1
102
RTVSPropertyOp33
 70
     1
102
RTVSPropertyOp34
 70
     1
102
RTVSPropertyOp35
 70
     1
102
RTVSPropertyOp36
 70
     1
102
RTVSPropertyOp37
 70
     0
102
RTVSPropertyOp38
 70
     0
102
RTVSPropertyOp39
 70
     0
102
RTVSPropertyOp40
 70
     0
102
RTVSPropertyOp41
 70
     0
102
RTVSPropertyOp42
 70
     0
102
RTVSPropertyOp43
 70
     0
102
RTVSPropertyOp44
 70
     0
102
RTVSPropertyOp45
 70
     1
102
RTVSPropertyOp46
 70
     0
102
RTVSPropertyOp47
 70
     0
102
RTVSPropertyOp48
 70
     0
102
RTVSPropertyOp49
 70
     1
102
RTVSPropertyOp50
 70
     0
102
RTVSPropertyOp51
 70
     0
102
RTVSPropertyOp52
 70
     0
102
RTVSPropertyOp53
 70
     0
102
RTVSPropertyOp54
 70
     0
102
RTVSPropertyOp55
 70
     1
102
RTVSPropertyOp56
 70
     0
102
RTVSPropertyOp57
 70
     0
102
RTVSPropertyOp58
 70
     0
102
RTVSPropertyOp59
 70
     0
102
RTVSPropertyOp60
 70
     0
102
RTVSPropertyOp61
 70
     0
102
RTVSPropertyOp62
 70
     0
  0
XRECORD
  5
1539
102
{ACAD_REACTORS
330
1538
102
}
330
1538
100
AcDbXrecord
280
     1
102
RTVSPost2010Prop28
280
     0
102
RTVSPost2010PropOp28
 70
     1
102
RTVSPost2010Prop29
280
     1
102
RTVSPost2010PropOp29
 70
     1
102
RTVSPost2010Prop30
280
     1
102
RTVSPost2010PropOp30
 70
     1
102
RTVSPost2010Prop31
280
     0
102
RTVSPost2010PropOp31
 70
     1
102
RTVSPost2010Prop32
280
     0
102
RTVSPost2010PropOp32
 70
     1
102
RTVSPost2010Prop33
280
     0
102
RTVSPost2010PropOp33
 70
     1
102
RTVSPost2010Prop34
280
     0
102
RTVSPost2010PropOp34
 70
     1
102
RTVSPost2010Prop35
280
     0
102
RTVSPost2010PropOp35
 70
     1
102
RTVSPost2010Prop36
280
     0
102
RTVSPost2010PropOp36
 70
     1
102
RTVSPost2010Prop37
 90
       50
102
RTVSPost2010PropOp37
 70
     1
102
RTVSPost2010Prop38
140
0.0
102
RTVSPost2010PropOp38
 70
     1
102
RTVSPost2010Prop39
140
1.0
102
RTVSPost2010PropOp39
 70
     1
102
RTVSPost2010Prop40
 90
        0
102
RTVSPost2010PropOp40
 70
     1
102
RTVSPost2010Prop41ColorIndex
 90
       18
102
RTVSPost2010Prop41ColorRGB
 90
        0
102
RTVSPost2010PropOp41
 70
     1
102
RTVSPost2010Prop42
 90
       50
102
RTVSPost2010PropOp42
 70
     1
102
RTVSPost2010Prop43
 90
        3
102
RTVSPost2010PropOp43
 70
     1
102
RTVSPost2010Prop44ColorIndex
 90
        5
102
RTVSPost2010Prop44ColorRGB
 90
      255
102
RTVSPost2010PropOp44
 70
     1
102
RTVSPost2010Prop45
280
     0
102
RTVSPost2010PropOp45
 70
     1
102
RTVSPost2010Prop46
 90
       50
102
RTVSPost2010PropOp46
 70
     1
102
RTVSPost2010Prop47
 90
       50
102
RTVSPost2010PropOp47
 70
     1
102
RTVSPost2010Prop48
 90
       50
102
RTVSPost2010PropOp48
 70
     1
102
RTVSPost2010Prop49
280
     0
102
RTVSPost2010PropOp49
 70
     1
102
RTVSPost2010Prop50
 90
       50
102
RTVSPost2010PropOp50
 70
     1
102
RTVSPost2010Prop51ColorIndex
 90
      256
102
RTVSPost2010Prop51ColorRGB
 90
-16777216
102
RTVSPost2010PropOp51
 70
     0
102
RTVSPost2010Prop52
140
1.0
102
RTVSPost2010PropOp52
 70
     0
102
RTVSPost2010Prop53
 90
        2
102
RTVSPost2010PropOp53
 70
     1
102
RTVSPost2010Prop54
  1
strokes_ogs.tif
102
RTVSPost2010PropOp54
 70
     1
102
RTVSPost2010Prop55
280
     0
102
RTVSPost2010PropOp55
 70
     1
102
RTVSPost2010Prop56
140
1.0
102
RTVSPost2010PropOp56
 70
     1
102
RTVSPost2010Prop57
140
1.0
102
RTVSPost2010PropOp57
 70
     1
102
RTVSPropertyOp0
 70
     1
102
RTVSPropertyOp1
 70
     1
102
RTVSPropertyOp2
 70
     1
102
RTVSPropertyOp3
 70
     1
102
RTVSPropertyOp4
 70
     1
102
RTVSPropertyOp5
 70
     1
102
RTVSPropertyOp6
 70
     1
102
RTVSPropertyOp7
 70
     1
102
RTVSPropertyOp8
 70
     1
102
RTVSPropertyOp9
 70
     1
102
RTVSPropertyOp10
 70
     1
102
RTVSPropertyOp11
 70
     1
102
RTVSPropertyOp12
 70
     1
102
RTVSPropertyOp13
 70
     1
102
RTVSPropertyOp14
 70
     1
102
RTVSPropertyOp15
 70
     1
102
RTVSPropertyOp16
 70
     1
102
RTVSPropertyOp17
 70
     1
102
RTVSPropertyOp18
 70
     1
102
RTVSPropertyOp19
 70
     1
102
RTVSPropertyOp20
 70
     1
102
RTVSPropertyOp21
 70
     1
102
RTVSPropertyOp22
 70
     1
102
RTVSPropertyOp23
 70
     1
102
RTVSPropertyOp24
 70
     1
102
RTVSPropertyOp25
 70
     1
102
RTVSPropertyOp26
 70
     1
102
RTVSPropertyOp27
 70
     1
102
RTVSPropertyOp28
 70
     1
102
RTVSPropertyOp29
 70
     1
102
RTVSPropertyOp30
 70
     1
102
RTVSPropertyOp31
 70
     1
102
RTVSPropertyOp32
 70
     1
102
RTVSPropertyOp33
 70
     1
102
RTVSPropertyOp34
 70
     1
102
RTVSPropertyOp35
 70
     1
102
RTVSPropertyOp36
 70
     1
102
RTVSPropertyOp37
 70
     1
102
RTVSPropertyOp38
 70
     1
102
RTVSPropertyOp39
 70
     1
102
RTVSPropertyOp40
 70
     1
102
RTVSPropertyOp41
 70
     1
102
RTVSPropertyOp42
 70
     1
102
RTVSPropertyOp43
 70
     1
102
RTVSPropertyOp44
 70
     1
102
RTVSPropertyOp45
 70
     1
102
RTVSPropertyOp46
 70
     1
102
RTVSPropertyOp47
 70
     1
102
RTVSPropertyOp48
 70
     1
102
RTVSPropertyOp49
 70
     1
102
RTVSPropertyOp50
 70
     1
102
RTVSPropertyOp51
 70
     0
102
RTVSPropertyOp52
 70
     0
102
RTVSPropertyOp53
 70
     1
102
RTVSPropertyOp54
 70
     1
102
RTVSPropertyOp55
 70
     1
102
RTVSPropertyOp56
 70
     1
102
RTVSPropertyOp57
 70
     1
102
RTVSPropertyOp58
 70
     1
102
RTVSPropertyOp59
 70
     1
102
RTVSPropertyOp60
 70
     1
102
RTVSPropertyOp61
 70
     1
102
RTVSPropertyOp62
 70
     1
  0
XRECORD
  5
151D
102
{ACAD_REACTORS
330
151C
102
}
330
151C
100
AcDbXrecord
280
     1
102
RTVSPost2010Prop28
280
     0
102
RTVSPost2010PropOp28
 70
     1
102
RTVSPost2010Prop29
280
     1
102
RTVSPost2010PropOp29
 70
     1
102
RTVSPost2010Prop30
280
     1
102
RTVSPost2010PropOp30
 70
     1
102
RTVSPost2010Prop31
280
     0
102
RTVSPost2010PropOp31
 70
     1
102
RTVSPost2010Prop32
280
     0
102
RTVSPost2010PropOp32
 70
     1
102
RTVSPost2010Prop33
280
     0
102
RTVSPost2010PropOp33
 70
     1
102
RTVSPost2010Prop34
280
     0
102
RTVSPost2010PropOp34
 70
     1
102
RTVSPost2010Prop35
280
     0
102
RTVSPost2010PropOp35
 70
     1
102
RTVSPost2010Prop36
280
     0
102
RTVSPost2010PropOp36
 70
     1
102
RTVSPost2010Prop37
 90
       50
102
RTVSPost2010PropOp37
 70
     1
102
RTVSPost2010Prop38
140
0.0
102
RTVSPost2010PropOp38
 70
     1
102
RTVSPost2010Prop39
140
1.0
102
RTVSPost2010PropOp39
 70
     1
102
RTVSPost2010Prop40
 90
        0
102
RTVSPost2010PropOp40
 70
     1
102
RTVSPost2010Prop41ColorIndex
 90
       18
102
RTVSPost2010Prop41ColorRGB
 90
        0
102
RTVSPost2010PropOp41
 70
     1
102
RTVSPost2010Prop42
 90
       50
102
RTVSPost2010PropOp42
 70
     1
102
RTVSPost2010Prop43
 90
        3
102
RTVSPost2010PropOp43
 70
     1
102
RTVSPost2010Prop44ColorIndex
 90
        5
102
RTVSPost2010Prop44ColorRGB
 90
      255
102
RTVSPost2010PropOp44
 70
     1
102
RTVSPost2010Prop45
280
     0
102
RTVSPost2010PropOp45
 70
     1
102
RTVSPost2010Prop46
 90
       50
102
RTVSPost2010PropOp46
 70
     1
102
RTVSPost2010Prop47
 90
       50
102
RTVSPost2010PropOp47
 70
     1
102
RTVSPost2010Prop48
 90
       50
102
RTVSPost2010PropOp48
 70
     1
102
RTVSPost2010Prop49
280
     0
102
RTVSPost2010PropOp49
 70
     1
102
RTVSPost2010Prop50
 90
       50
102
RTVSPost2010PropOp50
 70
     1
102
RTVSPost2010Prop51ColorIndex
 90
      256
102
RTVSPost2010Prop51ColorRGB
 90
-16777216
102
RTVSPost2010PropOp51
 70
     0
102
RTVSPost2010Prop52
140
1.0
102
RTVSPost2010PropOp52
 70
     0
102
RTVSPost2010Prop53
 90
        2
102
RTVSPost2010PropOp53
 70
     1
102
RTVSPost2010Prop54
  1
strokes_ogs.tif
102
RTVSPost2010PropOp54
 70
     1
102
RTVSPost2010Prop55
280
     0
102
RTVSPost2010PropOp55
 70
     1
102
RTVSPost2010Prop56
140
1.0
102
RTVSPost2010PropOp56
 70
     1
102
RTVSPost2010Prop57
140
1.0
102
RTVSPost2010PropOp57
 70
     1
102
RTVSPropertyOp0
 70
     1
102
RTVSPropertyOp1
 70
     1
102
RTVSPropertyOp2
 70
     1
102
RTVSPropertyOp3
 70
     1
102
RTVSPropertyOp4
 70
     1
102
RTVSPropertyOp5
 70
     1
102
RTVSPropertyOp6
 70
     1
102
RTVSPropertyOp7
 70
     1
102
RTVSPropertyOp8
 70
     1
102
RTVSPropertyOp9
 70
     1
102
RTVSPropertyOp10
 70
     1
102
RTVSPropertyOp11
 70
     1
102
RTVSPropertyOp12
 70
     1
102
RTVSPropertyOp13
 70
     1
102
RTVSPropertyOp14
 70
     1
102
RTVSPropertyOp15
 70
     1
102
RTVSPropertyOp16
 70
     1
102
RTVSPropertyOp17
 70
     1
102
RTVSPropertyOp18
 70
     1
102
RTVSPropertyOp19
 70
     1
102
RTVSPropertyOp20
 70
     1
102
RTVSPropertyOp21
 70
     1
102
RTVSPropertyOp22
 70
     1
102
RTVSPropertyOp23
 70
     1
102
RTVSPropertyOp24
 70
     1
102
RTVSPropertyOp25
 70
     1
102
RTVSPropertyOp26
 70
     1
102
RTVSPropertyOp27
 70
     1
102
RTVSPropertyOp28
 70
     1
102
RTVSPropertyOp29
 70
     1
102
RTVSPropertyOp30
 70
     1
102
RTVSPropertyOp31
 70
     1
102
RTVSPropertyOp32
 70
     1
102
RTVSPropertyOp33
 70
     1
102
RTVSPropertyOp34
 70
     1
102
RTVSPropertyOp35
 70
     1
102
RTVSPropertyOp36
 70
     1
102
RTVSPropertyOp37
 70
     1
102
RTVSPropertyOp38
 70
     1
102
RTVSPropertyOp39
 70
     1
102
RTVSPropertyOp40
 70
     1
102
RTVSPropertyOp41
 70
     1
102
RTVSPropertyOp42
 70
     1
102
RTVSPropertyOp43
 70
     1
102
RTVSPropertyOp44
 70
     1
102
RTVSPropertyOp45
 70
     1
102
RTVSPropertyOp46
 70
     1
102
RTVSPropertyOp47
 70
     1
102
RTVSPropertyOp48
 70
     1
102
RTVSPropertyOp49
 70
     1
102
RTVSPropertyOp50
 70
     1
102
RTVSPropertyOp51
 70
     0
102
RTVSPropertyOp52
 70
     0
102
RTVSPropertyOp53
 70
     1
102
RTVSPropertyOp54
 70
     1
102
RTVSPropertyOp55
 70
     1
102
RTVSPropertyOp56
 70
     1
102
RTVSPropertyOp57
 70
     1
102
RTVSPropertyOp58
 70
     1
102
RTVSPropertyOp59
 70
     1
102
RTVSPropertyOp60
 70
     1
102
RTVSPropertyOp61
 70
     1
102
RTVSPropertyOp62
 70
     1
  0
XRECORD
  5
151F
102
{ACAD_REACTORS
330
151E
102
}
330
151E
100
AcDbXrecord
280
     1
102
RTVSPost2010Prop28
280
     0
102
RTVSPost2010PropOp28
 70
     1
102
RTVSPost2010Prop29
280
     1
102
RTVSPost2010PropOp29
 70
     1
102
RTVSPost2010Prop30
280
     1
102
RTVSPost2010PropOp30
 70
     1
102
RTVSPost2010Prop31
280
     0
102
RTVSPost2010PropOp31
 70
     1
102
RTVSPost2010Prop32
280
     0
102
RTVSPost2010PropOp32
 70
     1
102
RTVSPost2010Prop33
280
     0
102
RTVSPost2010PropOp33
 70
     1
102
RTVSPost2010Prop34
280
     0
102
RTVSPost2010PropOp34
 70
     1
102
RTVSPost2010Prop35
280
     0
102
RTVSPost2010PropOp35
 70
     1
102
RTVSPost2010Prop36
280
     0
102
RTVSPost2010PropOp36
 70
     1
102
RTVSPost2010Prop37
 90
       50
102
RTVSPost2010PropOp37
 70
     1
102
RTVSPost2010Prop38
140
0.0
102
RTVSPost2010PropOp38
 70
     1
102
RTVSPost2010Prop39
140
1.0
102
RTVSPost2010PropOp39
 70
     1
102
RTVSPost2010Prop40
 90
        0
102
RTVSPost2010PropOp40
 70
     1
102
RTVSPost2010Prop41ColorIndex
 90
       18
102
RTVSPost2010Prop41ColorRGB
 90
        0
102
RTVSPost2010PropOp41
 70
     1
102
RTVSPost2010Prop42
 90
       50
102
RTVSPost2010PropOp42
 70
     1
102
RTVSPost2010Prop43
 90
        3
102
RTVSPost2010PropOp43
 70
     1
102
RTVSPost2010Prop44ColorIndex
 90
        5
102
RTVSPost2010Prop44ColorRGB
 90
      255
102
RTVSPost2010PropOp44
 70
     1
102
RTVSPost2010Prop45
280
     0
102
RTVSPost2010PropOp45
 70
     1
102
RTVSPost2010Prop46
 90
       50
102
RTVSPost2010PropOp46
 70
     1
102
RTVSPost2010Prop47
 90
       50
102
RTVSPost2010PropOp47
 70
     1
102
RTVSPost2010Prop48
 90
       50
102
RTVSPost2010PropOp48
 70
     1
102
RTVSPost2010Prop49
280
     0
102
RTVSPost2010PropOp49
 70
     1
102
RTVSPost2010Prop50
 90
       50
102
RTVSPost2010PropOp50
 70
     1
102
RTVSPost2010Prop51ColorIndex
 90
      256
102
RTVSPost2010Prop51ColorRGB
 90
-16777216
102
RTVSPost2010PropOp51
 70
     0
102
RTVSPost2010Prop52
140
1.0
102
RTVSPost2010PropOp52
 70
     0
102
RTVSPost2010Prop53
 90
        2
102
RTVSPost2010PropOp53
 70
     1
102
RTVSPost2010Prop54
  1
strokes_ogs.tif
102
RTVSPost2010PropOp54
 70
     1
102
RTVSPost2010Prop55
280
     0
102
RTVSPost2010PropOp55
 70
     1
102
RTVSPost2010Prop56
140
1.0
102
RTVSPost2010PropOp56
 70
     1
102
RTVSPost2010Prop57
140
1.0
102
RTVSPost2010PropOp57
 70
     1
102
RTVSPropertyOp0
 70
     1
102
RTVSPropertyOp1
 70
     1
102
RTVSPropertyOp2
 70
     1
102
RTVSPropertyOp3
 70
     1
102
RTVSPropertyOp4
 70
     1
102
RTVSPropertyOp5
 70
     1
102
RTVSPropertyOp6
 70
     1
102
RTVSPropertyOp7
 70
     1
102
RTVSPropertyOp8
 70
     1
102
RTVSPropertyOp9
 70
     1
102
RTVSPropertyOp10
 70
     1
102
RTVSPropertyOp11
 70
     1
102
RTVSPropertyOp12
 70
     1
102
RTVSPropertyOp13
 70
     1
102
RTVSPropertyOp14
 70
     1
102
RTVSPropertyOp15
 70
     1
102
RTVSPropertyOp16
 70
     1
102
RTVSPropertyOp17
 70
     1
102
RTVSPropertyOp18
 70
     1
102
RTVSPropertyOp19
 70
     1
102
RTVSPropertyOp20
 70
     1
102
RTVSPropertyOp21
 70
     1
102
RTVSPropertyOp22
 70
     1
102
RTVSPropertyOp23
 70
     1
102
RTVSPropertyOp24
 70
     1
102
RTVSPropertyOp25
 70
     1
102
RTVSPropertyOp26
 70
     1
102
RTVSPropertyOp27
 70
     1
102
RTVSPropertyOp28
 70
     1
102
RTVSPropertyOp29
 70
     1
102
RTVSPropertyOp30
 70
     1
102
RTVSPropertyOp31
 70
     1
102
RTVSPropertyOp32
 70
     1
102
RTVSPropertyOp33
 70
     1
102
RTVSPropertyOp34
 70
     1
102
RTVSPropertyOp35
 70
     1
102
RTVSPropertyOp36
 70
     1
102
RTVSPropertyOp37
 70
     1
102
RTVSPropertyOp38
 70
     1
102
RTVSPropertyOp39
 70
     1
102
RTVSPropertyOp40
 70
     1
102
RTVSPropertyOp41
 70
     1
102
RTVSPropertyOp42
 70
     1
102
RTVSPropertyOp43
 70
     1
102
RTVSPropertyOp44
 70
     1
102
RTVSPropertyOp45
 70
     1
102
RTVSPropertyOp46
 70
     1
102
RTVSPropertyOp47
 70
     1
102
RTVSPropertyOp48
 70
     1
102
RTVSPropertyOp49
 70
     1
102
RTVSPropertyOp50
 70
     1
102
RTVSPropertyOp51
 70
     0
102
RTVSPropertyOp52
 70
     0
102
RTVSPropertyOp53
 70
     1
102
RTVSPropertyOp54
 70
     1
102
RTVSPropertyOp55
 70
     1
102
RTVSPropertyOp56
 70
     1
102
RTVSPropertyOp57
 70
     1
102
RTVSPropertyOp58
 70
     1
102
RTVSPropertyOp59
 70
     1
102
RTVSPropertyOp60
 70
     1
102
RTVSPropertyOp61
 70
     1
102
RTVSPropertyOp62
 70
     1
  0
XRECORD
  5
1521
102
{ACAD_REACTORS
330
1520
102
}
330
1520
100
AcDbXrecord
280
     1
102
RTVSPost2010Prop28
280
     0
102
RTVSPost2010PropOp28
 70
     1
102
RTVSPost2010Prop29
280
     1
102
RTVSPost2010PropOp29
 70
     1
102
RTVSPost2010Prop30
280
     1
102
RTVSPost2010PropOp30
 70
     1
102
RTVSPost2010Prop31
280
     0
102
RTVSPost2010PropOp31
 70
     1
102
RTVSPost2010Prop32
280
     0
102
RTVSPost2010PropOp32
 70
     1
102
RTVSPost2010Prop33
280
     0
102
RTVSPost2010PropOp33
 70
     1
102
RTVSPost2010Prop34
280
     0
102
RTVSPost2010PropOp34
 70
     1
102
RTVSPost2010Prop35
280
     0
102
RTVSPost2010PropOp35
 70
     1
102
RTVSPost2010Prop36
280
     0
102
RTVSPost2010PropOp36
 70
     1
102
RTVSPost2010Prop37
 90
       50
102
RTVSPost2010PropOp37
 70
     1
102
RTVSPost2010Prop38
140
0.0
102
RTVSPost2010PropOp38
 70
     1
102
RTVSPost2010Prop39
140
1.0
102
RTVSPost2010PropOp39
 70
     1
102
RTVSPost2010Prop40
 90
        0
102
RTVSPost2010PropOp40
 70
     1
102
RTVSPost2010Prop41ColorIndex
 90
       18
102
RTVSPost2010Prop41ColorRGB
 90
        0
102
RTVSPost2010PropOp41
 70
     1
102
RTVSPost2010Prop42
 90
       50
102
RTVSPost2010PropOp42
 70
     1
102
RTVSPost2010Prop43
 90
        3
102
RTVSPost2010PropOp43
 70
     1
102
RTVSPost2010Prop44ColorIndex
 90
        5
102
RTVSPost2010Prop44ColorRGB
 90
      255
102
RTVSPost2010PropOp44
 70
     1
102
RTVSPost2010Prop45
280
     0
102
RTVSPost2010PropOp45
 70
     1
102
RTVSPost2010Prop46
 90
       50
102
RTVSPost2010PropOp46
 70
     1
102
RTVSPost2010Prop47
 90
       50
102
RTVSPost2010PropOp47
 70
     1
102
RTVSPost2010Prop48
 90
       50
102
RTVSPost2010PropOp48
 70
     1
102
RTVSPost2010Prop49
280
     0
102
RTVSPost2010PropOp49
 70
     1
102
RTVSPost2010Prop50
 90
       50
102
RTVSPost2010PropOp50
 70
     1
102
RTVSPost2010Prop51ColorIndex
 90
      256
102
RTVSPost2010Prop51ColorRGB
 90
-16777216
102
RTVSPost2010PropOp51
 70
     0
102
RTVSPost2010Prop52
140
1.0
102
RTVSPost2010PropOp52
 70
     0
102
RTVSPost2010Prop53
 90
        2
102
RTVSPost2010PropOp53
 70
     1
102
RTVSPost2010Prop54
  1
strokes_ogs.tif
102
RTVSPost2010PropOp54
 70
     1
102
RTVSPost2010Prop55
280
     0
102
RTVSPost2010PropOp55
 70
     1
102
RTVSPost2010Prop56
140
1.0
102
RTVSPost2010PropOp56
 70
     1
102
RTVSPost2010Prop57
140
1.0
102
RTVSPost2010PropOp57
 70
     1
102
RTVSPropertyOp0
 70
     1
102
RTVSPropertyOp1
 70
     1
102
RTVSPropertyOp2
 70
     1
102
RTVSPropertyOp3
 70
     1
102
RTVSPropertyOp4
 70
     1
102
RTVSPropertyOp5
 70
     1
102
RTVSPropertyOp6
 70
     1
102
RTVSPropertyOp7
 70
     1
102
RTVSPropertyOp8
 70
     1
102
RTVSPropertyOp9
 70
     1
102
RTVSPropertyOp10
 70
     1
102
RTVSPropertyOp11
 70
     1
102
RTVSPropertyOp12
 70
     1
102
RTVSPropertyOp13
 70
     1
102
RTVSPropertyOp14
 70
     1
102
RTVSPropertyOp15
 70
     1
102
RTVSPropertyOp16
 70
     1
102
RTVSPropertyOp17
 70
     1
102
RTVSPropertyOp18
 70
     1
102
RTVSPropertyOp19
 70
     1
102
RTVSPropertyOp20
 70
     1
102
RTVSPropertyOp21
 70
     1
102
RTVSPropertyOp22
 70
     1
102
RTVSPropertyOp23
 70
     1
102
RTVSPropertyOp24
 70
     1
102
RTVSPropertyOp25
 70
     1
102
RTVSPropertyOp26
 70
     1
102
RTVSPropertyOp27
 70
     1
102
RTVSPropertyOp28
 70
     1
102
RTVSPropertyOp29
 70
     1
102
RTVSPropertyOp30
 70
     1
102
RTVSPropertyOp31
 70
     1
102
RTVSPropertyOp32
 70
     1
102
RTVSPropertyOp33
 70
     1
102
RTVSPropertyOp34
 70
     1
102
RTVSPropertyOp35
 70
     1
102
RTVSPropertyOp36
 70
     1
102
RTVSPropertyOp37
 70
     1
102
RTVSPropertyOp38
 70
     1
102
RTVSPropertyOp39
 70
     1
102
RTVSPropertyOp40
 70
     1
102
RTVSPropertyOp41
 70
     1
102
RTVSPropertyOp42
 70
     1
102
RTVSPropertyOp43
 70
     1
102
RTVSPropertyOp44
 70
     1
102
RTVSPropertyOp45
 70
     1
102
RTVSPropertyOp46
 70
     1
102
RTVSPropertyOp47
 70
     1
102
RTVSPropertyOp48
 70
     1
102
RTVSPropertyOp49
 70
     1
102
RTVSPropertyOp50
 70
     1
102
RTVSPropertyOp51
 70
     0
102
RTVSPropertyOp52
 70
     0
102
RTVSPropertyOp53
 70
     1
102
RTVSPropertyOp54
 70
     1
102
RTVSPropertyOp55
 70
     1
102
RTVSPropertyOp56
 70
     1
102
RTVSPropertyOp57
 70
     1
102
RTVSPropertyOp58
 70
     1
102
RTVSPropertyOp59
 70
     1
102
RTVSPropertyOp60
 70
     1
102
RTVSPropertyOp61
 70
     1
102
RTVSPropertyOp62
 70
     1
  0
XRECORD
  5
1523
102
{ACAD_REACTORS
330
1522
102
}
330
1522
100
AcDbXrecord
280
     1
102
RTVSPost2010Prop28
280
     0
102
RTVSPost2010PropOp28
 70
     1
102
RTVSPost2010Prop29
280
     1
102
RTVSPost2010PropOp29
 70
     1
102
RTVSPost2010Prop30
280
     1
102
RTVSPost2010PropOp30
 70
     1
102
RTVSPost2010Prop31
280
     0
102
RTVSPost2010PropOp31
 70
     1
102
RTVSPost2010Prop32
280
     0
102
RTVSPost2010PropOp32
 70
     1
102
RTVSPost2010Prop33
280
     0
102
RTVSPost2010PropOp33
 70
     1
102
RTVSPost2010Prop34
280
     0
102
RTVSPost2010PropOp34
 70
     1
102
RTVSPost2010Prop35
280
     0
102
RTVSPost2010PropOp35
 70
     1
102
RTVSPost2010Prop36
280
     0
102
RTVSPost2010PropOp36
 70
     1
102
RTVSPost2010Prop37
 90
       50
102
RTVSPost2010PropOp37
 70
     1
102
RTVSPost2010Prop38
140
0.0
102
RTVSPost2010PropOp38
 70
     1
102
RTVSPost2010Prop39
140
1.0
102
RTVSPost2010PropOp39
 70
     1
102
RTVSPost2010Prop40
 90
        0
102
RTVSPost2010PropOp40
 70
     1
102
RTVSPost2010Prop41ColorIndex
 90
       18
102
RTVSPost2010Prop41ColorRGB
 90
        0
102
RTVSPost2010PropOp41
 70
     1
102
RTVSPost2010Prop42
 90
       50
102
RTVSPost2010PropOp42
 70
     1
102
RTVSPost2010Prop43
 90
        3
102
RTVSPost2010PropOp43
 70
     1
102
RTVSPost2010Prop44ColorIndex
 90
        5
102
RTVSPost2010Prop44ColorRGB
 90
      255
102
RTVSPost2010PropOp44
 70
     1
102
RTVSPost2010Prop45
280
     0
102
RTVSPost2010PropOp45
 70
     1
102
RTVSPost2010Prop46
 90
       50
102
RTVSPost2010PropOp46
 70
     1
102
RTVSPost2010Prop47
 90
       50
102
RTVSPost2010PropOp47
 70
     1
102
RTVSPost2010Prop48
 90
       50
102
RTVSPost2010PropOp48
 70
     1
102
RTVSPost2010Prop49
280
     0
102
RTVSPost2010PropOp49
 70
     1
102
RTVSPost2010Prop50
 90
       50
102
RTVSPost2010PropOp50
 70
     1
102
RTVSPost2010Prop51ColorIndex
 90
      256
102
RTVSPost2010Prop51ColorRGB
 90
-16777216
102
RTVSPost2010PropOp51
 70
     0
102
RTVSPost2010Prop52
140
1.0
102
RTVSPost2010PropOp52
 70
     0
102
RTVSPost2010Prop53
 90
        2
102
RTVSPost2010PropOp53
 70
     1
102
RTVSPost2010Prop54
  1
strokes_ogs.tif
102
RTVSPost2010PropOp54
 70
     1
102
RTVSPost2010Prop55
280
     0
102
RTVSPost2010PropOp55
 70
     1
102
RTVSPost2010Prop56
140
1.0
102
RTVSPost2010PropOp56
 70
     1
102
RTVSPost2010Prop57
140
1.0
102
RTVSPost2010PropOp57
 70
     1
102
RTVSPropertyOp0
 70
     1
102
RTVSPropertyOp1
 70
     1
102
RTVSPropertyOp2
 70
     1
102
RTVSPropertyOp3
 70
     1
102
RTVSPropertyOp4
 70
     1
102
RTVSPropertyOp5
 70
     1
102
RTVSPropertyOp6
 70
     1
102
RTVSPropertyOp7
 70
     1
102
RTVSPropertyOp8
 70
     1
102
RTVSPropertyOp9
 70
     1
102
RTVSPropertyOp10
 70
     1
102
RTVSPropertyOp11
 70
     1
102
RTVSPropertyOp12
 70
     1
102
RTVSPropertyOp13
 70
     1
102
RTVSPropertyOp14
 70
     1
102
RTVSPropertyOp15
 70
     1
102
RTVSPropertyOp16
 70
     1
102
RTVSPropertyOp17
 70
     1
102
RTVSPropertyOp18
 70
     1
102
RTVSPropertyOp19
 70
     1
102
RTVSPropertyOp20
 70
     1
102
RTVSPropertyOp21
 70
     1
102
RTVSPropertyOp22
 70
     1
102
RTVSPropertyOp23
 70
     1
102
RTVSPropertyOp24
 70
     1
102
RTVSPropertyOp25
 70
     1
102
RTVSPropertyOp26
 70
     1
102
RTVSPropertyOp27
 70
     1
102
RTVSPropertyOp28
 70
     1
102
RTVSPropertyOp29
 70
     1
102
RTVSPropertyOp30
 70
     1
102
RTVSPropertyOp31
 70
     1
102
RTVSPropertyOp32
 70
     1
102
RTVSPropertyOp33
 70
     1
102
RTVSPropertyOp34
 70
     1
102
RTVSPropertyOp35
 70
     1
102
RTVSPropertyOp36
 70
     1
102
RTVSPropertyOp37
 70
     1
102
RTVSPropertyOp38
 70
     1
102
RTVSPropertyOp39
 70
     1
102
RTVSPropertyOp40
 70
     1
102
RTVSPropertyOp41
 70
     1
102
RTVSPropertyOp42
 70
     1
102
RTVSPropertyOp43
 70
     1
102
RTVSPropertyOp44
 70
     1
102
RTVSPropertyOp45
 70
     1
102
RTVSPropertyOp46
 70
     1
102
RTVSPropertyOp47
 70
     1
102
RTVSPropertyOp48
 70
     1
102
RTVSPropertyOp49
 70
     1
102
RTVSPropertyOp50
 70
     1
102
RTVSPropertyOp51
 70
     0
102
RTVSPropertyOp52
 70
     0
102
RTVSPropertyOp53
 70
     1
102
RTVSPropertyOp54
 70
     1
102
RTVSPropertyOp55
 70
     1
102
RTVSPropertyOp56
 70
     1
102
RTVSPropertyOp57
 70
     1
102
RTVSPropertyOp58
 70
     1
102
RTVSPropertyOp59
 70
     1
102
RTVSPropertyOp60
 70
     1
102
RTVSPropertyOp61
 70
     1
102
RTVSPropertyOp62
 70
     1
  0
XRECORD
  5
152B
102
{ACAD_REACTORS
330
152A
102
}
330
152A
100
AcDbXrecord
280
     1
102
RTVSPost2010Prop28
280
     0
102
RTVSPost2010PropOp28
 70
     1
102
RTVSPost2010Prop29
280
     1
102
RTVSPost2010PropOp29
 70
     1
102
RTVSPost2010Prop30
280
     1
102
RTVSPost2010PropOp30
 70
     1
102
RTVSPost2010Prop31
280
     0
102
RTVSPost2010PropOp31
 70
     1
102
RTVSPost2010Prop32
280
     0
102
RTVSPost2010PropOp32
 70
     1
102
RTVSPost2010Prop33
280
     0
102
RTVSPost2010PropOp33
 70
     1
102
RTVSPost2010Prop34
280
     0
102
RTVSPost2010PropOp34
 70
     1
102
RTVSPost2010Prop35
280
     0
102
RTVSPost2010PropOp35
 70
     1
102
RTVSPost2010Prop36
280
     0
102
RTVSPost2010PropOp36
 70
     1
102
RTVSPost2010Prop37
 90
       50
102
RTVSPost2010PropOp37
 70
     1
102
RTVSPost2010Prop38
140
0.0
102
RTVSPost2010PropOp38
 70
     1
102
RTVSPost2010Prop39
140
1.0
102
RTVSPost2010PropOp39
 70
     1
102
RTVSPost2010Prop40
 90
        0
102
RTVSPost2010PropOp40
 70
     1
102
RTVSPost2010Prop41ColorIndex
 90
       18
102
RTVSPost2010Prop41ColorRGB
 90
        0
102
RTVSPost2010PropOp41
 70
     1
102
RTVSPost2010Prop42
 90
       50
102
RTVSPost2010PropOp42
 70
     1
102
RTVSPost2010Prop43
 90
        3
102
RTVSPost2010PropOp43
 70
     1
102
RTVSPost2010Prop44ColorIndex
 90
        5
102
RTVSPost2010Prop44ColorRGB
 90
      255
102
RTVSPost2010PropOp44
 70
     1
102
RTVSPost2010Prop45
280
     0
102
RTVSPost2010PropOp45
 70
     1
102
RTVSPost2010Prop46
 90
       50
102
RTVSPost2010PropOp46
 70
     1
102
RTVSPost2010Prop47
 90
       50
102
RTVSPost2010PropOp47
 70
     1
102
RTVSPost2010Prop48
 90
       50
102
RTVSPost2010PropOp48
 70
     1
102
RTVSPost2010Prop49
280
     0
102
RTVSPost2010PropOp49
 70
     1
102
RTVSPost2010Prop50
 90
       50
102
RTVSPost2010PropOp50
 70
     1
102
RTVSPost2010Prop51ColorIndex
 90
      256
102
RTVSPost2010Prop51ColorRGB
 90
-16777216
102
RTVSPost2010PropOp51
 70
     0
102
RTVSPost2010Prop52
140
1.0
102
RTVSPost2010PropOp52
 70
     0
102
RTVSPost2010Prop53
 90
        2
102
RTVSPost2010PropOp53
 70
     1
102
RTVSPost2010Prop54
  1
strokes_ogs.tif
102
RTVSPost2010PropOp54
 70
     1
102
RTVSPost2010Prop55
280
     0
102
RTVSPost2010PropOp55
 70
     1
102
RTVSPost2010Prop56
140
1.0
102
RTVSPost2010PropOp56
 70
     1
102
RTVSPost2010Prop57
140
1.0
102
RTVSPost2010PropOp57
 70
     1
102
RTVSPropertyOp0
 70
     1
102
RTVSPropertyOp1
 70
     1
102
RTVSPropertyOp2
 70
     1
102
RTVSPropertyOp3
 70
     1
102
RTVSPropertyOp4
 70
     1
102
RTVSPropertyOp5
 70
     1
102
RTVSPropertyOp6
 70
     1
102
RTVSPropertyOp7
 70
     1
102
RTVSPropertyOp8
 70
     1
102
RTVSPropertyOp9
 70
     1
102
RTVSPropertyOp10
 70
     1
102
RTVSPropertyOp11
 70
     1
102
RTVSPropertyOp12
 70
     1
102
RTVSPropertyOp13
 70
     1
102
RTVSPropertyOp14
 70
     1
102
RTVSPropertyOp15
 70
     1
102
RTVSPropertyOp16
 70
     1
102
RTVSPropertyOp17
 70
     1
102
RTVSPropertyOp18
 70
     1
102
RTVSPropertyOp19
 70
     1
102
RTVSPropertyOp20
 70
     1
102
RTVSPropertyOp21
 70
     1
102
RTVSPropertyOp22
 70
     1
102
RTVSPropertyOp23
 70
     1
102
RTVSPropertyOp24
 70
     1
102
RTVSPropertyOp25
 70
     1
102
RTVSPropertyOp26
 70
     1
102
RTVSPropertyOp27
 70
     1
102
RTVSPropertyOp28
 70
     1
102
RTVSPropertyOp29
 70
     1
102
RTVSPropertyOp30
 70
     1
102
RTVSPropertyOp31
 70
     1
102
RTVSPropertyOp32
 70
     1
102
RTVSPropertyOp33
 70
     1
102
RTVSPropertyOp34
 70
     1
102
RTVSPropertyOp35
 70
     1
102
RTVSPropertyOp36
 70
     1
102
RTVSPropertyOp37
 70
     1
102
RTVSPropertyOp38
 70
     1
102
RTVSPropertyOp39
 70
     1
102
RTVSPropertyOp40
 70
     1
102
RTVSPropertyOp41
 70
     1
102
RTVSPropertyOp42
 70
     1
102
RTVSPropertyOp43
 70
     1
102
RTVSPropertyOp44
 70
     1
102
RTVSPropertyOp45
 70
     1
102
RTVSPropertyOp46
 70
     1
102
RTVSPropertyOp47
 70
     1
102
RTVSPropertyOp48
 70
     1
102
RTVSPropertyOp49
 70
     1
102
RTVSPropertyOp50
 70
     1
102
RTVSPropertyOp51
 70
     0
102
RTVSPropertyOp52
 70
     0
102
RTVSPropertyOp53
 70
     1
102
RTVSPropertyOp54
 70
     1
102
RTVSPropertyOp55
 70
     1
102
RTVSPropertyOp56
 70
     1
102
RTVSPropertyOp57
 70
     1
102
RTVSPropertyOp58
 70
     1
102
RTVSPropertyOp59
 70
     1
102
RTVSPropertyOp60
 70
     1
102
RTVSPropertyOp61
 70
     1
102
RTVSPropertyOp62
 70
     1
  0
XRECORD
  5
1547
102
{ACAD_REACTORS
330
1546
102
}
330
1546
100
AcDbXrecord
280
     1
102
RTVSPost2010Prop28
280
     0
102
RTVSPost2010PropOp28
 70
     1
102
RTVSPost2010Prop29
280
     1
102
RTVSPost2010PropOp29
 70
     1
102
RTVSPost2010Prop30
280
     1
102
RTVSPost2010PropOp30
 70
     1
102
RTVSPost2010Prop31
280
     0
102
RTVSPost2010PropOp31
 70
     1
102
RTVSPost2010Prop32
280
     0
102
RTVSPost2010PropOp32
 70
     1
102
RTVSPost2010Prop33
280
     0
102
RTVSPost2010PropOp33
 70
     1
102
RTVSPost2010Prop34
280
     0
102
RTVSPost2010PropOp34
 70
     1
102
RTVSPost2010Prop35
280
     0
102
RTVSPost2010PropOp35
 70
     1
102
RTVSPost2010Prop36
280
     0
102
RTVSPost2010PropOp36
 70
     1
102
RTVSPost2010Prop37
 90
       50
102
RTVSPost2010PropOp37
 70
     0
102
RTVSPost2010Prop38
140
0.0
102
RTVSPost2010PropOp38
 70
     0
102
RTVSPost2010Prop39
140
1.0
102
RTVSPost2010PropOp39
 70
     0
102
RTVSPost2010Prop40
 90
        0
102
RTVSPost2010PropOp40
 70
     0
102
RTVSPost2010Prop41ColorIndex
 90
       18
102
RTVSPost2010Prop41ColorRGB
 90
        0
102
RTVSPost2010PropOp41
 70
     0
102
RTVSPost2010Prop42
 90
       50
102
RTVSPost2010PropOp42
 70
     0
102
RTVSPost2010Prop43
 90
        3
102
RTVSPost2010PropOp43
 70
     0
102
RTVSPost2010Prop44ColorIndex
 90
        5
102
RTVSPost2010Prop44ColorRGB
 90
      255
102
RTVSPost2010PropOp44
 70
     0
102
RTVSPost2010Prop45
280
     0
102
RTVSPost2010PropOp45
 70
     1
102
RTVSPost2010Prop46
 90
       50
102
RTVSPost2010PropOp46
 70
     0
102
RTVSPost2010Prop47
 90
       50
102
RTVSPost2010PropOp47
 70
     0
102
RTVSPost2010Prop48
 90
       50
102
RTVSPost2010PropOp48
 70
     0
102
RTVSPost2010Prop49
280
     0
102
RTVSPost2010PropOp49
 70
     1
102
RTVSPost2010Prop50
 90
       50
102
RTVSPost2010PropOp50
 70
     0
102
RTVSPost2010Prop51ColorIndex
 90
      256
102
RTVSPost2010Prop51ColorRGB
 90
-16777216
102
RTVSPost2010PropOp51
 70
     0
102
RTVSPost2010Prop52
140
1.0
102
RTVSPost2010PropOp52
 70
     0
102
RTVSPost2010Prop53
 90
        2
102
RTVSPost2010PropOp53
 70
     0
102
RTVSPost2010Prop54
  1
strokes_ogs.tif
102
RTVSPost2010PropOp54
 70
     0
102
RTVSPost2010Prop55
280
     0
102
RTVSPost2010PropOp55
 70
     1
102
RTVSPost2010Prop56
140
1.0
102
RTVSPost2010PropOp56
 70
     0
102
RTVSPost2010Prop57
140
1.0
102
RTVSPost2010PropOp57
 70
     0
102
RTVSPropertyOp0
 70
     0
102
RTVSPropertyOp1
 70
     0
102
RTVSPropertyOp2
 70
     0
102
RTVSPropertyOp3
 70
     0
102
RTVSPropertyOp4
 70
     0
102
RTVSPropertyOp5
 70
     0
102
RTVSPropertyOp6
 70
     0
102
RTVSPropertyOp7
 70
     0
102
RTVSPropertyOp8
 70
     0
102
RTVSPropertyOp9
 70
     0
102
RTVSPropertyOp10
 70
     0
102
RTVSPropertyOp11
 70
     0
102
RTVSPropertyOp12
 70
     0
102
RTVSPropertyOp13
 70
     0
102
RTVSPropertyOp14
 70
     2
102
RTVSPropertyOp15
 70
     0
102
RTVSPropertyOp16
 70
     0
102
RTVSPropertyOp17
 70
     0
102
RTVSPropertyOp18
 70
     0
102
RTVSPropertyOp19
 70
     0
102
RTVSPropertyOp20
 70
     0
102
RTVSPropertyOp21
 70
     0
102
RTVSPropertyOp22
 70
     0
102
RTVSPropertyOp23
 70
     0
102
RTVSPropertyOp24
 70
     0
102
RTVSPropertyOp25
 70
     0
102
RTVSPropertyOp26
 70
     0
102
RTVSPropertyOp27
 70
     0
102
RTVSPropertyOp28
 70
     1
102
RTVSPropertyOp29
 70
     1
102
RTVSPropertyOp30
 70
     1
102
RTVSPropertyOp31
 70
     1
102
RTVSPropertyOp32
 70
     1
102
RTVSPropertyOp33
 70
     1
102
RTVSPropertyOp34
 70
     1
102
RTVSPropertyOp35
 70
     1
102
RTVSPropertyOp36
 70
     1
102
RTVSPropertyOp37
 70
     0
102
RTVSPropertyOp38
 70
     0
102
RTVSPropertyOp39
 70
     0
102
RTVSPropertyOp40
 70
     0
102
RTVSPropertyOp41
 70
     0
102
RTVSPropertyOp42
 70
     0
102
RTVSPropertyOp43
 70
     0
102
RTVSPropertyOp44
 70
     0
102
RTVSPropertyOp45
 70
     1
102
RTVSPropertyOp46
 70
     0
102
RTVSPropertyOp47
 70
     0
102
RTVSPropertyOp48
 70
     0
102
RTVSPropertyOp49
 70
     1
102
RTVSPropertyOp50
 70
     0
102
RTVSPropertyOp51
 70
     0
102
RTVSPropertyOp52
 70
     0
102
RTVSPropertyOp53
 70
     0
102
RTVSPropertyOp54
 70
     0
102
RTVSPropertyOp55
 70
     1
102
RTVSPropertyOp56
 70
     0
102
RTVSPropertyOp57
 70
     0
102
RTVSPropertyOp58
 70
     0
102
RTVSPropertyOp59
 70
     0
102
RTVSPropertyOp60
 70
     0
102
RTVSPropertyOp61
 70
     0
102
RTVSPropertyOp62
 70
     0
  0
XRECORD
  5
1537
102
{ACAD_REACTORS
330
1536
102
}
330
1536
100
AcDbXrecord
280
     1
102
RTVSPost2010Prop28
280
     0
102
RTVSPost2010PropOp28
 70
     1
102
RTVSPost2010Prop29
280
     1
102
RTVSPost2010PropOp29
 70
     1
102
RTVSPost2010Prop30
280
     1
102
RTVSPost2010PropOp30
 70
     1
102
RTVSPost2010Prop31
280
     0
102
RTVSPost2010PropOp31
 70
     1
102
RTVSPost2010Prop32
280
     0
102
RTVSPost2010PropOp32
 70
     1
102
RTVSPost2010Prop33
280
     0
102
RTVSPost2010PropOp33
 70
     1
102
RTVSPost2010Prop34
280
     0
102
RTVSPost2010PropOp34
 70
     1
102
RTVSPost2010Prop35
280
     0
102
RTVSPost2010PropOp35
 70
     1
102
RTVSPost2010Prop36
280
     0
102
RTVSPost2010PropOp36
 70
     1
102
RTVSPost2010Prop37
 90
       50
102
RTVSPost2010PropOp37
 70
     1
102
RTVSPost2010Prop38
140
0.0
102
RTVSPost2010PropOp38
 70
     1
102
RTVSPost2010Prop39
140
1.0
102
RTVSPost2010PropOp39
 70
     1
102
RTVSPost2010Prop40
 90
        0
102
RTVSPost2010PropOp40
 70
     1
102
RTVSPost2010Prop41ColorIndex
 90
       18
102
RTVSPost2010Prop41ColorRGB
 90
        0
102
RTVSPost2010PropOp41
 70
     1
102
RTVSPost2010Prop42
 90
       50
102
RTVSPost2010PropOp42
 70
     1
102
RTVSPost2010Prop43
 90
        3
102
RTVSPost2010PropOp43
 70
     1
102
RTVSPost2010Prop44ColorIndex
 90
        5
102
RTVSPost2010Prop44ColorRGB
 90
      255
102
RTVSPost2010PropOp44
 70
     1
102
RTVSPost2010Prop45
280
     0
102
RTVSPost2010PropOp45
 70
     1
102
RTVSPost2010Prop46
 90
       50
102
RTVSPost2010PropOp46
 70
     1
102
RTVSPost2010Prop47
 90
       50
102
RTVSPost2010PropOp47
 70
     1
102
RTVSPost2010Prop48
 90
       50
102
RTVSPost2010PropOp48
 70
     1
102
RTVSPost2010Prop49
280
     0
102
RTVSPost2010PropOp49
 70
     1
102
RTVSPost2010Prop50
 90
       50
102
RTVSPost2010PropOp50
 70
     1
102
RTVSPost2010Prop51ColorIndex
 90
      256
102
RTVSPost2010Prop51ColorRGB
 90
-16777216
102
RTVSPost2010PropOp51
 70
     0
102
RTVSPost2010Prop52
140
1.0
102
RTVSPost2010PropOp52
 70
     0
102
RTVSPost2010Prop53
 90
        2
102
RTVSPost2010PropOp53
 70
     1
102
RTVSPost2010Prop54
  1
strokes_ogs.tif
102
RTVSPost2010PropOp54
 70
     1
102
RTVSPost2010Prop55
280
     0
102
RTVSPost2010PropOp55
 70
     1
102
RTVSPost2010Prop56
140
1.0
102
RTVSPost2010PropOp56
 70
     1
102
RTVSPost2010Prop57
140
1.0
102
RTVSPost2010PropOp57
 70
     1
102
RTVSPropertyOp0
 70
     1
102
RTVSPropertyOp1
 70
     1
102
RTVSPropertyOp2
 70
     1
102
RTVSPropertyOp3
 70
     1
102
RTVSPropertyOp4
 70
     1
102
RTVSPropertyOp5
 70
     1
102
RTVSPropertyOp6
 70
     1
102
RTVSPropertyOp7
 70
     1
102
RTVSPropertyOp8
 70
     1
102
RTVSPropertyOp9
 70
     1
102
RTVSPropertyOp10
 70
     1
102
RTVSPropertyOp11
 70
     1
102
RTVSPropertyOp12
 70
     1
102
RTVSPropertyOp13
 70
     1
102
RTVSPropertyOp14
 70
     1
102
RTVSPropertyOp15
 70
     1
102
RTVSPropertyOp16
 70
     1
102
RTVSPropertyOp17
 70
     1
102
RTVSPropertyOp18
 70
     1
102
RTVSPropertyOp19
 70
     1
102
RTVSPropertyOp20
 70
     1
102
RTVSPropertyOp21
 70
     1
102
RTVSPropertyOp22
 70
     1
102
RTVSPropertyOp23
 70
     1
102
RTVSPropertyOp24
 70
     1
102
RTVSPropertyOp25
 70
     1
102
RTVSPropertyOp26
 70
     1
102
RTVSPropertyOp27
 70
     1
102
RTVSPropertyOp28
 70
     1
102
RTVSPropertyOp29
 70
     1
102
RTVSPropertyOp30
 70
     1
102
RTVSPropertyOp31
 70
     1
102
RTVSPropertyOp32
 70
     1
102
RTVSPropertyOp33
 70
     1
102
RTVSPropertyOp34
 70
     1
102
RTVSPropertyOp35
 70
     1
102
RTVSPropertyOp36
 70
     1
102
RTVSPropertyOp37
 70
     1
102
RTVSPropertyOp38
 70
     1
102
RTVSPropertyOp39
 70
     1
102
RTVSPropertyOp40
 70
     1
102
RTVSPropertyOp41
 70
     1
102
RTVSPropertyOp42
 70
     1
102
RTVSPropertyOp43
 70
     1
102
RTVSPropertyOp44
 70
     1
102
RTVSPropertyOp45
 70
     1
102
RTVSPropertyOp46
 70
     1
102
RTVSPropertyOp47
 70
     1
102
RTVSPropertyOp48
 70
     1
102
RTVSPropertyOp49
 70
     1
102
RTVSPropertyOp50
 70
     1
102
RTVSPropertyOp51
 70
     0
102
RTVSPropertyOp52
 70
     0
102
RTVSPropertyOp53
 70
     1
102
RTVSPropertyOp54
 70
     1
102
RTVSPropertyOp55
 70
     1
102
RTVSPropertyOp56
 70
     1
102
RTVSPropertyOp57
 70
     1
102
RTVSPropertyOp58
 70
     1
102
RTVSPropertyOp59
 70
     1
102
RTVSPropertyOp60
 70
     1
102
RTVSPropertyOp61
 70
     1
102
RTVSPropertyOp62
 70
     1
  0
XRECORD
  5
1549
102
{ACAD_REACTORS
330
1548
102
}
330
1548
100
AcDbXrecord
280
     1
102
RTVSPost2010Prop28
280
     0
102
RTVSPost2010PropOp28
 70
     1
102
RTVSPost2010Prop29
280
     1
102
RTVSPost2010PropOp29
 70
     1
102
RTVSPost2010Prop30
280
     1
102
RTVSPost2010PropOp30
 70
     1
102
RTVSPost2010Prop31
280
     0
102
RTVSPost2010PropOp31
 70
     1
102
RTVSPost2010Prop32
280
     0
102
RTVSPost2010PropOp32
 70
     1
102
RTVSPost2010Prop33
280
     0
102
RTVSPost2010PropOp33
 70
     1
102
RTVSPost2010Prop34
280
     0
102
RTVSPost2010PropOp34
 70
     1
102
RTVSPost2010Prop35
280
     0
102
RTVSPost2010PropOp35
 70
     1
102
RTVSPost2010Prop36
280
     0
102
RTVSPost2010PropOp36
 70
     1
102
RTVSPost2010Prop37
 90
       50
102
RTVSPost2010PropOp37
 70
     0
102
RTVSPost2010Prop38
140
0.0
102
RTVSPost2010PropOp38
 70
     0
102
RTVSPost2010Prop39
140
1.0
102
RTVSPost2010PropOp39
 70
     0
102
RTVSPost2010Prop40
 90
        0
102
RTVSPost2010PropOp40
 70
     0
102
RTVSPost2010Prop41ColorIndex
 90
       18
102
RTVSPost2010Prop41ColorRGB
 90
        0
102
RTVSPost2010PropOp41
 70
     0
102
RTVSPost2010Prop42
 90
       50
102
RTVSPost2010PropOp42
 70
     0
102
RTVSPost2010Prop43
 90
        3
102
RTVSPost2010PropOp43
 70
     0
102
RTVSPost2010Prop44ColorIndex
 90
        5
102
RTVSPost2010Prop44ColorRGB
 90
      255
102
RTVSPost2010PropOp44
 70
     0
102
RTVSPost2010Prop45
280
     0
102
RTVSPost2010PropOp45
 70
     1
102
RTVSPost2010Prop46
 90
       50
102
RTVSPost2010PropOp46
 70
     0
102
RTVSPost2010Prop47
 90
       50
102
RTVSPost2010PropOp47
 70
     0
102
RTVSPost2010Prop48
 90
       50
102
RTVSPost2010PropOp48
 70
     0
102
RTVSPost2010Prop49
280
     0
102
RTVSPost2010PropOp49
 70
     1
102
RTVSPost2010Prop50
 90
       50
102
RTVSPost2010PropOp50
 70
     0
102
RTVSPost2010Prop51ColorIndex
 90
      256
102
RTVSPost2010Prop51ColorRGB
 90
-16777216
102
RTVSPost2010PropOp51
 70
     0
102
RTVSPost2010Prop52
140
1.0
102
RTVSPost2010PropOp52
 70
     0
102
RTVSPost2010Prop53
 90
        2
102
RTVSPost2010PropOp53
 70
     0
102
RTVSPost2010Prop54
  1
strokes_ogs.tif
102
RTVSPost2010PropOp54
 70
     0
102
RTVSPost2010Prop55
280
     0
102
RTVSPost2010PropOp55
 70
     1
102
RTVSPost2010Prop56
140
1.0
102
RTVSPost2010PropOp56
 70
     0
102
RTVSPost2010Prop57
140
1.0
102
RTVSPost2010PropOp57
 70
     0
102
RTVSPropertyOp0
 70
     0
102
RTVSPropertyOp1
 70
     0
102
RTVSPropertyOp2
 70
     0
102
RTVSPropertyOp3
 70
     0
102
RTVSPropertyOp4
 70
     0
102
RTVSPropertyOp5
 70
     0
102
RTVSPropertyOp6
 70
     0
102
RTVSPropertyOp7
 70
     0
102
RTVSPropertyOp8
 70
     0
102
RTVSPropertyOp9
 70
     0
102
RTVSPropertyOp10
 70
     0
102
RTVSPropertyOp11
 70
     0
102
RTVSPropertyOp12
 70
     0
102
RTVSPropertyOp13
 70
     0
102
RTVSPropertyOp14
 70
     2
102
RTVSPropertyOp15
 70
     0
102
RTVSPropertyOp16
 70
     0
102
RTVSPropertyOp17
 70
     0
102
RTVSPropertyOp18
 70
     0
102
RTVSPropertyOp19
 70
     0
102
RTVSPropertyOp20
 70
     0
102
RTVSPropertyOp21
 70
     0
102
RTVSPropertyOp22
 70
     0
102
RTVSPropertyOp23
 70
     0
102
RTVSPropertyOp24
 70
     0
102
RTVSPropertyOp25
 70
     0
102
RTVSPropertyOp26
 70
     0
102
RTVSPropertyOp27
 70
     0
102
RTVSPropertyOp28
 70
     1
102
RTVSPropertyOp29
 70
     1
102
RTVSPropertyOp30
 70
     1
102
RTVSPropertyOp31
 70
     1
102
RTVSPropertyOp32
 70
     1
102
RTVSPropertyOp33
 70
     1
102
RTVSPropertyOp34
 70
     1
102
RTVSPropertyOp35
 70
     1
102
RTVSPropertyOp36
 70
     1
102
RTVSPropertyOp37
 70
     0
102
RTVSPropertyOp38
 70
     0
102
RTVSPropertyOp39
 70
     0
102
RTVSPropertyOp40
 70
     0
102
RTVSPropertyOp41
 70
     0
102
RTVSPropertyOp42
 70
     0
102
RTVSPropertyOp43
 70
     0
102
RTVSPropertyOp44
 70
     0
102
RTVSPropertyOp45
 70
     1
102
RTVSPropertyOp46
 70
     0
102
RTVSPropertyOp47
 70
     0
102
RTVSPropertyOp48
 70
     0
102
RTVSPropertyOp49
 70
     1
102
RTVSPropertyOp50
 70
     0
102
RTVSPropertyOp51
 70
     0
102
RTVSPropertyOp52
 70
     0
102
RTVSPropertyOp53
 70
     0
102
RTVSPropertyOp54
 70
     0
102
RTVSPropertyOp55
 70
     1
102
RTVSPropertyOp56
 70
     0
102
RTVSPropertyOp57
 70
     0
102
RTVSPropertyOp58
 70
     0
102
RTVSPropertyOp59
 70
     0
102
RTVSPropertyOp60
 70
     0
102
RTVSPropertyOp61
 70
     0
102
RTVSPropertyOp62
 70
     0
  0
XRECORD
  5
152F
102
{ACAD_REACTORS
330
152E
102
}
330
152E
100
AcDbXrecord
280
     1
102
RTVSPost2010Prop28
280
     0
102
RTVSPost2010PropOp28
 70
     1
102
RTVSPost2010Prop29
280
     1
102
RTVSPost2010PropOp29
 70
     1
102
RTVSPost2010Prop30
280
     1
102
RTVSPost2010PropOp30
 70
     1
102
RTVSPost2010Prop31
280
     0
102
RTVSPost2010PropOp31
 70
     1
102
RTVSPost2010Prop32
280
     0
102
RTVSPost2010PropOp32
 70
     1
102
RTVSPost2010Prop33
280
     0
102
RTVSPost2010PropOp33
 70
     1
102
RTVSPost2010Prop34
280
     0
102
RTVSPost2010PropOp34
 70
     1
102
RTVSPost2010Prop35
280
     0
102
RTVSPost2010PropOp35
 70
     1
102
RTVSPost2010Prop36
280
     0
102
RTVSPost2010PropOp36
 70
     1
102
RTVSPost2010Prop37
 90
       50
102
RTVSPost2010PropOp37
 70
     1
102
RTVSPost2010Prop38
140
0.0
102
RTVSPost2010PropOp38
 70
     1
102
RTVSPost2010Prop39
140
1.0
102
RTVSPost2010PropOp39
 70
     1
102
RTVSPost2010Prop40
 90
        0
102
RTVSPost2010PropOp40
 70
     1
102
RTVSPost2010Prop41ColorIndex
 90
       18
102
RTVSPost2010Prop41ColorRGB
 90
        0
102
RTVSPost2010PropOp41
 70
     1
102
RTVSPost2010Prop42
 90
       50
102
RTVSPost2010PropOp42
 70
     1
102
RTVSPost2010Prop43
 90
        3
102
RTVSPost2010PropOp43
 70
     1
102
RTVSPost2010Prop44ColorIndex
 90
        5
102
RTVSPost2010Prop44ColorRGB
 90
      255
102
RTVSPost2010PropOp44
 70
     1
102
RTVSPost2010Prop45
280
     0
102
RTVSPost2010PropOp45
 70
     1
102
RTVSPost2010Prop46
 90
       50
102
RTVSPost2010PropOp46
 70
     1
102
RTVSPost2010Prop47
 90
       50
102
RTVSPost2010PropOp47
 70
     1
102
RTVSPost2010Prop48
 90
       50
102
RTVSPost2010PropOp48
 70
     1
102
RTVSPost2010Prop49
280
     0
102
RTVSPost2010PropOp49
 70
     1
102
RTVSPost2010Prop50
 90
       50
102
RTVSPost2010PropOp50
 70
     1
102
RTVSPost2010Prop51ColorIndex
 90
      256
102
RTVSPost2010Prop51ColorRGB
 90
-16777216
102
RTVSPost2010PropOp51
 70
     0
102
RTVSPost2010Prop52
140
1.0
102
RTVSPost2010PropOp52
 70
     0
102
RTVSPost2010Prop53
 90
        2
102
RTVSPost2010PropOp53
 70
     1
102
RTVSPost2010Prop54
  1
strokes_ogs.tif
102
RTVSPost2010PropOp54
 70
     1
102
RTVSPost2010Prop55
280
     0
102
RTVSPost2010PropOp55
 70
     1
102
RTVSPost2010Prop56
140
1.0
102
RTVSPost2010PropOp56
 70
     1
102
RTVSPost2010Prop57
140
1.0
102
RTVSPost2010PropOp57
 70
     1
102
RTVSPropertyOp0
 70
     1
102
RTVSPropertyOp1
 70
     1
102
RTVSPropertyOp2
 70
     1
102
RTVSPropertyOp3
 70
     1
102
RTVSPropertyOp4
 70
     1
102
RTVSPropertyOp5
 70
     1
102
RTVSPropertyOp6
 70
     1
102
RTVSPropertyOp7
 70
     1
102
RTVSPropertyOp8
 70
     1
102
RTVSPropertyOp9
 70
     1
102
RTVSPropertyOp10
 70
     1
102
RTVSPropertyOp11
 70
     1
102
RTVSPropertyOp12
 70
     1
102
RTVSPropertyOp13
 70
     1
102
RTVSPropertyOp14
 70
     1
102
RTVSPropertyOp15
 70
     1
102
RTVSPropertyOp16
 70
     1
102
RTVSPropertyOp17
 70
     1
102
RTVSPropertyOp18
 70
     1
102
RTVSPropertyOp19
 70
     1
102
RTVSPropertyOp20
 70
     1
102
RTVSPropertyOp21
 70
     1
102
RTVSPropertyOp22
 70
     1
102
RTVSPropertyOp23
 70
     1
102
RTVSPropertyOp24
 70
     1
102
RTVSPropertyOp25
 70
     1
102
RTVSPropertyOp26
 70
     1
102
RTVSPropertyOp27
 70
     1
102
RTVSPropertyOp28
 70
     1
102
RTVSPropertyOp29
 70
     1
102
RTVSPropertyOp30
 70
     1
102
RTVSPropertyOp31
 70
     1
102
RTVSPropertyOp32
 70
     1
102
RTVSPropertyOp33
 70
     1
102
RTVSPropertyOp34
 70
     1
102
RTVSPropertyOp35
 70
     1
102
RTVSPropertyOp36
 70
     1
102
RTVSPropertyOp37
 70
     1
102
RTVSPropertyOp38
 70
     1
102
RTVSPropertyOp39
 70
     1
102
RTVSPropertyOp40
 70
     1
102
RTVSPropertyOp41
 70
     1
102
RTVSPropertyOp42
 70
     1
102
RTVSPropertyOp43
 70
     1
102
RTVSPropertyOp44
 70
     1
102
RTVSPropertyOp45
 70
     1
102
RTVSPropertyOp46
 70
     1
102
RTVSPropertyOp47
 70
     1
102
RTVSPropertyOp48
 70
     1
102
RTVSPropertyOp49
 70
     1
102
RTVSPropertyOp50
 70
     1
102
RTVSPropertyOp51
 70
     0
102
RTVSPropertyOp52
 70
     0
102
RTVSPropertyOp53
 70
     1
102
RTVSPropertyOp54
 70
     1
102
RTVSPropertyOp55
 70
     1
102
RTVSPropertyOp56
 70
     1
102
RTVSPropertyOp57
 70
     1
102
RTVSPropertyOp58
 70
     1
102
RTVSPropertyOp59
 70
     1
102
RTVSPropertyOp60
 70
     1
102
RTVSPropertyOp61
 70
     1
102
RTVSPropertyOp62
 70
     1
  0
XRECORD
  5
1545
102
{ACAD_REACTORS
330
1544
102
}
330
1544
100
AcDbXrecord
280
     1
102
RTVSPost2010Prop28
280
     0
102
RTVSPost2010PropOp28
 70
     1
102
RTVSPost2010Prop29
280
     1
102
RTVSPost2010PropOp29
 70
     1
102
RTVSPost2010Prop30
280
     1
102
RTVSPost2010PropOp30
 70
     1
102
RTVSPost2010Prop31
280
     0
102
RTVSPost2010PropOp31
 70
     1
102
RTVSPost2010Prop32
280
     0
102
RTVSPost2010PropOp32
 70
     1
102
RTVSPost2010Prop33
280
     0
102
RTVSPost2010PropOp33
 70
     1
102
RTVSPost2010Prop34
280
     0
102
RTVSPost2010PropOp34
 70
     1
102
RTVSPost2010Prop35
280
     0
102
RTVSPost2010PropOp35
 70
     1
102
RTVSPost2010Prop36
280
     0
102
RTVSPost2010PropOp36
 70
     1
102
RTVSPost2010Prop37
 90
       50
102
RTVSPost2010PropOp37
 70
     1
102
RTVSPost2010Prop38
140
0.0
102
RTVSPost2010PropOp38
 70
     1
102
RTVSPost2010Prop39
140
1.0
102
RTVSPost2010PropOp39
 70
     1
102
RTVSPost2010Prop40
 90
        0
102
RTVSPost2010PropOp40
 70
     1
102
RTVSPost2010Prop41ColorIndex
 90
       18
102
RTVSPost2010Prop41ColorRGB
 90
        0
102
RTVSPost2010PropOp41
 70
     1
102
RTVSPost2010Prop42
 90
       50
102
RTVSPost2010PropOp42
 70
     1
102
RTVSPost2010Prop43
 90
        3
102
RTVSPost2010PropOp43
 70
     1
102
RTVSPost2010Prop44ColorIndex
 90
        5
102
RTVSPost2010Prop44ColorRGB
 90
      255
102
RTVSPost2010PropOp44
 70
     1
102
RTVSPost2010Prop45
280
     0
102
RTVSPost2010PropOp45
 70
     1
102
RTVSPost2010Prop46
 90
       50
102
RTVSPost2010PropOp46
 70
     1
102
RTVSPost2010Prop47
 90
       50
102
RTVSPost2010PropOp47
 70
     1
102
RTVSPost2010Prop48
 90
       50
102
RTVSPost2010PropOp48
 70
     1
102
RTVSPost2010Prop49
280
     0
102
RTVSPost2010PropOp49
 70
     1
102
RTVSPost2010Prop50
 90
       50
102
RTVSPost2010PropOp50
 70
     1
102
RTVSPost2010Prop51ColorIndex
 90
      256
102
RTVSPost2010Prop51ColorRGB
 90
-16777216
102
RTVSPost2010PropOp51
 70
     0
102
RTVSPost2010Prop52
140
1.0
102
RTVSPost2010PropOp52
 70
     0
102
RTVSPost2010Prop53
 90
        2
102
RTVSPost2010PropOp53
 70
     1
102
RTVSPost2010Prop54
  1
strokes_ogs.tif
102
RTVSPost2010PropOp54
 70
     1
102
RTVSPost2010Prop55
280
     0
102
RTVSPost2010PropOp55
 70
     1
102
RTVSPost2010Prop56
140
1.0
102
RTVSPost2010PropOp56
 70
     1
102
RTVSPost2010Prop57
140
1.0
102
RTVSPost2010PropOp57
 70
     1
102
RTVSPropertyOp0
 70
     1
102
RTVSPropertyOp1
 70
     1
102
RTVSPropertyOp2
 70
     1
102
RTVSPropertyOp3
 70
     1
102
RTVSPropertyOp4
 70
     1
102
RTVSPropertyOp5
 70
     1
102
RTVSPropertyOp6
 70
     1
102
RTVSPropertyOp7
 70
     1
102
RTVSPropertyOp8
 70
     1
102
RTVSPropertyOp9
 70
     1
102
RTVSPropertyOp10
 70
     1
102
RTVSPropertyOp11
 70
     1
102
RTVSPropertyOp12
 70
     1
102
RTVSPropertyOp13
 70
     1
102
RTVSPropertyOp14
 70
     1
102
RTVSPropertyOp15
 70
     1
102
RTVSPropertyOp16
 70
     1
102
RTVSPropertyOp17
 70
     1
102
RTVSPropertyOp18
 70
     1
102
RTVSPropertyOp19
 70
     1
102
RTVSPropertyOp20
 70
     1
102
RTVSPropertyOp21
 70
     1
102
RTVSPropertyOp22
 70
     1
102
RTVSPropertyOp23
 70
     1
102
RTVSPropertyOp24
 70
     1
102
RTVSPropertyOp25
 70
     1
102
RTVSPropertyOp26
 70
     1
102
RTVSPropertyOp27
 70
     1
102
RTVSPropertyOp28
 70
     1
102
RTVSPropertyOp29
 70
     1
102
RTVSPropertyOp30
 70
     1
102
RTVSPropertyOp31
 70
     1
102
RTVSPropertyOp32
 70
     1
102
RTVSPropertyOp33
 70
     1
102
RTVSPropertyOp34
 70
     1
102
RTVSPropertyOp35
 70
     1
102
RTVSPropertyOp36
 70
     1
102
RTVSPropertyOp37
 70
     1
102
RTVSPropertyOp38
 70
     1
102
RTVSPropertyOp39
 70
     1
102
RTVSPropertyOp40
 70
     1
102
RTVSPropertyOp41
 70
     1
102
RTVSPropertyOp42
 70
     1
102
RTVSPropertyOp43
 70
     1
102
RTVSPropertyOp44
 70
     1
102
RTVSPropertyOp45
 70
     1
102
RTVSPropertyOp46
 70
     1
102
RTVSPropertyOp47
 70
     1
102
RTVSPropertyOp48
 70
     1
102
RTVSPropertyOp49
 70
     1
102
RTVSPropertyOp50
 70
     1
102
RTVSPropertyOp51
 70
     0
102
RTVSPropertyOp52
 70
     0
102
RTVSPropertyOp53
 70
     1
102
RTVSPropertyOp54
 70
     1
102
RTVSPropertyOp55
 70
     1
102
RTVSPropertyOp56
 70
     1
102
RTVSPropertyOp57
 70
     1
102
RTVSPropertyOp58
 70
     1
102
RTVSPropertyOp59
 70
     1
102
RTVSPropertyOp60
 70
     1
102
RTVSPropertyOp61
 70
     1
102
RTVSPropertyOp62
 70
     1
  0
XRECORD
  5
1543
102
{ACAD_REACTORS
330
1542
102
}
330
1542
100
AcDbXrecord
280
     1
102
RTVSPost2010Prop28
280
     0
102
RTVSPost2010PropOp28
 70
     1
102
RTVSPost2010Prop29
280
     1
102
RTVSPost2010PropOp29
 70
     1
102
RTVSPost2010Prop30
280
     1
102
RTVSPost2010PropOp30
 70
     1
102
RTVSPost2010Prop31
280
     0
102
RTVSPost2010PropOp31
 70
     1
102
RTVSPost2010Prop32
280
     0
102
RTVSPost2010PropOp32
 70
     1
102
RTVSPost2010Prop33
280
     0
102
RTVSPost2010PropOp33
 70
     1
102
RTVSPost2010Prop34
280
     0
102
RTVSPost2010PropOp34
 70
     1
102
RTVSPost2010Prop35
280
     0
102
RTVSPost2010PropOp35
 70
     1
102
RTVSPost2010Prop36
280
     0
102
RTVSPost2010PropOp36
 70
     1
102
RTVSPost2010Prop37
 90
       50
102
RTVSPost2010PropOp37
 70
     1
102
RTVSPost2010Prop38
140
0.0
102
RTVSPost2010PropOp38
 70
     1
102
RTVSPost2010Prop39
140
1.0
102
RTVSPost2010PropOp39
 70
     1
102
RTVSPost2010Prop40
 90
        0
102
RTVSPost2010PropOp40
 70
     1
102
RTVSPost2010Prop41ColorIndex
 90
       18
102
RTVSPost2010Prop41ColorRGB
 90
        0
102
RTVSPost2010PropOp41
 70
     1
102
RTVSPost2010Prop42
 90
       50
102
RTVSPost2010PropOp42
 70
     1
102
RTVSPost2010Prop43
 90
        3
102
RTVSPost2010PropOp43
 70
     1
102
RTVSPost2010Prop44ColorIndex
 90
        5
102
RTVSPost2010Prop44ColorRGB
 90
      255
102
RTVSPost2010PropOp44
 70
     1
102
RTVSPost2010Prop45
280
     0
102
RTVSPost2010PropOp45
 70
     1
102
RTVSPost2010Prop46
 90
       50
102
RTVSPost2010PropOp46
 70
     1
102
RTVSPost2010Prop47
 90
       50
102
RTVSPost2010PropOp47
 70
     1
102
RTVSPost2010Prop48
 90
       50
102
RTVSPost2010PropOp48
 70
     1
102
RTVSPost2010Prop49
280
     0
102
RTVSPost2010PropOp49
 70
     1
102
RTVSPost2010Prop50
 90
       50
102
RTVSPost2010PropOp50
 70
     1
102
RTVSPost2010Prop51ColorIndex
 90
      256
102
RTVSPost2010Prop51ColorRGB
 90
-16777216
102
RTVSPost2010PropOp51
 70
     0
102
RTVSPost2010Prop52
140
1.0
102
RTVSPost2010PropOp52
 70
     0
102
RTVSPost2010Prop53
 90
        2
102
RTVSPost2010PropOp53
 70
     1
102
RTVSPost2010Prop54
  1
strokes_ogs.tif
102
RTVSPost2010PropOp54
 70
     1
102
RTVSPost2010Prop55
280
     0
102
RTVSPost2010PropOp55
 70
     1
102
RTVSPost2010Prop56
140
1.0
102
RTVSPost2010PropOp56
 70
     1
102
RTVSPost2010Prop57
140
1.0
102
RTVSPost2010PropOp57
 70
     1
102
RTVSPropertyOp0
 70
     1
102
RTVSPropertyOp1
 70
     1
102
RTVSPropertyOp2
 70
     1
102
RTVSPropertyOp3
 70
     1
102
RTVSPropertyOp4
 70
     1
102
RTVSPropertyOp5
 70
     1
102
RTVSPropertyOp6
 70
     1
102
RTVSPropertyOp7
 70
     1
102
RTVSPropertyOp8
 70
     1
102
RTVSPropertyOp9
 70
     1
102
RTVSPropertyOp10
 70
     1
102
RTVSPropertyOp11
 70
     1
102
RTVSPropertyOp12
 70
     1
102
RTVSPropertyOp13
 70
     1
102
RTVSPropertyOp14
 70
     1
102
RTVSPropertyOp15
 70
     1
102
RTVSPropertyOp16
 70
     1
102
RTVSPropertyOp17
 70
     1
102
RTVSPropertyOp18
 70
     1
102
RTVSPropertyOp19
 70
     1
102
RTVSPropertyOp20
 70
     1
102
RTVSPropertyOp21
 70
     1
102
RTVSPropertyOp22
 70
     1
102
RTVSPropertyOp23
 70
     1
102
RTVSPropertyOp24
 70
     1
102
RTVSPropertyOp25
 70
     1
102
RTVSPropertyOp26
 70
     1
102
RTVSPropertyOp27
 70
     1
102
RTVSPropertyOp28
 70
     1
102
RTVSPropertyOp29
 70
     1
102
RTVSPropertyOp30
 70
     1
102
RTVSPropertyOp31
 70
     1
102
RTVSPropertyOp32
 70
     1
102
RTVSPropertyOp33
 70
     1
102
RTVSPropertyOp34
 70
     1
102
RTVSPropertyOp35
 70
     1
102
RTVSPropertyOp36
 70
     1
102
RTVSPropertyOp37
 70
     1
102
RTVSPropertyOp38
 70
     1
102
RTVSPropertyOp39
 70
     1
102
RTVSPropertyOp40
 70
     1
102
RTVSPropertyOp41
 70
     1
102
RTVSPropertyOp42
 70
     1
102
RTVSPropertyOp43
 70
     1
102
RTVSPropertyOp44
 70
     1
102
RTVSPropertyOp45
 70
     1
102
RTVSPropertyOp46
 70
     1
102
RTVSPropertyOp47
 70
     1
102
RTVSPropertyOp48
 70
     1
102
RTVSPropertyOp49
 70
     1
102
RTVSPropertyOp50
 70
     1
102
RTVSPropertyOp51
 70
     0
102
RTVSPropertyOp52
 70
     0
102
RTVSPropertyOp53
 70
     1
102
RTVSPropertyOp54
 70
     1
102
RTVSPropertyOp55
 70
     1
102
RTVSPropertyOp56
 70
     1
102
RTVSPropertyOp57
 70
     1
102
RTVSPropertyOp58
 70
     1
102
RTVSPropertyOp59
 70
     1
102
RTVSPropertyOp60
 70
     1
102
RTVSPropertyOp61
 70
     1
102
RTVSPropertyOp62
 70
     1
  0
XRECORD
  5
153D
102
{ACAD_REACTORS
330
153C
102
}
330
153C
100
AcDbXrecord
280
     1
102
RTVSPost2010Prop28
280
     0
102
RTVSPost2010PropOp28
 70
     1
102
RTVSPost2010Prop29
280
     1
102
RTVSPost2010PropOp29
 70
     1
102
RTVSPost2010Prop30
280
     1
102
RTVSPost2010PropOp30
 70
     1
102
RTVSPost2010Prop31
280
     0
102
RTVSPost2010PropOp31
 70
     1
102
RTVSPost2010Prop32
280
     0
102
RTVSPost2010PropOp32
 70
     1
102
RTVSPost2010Prop33
280
     0
102
RTVSPost2010PropOp33
 70
     1
102
RTVSPost2010Prop34
280
     0
102
RTVSPost2010PropOp34
 70
     1
102
RTVSPost2010Prop35
280
     0
102
RTVSPost2010PropOp35
 70
     1
102
RTVSPost2010Prop36
280
     0
102
RTVSPost2010PropOp36
 70
     1
102
RTVSPost2010Prop37
 90
       50
102
RTVSPost2010PropOp37
 70
     1
102
RTVSPost2010Prop38
140
0.0
102
RTVSPost2010PropOp38
 70
     1
102
RTVSPost2010Prop39
140
1.0
102
RTVSPost2010PropOp39
 70
     1
102
RTVSPost2010Prop40
 90
        0
102
RTVSPost2010PropOp40
 70
     1
102
RTVSPost2010Prop41ColorIndex
 90
       18
102
RTVSPost2010Prop41ColorRGB
 90
        0
102
RTVSPost2010PropOp41
 70
     1
102
RTVSPost2010Prop42
 90
       50
102
RTVSPost2010PropOp42
 70
     1
102
RTVSPost2010Prop43
 90
        3
102
RTVSPost2010PropOp43
 70
     1
102
RTVSPost2010Prop44ColorIndex
 90
        5
102
RTVSPost2010Prop44ColorRGB
 90
      255
102
RTVSPost2010PropOp44
 70
     1
102
RTVSPost2010Prop45
280
     0
102
RTVSPost2010PropOp45
 70
     1
102
RTVSPost2010Prop46
 90
       50
102
RTVSPost2010PropOp46
 70
     1
102
RTVSPost2010Prop47
 90
       50
102
RTVSPost2010PropOp47
 70
     1
102
RTVSPost2010Prop48
 90
       50
102
RTVSPost2010PropOp48
 70
     1
102
RTVSPost2010Prop49
280
     0
102
RTVSPost2010PropOp49
 70
     1
102
RTVSPost2010Prop50
 90
       50
102
RTVSPost2010PropOp50
 70
     1
102
RTVSPost2010Prop51ColorIndex
 90
      256
102
RTVSPost2010Prop51ColorRGB
 90
-16777216
102
RTVSPost2010PropOp51
 70
     0
102
RTVSPost2010Prop52
140
1.0
102
RTVSPost2010PropOp52
 70
     0
102
RTVSPost2010Prop53
 90
        2
102
RTVSPost2010PropOp53
 70
     1
102
RTVSPost2010Prop54
  1
strokes_ogs.tif
102
RTVSPost2010PropOp54
 70
     1
102
RTVSPost2010Prop55
280
     0
102
RTVSPost2010PropOp55
 70
     1
102
RTVSPost2010Prop56
140
1.0
102
RTVSPost2010PropOp56
 70
     1
102
RTVSPost2010Prop57
140
1.0
102
RTVSPost2010PropOp57
 70
     1
102
RTVSPropertyOp0
 70
     1
102
RTVSPropertyOp1
 70
     1
102
RTVSPropertyOp2
 70
     1
102
RTVSPropertyOp3
 70
     1
102
RTVSPropertyOp4
 70
     1
102
RTVSPropertyOp5
 70
     1
102
RTVSPropertyOp6
 70
     1
102
RTVSPropertyOp7
 70
     1
102
RTVSPropertyOp8
 70
     1
102
RTVSPropertyOp9
 70
     1
102
RTVSPropertyOp10
 70
     1
102
RTVSPropertyOp11
 70
     1
102
RTVSPropertyOp12
 70
     1
102
RTVSPropertyOp13
 70
     1
102
RTVSPropertyOp14
 70
     1
102
RTVSPropertyOp15
 70
     1
102
RTVSPropertyOp16
 70
     1
102
RTVSPropertyOp17
 70
     1
102
RTVSPropertyOp18
 70
     1
102
RTVSPropertyOp19
 70
     1
102
RTVSPropertyOp20
 70
     1
102
RTVSPropertyOp21
 70
     1
102
RTVSPropertyOp22
 70
     1
102
RTVSPropertyOp23
 70
     1
102
RTVSPropertyOp24
 70
     1
102
RTVSPropertyOp25
 70
     1
102
RTVSPropertyOp26
 70
     1
102
RTVSPropertyOp27
 70
     1
102
RTVSPropertyOp28
 70
     1
102
RTVSPropertyOp29
 70
     1
102
RTVSPropertyOp30
 70
     1
102
RTVSPropertyOp31
 70
     1
102
RTVSPropertyOp32
 70
     1
102
RTVSPropertyOp33
 70
     1
102
RTVSPropertyOp34
 70
     1
102
RTVSPropertyOp35
 70
     1
102
RTVSPropertyOp36
 70
     1
102
RTVSPropertyOp37
 70
     1
102
RTVSPropertyOp38
 70
     1
102
RTVSPropertyOp39
 70
     1
102
RTVSPropertyOp40
 70
     1
102
RTVSPropertyOp41
 70
     1
102
RTVSPropertyOp42
 70
     1
102
RTVSPropertyOp43
 70
     1
102
RTVSPropertyOp44
 70
     1
102
RTVSPropertyOp45
 70
     1
102
RTVSPropertyOp46
 70
     1
102
RTVSPropertyOp47
 70
     1
102
RTVSPropertyOp48
 70
     1
102
RTVSPropertyOp49
 70
     1
102
RTVSPropertyOp50
 70
     1
102
RTVSPropertyOp51
 70
     0
102
RTVSPropertyOp52
 70
     0
102
RTVSPropertyOp53
 70
     1
102
RTVSPropertyOp54
 70
     1
102
RTVSPropertyOp55
 70
     1
102
RTVSPropertyOp56
 70
     1
102
RTVSPropertyOp57
 70
     1
102
RTVSPropertyOp58
 70
     1
102
RTVSPropertyOp59
 70
     1
102
RTVSPropertyOp60
 70
     1
102
RTVSPropertyOp61
 70
     1
102
RTVSPropertyOp62
 70
     1
  0
XRECORD
  5
153F
102
{ACAD_REACTORS
330
153E
102
}
330
153E
100
AcDbXrecord
280
     1
102
RTVSPost2010Prop28
280
     0
102
RTVSPost2010PropOp28
 70
     1
102
RTVSPost2010Prop29
280
     1
102
RTVSPost2010PropOp29
 70
     1
102
RTVSPost2010Prop30
280
     1
102
RTVSPost2010PropOp30
 70
     1
102
RTVSPost2010Prop31
280
     0
102
RTVSPost2010PropOp31
 70
     1
102
RTVSPost2010Prop32
280
     0
102
RTVSPost2010PropOp32
 70
     1
102
RTVSPost2010Prop33
280
     0
102
RTVSPost2010PropOp33
 70
     1
102
RTVSPost2010Prop34
280
     0
102
RTVSPost2010PropOp34
 70
     1
102
RTVSPost2010Prop35
280
     0
102
RTVSPost2010PropOp35
 70
     1
102
RTVSPost2010Prop36
280
     0
102
RTVSPost2010PropOp36
 70
     1
102
RTVSPost2010Prop37
 90
       50
102
RTVSPost2010PropOp37
 70
     1
102
RTVSPost2010Prop38
140
0.0
102
RTVSPost2010PropOp38
 70
     1
102
RTVSPost2010Prop39
140
1.0
102
RTVSPost2010PropOp39
 70
     1
102
RTVSPost2010Prop40
 90
        0
102
RTVSPost2010PropOp40
 70
     1
102
RTVSPost2010Prop41ColorIndex
 90
       18
102
RTVSPost2010Prop41ColorRGB
 90
        0
102
RTVSPost2010PropOp41
 70
     1
102
RTVSPost2010Prop42
 90
       50
102
RTVSPost2010PropOp42
 70
     1
102
RTVSPost2010Prop43
 90
        3
102
RTVSPost2010PropOp43
 70
     1
102
RTVSPost2010Prop44ColorIndex
 90
        5
102
RTVSPost2010Prop44ColorRGB
 90
      255
102
RTVSPost2010PropOp44
 70
     1
102
RTVSPost2010Prop45
280
     0
102
RTVSPost2010PropOp45
 70
     1
102
RTVSPost2010Prop46
 90
       50
102
RTVSPost2010PropOp46
 70
     1
102
RTVSPost2010Prop47
 90
       50
102
RTVSPost2010PropOp47
 70
     1
102
RTVSPost2010Prop48
 90
       50
102
RTVSPost2010PropOp48
 70
     1
102
RTVSPost2010Prop49
280
     0
102
RTVSPost2010PropOp49
 70
     1
102
RTVSPost2010Prop50
 90
       50
102
RTVSPost2010PropOp50
 70
     1
102
RTVSPost2010Prop51ColorIndex
 90
      256
102
RTVSPost2010Prop51ColorRGB
 90
-16777216
102
RTVSPost2010PropOp51
 70
     0
102
RTVSPost2010Prop52
140
1.0
102
RTVSPost2010PropOp52
 70
     0
102
RTVSPost2010Prop53
 90
        2
102
RTVSPost2010PropOp53
 70
     1
102
RTVSPost2010Prop54
  1
strokes_ogs.tif
102
RTVSPost2010PropOp54
 70
     1
102
RTVSPost2010Prop55
280
     0
102
RTVSPost2010PropOp55
 70
     1
102
RTVSPost2010Prop56
140
1.0
102
RTVSPost2010PropOp56
 70
     1
102
RTVSPost2010Prop57
140
1.0
102
RTVSPost2010PropOp57
 70
     1
102
RTVSPropertyOp0
 70
     1
102
RTVSPropertyOp1
 70
     1
102
RTVSPropertyOp2
 70
     1
102
RTVSPropertyOp3
 70
     1
102
RTVSPropertyOp4
 70
     1
102
RTVSPropertyOp5
 70
     1
102
RTVSPropertyOp6
 70
     1
102
RTVSPropertyOp7
 70
     1
102
RTVSPropertyOp8
 70
     1
102
RTVSPropertyOp9
 70
     1
102
RTVSPropertyOp10
 70
     1
102
RTVSPropertyOp11
 70
     1
102
RTVSPropertyOp12
 70
     1
102
RTVSPropertyOp13
 70
     1
102
RTVSPropertyOp14
 70
     1
102
RTVSPropertyOp15
 70
     1
102
RTVSPropertyOp16
 70
     1
102
RTVSPropertyOp17
 70
     1
102
RTVSPropertyOp18
 70
     1
102
RTVSPropertyOp19
 70
     1
102
RTVSPropertyOp20
 70
     1
102
RTVSPropertyOp21
 70
     1
102
RTVSPropertyOp22
 70
     1
102
RTVSPropertyOp23
 70
     1
102
RTVSPropertyOp24
 70
     1
102
RTVSPropertyOp25
 70
     1
102
RTVSPropertyOp26
 70
     1
102
RTVSPropertyOp27
 70
     1
102
RTVSPropertyOp28
 70
     1
102
RTVSPropertyOp29
 70
     1
102
RTVSPropertyOp30
 70
     1
102
RTVSPropertyOp31
 70
     1
102
RTVSPropertyOp32
 70
     1
102
RTVSPropertyOp33
 70
     1
102
RTVSPropertyOp34
 70
     1
102
RTVSPropertyOp35
 70
     1
102
RTVSPropertyOp36
 70
     1
102
RTVSPropertyOp37
 70
     1
102
RTVSPropertyOp38
 70
     1
102
RTVSPropertyOp39
 70
     1
102
RTVSPropertyOp40
 70
     1
102
RTVSPropertyOp41
 70
     1
102
RTVSPropertyOp42
 70
     1
102
RTVSPropertyOp43
 70
     1
102
RTVSPropertyOp44
 70
     1
102
RTVSPropertyOp45
 70
     1
102
RTVSPropertyOp46
 70
     1
102
RTVSPropertyOp47
 70
     1
102
RTVSPropertyOp48
 70
     1
102
RTVSPropertyOp49
 70
     1
102
RTVSPropertyOp50
 70
     1
102
RTVSPropertyOp51
 70
     0
102
RTVSPropertyOp52
 70
     0
102
RTVSPropertyOp53
 70
     1
102
RTVSPropertyOp54
 70
     1
102
RTVSPropertyOp55
 70
     1
102
RTVSPropertyOp56
 70
     1
102
RTVSPropertyOp57
 70
     1
102
RTVSPropertyOp58
 70
     1
102
RTVSPropertyOp59
 70
     1
102
RTVSPropertyOp60
 70
     1
102
RTVSPropertyOp61
 70
     1
102
RTVSPropertyOp62
 70
     1
  0
XRECORD
  5
1535
102
{ACAD_REACTORS
330
1534
102
}
330
1534
100
AcDbXrecord
280
     1
102
RTVSPost2010Prop28
280
     0
102
RTVSPost2010PropOp28
 70
     1
102
RTVSPost2010Prop29
280
     1
102
RTVSPost2010PropOp29
 70
     1
102
RTVSPost2010Prop30
280
     1
102
RTVSPost2010PropOp30
 70
     1
102
RTVSPost2010Prop31
280
     0
102
RTVSPost2010PropOp31
 70
     1
102
RTVSPost2010Prop32
280
     0
102
RTVSPost2010PropOp32
 70
     1
102
RTVSPost2010Prop33
280
     0
102
RTVSPost2010PropOp33
 70
     1
102
RTVSPost2010Prop34
280
     0
102
RTVSPost2010PropOp34
 70
     1
102
RTVSPost2010Prop35
280
     0
102
RTVSPost2010PropOp35
 70
     1
102
RTVSPost2010Prop36
280
     0
102
RTVSPost2010PropOp36
 70
     1
102
RTVSPost2010Prop37
 90
       50
102
RTVSPost2010PropOp37
 70
     1
102
RTVSPost2010Prop38
140
0.0
102
RTVSPost2010PropOp38
 70
     1
102
RTVSPost2010Prop39
140
1.0
102
RTVSPost2010PropOp39
 70
     1
102
RTVSPost2010Prop40
 90
        0
102
RTVSPost2010PropOp40
 70
     1
102
RTVSPost2010Prop41ColorIndex
 90
       18
102
RTVSPost2010Prop41ColorRGB
 90
        0
102
RTVSPost2010PropOp41
 70
     1
102
RTVSPost2010Prop42
 90
       50
102
RTVSPost2010PropOp42
 70
     1
102
RTVSPost2010Prop43
 90
        3
102
RTVSPost2010PropOp43
 70
     1
102
RTVSPost2010Prop44ColorIndex
 90
        5
102
RTVSPost2010Prop44ColorRGB
 90
      255
102
RTVSPost2010PropOp44
 70
     1
102
RTVSPost2010Prop45
280
     0
102
RTVSPost2010PropOp45
 70
     1
102
RTVSPost2010Prop46
 90
       50
102
RTVSPost2010PropOp46
 70
     1
102
RTVSPost2010Prop47
 90
       50
102
RTVSPost2010PropOp47
 70
     1
102
RTVSPost2010Prop48
 90
       50
102
RTVSPost2010PropOp48
 70
     1
102
RTVSPost2010Prop49
280
     0
102
RTVSPost2010PropOp49
 70
     1
102
RTVSPost2010Prop50
 90
       50
102
RTVSPost2010PropOp50
 70
     1
102
RTVSPost2010Prop51ColorIndex
 90
      256
102
RTVSPost2010Prop51ColorRGB
 90
-16777216
102
RTVSPost2010PropOp51
 70
     0
102
RTVSPost2010Prop52
140
1.0
102
RTVSPost2010PropOp52
 70
     0
102
RTVSPost2010Prop53
 90
        2
102
RTVSPost2010PropOp53
 70
     1
102
RTVSPost2010Prop54
  1
strokes_ogs.tif
102
RTVSPost2010PropOp54
 70
     1
102
RTVSPost2010Prop55
280
     0
102
RTVSPost2010PropOp55
 70
     1
102
RTVSPost2010Prop56
140
1.0
102
RTVSPost2010PropOp56
 70
     1
102
RTVSPost2010Prop57
140
1.0
102
RTVSPost2010PropOp57
 70
     1
102
RTVSPropertyOp0
 70
     1
102
RTVSPropertyOp1
 70
     1
102
RTVSPropertyOp2
 70
     1
102
RTVSPropertyOp3
 70
     1
102
RTVSPropertyOp4
 70
     1
102
RTVSPropertyOp5
 70
     1
102
RTVSPropertyOp6
 70
     1
102
RTVSPropertyOp7
 70
     1
102
RTVSPropertyOp8
 70
     1
102
RTVSPropertyOp9
 70
     1
102
RTVSPropertyOp10
 70
     1
102
RTVSPropertyOp11
 70
     1
102
RTVSPropertyOp12
 70
     1
102
RTVSPropertyOp13
 70
     1
102
RTVSPropertyOp14
 70
     1
102
RTVSPropertyOp15
 70
     1
102
RTVSPropertyOp16
 70
     1
102
RTVSPropertyOp17
 70
     1
102
RTVSPropertyOp18
 70
     1
102
RTVSPropertyOp19
 70
     1
102
RTVSPropertyOp20
 70
     1
102
RTVSPropertyOp21
 70
     1
102
RTVSPropertyOp22
 70
     1
102
RTVSPropertyOp23
 70
     1
102
RTVSPropertyOp24
 70
     1
102
RTVSPropertyOp25
 70
     1
102
RTVSPropertyOp26
 70
     1
102
RTVSPropertyOp27
 70
     1
102
RTVSPropertyOp28
 70
     1
102
RTVSPropertyOp29
 70
     1
102
RTVSPropertyOp30
 70
     1
102
RTVSPropertyOp31
 70
     1
102
RTVSPropertyOp32
 70
     1
102
RTVSPropertyOp33
 70
     1
102
RTVSPropertyOp34
 70
     1
102
RTVSPropertyOp35
 70
     1
102
RTVSPropertyOp36
 70
     1
102
RTVSPropertyOp37
 70
     1
102
RTVSPropertyOp38
 70
     1
102
RTVSPropertyOp39
 70
     1
102
RTVSPropertyOp40
 70
     1
102
RTVSPropertyOp41
 70
     1
102
RTVSPropertyOp42
 70
     1
102
RTVSPropertyOp43
 70
     1
102
RTVSPropertyOp44
 70
     1
102
RTVSPropertyOp45
 70
     1
102
RTVSPropertyOp46
 70
     1
102
RTVSPropertyOp47
 70
     1
102
RTVSPropertyOp48
 70
     1
102
RTVSPropertyOp49
 70
     1
102
RTVSPropertyOp50
 70
     1
102
RTVSPropertyOp51
 70
     0
102
RTVSPropertyOp52
 70
     0
102
RTVSPropertyOp53
 70
     1
102
RTVSPropertyOp54
 70
     1
102
RTVSPropertyOp55
 70
     1
102
RTVSPropertyOp56
 70
     1
102
RTVSPropertyOp57
 70
     1
102
RTVSPropertyOp58
 70
     1
102
RTVSPropertyOp59
 70
     1
102
RTVSPropertyOp60
 70
     1
102
RTVSPropertyOp61
 70
     1
102
RTVSPropertyOp62
 70
     1
  0
XRECORD
  5
1529
102
{ACAD_REACTORS
330
1528
102
}
330
1528
100
AcDbXrecord
280
     1
102
RTVSPost2010Prop28
280
     0
102
RTVSPost2010PropOp28
 70
     1
102
RTVSPost2010Prop29
280
     1
102
RTVSPost2010PropOp29
 70
     1
102
RTVSPost2010Prop30
280
     1
102
RTVSPost2010PropOp30
 70
     1
102
RTVSPost2010Prop31
280
     0
102
RTVSPost2010PropOp31
 70
     1
102
RTVSPost2010Prop32
280
     0
102
RTVSPost2010PropOp32
 70
     1
102
RTVSPost2010Prop33
280
     0
102
RTVSPost2010PropOp33
 70
     1
102
RTVSPost2010Prop34
280
     0
102
RTVSPost2010PropOp34
 70
     1
102
RTVSPost2010Prop35
280
     0
102
RTVSPost2010PropOp35
 70
     1
102
RTVSPost2010Prop36
280
     0
102
RTVSPost2010PropOp36
 70
     1
102
RTVSPost2010Prop37
 90
       50
102
RTVSPost2010PropOp37
 70
     1
102
RTVSPost2010Prop38
140
0.0
102
RTVSPost2010PropOp38
 70
     1
102
RTVSPost2010Prop39
140
1.0
102
RTVSPost2010PropOp39
 70
     1
102
RTVSPost2010Prop40
 90
        0
102
RTVSPost2010PropOp40
 70
     1
102
RTVSPost2010Prop41ColorIndex
 90
       18
102
RTVSPost2010Prop41ColorRGB
 90
        0
102
RTVSPost2010PropOp41
 70
     1
102
RTVSPost2010Prop42
 90
       50
102
RTVSPost2010PropOp42
 70
     1
102
RTVSPost2010Prop43
 90
        3
102
RTVSPost2010PropOp43
 70
     1
102
RTVSPost2010Prop44ColorIndex
 90
        5
102
RTVSPost2010Prop44ColorRGB
 90
      255
102
RTVSPost2010PropOp44
 70
     1
102
RTVSPost2010Prop45
280
     0
102
RTVSPost2010PropOp45
 70
     1
102
RTVSPost2010Prop46
 90
       50
102
RTVSPost2010PropOp46
 70
     1
102
RTVSPost2010Prop47
 90
       50
102
RTVSPost2010PropOp47
 70
     1
102
RTVSPost2010Prop48
 90
       50
102
RTVSPost2010PropOp48
 70
     1
102
RTVSPost2010Prop49
280
     0
102
RTVSPost2010PropOp49
 70
     1
102
RTVSPost2010Prop50
 90
       50
102
RTVSPost2010PropOp50
 70
     1
102
RTVSPost2010Prop51ColorIndex
 90
      256
102
RTVSPost2010Prop51ColorRGB
 90
-16777216
102
RTVSPost2010PropOp51
 70
     0
102
RTVSPost2010Prop52
140
1.0
102
RTVSPost2010PropOp52
 70
     0
102
RTVSPost2010Prop53
 90
        2
102
RTVSPost2010PropOp53
 70
     1
102
RTVSPost2010Prop54
  1
strokes_ogs.tif
102
RTVSPost2010PropOp54
 70
     1
102
RTVSPost2010Prop55
280
     0
102
RTVSPost2010PropOp55
 70
     1
102
RTVSPost2010Prop56
140
1.0
102
RTVSPost2010PropOp56
 70
     1
102
RTVSPost2010Prop57
140
1.0
102
RTVSPost2010PropOp57
 70
     1
102
RTVSPropertyOp0
 70
     1
102
RTVSPropertyOp1
 70
     1
102
RTVSPropertyOp2
 70
     1
102
RTVSPropertyOp3
 70
     1
102
RTVSPropertyOp4
 70
     1
102
RTVSPropertyOp5
 70
     1
102
RTVSPropertyOp6
 70
     1
102
RTVSPropertyOp7
 70
     1
102
RTVSPropertyOp8
 70
     1
102
RTVSPropertyOp9
 70
     1
102
RTVSPropertyOp10
 70
     1
102
RTVSPropertyOp11
 70
     1
102
RTVSPropertyOp12
 70
     1
102
RTVSPropertyOp13
 70
     1
102
RTVSPropertyOp14
 70
     1
102
RTVSPropertyOp15
 70
     1
102
RTVSPropertyOp16
 70
     1
102
RTVSPropertyOp17
 70
     1
102
RTVSPropertyOp18
 70
     1
102
RTVSPropertyOp19
 70
     1
102
RTVSPropertyOp20
 70
     1
102
RTVSPropertyOp21
 70
     1
102
RTVSPropertyOp22
 70
     1
102
RTVSPropertyOp23
 70
     1
102
RTVSPropertyOp24
 70
     1
102
RTVSPropertyOp25
 70
     1
102
RTVSPropertyOp26
 70
     1
102
RTVSPropertyOp27
 70
     1
102
RTVSPropertyOp28
 70
     1
102
RTVSPropertyOp29
 70
     1
102
RTVSPropertyOp30
 70
     1
102
RTVSPropertyOp31
 70
     1
102
RTVSPropertyOp32
 70
     1
102
RTVSPropertyOp33
 70
     1
102
RTVSPropertyOp34
 70
     1
102
RTVSPropertyOp35
 70
     1
102
RTVSPropertyOp36
 70
     1
102
RTVSPropertyOp37
 70
     1
102
RTVSPropertyOp38
 70
     1
102
RTVSPropertyOp39
 70
     1
102
RTVSPropertyOp40
 70
     1
102
RTVSPropertyOp41
 70
     1
102
RTVSPropertyOp42
 70
     1
102
RTVSPropertyOp43
 70
     1
102
RTVSPropertyOp44
 70
     1
102
RTVSPropertyOp45
 70
     1
102
RTVSPropertyOp46
 70
     1
102
RTVSPropertyOp47
 70
     1
102
RTVSPropertyOp48
 70
     1
102
RTVSPropertyOp49
 70
     1
102
RTVSPropertyOp50
 70
     1
102
RTVSPropertyOp51
 70
     0
102
RTVSPropertyOp52
 70
     0
102
RTVSPropertyOp53
 70
     1
102
RTVSPropertyOp54
 70
     1
102
RTVSPropertyOp55
 70
     1
102
RTVSPropertyOp56
 70
     1
102
RTVSPropertyOp57
 70
     1
102
RTVSPropertyOp58
 70
     1
102
RTVSPropertyOp59
 70
     1
102
RTVSPropertyOp60
 70
     1
102
RTVSPropertyOp61
 70
     1
102
RTVSPropertyOp62
 70
     1
  0
XRECORD
  5
1541
102
{ACAD_REACTORS
330
1540
102
}
330
1540
100
AcDbXrecord
280
     1
102
RTVSPost2010Prop28
280
     0
102
RTVSPost2010PropOp28
 70
     1
102
RTVSPost2010Prop29
280
     1
102
RTVSPost2010PropOp29
 70
     1
102
RTVSPost2010Prop30
280
     1
102
RTVSPost2010PropOp30
 70
     1
102
RTVSPost2010Prop31
280
     0
102
RTVSPost2010PropOp31
 70
     1
102
RTVSPost2010Prop32
280
     0
102
RTVSPost2010PropOp32
 70
     1
102
RTVSPost2010Prop33
280
     0
102
RTVSPost2010PropOp33
 70
     1
102
RTVSPost2010Prop34
280
     0
102
RTVSPost2010PropOp34
 70
     1
102
RTVSPost2010Prop35
280
     0
102
RTVSPost2010PropOp35
 70
     1
102
RTVSPost2010Prop36
280
     0
102
RTVSPost2010PropOp36
 70
     1
102
RTVSPost2010Prop37
 90
       50
102
RTVSPost2010PropOp37
 70
     1
102
RTVSPost2010Prop38
140
0.0
102
RTVSPost2010PropOp38
 70
     1
102
RTVSPost2010Prop39
140
1.0
102
RTVSPost2010PropOp39
 70
     1
102
RTVSPost2010Prop40
 90
        0
102
RTVSPost2010PropOp40
 70
     1
102
RTVSPost2010Prop41ColorIndex
 90
       18
102
RTVSPost2010Prop41ColorRGB
 90
        0
102
RTVSPost2010PropOp41
 70
     1
102
RTVSPost2010Prop42
 90
       50
102
RTVSPost2010PropOp42
 70
     1
102
RTVSPost2010Prop43
 90
        3
102
RTVSPost2010PropOp43
 70
     1
102
RTVSPost2010Prop44ColorIndex
 90
        5
102
RTVSPost2010Prop44ColorRGB
 90
      255
102
RTVSPost2010PropOp44
 70
     1
102
RTVSPost2010Prop45
280
     0
102
RTVSPost2010PropOp45
 70
     1
102
RTVSPost2010Prop46
 90
       50
102
RTVSPost2010PropOp46
 70
     1
102
RTVSPost2010Prop47
 90
       50
102
RTVSPost2010PropOp47
 70
     1
102
RTVSPost2010Prop48
 90
       50
102
RTVSPost2010PropOp48
 70
     1
102
RTVSPost2010Prop49
280
     0
102
RTVSPost2010PropOp49
 70
     1
102
RTVSPost2010Prop50
 90
       50
102
RTVSPost2010PropOp50
 70
     1
102
RTVSPost2010Prop51ColorIndex
 90
      256
102
RTVSPost2010Prop51ColorRGB
 90
-16777216
102
RTVSPost2010PropOp51
 70
     0
102
RTVSPost2010Prop52
140
1.0
102
RTVSPost2010PropOp52
 70
     0
102
RTVSPost2010Prop53
 90
        2
102
RTVSPost2010PropOp53
 70
     1
102
RTVSPost2010Prop54
  1
strokes_ogs.tif
102
RTVSPost2010PropOp54
 70
     1
102
RTVSPost2010Prop55
280
     0
102
RTVSPost2010PropOp55
 70
     1
102
RTVSPost2010Prop56
140
1.0
102
RTVSPost2010PropOp56
 70
     1
102
RTVSPost2010Prop57
140
1.0
102
RTVSPost2010PropOp57
 70
     1
102
RTVSPropertyOp0
 70
     1
102
RTVSPropertyOp1
 70
     1
102
RTVSPropertyOp2
 70
     1
102
RTVSPropertyOp3
 70
     1
102
RTVSPropertyOp4
 70
     1
102
RTVSPropertyOp5
 70
     1
102
RTVSPropertyOp6
 70
     1
102
RTVSPropertyOp7
 70
     1
102
RTVSPropertyOp8
 70
     1
102
RTVSPropertyOp9
 70
     1
102
RTVSPropertyOp10
 70
     1
102
RTVSPropertyOp11
 70
     1
102
RTVSPropertyOp12
 70
     1
102
RTVSPropertyOp13
 70
     1
102
RTVSPropertyOp14
 70
     1
102
RTVSPropertyOp15
 70
     1
102
RTVSPropertyOp16
 70
     1
102
RTVSPropertyOp17
 70
     1
102
RTVSPropertyOp18
 70
     1
102
RTVSPropertyOp19
 70
     1
102
RTVSPropertyOp20
 70
     1
102
RTVSPropertyOp21
 70
     1
102
RTVSPropertyOp22
 70
     1
102
RTVSPropertyOp23
 70
     1
102
RTVSPropertyOp24
 70
     1
102
RTVSPropertyOp25
 70
     1
102
RTVSPropertyOp26
 70
     1
102
RTVSPropertyOp27
 70
     1
102
RTVSPropertyOp28
 70
     1
102
RTVSPropertyOp29
 70
     1
102
RTVSPropertyOp30
 70
     1
102
RTVSPropertyOp31
 70
     1
102
RTVSPropertyOp32
 70
     1
102
RTVSPropertyOp33
 70
     1
102
RTVSPropertyOp34
 70
     1
102
RTVSPropertyOp35
 70
     1
102
RTVSPropertyOp36
 70
     1
102
RTVSPropertyOp37
 70
     1
102
RTVSPropertyOp38
 70
     1
102
RTVSPropertyOp39
 70
     1
102
RTVSPropertyOp40
 70
     1
102
RTVSPropertyOp41
 70
     1
102
RTVSPropertyOp42
 70
     1
102
RTVSPropertyOp43
 70
     1
102
RTVSPropertyOp44
 70
     1
102
RTVSPropertyOp45
 70
     1
102
RTVSPropertyOp46
 70
     1
102
RTVSPropertyOp47
 70
     1
102
RTVSPropertyOp48
 70
     1
102
RTVSPropertyOp49
 70
     1
102
RTVSPropertyOp50
 70
     1
102
RTVSPropertyOp51
 70
     0
102
RTVSPropertyOp52
 70
     0
102
RTVSPropertyOp53
 70
     1
102
RTVSPropertyOp54
 70
     1
102
RTVSPropertyOp55
 70
     1
102
RTVSPropertyOp56
 70
     1
102
RTVSPropertyOp57
 70
     1
102
RTVSPropertyOp58
 70
     1
102
RTVSPropertyOp59
 70
     1
102
RTVSPropertyOp60
 70
     1
102
RTVSPropertyOp61
 70
     1
102
RTVSPropertyOp62
 70
     1
  0
ENDSEC
  0
EOF
