  0
SECTION
  2
HEADER
  9
$ACADVER
  1
AC1015
  9
$ACADMAINTVER
 70
    20
  9
$DWGCODEPAGE
  3
ANSI_932
  9
$INSBASE
 10
0.0
 20
0.0
 30
0.0
  9
$EXTMIN
 10
0.0000019710205382
 20
-0.0000001824802212
 30
0.0
  9
$EXTMAX
 10
839.2707570227393
 20
562.8444952806924
 30
0.0
  9
$LIMMIN
 10
0.0000015376081137
 20
-0.0000001931532552
  9
$LIMMAX
 10
892.000001537608
 20
614.9393937462405
  9
$ORTHOMODE
 70
     0
  9
$REGENMODE
 70
     1
  9
$FILLMODE
 70
     1
  9
$QTEXTMODE
 70
     0
  9
$MIRRTEXT
 70
     1
  9
$LTSCALE
 40
1.0
  9
$ATTMODE
 70
     1
  9
$TEXTSIZE
 40
2.5
  9
$TRACEWID
 40
1.0
  9
$TEXTSTYLE
  7
STANDARD
  9
$CLAYER
  8
0
  9
$CELTYPE
  6
BYLAYER
  9
$CECOLOR
 62
   256
  9
$CELTSCALE
 40
1.0
  9
$DISPSILH
 70
     0
  9
$DIMSCALE
 40
1.0
  9
$DIMASZ
 40
3.0
  9
$DIMEXO
 40
1.0
  9
$DIMDLI
 40
10.0
  9
$DIMRND
 40
0.0
  9
$DIMDLE
 40
0.0
  9
$DIMEXE
 40
1.0
  9
$DIMTP
 40
0.0
  9
$DIMTM
 40
0.0
  9
$DIMTXT
 40
3.2
  9
$DIMCEN
 40
0.0
  9
$DIMTSZ
 40
0.0
  9
$DIMTOL
 70
     0
  9
$DIMLIM
 70
     0
  9
$DIMTIH
 70
     0
  9
$DIMTOH
 70
     0
  9
$DIMSE1
 70
     0
  9
$DIMSE2
 70
     0
  9
$DIMTAD
 70
     3
  9
$DIMZIN
 70
     8
  9
$DIMBLK
  1

  9
$DIMASO
 70
     1
  9
$DIMSHO
 70
     1
  9
$DIMPOST
  1

  9
$DIMAPOST
  1

  9
$DIMALT
 70
     0
  9
$DIMALTD
 70
     2
  9
$DIMALTF
 40
25.4
  9
$DIMLFAC
 40
1.0
  9
$DIMTOFL
 70
     1
  9
$DIMTVP
 40
0.0
  9
$DIMTIX
 70
     0
  9
$DIMSOXD
 70
     0
  9
$DIMSAH
 70
     1
  9
$DIMBLK1
  1
OPEN
  9
$DIMBLK2
  1
OPEN
  9
$DIMSTYLE
  2
STANDARD
  9
$DIMCLRD
 70
     0
  9
$DIMCLRE
 70
     0
  9
$DIMCLRT
 70
     0
  9
$DIMTFAC
 40
1.0
  9
$DIMGAP
 40
1.0
  9
$DIMJUST
 70
     0
  9
$DIMSD1
 70
     0
  9
$DIMSD2
 70
     0
  9
$DIMTOLJ
 70
     1
  9
$DIMTZIN
 70
     0
  9
$DIMALTZ
 70
     0
  9
$DIMALTTZ
 70
     0
  9
$DIMUPT
 70
     0
  9
$DIMDEC
 70
     4
  9
$DIMTDEC
 70
     4
  9
$DIMALTU
 70
     2
  9
$DIMALTTD
 70
     2
  9
$DIMTXSTY
  7
STANDARD
  9
$DIMAUNIT
 70
     0
  9
$DIMADEC
 70
     0
  9
$DIMALTRND
 40
0.0
  9
$DIMAZIN
 70
     0
  9
$DIMDSEP
 70
    46
  9
$DIMATFIT
 70
     3
  9
$DIMFRAC
 70
     0
  9
$DIMLDRBLK
  1
OPEN
  9
$DIMLUNIT
 70
     2
  9
$DIMLWD
 70
    -2
  9
$DIMLWE
 70
    -2
  9
$DIMTMOVE
 70
     0
  9
$LUNITS
 70
     2
  9
$LUPREC
 70
     4
  9
$SKETCHINC
 40
1.0
  9
$FILLETRAD
 40
0.0
  9
$AUNITS
 70
     0
  9
$AUPREC
 70
     0
  9
$MENU
  1
.
  9
$ELEVATION
 40
0.0
  9
$PELEVATION
 40
0.0
  9
$THICKNESS
 40
0.0
  9
$LIMCHECK
 70
     0
  9
$CHAMFERA
 40
10.0
  9
$CHAMFERB
 40
10.0
  9
$CHAMFERC
 40
20.0
  9
$CHAMFERD
 40
0.0
  9
$SKPOLY
 70
     0
  9
$TDCREATE
 40
2453283.504009873
  9
$TDUCREATE
 40
2453283.129009873
  9
$TDUPDATE
 40
2457192.689103843
  9
$TDUUPDATE
 40
2457192.314103843
  9
$TDINDWG
 40
0.3074014120
  9
$TDUSRTIMER
 40
0.3074012269
  9
$USRTIMER
 70
     1
  9
$ANGBASE
 50
0.0
  9
$ANGDIR
 70
     0
  9
$PDMODE
 70
     0
  9
$PDSIZE
 40
0.0
  9
$PLINEWID
 40
0.0
  9
$SPLFRAME
 70
     0
  9
$SPLINETYPE
 70
     6
  9
$SPLINESEGS
 70
     8
  9
$HANDSEED
  5
2C58
  9
$SURFTAB1
 70
     6
  9
$SURFTAB2
 70
     6
  9
$SURFTYPE
 70
     6
  9
$SURFU
 70
     6
  9
$SURFV
 70
     6
  9
$UCSBASE
  2

  9
$UCSNAME
  2

  9
$UCSORG
 10
0.0
 20
0.0
 30
0.0
  9
$UCSXDIR
 10
1.0
 20
0.0
 30
0.0
  9
$UCSYDIR
 10
0.0
 20
1.0
 30
0.0
  9
$UCSORTHOREF
  2

  9
$UCSORTHOVIEW
 70
     0
  9
$UCSORGTOP
 10
0.0
 20
0.0
 30
0.0
  9
$UCSORGBOTTOM
 10
0.0
 20
0.0
 30
0.0
  9
$UCSORGLEFT
 10
0.0
 20
0.0
 30
0.0
  9
$UCSORGRIGHT
 10
0.0
 20
0.0
 30
0.0
  9
$UCSORGFRONT
 10
0.0
 20
0.0
 30
0.0
  9
$UCSORGBACK
 10
0.0
 20
0.0
 30
0.0
  9
$PUCSBASE
  2

  9
$PUCSNAME
  2

  9
$PUCSORG
 10
0.0
 20
0.0
 30
0.0
  9
$PUCSXDIR
 10
1.0
 20
0.0
 30
0.0
  9
$PUCSYDIR
 10
0.0
 20
1.0
 30
0.0
  9
$PUCSORTHOREF
  2

  9
$PUCSORTHOVIEW
 70
     0
  9
$PUCSORGTOP
 10
0.0
 20
0.0
 30
0.0
  9
$PUCSORGBOTTOM
 10
0.0
 20
0.0
 30
0.0
  9
$PUCSORGLEFT
 10
0.0
 20
0.0
 30
0.0
  9
$PUCSORGRIGHT
 10
0.0
 20
0.0
 30
0.0
  9
$PUCSORGFRONT
 10
0.0
 20
0.0
 30
0.0
  9
$PUCSORGBACK
 10
0.0
 20
0.0
 30
0.0
  9
$USERI1
 70
     0
  9
$USERI2
 70
     0
  9
$USERI3
 70
     0
  9
$USERI4
 70
     0
  9
$USERI5
 70
     0
  9
$USERR1
 40
0.0
  9
$USERR2
 40
0.0
  9
$USERR3
 40
0.0
  9
$USERR4
 40
0.0
  9
$USERR5
 40
0.0
  9
$WORLDVIEW
 70
     1
  9
$SHADEDGE
 70
     3
  9
$SHADEDIF
 70
    70
  9
$TILEMODE
 70
     1
  9
$MAXACTVP
 70
    48
  9
$PINSBASE
 10
0.0
 20
0.0
 30
0.0
  9
$PLIMCHECK
 70
     0
  9
$PEXTMIN
 10
1.000000000000000E+20
 20
1.000000000000000E+20
 30
1.000000000000000E+20
  9
$PEXTMAX
 10
-1.000000000000000E+20
 20
-1.000000000000000E+20
 30
-1.000000000000000E+20
  9
$PLIMMIN
 10
0.0
 20
0.0
  9
$PLIMMAX
 10
420.0
 20
297.0
  9
$UNITMODE
 70
     0
  9
$VISRETAIN
 70
     1
  9
$PLINEGEN
 70
     0
  9
$PSLTSCALE
 70
     1
  9
$TREEDEPTH
 70
  3020
  9
$CMLSTYLE
  2
STANDARD
  9
$CMLJUST
 70
     0
  9
$CMLSCALE
 40
20.0
  9
$PROXYGRAPHICS
 70
     1
  9
$MEASUREMENT
 70
     0
  9
$CELWEIGHT
370
    -1
  9
$ENDCAPS
280
     0
  9
$JOINSTYLE
280
     0
  9
$LWDISPLAY
290
     0
  9
$INSUNITS
 70
     0
  9
$HYPERLINKBASE
  1

  9
$STYLESHEET
  1

  9
$XEDIT
290
     1
  9
$CEPSNTYPE
380
     0
  9
$PSTYLEMODE
290
     1
  9
$FINGERPRINTGUID
  2
{CBC980C2-15ED-4C41-AECB-2F26E69ADD3C}
  9
$VERSIONGUID
  2
{A3F6BEAE-8F71-4C95-A32D-FA1A567FE292}
  9
$EXTNAMES
290
     1
  9
$PSVPSCALE
 40
0.0
  9
$OLESTARTUP
290
     0
  0
ENDSEC
  0
SECTION
  2
CLASSES
  0
CLASS
  1
ACDBDICTIONARYWDFLT
  2
AcDbDictionaryWithDefault
  3
ObjectDBX Classes
 90
        0
280
     0
281
     0
  0
CLASS
  1
ACDBPLACEHOLDER
  2
AcDbPlaceHolder
  3
ObjectDBX Classes
 90
        0
280
     0
281
     0
  0
CLASS
  1
LAYOUT
  2
AcDbLayout
  3
ObjectDBX Classes
 90
        0
280
     0
281
     0
  0
CLASS
  1
DICTIONARYVAR
  2
AcDbDictionaryVar
  3
ObjectDBX Classes
 90
        0
280
     0
281
     0
  0
CLASS
  1
MATERIAL
  2
AcDbMaterial
  3
ObjectDBX Classes
 90
     1153
280
     0
281
     0
  0
CLASS
  1
VISUALSTYLE
  2
AcDbVisualStyle
  3
ObjectDBX Classes
 90
     4095
280
     0
281
     0
  0
CLASS
  1
TABLESTYLE
  2
AcDbTableStyle
  3
ObjectDBX Classes
 90
     4095
280
     0
281
     0
  0
CLASS
  1
SCALE
  2
AcDbScale
  3
ObjectDBX Classes
 90
     1153
280
     0
281
     0
  0
CLASS
  1
MLEADERSTYLE
  2
AcDbMLeaderStyle
  3
ACDB_MLEADERSTYLE_CLASS
 90
     4095
280
     0
281
     0
  0
CLASS
  1
ACDBSECTIONVIEWSTYLE
  2
AcDbSectionViewStyle
  3
ObjectDBX Classes
 90
     1025
280
     0
281
     0
  0
CLASS
  1
ACDBDETAILVIEWSTYLE
  2
AcDbDetailViewStyle
  3
ObjectDBX Classes
 90
     1025
280
     0
281
     0
  0
CLASS
  1
CELLSTYLEMAP
  2
AcDbCellStyleMap
  3
ObjectDBX Classes
 90
     1152
280
     0
281
     0
  0
ENDSEC
  0
SECTION
  2
TABLES
  0
TABLE
  2
VPORT
  5
8
330
0
100
AcDbSymbolTable
 70
     1
  0
VPORT
  5
2BA4
330
8
100
AcDbSymbolTableRecord
100
AcDbViewportTableRecord
  2
*ACTIVE
 70
     0
 10
0.0
 20
0.0
 11
1.0
 21
1.0
 12
636.2886586958421
 22
281.431233545097
 13
0.0
 23
0.0
 14
10.0
 24
10.0
 15
10.0
 25
10.0
 16
0.0
 26
0.0
 36
1.0
 17
0.0
 27
0.0
 37
0.0
 40
567.3439448839634
 41
2.35006605019815
 42
50.0
 43
0.0
 44
0.0
 50
0.0
 51
0.0
 71
     0
 72
   100
 73
     1
 74
     0
 75
     0
 76
     0
 77
     0
 78
     0
281
     0
 65
     1
110
0.0
120
0.0
130
0.0
111
1.0
121
0.0
131
0.0
112
0.0
122
1.0
132
0.0
 79
     0
146
0.0
1001
ACAD_NAV_VCDISPLAY
1070
     3
  0
ENDTAB
  0
TABLE
  2
LTYPE
  5
5
330
0
100
AcDbSymbolTable
 70
     4
  0
LTYPE
  5
12
330
5
100
AcDbSymbolTableRecord
100
AcDbLinetypeTableRecord
  2
BYBLOCK
 70
     0
  3

 72
    65
 73
     0
 40
0.0
  0
LTYPE
  5
13
330
5
100
AcDbSymbolTableRecord
100
AcDbLinetypeTableRecord
  2
BYLAYER
 70
     0
  3

 72
    65
 73
     0
 40
0.0
  0
LTYPE
  5
14
330
5
100
AcDbSymbolTableRecord
100
AcDbLinetypeTableRecord
  2
CONTINUOUS
 70
     0
  3
Solid line
 72
    65
 73
     0
 40
0.0
  0
LTYPE
  5
62
330
5
100
AcDbSymbolTableRecord
100
AcDbLinetypeTableRecord
  2
DASHED
 70
     0
  3
Dashed __ __ __ __ __ __ __ __ __ __ __ __ __ _
 72
    65
 73
     2
 40
19.04999999999998
 49
12.7
 74
     0
 49
-6.349999999999997
 74
     0
  0
LTYPE
  5
63
330
5
100
AcDbSymbolTableRecord
100
AcDbLinetypeTableRecord
  2
CENTER
 70
     0
  3
Center ____ _ ____ _ ____ _ ____ _ ____ _ ____
 72
    65
 73
     4
 40
50.8
 49
31.75
 74
     0
 49
-6.349999999999997
 74
     0
 49
6.349999999999997
 74
     0
 49
-6.349999999999997
 74
     0
  0
LTYPE
  5
64
330
5
100
AcDbSymbolTableRecord
100
AcDbLinetypeTableRecord
  2
PHANTOM
 70
     0
  3
Phantom ______  __  __  ______  __  __  ______
 72
    65
 73
     6
 40
63.5
 49
31.75
 74
     0
 49
-6.349999999999997
 74
     0
 49
6.349999999999997
 74
     0
 49
-6.349999999999997
 74
     0
 49
6.349999999999997
 74
     0
 49
-6.349999999999997
 74
     0
  0
ENDTAB
  0
TABLE
  2
LAYER
  5
2
330
0
100
AcDbSymbolTable
 70
     8
  0
LAYER
  5
E
102
{ACAD_XDICTIONARY
360
2BFC
102
}
330
2
100
AcDbSymbolTableRecord
100
AcDbLayerTableRecord
  2
0
 70
     0
 62
     7
  6
CONTINUOUS
370
    -3
390
2BAB
  0
LAYER
  5
65
102
{ACAD_XDICTIONARY
360
2BFE
102
}
330
2
100
AcDbSymbolTableRecord
100
AcDbLayerTableRecord
  2
4
 70
     0
 62
     1
  6
CENTER
370
    -3
390
2BAB
  0
LAYER
  5
66
102
{ACAD_XDICTIONARY
360
2C00
102
}
330
2
100
AcDbSymbolTableRecord
100
AcDbLayerTableRecord
  2
5
 70
     0
 62
     6
  6
PHANTOM
370
    -3
390
2BAB
  0
LAYER
  5
67
102
{ACAD_XDICTIONARY
360
2C02
102
}
330
2
100
AcDbSymbolTableRecord
100
AcDbLayerTableRecord
  2
1
 70
     0
 62
     7
  6
CONTINUOUS
370
    -3
390
2BAB
  0
LAYER
  5
68
102
{ACAD_XDICTIONARY
360
2C04
102
}
330
2
100
AcDbSymbolTableRecord
100
AcDbLayerTableRecord
  2
2
 70
     0
 62
     4
  6
CONTINUOUS
370
    -3
390
2BAB
  0
LAYER
  5
69
102
{ACAD_XDICTIONARY
360
2C06
102
}
330
2
100
AcDbSymbolTableRecord
100
AcDbLayerTableRecord
  2
3
 70
     0
 62
     2
  6
DASHED
370
    -3
390
2BAB
  0
LAYER
  5
6A
102
{ACAD_XDICTIONARY
360
2C08
102
}
330
2
100
AcDbSymbolTableRecord
100
AcDbLayerTableRecord
  2
6
 70
     0
 62
     5
  6
CONTINUOUS
370
    -3
390
2BAB
  0
LAYER
  5
6B
102
{ACAD_XDICTIONARY
360
2C0A
102
}
330
2
100
AcDbSymbolTableRecord
100
AcDbLayerTableRecord
  2
7
 70
     0
 62
     3
  6
CONTINUOUS
370
    -3
390
2BAB
  0
ENDTAB
  0
TABLE
  2
STYLE
  5
3
330
0
100
AcDbSymbolTable
 70
     1
  0
STYLE
  5
F
330
3
100
AcDbSymbolTableRecord
100
AcDbTextStyleTableRecord
  2
STANDARD
 70
     0
 40
0.0
 41
1.0
 50
0.0
 71
     0
 42
2.5
  3
simplex.shx
  4

  0
ENDTAB
  0
TABLE
  2
VIEW
  5
6
330
0
100
AcDbSymbolTable
 70
     0
  0
ENDTAB
  0
TABLE
  2
UCS
  5
7
330
0
100
AcDbSymbolTable
 70
     0
  0
ENDTAB
  0
TABLE
  2
APPID
  5
9
330
0
100
AcDbSymbolTable
 70
     5
  0
APPID
  5
10
330
9
100
AcDbSymbolTableRecord
100
AcDbRegAppTableRecord
  2
ACAD
 70
     0
  0
APPID
  5
3E
330
9
100
AcDbSymbolTableRecord
100
AcDbRegAppTableRecord
  2
CONTENTTABDATA
 70
     0
  0
APPID
  5
3F
330
9
100
AcDbSymbolTableRecord
100
AcDbRegAppTableRecord
  2
CONTENTCURRENTTAB
 70
     0
  0
APPID
  5
2C16
330
9
100
AcDbSymbolTableRecord
100
AcDbRegAppTableRecord
  2
ACAD_NAV_VCDISPLAY
 70
     0
  0
APPID
  5
2C4F
330
9
100
AcDbSymbolTableRecord
100
AcDbRegAppTableRecord
  2
ACAD_MLEADERVER
 70
     0
  0
ENDTAB
  0
TABLE
  2
DIMSTYLE
  5
A
330
0
100
AcDbSymbolTable
 70
     1
100
AcDbDimStyleTable
 71
     0
  0
DIMSTYLE
105
1D
330
A
100
AcDbSymbolTableRecord
100
AcDbDimStyleTableRecord
  2
STANDARD
 70
     0
 41
3.0
 42
1.0
 43
10.0
 44
1.0
 73
     0
 74
     0
 77
     3
 78
     8
140
3.2
141
0.0
147
1.0
172
     1
173
     1
340
F
341
2E
343
2E
344
2E
  0
ENDTAB
  0
TABLE
  2
BLOCK_RECORD
  5
1
330
0
100
AcDbSymbolTable
 70
     1
  0
BLOCK_RECORD
  5
18
102
{ACAD_XDICTIONARY
360
2B8D
102
}
330
1
100
AcDbSymbolTableRecord
100
AcDbBlockTableRecord
  2
*MODEL_SPACE
340
2BF9
  0
BLOCK_RECORD
  5
15
102
{ACAD_XDICTIONARY
360
2B8B
102
}
330
1
100
AcDbSymbolTableRecord
100
AcDbBlockTableRecord
  2
*PAPER_SPACE
340
2BFA
  0
BLOCK_RECORD
  5
2E
330
1
100
AcDbSymbolTableRecord
100
AcDbBlockTableRecord
  2
_OPEN
340
0
  0
ENDTAB
  0
ENDSEC
  0
SECTION
  2
BLOCKS
  0
BLOCK
  5
19
330
18
100
AcDbEntity
  8
0
100
AcDbBlockBegin
  2
*MODEL_SPACE
 70
     0
 10
0.0
 20
0.0
 30
0.0
  3
*MODEL_SPACE
  1

  0
ENDBLK
  5
1A
330
18
100
AcDbEntity
  8
0
100
AcDbBlockEnd
  0
BLOCK
  5
16
330
15
100
AcDbEntity
 67
     1
  8
0
100
AcDbBlockBegin
  2
*PAPER_SPACE
 70
     0
 10
0.0
 20
0.0
 30
0.0
  3
*PAPER_SPACE
  1

  0
ENDBLK
  5
17
330
15
100
AcDbEntity
 67
     1
  8
0
100
AcDbBlockEnd
  0
BLOCK
  5
2F
330
2E
100
AcDbEntity
  8
0
100
AcDbBlockBegin
  2
_OPEN
 70
     0
 10
0.0
 20
0.0
 30
0.0
  3
_OPEN
  1

  0
LINE
  5
30
330
2E
100
AcDbEntity
  8
0
  6
ByBlock
 62
     0
100
AcDbLine
 10
-1.0
 20
0.1666666666666666
 30
0.0
 11
0.0
 21
0.0
 31
0.0
  0
LINE
  5
31
330
2E
100
AcDbEntity
  8
0
  6
ByBlock
 62
     0
100
AcDbLine
 10
0.0
 20
0.0
 30
0.0
 11
-1.0
 21
-0.1666666666666666
 31
0.0
  0
LINE
  5
32
330
2E
100
AcDbEntity
  8
0
  6
ByBlock
 62
     0
100
AcDbLine
 10
0.0
 20
0.0
 30
0.0
 11
-1.0
 21
0.0
 31
0.0
  0
ENDBLK
  5
33
330
2E
100
AcDbEntity
  8
0
100
AcDbBlockEnd
  0
ENDSEC
  0
SECTION
  2
ENTITIES
  0
ARC
  5
2A3
330
18
100
AcDbEntity
  8
1
  6
Continuous
100
AcDbCircle
 10
299.7308398729676
 20
546.8444952806925
 30
0.0
 40
11.0
100
AcDbArc
 50
89.99998199999998
 51
179.9999639999999
  0
ARC
  5
2A4
330
18
100
AcDbEntity
  8
1
  6
Continuous
100
AcDbCircle
 10
299.7308398729676
 20
466.8444952806924
 30
0.0
 40
11.0
100
AcDbArc
 50
180.000036
 51
270.0000179999999
  0
LINE
  5
2A5
330
18
100
AcDbEntity
  8
1
  6
Continuous
100
AcDbLine
 10
288.7308398729676
 20
386.5402643239441
 30
0.0
 11
390.7308058729676
 21
386.5402643239441
 31
0.0
  0
LINE
  5
2A6
330
18
100
AcDbEntity
  8
1
  6
Continuous
100
AcDbLine
 10
288.7308398729676
 20
382.5402643239441
 30
0.0
 11
390.7308058729676
 21
382.5402643239441
 31
0.0
  0
LINE
  5
2A7
330
18
100
AcDbEntity
  8
4
  6
CENTER
 48
0.5
100
AcDbLine
 10
195.7626288729676
 20
506.8444952806925
 30
0.0
 11
395.7308208729675
 21
506.8444952806922
 31
0.0
  0
CIRCLE
  5
2A8
330
18
100
AcDbEntity
  8
1
  6
Continuous
100
AcDbCircle
 10
287.5308158729676
 20
350.5402723239441
 30
0.0
 40
5.0
  0
LINE
  5
2A9
330
18
100
AcDbEntity
  8
1
  6
Continuous
100
AcDbLine
 10
282.3306738729675
 20
361.7902723239442
 30
0.0
 11
311.7308208729675
 21
361.7902723239442
 31
0.0
  0
ARC
  5
2AA
330
18
100
AcDbEntity
  8
1
  6
Continuous
100
AcDbCircle
 10
281.7308088729676
 20
332.5402803239442
 30
0.0
 40
10.0
100
AcDbArc
 50
351.3782979999993
 51
69.36244200000003
  0
LINE
  5
2AB
330
18
100
AcDbEntity
  8
4
  6
CENTER
 48
0.5
100
AcDbLine
 10
281.5308158729676
 20
350.5402573239441
 30
0.0
 11
293.5308158729677
 21
350.5402573239441
 31
0.0
  0
ARC
  5
2AC
330
18
100
AcDbEntity
  8
1
  6
Continuous
100
AcDbCircle
 10
301.2307938729676
 20
281.0401843239442
 30
0.0
 40
17.0
100
AcDbArc
 50
171.3782979999991
 51
324.5297870000001
  0
LINE
  5
2AD
330
18
100
AcDbEntity
  8
1
  6
Continuous
100
AcDbLine
 10
291.6178058729677
 20
331.0411813239442
 30
0.0
 11
284.4228998729676
 21
283.5886523239443
 31
0.0
  0
LINE
  5
2B1
330
18
100
AcDbEntity
  8
4
  6
CENTER
 48
0.5
100
AcDbLine
 10
234.2307938729676
 20
281.0401843239442
 30
0.0
 11
369.2307978729676
 21
281.0401843239442
 31
0.0
  0
LINE
  5
2B3
330
18
100
AcDbEntity
  8
4
  6
CENTER
 48
0.5
100
AcDbLine
 10
71.47676279808161
 20
392.6875733239443
 30
0.0
 11
71.47676279808161
 21
212.7748888442702
 31
0.0
  0
LINE
  5
2B4
330
18
100
AcDbEntity
  8
1
  6
Continuous
100
AcDbLine
 10
33.72291779808154
 20
380.0402643239441
 30
0.0
 11
109.1037467980815
 21
380.0402643239441
 31
0.0
  0
LINE
  5
2B5
330
18
100
AcDbEntity
  8
1
  6
Continuous
100
AcDbLine
 10
20.47676279808161
 20
386.5402643239441
 30
0.0
 11
122.4767627980813
 21
386.5402643239441
 31
0.0
  0
LINE
  5
2B6
330
18
100
AcDbEntity
  8
1
  6
Continuous
100
AcDbLine
 10
20.47676279808161
 20
382.5402643239441
 30
0.0
 11
122.4767627980813
 21
382.5402643239441
 31
0.0
  0
ARC
  5
2B7
330
18
100
AcDbEntity
  8
1
  6
Continuous
100
AcDbCircle
 10
107.4767627980816
 20
372.5402573239441
 30
0.0
 40
1.0
100
AcDbArc
 50
269.9999770000001
 51
0.0000140000001062
  0
LINE
  5
2B8
330
18
100
AcDbEntity
  8
1
  6
Continuous
100
AcDbLine
 10
108.9767287980816
 20
376.0402643239441
 30
0.0
 11
106.9767287980815
 21
374.5402643239441
 31
0.0
  0
ARC
  5
2B9
330
18
100
AcDbEntity
  8
1
  6
Continuous
100
AcDbCircle
 10
-74.40196020191844
 20
326.0402643239442
 30
0.0
 40
182.028732
100
AcDbArc
 50
348.9225039999996
 51
0.0
  0
LINE
  5
2BA
330
18
100
AcDbEntity
  8
1
  6
Continuous
100
AcDbLine
 10
33.97676279808161
 20
376.0402643239441
 30
0.0
 11
108.9767777980813
 21
376.0402643239441
 31
0.0
  0
LINE
  5
2BB
330
18
100
AcDbEntity
  8
1
  6
Continuous
100
AcDbLine
 10
34.47676279808149
 20
372.5402643239441
 30
0.0
 11
108.4767627980816
 21
372.5402643239441
 31
0.0
  0
LINE
  5
2BC
330
18
100
AcDbEntity
  8
4
  6
CENTER
 48
0.5
100
AcDbLine
 10
30.3267687980815
 20
358.5402723239443
 30
0.0
 11
112.6267567980812
 21
358.5402723239443
 31
0.0
  0
LINE
  5
2BD
330
18
100
AcDbEntity
  8
4
  6
CENTER
 48
0.5
100
AcDbLine
 10
30.3267687980815
 20
354.5402573239441
 30
0.0
 11
112.6267567980812
 21
354.5402573239441
 31
0.0
  0
LINE
  5
2BE
330
18
100
AcDbEntity
  8
4
  6
CENTER
 48
0.5
100
AcDbLine
 10
30.3267687980815
 20
351.5402723239442
 30
0.0
 11
112.6267567980812
 21
351.5402723239442
 31
0.0
  0
LINE
  5
2BF
330
18
100
AcDbEntity
  8
4
  6
CENTER
 48
0.5
100
AcDbLine
 10
111.5314807980814
 20
281.0402643239441
 30
0.0
 11
21.4767627980816
 21
281.0402643239441
 31
0.0
  0
LINE
  5
2C0
330
18
100
AcDbEntity
  8
4
  6
CENTER
 48
0.5
100
AcDbLine
 10
30.3267687980815
 20
337.2727283239441
 30
0.0
 11
112.6267567980812
 21
337.2727283239441
 31
0.0
  0
LINE
  5
2C1
330
18
100
AcDbEntity
  8
1
  6
Continuous
100
AcDbLine
 10
106.3896507980814
 20
380.0402763239441
 30
0.0
 11
108.9767707980815
 21
376.0402813239443
 31
0.0
  0
TEXT
  5
2CC
330
18
100
AcDbEntity
  8
2
  6
Continuous
 48
0.25
100
AcDbText
 10
9.979512971020538
 20
-0.0000001824802212
 30
0.0
 40
1.399999999999999
  1
2
100
AcDbText
  0
TEXT
  5
2CD
330
18
100
AcDbEntity
  8
7
  6
Continuous
 48
0.25
100
AcDbText
 10
0.0000019710205385
 20
8.000000578288677
 30
0.0
 40
3.0
  1
TYPE No.TCA-315S-UB125
100
AcDbText
  0
TEXT
  5
2CE
330
18
100
AcDbEntity
  8
7
  6
Continuous
 48
0.25
100
AcDbText
 10
0.0000019710205385
 20
16.00000057828867
 30
0.0
 40
3.0
  1
CODE No.19169
100
AcDbText
  0
TEXT
  5
2CF
330
18
100
AcDbEntity
  8
1
  6
Continuous
 48
0.25
100
AcDbText
 10
0.0000019710205385
 20
0.0000005782886774
 30
0.0
 40
1.399999999999999
  1
LAYER
100
AcDbText
  0
TEXT
  5
2D0
330
18
100
AcDbEntity
  8
1
  6
Continuous
 48
0.25
100
AcDbText
 10
7.979512971020537
 20
-0.0000001824802212
 30
0.0
 40
1.399999999999999
  1
1
100
AcDbText
  0
TEXT
  5
2D1
330
18
100
AcDbEntity
  8
5
  6
PHANTOM
 48
0.3
100
AcDbText
 10
15.97951297102053
 20
-0.0000001824802212
 30
0.0
 40
1.399999999999999
  1
5
100
AcDbText
  0
TEXT
  5
2D2
330
18
100
AcDbEntity
  8
3
  6
DASHED
 48
0.25
100
AcDbText
 10
11.97951297102052
 20
-0.0000001824802212
 30
0.0
 40
1.399999999999999
  1
3
100
AcDbText
  0
TEXT
  5
2D3
330
18
100
AcDbEntity
  8
4
  6
CENTER
 48
0.5
100
AcDbText
 10
13.97951297102053
 20
-0.0000001824802212
 30
0.0
 40
1.399999999999999
  1
4
100
AcDbText
  0
TEXT
  5
2D4
330
18
100
AcDbEntity
  8
7
  6
Continuous
 48
0.25
100
AcDbText
 10
19.97951297102053
 20
-0.0000001824802212
 30
0.0
 40
1.399999999999999
  1
7
100
AcDbText
  0
TEXT
  5
2D5
330
18
100
AcDbEntity
  8
6
  6
Continuous
 48
0.25
100
AcDbText
 10
17.97951297102053
 20
-0.0000001824802212
 30
0.0
 40
1.399999999999999
  1
6
100
AcDbText
  0
LINE
  5
2E1
330
18
100
AcDbEntity
  8
1
  6
Continuous
100
AcDbLine
 10
101.4767627980815
 20
332.0822453239442
 30
0.0
 11
101.4767627980815
 21
314.0966993239442
 31
0.0
  0
LINE
  5
2E2
330
18
100
AcDbEntity
  8
1
  6
Continuous
100
AcDbLine
 10
71.47676279808161
 20
334.7727283239442
 30
0.0
 11
71.47676279808161
 21
314.0966993239442
 31
0.0
  0
LINE
  5
2E3
330
18
100
AcDbEntity
  8
1
  6
Continuous
100
AcDbLine
 10
102.4767627980812
 20
365.1902793239441
 30
0.0
 11
102.4767627980812
 21
264.0402643239443
 31
0.0
  0
ARC
  5
2E4
330
18
100
AcDbEntity
  8
1
  6
Continuous
100
AcDbCircle
 10
217.3554857980814
 20
326.0402643239442
 30
0.0
 40
182.028732
100
AcDbArc
 50
179.9999639999999
 51
190.9253839999994
  0
LINE
  5
2E5
330
18
100
AcDbEntity
  8
1
  6
Continuous
100
AcDbLine
 10
43.47676279808149
 20
354.4246726508406
 30
0.0
 11
43.47676279808149
 21
264.0402643239443
 31
0.0
  0
LINE
  5
2E6
330
18
100
AcDbEntity
  8
1
  6
Continuous
100
AcDbLine
 10
40.4767627980815
 20
365.1902793239441
 30
0.0
 11
40.4767627980815
 21
264.0402643239443
 31
0.0
  0
ARC
  5
2E7
330
18
100
AcDbEntity
  8
1
  6
Continuous
100
AcDbCircle
 10
33.8434317980815
 20
289.2675063239441
 30
0.0
 40
3.633333
100
AcDbArc
 50
310.992734
 51
49.00726599999996
  0
LINE
  5
2E9
330
18
100
AcDbEntity
  8
1
  6
Continuous
100
AcDbLine
 10
37.4767627980815
 20
291.5402643239443
 30
0.0
 11
37.4767627980815
 21
270.5402643239442
 31
0.0
  0
ARC
  5
2EB
330
18
100
AcDbEntity
  8
1
  6
Continuous
100
AcDbCircle
 10
34.11009379808148
 20
289.2675063239441
 30
0.0
 40
3.633333
100
AcDbArc
 50
130.992728
 51
229.0072679999999
  0
LINE
  5
2EC
330
18
100
AcDbEntity
  8
1
  6
Continuous
100
AcDbLine
 10
30.47676279808161
 20
289.2675063239441
 30
0.0
 11
30.47676279808161
 21
272.8130233239443
 31
0.0
  0
LINE
  5
2ED
330
18
100
AcDbEntity
  8
1
  6
Continuous
100
AcDbLine
 10
31.72676279808161
 20
270.0706073239443
 30
0.0
 11
36.2267627980815
 21
270.0706073239443
 31
0.0
  0
LINE
  5
2EE
330
18
100
AcDbEntity
  8
1
  6
Continuous
100
AcDbLine
 10
31.72676279808161
 20
275.5554393239443
 30
0.0
 11
36.2267627980815
 21
275.5554393239443
 31
0.0
  0
LINE
  5
2EF
330
18
100
AcDbEntity
  8
1
  6
Continuous
100
AcDbLine
 10
31.72676279808161
 20
286.5250903239443
 30
0.0
 11
36.2267627980815
 21
286.5250903239443
 31
0.0
  0
ARC
  5
2F0
330
18
100
AcDbEntity
  8
1
  6
Continuous
100
AcDbCircle
 10
34.11009379808148
 20
272.8130233239443
 30
0.0
 40
3.633333
100
AcDbArc
 50
130.992728
 51
229.0072679999999
  0
LINE
  5
2F1
330
18
100
AcDbEntity
  8
1
  6
Continuous
100
AcDbLine
 10
27.22676279808148
 20
287.0402643239442
 30
0.0
 11
27.22676279808148
 21
275.0402643239441
 31
0.0
  0
ARC
  5
2F2
330
18
100
AcDbEntity
  8
1
  6
Continuous
100
AcDbCircle
 10
43.13508779808159
 20
281.0402643239441
 30
0.0
 40
12.65833399999999
100
AcDbArc
 50
154.3229739999994
 51
205.6770219999993
  0
LINE
  5
2F3
330
18
100
AcDbEntity
  8
1
  6
Continuous
100
AcDbLine
 10
26.47676279808161
 20
286.2902643239442
 30
0.0
 11
26.47676279808161
 21
275.7902643239442
 31
0.0
  0
LINE
  5
2F4
330
18
100
AcDbEntity
  8
1
  6
Continuous
100
AcDbLine
 10
26.47676279808161
 20
275.7902643239442
 30
0.0
 11
27.22676279808148
 21
275.0402643239441
 31
0.0
  0
LINE
  5
2F5
330
18
100
AcDbEntity
  8
2
  6
Continuous
100
AcDbLine
 10
26.47676279808161
 20
275.7902643239442
 30
0.0
 11
30.47676279808161
 21
275.7902643239442
 31
0.0
  0
LINE
  5
2F6
330
18
100
AcDbEntity
  8
1
  6
Continuous
100
AcDbLine
 10
27.22676279808148
 20
275.0402643239441
 30
0.0
 11
30.47676279808161
 21
275.0402643239441
 31
0.0
  0
LINE
  5
2F7
330
18
100
AcDbEntity
  8
1
  6
Continuous
100
AcDbLine
 10
26.47676279808161
 20
286.2902643239442
 30
0.0
 11
27.22676279808148
 21
287.0402643239442
 31
0.0
  0
LINE
  5
2F8
330
18
100
AcDbEntity
  8
2
  6
Continuous
100
AcDbLine
 10
26.47676279808161
 20
286.2902643239442
 30
0.0
 11
30.47676279808161
 21
286.2902643239442
 31
0.0
  0
LINE
  5
2F9
330
18
100
AcDbEntity
  8
1
  6
Continuous
100
AcDbLine
 10
27.22676279808148
 20
287.0402643239442
 30
0.0
 11
30.47676279808161
 21
287.0402643239442
 31
0.0
  0
ARC
  5
2FA
330
18
100
AcDbEntity
  8
1
  6
Continuous
100
AcDbCircle
 10
33.8434317980815
 20
272.8130233239443
 30
0.0
 40
3.633333
100
AcDbArc
 50
310.992734
 51
49.00726599999996
  0
LINE
  5
2FC
330
18
100
AcDbEntity
  8
1
  6
Continuous
100
AcDbLine
 10
40.4767627980815
 20
270.5402643239442
 30
0.0
 11
37.4767627980815
 21
270.5402643239442
 31
0.0
  0
LINE
  5
2FE
330
18
100
AcDbEntity
  8
1
  6
Continuous
100
AcDbLine
 10
40.4767627980815
 20
264.0402643239443
 30
0.0
 11
43.47676279808149
 21
264.0402643239443
 31
0.0
  0
ARC
  5
300
330
18
100
AcDbEntity
  8
1
  6
Continuous
100
AcDbCircle
 10
24.81843779808162
 20
281.0402643239441
 30
0.0
 40
12.65833399999999
100
AcDbArc
 50
334.3229729999993
 51
25.67702699999977
  0
LINE
  5
302
330
18
100
AcDbEntity
  8
1
  6
Continuous
100
AcDbLine
 10
31.72676279808161
 20
292.0099223239441
 30
0.0
 11
36.2267627980815
 21
292.0099223239441
 31
0.0
  0
LINE
  5
307
330
18
100
AcDbEntity
  8
1
  6
Continuous
100
AcDbLine
 10
40.4767627980815
 20
291.5402643239443
 30
0.0
 11
37.4767627980815
 21
291.5402643239443
 31
0.0
  0
ARC
  5
317
330
18
100
AcDbEntity
  8
1
  6
Continuous
100
AcDbCircle
 10
82.93509079808154
 20
281.0402643239441
 30
0.0
 40
23.541666
100
AcDbArc
 50
330.7582049999993
 51
29.24172000000037
  0
LINE
  5
318
330
18
100
AcDbEntity
  8
1
  6
Continuous
100
AcDbLine
 10
103.4767627980816
 20
292.5402643239443
 30
0.0
 11
103.4767627980816
 21
269.5402643239442
 31
0.0
  0
LINE
  5
31B
330
18
100
AcDbEntity
  8
1
  6
Continuous
100
AcDbLine
 10
99.4767627980816
 20
312.0966993239442
 30
0.0
 11
99.4767627980816
 21
264.0402643239443
 31
0.0
  0
LINE
  5
320
330
18
100
AcDbEntity
  8
1
  6
Continuous
100
AcDbLine
 10
99.4767627980816
 20
264.0402643239443
 30
0.0
 11
102.4767627980812
 21
264.0402643239443
 31
0.0
  0
LINE
  5
322
330
18
100
AcDbEntity
  8
1
  6
Continuous
100
AcDbLine
 10
102.4767627980812
 20
269.5402643239442
 30
0.0
 11
103.4767627980816
 21
269.5402643239442
 31
0.0
  0
LINE
  5
324
330
18
100
AcDbEntity
  8
1
  6
Continuous
100
AcDbLine
 10
73.47676279808161
 20
312.0966993239442
 30
0.0
 11
99.4767627980816
 21
312.0966993239442
 31
0.0
  0
LINE
  5
325
330
18
100
AcDbEntity
  8
1
  6
Continuous
100
AcDbLine
 10
76.47676279808161
 20
314.8414503239442
 30
0.0
 11
96.47676279808159
 21
314.8414503239442
 31
0.0
  0
LINE
  5
326
330
18
100
AcDbEntity
  8
1
  6
Continuous
100
AcDbLine
 10
76.47676279808161
 20
316.5966843239441
 30
0.0
 11
96.47676279808159
 21
316.5966843239441
 31
0.0
  0
LINE
  5
327
330
18
100
AcDbEntity
  8
1
  6
Continuous
100
AcDbLine
 10
76.47676279808161
 20
316.5966843239441
 30
0.0
 11
76.47676279808161
 21
312.0966993239442
 31
0.0
  0
ARC
  5
328
330
18
100
AcDbEntity
  8
1
  6
Continuous
100
AcDbCircle
 10
73.47676279808161
 20
315.3466913239441
 30
0.0
 40
2.0
100
AcDbArc
 50
179.999978
 51
270.0000280000002
  0
ARC
  5
329
330
18
100
AcDbEntity
  8
1
  6
Continuous
100
AcDbCircle
 10
73.47676279808161
 20
314.0966993239442
 30
0.0
 40
2.0
100
AcDbArc
 50
179.999978
 51
270.0000280000002
  0
LINE
  5
32A
330
18
100
AcDbEntity
  8
1
  6
Continuous
100
AcDbLine
 10
73.47676279808161
 20
313.3466913239441
 30
0.0
 11
76.47676279808161
 21
313.3466913239441
 31
0.0
  0
LINE
  5
32E
330
18
100
AcDbEntity
  8
1
  6
Continuous
100
AcDbLine
 10
102.4767627980812
 20
292.5402643239443
 30
0.0
 11
103.4767627980816
 21
292.5402643239443
 31
0.0
  0
LINE
  5
330
330
18
100
AcDbEntity
  8
1
  6
Continuous
100
AcDbLine
 10
96.47676279808159
 20
316.5966843239441
 30
0.0
 11
96.47676279808159
 21
312.0966993239442
 31
0.0
  0
ARC
  5
331
330
18
100
AcDbEntity
  8
1
  6
Continuous
100
AcDbCircle
 10
99.4767627980816
 20
315.3466913239441
 30
0.0
 40
2.0
100
AcDbArc
 50
270.0000179999999
 51
0.0
  0
LINE
  5
332
330
18
100
AcDbEntity
  8
1
  6
Continuous
100
AcDbLine
 10
96.47676279808159
 20
313.3466913239441
 30
0.0
 11
99.4767627980816
 21
313.3466913239441
 31
0.0
  0
ARC
  5
333
330
18
100
AcDbEntity
  8
1
  6
Continuous
100
AcDbCircle
 10
99.4767627980816
 20
314.0966993239442
 30
0.0
 40
2.0
100
AcDbArc
 50
270.0000179999999
 51
0.0
  0
LINE
  5
334
330
18
100
AcDbEntity
  8
1
  6
Continuous
100
AcDbLine
 10
45.4767627980815
 20
360.7248123239441
 30
0.0
 11
65.47676279808138
 21
360.7248123239441
 31
0.0
  0
LINE
  5
335
330
18
100
AcDbEntity
  8
1
  6
Continuous
100
AcDbLine
 10
45.4767627980815
 20
360.0777633239441
 30
0.0
 11
65.47676279808138
 21
360.0777633239441
 31
0.0
  0
LINE
  5
336
330
18
100
AcDbEntity
  8
1
  6
Continuous
100
AcDbLine
 10
35.9767627980816
 20
374.5402643239441
 30
0.0
 11
106.9767317980813
 21
374.5402643239441
 31
0.0
  0
LINE
  5
337
330
18
100
AcDbEntity
  8
1
  6
Continuous
100
AcDbLine
 10
35.4767627980815
 20
371.5402643239441
 30
0.0
 11
107.4767627980816
 21
371.5402643239441
 31
0.0
  0
LINE
  5
338
330
18
100
AcDbEntity
  8
1
  6
Continuous
100
AcDbLine
 10
46.47676279808161
 20
367.0402573239441
 30
0.0
 11
96.47676279808159
 21
367.0402573239441
 31
0.0
  0
LINE
  5
339
330
18
100
AcDbEntity
  8
1
  6
Continuous
100
AcDbLine
 10
43.97676279808161
 20
354.3611643239441
 30
0.0
 11
66.97676279808161
 21
354.3611643239441
 31
0.0
  0
LINE
  5
33A
330
18
100
AcDbEntity
  8
1
  6
Continuous
100
AcDbLine
 10
48.97676279808149
 20
336.2473153239443
 30
0.0
 11
69.47676279808138
 21
336.2473153239443
 31
0.0
  0
LINE
  5
33B
330
18
100
AcDbEntity
  8
1
  6
Continuous
100
AcDbLine
 10
45.97676279808149
 20
323.3547943239441
 30
0.0
 11
71.47676279808161
 21
323.3547943239441
 31
0.0
  0
LINE
  5
33C
330
18
100
AcDbEntity
  8
1
  6
Continuous
100
AcDbLine
 10
46.47676279808161
 20
325.4383053239441
 30
0.0
 11
71.47676279808161
 21
325.4383053239441
 31
0.0
  0
LINE
  5
33D
330
18
100
AcDbEntity
  8
1
  6
Continuous
100
AcDbLine
 10
49.47676279808161
 20
334.9973153239441
 30
0.0
 11
71.47676279808161
 21
334.9973153239441
 31
0.0
  0
LINE
  5
33E
330
18
100
AcDbEntity
  8
1
  6
Continuous
100
AcDbLine
 10
52.97676279808138
 20
333.3960313239442
 30
0.0
 11
71.47676279808161
 21
333.3960313239442
 31
0.0
  0
LINE
  5
33F
330
18
100
AcDbEntity
  8
1
  6
Continuous
100
AcDbLine
 10
53.47676279808161
 20
332.0595173239441
 30
0.0
 11
71.47676279808161
 21
332.0595173239441
 31
0.0
  0
LINE
  5
340
330
18
100
AcDbEntity
  8
1
  6
Continuous
100
AcDbLine
 10
45.4767627980815
 20
360.7248123239441
 30
0.0
 11
45.4767627980815
 21
354.3611643239441
 31
0.0
  0
ARC
  5
341
330
18
100
AcDbEntity
  8
1
  6
Continuous
100
AcDbCircle
 10
43.97676279808161
 20
358.8611263239442
 30
0.0
 40
2.0
100
AcDbArc
 50
179.999978
 51
270.0000280000002
  0
ARC
  5
342
330
18
100
AcDbEntity
  8
1
  6
Continuous
100
AcDbCircle
 10
39.9767627980816
 20
354.0402723239441
 30
0.0
 40
1.5
100
AcDbArc
 50
138.1896851042184
 51
179.9999639999999
  0
LINE
  5
343
330
18
100
AcDbEntity
  8
1
  6
Continuous
100
AcDbLine
 10
38.4767627980815
 20
361.0402723239443
 30
0.0
 11
38.4767627980815
 21
356.0402723239442
 31
0.0
  0
LINE
  5
345
330
18
100
AcDbEntity
  8
1
  6
Continuous
100
AcDbLine
 10
41.97676279808161
 20
362.6257353239441
 30
0.0
 11
41.97676279808161
 21
356.3611643239442
 31
0.0
  0
LINE
  5
346
330
18
100
AcDbEntity
  8
1
  6
Continuous
100
AcDbLine
 10
35.3267687980815
 20
368.1902513239441
 30
0.0
 11
35.3267687980815
 21
325.9657323239442
 31
0.0
  0
ARC
  5
347
330
18
100
AcDbEntity
  8
1
  6
Continuous
100
AcDbCircle
 10
43.47676279808149
 20
339.7727283239441
 30
0.0
 40
1.5
100
AcDbArc
 50
89.99998199999998
 51
179.9999639999999
  0
LINE
  5
348
330
18
100
AcDbEntity
  8
1
  6
Continuous
100
AcDbLine
 10
46.47676279808161
 20
344.2243273239441
 30
0.0
 11
46.47676279808161
 21
325.4383053239441
 31
0.0
  0
LINE
  5
349
330
18
100
AcDbEntity
  8
1
  6
Continuous
100
AcDbLine
 10
43.97676279808161
 20
354.3611643239441
 30
0.0
 11
43.97676279808161
 21
325.3547943239441
 31
0.0
  0
LINE
  5
34A
330
18
100
AcDbEntity
  8
1
  6
Continuous
100
AcDbLine
 10
46.97676279808149
 20
354.3611643239441
 30
0.0
 11
46.97676279808149
 21
331.8274353239441
 31
0.0
  0
ARC
  5
34B
330
18
100
AcDbEntity
  8
1
  6
Continuous
100
AcDbCircle
 10
45.97676279808149
 20
325.3547943239441
 30
0.0
 40
2.0
100
AcDbArc
 50
179.999978
 51
270.0000280000002
  0
LINE
  5
34C
330
18
100
AcDbEntity
  8
1
  6
Continuous
100
AcDbLine
 10
43.47676279808149
 20
339.7727283239441
 30
0.0
 11
43.97676279808161
 21
339.7727283239441
 31
0.0
  0
ARC
  5
34D
330
18
100
AcDbEntity
  8
1
  6
Continuous
100
AcDbCircle
 10
43.47676279808149
 20
334.7727283239442
 30
0.0
 40
1.5
100
AcDbArc
 50
179.999978
 51
270.0000280000002
  0
LINE
  5
34E
330
18
100
AcDbEntity
  8
1
  6
Continuous
100
AcDbLine
 10
43.47676279808149
 20
334.7727283239442
 30
0.0
 11
43.97676279808161
 21
334.7727283239442
 31
0.0
  0
LINE
  5
34F
330
18
100
AcDbEntity
  8
1
  6
Continuous
100
AcDbLine
 10
41.97676279808161
 20
339.7727283239441
 30
0.0
 11
41.97676279808161
 21
334.7727283239442
 31
0.0
  0
ARC
  5
350
330
18
100
AcDbEntity
  8
1
  6
Continuous
100
AcDbCircle
 10
52.97676279808138
 20
334.8960313239443
 30
0.0
 40
1.5
100
AcDbArc
 50
179.999978
 51
270.0000280000002
  0
ARC
  5
351
330
18
100
AcDbEntity
  8
1
  6
Continuous
100
AcDbCircle
 10
53.47676279808161
 20
334.0595173239441
 30
0.0
 40
2.0
100
AcDbArc
 50
179.999978
 51
270.0000280000002
  0
LINE
  5
352
330
18
100
AcDbEntity
  8
1
  6
Continuous
100
AcDbLine
 10
49.47676279808161
 20
334.9973153239441
 30
0.0
 11
49.47676279808161
 21
331.8274353239441
 31
0.0
  0
LINE
  5
353
330
18
100
AcDbEntity
  8
1
  6
Continuous
100
AcDbLine
 10
51.47676279808161
 20
334.9973153239441
 30
0.0
 11
51.47676279808161
 21
334.0595173239441
 31
0.0
  0
ARC
  5
354
330
18
100
AcDbEntity
  8
1
  6
Continuous
100
AcDbCircle
 10
48.97676279808149
 20
334.2473153239442
 30
0.0
 40
2.0
100
AcDbArc
 50
89.99998199999998
 51
179.9999639999999
  0
LINE
  5
355
330
18
100
AcDbEntity
  8
1
  6
Continuous
100
AcDbLine
 10
46.97676279808149
 20
331.8274353239441
 30
0.0
 11
49.47676279808161
 21
331.8274353239441
 31
0.0
  0
LINE
  5
356
330
18
100
AcDbEntity
  8
1
  6
Continuous
100
AcDbLine
 10
46.47676279808161
 20
348.5402803239441
 30
0.0
 11
43.97676279808161
 21
348.5402803239441
 31
0.0
  0
LINE
  5
357
330
18
100
AcDbEntity
  8
1
  6
Continuous
100
AcDbLine
 10
43.97676279808161
 20
344.2243273239441
 30
0.0
 11
46.47676279808161
 21
344.2243273239441
 31
0.0
  0
ARC
  5
358
330
18
100
AcDbEntity
  8
1
  6
Continuous
100
AcDbCircle
 10
43.47676279808149
 20
352.0402613239441
 30
0.0
 40
1.5
100
AcDbArc
 50
179.999978
 51
270.0000280000002
  0
ARC
  5
359
330
18
100
AcDbEntity
  8
1
  6
Continuous
100
AcDbCircle
 10
39.9767627980816
 20
349.0402723239441
 30
0.0
 40
1.5
100
AcDbArc
 50
179.999978
 51
270.0000280000002
  0
LINE
  5
35A
330
18
100
AcDbEntity
  8
1
  6
Continuous
100
AcDbLine
 10
38.4767627980815
 20
354.0402723239441
 30
0.0
 11
38.4767627980815
 21
349.0402723239441
 31
0.0
  0
ARC
  5
35B
330
18
100
AcDbEntity
  8
1
  6
Continuous
100
AcDbCircle
 10
43.97676279808161
 20
356.3611643239442
 30
0.0
 40
2.0
100
AcDbArc
 50
179.999978
 51
270.0
  0
LINE
  5
35E
330
18
100
AcDbEntity
  8
1
  6
Continuous
100
AcDbLine
 10
43.97676279808161
 20
356.8611263239441
 30
0.0
 11
45.4767627980815
 21
356.8611263239441
 31
0.0
  0
LINE
  5
35F
330
18
100
AcDbEntity
  8
1
  6
Continuous
100
AcDbLine
 10
43.47676279808149
 20
352.0402613239441
 30
0.0
 11
43.97676279808161
 21
352.0402613239441
 31
0.0
  0
LINE
  5
360
330
18
100
AcDbEntity
  8
1
  6
Continuous
100
AcDbLine
 10
41.97676279808161
 20
356.3611643239442
 30
0.0
 11
41.97676279808161
 21
352.0402573239441
 31
0.0
  0
LINE
  5
361
330
18
100
AcDbEntity
  8
1
  6
Continuous
100
AcDbLine
 10
39.9767627980816
 20
356.0402723239441
 30
0.0
 11
40.4767627980815
 21
356.0402723239441
 31
0.0
  0
LINE
  5
362
330
18
100
AcDbEntity
  8
1
  6
Continuous
100
AcDbLine
 10
39.9767627980816
 20
354.0402723239441
 30
0.0
 11
40.4767627980815
 21
354.0402723239441
 31
0.0
  0
LINE
  5
363
330
18
100
AcDbEntity
  8
1
  6
Continuous
100
AcDbLine
 10
39.9767627980816
 20
349.0402723239441
 30
0.0
 11
40.4767627980815
 21
349.0402723239441
 31
0.0
  0
LINE
  5
364
330
18
100
AcDbEntity
  8
1
  6
Continuous
100
AcDbLine
 10
46.47676279808161
 20
354.3611643239441
 30
0.0
 11
46.47676279808161
 21
348.5402803239441
 31
0.0
  0
ARC
  5
365
330
18
100
AcDbEntity
  8
1
  6
Continuous
100
AcDbCircle
 10
33.84977879808149
 20
385.0386703239442
 30
0.0
 40
5.0
100
AcDbArc
 50
209.9787060000004
 51
271.4539880000003
  0
LINE
  5
366
330
18
100
AcDbEntity
  8
1
  6
Continuous
100
AcDbLine
 10
20.47676279808161
 20
382.5402643239441
 30
0.0
 11
20.47676279808161
 21
386.5402643239441
 31
0.0
  0
LINE
  5
367
330
18
100
AcDbEntity
  8
4
  6
CENTER
 48
0.5
100
AcDbLine
 10
31.47676279808138
 20
391.5402643239441
 30
0.0
 11
31.47676279808171
 21
377.5402643239443
 31
0.0
  0
LINE
  5
368
330
18
100
AcDbEntity
  8
1
  6
Continuous
100
AcDbLine
 10
35.47674779808153
 20
372.5402903239441
 30
0.0
 11
37.47675079808153
 21
374.5402923239442
 31
0.0
  0
ARC
  5
369
330
18
100
AcDbEntity
  8
1
  6
Continuous
100
AcDbCircle
 10
46.47676279808161
 20
364.5402573239441
 30
0.0
 40
2.5
100
AcDbArc
 50
89.99998199999998
 51
179.9999639999999
  0
LINE
  5
36A
330
18
100
AcDbEntity
  8
1
  6
Continuous
100
AcDbLine
 10
43.97822779808143
 20
364.6257373239443
 30
0.0
 11
46.47676279808161
 21
364.6257373239443
 31
0.0
  0
ARC
  5
36B
330
18
100
AcDbEntity
  8
1
  6
Continuous
100
AcDbCircle
 10
39.9767627980816
 20
361.0402723239443
 30
0.0
 40
1.5
100
AcDbArc
 50
89.99998199999998
 51
179.9999639999999
  0
ARC
  5
36C
330
18
100
AcDbEntity
  8
1
  6
Continuous
100
AcDbCircle
 10
43.97676279808161
 20
362.6257373239443
 30
0.0
 40
2.0
100
AcDbArc
 50
89.99998199999998
 51
179.9999639999999
  0
LINE
  5
36D
330
18
100
AcDbEntity
  8
1
  6
Continuous
100
AcDbLine
 10
43.47676279808149
 20
365.1902793239441
 30
0.0
 11
43.47676279808149
 21
364.5622283239441
 31
0.0
  0
LINE
  5
36E
330
18
100
AcDbEntity
  8
1
  6
Continuous
100
AcDbLine
 10
40.4767627980815
 20
365.1902813239441
 30
0.0
 11
43.47676279808149
 21
365.1902813239441
 31
0.0
  0
LINE
  5
36F
330
18
100
AcDbEntity
  8
1
  6
Continuous
100
AcDbLine
 10
39.9767627980816
 20
361.0402723239443
 30
0.0
 11
40.4767627980815
 21
361.0402723239443
 31
0.0
  0
LINE
  5
370
330
18
100
AcDbEntity
  8
1
  6
Continuous
100
AcDbLine
 10
39.9767627980816
 20
362.5402723239441
 30
0.0
 11
39.9767635311199
 21
347.5402723239444
 31
0.0
  0
ARC
  5
371
330
18
100
AcDbEntity
  8
1
  6
Continuous
100
AcDbCircle
 10
35.4767627980815
 20
372.5402723239441
 30
0.0
 40
1.0
100
AcDbArc
 50
179.9999909999995
 51
270.0000280000002
  0
ARC
  5
372
330
18
100
AcDbEntity
  8
1
  6
Continuous
100
AcDbCircle
 10
41.32676879808139
 20
368.1902513239441
 30
0.0
 40
6.0
100
AcDbArc
 50
146.0593609999996
 51
179.9999499999998
  0
LINE
  5
373
330
18
100
AcDbEntity
  8
1
  6
Continuous
100
AcDbLine
 10
46.47676279808161
 20
367.0402573239441
 30
0.0
 11
46.47676279808161
 21
364.6257353239442
 31
0.0
  0
LINE
  5
374
330
18
100
AcDbEntity
  8
4
  6
CENTER
 48
0.5
100
AcDbLine
 10
33.97676279808138
 20
391.5402643239441
 30
0.0
 11
33.97676279808161
 21
377.5402643239443
 31
0.0
  0
LINE
  5
375
330
18
100
AcDbEntity
  8
1
  6
Continuous
100
AcDbLine
 10
33.97674679808142
 20
376.0402763239441
 30
0.0
 11
35.97674579808153
 21
374.5402763239441
 31
0.0
  0
LINE
  5
376
330
18
100
AcDbEntity
  8
1
  6
Continuous
100
AcDbLine
 10
36.5638467980815
 20
380.0402973239441
 30
0.0
 11
33.97672679808148
 21
376.0403013239441
 31
0.0
  0
LINE
  5
377
330
18
100
AcDbEntity
  8
1
  6
Continuous
100
AcDbLine
 10
102.9767627980815
 20
363.5402803239379
 30
0.0
 11
102.9767627980815
 21
353.5402803239378
 31
0.0
  0
ARC
  5
378
330
18
100
AcDbEntity
  8
1
  6
Continuous
100
AcDbCircle
 10
97.72676279808159
 20
358.5402803239376
 30
0.0
 40
7.25
100
AcDbArc
 50
316.3971819999995
 51
43.60281800000044
  0
ARC
  5
379
330
18
100
AcDbEntity
  8
1
  6
Continuous
100
AcDbCircle
 10
97.72676279808159
 20
351.5402723239379
 30
0.0
 40
7.25
100
AcDbArc
 50
316.3971810272962
 51
28.86576351131868
  0
LINE
  5
37A
330
18
100
AcDbEntity
  8
1
  6
Continuous
100
AcDbLine
 10
107.6267567980813
 20
368.1902513239441
 30
0.0
 11
107.6267567980813
 21
325.9657323239442
 31
0.0
  0
ARC
  5
37B
330
18
100
AcDbEntity
  8
1
  6
Continuous
100
AcDbCircle
 10
93.97676279808159
 20
355.8979383239441
 30
0.0
 40
2.0
100
AcDbArc
 50
0.0
 51
89.99998199999998
  0
LINE
  5
37C
330
18
100
AcDbEntity
  8
1
  6
Continuous
100
AcDbLine
 10
99.4767627980816
 20
365.1902793239441
 30
0.0
 11
99.4767627980816
 21
356.5402723239443
 31
0.0
  0
LINE
  5
37D
330
18
100
AcDbEntity
  8
1
  6
Continuous
100
AcDbLine
 10
96.47676279808159
 20
367.0402573239441
 30
0.0
 11
96.47676279808159
 21
348.5402803239441
 31
0.0
  0
ARC
  5
37E
330
18
100
AcDbEntity
  8
1
  6
Continuous
100
AcDbCircle
 10
66.97676279808161
 20
358.8611263239442
 30
0.0
 40
2.0
100
AcDbArc
 50
270.0000179999999
 51
0.0
  0
LINE
  5
37F
330
18
100
AcDbEntity
  8
1
  6
Continuous
100
AcDbLine
 10
68.97676279808161
 20
362.6257353239441
 30
0.0
 11
68.97676279808161
 21
356.3611643239442
 31
0.0
  0
LINE
  5
380
330
18
100
AcDbEntity
  8
1
  6
Continuous
100
AcDbLine
 10
95.9767627980816
 20
362.8880523239441
 30
0.0
 11
95.9767627980816
 21
336.0822453239442
 31
0.0
  0
LINE
  5
381
330
18
100
AcDbEntity
  8
1
  6
Continuous
100
AcDbLine
 10
98.97676279808138
 20
364.5402573239441
 30
0.0
 11
98.97676279808138
 21
334.0822453239442
 31
0.0
  0
LINE
  5
382
330
18
100
AcDbEntity
  8
1
  6
Continuous
100
AcDbLine
 10
65.47676279808138
 20
360.7248123239441
 30
0.0
 11
65.47676279808138
 21
354.3611643239441
 31
0.0
  0
ARC
  5
383
330
18
100
AcDbEntity
  8
1
  6
Continuous
100
AcDbCircle
 10
69.47676279808138
 20
334.2473153239442
 30
0.0
 40
2.0
100
AcDbArc
 50
0.0
 51
89.99998199999998
  0
ARC
  5
384
330
18
100
AcDbEntity
  8
1
  6
Continuous
100
AcDbCircle
 10
66.97676279808161
 20
356.3611643239442
 30
0.0
 40
2.0
100
AcDbArc
 50
270.0000179999999
 51
0.0
  0
LINE
  5
385
330
18
100
AcDbEntity
  8
1
  6
Continuous
100
AcDbLine
 10
65.47676279808138
 20
356.8611263239441
 30
0.0
 11
66.97676279808161
 21
356.8611263239441
 31
0.0
  0
LINE
  5
386
330
18
100
AcDbEntity
  8
1
  6
Continuous
100
AcDbLine
 10
99.4767627980816
 20
342.2727283239442
 30
0.0
 11
99.4767627980816
 21
334.0822453239442
 31
0.0
  0
LINE
  5
387
330
18
100
AcDbEntity
  8
1
  6
Continuous
100
AcDbLine
 10
96.47676279808159
 20
344.2243273239441
 30
0.0
 11
96.47676279808159
 21
334.0822453239442
 31
0.0
  0
ARC
  5
388
330
18
100
AcDbEntity
  8
1
  6
Continuous
100
AcDbCircle
 10
94.22676279808159
 20
337.2727283239441
 30
0.0
 40
7.25
100
AcDbArc
 50
331.0040879999995
 51
43.60281800000044
  0
LINE
  5
389
330
18
100
AcDbEntity
  8
1
  6
Continuous
100
AcDbLine
 10
93.78477679808144
 20
334.0822453239442
 30
0.0
 11
99.4767627980816
 21
334.0822453239442
 31
0.0
  0
ARC
  5
38A
330
18
100
AcDbEntity
  8
1
  6
Continuous
100
AcDbCircle
 10
93.97676279808159
 20
336.0822453239442
 30
0.0
 40
2.0
100
AcDbArc
 50
275.4061670000004
 51
0.0
  0
ARC
  5
38B
330
18
100
AcDbEntity
  8
1
  6
Continuous
100
AcDbCircle
 10
94.47676279808138
 20
337.1982813239442
 30
0.0
 40
1.5
100
AcDbArc
 50
270.0000179999999
 51
0.0
  0
LINE
  5
38C
330
18
100
AcDbEntity
  8
1
  6
Continuous
100
AcDbLine
 10
93.78477679808144
 20
335.6982813239442
 30
0.0
 11
94.47676279808138
 21
335.6982813239442
 31
0.0
  0
ARC
  5
38D
330
18
100
AcDbEntity
  8
1
  6
Continuous
100
AcDbCircle
 10
93.78477679808144
 20
334.8902633239442
 30
0.0
 40
0.808018
100
AcDbArc
 50
89.99998199999998
 51
270.0000009999997
  0
LINE
  5
38E
330
18
100
AcDbEntity
  8
1
  6
Continuous
100
AcDbLine
 10
96.47676279808159
 20
339.7727283239441
 30
0.0
 11
95.9767627980816
 21
339.7727283239441
 31
0.0
  0
ARC
  5
38F
330
18
100
AcDbEntity
  8
1
  6
Continuous
100
AcDbCircle
 10
99.4767627980816
 20
332.0822453239442
 30
0.0
 40
2.0
100
AcDbArc
 50
0.0
 51
89.99998199999998
  0
LINE
  5
390
330
18
100
AcDbEntity
  8
1
  6
Continuous
100
AcDbLine
 10
99.4767627980816
 20
359.5402603239376
 30
0.0
 11
99.4767627980816
 21
349.5402603239376
 31
0.0
  0
ARC
  5
391
330
18
100
AcDbEntity
  8
1
  6
Continuous
100
AcDbCircle
 10
94.22676279808159
 20
354.5402643239376
 30
0.0
 40
7.25
100
AcDbArc
 50
316.3971819999995
 51
43.60281800000044
  0
LINE
  5
392
330
18
100
AcDbEntity
  8
1
  6
Continuous
100
AcDbLine
 10
98.97676279808138
 20
349.5402643239376
 30
0.0
 11
99.4767627980816
 21
349.5402643239376
 31
0.0
  0
LINE
  5
393
330
18
100
AcDbEntity
  8
1
  6
Continuous
100
AcDbLine
 10
96.47676279808159
 20
348.5402803239441
 30
0.0
 11
98.97676279808138
 21
348.5402803239441
 31
0.0
  0
LINE
  5
394
330
18
100
AcDbEntity
  8
1
  6
Continuous
100
AcDbLine
 10
98.97676279808138
 20
344.2243273239441
 30
0.0
 11
96.47676279808159
 21
344.2243273239441
 31
0.0
  0
LINE
  5
395
330
18
100
AcDbEntity
  8
1
  6
Continuous
100
AcDbLine
 10
98.97676279808138
 20
342.2727283239442
 30
0.0
 11
99.4767627980816
 21
342.2727283239442
 31
0.0
  0
LINE
  5
397
330
18
100
AcDbEntity
  8
1
  6
Continuous
100
AcDbLine
 10
96.47676279808159
 20
354.0402723239441
 30
0.0
 11
95.9767627980816
 21
354.0402723239441
 31
0.0
  0
LINE
  5
398
330
18
100
AcDbEntity
  8
1
  6
Continuous
100
AcDbLine
 10
96.47676279808159
 20
357.0402573239441
 30
0.0
 11
95.9767627980816
 21
357.0402573239441
 31
0.0
  0
LINE
  5
399
330
18
100
AcDbEntity
  8
1
  6
Continuous
100
AcDbLine
 10
98.97676279808138
 20
359.5402643239376
 30
0.0
 11
99.4767627980816
 21
359.5402643239376
 31
0.0
  0
LINE
  5
39A
330
18
100
AcDbEntity
  8
1
  6
Continuous
100
AcDbLine
 10
96.47676279808159
 20
349.0402723239441
 30
0.0
 11
95.9767627980816
 21
349.0402723239441
 31
0.0
  0
LINE
  5
39B
330
18
100
AcDbEntity
  8
1
  6
Continuous
100
AcDbLine
 10
102.4767627980812
 20
353.5402803239378
 30
0.0
 11
102.9767627980815
 21
353.5402803239378
 31
0.0
  0
LINE
  5
39C
330
18
100
AcDbEntity
  8
1
  6
Continuous
100
AcDbLine
 10
93.97676379808157
 20
357.8979383239441
 30
0.0
 11
68.97676279808161
 21
357.8979383239441
 31
0.0
  0
LINE
  5
39D
330
18
100
AcDbEntity
  8
1
  6
Continuous
100
AcDbLine
 10
70.97676279808161
 20
362.2109263239441
 30
0.0
 11
94.47676279808138
 21
362.2109263239441
 31
0.0
  0
LINE
  5
39E
330
18
100
AcDbEntity
  8
1
  6
Continuous
100
AcDbLine
 10
70.97676279808161
 20
364.6257373239443
 30
0.0
 11
94.47676279808138
 21
364.6257373239443
 31
0.0
  0
LINE
  5
39F
330
18
100
AcDbEntity
  8
1
  6
Continuous
100
AcDbLine
 10
93.47676279808139
 20
361.0402723239443
 30
0.0
 11
68.97676279808161
 21
361.0402723239443
 31
0.0
  0
ARC
  5
3A0
330
18
100
AcDbEntity
  8
1
  6
Continuous
100
AcDbCircle
 10
70.97676279808161
 20
362.6257373239443
 30
0.0
 40
2.0
100
AcDbArc
 50
89.99998199999998
 51
179.9999639999999
  0
ARC
  5
3A1
330
18
100
AcDbEntity
  8
1
  6
Continuous
100
AcDbCircle
 10
70.97676279808161
 20
360.2109263239441
 30
0.0
 40
2.0
100
AcDbArc
 50
89.99998199999998
 51
179.9999639999999
  0
LINE
  5
3A2
330
18
100
AcDbEntity
  8
1
  6
Continuous
100
AcDbLine
 10
107.4767687980815
 20
372.5402813239443
 30
0.0
 11
105.4767837980815
 21
374.5402673239441
 31
0.0
  0
ARC
  5
3A3
330
18
100
AcDbEntity
  8
1
  6
Continuous
100
AcDbCircle
 10
94.47676279808138
 20
366.6257373239442
 30
0.0
 40
2.0
100
AcDbArc
 50
270.0000179999999
 51
0.0
  0
ARC
  5
3A4
330
18
100
AcDbEntity
  8
1
  6
Continuous
100
AcDbCircle
 10
94.47676279808138
 20
364.2109263239441
 30
0.0
 40
2.0
100
AcDbArc
 50
270.0000179999999
 51
0.0
  0
LINE
  5
3A5
330
18
100
AcDbEntity
  8
1
  6
Continuous
100
AcDbLine
 10
93.47676279808139
 20
362.2109283239442
 30
0.0
 11
93.47676279808139
 21
357.8979363239441
 31
0.0
  0
ARC
  5
3A6
330
18
100
AcDbEntity
  8
1
  6
Continuous
100
AcDbCircle
 10
96.47676279808159
 20
364.5402573239441
 30
0.0
 40
2.5
100
AcDbArc
 50
0.0
 51
89.99998199999998
  0
LINE
  5
3A7
330
18
100
AcDbEntity
  8
1
  6
Continuous
100
AcDbLine
 10
102.4767627980812
 20
365.1902813239441
 30
0.0
 11
99.4767627980816
 21
365.1902813239441
 31
0.0
  0
LINE
  5
3A8
330
18
100
AcDbEntity
  8
1
  6
Continuous
100
AcDbLine
 10
96.47676279808159
 20
361.0402723239443
 30
0.0
 11
95.9767627980816
 21
361.0402723239443
 31
0.0
  0
LINE
  5
3AA
330
18
100
AcDbEntity
  8
1
  6
Continuous
100
AcDbLine
 10
102.4767627980812
 20
363.5402803239379
 30
0.0
 11
102.9767627980815
 21
363.5402803239379
 31
0.0
  0
LINE
  5
3AB
330
18
100
AcDbEntity
  8
1
  6
Continuous
100
AcDbLine
 10
102.9767627980815
 20
356.5402723239378
 30
0.0
 11
102.9767627980815
 21
346.5402723239379
 31
0.0
  0
ARC
  5
3AC
330
18
100
AcDbEntity
  8
1
  6
Continuous
100
AcDbCircle
 10
101.6267567980814
 20
368.1902513239441
 30
0.0
 40
6.0
100
AcDbArc
 50
0.0000140000001062
 51
33.94060299999952
  0
LINE
  5
3AD
330
18
100
AcDbEntity
  8
4
  6
CENTER
 48
0.5
100
AcDbLine
 10
111.4767627980817
 20
391.5402643239441
 30
0.0
 11
111.4767627980812
 21
377.5402643239443
 31
0.0
  0
LINE
  5
3AE
330
18
100
AcDbEntity
  8
4
  6
CENTER
 48
0.5
100
AcDbLine
 10
108.9767627980817
 20
391.5402643239441
 30
0.0
 11
108.9767627980815
 21
377.5402643239443
 31
0.0
  0
ARC
  5
3AF
330
18
100
AcDbEntity
  8
1
  6
Continuous
100
AcDbCircle
 10
109.1037467980815
 20
385.0386393239441
 30
0.0
 40
5.0
100
AcDbArc
 50
268.546021
 51
330.0213029999998
  0
LINE
  5
3B0
330
18
100
AcDbEntity
  8
1
  6
Continuous
100
AcDbLine
 10
122.4767627980813
 20
382.5402643239441
 30
0.0
 11
122.4767627980813
 21
386.5402643239441
 31
0.0
  0
LINE
  5
3B1
330
18
100
AcDbEntity
  8
5
  6
PHANTOM
 48
0.3
100
AcDbLine
 10
255.0470168729674
 20
323.1844173239442
 30
0.0
 11
256.3225118729675
 21
321.6440103239442
 31
0.0
  0
LINE
  5
3B2
330
18
100
AcDbEntity
  8
5
  6
PHANTOM
 48
0.3
100
AcDbLine
 10
259.4034288729675
 20
324.1950543239441
 30
0.0
 11
256.3225228729675
 21
321.6439903239442
 31
0.0
  0
LINE
  5
3B3
330
18
100
AcDbEntity
  8
5
  6
PHANTOM
 48
0.3
100
AcDbLine
 10
267.3706318729674
 20
333.3886723239442
 30
0.0
 11
248.8851648729676
 21
318.0822603239441
 31
0.0
  0
LINE
  5
3B4
330
18
100
AcDbEntity
  8
1
  6
Continuous
100
AcDbLine
 10
239.0349278729676
 20
332.3557293239442
 30
0.0
 11
245.6669428729675
 21
322.3548183239443
 31
0.0
  0
LINE
  5
3B5
330
18
100
AcDbEntity
  8
1
  6
Continuous
100
AcDbLine
 10
225.4742098729674
 20
312.3467043239443
 30
0.0
 11
237.9742128729674
 21
333.9973373239441
 31
0.0
  0
LINE
  5
3B6
330
18
100
AcDbEntity
  8
5
  6
PHANTOM
 48
0.3
100
AcDbLine
 10
221.1898998729674
 20
314.5237953239442
 30
0.0
 11
239.3662638729677
 21
331.6882893239442
 31
0.0
  0
LINE
  5
3B7
330
18
100
AcDbEntity
  8
1
  6
Continuous
100
AcDbLine
 10
223.3091348729673
 20
313.5967023239443
 30
0.0
 11
246.9948148729676
 21
354.6214913239443
 31
0.0
  0
LINE
  5
3B8
330
18
100
AcDbEntity
  8
5
  6
PHANTOM
 48
0.3
100
AcDbLine
 10
219.3926138729676
 20
316.4270273239442
 30
0.0
 11
242.6809758729675
 21
346.7770043239441
 31
0.0
  0
LINE
  5
3B9
330
18
100
AcDbEntity
  8
5
  6
PHANTOM
 48
0.3
100
AcDbLine
 10
241.2319768729675
 20
327.3250203239443
 30
0.0
 11
248.8851888729675
 21
318.0822803239442
 31
0.0
  0
LINE
  5
3BA
330
18
100
AcDbEntity
  8
5
  6
PHANTOM
 48
0.3
100
AcDbLine
 10
219.4734698729676
 20
316.3414333239442
 30
0.0
 11
249.1340128729676
 21
344.3507893239443
 31
0.0
  0
LINE
  5
3BB
330
18
100
AcDbEntity
  8
1
  6
Continuous
100
AcDbLine
 10
265.6685768729676
 20
335.6187293239441
 30
0.0
 11
245.6668828729676
 21
322.3547843239442
 31
0.0
  0
LINE
  5
3BC
330
18
100
AcDbEntity
  8
5
  6
PHANTOM
 48
0.3
100
AcDbLine
 10
214.2439478729675
 20
316.2879063239443
 30
0.0
 11
217.4173608729673
 21
313.8528593239441
 31
0.0
  0
LINE
  5
3BD
330
18
100
AcDbEntity
  8
5
  6
PHANTOM
 48
0.3
100
AcDbLine
 10
214.2439668729676
 20
316.2878623239441
 30
0.0
 11
215.0695138729675
 21
317.3637363239441
 31
0.0
  0
LINE
  5
3BE
330
18
100
AcDbEntity
  8
1
  6
Continuous
100
AcDbLine
 10
218.5950278729674
 20
313.4316423239442
 30
0.0
 11
219.8450208729674
 21
315.5966923239442
 31
0.0
  0
ARC
  5
3BF
330
18
100
AcDbEntity
  8
5
  6
PHANTOM
 48
0.3
100
AcDbCircle
 10
218.9392598729675
 20
315.8362323239442
 30
0.0
 40
2.5
100
AcDbArc
 50
232.500025
 51
322.5000209999996
  0
ARC
  5
3C0
330
18
100
AcDbEntity
  8
5
  6
PHANTOM
 48
0.3
100
AcDbCircle
 10
219.4734388729676
 20
316.3414813239441
 30
0.0
 40
2.5
100
AcDbArc
 50
223.3600029999994
 51
313.3600399999999
  0
LINE
  5
3C1
330
18
100
AcDbEntity
  8
1
  6
Continuous
100
AcDbLine
 10
219.8449738729674
 20
315.5967023239443
 30
0.0
 11
225.4741368729674
 21
312.3467023239443
 31
0.0
  0
LINE
  5
3C2
330
18
100
AcDbEntity
  8
1
  6
Continuous
100
AcDbLine
 10
218.5949778729673
 20
313.4316363239442
 30
0.0
 11
222.0590818729677
 21
311.4316343239441
 31
0.0
  0
ARC
  5
3C3
330
18
100
AcDbEntity
  8
1
  6
Continuous
100
AcDbCircle
 10
223.3091018729675
 20
313.5967303239441
 30
0.0
 40
2.5
100
AcDbArc
 50
239.9999829999996
 51
330.0000199999999
  0
LINE
  5
3C4
330
18
100
AcDbEntity
  8
5
  6
PHANTOM
 48
0.3
100
AcDbLine
 10
216.7269908729676
 20
319.2496323239442
 30
0.0
 11
221.1897598729674
 21
314.5237773239442
 31
0.0
  0
LINE
  5
3C5
330
18
100
AcDbEntity
  8
5
  6
PHANTOM
 48
0.3
100
AcDbLine
 10
214.9094768729674
 20
317.5331973239441
 30
0.0
 11
216.7271138729673
 21
319.2496463239442
 31
0.0
  0
LINE
  5
3C6
330
18
100
AcDbEntity
  8
5
  6
PHANTOM
 48
0.3
100
AcDbLine
 10
214.9094268729676
 20
317.5331623239442
 30
0.0
 11
217.6557458729676
 21
314.6249433239442
 31
0.0
  0
LINE
  5
3C7
330
18
100
AcDbEntity
  8
5
  6
PHANTOM
 48
0.3
100
AcDbLine
 10
230.3840798729676
 20
326.6446553239442
 30
0.0
 11
244.0577518729675
 21
344.4645283239442
 31
0.0
  0
LINE
  5
3C8
330
18
100
AcDbEntity
  8
1
  6
Continuous
100
AcDbLine
 10
204.8597508729674
 20
353.4462843239443
 30
0.0
 11
241.5683088729674
 21
363.2823093239441
 31
0.0
  0
LINE
  5
3C9
330
18
100
AcDbEntity
  8
1
  6
Continuous
100
AcDbLine
 10
204.2126988729676
 20
355.8611163239441
 30
0.0
 11
241.8837888729675
 21
365.9550503239441
 31
0.0
  0
ARC
  5
3CA
330
18
100
AcDbEntity
  8
1
  6
Continuous
100
AcDbCircle
 10
244.8687148729674
 20
336.2243543239442
 30
0.0
 40
7.0
100
AcDbArc
 50
36.00760299999972
 51
213.5500029999999
  0
LINE
  5
3CB
330
18
100
AcDbEntity
  8
4
  6
CENTER
 48
0.5
100
AcDbLine
 10
239.0130128729675
 20
336.2727243239441
 30
0.0
 11
251.0130128729676
 21
336.2727243239441
 31
0.0
  0
ARC
  5
3CC
330
18
100
AcDbEntity
  8
5
  6
PHANTOM
 48
0.3
100
AcDbCircle
 10
246.6235518729676
 20
331.7893983239442
 30
0.0
 40
7.0
100
AcDbArc
 50
42.08318300000053
 51
219.6255799999994
  0
LINE
  5
3CD
330
18
100
AcDbEntity
  8
1
  6
Continuous
100
AcDbLine
 10
203.1774408729675
 20
359.7248983239441
 30
0.0
 11
204.8597638729676
 21
353.4463803239441
 31
0.0
  0
LINE
  5
3CE
330
18
100
AcDbEntity
  8
1
  6
Continuous
100
AcDbLine
 10
200.7626288729676
 20
359.0778713239441
 30
0.0
 11
201.7979028729675
 21
355.2141753239441
 31
0.0
  0
ARC
  5
3CF
330
18
100
AcDbEntity
  8
1
  6
Continuous
100
AcDbCircle
 10
204.2126858729675
 20
355.8611953239443
 30
0.0
 40
2.5
100
AcDbArc
 50
195.000019
 51
285.0000289999995
  0
LINE
  5
3D0
330
18
100
AcDbEntity
  8
5
  6
PHANTOM
 48
0.3
100
AcDbLine
 10
235.8321138729676
 20
331.7894763239442
 30
0.0
 11
237.5485638729676
 21
329.9718403239442
 31
0.0
  0
LINE
  5
3D1
330
18
100
AcDbEntity
  8
5
  6
PHANTOM
 48
0.3
100
AcDbLine
 10
237.2021088729674
 20
339.6368023239442
 30
0.0
 11
239.1854798729675
 21
338.1149083239441
 31
0.0
  0
LINE
  5
3D2
330
18
100
AcDbEntity
  8
1
  6
Continuous
100
AcDbLine
 10
237.1081438729676
 20
334.4973273239442
 30
0.0
 11
238.2981358729674
 21
333.8102853239443
 31
0.0
  0
ARC
  5
3D3
330
18
100
AcDbEntity
  8
5
  6
PHANTOM
 48
0.3
100
AcDbCircle
 10
237.5890708729675
 20
331.3854683239442
 30
0.0
 40
1.5
100
AcDbArc
 50
43.35982399999975
 51
133.3598259999994
  0
LINE
  5
3D4
330
18
100
AcDbEntity
  8
5
  6
PHANTOM
 48
0.3
100
AcDbLine
 10
238.6796318729676
 20
332.4153213239442
 30
0.0
 11
239.3662008729674
 21
331.6882773239441
 31
0.0
  0
ARC
  5
3D5
330
18
100
AcDbEntity
  8
1
  6
Continuous
100
AcDbCircle
 10
236.3581588729676
 20
333.1982963239441
 30
0.0
 40
1.5
100
AcDbArc
 50
60.00004899999968
 51
150.0000249999998
  0
LINE
  5
3D6
330
18
100
AcDbEntity
  8
1
  6
Continuous
100
AcDbLine
 10
234.5591048729676
 20
333.0822473239442
 30
0.0
 11
236.7241688729674
 21
331.8322463239442
 31
0.0
  0
LINE
  5
3D7
330
18
100
AcDbEntity
  8
1
  6
Continuous
100
AcDbLine
 10
200.7626168729674
 20
359.0777393239442
 30
0.0
 11
203.1774318729675
 21
359.7247863239443
 31
0.0
  0
LINE
  5
3D8
330
18
100
AcDbEntity
  8
1
  6
Continuous
100
AcDbLine
 10
233.1904978729674
 20
363.6257733239441
 30
0.0
 11
233.8375458729674
 21
361.2109583239441
 31
0.0
  0
CIRCLE
  5
3D9
330
18
100
AcDbEntity
  8
1
  6
Continuous
100
AcDbCircle
 10
270.5308158729676
 20
357.5402803239441
 30
0.0
 40
5.0
  0
LINE
  5
3DA
330
18
100
AcDbEntity
  8
4
  6
CENTER
 48
0.5
100
AcDbLine
 10
270.5308238729676
 20
351.5402803239441
 30
0.0
 11
270.5308238729676
 21
363.5402823239443
 31
0.0
  0
LINE
  5
3DB
330
18
100
AcDbEntity
  8
4
  6
CENTER
 48
0.5
100
AcDbLine
 10
255.0308318729676
 20
347.5402643239441
 30
0.0
 11
255.0308318729676
 21
359.5402663239442
 31
0.0
  0
CIRCLE
  5
3DC
330
18
100
AcDbEntity
  8
1
  6
Continuous
100
AcDbCircle
 10
255.0308238729676
 20
353.540264323944
 30
0.0
 40
5.0
  0
ARC
  5
3DD
330
18
100
AcDbEntity
  8
1
  6
Continuous
100
AcDbCircle
 10
270.5308158729676
 20
357.0402803239441
 30
0.0
 40
7.0
100
AcDbArc
 50
28.35935500000007
 51
179.9999639999999
  0
LINE
  5
3DE
330
18
100
AcDbEntity
  8
1
  6
Continuous
100
AcDbLine
 10
244.5955418729675
 20
363.5758973239441
 30
0.0
 11
247.3034738729676
 21
353.4697543239443
 31
0.0
  0
LINE
  5
3DF
330
18
100
AcDbEntity
  8
1
  6
Continuous
100
AcDbLine
 10
256.5601578729677
 20
347.6877983239443
 30
0.0
 11
265.6449658729674
 21
349.4571603239443
 31
0.0
  0
ARC
  5
3E0
330
18
100
AcDbEntity
  8
1
  6
Continuous
100
AcDbCircle
 10
268.5308158729676
 20
353.5402803239441
 30
0.0
 40
5.0
100
AcDbArc
 50
179.999978
 51
249.3624480000002
  0
LINE
  5
3E1
330
18
100
AcDbEntity
  8
1
  6
Continuous
100
AcDbLine
 10
253.9125128729676
 20
339.2590873239443
 30
0.0
 11
265.7257628729676
 21
343.2232103239443
 31
0.0
  0
ARC
  5
3E2
330
18
100
AcDbEntity
  8
5
  6
PHANTOM
 48
0.3
100
AcDbCircle
 10
259.4513788729676
 20
346.5177813239441
 30
0.0
 40
8.0
100
AcDbArc
 50
232.4999710000003
 51
318.5210120000003
  0
LINE
  5
3E3
330
18
100
AcDbEntity
  8
5
  6
PHANTOM
 48
0.3
100
AcDbLine
 10
255.2953478729675
 20
335.7643223239442
 30
0.0
 11
266.6226778729675
 21
340.9564963239442
 31
0.0
  0
CIRCLE
  5
3E4
330
18
100
AcDbEntity
  8
5
  6
PHANTOM
 48
0.3
100
AcDbCircle
 10
260.6688698729676
 20
344.9310803239441
 30
0.0
 40
5.0
  0
LINE
  5
3E5
330
18
100
AcDbEntity
  8
1
  6
Continuous
100
AcDbLine
 10
260.1199018729676
 20
334.9389493239442
 30
0.0
 11
284.3118058729676
 21
342.2539053239442
 31
0.0
  0
LINE
  5
3E6
330
18
100
AcDbEntity
  8
5
  6
PHANTOM
 48
0.3
100
AcDbLine
 10
261.9250768729676
 20
332.1254573239442
 30
0.0
 11
285.1530588729676
 21
341.9370703239442
 31
0.0
  0
ARC
  5
3E7
330
18
100
AcDbEntity
  8
1
  6
Continuous
100
AcDbCircle
 10
252.9581158729675
 20
342.1032683239441
 30
0.0
 40
3.0
100
AcDbArc
 50
216.0076319999999
 51
288.5500329999994
  0
LINE
  5
3E8
330
18
100
AcDbEntity
  8
1
  6
Continuous
100
AcDbLine
 10
252.4903198729675
 20
339.1399603239442
 30
0.0
 11
257.5812478729675
 21
347.9577033239443
 31
0.0
  0
LINE
  5
3E9
330
18
100
AcDbEntity
  8
4
  6
CENTER
 48
0.5
100
AcDbLine
 10
245.0130248729674
 20
330.2727473239442
 30
0.0
 11
245.0130248729674
 21
342.2727473239441
 31
0.0
  0
LINE
  5
3EA
330
18
100
AcDbEntity
  8
5
  6
PHANTOM
 48
0.3
100
AcDbLine
 10
246.8809568729674
 20
338.7846433239441
 30
0.0
 11
251.1428828729676
 21
342.8093103239441
 31
0.0
  0
CIRCLE
  5
3EB
330
18
100
AcDbEntity
  8
1
  6
Continuous
100
AcDbCircle
 10
245.0130088729674
 20
336.2727403239442
 30
0.0
 40
5.0
  0
ARC
  5
3EC
330
18
100
AcDbEntity
  8
5
  6
PHANTOM
 48
0.3
100
AcDbCircle
 10
254.0452738729674
 20
338.4914743239442
 30
0.0
 40
3.0
100
AcDbArc
 50
222.0832079999996
 51
294.6256089999997
  0
CIRCLE
  5
3ED
330
18
100
AcDbEntity
  8
5
  6
PHANTOM
 48
0.3
100
AcDbCircle
 10
246.7618798729676
 20
331.8528143239441
 30
0.0
 40
5.0
  0
LINE
  5
3EE
330
18
100
AcDbEntity
  8
5
  6
PHANTOM
 48
0.3
100
AcDbLine
 10
261.9250918729675
 20
332.1254243239442
 30
0.0
 11
263.5195138729674
 21
330.1998493239441
 31
0.0
  0
LINE
  5
3EF
330
18
100
AcDbEntity
  8
5
  6
PHANTOM
 48
0.3
100
AcDbLine
 10
258.1279048729674
 20
325.7354973239442
 30
0.0
 11
259.4034218729676
 21
324.1950633239442
 31
0.0
  0
LINE
  5
3F0
330
18
100
AcDbEntity
  8
1
  6
Continuous
100
AcDbLine
 10
252.3341718729674
 20
326.7761373239442
 30
0.0
 11
253.4394818729674
 21
325.1093583239442
 31
0.0
  0
LINE
  5
3F1
330
18
100
AcDbEntity
  8
1
  6
Continuous
100
AcDbLine
 10
256.7730978729676
 20
327.3199933239443
 30
0.0
 11
253.4394918729676
 21
325.1093423239442
 31
0.0
  0
LINE
  5
3F2
330
18
100
AcDbEntity
  8
1
  6
Continuous
100
AcDbLine
 10
255.6677668729676
 20
328.9868043239442
 30
0.0
 11
256.7730898729676
 21
327.3200063239442
 31
0.0
  0
LINE
  5
3F3
330
18
100
AcDbEntity
  8
1
  6
Continuous
100
AcDbLine
 10
260.1198888729677
 20
334.9389973239441
 30
0.0
 11
261.5015548729675
 21
332.8554793239442
 31
0.0
  0
LINE
  5
3F4
330
18
100
AcDbEntity
  8
4
  6
CENTER
 48
0.5
100
AcDbLine
 10
249.0308238729676
 20
353.5402423239441
 30
0.0
 11
261.0308238729676
 21
353.5402423239441
 31
0.0
  0
LINE
  5
3F5
330
18
100
AcDbEntity
  8
5
  6
PHANTOM
 48
0.3
100
AcDbLine
 10
246.2806918729676
 20
346.5402183239441
 30
0.0
 11
254.5812658729676
 21
340.1709633239442
 31
0.0
  0
ARC
  5
3F6
330
18
100
AcDbEntity
  8
1
  6
Continuous
100
AcDbCircle
 10
255.0308158729675
 20
355.5402873239441
 30
0.0
 40
8.0
100
AcDbArc
 50
194.999965
 51
281.02102
  0
LINE
  5
3F7
330
18
100
AcDbEntity
  8
5
  6
PHANTOM
 48
0.3
100
AcDbLine
 10
243.1424838729673
 20
347.2384933239441
 30
0.0
 11
248.3087988729676
 21
351.2027453239443
 31
0.0
  0
ARC
  5
3F8
330
18
100
AcDbEntity
  8
5
  6
PHANTOM
 48
0.3
100
AcDbCircle
 10
244.4543998729677
 20
344.1601603239443
 30
0.0
 40
3.0
100
AcDbArc
 50
52.5000240000006
 51
142.5000809999996
  0
ARC
  5
3F9
330
18
100
AcDbEntity
  8
5
  6
PHANTOM
 48
0.3
100
AcDbCircle
 10
246.4377988729676
 20
342.6382493239441
 30
0.0
 40
3.0
100
AcDbArc
 50
52.5000240000006
 51
142.5000399999995
  0
ARC
  5
3FA
330
18
100
AcDbEntity
  8
5
  6
PHANTOM
 48
0.3
100
AcDbCircle
 10
244.6643608729678
 20
345.2550933239441
 30
0.0
 40
2.5
100
AcDbArc
 50
127.5000019999995
 51
142.500026
  0
LINE
  5
3FB
330
18
100
AcDbEntity
  8
1
  6
Continuous
100
AcDbLine
 10
263.5308238729676
 20
357.0402843239441
 30
0.0
 11
263.5308238729676
 21
353.5402843239443
 31
0.0
  0
LINE
  5
3FC
330
18
100
AcDbEntity
  8
5
  6
PHANTOM
 48
0.3
100
AcDbLine
 10
266.7345188729675
 20
334.1569673239442
 30
0.0
 11
267.3706708729674
 21
333.3886903239442
 31
0.0
  0
LINE
  5
3FD
330
18
100
AcDbEntity
  8
1
  6
Continuous
100
AcDbLine
 10
265.1173288729676
 20
336.4500793239441
 30
0.0
 11
265.6685848729674
 21
335.6187993239442
 31
0.0
  0
LINE
  5
3FE
330
18
100
AcDbEntity
  8
1
  6
Continuous
100
AcDbLine
 10
266.7685348729676
 20
348.8611103239441
 30
0.0
 11
285.2553588729673
 21
341.8985413239443
 31
0.0
  0
LINE
  5
3FF
330
18
100
AcDbEntity
  8
1
  6
Continuous
100
AcDbLine
 10
265.7257638729676
 20
343.2232183239442
 30
0.0
 11
271.1569898729675
 21
347.2083163239441
 31
0.0
  0
LINE
  5
400
330
18
100
AcDbEntity
  8
5
  6
PHANTOM
 48
0.3
100
AcDbLine
 10
265.4449078729676
 20
341.2190033239442
 30
0.0
 11
270.8440808729676
 21
347.3261653239441
 31
0.0
  0
LINE
  5
401
330
18
100
AcDbEntity
  8
5
  6
PHANTOM
 48
0.3
100
AcDbLine
 10
266.6227368729676
 20
340.9564553239442
 30
0.0
 11
272.8026478729674
 21
346.5885223239441
 31
0.0
  0
LINE
  5
402
330
18
100
AcDbEntity
  8
4
  6
CENTER
 48
0.5
100
AcDbLine
 10
287.5308238729676
 20
344.5402723239441
 30
0.0
 11
287.5308238729676
 21
356.5402743239441
 31
0.0
  0
LINE
  5
403
330
18
100
AcDbEntity
  8
1
  6
Continuous
100
AcDbLine
 10
242.5308278729676
 20
366.0402423239441
 30
0.0
 11
270.5308278729676
 21
366.0402423239441
 31
0.0
  0
ARC
  5
404
330
18
100
AcDbEntity
  8
1
  6
Continuous
100
AcDbCircle
 10
241.6977018729676
 20
362.7994273239441
 30
0.0
 40
3.0
100
AcDbArc
 50
15.0000239999995
 51
105.0000749999997
  0
ARC
  5
405
330
18
100
AcDbEntity
  8
1
  6
Continuous
100
AcDbCircle
 10
242.3447508729675
 20
360.3846103239441
 30
0.0
 40
3.0
100
AcDbArc
 50
15.0000239999995
 51
105.0000399999997
  0
ARC
  5
406
330
18
100
AcDbEntity
  8
1
  6
Continuous
100
AcDbCircle
 10
242.5308158729675
 20
363.5402953239442
 30
0.0
 40
2.5
100
AcDbArc
 50
89.99999600000005
 51
105.0000199999999
  0
ARC
  5
407
330
18
100
AcDbEntity
  8
1
  6
Continuous
100
AcDbCircle
 10
279.3306738729676
 20
361.7902873239441
 30
0.0
 40
3.0
100
AcDbArc
 50
208.3593780000006
 51
0.0
  0
LINE
  5
408
330
18
100
AcDbEntity
  8
1
  6
Continuous
100
AcDbLine
 10
270.5308318729676
 20
366.0402823239443
 30
0.0
 11
270.5308318729676
 21
364.1724073239442
 31
0.0
  0
LINE
  5
409
330
18
100
AcDbEntity
  8
4
  6
CENTER
 48
0.5
100
AcDbLine
 10
264.5308158729676
 20
357.5402643239441
 30
0.0
 11
276.5308158729676
 21
357.5402643239441
 31
0.0
  0
LINE
  5
40A
330
18
100
AcDbEntity
  8
1
  6
Continuous
100
AcDbLine
 10
288.7308398729676
 20
382.5402653239441
 30
0.0
 11
288.7308398729676
 21
386.5402643239441
 31
0.0
  0
LINE
  5
40B
330
18
100
AcDbEntity
  8
1
  6
Continuous
100
AcDbLine
 10
233.1904978729674
 20
506.3444952806922
 30
0.0
 11
233.1904978729674
 21
486.8444952806925
 31
0.0
  0
LINE
  5
40C
330
18
100
AcDbEntity
  8
1
  6
Continuous
100
AcDbLine
 10
218.5950278729674
 20
482.8444952806925
 30
0.0
 11
218.5950278729674
 21
500.8444952806923
 31
0.0
  0
LINE
  5
40D
330
18
100
AcDbEntity
  8
1
  6
Continuous
100
AcDbLine
 10
288.7308398729676
 20
466.8444952806924
 30
0.0
 11
288.7308398729676
 21
546.8444952806925
 31
0.0
  0
LINE
  5
40E
330
18
100
AcDbEntity
  8
4
  6
CENTER
 48
0.5
100
AcDbLine
 10
287.5308208729677
 20
544.8444952806924
 30
0.0
 11
287.5308208729677
 21
468.3444952806929
 31
0.0
  0
LINE
  5
40F
330
18
100
AcDbEntity
  8
4
  6
CENTER
 48
0.5
100
AcDbLine
 10
270.5308208729677
 20
544.8444952806924
 30
0.0
 11
270.5308208729677
 21
468.3444952806929
 31
0.0
  0
LINE
  5
410
330
18
100
AcDbEntity
  8
4
  6
CENTER
 48
0.5
100
AcDbLine
 10
255.0308288729676
 20
541.3444952806925
 30
0.0
 11
255.0308288729676
 21
471.8445171464935
 31
0.0
  0
LINE
  5
411
330
18
100
AcDbEntity
  8
4
  6
CENTER
 48
0.5
100
AcDbLine
 10
245.0130218729678
 20
541.3444952806925
 30
0.0
 11
245.0130218729678
 21
471.8445171464936
 31
0.0
  0
LINE
  5
412
330
18
100
AcDbEntity
  8
1
  6
Continuous
100
AcDbLine
 10
273.0308238729676
 20
531.8444952806924
 30
0.0
 11
273.0308238729676
 21
481.8444952806925
 31
0.0
  0
LINE
  5
413
330
18
100
AcDbEntity
  8
1
  6
Continuous
100
AcDbLine
 10
223.3091348729673
 20
481.8444952806922
 30
0.0
 11
223.3091348729673
 21
501.8444952806925
 31
0.0
  0
LINE
  5
414
330
18
100
AcDbEntity
  8
1
  6
Continuous
100
AcDbLine
 10
219.8449738729674
 20
481.8444952806922
 30
0.0
 11
219.8449738729674
 21
501.8379874288684
 31
0.0
  0
LINE
  5
415
330
18
100
AcDbEntity
  8
1
  6
Continuous
100
AcDbLine
 10
282.3306738729675
 20
534.8444952806922
 30
0.0
 11
282.3306738729675
 21
478.8444952806925
 31
0.0
  0
LINE
  5
416
330
18
100
AcDbEntity
  8
1
  6
Continuous
100
AcDbLine
 10
270.5308278729676
 20
479.3444952806923
 30
0.0
 11
270.5308278729676
 21
534.3444952806922
 31
0.0
  0
LINE
  5
417
330
18
100
AcDbEntity
  8
1
  6
Continuous
100
AcDbLine
 10
245.0308278729675
 20
479.3444952806923
 30
0.0
 11
237.8688820002226
 21
479.3444952806923
 31
0.0
  0
LINE
  5
418
330
18
100
AcDbEntity
  8
1
  6
Continuous
100
AcDbLine
 10
238.1904978729675
 20
481.8444952806925
 30
0.0
 11
242.5308278729674
 21
481.8444952806925
 31
0.0
  0
ARC
  5
419
330
18
100
AcDbEntity
  8
1
  6
Continuous
100
AcDbCircle
 10
238.1904978729675
 20
486.8444952806925
 30
0.0
 40
5.0
100
AcDbArc
 50
180.0
 51
270.0
  0
LINE
  5
41A
330
18
100
AcDbEntity
  8
1
  6
Continuous
100
AcDbLine
 10
234.5591183646138
 20
476.8444952806925
 30
0.0
 11
234.5591183646138
 21
483.4074787159506
 31
0.0
  0
ARC
  5
41B
330
18
100
AcDbEntity
  8
1
  6
Continuous
100
AcDbCircle
 10
231.6420998324138
 20
484.1895825600691
 30
0.0
 40
8.656658671985146
100
AcDbArc
 50
195.7178184140819
 51
237.0559873443015
  0
LINE
  5
41C
330
18
100
AcDbEntity
  8
1
  6
Continuous
100
AcDbLine
 10
219.5950278729674
 20
481.8444952806922
 30
0.0
 11
223.3091348729673
 21
481.8444952806922
 31
0.0
  0
ARC
  5
41D
330
18
100
AcDbEntity
  8
1
  6
Continuous
100
AcDbCircle
 10
219.5950278729674
 20
482.8444952806925
 30
0.0
 40
1.0
100
AcDbArc
 50
179.999999999999
 51
270.0
  0
LINE
  5
41E
330
18
100
AcDbEntity
  8
1
  6
Continuous
100
AcDbLine
 10
227.206351774986
 20
476.8444952806925
 30
0.0
 11
236.2241688729674
 21
476.8444952806925
 31
0.0
  0
ARC
  5
41F
330
18
100
AcDbEntity
  8
1
  6
Continuous
100
AcDbCircle
 10
227.206351774986
 20
477.3444952806922
 30
0.0
 40
0.5
100
AcDbArc
 50
237.0559873442986
 51
270.0
  0
LINE
  5
420
330
18
100
AcDbEntity
  8
1
  6
Continuous
100
AcDbLine
 10
236.7241688729674
 20
477.3444952806922
 30
0.0
 11
236.7241688729674
 21
482.0643405484942
 31
0.0
  0
ARC
  5
421
330
18
100
AcDbEntity
  8
1
  6
Continuous
100
AcDbCircle
 10
236.2241688729674
 20
477.3444952806922
 30
0.0
 40
0.5
100
AcDbArc
 50
270.0
 51
0.0
  0
LINE
  5
422
330
18
100
AcDbEntity
  8
1
  6
Continuous
100
AcDbLine
 10
237.8688820002226
 20
479.3444952806923
 30
0.0
 11
237.8688820002226
 21
481.8548496790092
 31
0.0
  0
LINE
  5
423
330
18
100
AcDbEntity
  8
1
  6
Continuous
100
AcDbLine
 10
263.5308238729676
 20
475.8444952806924
 30
0.0
 11
288.7308398729676
 21
475.8444952806924
 31
0.0
  0
LINE
  5
424
330
18
100
AcDbEntity
  8
1
  6
Continuous
100
AcDbLine
 10
263.5308238729676
 20
478.8444952806925
 30
0.0
 11
282.3306738729675
 21
478.8444952806925
 31
0.0
  0
LINE
  5
425
330
18
100
AcDbEntity
  8
1
  6
Continuous
100
AcDbLine
 10
245.0308278729675
 20
479.3444952806923
 30
0.0
 11
270.5308278729676
 21
479.3444952806923
 31
0.0
  0
LINE
  5
426
330
18
100
AcDbEntity
  8
1
  6
Continuous
100
AcDbLine
 10
260.0308288729676
 20
478.8444952806925
 30
0.0
 11
250.0308288729676
 21
478.8444952806925
 31
0.0
  0
ARC
  5
427
330
18
100
AcDbEntity
  8
1
  6
Continuous
100
AcDbCircle
 10
255.0308318729676
 20
484.0944952806922
 30
0.0
 40
7.25
100
AcDbArc
 50
226.3971819999998
 51
313.6028179999992
  0
LINE
  5
428
330
18
100
AcDbEntity
  8
1
  6
Continuous
100
AcDbLine
 10
250.0308248729675
 20
478.8444952806925
 30
0.0
 11
240.0308248729674
 21
478.8444952806925
 31
0.0
  0
ARC
  5
429
330
18
100
AcDbEntity
  8
1
  6
Continuous
100
AcDbCircle
 10
245.0308278729675
 20
484.0944952806925
 30
0.0
 40
7.25
100
AcDbArc
 50
226.3971819999998
 51
313.6028179999992
  0
LINE
  5
42A
330
18
100
AcDbEntity
  8
1
  6
Continuous
100
AcDbLine
 10
240.0308278729674
 20
479.3444952806923
 30
0.0
 11
240.0308278729674
 21
478.8444952806925
 31
0.0
  0
LINE
  5
42B
330
18
100
AcDbEntity
  8
1
  6
Continuous
100
AcDbLine
 10
240.0308278729674
 20
481.8444952806925
 30
0.0
 11
240.0308278729674
 21
481.8444952806925
 31
0.0
  0
LINE
  5
42C
330
18
100
AcDbEntity
  8
1
  6
Continuous
100
AcDbLine
 10
242.5308278729674
 20
481.8444952806925
 30
0.0
 11
242.5308278729676
 21
481.8444952806925
 31
0.0
  0
ARC
  5
42D
330
18
100
AcDbEntity
  8
1
  6
Continuous
100
AcDbCircle
 10
245.0308278729675
 20
481.8444952806925
 30
0.0
 40
2.5
100
AcDbArc
 50
180.0
 51
270.0
  0
LINE
  5
42E
330
18
100
AcDbEntity
  8
1
  6
Continuous
100
AcDbLine
 10
250.0308318729675
 20
479.3444952806923
 30
0.0
 11
250.0308318729675
 21
478.8444952806925
 31
0.0
  0
LINE
  5
42F
330
18
100
AcDbEntity
  8
1
  6
Continuous
100
AcDbLine
 10
250.0308278729675
 20
479.3444952806923
 30
0.0
 11
250.0308278729675
 21
478.8444952806925
 31
0.0
  0
LINE
  5
430
330
18
100
AcDbEntity
  8
1
  6
Continuous
100
AcDbLine
 10
263.5308238729676
 20
475.8444952806924
 30
0.0
 11
263.5308238729676
 21
478.8444952806925
 31
0.0
  0
LINE
  5
431
330
18
100
AcDbEntity
  8
1
  6
Continuous
100
AcDbLine
 10
260.0308318729676
 20
479.3444952806923
 30
0.0
 11
260.0308318729676
 21
478.8444952806925
 31
0.0
  0
LINE
  5
432
330
18
100
AcDbEntity
  8
1
  6
Continuous
100
AcDbLine
 10
270.5308278729676
 20
481.8444952806922
 30
0.0
 11
282.3306738729675
 21
481.8444952806922
 31
0.0
  0
LINE
  5
433
330
18
100
AcDbEntity
  8
1
  6
Continuous
100
AcDbLine
 10
270.5308278729676
 20
479.3444952806923
 30
0.0
 11
282.3306738729675
 21
479.3444952806923
 31
0.0
  0
ARC
  5
434
330
18
100
AcDbEntity
  8
1
  6
Continuous
100
AcDbCircle
 10
270.5308238729676
 20
480.5944952806925
 30
0.0
 40
7.25
100
AcDbArc
 50
226.3971819999998
 51
313.6028179999992
  0
LINE
  5
435
330
18
100
AcDbEntity
  8
1
  6
Continuous
100
AcDbLine
 10
275.5308208729674
 20
475.3444952806924
 30
0.0
 11
265.5308208729674
 21
475.3444952806924
 31
0.0
  0
LINE
  5
436
330
18
100
AcDbEntity
  8
1
  6
Continuous
100
AcDbLine
 10
265.5308238729676
 20
475.8444952806924
 30
0.0
 11
265.5308238729676
 21
475.3444952806924
 31
0.0
  0
LINE
  5
437
330
18
100
AcDbEntity
  8
1
  6
Continuous
100
AcDbLine
 10
268.0308318729676
 20
479.3444952806923
 30
0.0
 11
268.0308318729676
 21
478.8444952806923
 31
0.0
  0
LINE
  5
438
330
18
100
AcDbEntity
  8
1
  6
Continuous
100
AcDbLine
 10
276.6907161518199
 20
481.8444952806922
 30
0.0
 11
276.6907161518199
 21
479.3444952806923
 31
0.0
  0
LINE
  5
439
330
18
100
AcDbEntity
  8
1
  6
Continuous
100
AcDbLine
 10
275.5308238729676
 20
475.8444952806924
 30
0.0
 11
275.5308238729676
 21
475.3444952806924
 31
0.0
  0
LINE
  5
43A
330
18
100
AcDbEntity
  8
1
  6
Continuous
100
AcDbLine
 10
273.0308238729676
 20
479.3444952806923
 30
0.0
 11
273.0308238729676
 21
478.8444952806925
 31
0.0
  0
ARC
  5
43B
330
18
100
AcDbEntity
  8
1
  6
Continuous
100
AcDbCircle
 10
287.5308238729676
 20
480.5944952806925
 30
0.0
 40
7.25
100
AcDbArc
 50
226.3971819999998
 51
279.527411595807
  0
LINE
  5
43C
330
18
100
AcDbEntity
  8
1
  6
Continuous
100
AcDbLine
 10
288.7308398729676
 20
475.3444952806924
 30
0.0
 11
282.5308208729676
 21
475.3444952806924
 31
0.0
  0
LINE
  5
43D
330
18
100
AcDbEntity
  8
1
  6
Continuous
100
AcDbLine
 10
282.5308238729676
 20
475.8444952806924
 30
0.0
 11
282.5308238729676
 21
475.3444952806924
 31
0.0
  0
ARC
  5
43E
330
18
100
AcDbEntity
  8
1
  6
Continuous
100
AcDbCircle
 10
277.641677674816
 20
479.9578929995836
 30
0.0
 40
4.819371310317405
100
AcDbArc
 50
301.4041186141874
 51
346.6425446337571
  0
LINE
  5
442
330
18
100
AcDbEntity
  8
1
  6
Continuous
100
AcDbLine
 10
239.896279985807
 20
534.3444952806925
 30
0.0
 11
237.8688820002226
 21
534.3444952806925
 31
0.0
  0
ARC
  5
443
330
18
100
AcDbEntity
  8
1
  6
Continuous
100
AcDbCircle
 10
241.2135539293871
 20
529.4148401481357
 30
0.0
 40
5.102617991617603
100
AcDbArc
 50
104.9607027754223
 51
151.565190721076
  0
ARC
  5
444
330
18
100
AcDbEntity
  8
1
  6
Continuous
100
AcDbCircle
 10
230.6904978729675
 20
533.8444952806923
 30
0.0
 40
2.5
100
AcDbArc
 50
0.0
 51
90.0
  0
ARC
  5
445
330
18
100
AcDbEntity
  8
1
  6
Continuous
100
AcDbCircle
 10
207.2126988729674
 20
533.3444952806924
 30
0.0
 40
3.0
100
AcDbArc
 50
90.0
 51
180.0
  0
LINE
  5
446
330
18
100
AcDbEntity
  8
1
  6
Continuous
100
AcDbLine
 10
207.2126988729675
 20
509.3444952806925
 30
0.0
 11
230.1904978729675
 21
509.3444952806925
 31
0.0
  0
LINE
  5
447
330
18
100
AcDbEntity
  8
1
  6
Continuous
100
AcDbLine
 10
204.2126988729676
 20
512.3444952806925
 30
0.0
 11
204.2126988729674
 21
533.3444952806924
 31
0.0
  0
LINE
  5
448
330
18
100
AcDbEntity
  8
1
  6
Continuous
100
AcDbLine
 10
203.1774408729675
 20
512.8444952806924
 30
0.0
 11
203.1774408729675
 21
532.8444952806925
 31
0.0
  0
LINE
  5
449
330
18
100
AcDbEntity
  8
1
  6
Continuous
100
AcDbLine
 10
200.7626288729676
 20
513.8444952806925
 30
0.0
 11
200.7626288729676
 21
531.8444952806924
 31
0.0
  0
LINE
  5
44A
330
18
100
AcDbEntity
  8
1
  6
Continuous
100
AcDbLine
 10
201.7626288729676
 20
512.8444952806924
 30
0.0
 11
204.2126988729676
 21
512.8444952806924
 31
0.0
  0
ARC
  5
44B
330
18
100
AcDbEntity
  8
1
  6
Continuous
100
AcDbCircle
 10
201.7626288729676
 20
513.8444952806925
 30
0.0
 40
1.0
100
AcDbArc
 50
180.0
 51
270.0
  0
ARC
  5
44C
330
18
100
AcDbEntity
  8
1
  6
Continuous
100
AcDbCircle
 10
207.2126988729675
 20
512.3444952806925
 30
0.0
 40
3.0
100
AcDbArc
 50
180.0
 51
270.0
  0
LINE
  5
44D
330
18
100
AcDbEntity
  8
1
  6
Continuous
100
AcDbLine
 10
201.7626288729676
 20
532.8444952806925
 30
0.0
 11
204.2126988729674
 21
532.8444952806925
 31
0.0
  0
ARC
  5
44E
330
18
100
AcDbEntity
  8
1
  6
Continuous
100
AcDbCircle
 10
201.7626288729676
 20
531.8444952806924
 30
0.0
 40
1.0
100
AcDbArc
 50
90.0
 51
180.0
  0
ARC
  5
44F
330
18
100
AcDbEntity
  8
1
  6
Continuous
100
AcDbCircle
 10
231.6420998324138
 20
499.4994080013158
 30
0.0
 40
8.656658671985146
100
AcDbArc
 50
121.9522016411167
 51
164.2821815859179
  0
LINE
  5
450
330
18
100
AcDbEntity
  8
1
  6
Continuous
100
AcDbLine
 10
219.5950278729674
 20
501.8444952806925
 30
0.0
 11
223.3091348729673
 21
501.8444952806925
 31
0.0
  0
ARC
  5
451
330
18
100
AcDbEntity
  8
1
  6
Continuous
100
AcDbCircle
 10
219.5950278729674
 20
500.8444952806923
 30
0.0
 40
1.0
100
AcDbArc
 50
90.0
 51
180.0
  0
ARC
  5
452
330
18
100
AcDbEntity
  8
1
  6
Continuous
100
AcDbCircle
 10
230.1904978729675
 20
506.3444952806922
 30
0.0
 40
3.0
100
AcDbArc
 50
0.0
 51
90.0
  0
LINE
  5
453
330
18
100
AcDbEntity
  8
1
  6
Continuous
100
AcDbLine
 10
233.1485377645174
 20
506.8444952806922
 30
0.0
 11
227.0608955997264
 21
506.8444952806922
 31
0.0
  0
ARC
  5
454
330
18
100
AcDbEntity
  8
1
  6
Continuous
100
AcDbCircle
 10
235.9973414904356
 20
534.6811632501286
 30
0.0
 40
2.928887909087888
100
AcDbArc
 50
196.5983417393049
 51
284.4160020524942
  0
LINE
  5
455
330
18
100
AcDbEntity
  8
1
  6
Continuous
100
AcDbLine
 10
237.8688820002228
 20
533.2683943588143
 30
0.0
 11
237.8688820002228
 21
534.3444952806925
 31
0.0
  0
LINE
  5
456
330
18
100
AcDbEntity
  8
1
  6
Continuous
100
AcDbLine
 10
207.2126988729674
 20
536.3444952806925
 30
0.0
 11
230.6904978729675
 21
536.3444952806925
 31
0.0
  0
LINE
  5
457
330
18
100
AcDbEntity
  8
1
  6
Continuous
100
AcDbLine
 10
273.0308238729676
 20
534.8444952806922
 30
0.0
 11
273.0308238729676
 21
534.3444952806922
 31
0.0
  0
LINE
  5
458
330
18
100
AcDbEntity
  8
1
  6
Continuous
100
AcDbLine
 10
268.0308238729676
 20
534.8444952806922
 30
0.0
 11
268.0308238729676
 21
534.3444952806922
 31
0.0
  0
LINE
  5
459
330
18
100
AcDbEntity
  8
1
  6
Continuous
100
AcDbLine
 10
257.5308318729676
 20
534.8444952806922
 30
0.0
 11
257.5308318729676
 21
534.3444952806922
 31
0.0
  0
LINE
  5
45A
330
18
100
AcDbEntity
  8
1
  6
Continuous
100
AcDbLine
 10
252.5308318729676
 20
534.8444952806922
 30
0.0
 11
252.5308318729676
 21
534.3444952806922
 31
0.0
  0
LINE
  5
45B
330
18
100
AcDbEntity
  8
1
  6
Continuous
100
AcDbLine
 10
247.5130248729676
 20
534.8444952806925
 30
0.0
 11
247.5130248729676
 21
534.3444952806925
 31
0.0
  0
LINE
  5
45C
330
18
100
AcDbEntity
  8
1
  6
Continuous
100
AcDbLine
 10
242.5130248729673
 20
534.8444952806925
 30
0.0
 11
242.5130248729673
 21
534.3444952806925
 31
0.0
  0
LINE
  5
45D
330
18
100
AcDbEntity
  8
1
  6
Continuous
100
AcDbLine
 10
239.896279985807
 20
534.3444952806925
 30
0.0
 11
270.5308278729676
 21
534.3444952806922
 31
0.0
  0
LINE
  5
465
330
18
100
AcDbEntity
  8
1
  6
Continuous
100
AcDbLine
 10
270.5308278729676
 20
531.8444952806924
 30
0.0
 11
282.3306738729675
 21
531.8444952806924
 31
0.0
  0
LINE
  5
466
330
18
100
AcDbEntity
  8
1
  6
Continuous
100
AcDbLine
 10
270.5308278729676
 20
534.3444952806922
 30
0.0
 11
282.3306738729675
 21
534.3444952806922
 31
0.0
  0
LINE
  5
467
330
18
100
AcDbEntity
  8
1
  6
Continuous
100
AcDbLine
 10
276.6907161518199
 20
531.8444952806924
 30
0.0
 11
276.6907161518199
 21
534.3444952806925
 31
0.0
  0
LINE
  5
468
330
18
100
AcDbEntity
  8
1
  6
Continuous
100
AcDbLine
 10
263.5308238729676
 20
537.8444952806924
 30
0.0
 11
288.7308398729676
 21
537.8444952806924
 31
0.0
  0
LINE
  5
469
330
18
100
AcDbEntity
  8
1
  6
Continuous
100
AcDbLine
 10
263.5308238729676
 20
534.8444952806922
 30
0.0
 11
282.3306738729675
 21
534.8444952806922
 31
0.0
  0
ARC
  5
46A
330
18
100
AcDbEntity
  8
1
  6
Continuous
100
AcDbCircle
 10
252.5308318729676
 20
534.8444952806922
 30
0.0
 40
1.5
100
AcDbArc
 50
89.99997800000008
 51
180.0000279999992
  0
LINE
  5
46B
330
18
100
AcDbEntity
  8
1
  6
Continuous
100
AcDbLine
 10
251.0308318729676
 20
534.8444945476542
 30
0.0
 11
259.0308318729676
 21
534.8444948094536
 31
0.0
  0
LINE
  5
46C
330
18
100
AcDbEntity
  8
1
  6
Continuous
100
AcDbLine
 10
247.5130218729674
 20
536.3444952806925
 30
0.0
 11
242.5130218729676
 21
536.3444952806925
 31
0.0
  0
LINE
  5
46D
330
18
100
AcDbEntity
  8
1
  6
Continuous
100
AcDbLine
 10
241.0130248729676
 20
534.8444945476542
 30
0.0
 11
249.0130248729676
 21
534.8444948094536
 31
0.0
  0
ARC
  5
46E
330
18
100
AcDbEntity
  8
1
  6
Continuous
100
AcDbCircle
 10
242.5130248729673
 20
534.8444952806925
 30
0.0
 40
1.5
100
AcDbArc
 50
89.99997800000008
 51
180.0000279999992
  0
ARC
  5
46F
330
18
100
AcDbEntity
  8
1
  6
Continuous
100
AcDbCircle
 10
247.5130248729676
 20
534.8444952806925
 30
0.0
 40
1.5
100
AcDbArc
 50
359.9999819999999
 51
89.99996399999997
  0
ARC
  5
470
330
18
100
AcDbEntity
  8
1
  6
Continuous
100
AcDbCircle
 10
257.5308318729676
 20
534.8444952806922
 30
0.0
 40
1.5
100
AcDbArc
 50
359.9999819999999
 51
89.99996399999997
  0
LINE
  5
471
330
18
100
AcDbEntity
  8
1
  6
Continuous
100
AcDbLine
 10
257.5308288729676
 20
536.3444952806925
 30
0.0
 11
252.5308288729676
 21
536.3444952806925
 31
0.0
  0
LINE
  5
472
330
18
100
AcDbEntity
  8
1
  6
Continuous
100
AcDbLine
 10
263.5308238729676
 20
534.8444952806922
 30
0.0
 11
263.5308238729676
 21
537.8444952806924
 31
0.0
  0
LINE
  5
473
330
18
100
AcDbEntity
  8
1
  6
Continuous
100
AcDbLine
 10
273.0308208729677
 20
539.8444952806924
 30
0.0
 11
268.0308208729676
 21
539.8444952806924
 31
0.0
  0
LINE
  5
474
330
18
100
AcDbEntity
  8
1
  6
Continuous
100
AcDbLine
 10
266.5308238729678
 20
538.3444945476541
 30
0.0
 11
274.5308238729675
 21
538.3444948094536
 31
0.0
  0
ARC
  5
475
330
18
100
AcDbEntity
  8
1
  6
Continuous
100
AcDbCircle
 10
268.0308238729676
 20
538.3444952806923
 30
0.0
 40
1.5
100
AcDbArc
 50
89.99997800000008
 51
180.0000279999992
  0
LINE
  5
476
330
18
100
AcDbEntity
  8
1
  6
Continuous
100
AcDbLine
 10
268.0308238729676
 20
538.3444952806923
 30
0.0
 11
268.0308238729676
 21
537.8444952806924
 31
0.0
  0
LINE
  5
477
330
18
100
AcDbEntity
  8
1
  6
Continuous
100
AcDbLine
 10
273.0308238729676
 20
538.3444952806923
 30
0.0
 11
273.0308238729676
 21
537.8444952806924
 31
0.0
  0
ARC
  5
478
330
18
100
AcDbEntity
  8
1
  6
Continuous
100
AcDbCircle
 10
273.0308238729676
 20
538.3444952806923
 30
0.0
 40
1.5
100
AcDbArc
 50
359.9999819999999
 51
89.99996399999997
  0
ARC
  5
479
330
18
100
AcDbEntity
  8
1
  6
Continuous
100
AcDbCircle
 10
277.641677674816
 20
533.7310975618016
 30
0.0
 40
4.819371310317405
100
AcDbArc
 50
13.35745536624266
 51
58.59588138581243
  0
ARC
  5
47A
330
18
100
AcDbEntity
  8
1
  6
Continuous
100
AcDbCircle
 10
285.0308238729676
 20
538.3444952806923
 30
0.0
 40
1.5
100
AcDbArc
 50
89.99997800000008
 51
180.0000279999992
  0
LINE
  5
47B
330
18
100
AcDbEntity
  8
1
  6
Continuous
100
AcDbLine
 10
285.0308238729676
 20
538.3444952806923
 30
0.0
 11
285.0308238729676
 21
537.8444952806924
 31
0.0
  0
LINE
  5
47C
330
18
100
AcDbEntity
  8
1
  6
Continuous
100
AcDbLine
 10
288.7308398729676
 20
539.8444952806924
 30
0.0
 11
285.0308208729677
 21
539.8444952806924
 31
0.0
  0
LINE
  5
47D
330
18
100
AcDbEntity
  8
1
  6
Continuous
100
AcDbLine
 10
283.5308238729678
 20
538.3444945476541
 30
0.0
 11
288.7308398729676
 21
538.3444947178243
 31
0.0
  0
LINE
  5
47E
330
18
100
AcDbEntity
  8
4
  6
CENTER
 48
0.5
100
AcDbLine
 10
339.7308208729676
 20
396.8792783796317
 30
0.0
 11
339.7308208729676
 21
315.5402643239442
 31
0.0
  0
LINE
  5
481
330
18
100
AcDbEntity
  8
4
  6
CENTER
 48
0.5
100
AcDbLine
 10
301.7307938729676
 20
213.5401843239443
 30
0.0
 11
301.7307938729676
 21
348.5401843239444
 31
0.0
  0
LINE
  5
483
330
18
100
AcDbEntity
  8
1
  6
Continuous
100
AcDbLine
 10
314.7308208729676
 20
355.1585513239441
 30
0.0
 11
314.7308208729676
 21
279.1784863239442
 31
0.0
  0
LINE
  5
484
330
18
100
AcDbEntity
  8
1
  6
Continuous
100
AcDbLine
 10
366.0818838729677
 20
342.7618923239443
 30
0.0
 11
315.0758878729674
 21
271.1754313239443
 31
0.0
  0
CIRCLE
  5
485
330
18
100
AcDbEntity
  8
1
  6
Continuous
100
AcDbCircle
 10
301.7307938729676
 20
281.0401843239442
 30
0.0
 40
11.5
  0
LINE
  5
48C
330
18
100
AcDbEntity
  8
1
  6
Continuous
100
AcDbLine
 10
301.9769718729676
 20
380.0402643239441
 30
0.0
 11
377.4849648729676
 21
380.0402643239441
 31
0.0
  0
LINE
  5
48D
330
18
100
AcDbEntity
  8
1
  6
Continuous
100
AcDbLine
 10
302.2308168729677
 20
376.0402643239441
 30
0.0
 11
377.2308878729676
 21
376.0402643239441
 31
0.0
  0
LINE
  5
48E
330
18
100
AcDbEntity
  8
1
  6
Continuous
100
AcDbLine
 10
304.2308168729674
 20
374.5402643239441
 30
0.0
 11
375.2308448729676
 21
374.5402643239441
 31
0.0
  0
LINE
  5
48F
330
18
100
AcDbEntity
  8
1
  6
Continuous
100
AcDbLine
 10
303.7308168729676
 20
371.5402643239441
 30
0.0
 11
375.7347188729676
 21
371.5402643239441
 31
0.0
  0
LINE
  5
490
330
18
100
AcDbEntity
  8
1
  6
Continuous
100
AcDbLine
 10
302.7308168729677
 20
372.5402643239441
 30
0.0
 11
376.7308128729675
 21
372.5402643239441
 31
0.0
  0
ARC
  5
491
330
18
100
AcDbEntity
  8
1
  6
Continuous
100
AcDbCircle
 10
311.7308208729675
 20
364.7902723239443
 30
0.0
 40
3.0
100
AcDbArc
 50
269.9999969999999
 51
333.3788989999995
  0
LINE
  5
492
330
18
100
AcDbEntity
  8
1
  6
Continuous
100
AcDbLine
 10
303.7308268729677
 20
372.5402763239441
 30
0.0
 11
305.7308268729674
 21
374.5402763239441
 31
0.0
  0
ARC
  5
493
330
18
100
AcDbEntity
  8
1
  6
Continuous
100
AcDbCircle
 10
300.5808158729676
 20
364.7902803239441
 30
0.0
 40
3.0
100
AcDbArc
 50
270.0000179999999
 51
0.0
  0
LINE
  5
494
330
18
100
AcDbEntity
  8
1
  6
Continuous
100
AcDbLine
 10
303.5808188729677
 20
368.1902723239441
 30
0.0
 11
303.5808188729677
 21
364.7902803239441
 31
0.0
  0
ARC
  5
495
330
18
100
AcDbEntity
  8
1
  6
Continuous
100
AcDbCircle
 10
303.7308168729676
 20
372.5402723239441
 30
0.0
 40
1.0
100
AcDbArc
 50
179.999978
 51
270.0000280000002
  0
ARC
  5
496
330
18
100
AcDbEntity
  8
1
  6
Continuous
100
AcDbCircle
 10
309.5808158729675
 20
368.1902663239441
 30
0.0
 40
6.0
100
AcDbArc
 50
146.0593739999999
 51
179.9999639999999
  0
ARC
  5
497
330
18
100
AcDbEntity
  8
1
  6
Continuous
100
AcDbCircle
 10
302.1038408729675
 20
385.0386623239441
 30
0.0
 40
5.0
100
AcDbArc
 50
209.9786920000004
 51
271.453974
  0
LINE
  5
498
330
18
100
AcDbEntity
  8
4
  6
CENTER
 48
0.5
100
AcDbLine
 10
299.7308208729675
 20
391.5402643239441
 30
0.0
 11
299.7308208729677
 21
377.5402643239443
 31
0.0
  0
LINE
  5
499
330
18
100
AcDbEntity
  8
4
  6
CENTER
 48
0.5
100
AcDbLine
 10
302.2308208729675
 20
391.5402643239441
 30
0.0
 11
302.2308208729676
 21
377.5402643239443
 31
0.0
  0
LINE
  5
49A
330
18
100
AcDbEntity
  8
1
  6
Continuous
100
AcDbLine
 10
302.2308188729676
 20
376.0402683239441
 30
0.0
 11
304.2308188729675
 21
374.5402683239441
 31
0.0
  0
LINE
  5
49B
330
18
100
AcDbEntity
  8
1
  6
Continuous
100
AcDbLine
 10
304.8179308729675
 20
380.0402753239442
 30
0.0
 11
302.2308078729677
 21
376.0402753239441
 31
0.0
  0
LINE
  5
49C
330
18
100
AcDbEntity
  8
1
  6
Continuous
100
AcDbLine
 10
378.3808218729676
 20
359.2300133239441
 30
0.0
 11
378.3808218729676
 21
352.7902573239441
 31
0.0
  0
ARC
  5
49D
330
18
100
AcDbEntity
  8
1
  6
Continuous
100
AcDbCircle
 10
390.5144028729676
 20
325.3535033239442
 30
0.0
 40
30.0
100
AcDbArc
 50
113.8568339999999
 51
144.5297870000002
  0
LINE
  5
49E
330
18
100
AcDbEntity
  8
1
  6
Continuous
100
AcDbLine
 10
375.7308398729676
 20
372.5402973239441
 30
0.0
 11
373.7308478729676
 21
374.5402883239441
 31
0.0
  0
ARC
  5
49F
330
18
100
AcDbEntity
  8
1
  6
Continuous
100
AcDbCircle
 10
375.7308128729675
 20
372.5402573239441
 30
0.0
 40
1.0
100
AcDbArc
 50
269.9999630000001
 51
0.0
  0
ARC
  5
4A0
330
18
100
AcDbEntity
  8
1
  6
Continuous
100
AcDbCircle
 10
373.9475488729676
 20
359.2300153239441
 30
0.0
 40
4.433265
100
AcDbArc
 50
0.0
 51
48.41932000000046
  0
LINE
  5
4A1
330
18
100
AcDbEntity
  8
1
  6
Continuous
100
AcDbLine
 10
375.8808218729676
 20
368.1902533239443
 30
0.0
 11
375.8808218729676
 21
364.7902573239441
 31
0.0
  0
ARC
  5
4A2
330
18
100
AcDbEntity
  8
1
  6
Continuous
100
AcDbCircle
 10
378.8808218729673
 20
364.7902573239441
 30
0.0
 40
3.0
100
AcDbArc
 50
179.9999949999993
 51
228.4192739999998
  0
ARC
  5
4A3
330
18
100
AcDbEntity
  8
1
  6
Continuous
100
AcDbCircle
 10
369.8808218729676
 20
368.1902513239441
 30
0.0
 40
6.0
100
AcDbArc
 50
0.0
 51
33.9405899999997
  0
LINE
  5
4A4
330
18
100
AcDbEntity
  8
1
  6
Continuous
100
AcDbLine
 10
377.2308338729676
 20
376.0402563239441
 30
0.0
 11
375.2308338729676
 21
374.5402563239441
 31
0.0
  0
LINE
  5
4A5
330
18
100
AcDbEntity
  8
1
  6
Continuous
100
AcDbLine
 10
374.6437438729675
 20
380.0402963239442
 30
0.0
 11
377.2308678729675
 21
376.0402953239442
 31
0.0
  0
LINE
  5
4A6
330
18
100
AcDbEntity
  8
4
  6
CENTER
 48
0.5
100
AcDbLine
 10
377.2308208729676
 20
391.5402643239441
 30
0.0
 11
377.2308208729676
 21
377.5402643239443
 31
0.0
  0
LINE
  5
4A7
330
18
100
AcDbEntity
  8
4
  6
CENTER
 48
0.5
100
AcDbLine
 10
379.7308208729676
 20
391.5402643239441
 30
0.0
 11
379.7308208729675
 21
377.5402643239443
 31
0.0
  0
ARC
  5
4A8
330
18
100
AcDbEntity
  8
1
  6
Continuous
100
AcDbCircle
 10
377.3577968729675
 20
385.0386473239442
 30
0.0
 40
5.0
100
AcDbArc
 50
268.5460069999998
 51
330.0212889999999
  0
LINE
  5
4A9
330
18
100
AcDbEntity
  8
1
  6
Continuous
100
AcDbLine
 10
390.7308058729676
 20
382.5402643239441
 30
0.0
 11
390.7308058729676
 21
386.5402643239441
 31
0.0
  0
LINE
  5
4AA
330
18
100
AcDbEntity
  8
4
  6
CENTER
 48
0.5
100
AcDbLine
 10
301.7307938729676
 20
450.8444952806924
 30
0.0
 11
301.7307938729676
 21
562.8444952806924
 31
0.0
  0
CIRCLE
  5
4AB
330
18
100
AcDbEntity
  8
1
  6
Continuous
100
AcDbCircle
 10
339.7308208729676
 20
506.8444952806922
 30
0.0
 40
18.0
  0
CIRCLE
  5
4AC
330
18
100
AcDbEntity
  8
1
  6
Continuous
100
AcDbCircle
 10
339.7308208729676
 20
506.8444952806922
 30
0.0
 40
16.0
  0
LINE
  5
4AD
330
18
100
AcDbEntity
  8
1
  6
Continuous
100
AcDbLine
 10
390.7308058729676
 20
466.8444952806924
 30
0.0
 11
390.7308058729676
 21
546.8444952806925
 31
0.0
  0
LINE
  5
4AE
330
18
100
AcDbEntity
  8
4
  6
CENTER
 48
0.5
100
AcDbLine
 10
339.7308208729676
 20
450.8444952806923
 30
0.0
 11
339.7308208729676
 21
562.8444952806924
 31
0.0
  0
CIRCLE
  5
4AF
330
18
100
AcDbEntity
  8
1
  6
Continuous
100
AcDbCircle
 10
339.7308208729676
 20
506.8444952806922
 30
0.0
 40
39.5
  0
CIRCLE
  5
4B0
330
18
100
AcDbEntity
  8
1
  6
Continuous
100
AcDbCircle
 10
339.7308208729676
 20
506.8444952806922
 30
0.0
 40
35.5
  0
ARC
  5
4B1
330
18
100
AcDbEntity
  8
1
  6
Continuous
100
AcDbCircle
 10
379.7308058729676
 20
466.8444952806924
 30
0.0
 40
11.0
100
AcDbArc
 50
270.0000179999999
 51
0.0
  0
LINE
  5
4B2
330
18
100
AcDbEntity
  8
1
  6
Continuous
100
AcDbLine
 10
299.7308398729676
 20
455.8444952806925
 30
0.0
 11
379.7308058729676
 21
455.8444952806925
 31
0.0
  0
LINE
  5
4B3
330
18
100
AcDbEntity
  8
4
  6
CENTER
 48
0.5
100
AcDbLine
 10
302.2308208729676
 20
475.3444952806924
 30
0.0
 11
302.2308208729676
 21
463.3444952806924
 31
0.0
  0
LINE
  5
4B4
330
18
100
AcDbEntity
  8
4
  6
CENTER
 48
0.5
100
AcDbLine
 10
299.7308208729677
 20
472.8444952806925
 30
0.0
 11
299.7308208729677
 21
460.8444952806926
 31
0.0
  0
ARC
  5
4B5
330
18
100
AcDbEntity
  8
1
  6
Continuous
100
AcDbCircle
 10
302.2308208729676
 20
469.3444952806926
 30
0.0
 40
5.5
100
AcDbArc
 50
314.999995
 51
135.0000549999996
  0
ARC
  5
4B6
330
18
100
AcDbEntity
  8
1
  6
Continuous
100
AcDbCircle
 10
302.2308208729676
 20
469.3444952806926
 30
0.0
 40
5.5
100
AcDbArc
 50
314.999995
 51
135.0000549999996
  0
ARC
  5
4B7
330
18
100
AcDbEntity
  8
1
  6
Continuous
100
AcDbCircle
 10
299.7308208729677
 20
466.8444952806924
 30
0.0
 40
5.5
100
AcDbArc
 50
135.0000549999996
 51
314.9999640000003
  0
LINE
  5
4B8
330
18
100
AcDbEntity
  8
1
  6
Continuous
100
AcDbLine
 10
303.6199068729676
 20
462.9554342806925
 30
0.0
 11
306.1199088729674
 21
465.4554372806925
 31
0.0
  0
LINE
  5
4B9
330
18
100
AcDbEntity
  8
4
  6
CENTER
 48
0.5
100
AcDbLine
 10
308.2308208729675
 20
469.3444952806926
 30
0.0
 11
296.2308208729676
 21
469.3444952806926
 31
0.0
  0
LINE
  5
4BA
330
18
100
AcDbEntity
  8
4
  6
CENTER
 48
0.5
100
AcDbLine
 10
305.7308208729677
 20
466.8444952806924
 30
0.0
 11
293.7308208729676
 21
466.8444952806924
 31
0.0
  0
LINE
  5
4BB
330
18
100
AcDbEntity
  8
1
  6
Continuous
100
AcDbLine
 10
295.8417348729676
 20
470.7336062806925
 30
0.0
 11
298.3417378729674
 21
473.2336092806924
 31
0.0
  0
LINE
  5
4BC
330
18
100
AcDbEntity
  8
4
  6
CENTER
 48
0.5
100
AcDbLine
 10
377.2308208729676
 20
475.3444952806924
 30
0.0
 11
377.2308208729676
 21
463.3444952806924
 31
0.0
  0
LINE
  5
4BD
330
18
100
AcDbEntity
  8
4
  6
CENTER
 48
0.5
100
AcDbLine
 10
379.7308208729676
 20
472.8444952806925
 30
0.0
 11
379.7308208729676
 21
460.8444952806926
 31
0.0
  0
ARC
  5
4BE
330
18
100
AcDbEntity
  8
1
  6
Continuous
100
AcDbCircle
 10
377.2308208729676
 20
469.3444952806926
 30
0.0
 40
5.5
100
AcDbArc
 50
44.99996400000032
 51
225.000037
  0
ARC
  5
4BF
330
18
100
AcDbEntity
  8
1
  6
Continuous
100
AcDbCircle
 10
379.7308208729676
 20
466.8444952806924
 30
0.0
 40
5.5
100
AcDbArc
 50
225.0000539999994
 51
44.99994999999954
  0
LINE
  5
4C0
330
18
100
AcDbEntity
  8
1
  6
Continuous
100
AcDbLine
 10
375.8417268729676
 20
462.9554172806924
 30
0.0
 11
373.3417238729677
 21
465.4554192806925
 31
0.0
  0
LINE
  5
4C1
330
18
100
AcDbEntity
  8
4
  6
CENTER
 48
0.5
100
AcDbLine
 10
373.7308208729676
 20
466.8444952806924
 30
0.0
 11
385.7308208729676
 21
466.8444952806924
 31
0.0
  0
LINE
  5
4C2
330
18
100
AcDbEntity
  8
4
  6
CENTER
 48
0.5
100
AcDbLine
 10
371.2308208729676
 20
469.3444952806926
 30
0.0
 11
383.2308208729675
 21
469.3444952806926
 31
0.0
  0
LINE
  5
4C3
330
18
100
AcDbEntity
  8
1
  6
Continuous
100
AcDbLine
 10
383.6198988729676
 20
470.7335722806925
 30
0.0
 11
381.1198958729676
 21
473.2335752806925
 31
0.0
  0
ARC
  5
4C4
330
18
100
AcDbEntity
  8
1
  6
Continuous
100
AcDbCircle
 10
379.7308058729676
 20
546.8444952806925
 30
0.0
 40
11.0
100
AcDbArc
 50
0.0000549999998358
 51
90.00003699999981
  0
LINE
  5
4C5
330
18
100
AcDbEntity
  8
1
  6
Continuous
100
AcDbLine
 10
299.7308398729676
 20
557.8444952806925
 30
0.0
 11
379.7308058729676
 21
557.8444952806925
 31
0.0
  0
ARC
  5
4C6
330
18
100
AcDbEntity
  8
1
  6
Continuous
100
AcDbCircle
 10
299.7308208729677
 20
546.8444952806925
 30
0.0
 40
5.5
100
AcDbArc
 50
45.00000499999997
 51
224.9999279999999
  0
LINE
  5
4C7
330
18
100
AcDbEntity
  8
4
  6
CENTER
 48
0.5
100
AcDbLine
 10
299.7308208729677
 20
540.8444952806925
 30
0.0
 11
299.7308208729677
 21
552.8444952806925
 31
0.0
  0
LINE
  5
4C8
330
18
100
AcDbEntity
  8
4
  6
CENTER
 48
0.5
100
AcDbLine
 10
308.2308208729675
 20
544.3444952806925
 30
0.0
 11
296.2308208729676
 21
544.3444952806925
 31
0.0
  0
LINE
  5
4C9
330
18
100
AcDbEntity
  8
4
  6
CENTER
 48
0.5
100
AcDbLine
 10
305.7308208729677
 20
546.8444952806925
 30
0.0
 11
293.7308208729676
 21
546.8444952806925
 31
0.0
  0
ARC
  5
4CA
330
18
100
AcDbEntity
  8
1
  6
Continuous
100
AcDbCircle
 10
302.2308208729676
 20
544.3444952806925
 30
0.0
 40
5.5
100
AcDbArc
 50
224.9999309999999
 51
45.00000499999997
  0
LINE
  5
4CB
330
18
100
AcDbEntity
  8
1
  6
Continuous
100
AcDbLine
 10
295.8417298729676
 20
542.9554142806924
 30
0.0
 11
298.3417318729674
 21
540.4554112806922
 31
0.0
  0
LINE
  5
4CC
330
18
100
AcDbEntity
  8
4
  6
CENTER
 48
0.5
100
AcDbLine
 10
302.2308208729676
 20
538.3444952806923
 30
0.0
 11
302.2308208729676
 21
550.3444952806924
 31
0.0
  0
LINE
  5
4CD
330
18
100
AcDbEntity
  8
1
  6
Continuous
100
AcDbLine
 10
303.6198928729676
 20
550.7335562806924
 30
0.0
 11
306.1198958729676
 21
548.2335532806922
 31
0.0
  0
LINE
  5
4CE
330
18
100
AcDbEntity
  8
4
  6
CENTER
 48
0.5
100
AcDbLine
 10
379.7308208729676
 20
540.8444952806925
 30
0.0
 11
379.7308208729676
 21
552.8444952806925
 31
0.0
  0
ARC
  5
4CF
330
18
100
AcDbEntity
  8
1
  6
Continuous
100
AcDbCircle
 10
379.7308208729676
 20
546.8444952806925
 30
0.0
 40
5.5
100
AcDbArc
 50
315.0001050000003
 51
135.0000000000006
  0
ARC
  5
4D0
330
18
100
AcDbEntity
  8
1
  6
Continuous
100
AcDbCircle
 10
377.2308208729676
 20
544.3444952806925
 30
0.0
 40
5.5
100
AcDbArc
 50
135.0000000000006
 51
315.000074
  0
LINE
  5
4D1
330
18
100
AcDbEntity
  8
4
  6
CENTER
 48
0.5
100
AcDbLine
 10
373.7308208729676
 20
546.8444952806925
 30
0.0
 11
385.7308208729676
 21
546.8444952806925
 31
0.0
  0
LINE
  5
4D2
330
18
100
AcDbEntity
  8
4
  6
CENTER
 48
0.5
100
AcDbLine
 10
371.2308208729676
 20
544.3444952806925
 30
0.0
 11
383.2308208729675
 21
544.3444952806925
 31
0.0
  0
LINE
  5
4D3
330
18
100
AcDbEntity
  8
1
  6
Continuous
100
AcDbLine
 10
375.8417498729676
 20
550.7335672806926
 30
0.0
 11
373.3417358729675
 21
548.2335532806922
 31
0.0
  0
LINE
  5
4D4
330
18
100
AcDbEntity
  8
4
  6
CENTER
 48
0.5
100
AcDbLine
 10
377.2308208729676
 20
538.3444952806923
 30
0.0
 11
377.2308208729676
 21
550.3444952806924
 31
0.0
  0
LINE
  5
4D5
330
18
100
AcDbEntity
  8
1
  6
Continuous
100
AcDbLine
 10
383.6199128729676
 20
542.9554032806925
 30
0.0
 11
381.1198998729675
 21
540.4553902806925
 31
0.0
  0
LINE
  5
726
330
18
100
AcDbEntity
  8
1
  6
Continuous
100
AcDbLine
 10
492.0166869478533
 20
315.3021584194697
 30
0.0
 11
492.0166869478533
 21
264.0402643239443
 31
0.0
  0
LINE
  5
729
330
18
100
AcDbEntity
  8
1
  6
Continuous
100
AcDbLine
 10
488.0166869478535
 20
287.3928947185351
 30
0.0
 11
488.0166869478535
 21
269.5402643239442
 31
0.0
  0
ARC
  5
72A
330
18
100
AcDbEntity
  8
1
  6
Continuous
100
AcDbCircle
 10
508.5583589478535
 20
281.0402643239441
 30
0.0
 40
23.541666
100
AcDbArc
 50
154.7944138678657
 51
209.2417950000005
  0
LINE
  5
72D
330
18
100
AcDbEntity
  8
1
  6
Continuous
100
AcDbLine
 10
551.0166869478536
 20
282.6896394447446
 30
0.0
 11
551.0166869478536
 21
264.0402643239443
 31
0.0
  0
LINE
  5
72E
330
18
100
AcDbEntity
  8
1
  6
Continuous
100
AcDbLine
 10
548.0166869478535
 20
315.3021736604993
 30
0.0
 11
548.0166869478535
 21
264.0402643239443
 31
0.0
  0
LINE
  5
72F
330
18
100
AcDbEntity
  8
1
  6
Continuous
100
AcDbLine
 10
489.0166869478536
 20
282.6896394447441
 30
0.0
 11
489.0166869478536
 21
264.0402643239443
 31
0.0
  0
LINE
  5
73A
330
18
100
AcDbEntity
  8
4
  6
CENTER
 48
0.5
100
AcDbLine
 10
520.0166869478533
 20
392.6875733239443
 30
0.0
 11
520.0166869478533
 21
212.7748888442702
 31
0.0
  0
LINE
  5
740
330
18
100
AcDbEntity
  8
1
  6
Continuous
100
AcDbLine
 10
551.0166869478536
 20
264.0402643239443
 30
0.0
 11
548.0166869478535
 21
264.0402643239443
 31
0.0
  0
LINE
  5
750
330
18
100
AcDbEntity
  8
1
  6
Continuous
100
AcDbLine
 10
492.0166869478533
 20
264.0402643239443
 30
0.0
 11
489.0166869478536
 21
264.0402643239443
 31
0.0
  0
LINE
  5
753
330
18
100
AcDbEntity
  8
1
  6
Continuous
100
AcDbLine
 10
489.0166869478536
 20
269.5402643239442
 30
0.0
 11
488.0166869478535
 21
269.5402643239442
 31
0.0
  0
LINE
  5
754
330
18
100
AcDbEntity
  8
1
  6
Continuous
100
AcDbLine
 10
482.5167209478534
 20
376.0402643239441
 30
0.0
 11
484.5167209478534
 21
374.5402643239441
 31
0.0
  0
ARC
  5
755
330
18
100
AcDbEntity
  8
1
  6
Continuous
100
AcDbCircle
 10
484.0166869478535
 20
372.5402573239441
 30
0.0
 40
1.0
100
AcDbArc
 50
179.9999859999998
 51
270.0000229999997
  0
LINE
  5
756
330
18
100
AcDbEntity
  8
1
  6
Continuous
100
AcDbLine
 10
485.1037989478536
 20
380.0402763239441
 30
0.0
 11
482.5166789478534
 21
376.0402813239443
 31
0.0
  0
ARC
  5
757
330
18
100
AcDbEntity
  8
1
  6
Continuous
100
AcDbCircle
 10
665.8954099478535
 20
326.0402643239442
 30
0.0
 40
182.028732
100
AcDbArc
 50
180.0
 51
193.5498518943369
  0
LINE
  5
758
330
18
100
AcDbEntity
  8
1
  6
Continuous
100
AcDbLine
 10
571.0166869478532
 20
382.5402643239441
 30
0.0
 11
469.0166869478537
 21
382.5402643239441
 31
0.0
  0
LINE
  5
759
330
18
100
AcDbEntity
  8
1
  6
Continuous
100
AcDbLine
 10
571.0166869478532
 20
386.5402643239441
 30
0.0
 11
469.0166869478537
 21
386.5402643239441
 31
0.0
  0
LINE
  5
75B
330
18
100
AcDbEntity
  8
4
  6
CENTER
 48
0.5
100
AcDbLine
 10
561.1666809478536
 20
354.5402573239441
 30
0.0
 11
478.8666929478536
 21
354.5402573239441
 31
0.0
  0
LINE
  5
75C
330
18
100
AcDbEntity
  8
4
  6
CENTER
 48
0.5
100
AcDbLine
 10
561.1666809478536
 20
351.5402723239442
 30
0.0
 11
478.8666929478536
 21
351.5402723239442
 31
0.0
  0
LINE
  5
75D
330
18
100
AcDbEntity
  8
4
  6
CENTER
 48
0.5
100
AcDbLine
 10
561.1666809478536
 20
337.2727283239441
 30
0.0
 11
478.8666929478536
 21
337.2727283239441
 31
0.0
  0
LINE
  5
75E
330
18
100
AcDbEntity
  8
4
  6
CENTER
 48
0.5
100
AcDbLine
 10
479.9619689478537
 20
281.0402643239441
 30
0.0
 11
570.0166869478533
 21
281.0402643239441
 31
0.0
  0
LINE
  5
75F
330
18
100
AcDbEntity
  8
1
  6
Continuous
100
AcDbLine
 10
557.0166869478534
 20
372.5402643239441
 30
0.0
 11
483.0166869478532
 21
372.5402643239441
 31
0.0
  0
LINE
  5
760
330
18
100
AcDbEntity
  8
1
  6
Continuous
100
AcDbLine
 10
557.5166869478533
 20
376.0402643239441
 30
0.0
 11
482.5166719478537
 21
376.0402643239441
 31
0.0
  0
LINE
  5
761
330
18
100
AcDbEntity
  8
1
  6
Continuous
100
AcDbLine
 10
557.7705319478534
 20
380.0402643239441
 30
0.0
 11
482.3897029478533
 21
380.0402643239441
 31
0.0
  0
LINE
  5
762
330
18
100
AcDbEntity
  8
4
  6
CENTER
 48
0.5
100
AcDbLine
 10
561.1666809478536
 20
358.5402723239443
 30
0.0
 11
478.8666929478536
 21
358.5402723239443
 31
0.0
  0
LINE
  5
765
330
18
100
AcDbEntity
  8
1
  6
Continuous
100
AcDbLine
 10
483.8666929478537
 20
368.1902513239441
 30
0.0
 11
483.8666929478537
 21
325.9657323239442
 31
0.0
  0
LINE
  5
76D
330
18
100
AcDbEntity
  8
1
  6
Continuous
100
AcDbLine
 10
556.1666809478536
 20
368.1902513239441
 30
0.0
 11
556.1666809478536
 21
325.9657323239442
 31
0.0
  0
LINE
  5
777
330
18
100
AcDbEntity
  8
1
  6
Continuous
100
AcDbLine
 10
545.5166869478536
 20
323.3547943239441
 30
0.0
 11
539.0166869478535
 21
323.3547943239441
 31
0.0
  0
ARC
  5
77A
330
18
100
AcDbEntity
  8
1
  6
Continuous
100
AcDbCircle
 10
374.1379639478537
 20
326.0402643239442
 30
0.0
 40
182.028732
100
AcDbArc
 50
346.4501481056629
 51
0.0000360000000476
  0
LINE
  5
77B
330
18
100
AcDbEntity
  8
1
  6
Continuous
100
AcDbLine
 10
554.0166869478536
 20
291.5402643239443
 30
0.0
 11
554.0166869478536
 21
270.5402643239442
 31
0.0
  0
ARC
  5
77C
330
18
100
AcDbEntity
  8
1
  6
Continuous
100
AcDbCircle
 10
557.6500179478536
 20
289.2675063239441
 30
0.0
 40
3.633333
100
AcDbArc
 50
130.992734
 51
229.007266
  0
ARC
  5
77D
330
18
100
AcDbEntity
  8
1
  6
Continuous
100
AcDbCircle
 10
557.3833559478535
 20
289.2675063239441
 30
0.0
 40
3.633333
100
AcDbArc
 50
310.9927320000001
 51
49.0072719999998
  0
ARC
  5
77E
330
18
100
AcDbEntity
  8
1
  6
Continuous
100
AcDbCircle
 10
557.3833559478535
 20
272.8130233239443
 30
0.0
 40
3.633333
100
AcDbArc
 50
310.9927320000001
 51
49.0072719999998
  0
ARC
  5
77F
330
18
100
AcDbEntity
  8
1
  6
Continuous
100
AcDbCircle
 10
548.3583619478535
 20
281.0402643239441
 30
0.0
 40
12.65833399999999
100
AcDbArc
 50
334.3229780000006
 51
25.67702600000053
  0
LINE
  5
780
330
18
100
AcDbEntity
  8
1
  6
Continuous
100
AcDbLine
 10
565.0166869478534
 20
286.2902643239442
 30
0.0
 11
565.0166869478534
 21
275.7902643239442
 31
0.0
  0
LINE
  5
781
330
18
100
AcDbEntity
  8
1
  6
Continuous
100
AcDbLine
 10
564.2666869478536
 20
287.0402643239442
 30
0.0
 11
564.2666869478536
 21
275.0402643239441
 31
0.0
  0
LINE
  5
782
330
18
100
AcDbEntity
  8
1
  6
Continuous
100
AcDbLine
 10
561.0166869478534
 20
289.2675063239441
 30
0.0
 11
561.0166869478534
 21
272.8130233239443
 31
0.0
  0
LINE
  5
783
330
18
100
AcDbEntity
  8
1
  6
Continuous
100
AcDbLine
 10
564.2666869478536
 20
275.0402643239441
 30
0.0
 11
561.0166869478534
 21
275.0402643239441
 31
0.0
  0
LINE
  5
784
330
18
100
AcDbEntity
  8
2
  6
Continuous
100
AcDbLine
 10
565.0166869478534
 20
275.7902643239442
 30
0.0
 11
561.0166869478534
 21
275.7902643239442
 31
0.0
  0
LINE
  5
785
330
18
100
AcDbEntity
  8
1
  6
Continuous
100
AcDbLine
 10
565.0166869478534
 20
275.7902643239442
 30
0.0
 11
564.2666869478536
 21
275.0402643239441
 31
0.0
  0
LINE
  5
786
330
18
100
AcDbEntity
  8
1
  6
Continuous
100
AcDbLine
 10
564.2666869478536
 20
287.0402643239442
 30
0.0
 11
561.0166869478534
 21
287.0402643239442
 31
0.0
  0
LINE
  5
787
330
18
100
AcDbEntity
  8
2
  6
Continuous
100
AcDbLine
 10
565.0166869478534
 20
286.2902643239442
 30
0.0
 11
561.0166869478534
 21
286.2902643239442
 31
0.0
  0
LINE
  5
788
330
18
100
AcDbEntity
  8
1
  6
Continuous
100
AcDbLine
 10
565.0166869478534
 20
286.2902643239442
 30
0.0
 11
564.2666869478536
 21
287.0402643239442
 31
0.0
  0
ARC
  5
789
330
18
100
AcDbEntity
  8
1
  6
Continuous
100
AcDbCircle
 10
566.6750119478535
 20
281.0402643239441
 30
0.0
 40
12.65833399999999
100
AcDbArc
 50
154.3229730000001
 51
205.6770270000007
  0
LINE
  5
78A
330
18
100
AcDbEntity
  8
1
  6
Continuous
100
AcDbLine
 10
551.0166869478536
 20
270.5402643239442
 30
0.0
 11
554.0166869478536
 21
270.5402643239442
 31
0.0
  0
ARC
  5
78B
330
18
100
AcDbEntity
  8
1
  6
Continuous
100
AcDbCircle
 10
557.6500179478536
 20
272.8130233239443
 30
0.0
 40
3.633333
100
AcDbArc
 50
130.992734
 51
229.007266
  0
LINE
  5
78C
330
18
100
AcDbEntity
  8
1
  6
Continuous
100
AcDbLine
 10
559.7666869478533
 20
270.0706073239443
 30
0.0
 11
555.2666869478533
 21
270.0706073239443
 31
0.0
  0
LINE
  5
78D
330
18
100
AcDbEntity
  8
1
  6
Continuous
100
AcDbLine
 10
559.7666869478533
 20
275.5554393239443
 30
0.0
 11
555.2666869478533
 21
275.5554393239443
 31
0.0
  0
LINE
  5
78F
330
18
100
AcDbEntity
  8
1
  6
Continuous
100
AcDbLine
 10
559.7666869478533
 20
286.5250903239443
 30
0.0
 11
555.2666869478533
 21
286.5250903239443
 31
0.0
  0
LINE
  5
791
330
18
100
AcDbEntity
  8
1
  6
Continuous
100
AcDbLine
 10
552.8673942986713
 20
291.5402643239443
 30
0.0
 11
554.0166869478536
 21
291.5402643239443
 31
0.0
  0
LINE
  5
792
330
18
100
AcDbEntity
  8
1
  6
Continuous
100
AcDbLine
 10
559.7666869478533
 20
292.0099223239441
 30
0.0
 11
555.2666869478533
 21
292.0099223239441
 31
0.0
  0
ARC
  5
797
330
18
100
AcDbEntity
  8
1
  6
Continuous
100
AcDbCircle
 10
545.5166869478536
 20
325.3547943239441
 30
0.0
 40
2.0
100
AcDbArc
 50
269.9999719999996
 51
275.1948419090276
  0
LINE
  5
7A8
330
18
100
AcDbEntity
  8
1
  6
Continuous
100
AcDbLine
 10
501.0166869478537
 20
312.0966993239441
 30
0.0
 11
492.0166869478533
 21
312.0966993239442
 31
0.0
  0
ARC
  5
7BF
330
18
100
AcDbEntity
  8
1
  6
Continuous
100
AcDbCircle
 10
538.0166869478535
 20
334.0595173239441
 30
0.0
 40
2.0
100
AcDbArc
 50
300.0000000000005
 51
0.0000219999999413
  0
LINE
  5
7C3
330
18
100
AcDbEntity
  8
1
  6
Continuous
100
AcDbLine
 10
542.0166869478533
 20
334.9973153239441
 30
0.0
 11
542.0166869478533
 21
331.8274353239441
 31
0.0
  0
LINE
  5
7C7
330
18
100
AcDbEntity
  8
1
  6
Continuous
100
AcDbLine
 10
543.2627550694997
 20
331.8274353239441
 30
0.0
 11
542.0166869478533
 21
331.8274353239441
 31
0.0
  0
LINE
  5
7CA
330
18
100
AcDbEntity
  8
1
  6
Continuous
100
AcDbLine
 10
542.0166869478533
 20
334.9973153239441
 30
0.0
 11
538.6803087863694
 21
334.9973153239441
 31
0.0
  0
LINE
  5
7CB
330
18
100
AcDbEntity
  8
1
  6
Continuous
100
AcDbLine
 10
541.9863042388214
 20
336.2473153239443
 30
0.0
 11
538.3917232418711
 21
336.2473153239443
 31
0.0
  0
LINE
  5
7CC
330
18
100
AcDbEntity
  8
1
  6
Continuous
100
AcDbLine
 10
540.0166869478534
 20
334.9973153239441
 30
0.0
 11
540.0166869478534
 21
334.0595173239441
 31
0.0
  0
LINE
  5
7E9
330
18
100
AcDbEntity
  8
1
  6
Continuous
100
AcDbLine
 10
556.0166869478536
 20
371.5402643239441
 30
0.0
 11
484.0166869478535
 21
371.5402643239441
 31
0.0
  0
LINE
  5
7EA
330
18
100
AcDbEntity
  8
1
  6
Continuous
100
AcDbLine
 10
555.5166869478535
 20
374.5402643239441
 30
0.0
 11
484.5167179478536
 21
374.5402643239441
 31
0.0
  0
LINE
  5
7EB
330
18
100
AcDbEntity
  8
1
  6
Continuous
100
AcDbLine
 10
554.9296029478536
 20
380.0402973239441
 30
0.0
 11
557.5167229478536
 21
376.0403013239441
 31
0.0
  0
ARC
  5
7F9
330
18
100
AcDbEntity
  8
1
  6
Continuous
100
AcDbCircle
 10
550.1666809478535
 20
368.1902513239441
 30
0.0
 40
6.0
100
AcDbArc
 50
0.0000500000001538
 51
33.94063900000034
  0
LINE
  5
7FA
330
18
100
AcDbEntity
  8
1
  6
Continuous
100
AcDbLine
 10
557.5167029478536
 20
376.0402763239441
 30
0.0
 11
555.5167039478534
 21
374.5402763239441
 31
0.0
  0
LINE
  5
7FB
330
18
100
AcDbEntity
  8
1
  6
Continuous
100
AcDbLine
 10
556.0167019478534
 20
372.5402903239441
 30
0.0
 11
554.0166989478533
 21
374.5402923239442
 31
0.0
  0
ARC
  5
7FC
330
18
100
AcDbEntity
  8
1
  6
Continuous
100
AcDbCircle
 10
556.0166869478536
 20
372.5402723239441
 30
0.0
 40
1.0
100
AcDbArc
 50
269.9999719999996
 51
0.0000090000004243
  0
ARC
  5
7FD
330
18
100
AcDbEntity
  8
1
  6
Continuous
100
AcDbCircle
 10
557.6436709478533
 20
385.0386703239442
 30
0.0
 40
5.0
100
AcDbArc
 50
268.5460119999995
 51
330.0212939999994
  0
LINE
  5
7FE
330
18
100
AcDbEntity
  8
1
  6
Continuous
100
AcDbLine
 10
571.0166869478532
 20
382.5402643239441
 30
0.0
 11
571.0166869478532
 21
386.5402643239441
 31
0.0
  0
LINE
  5
7FF
330
18
100
AcDbEntity
  8
4
  6
CENTER
 48
0.5
100
AcDbLine
 10
557.5166869478537
 20
391.5402643239441
 30
0.0
 11
557.5166869478533
 21
377.5402643239443
 31
0.0
  0
LINE
  5
800
330
18
100
AcDbEntity
  8
4
  6
CENTER
 48
0.5
100
AcDbLine
 10
560.0166869478536
 20
391.5402643239441
 30
0.0
 11
560.0166869478534
 21
377.5402643239443
 31
0.0
  0
LINE
  5
81A
330
18
100
AcDbEntity
  8
1
  6
Continuous
100
AcDbLine
 10
484.0166809478533
 20
372.5402813239443
 30
0.0
 11
486.0166659478533
 21
374.5402673239441
 31
0.0
  0
ARC
  5
81B
330
18
100
AcDbEntity
  8
1
  6
Continuous
100
AcDbCircle
 10
489.8666929478535
 20
368.1902513239441
 30
0.0
 40
6.0
100
AcDbArc
 50
146.0593970000005
 51
179.9999859999998
  0
LINE
  5
81D
330
18
100
AcDbEntity
  8
4
  6
CENTER
 48
0.5
100
AcDbLine
 10
480.0166869478533
 20
391.5402643239441
 30
0.0
 11
480.0166869478537
 21
377.5402643239443
 31
0.0
  0
LINE
  5
81E
330
18
100
AcDbEntity
  8
4
  6
CENTER
 48
0.5
100
AcDbLine
 10
482.5166869478533
 20
391.5402643239441
 30
0.0
 11
482.5166869478533
 21
377.5402643239443
 31
0.0
  0
ARC
  5
81F
330
18
100
AcDbEntity
  8
1
  6
Continuous
100
AcDbCircle
 10
482.3897029478533
 20
385.0386393239441
 30
0.0
 40
5.0
100
AcDbArc
 50
209.9786970000002
 51
271.4539789999999
  0
LINE
  5
820
330
18
100
AcDbEntity
  8
1
  6
Continuous
100
AcDbLine
 10
469.0166869478537
 20
382.5402643239441
 30
0.0
 11
469.0166869478537
 21
386.5402643239441
 31
0.0
  0
LINE
  5
97B
330
18
100
AcDbEntity
  8
1
  6
Continuous
100
AcDbLine
 10
375.8417498729676
 20
54.72889488752196
 30
0.0
 11
373.3417358729675
 21
57.22890888752203
 31
0.0
  0
ARC
  5
97C
330
18
100
AcDbEntity
  8
1
  6
Continuous
100
AcDbCircle
 10
377.2308208729676
 20
61.11796688752201
 30
0.0
 40
5.5
100
AcDbArc
 50
44.99992599999997
 51
224.9999999999993
  0
LINE
  5
97D
330
18
100
AcDbEntity
  8
1
  6
Continuous
100
AcDbLine
 10
299.7308398729676
 20
47.61796688752201
 30
0.0
 11
379.7308058729676
 21
47.61796688752201
 31
0.0
  0
LINE
  5
97E
330
18
100
AcDbEntity
  8
1
  6
Continuous
100
AcDbLine
 10
375.8417268729676
 20
142.5070448875219
 30
0.0
 11
373.3417238729677
 21
140.007042887522
 31
0.0
  0
ARC
  5
97F
330
18
100
AcDbEntity
  8
1
  6
Continuous
100
AcDbCircle
 10
377.2308208729676
 20
136.1179668875219
 30
0.0
 40
5.5
100
AcDbArc
 50
134.9999629999999
 51
315.0000359999996
  0
LINE
  5
980
330
18
100
AcDbEntity
  8
1
  6
Continuous
100
AcDbLine
 10
299.7308398729676
 20
149.6179668875219
 30
0.0
 11
379.7308058729676
 21
149.6179668875219
 31
0.0
  0
LINE
  5
982
330
18
100
AcDbEntity
  8
4
  6
CENTER
 48
0.5
100
AcDbLine
 10
195.7626288729676
 20
98.617966887522
 30
0.0
 11
395.7308208729675
 21
98.61796688752214
 31
0.0
  0
LINE
  5
983
330
18
100
AcDbEntity
  8
4
  6
CENTER
 48
0.5
100
AcDbLine
 10
373.7308208729676
 20
138.6179668875219
 30
0.0
 11
385.7308208729676
 21
138.6179668875219
 31
0.0
  0
LINE
  5
984
330
18
100
AcDbEntity
  8
4
  6
CENTER
 48
0.5
100
AcDbLine
 10
371.2308208729676
 20
136.1179668875219
 30
0.0
 11
383.2308208729675
 21
136.1179668875219
 31
0.0
  0
LINE
  5
985
330
18
100
AcDbEntity
  8
4
  6
CENTER
 48
0.5
100
AcDbLine
 10
373.7308208729676
 20
58.61796688752201
 30
0.0
 11
385.7308208729676
 21
58.61796688752201
 31
0.0
  0
LINE
  5
986
330
18
100
AcDbEntity
  8
4
  6
CENTER
 48
0.5
100
AcDbLine
 10
371.2308208729676
 20
61.11796688752201
 30
0.0
 11
383.2308208729675
 21
61.11796688752201
 31
0.0
  0
LINE
  5
98A
330
18
100
AcDbEntity
  8
1
  6
Continuous
100
AcDbLine
 10
251.0308318729676
 20
70.6179676205603
 30
0.0
 11
259.0308318729676
 21
70.6179673587609
 31
0.0
  0
ARC
  5
98B
330
18
100
AcDbEntity
  8
1
  6
Continuous
100
AcDbCircle
 10
252.5308318729676
 20
70.61796688752213
 30
0.0
 40
1.5
100
AcDbArc
 50
179.9999720000006
 51
270.0000219999999
  0
LINE
  5
98C
330
18
100
AcDbEntity
  8
1
  6
Continuous
100
AcDbLine
 10
237.8688820002228
 20
71.11796688752201
 30
0.0
 11
270.5308278729676
 21
71.11796688752213
 31
0.0
  0
ARC
  5
98D
330
18
100
AcDbEntity
  8
1
  6
Continuous
100
AcDbCircle
 10
255.0308318729676
 20
121.367966887522
 30
0.0
 40
7.25
100
AcDbArc
 50
46.39718200000074
 51
133.6028180000001
  0
LINE
  5
98E
330
18
100
AcDbEntity
  8
1
  6
Continuous
100
AcDbLine
 10
260.0308288729676
 20
126.6179668875219
 30
0.0
 11
250.0308288729676
 21
126.6179668875219
 31
0.0
  0
LINE
  5
98F
330
18
100
AcDbEntity
  8
1
  6
Continuous
100
AcDbLine
 10
237.8688820002226
 20
126.1179668875219
 30
0.0
 11
293.2307938729676
 21
126.117966887522
 31
0.0
  0
LINE
  5
991
330
18
100
AcDbEntity
  8
1
  6
Continuous
100
AcDbLine
 10
200.7626288729676
 20
91.61796688752202
 30
0.0
 11
200.7626288729676
 21
73.61796688752213
 31
0.0
  0
LINE
  5
993
330
18
100
AcDbEntity
  8
1
  6
Continuous
100
AcDbLine
 10
204.2126988729676
 20
93.11796688752199
 30
0.0
 11
204.2126988729676
 21
92.61796688752202
 31
0.0
  0
LINE
  5
995
330
18
100
AcDbEntity
  8
4
  6
CENTER
 48
0.5
100
AcDbLine
 10
245.0130218729678
 20
64.11796688752201
 30
0.0
 11
245.0130218729678
 21
133.6179450217209
 31
0.0
  0
ARC
  5
997
330
18
100
AcDbEntity
  8
1
  6
Continuous
100
AcDbCircle
 10
238.1904978729675
 20
118.6179668875219
 30
0.0
 40
5.0
100
AcDbArc
 50
90.00000000000005
 51
107.0535762440394
  0
LINE
  5
999
330
18
100
AcDbEntity
  8
1
  6
Continuous
100
AcDbLine
 10
218.5950278729674
 20
122.617966887522
 30
0.0
 11
218.5950278729674
 21
104.617966887522
 31
0.0
  0
LINE
  5
99B
330
18
100
AcDbEntity
  8
1
  6
Continuous
100
AcDbLine
 10
219.5950278729674
 20
123.617966887522
 30
0.0
 11
225.4742098729674
 21
123.617966887522
 31
0.0
  0
ARC
  5
99C
330
18
100
AcDbEntity
  8
1
  6
Continuous
100
AcDbCircle
 10
219.5950278729674
 20
122.617966887522
 30
0.0
 40
1.0
100
AcDbArc
 50
90.00000000000005
 51
180.0000000000006
  0
LINE
  5
99D
330
18
100
AcDbEntity
  8
1
  6
Continuous
100
AcDbLine
 10
227.206351774986
 20
128.6179668875218
 30
0.0
 11
236.2241688729674
 21
128.6179668875218
 31
0.0
  0
ARC
  5
99E
330
18
100
AcDbEntity
  8
1
  6
Continuous
100
AcDbCircle
 10
231.6420998324138
 20
121.2728796081452
 30
0.0
 40
8.656658671985146
100
AcDbArc
 50
122.9440126556984
 51
164.2821815859179
  0
ARC
  5
99F
330
18
100
AcDbEntity
  8
1
  6
Continuous
100
AcDbCircle
 10
227.206351774986
 20
128.1179668875219
 30
0.0
 40
0.5
100
AcDbArc
 50
90.00000000000005
 51
122.9440126557014
  0
ARC
  5
9A0
330
18
100
AcDbEntity
  8
1
  6
Continuous
100
AcDbCircle
 10
245.0308278729675
 20
121.3679668875219
 30
0.0
 40
7.25
100
AcDbArc
 50
46.39718200000074
 51
133.6028180000001
  0
LINE
  5
9A2
330
18
100
AcDbEntity
  8
1
  6
Continuous
100
AcDbLine
 10
250.0308248729675
 20
126.6179668875219
 30
0.0
 11
240.0308248729674
 21
126.6179668875219
 31
0.0
  0
LINE
  5
9A4
330
18
100
AcDbEntity
  8
1
  6
Continuous
100
AcDbLine
 10
236.7241688729674
 20
128.1179668875219
 30
0.0
 11
236.7241688729674
 21
120.6179668875219
 31
0.0
  0
ARC
  5
9A5
330
18
100
AcDbEntity
  8
1
  6
Continuous
100
AcDbCircle
 10
236.2241688729674
 20
128.1179668875219
 30
0.0
 40
0.5
100
AcDbArc
 50
0.0
 51
90.00000000000005
  0
LINE
  5
9A6
330
18
100
AcDbEntity
  8
1
  6
Continuous
100
AcDbLine
 10
242.5308278729674
 20
123.6179668875219
 30
0.0
 11
242.5308278729676
 21
123.6179668875219
 31
0.0
  0
LINE
  5
9A7
330
18
100
AcDbEntity
  8
1
  6
Continuous
100
AcDbLine
 10
240.0308278729674
 20
123.6179668875219
 30
0.0
 11
240.0308278729674
 21
123.6179668875219
 31
0.0
  0
LINE
  5
9A8
330
18
100
AcDbEntity
  8
1
  6
Continuous
100
AcDbLine
 10
240.0308278729674
 20
126.1179668875219
 30
0.0
 11
240.0308278729674
 21
126.6179668875219
 31
0.0
  0
LINE
  5
9A9
330
18
100
AcDbEntity
  8
1
  6
Continuous
100
AcDbLine
 10
237.8688820002226
 20
126.1179668875219
 30
0.0
 11
237.8688820002226
 21
123.6076124892052
 31
0.0
  0
LINE
  5
9AA
330
18
100
AcDbEntity
  8
1
  6
Continuous
100
AcDbLine
 10
238.1904978729675
 20
123.6179668875219
 30
0.0
 11
244.285221935267
 21
123.6179668875219
 31
0.0
  0
LINE
  5
9AB
330
18
100
AcDbEntity
  8
1
  6
Continuous
100
AcDbLine
 10
250.0308278729675
 20
126.1179668875219
 30
0.0
 11
250.0308278729675
 21
126.6179668875219
 31
0.0
  0
LINE
  5
9AC
330
18
100
AcDbEntity
  8
1
  6
Continuous
100
AcDbLine
 10
250.0308318729675
 20
126.1179668875219
 30
0.0
 11
250.0308318729675
 21
126.6179668875219
 31
0.0
  0
LINE
  5
9AD
330
18
100
AcDbEntity
  8
1
  6
Continuous
100
AcDbLine
 10
219.5950278729674
 20
103.6179668875219
 30
0.0
 11
225.4742098729674
 21
103.6179668875219
 31
0.0
  0
LINE
  5
9AE
330
18
100
AcDbEntity
  8
1
  6
Continuous
100
AcDbLine
 10
207.2126988729675
 20
96.117966887522
 30
0.0
 11
230.1904978729675
 21
96.117966887522
 31
0.0
  0
ARC
  5
9AF
330
18
100
AcDbEntity
  8
1
  6
Continuous
100
AcDbCircle
 10
219.5950278729674
 20
104.617966887522
 30
0.0
 40
1.0
100
AcDbArc
 50
180.0
 51
270.0
  0
ARC
  5
9B0
330
18
100
AcDbEntity
  8
1
  6
Continuous
100
AcDbCircle
 10
207.2126988729675
 20
93.11796688752199
 30
0.0
 40
3.0
100
AcDbArc
 50
90.00000000000005
 51
180.0
  0
ARC
  5
9B1
330
18
100
AcDbEntity
  8
1
  6
Continuous
100
AcDbCircle
 10
201.7626288729676
 20
91.61796688752202
 30
0.0
 40
1.0
100
AcDbArc
 50
90.00000000000005
 51
180.0
  0
LINE
  5
9B2
330
18
100
AcDbEntity
  8
1
  6
Continuous
100
AcDbLine
 10
201.7626288729676
 20
92.61796688752212
 30
0.0
 11
204.8597508729676
 21
92.61796688752202
 31
0.0
  0
ARC
  5
9B3
330
18
100
AcDbEntity
  8
1
  6
Continuous
100
AcDbCircle
 10
231.6420998324138
 20
105.9630541668987
 30
0.0
 40
8.656658671985146
100
AcDbArc
 50
195.7178184140819
 51
238.0477983588831
  0
LINE
  5
9B5
330
18
100
AcDbEntity
  8
1
  6
Continuous
100
AcDbLine
 10
237.5515506348674
 20
98.617966887522
 30
0.0
 11
227.0608955997264
 21
98.61796688752214
 31
0.0
  0
ARC
  5
9B6
330
18
100
AcDbEntity
  8
1
  6
Continuous
100
AcDbCircle
 10
230.1904978729675
 20
99.11796688752213
 30
0.0
 40
3.0
100
AcDbArc
 50
270.0
 51
350.4059317731378
  0
LINE
  5
9B7
330
18
100
AcDbEntity
  8
1
  6
Continuous
100
AcDbLine
 10
207.2126988729674
 20
69.11796688752201
 30
0.0
 11
230.6904978729675
 21
69.11796688752201
 31
0.0
  0
ARC
  5
9B8
330
18
100
AcDbEntity
  8
1
  6
Continuous
100
AcDbCircle
 10
207.2126988729674
 20
72.11796688752201
 30
0.0
 40
3.0
100
AcDbArc
 50
180.0
 51
270.0
  0
ARC
  5
9B9
330
18
100
AcDbEntity
  8
1
  6
Continuous
100
AcDbCircle
 10
201.7626288729676
 20
73.61796688752213
 30
0.0
 40
1.0
100
AcDbArc
 50
180.0
 51
270.0
  0
LINE
  5
9BA
330
18
100
AcDbEntity
  8
1
  6
Continuous
100
AcDbLine
 10
201.7626288729676
 20
72.61796688752202
 30
0.0
 11
204.8597508729674
 21
72.61796688752202
 31
0.0
  0
ARC
  5
9BB
330
18
100
AcDbEntity
  8
1
  6
Continuous
100
AcDbCircle
 10
235.9973414904356
 20
70.78129891808591
 30
0.0
 40
2.928887909087888
100
AcDbArc
 50
75.58399794750581
 51
163.401658260695
  0
ARC
  5
9BC
330
18
100
AcDbEntity
  8
1
  6
Continuous
100
AcDbCircle
 10
230.6904978729675
 20
71.61796688752213
 30
0.0
 40
2.5
100
AcDbArc
 50
270.0
 51
0.0
  0
ARC
  5
9BD
330
18
100
AcDbEntity
  8
1
  6
Continuous
100
AcDbCircle
 10
247.5130248729676
 20
70.61796688752202
 30
0.0
 40
1.5
100
AcDbArc
 50
270.0000359999999
 51
0.0000180000000343
  0
ARC
  5
9BE
330
18
100
AcDbEntity
  8
1
  6
Continuous
100
AcDbCircle
 10
242.5130248729673
 20
70.61796688752202
 30
0.0
 40
1.5
100
AcDbArc
 50
179.9999720000006
 51
270.0000219999999
  0
LINE
  5
9BF
330
18
100
AcDbEntity
  8
1
  6
Continuous
100
AcDbLine
 10
241.0130248729676
 20
70.6179676205603
 30
0.0
 11
249.0130248729676
 21
70.61796735876078
 31
0.0
  0
LINE
  5
9C0
330
18
100
AcDbEntity
  8
1
  6
Continuous
100
AcDbLine
 10
247.5130218729674
 20
69.11796688752201
 30
0.0
 11
242.5130218729676
 21
69.11796688752201
 31
0.0
  0
LINE
  5
9C1
330
18
100
AcDbEntity
  8
1
  6
Continuous
100
AcDbLine
 10
242.5130248729673
 20
70.61796688752202
 30
0.0
 11
242.5130248729673
 21
71.11796688752201
 31
0.0
  0
LINE
  5
9C2
330
18
100
AcDbEntity
  8
1
  6
Continuous
100
AcDbLine
 10
237.8688820002228
 20
73.61796688752201
 30
0.0
 11
237.8688820002228
 21
71.11796688752201
 31
0.0
  0
ARC
  5
9C3
330
18
100
AcDbEntity
  8
1
  6
Continuous
100
AcDbCircle
 10
241.2135539293871
 20
76.04762202007883
 30
0.0
 40
5.102617991617603
100
AcDbArc
 50
208.4348092789237
 51
229.0438265956368
  0
LINE
  5
9C5
330
18
100
AcDbEntity
  8
1
  6
Continuous
100
AcDbLine
 10
247.5130248729676
 20
70.61796688752202
 30
0.0
 11
247.5130248729676
 21
71.11796688752201
 31
0.0
  0
LINE
  5
9C9
330
18
100
AcDbEntity
  8
1
  6
Continuous
100
AcDbLine
 10
273.0308238729676
 20
73.61796688752213
 30
0.0
 11
273.0308238729676
 21
79.61796688752213
 31
0.0
  0
LINE
  5
9CA
330
18
100
AcDbEntity
  8
1
  6
Continuous
100
AcDbLine
 10
288.7308398729676
 20
138.6179668875219
 30
0.0
 11
288.7308398729676
 21
132.0179642021889
 31
0.0
  0
LINE
  5
9CB
330
18
100
AcDbEntity
  8
4
  6
CENTER
 48
0.5
100
AcDbLine
 10
287.5308208729677
 20
60.61796688752213
 30
0.0
 11
287.5308208729677
 21
137.1179668875214
 31
0.0
  0
LINE
  5
9CC
330
18
100
AcDbEntity
  8
4
  6
CENTER
 48
0.5
100
AcDbLine
 10
270.5308208729677
 20
60.61796688752213
 30
0.0
 11
270.5308208729677
 21
137.1179668875214
 31
0.0
  0
LINE
  5
9CD
330
18
100
AcDbEntity
  8
4
  6
CENTER
 48
0.5
100
AcDbLine
 10
255.0308288729676
 20
64.11796688752201
 30
0.0
 11
255.0308288729676
 21
133.6179450217209
 31
0.0
  0
LINE
  5
9CE
330
18
100
AcDbEntity
  8
4
  6
CENTER
 48
0.5
100
AcDbLine
 10
301.7307938729676
 20
154.6179668875218
 30
0.0
 11
301.7307938729676
 21
42.61796688752201
 31
0.0
  0
LINE
  5
9CF
330
18
100
AcDbEntity
  8
4
  6
CENTER
 48
0.5
100
AcDbLine
 10
339.7308208729676
 20
154.6179668875218
 30
0.0
 11
339.7308208729676
 21
42.61796688752212
 31
0.0
  0
LINE
  5
9D1
330
18
100
AcDbEntity
  8
1
  6
Continuous
100
AcDbLine
 10
290.2307938729673
 20
130.1179668875219
 30
0.0
 11
282.5308208729676
 21
130.1179668875219
 31
0.0
  0
ARC
  5
9D2
330
18
100
AcDbEntity
  8
1
  6
Continuous
100
AcDbCircle
 10
287.5308238729676
 20
124.8679668875219
 30
0.0
 40
7.25
100
AcDbArc
 50
59.6832562993105
 51
133.6028180000001
  0
LINE
  5
9D3
330
18
100
AcDbEntity
  8
1
  6
Continuous
100
AcDbLine
 10
263.5308238729676
 20
129.6179668875218
 30
0.0
 11
315.6741672548931
 21
129.6179668875217
 31
0.0
  0
LINE
  5
9D4
330
18
100
AcDbEntity
  8
1
  6
Continuous
100
AcDbLine
 10
275.5308208729674
 20
130.1179668875219
 30
0.0
 11
265.5308208729674
 21
130.1179668875219
 31
0.0
  0
LINE
  5
9D5
330
18
100
AcDbEntity
  8
1
  6
Continuous
100
AcDbLine
 10
263.5308238729676
 20
126.6179668875219
 30
0.0
 11
315.6741672548931
 21
126.6179668875219
 31
0.0
  0
ARC
  5
9D6
330
18
100
AcDbEntity
  8
1
  6
Continuous
100
AcDbCircle
 10
270.5308238729676
 20
124.8679668875219
 30
0.0
 40
7.25
100
AcDbArc
 50
46.39718200000074
 51
133.6028180000001
  0
LINE
  5
9D7
330
18
100
AcDbEntity
  8
1
  6
Continuous
100
AcDbLine
 10
263.5308238729676
 20
129.6179668875218
 30
0.0
 11
263.5308238729676
 21
126.6179668875219
 31
0.0
  0
LINE
  5
9D8
330
18
100
AcDbEntity
  8
1
  6
Continuous
100
AcDbLine
 10
265.5308238729676
 20
129.6179668875218
 30
0.0
 11
265.5308238729676
 21
130.1179668875219
 31
0.0
  0
LINE
  5
9D9
330
18
100
AcDbEntity
  8
1
  6
Continuous
100
AcDbLine
 10
260.0308318729676
 20
126.1179668875219
 30
0.0
 11
260.0308318729676
 21
126.6179668875219
 31
0.0
  0
LINE
  5
9DB
330
18
100
AcDbEntity
  8
1
  6
Continuous
100
AcDbLine
 10
261.5015548729675
 20
123.617966887522
 30
0.0
 11
280.6327176616144
 21
123.617966887522
 31
0.0
  0
LINE
  5
9DC
330
18
100
AcDbEntity
  8
1
  6
Continuous
100
AcDbLine
 10
273.0308238729676
 20
117.6179668875219
 30
0.0
 11
273.0308238729676
 21
123.617966887522
 31
0.0
  0
LINE
  5
9DD
330
18
100
AcDbEntity
  8
1
  6
Continuous
100
AcDbLine
 10
268.0308318729676
 20
117.6179668875219
 30
0.0
 11
268.0308318729676
 21
123.617966887522
 31
0.0
  0
LINE
  5
9DE
330
18
100
AcDbEntity
  8
1
  6
Continuous
100
AcDbLine
 10
282.5308238729676
 20
129.6179668875218
 30
0.0
 11
282.5308238729676
 21
130.1179668875219
 31
0.0
  0
LINE
  5
9DF
330
18
100
AcDbEntity
  8
1
  6
Continuous
100
AcDbLine
 10
275.5308238729676
 20
129.6179668875218
 30
0.0
 11
275.5308238729676
 21
130.1179668875219
 31
0.0
  0
LINE
  5
9E1
330
18
100
AcDbEntity
  8
4
  6
CENTER
 48
0.5
100
AcDbLine
 10
299.7308208729677
 20
132.6179668875218
 30
0.0
 11
299.7308208729677
 21
144.6179668875219
 31
0.0
  0
ARC
  5
9E2
330
18
100
AcDbEntity
  8
1
  6
Continuous
100
AcDbCircle
 10
299.7308208729677
 20
138.6179668875219
 30
0.0
 40
5.5
100
AcDbArc
 50
45.0000359999997
 51
224.9999450000002
  0
ARC
  5
9E3
330
18
100
AcDbEntity
  8
1
  6
Continuous
100
AcDbCircle
 10
299.7308398729676
 20
138.6179668875219
 30
0.0
 40
11.0
100
AcDbArc
 50
89.99998199999998
 51
179.9999639999999
  0
ARC
  5
9E4
330
18
100
AcDbEntity
  8
1
  6
Continuous
100
AcDbCircle
 10
302.2308208729676
 20
136.1179668875219
 30
0.0
 40
5.5
100
AcDbArc
 50
326.2774888194861
 51
45.00000500000001
  0
LINE
  5
9E6
330
18
100
AcDbEntity
  8
1
  6
Continuous
100
AcDbLine
 10
295.8417348729676
 20
134.7288558875218
 30
0.0
 11
297.3616260963266
 21
133.2089646641628
 31
0.0
  0
LINE
  5
9E7
330
18
100
AcDbEntity
  8
4
  6
CENTER
 48
0.5
100
AcDbLine
 10
308.2308208729675
 20
136.1179668875219
 30
0.0
 11
296.2308208729676
 21
136.1179668875219
 31
0.0
  0
LINE
  5
9E8
330
18
100
AcDbEntity
  8
4
  6
CENTER
 48
0.5
100
AcDbLine
 10
305.7308208729677
 20
138.6179668875219
 30
0.0
 11
293.7308208729676
 21
138.6179668875219
 31
0.0
  0
LINE
  5
9E9
330
18
100
AcDbEntity
  8
4
  6
CENTER
 48
0.5
100
AcDbLine
 10
302.2308208729676
 20
130.1179668875219
 30
0.0
 11
302.2308208729676
 21
142.1179668875218
 31
0.0
  0
LINE
  5
9EA
330
18
100
AcDbEntity
  8
1
  6
Continuous
100
AcDbLine
 10
303.6199068729676
 20
142.5070278875219
 30
0.0
 11
306.1199088729674
 21
140.0070248875217
 31
0.0
  0
LINE
  5
9F8
330
18
100
AcDbEntity
  8
1
  6
Continuous
100
AcDbLine
 10
263.5308238729676
 20
67.61796688752212
 30
0.0
 11
315.6741672548954
 21
67.61796688752212
 31
0.0
  0
LINE
  5
9F9
330
18
100
AcDbEntity
  8
1
  6
Continuous
100
AcDbLine
 10
266.5308238729678
 20
67.11796762056042
 30
0.0
 11
274.5308238729675
 21
67.11796735876089
 31
0.0
  0
LINE
  5
9FA
330
18
100
AcDbEntity
  8
1
  6
Continuous
100
AcDbLine
 10
263.5308238729676
 20
70.61796688752213
 30
0.0
 11
315.6741672548944
 21
70.61796688752213
 31
0.0
  0
ARC
  5
9FB
330
18
100
AcDbEntity
  8
1
  6
Continuous
100
AcDbCircle
 10
268.0308238729676
 20
67.11796688752213
 30
0.0
 40
1.5
100
AcDbArc
 50
179.9999720000006
 51
270.0000219999999
  0
LINE
  5
9FC
330
18
100
AcDbEntity
  8
1
  6
Continuous
100
AcDbLine
 10
263.5308238729676
 20
70.61796688752213
 30
0.0
 11
263.5308238729676
 21
67.61796688752212
 31
0.0
  0
ARC
  5
9FD
330
18
100
AcDbEntity
  8
1
  6
Continuous
100
AcDbCircle
 10
257.5308318729676
 20
70.61796688752213
 30
0.0
 40
1.5
100
AcDbArc
 50
270.0000359999999
 51
0.0000180000000343
  0
LINE
  5
9FE
330
18
100
AcDbEntity
  8
1
  6
Continuous
100
AcDbLine
 10
257.5308288729676
 20
69.11796688752201
 30
0.0
 11
252.5308288729676
 21
69.11796688752201
 31
0.0
  0
LINE
  5
9FF
330
18
100
AcDbEntity
  8
1
  6
Continuous
100
AcDbLine
 10
252.5308318729676
 20
70.61796688752213
 30
0.0
 11
252.5308318729676
 21
71.11796688752213
 31
0.0
  0
LINE
  5
A00
330
18
100
AcDbEntity
  8
1
  6
Continuous
100
AcDbLine
 10
257.5308318729676
 20
70.61796688752213
 30
0.0
 11
257.5308318729676
 21
71.11796688752213
 31
0.0
  0
LINE
  5
A01
330
18
100
AcDbEntity
  8
1
  6
Continuous
100
AcDbLine
 10
270.5308278729676
 20
71.11796688752213
 30
0.0
 11
293.2307938729676
 21
71.11796688752213
 31
0.0
  0
LINE
  5
A02
330
18
100
AcDbEntity
  8
1
  6
Continuous
100
AcDbLine
 10
261.5015548729675
 20
73.61796688752213
 30
0.0
 11
280.6327176616144
 21
73.6179668875221
 31
0.0
  0
LINE
  5
A03
330
18
100
AcDbEntity
  8
1
  6
Continuous
100
AcDbLine
 10
268.0308238729676
 20
70.61796688752213
 30
0.0
 11
268.0308238729676
 21
71.11796688752213
 31
0.0
  0
LINE
  5
A04
330
18
100
AcDbEntity
  8
1
  6
Continuous
100
AcDbLine
 10
273.0308238729676
 20
70.61796688752213
 30
0.0
 11
273.0308238729676
 21
71.11796688752213
 31
0.0
  0
LINE
  5
A05
330
18
100
AcDbEntity
  8
1
  6
Continuous
100
AcDbLine
 10
276.6907161518199
 20
73.61796688752213
 30
0.0
 11
276.6907161518199
 21
71.11796688752201
 31
0.0
  0
ARC
  5
A06
330
18
100
AcDbEntity
  8
1
  6
Continuous
100
AcDbCircle
 10
273.0308238729676
 20
67.11796688752213
 30
0.0
 40
1.5
100
AcDbArc
 50
270.0000359999999
 51
0.0000180000000343
  0
LINE
  5
A07
330
18
100
AcDbEntity
  8
1
  6
Continuous
100
AcDbLine
 10
273.0308208729677
 20
65.61796688752213
 30
0.0
 11
268.0308208729676
 21
65.61796688752213
 31
0.0
  0
LINE
  5
A08
330
18
100
AcDbEntity
  8
1
  6
Continuous
100
AcDbLine
 10
273.0308238729676
 20
67.11796688752213
 30
0.0
 11
273.0308238729676
 21
67.61796688752212
 31
0.0
  0
LINE
  5
A09
330
18
100
AcDbEntity
  8
1
  6
Continuous
100
AcDbLine
 10
268.0308238729676
 20
67.11796688752213
 30
0.0
 11
268.0308238729676
 21
67.61796688752212
 31
0.0
  0
LINE
  5
A0A
330
18
100
AcDbEntity
  8
4
  6
CENTER
 48
0.5
100
AcDbLine
 10
299.7308208729677
 20
64.61796688752201
 30
0.0
 11
299.7308208729677
 21
52.61796688752202
 31
0.0
  0
ARC
  5
A0C
330
18
100
AcDbEntity
  8
1
  6
Continuous
100
AcDbCircle
 10
299.7308398729676
 20
58.61796688752201
 30
0.0
 40
11.0
100
AcDbArc
 50
180.000036
 51
270.0000179999999
  0
LINE
  5
A0E
330
18
100
AcDbEntity
  8
4
  6
CENTER
 48
0.5
100
AcDbLine
 10
302.2308208729676
 20
67.11796688752201
 30
0.0
 11
302.2308208729676
 21
55.11796688752212
 31
0.0
  0
LINE
  5
A10
330
18
100
AcDbEntity
  8
4
  6
CENTER
 48
0.5
100
AcDbLine
 10
308.2308208729675
 20
61.11796688752201
 30
0.0
 11
296.2308208729676
 21
61.11796688752201
 31
0.0
  0
LINE
  5
A11
330
18
100
AcDbEntity
  8
4
  6
CENTER
 48
0.5
100
AcDbLine
 10
305.7308208729677
 20
58.61796688752201
 30
0.0
 11
293.7308208729676
 21
58.61796688752201
 31
0.0
  0
LINE
  5
A12
330
18
100
AcDbEntity
  8
1
  6
Continuous
100
AcDbLine
 10
290.0308172970088
 20
65.61796688752224
 30
0.0
 11
285.0308208729677
 21
65.61796688752213
 31
0.0
  0
LINE
  5
A13
330
18
100
AcDbEntity
  8
1
  6
Continuous
100
AcDbLine
 10
283.5308238729678
 20
67.11796762056042
 30
0.0
 11
291.2307938729676
 21
67.11796762056042
 31
0.0
  0
LINE
  5
A14
330
18
100
AcDbEntity
  8
1
  6
Continuous
100
AcDbLine
 10
285.0308238729676
 20
67.11796688752213
 30
0.0
 11
285.0308238729676
 21
67.61796688752212
 31
0.0
  0
ARC
  5
A15
330
18
100
AcDbEntity
  8
1
  6
Continuous
100
AcDbCircle
 10
285.0308238729676
 20
67.11796688752213
 30
0.0
 40
1.5
100
AcDbArc
 50
179.9999720000006
 51
270.0000219999999
  0
LINE
  5
A17
330
18
100
AcDbEntity
  8
1
  6
Continuous
100
AcDbLine
 10
390.7308058729676
 20
138.6179668875219
 30
0.0
 11
390.7308058729676
 21
58.61796688752201
 31
0.0
  0
ARC
  5
A1B
330
18
100
AcDbEntity
  8
1
  6
Continuous
100
AcDbCircle
 10
379.7308208729676
 20
138.6179668875219
 30
0.0
 40
5.5
100
AcDbArc
 50
315.0000500000003
 51
134.9999460000005
  0
LINE
  5
A1C
330
18
100
AcDbEntity
  8
4
  6
CENTER
 48
0.5
100
AcDbLine
 10
379.7308208729676
 20
132.6179668875218
 30
0.0
 11
379.7308208729676
 21
144.6179668875219
 31
0.0
  0
ARC
  5
A1D
330
18
100
AcDbEntity
  8
1
  6
Continuous
100
AcDbCircle
 10
379.7308058729676
 20
138.6179668875219
 30
0.0
 40
11.0
100
AcDbArc
 50
0.0
 51
89.99998199999998
  0
LINE
  5
A1E
330
18
100
AcDbEntity
  8
1
  6
Continuous
100
AcDbLine
 10
383.6198988729676
 20
134.7288898875219
 30
0.0
 11
381.1198958729676
 21
132.2288868875219
 31
0.0
  0
LINE
  5
A1F
330
18
100
AcDbEntity
  8
4
  6
CENTER
 48
0.5
100
AcDbLine
 10
377.2308208729676
 20
130.1179668875219
 30
0.0
 11
377.2308208729676
 21
142.1179668875218
 31
0.0
  0
ARC
  5
A21
330
18
100
AcDbEntity
  8
1
  6
Continuous
100
AcDbCircle
 10
379.7308208729676
 20
58.61796688752201
 30
0.0
 40
5.5
100
AcDbArc
 50
224.9999999999993
 51
44.99989499999972
  0
LINE
  5
A22
330
18
100
AcDbEntity
  8
4
  6
CENTER
 48
0.5
100
AcDbLine
 10
379.7308208729676
 20
64.61796688752201
 30
0.0
 11
379.7308208729676
 21
52.61796688752202
 31
0.0
  0
ARC
  5
A23
330
18
100
AcDbEntity
  8
1
  6
Continuous
100
AcDbCircle
 10
379.7308058729676
 20
58.61796688752201
 30
0.0
 40
11.0
100
AcDbArc
 50
269.9999630000001
 51
359.9999450000002
  0
LINE
  5
A24
330
18
100
AcDbEntity
  8
4
  6
CENTER
 48
0.5
100
AcDbLine
 10
377.2308208729676
 20
67.11796688752201
 30
0.0
 11
377.2308208729676
 21
55.11796688752212
 31
0.0
  0
LINE
  5
A25
330
18
100
AcDbEntity
  8
1
  6
Continuous
100
AcDbLine
 10
383.6199128729676
 20
62.50705888752202
 30
0.0
 11
381.1198998729675
 21
65.00707188752187
 31
0.0
  0
LINE
  5
ACD
330
18
100
AcDbEntity
  8
1
  6
Continuous
100
AcDbLine
 10
751.3025340227392
 20
386.5402643239441
 30
0.0
 11
649.3025680227392
 21
386.5402643239441
 31
0.0
  0
LINE
  5
ACE
330
18
100
AcDbEntity
  8
1
  6
Continuous
100
AcDbLine
 10
751.3025340227392
 20
382.5402643239441
 30
0.0
 11
649.3025680227392
 21
382.5402643239441
 31
0.0
  0
LINE
  5
ACF
330
18
100
AcDbEntity
  8
1
  6
Continuous
100
AcDbLine
 10
738.0564020227392
 20
380.0402643239441
 30
0.0
 11
662.5484090227392
 21
380.0402643239441
 31
0.0
  0
LINE
  5
AD0
330
18
100
AcDbEntity
  8
1
  6
Continuous
100
AcDbLine
 10
737.8025570227393
 20
376.0402643239441
 30
0.0
 11
662.8024860227392
 21
376.0402643239441
 31
0.0
  0
LINE
  5
AD1
330
18
100
AcDbEntity
  8
1
  6
Continuous
100
AcDbLine
 10
736.3025570227392
 20
371.5402643239441
 30
0.0
 11
664.2986550227392
 21
371.5402643239441
 31
0.0
  0
LINE
  5
AD2
330
18
100
AcDbEntity
  8
1
  6
Continuous
100
AcDbLine
 10
737.3025570227392
 20
372.5402643239441
 30
0.0
 11
663.3025610227393
 21
372.5402643239441
 31
0.0
  0
ARC
  5
AD3
330
18
100
AcDbEntity
  8
1
  6
Continuous
100
AcDbCircle
 10
649.5189710227394
 20
325.3535033239442
 30
0.0
 40
30.0
100
AcDbArc
 50
35.47021299999982
 51
66.14316600000009
  0
LINE
  5
AD4
330
18
100
AcDbEntity
  8
1
  6
Continuous
100
AcDbLine
 10
664.3025340227392
 20
372.5402973239441
 30
0.0
 11
666.3025260227392
 21
374.5402883239441
 31
0.0
  0
ARC
  5
AD5
330
18
100
AcDbEntity
  8
1
  6
Continuous
100
AcDbCircle
 10
670.1525520227394
 20
368.1902513239441
 30
0.0
 40
6.0
100
AcDbArc
 50
146.0594100000003
 51
180.0
  0
LINE
  5
AD6
330
18
100
AcDbEntity
  8
1
  6
Continuous
100
AcDbLine
 10
662.8025400227392
 20
376.0402563239441
 30
0.0
 11
664.8025400227394
 21
374.5402563239441
 31
0.0
  0
LINE
  5
AD7
330
18
100
AcDbEntity
  8
1
  6
Continuous
100
AcDbLine
 10
665.3896300227393
 20
380.0402963239442
 30
0.0
 11
662.8025060227392
 21
376.0402953239442
 31
0.0
  0
LINE
  5
AD9
330
18
100
AcDbEntity
  8
4
  6
CENTER
 48
0.5
100
AcDbLine
 10
738.3025800227392
 20
213.5401843239443
 30
0.0
 11
738.3025800227392
 21
348.5401843239444
 31
0.0
  0
ARC
  5
ADA
330
18
100
AcDbEntity
  8
1
  6
Continuous
100
AcDbCircle
 10
738.8025800227392
 20
281.0401843239442
 30
0.0
 40
17.0
100
AcDbArc
 50
215.4702129999998
 51
8.621702000000706
  0
LINE
  5
AE9
330
18
100
AcDbEntity
  8
5
  6
PHANTOM
 48
0.3
100
AcDbLine
 10
793.7526820227392
 20
346.5402183239441
 30
0.0
 11
785.4521080227392
 21
340.1709633239442
 31
0.0
  0
CIRCLE
  5
AEA
330
18
100
AcDbEntity
  8
5
  6
PHANTOM
 48
0.3
100
AcDbCircle
 10
793.2714940227392
 20
331.8528143239441
 30
0.0
 40
4.0
  0
ARC
  5
AEB
330
18
100
AcDbEntity
  8
5
  6
PHANTOM
 48
0.3
100
AcDbCircle
 10
793.4098220227392
 20
331.7893983239442
 30
0.0
 40
7.0
100
AcDbArc
 50
320.3744200000006
 51
137.9168169999994
  0
LINE
  5
AEC
330
18
100
AcDbEntity
  8
5
  6
PHANTOM
 48
0.3
100
AcDbLine
 10
772.6627420227393
 20
333.3886723239442
 30
0.0
 11
791.1482090227393
 21
318.0822603239441
 31
0.0
  0
LINE
  5
AED
330
18
100
AcDbEntity
  8
4
  6
CENTER
 48
0.5
100
AcDbLine
 10
791.0025500227392
 20
353.5402423239441
 30
0.0
 11
779.0025500227392
 21
353.5402423239441
 31
0.0
  0
LINE
  5
AEE
330
18
100
AcDbEntity
  8
4
  6
CENTER
 48
0.5
100
AcDbLine
 10
805.8025800227394
 20
281.0401843239442
 30
0.0
 11
670.8025760227392
 21
281.0401843239442
 31
0.0
  0
LINE
  5
AEF
330
18
100
AcDbEntity
  8
1
  6
Continuous
100
AcDbLine
 10
774.3647970227392
 20
335.6187293239441
 30
0.0
 11
794.3664910227393
 21
322.3547843239442
 31
0.0
  0
CIRCLE
  5
AF0
330
18
100
AcDbEntity
  8
1
  6
Continuous
100
AcDbCircle
 10
785.0025500227392
 20
353.540264323944
 30
0.0
 40
4.0
  0
ARC
  5
AF1
330
18
100
AcDbEntity
  8
1
  6
Continuous
100
AcDbCircle
 10
787.0752580227392
 20
342.1032683239441
 30
0.0
 40
3.0
100
AcDbArc
 50
251.4499670000005
 51
323.9923680000001
  0
ARC
  5
AF2
330
18
100
AcDbEntity
  8
1
  6
Continuous
100
AcDbCircle
 10
785.0025580227391
 20
355.5402873239441
 30
0.0
 40
8.0
100
AcDbArc
 50
258.9789799999997
 51
345.0000349999998
  0
LINE
  5
AF3
330
18
100
AcDbEntity
  8
1
  6
Continuous
100
AcDbLine
 10
797.5025460227392
 20
366.0402423239441
 30
0.0
 11
769.5025460227392
 21
366.0402423239441
 31
0.0
  0
LINE
  5
AF4
330
18
100
AcDbEntity
  8
1
  6
Continuous
100
AcDbLine
 10
795.4378320227394
 20
363.5758973239441
 30
0.0
 11
792.7299000227392
 21
353.4697543239443
 31
0.0
  0
LINE
  5
AF5
330
18
100
AcDbEntity
  8
1
  6
Continuous
100
AcDbLine
 10
836.8559330227393
 20
359.7248983239441
 30
0.0
 11
835.1736100227393
 21
353.4463803239441
 31
0.0
  0
LINE
  5
AF6
330
18
100
AcDbEntity
  8
1
  6
Continuous
100
AcDbLine
 10
839.2707450227392
 20
359.0778713239441
 30
0.0
 11
838.2354710227394
 21
355.2141753239441
 31
0.0
  0
LINE
  5
AF7
330
18
100
AcDbEntity
  8
1
  6
Continuous
100
AcDbLine
 10
835.1736230227395
 20
353.4462843239443
 30
0.0
 11
798.4650650227393
 21
363.2823093239441
 31
0.0
  0
LINE
  5
AF8
330
18
100
AcDbEntity
  8
1
  6
Continuous
100
AcDbLine
 10
820.1884000227394
 20
315.5967023239443
 30
0.0
 11
814.5592370227394
 21
312.3467023239443
 31
0.0
  0
LINE
  5
AF9
330
18
100
AcDbEntity
  8
1
  6
Continuous
100
AcDbLine
 10
821.4383960227396
 20
313.4316363239442
 30
0.0
 11
817.9742920227393
 21
311.4316343239441
 31
0.0
  0
LINE
  5
AFA
330
18
100
AcDbEntity
  8
1
  6
Continuous
100
AcDbLine
 10
814.5591640227396
 20
312.3467043239443
 30
0.0
 11
802.0591610227395
 21
333.9973373239441
 31
0.0
  0
ARC
  5
AFB
330
18
100
AcDbEntity
  8
1
  6
Continuous
100
AcDbCircle
 10
816.7242720227394
 20
313.5967303239441
 30
0.0
 40
2.5
100
AcDbArc
 50
209.9999799999999
 51
300.0000170000002
  0
LINE
  5
AFC
330
18
100
AcDbEntity
  8
5
  6
PHANTOM
 48
0.3
100
AcDbLine
 10
823.3063830227392
 20
319.2496323239442
 30
0.0
 11
818.8436140227395
 21
314.5237773239442
 31
0.0
  0
ARC
  5
AFD
330
18
100
AcDbEntity
  8
5
  6
PHANTOM
 48
0.3
100
AcDbCircle
 10
820.5599350227393
 20
316.3414813239441
 30
0.0
 40
2.5
100
AcDbArc
 50
226.6399600000001
 51
316.6399970000004
  0
ARC
  5
AFE
330
18
100
AcDbEntity
  8
5
  6
PHANTOM
 48
0.3
100
AcDbCircle
 10
821.0941140227392
 20
315.8362323239442
 30
0.0
 40
2.5
100
AcDbArc
 50
217.4999790000003
 51
307.4999749999999
  0
LINE
  5
AFF
330
18
100
AcDbEntity
  8
5
  6
PHANTOM
 48
0.3
100
AcDbLine
 10
820.5599040227392
 20
316.3414333239442
 30
0.0
 11
790.8993610227392
 21
344.3507893239443
 31
0.0
  0
LINE
  5
B00
330
18
100
AcDbEntity
  8
5
  6
PHANTOM
 48
0.3
100
AcDbLine
 10
820.6407600227393
 20
316.4270273239442
 30
0.0
 11
797.3523980227392
 21
346.7770043239441
 31
0.0
  0
LINE
  5
B01
330
18
100
AcDbEntity
  8
5
  6
PHANTOM
 48
0.3
100
AcDbLine
 10
825.1239470227393
 20
317.5331623239442
 30
0.0
 11
822.3776280227392
 21
314.6249433239442
 31
0.0
  0
LINE
  5
B02
330
18
100
AcDbEntity
  8
5
  6
PHANTOM
 48
0.3
100
AcDbLine
 10
825.1238970227394
 20
317.5331973239441
 30
0.0
 11
823.3062600227395
 21
319.2496463239442
 31
0.0
  0
LINE
  5
B03
330
18
100
AcDbEntity
  8
5
  6
PHANTOM
 48
0.3
100
AcDbLine
 10
825.7894070227392
 20
316.2878623239441
 30
0.0
 11
824.9638600227395
 21
317.3637363239441
 31
0.0
  0
LINE
  5
B04
330
18
100
AcDbEntity
  8
5
  6
PHANTOM
 48
0.3
100
AcDbLine
 10
825.7894260227391
 20
316.2879063239443
 30
0.0
 11
822.6160130227395
 21
313.8528593239441
 31
0.0
  0
LINE
  5
B05
330
18
100
AcDbEntity
  8
1
  6
Continuous
100
AcDbLine
 10
821.4383460227391
 20
313.4316423239442
 30
0.0
 11
820.1883530227394
 21
315.5966923239442
 31
0.0
  0
ARC
  5
B06
330
18
100
AcDbEntity
  8
1
  6
Continuous
100
AcDbCircle
 10
835.8206880227394
 20
355.8611953239443
 30
0.0
 40
2.5
100
AcDbArc
 50
254.9999710000005
 51
344.9999809999997
  0
LINE
  5
B07
330
18
100
AcDbEntity
  8
5
  6
PHANTOM
 48
0.3
100
AcDbLine
 10
809.6492940227392
 20
326.6446553239442
 30
0.0
 11
795.9756220227392
 21
344.4645283239442
 31
0.0
  0
LINE
  5
B08
330
18
100
AcDbEntity
  8
4
  6
CENTER
 48
0.5
100
AcDbLine
 10
795.0203490227395
 20
330.2727473239442
 30
0.0
 11
795.0203490227395
 21
342.2727473239441
 31
0.0
  0
LINE
  5
B09
330
18
100
AcDbEntity
  8
1
  6
Continuous
100
AcDbLine
 10
802.9252300227392
 20
334.4973273239442
 30
0.0
 11
801.7352380227393
 21
333.8102853239443
 31
0.0
  0
CIRCLE
  5
B0A
330
18
100
AcDbEntity
  8
1
  6
Continuous
100
AcDbCircle
 10
795.0203650227392
 20
336.2727403239442
 30
0.0
 40
4.0
  0
ARC
  5
B0B
330
18
100
AcDbEntity
  8
1
  6
Continuous
100
AcDbCircle
 10
795.1646590227394
 20
336.2243543239442
 30
0.0
 40
7.0
100
AcDbArc
 50
326.4499969999998
 51
143.9923970000001
  0
LINE
  5
B0C
330
18
100
AcDbEntity
  8
1
  6
Continuous
100
AcDbLine
 10
816.7242390227395
 20
313.5967023239443
 30
0.0
 11
793.0385590227394
 21
354.6214913239443
 31
0.0
  0
LINE
  5
B0D
330
18
100
AcDbEntity
  8
5
  6
PHANTOM
 48
0.3
100
AcDbLine
 10
804.2012600227392
 20
331.7894763239442
 30
0.0
 11
802.4848100227393
 21
329.9718403239442
 31
0.0
  0
LINE
  5
B0E
330
18
100
AcDbEntity
  8
5
  6
PHANTOM
 48
0.3
100
AcDbLine
 10
818.8434740227394
 20
314.5237953239442
 30
0.0
 11
800.6671100227393
 21
331.6882893239442
 31
0.0
  0
LINE
  5
B0F
330
18
100
AcDbEntity
  8
1
  6
Continuous
100
AcDbLine
 10
805.4742690227394
 20
333.0822473239442
 30
0.0
 11
803.3092050227391
 21
331.8322463239442
 31
0.0
  0
LINE
  5
B10
330
18
100
AcDbEntity
  8
5
  6
PHANTOM
 48
0.3
100
AcDbLine
 10
798.8013970227394
 20
327.3250203239443
 30
0.0
 11
791.1481850227394
 21
318.0822803239442
 31
0.0
  0
LINE
  5
B11
330
18
100
AcDbEntity
  8
1
  6
Continuous
100
AcDbLine
 10
800.9984460227393
 20
332.3557293239442
 30
0.0
 11
794.3664310227392
 21
322.3548183239443
 31
0.0
  0
LINE
  5
B12
330
18
100
AcDbEntity
  8
5
  6
PHANTOM
 48
0.3
100
AcDbLine
 10
801.353742022739
 20
332.4153213239442
 30
0.0
 11
800.6671730227392
 21
331.6882773239441
 31
0.0
  0
ARC
  5
B13
330
18
100
AcDbEntity
  8
5
  6
PHANTOM
 48
0.3
100
AcDbCircle
 10
802.4443030227393
 20
331.3854683239442
 30
0.0
 40
1.5
100
AcDbArc
 50
46.64017400000059
 51
136.6401760000002
  0
ARC
  5
B14
330
18
100
AcDbEntity
  8
1
  6
Continuous
100
AcDbCircle
 10
803.6752150227394
 20
333.1982963239441
 30
0.0
 40
1.5
100
AcDbArc
 50
29.99997500000013
 51
119.9999510000003
  0
ARC
  5
B15
330
18
100
AcDbEntity
  8
5
  6
PHANTOM
 48
0.3
100
AcDbCircle
 10
793.5955750227392
 20
342.6382493239441
 30
0.0
 40
3.0
100
AcDbArc
 50
37.49996000000039
 51
127.4999759999994
  0
LINE
  5
B16
330
18
100
AcDbEntity
  8
4
  6
CENTER
 48
0.5
100
AcDbLine
 10
801.0203610227394
 20
336.2727243239441
 30
0.0
 11
789.0203610227394
 21
336.2727243239441
 31
0.0
  0
LINE
  5
B17
330
18
100
AcDbEntity
  8
5
  6
PHANTOM
 48
0.3
100
AcDbLine
 10
802.8312650227395
 20
339.6368023239442
 30
0.0
 11
800.8478940227394
 21
338.1149083239441
 31
0.0
  0
LINE
  5
B18
330
18
100
AcDbEntity
  8
5
  6
PHANTOM
 48
0.3
100
AcDbLine
 10
793.1524170227394
 20
338.7846433239441
 30
0.0
 11
788.8904910227393
 21
342.8093103239441
 31
0.0
  0
ARC
  5
B19
330
18
100
AcDbEntity
  8
5
  6
PHANTOM
 48
0.3
100
AcDbCircle
 10
795.5789740227392
 20
344.1601603239443
 30
0.0
 40
3.0
100
AcDbArc
 50
37.49991900000024
 51
127.4999759999994
  0
LINE
  5
B1A
330
18
100
AcDbEntity
  8
5
  6
PHANTOM
 48
0.3
100
AcDbLine
 10
796.8908900227395
 20
347.2384933239441
 30
0.0
 11
791.7245750227394
 21
351.2027453239443
 31
0.0
  0
ARC
  5
B1B
330
18
100
AcDbEntity
  8
5
  6
PHANTOM
 48
0.3
100
AcDbCircle
 10
795.3690130227393
 20
345.2550933239441
 30
0.0
 40
2.5
100
AcDbArc
 50
37.49997399999996
 51
52.4999980000005
  0
LINE
  5
B1C
330
18
100
AcDbEntity
  8
1
  6
Continuous
100
AcDbLine
 10
835.8206750227394
 20
355.8611163239441
 30
0.0
 11
798.1495850227393
 21
365.9550503239441
 31
0.0
  0
LINE
  5
B1D
330
18
100
AcDbEntity
  8
1
  6
Continuous
100
AcDbLine
 10
839.2707570227393
 20
359.0777393239442
 30
0.0
 11
836.8559420227395
 21
359.7247863239443
 31
0.0
  0
LINE
  5
B1E
330
18
100
AcDbEntity
  8
1
  6
Continuous
100
AcDbLine
 10
806.8428760227394
 20
363.6257733239441
 30
0.0
 11
806.1958280227395
 21
361.2109583239441
 31
0.0
  0
ARC
  5
B1F
330
18
100
AcDbEntity
  8
1
  6
Continuous
100
AcDbCircle
 10
798.3356720227392
 20
362.7994273239441
 30
0.0
 40
3.0
100
AcDbArc
 50
74.99992500000018
 51
164.9999760000004
  0
ARC
  5
B20
330
18
100
AcDbEntity
  8
1
  6
Continuous
100
AcDbCircle
 10
797.6886230227393
 20
360.3846103239441
 30
0.0
 40
3.0
100
AcDbArc
 50
74.99996000000024
 51
164.9999760000004
  0
ARC
  5
B21
330
18
100
AcDbEntity
  8
1
  6
Continuous
100
AcDbCircle
 10
797.5025580227391
 20
363.5402953239442
 30
0.0
 40
2.5
100
AcDbArc
 50
74.99998000000011
 51
90.00000399999995
  0
LINE
  5
B22
330
18
100
AcDbEntity
  8
4
  6
CENTER
 48
0.5
100
AcDbLine
 10
700.3025530227392
 20
396.8792783796317
 30
0.0
 11
700.3025530227392
 21
315.5402643239442
 31
0.0
  0
LINE
  5
B23
330
18
100
AcDbEntity
  8
4
  6
CENTER
 48
0.5
100
AcDbLine
 10
752.5025500227392
 20
344.5402723239441
 30
0.0
 11
752.5025500227392
 21
356.5402743239441
 31
0.0
  0
LINE
  5
B24
330
18
100
AcDbEntity
  8
4
  6
CENTER
 48
0.5
100
AcDbLine
 10
785.0025420227392
 20
347.5402643239441
 30
0.0
 11
785.0025420227392
 21
359.5402663239442
 31
0.0
  0
LINE
  5
B25
330
18
100
AcDbEntity
  8
4
  6
CENTER
 48
0.5
100
AcDbLine
 10
769.5025500227392
 20
351.5402803239441
 30
0.0
 11
769.5025500227392
 21
363.5402823239443
 31
0.0
  0
LINE
  5
B26
330
18
100
AcDbEntity
  8
1
  6
Continuous
100
AcDbLine
 10
776.5025500227392
 20
357.0402843239441
 30
0.0
 11
776.5025500227392
 21
353.5402843239443
 31
0.0
  0
CIRCLE
  5
B27
330
18
100
AcDbEntity
  8
1
  6
Continuous
100
AcDbCircle
 10
769.5025580227392
 20
357.5402803239441
 30
0.0
 40
4.0
  0
CIRCLE
  5
B28
330
18
100
AcDbEntity
  8
1
  6
Continuous
100
AcDbCircle
 10
752.5025580227392
 20
350.5402723239441
 30
0.0
 40
4.0
  0
LINE
  5
B29
330
18
100
AcDbEntity
  8
1
  6
Continuous
100
AcDbLine
 10
748.4155680227392
 20
331.0411813239442
 30
0.0
 11
755.6104740227392
 21
283.5886523239443
 31
0.0
  0
LINE
  5
B2A
330
18
100
AcDbEntity
  8
5
  6
PHANTOM
 48
0.3
100
AcDbLine
 10
778.1082970227393
 20
332.1254573239442
 30
0.0
 11
754.8803150227392
 21
341.9370703239442
 31
0.0
  0
LINE
  5
B2B
330
18
100
AcDbEntity
  8
4
  6
CENTER
 48
0.5
100
AcDbLine
 10
758.5025580227392
 20
350.5402573239441
 30
0.0
 11
746.5025580227392
 21
350.5402573239441
 31
0.0
  0
LINE
  5
B2C
330
18
100
AcDbEntity
  8
1
  6
Continuous
100
AcDbLine
 10
779.9134720227392
 20
334.9389493239442
 30
0.0
 11
755.7215680227392
 21
342.2539053239442
 31
0.0
  0
LINE
  5
B2D
330
18
100
AcDbEntity
  8
1
  6
Continuous
100
AcDbLine
 10
773.2648390227392
 20
348.8611103239441
 30
0.0
 11
754.7780150227395
 21
341.8985413239443
 31
0.0
  0
LINE
  5
B2E
330
18
100
AcDbEntity
  8
5
  6
PHANTOM
 48
0.3
100
AcDbLine
 10
773.2988550227393
 20
334.1569673239442
 30
0.0
 11
772.6627030227392
 21
333.3886903239442
 31
0.0
  0
LINE
  5
B2F
330
18
100
AcDbEntity
  8
1
  6
Continuous
100
AcDbLine
 10
779.9134850227392
 20
334.9389973239441
 30
0.0
 11
778.5318190227394
 21
332.8554793239442
 31
0.0
  0
LINE
  5
B30
330
18
100
AcDbEntity
  8
5
  6
PHANTOM
 48
0.3
100
AcDbLine
 10
780.6299450227392
 20
324.1950543239441
 30
0.0
 11
783.7108510227396
 21
321.6439903239442
 31
0.0
  0
LINE
  5
B31
330
18
100
AcDbEntity
  8
5
  6
PHANTOM
 48
0.3
100
AcDbLine
 10
784.9863570227394
 20
323.1844173239442
 30
0.0
 11
783.710862022739
 21
321.6440103239442
 31
0.0
  0
LINE
  5
B32
330
18
100
AcDbEntity
  8
5
  6
PHANTOM
 48
0.3
100
AcDbLine
 10
781.9054690227394
 20
325.7354973239442
 30
0.0
 11
780.6299520227392
 21
324.1950633239442
 31
0.0
  0
LINE
  5
B33
330
18
100
AcDbEntity
  8
1
  6
Continuous
100
AcDbLine
 10
784.3656070227392
 20
328.9868043239442
 30
0.0
 11
783.2602840227393
 21
327.3200063239442
 31
0.0
  0
LINE
  5
B34
330
18
100
AcDbEntity
  8
1
  6
Continuous
100
AcDbLine
 10
787.6992020227394
 20
326.7761373239442
 30
0.0
 11
786.5938920227392
 21
325.1093583239442
 31
0.0
  0
LINE
  5
B35
330
18
100
AcDbEntity
  8
1
  6
Continuous
100
AcDbLine
 10
783.2602760227394
 20
327.3199933239443
 30
0.0
 11
786.5938820227393
 21
325.1093423239442
 31
0.0
  0
LINE
  5
B36
330
18
100
AcDbEntity
  8
5
  6
PHANTOM
 48
0.3
100
AcDbLine
 10
778.1082820227392
 20
332.1254243239442
 30
0.0
 11
776.5138600227394
 21
330.1998493239441
 31
0.0
  0
LINE
  5
B37
330
18
100
AcDbEntity
  8
5
  6
PHANTOM
 48
0.3
100
AcDbLine
 10
773.4106370227394
 20
340.9564553239442
 30
0.0
 11
767.2307260227394
 21
346.5885223239441
 31
0.0
  0
LINE
  5
B38
330
18
100
AcDbEntity
  8
5
  6
PHANTOM
 48
0.3
100
AcDbLine
 10
774.5884660227392
 20
341.2190033239442
 30
0.0
 11
769.1892930227392
 21
347.3261653239441
 31
0.0
  0
LINE
  5
B39
330
18
100
AcDbEntity
  8
1
  6
Continuous
100
AcDbLine
 10
774.3076100227392
 20
343.2232183239442
 30
0.0
 11
768.8763840227392
 21
347.2083163239441
 31
0.0
  0
CIRCLE
  5
B3A
330
18
100
AcDbEntity
  8
5
  6
PHANTOM
 48
0.3
100
AcDbCircle
 10
779.3645040227393
 20
344.9310803239441
 30
0.0
 40
4.0
  0
LINE
  5
B3B
330
18
100
AcDbEntity
  8
1
  6
Continuous
100
AcDbLine
 10
787.5430540227393
 20
339.1399603239442
 30
0.0
 11
782.4521260227392
 21
347.9577033239443
 31
0.0
  0
LINE
  5
B3C
330
18
100
AcDbEntity
  8
5
  6
PHANTOM
 48
0.3
100
AcDbLine
 10
784.7380260227392
 20
335.7643223239442
 30
0.0
 11
773.4106960227392
 21
340.9564963239442
 31
0.0
  0
ARC
  5
B3D
330
18
100
AcDbEntity
  8
5
  6
PHANTOM
 48
0.3
100
AcDbCircle
 10
780.5819950227393
 20
346.5177813239441
 30
0.0
 40
8.0
100
AcDbArc
 50
221.4789879999996
 51
307.5000289999997
  0
LINE
  5
B3E
330
18
100
AcDbEntity
  8
1
  6
Continuous
100
AcDbLine
 10
786.1208610227393
 20
339.2590873239443
 30
0.0
 11
774.3076110227392
 21
343.2232103239443
 31
0.0
  0
ARC
  5
B3F
330
18
100
AcDbEntity
  8
5
  6
PHANTOM
 48
0.3
100
AcDbCircle
 10
785.9881000227394
 20
338.4914743239442
 30
0.0
 40
3.0
100
AcDbArc
 50
245.3743910000002
 51
317.9167920000004
  0
LINE
  5
B40
330
18
100
AcDbEntity
  8
1
  6
Continuous
100
AcDbLine
 10
774.9160450227392
 20
336.4500793239441
 30
0.0
 11
774.3647890227394
 21
335.6187993239442
 31
0.0
  0
LINE
  5
B41
330
18
100
AcDbEntity
  8
1
  6
Continuous
100
AcDbLine
 10
783.4732160227392
 20
347.6877983239443
 30
0.0
 11
774.3884080227394
 21
349.4571603239443
 31
0.0
  0
ARC
  5
B42
330
18
100
AcDbEntity
  8
1
  6
Continuous
100
AcDbCircle
 10
771.5025580227392
 20
353.5402803239441
 30
0.0
 40
5.0
100
AcDbArc
 50
290.6375519999997
 51
0.0000219999999413
  0
ARC
  5
B43
330
18
100
AcDbEntity
  8
1
  6
Continuous
100
AcDbCircle
 10
758.3025650227392
 20
332.5402803239442
 30
0.0
 40
10.0
100
AcDbArc
 50
110.6375579999999
 51
188.6217020000007
  0
LINE
  5
B44
330
18
100
AcDbEntity
  8
1
  6
Continuous
100
AcDbLine
 10
725.3025530227392
 20
355.1585513239441
 30
0.0
 11
725.3025530227392
 21
279.1784863239442
 31
0.0
  0
LINE
  5
B45
330
18
100
AcDbEntity
  8
1
  6
Continuous
100
AcDbLine
 10
673.9514900227391
 20
342.7618923239443
 30
0.0
 11
724.9574860227394
 21
271.1754313239443
 31
0.0
  0
LINE
  5
B46
330
18
100
AcDbEntity
  8
1
  6
Continuous
100
AcDbLine
 10
735.8025570227392
 20
374.5402643239441
 30
0.0
 11
664.8025290227392
 21
374.5402643239441
 31
0.0
  0
ARC
  5
B47
330
18
100
AcDbEntity
  8
1
  6
Continuous
100
AcDbCircle
 10
728.3025530227392
 20
364.7902723239443
 30
0.0
 40
3.0
100
AcDbArc
 50
206.6211010000003
 51
270.000003
  0
LINE
  5
B48
330
18
100
AcDbEntity
  8
1
  6
Continuous
100
AcDbLine
 10
757.7027000227396
 20
361.7902723239442
 30
0.0
 11
728.3025530227392
 21
361.7902723239442
 31
0.0
  0
ARC
  5
B49
330
18
100
AcDbEntity
  8
1
  6
Continuous
100
AcDbCircle
 10
760.7027000227392
 20
361.7902873239441
 30
0.0
 40
3.0
100
AcDbArc
 50
180.0
 51
331.6406219999993
  0
LINE
  5
B4A
330
18
100
AcDbEntity
  8
4
  6
CENTER
 48
0.5
100
AcDbLine
 10
775.5025580227392
 20
357.5402643239441
 30
0.0
 11
763.5025580227392
 21
357.5402643239441
 31
0.0
  0
ARC
  5
B4B
330
18
100
AcDbEntity
  8
1
  6
Continuous
100
AcDbCircle
 10
769.5025580227392
 20
357.0402803239441
 30
0.0
 40
7.0
100
AcDbArc
 50
0.0000360000000476
 51
151.6406449999998
  0
LINE
  5
B4C
330
18
100
AcDbEntity
  8
1
  6
Continuous
100
AcDbLine
 10
769.5025420227392
 20
366.0402823239443
 30
0.0
 11
769.5025420227392
 21
364.1724073239442
 31
0.0
  0
LINE
  5
B4D
330
18
100
AcDbEntity
  8
1
  6
Continuous
100
AcDbLine
 10
735.2154430227394
 20
380.0402753239442
 30
0.0
 11
737.8025660227392
 21
376.0402753239441
 31
0.0
  0
LINE
  5
B4E
330
18
100
AcDbEntity
  8
1
  6
Continuous
100
AcDbLine
 10
736.4525550227392
 20
368.1902723239441
 30
0.0
 11
736.4525550227392
 21
364.7902803239441
 31
0.0
  0
ARC
  5
B4F
330
18
100
AcDbEntity
  8
1
  6
Continuous
100
AcDbCircle
 10
739.4525580227393
 20
364.7902803239441
 30
0.0
 40
3.0
100
AcDbArc
 50
180.0
 51
269.9999819999999
  0
LINE
  5
B50
330
18
100
AcDbEntity
  8
1
  6
Continuous
100
AcDbLine
 10
736.3025470227393
 20
372.5402763239441
 30
0.0
 11
734.3025470227394
 21
374.5402763239441
 31
0.0
  0
ARC
  5
B51
330
18
100
AcDbEntity
  8
1
  6
Continuous
100
AcDbCircle
 10
736.3025570227392
 20
372.5402723239441
 30
0.0
 40
1.0
100
AcDbArc
 50
269.9999719999996
 51
0.0000219999999413
  0
LINE
  5
B52
330
18
100
AcDbEntity
  8
1
  6
Continuous
100
AcDbLine
 10
737.8025550227392
 20
376.0402683239441
 30
0.0
 11
735.8025550227393
 21
374.5402683239441
 31
0.0
  0
ARC
  5
B53
330
18
100
AcDbEntity
  8
1
  6
Continuous
100
AcDbCircle
 10
730.4525580227394
 20
368.1902663239441
 30
0.0
 40
6.0
100
AcDbArc
 50
0.0000360000000476
 51
33.94062600000007
  0
ARC
  5
B54
330
18
100
AcDbEntity
  8
1
  6
Continuous
100
AcDbCircle
 10
737.9295330227392
 20
385.0386623239441
 30
0.0
 40
5.0
100
AcDbArc
 50
268.5460259999998
 51
330.0213079999995
  0
LINE
  5
B55
330
18
100
AcDbEntity
  8
1
  6
Continuous
100
AcDbLine
 10
751.3025340227392
 20
382.5402653239441
 30
0.0
 11
751.3025340227392
 21
386.5402643239441
 31
0.0
  0
LINE
  5
B56
330
18
100
AcDbEntity
  8
4
  6
CENTER
 48
0.5
100
AcDbLine
 10
737.8025530227394
 20
391.5402643239441
 30
0.0
 11
737.8025530227392
 21
377.5402643239443
 31
0.0
  0
LINE
  5
B57
330
18
100
AcDbEntity
  8
4
  6
CENTER
 48
0.5
100
AcDbLine
 10
740.3025530227393
 20
391.5402643239441
 30
0.0
 11
740.3025530227393
 21
377.5402643239443
 31
0.0
  0
LINE
  5
B58
330
18
100
AcDbEntity
  8
1
  6
Continuous
100
AcDbLine
 10
661.6525520227394
 20
359.2300133239441
 30
0.0
 11
661.6525520227394
 21
352.7902573239441
 31
0.0
  0
LINE
  5
B5A
330
18
100
AcDbEntity
  8
1
  6
Continuous
100
AcDbLine
 10
664.1525520227394
 20
368.1902533239443
 30
0.0
 11
664.1525520227394
 21
364.7902573239441
 31
0.0
  0
ARC
  5
B5B
330
18
100
AcDbEntity
  8
1
  6
Continuous
100
AcDbCircle
 10
666.0858250227392
 20
359.2300153239441
 30
0.0
 40
4.433265
100
AcDbArc
 50
131.5806799999995
 51
180.0
  0
ARC
  5
B5C
330
18
100
AcDbEntity
  8
1
  6
Continuous
100
AcDbCircle
 10
661.1525520227394
 20
364.7902573239441
 30
0.0
 40
3.0
100
AcDbArc
 50
311.5807260000002
 51
0.0000050000005102
  0
ARC
  5
B5D
330
18
100
AcDbEntity
  8
1
  6
Continuous
100
AcDbCircle
 10
664.3025610227392
 20
372.5402573239441
 30
0.0
 40
1.0
100
AcDbArc
 50
180.0
 51
270.0000369999997
  0
LINE
  5
B5E
330
18
100
AcDbEntity
  8
4
  6
CENTER
 48
0.5
100
AcDbLine
 10
660.3025530227393
 20
391.5402643239441
 30
0.0
 11
660.3025530227394
 21
377.5402643239443
 31
0.0
  0
LINE
  5
B5F
330
18
100
AcDbEntity
  8
4
  6
CENTER
 48
0.5
100
AcDbLine
 10
662.802553022739
 20
391.5402643239441
 30
0.0
 11
662.8025530227392
 21
377.5402643239443
 31
0.0
  0
ARC
  5
B60
330
18
100
AcDbEntity
  8
1
  6
Continuous
100
AcDbCircle
 10
662.6755770227394
 20
385.0386473239442
 30
0.0
 40
5.0
100
AcDbArc
 50
209.9787109999999
 51
271.4539930000002
  0
LINE
  5
B61
330
18
100
AcDbEntity
  8
1
  6
Continuous
100
AcDbLine
 10
649.3025680227392
 20
382.5402643239441
 30
0.0
 11
649.3025680227392
 21
386.5402643239441
 31
0.0
  0
ARC
  5
1244
330
18
100
AcDbEntity
  8
1
  6
Continuous
100
AcDbCircle
 10
531.2315997148187
 20
301.3071447664783
 30
0.0
 40
23.0
100
AcDbArc
 50
351.052690012237
 51
16.04931873467393
  0
ARC
  5
1246
330
18
100
AcDbEntity
  8
1
  6
Continuous
100
AcDbCircle
 10
531.2315997148187
 20
301.3071447664783
 30
0.0
 40
20.0
100
AcDbArc
 50
351.052690012237
 51
16.04931873467413
  0
ARC
  5
1247
330
18
100
AcDbEntity
  8
1
  6
Continuous
100
AcDbCircle
 10
508.8017741808879
 20
301.3071447664783
 30
0.0
 40
23.0
100
AcDbArc
 50
163.9506812653258
 51
188.9473099877626
  0
ARC
  5
1248
330
18
100
AcDbEntity
  8
1
  6
Continuous
100
AcDbCircle
 10
508.8017741808879
 20
301.3071447664783
 30
0.0
 40
20.0
100
AcDbArc
 50
163.9506812653258
 51
188.9473099877626
  0
ARC
  5
1274
330
18
100
AcDbEntity
  8
1
  6
Continuous
100
AcDbCircle
 10
665.8954099478533
 20
326.040264323944
 30
0.0
 40
179.028732
100
AcDbArc
 50
188.9473099877626
 51
193.5498518943365
  0
ARC
  5
1276
330
18
100
AcDbEntity
  8
1
  6
Continuous
100
AcDbCircle
 10
486.0166869478531
 20
282.6896394447441
 30
0.0
 40
3.0
100
AcDbArc
 50
0.0000000000004071
 51
13.54985189433681
  0
ARC
  5
1277
330
18
100
AcDbEntity
  8
1
  6
Continuous
100
AcDbCircle
 10
486.0166869478534
 20
282.6896394447441
 30
0.0
 40
6.0
100
AcDbArc
 50
0.0
 51
13.54985189433701
  0
ARC
  5
129B
330
18
100
AcDbEntity
  8
1
  6
Continuous
100
AcDbCircle
 10
374.1379639478537
 20
326.040264323944
 30
0.0
 40
179.028732
100
AcDbArc
 50
346.4501481056633
 51
351.052690012237
  0
ARC
  5
129E
330
18
100
AcDbEntity
  8
1
  6
Continuous
100
AcDbCircle
 10
554.0166869478533
 20
282.6896394447445
 30
0.0
 40
6.0
100
AcDbArc
 50
166.4501481056642
 51
180.0
  0
ARC
  5
129F
330
18
100
AcDbEntity
  8
1
  6
Continuous
100
AcDbCircle
 10
554.0166869478533
 20
282.6896394447446
 30
0.0
 40
3.0
100
AcDbArc
 50
166.450148105663
 51
180.0
  0
LINE
  5
12A9
330
18
100
AcDbEntity
  8
1
  6
Continuous
100
AcDbLine
 10
747.8025110978985
 20
286.5250093239443
 30
0.0
 11
747.8025110978985
 21
275.5553593239441
 31
0.0
  0
LINE
  5
12AA
330
18
100
AcDbEntity
  8
1
  6
Continuous
100
AcDbLine
 10
728.8025199566507
 20
286.5250093239443
 30
0.0
 11
728.8025199566507
 21
275.5553593239441
 31
0.0
  0
CIRCLE
  5
12AB
330
18
100
AcDbEntity
  8
1
  6
Continuous
100
AcDbCircle
 10
738.3025155272746
 20
281.0401843239442
 30
0.0
 40
9.499995570623923
  0
CIRCLE
  5
12AC
330
18
100
AcDbEntity
  8
1
  6
Continuous
100
AcDbCircle
 10
738.3025155272746
 20
281.0401843239442
 30
0.0
 40
5.999999999999772
  0
CIRCLE
  5
12AD
330
18
100
AcDbEntity
  8
2
  6
Continuous
100
AcDbCircle
 10
738.3025155272746
 20
281.0401843239442
 30
0.0
 40
5.25
  0
LINE
  5
12AE
330
18
100
AcDbEntity
  8
1
  6
Continuous
100
AcDbLine
 10
728.8025199566507
 20
275.5553593239445
 30
0.0
 11
738.3025155272751
 21
270.0705343239444
 31
0.0
  0
ARC
  5
12AF
330
18
100
AcDbEntity
  8
1
  6
Continuous
100
AcDbCircle
 10
738.3025155272746
 20
281.0401843239442
 30
0.0
 40
10.49999999999976
100
AcDbArc
 50
214.7911779553481
 51
265.2088220446474
  0
ARC
  5
12B0
330
18
100
AcDbEntity
  8
1
  6
Continuous
100
AcDbCircle
 10
738.3025155272746
 20
281.0401843239442
 30
0.0
 40
10.49999999999976
100
AcDbArc
 50
274.7911779553524
 51
325.2088220446522
  0
LINE
  5
12B1
330
18
100
AcDbEntity
  8
1
  6
Continuous
100
AcDbLine
 10
747.8025110978985
 20
275.5553593239445
 30
0.0
 11
738.3025155272746
 21
270.0705343239444
 31
0.0
  0
LINE
  5
12B2
330
18
100
AcDbEntity
  8
1
  6
Continuous
100
AcDbLine
 10
728.8025199566507
 20
286.5250093239438
 30
0.0
 11
738.3025155272751
 21
292.0098343239441
 31
0.0
  0
ARC
  5
12B3
330
18
100
AcDbEntity
  8
1
  6
Continuous
100
AcDbCircle
 10
738.3025155272746
 20
281.0401843239442
 30
0.0
 40
10.49999999999976
100
AcDbArc
 50
94.7911779553525
 51
145.2088220446519
  0
ARC
  5
12B4
330
18
100
AcDbEntity
  8
1
  6
Continuous
100
AcDbCircle
 10
738.3025155272746
 20
281.0401843239442
 30
0.0
 40
10.49999999999976
100
AcDbArc
 50
154.7911779553473
 51
205.2088220446526
  0
ARC
  5
12B5
330
18
100
AcDbEntity
  8
1
  6
Continuous
100
AcDbCircle
 10
738.3025155272746
 20
281.0401843239442
 30
0.0
 40
10.49999999999976
100
AcDbArc
 50
34.79117795534808
 51
85.20882204464752
  0
LINE
  5
12B6
330
18
100
AcDbEntity
  8
1
  6
Continuous
100
AcDbLine
 10
747.8025110978985
 20
286.5250093239438
 30
0.0
 11
738.3025155272746
 21
292.0098343239441
 31
0.0
  0
ARC
  5
12B7
330
18
100
AcDbEntity
  8
1
  6
Continuous
100
AcDbCircle
 10
738.3025155272746
 20
281.0401843239442
 30
0.0
 40
10.49999999999976
100
AcDbArc
 50
334.7911779553474
 51
25.20882204465268
  0
ARC
  5
12C6
330
18
100
AcDbEntity
  8
1
  6
Continuous
100
AcDbCircle
 10
520.0166869478533
 20
326.4402663239441
 30
0.0
 40
26.0
100
AcDbArc
 50
17.76780228644708
 51
162.2321977135531
  0
ARC
  5
12CF
330
18
100
AcDbEntity
  8
1
  6
Continuous
100
AcDbCircle
 10
520.0166869478533
 20
329.4402663239441
 30
0.0
 40
23.0
100
AcDbArc
 50
16.04929999999957
 51
163.9506840000016
  0
LINE
  5
12D1
330
18
100
AcDbEntity
  8
1
  6
Continuous
100
AcDbLine
 10
486.6982203799915
 20
307.6658324747156
 30
0.0
 11
495.2568601746191
 21
334.3744315704863
 31
0.0
  0
LINE
  5
12D2
330
18
100
AcDbEntity
  8
1
  6
Continuous
100
AcDbLine
 10
489.5812926148912
 20
306.8364384258151
 30
0.0
 11
497.9131459478534
 21
335.7989503239442
 31
0.0
  0
LINE
  5
12DF
330
18
100
AcDbEntity
  8
1
  6
Continuous
100
AcDbLine
 10
550.4520812808156
 20
306.8364384258151
 30
0.0
 11
542.1202429478535
 21
335.7989503239442
 31
0.0
  0
LINE
  5
12F6
330
18
100
AcDbEntity
  8
1
  6
Continuous
100
AcDbLine
 10
553.3351535157152
 20
307.6658324747156
 30
0.0
 11
544.7765137210876
 21
334.3744315704863
 31
0.0
  0
ARC
  5
1321
330
18
100
AcDbEntity
  8
1
  6
Continuous
100
AcDbCircle
 10
339.7308208729676
 20
98.61796688752214
 30
0.0
 40
30.65000100000009
100
AcDbArc
 50
235.9312070444036
 51
124.0687929555965
  0
ARC
  5
1322
330
18
100
AcDbEntity
  8
1
  6
Continuous
100
AcDbCircle
 10
339.7308208729676
 20
98.61796688752214
 30
0.0
 40
41.95804023832699
100
AcDbArc
 50
229.0487013792089
 51
129.8512038513077
  0
ARC
  5
1328
330
18
100
AcDbEntity
  8
1
  6
Continuous
100
AcDbCircle
 10
339.7308208729676
 20
98.61796688752214
 30
0.0
 40
35.65000100000009
100
AcDbArc
 50
234.7187362284919
 51
125.2812637715086
  0
ARC
  5
1329
330
18
100
AcDbEntity
  8
1
  6
Continuous
100
AcDbCircle
 10
339.7308208729676
 20
98.61796688752214
 30
0.0
 40
38.65000100000008
100
AcDbArc
 50
234.7187362284925
 51
125.2812637715086
  0
LINE
  5
1350
330
18
100
AcDbEntity
  8
1
  6
Continuous
100
AcDbLine
 10
295.7307938729676
 20
54.36796688752314
 30
0.0
 11
307.7307938729676
 21
54.36796688752314
 31
0.0
  0
LINE
  5
1351
330
18
100
AcDbEntity
  8
1
  6
Continuous
100
AcDbLine
 10
296.4807938729677
 20
53.61796688752304
 30
0.0
 11
306.9807938729677
 21
53.61796688752304
 31
0.0
  0
LINE
  5
1352
330
18
100
AcDbEntity
  8
1
  6
Continuous
100
AcDbLine
 10
291.2307938729676
 20
64.61796688752315
 30
0.0
 11
312.2307938729676
 21
64.61796688752315
 31
0.0
  0
ARC
  5
1358
330
18
100
AcDbEntity
  8
1
  6
Continuous
100
AcDbCircle
 10
296.9807960876559
 20
54.96801443188085
 30
0.0
 40
9.649952699611626
100
AcDbArc
 50
60.51273062375092
 51
119.4872693762373
  0
ARC
  5
1359
330
18
100
AcDbEntity
  8
1
  6
Continuous
100
AcDbCircle
 10
296.9807960876559
 20
67.26790674964331
 30
0.0
 40
9.649952699611626
100
AcDbArc
 50
240.5127306237626
 51
299.487269376249
  0
LINE
  5
135A
330
18
100
AcDbEntity
  8
1
  6
Continuous
100
AcDbLine
 10
311.2307894435916
 20
57.61796688752339
 30
0.0
 11
292.2307983023438
 21
57.61796688752339
 31
0.0
  0
LINE
  5
135B
330
18
100
AcDbEntity
  8
1
  6
Continuous
100
AcDbLine
 10
291.2307938729676
 20
67.61796688752292
 30
0.0
 11
291.2307938729676
 21
64.61796688752315
 31
0.0
  0
LINE
  5
135D
330
18
100
AcDbEntity
  8
1
  6
Continuous
100
AcDbLine
 10
296.4807938729677
 20
53.61796688752304
 30
0.0
 11
295.7307938729676
 21
54.36796688752314
 31
0.0
  0
LINE
  5
135E
330
18
100
AcDbEntity
  8
2
  6
Continuous
100
AcDbLine
 10
296.4807938729677
 20
53.61796688752304
 30
0.0
 11
296.4807938729677
 21
57.61796688752304
 31
0.0
  0
LINE
  5
135F
330
18
100
AcDbEntity
  8
1
  6
Continuous
100
AcDbLine
 10
295.7307938729676
 20
54.36796688752314
 30
0.0
 11
295.7307938729676
 21
57.61796688752304
 31
0.0
  0
LINE
  5
1361
330
18
100
AcDbEntity
  8
1
  6
Continuous
100
AcDbLine
 10
292.2307983023438
 20
64.61796688752315
 30
0.0
 11
292.2307983023438
 21
57.61796688752339
 31
0.0
  0
LINE
  5
1369
330
18
100
AcDbEntity
  8
1
  6
Continuous
100
AcDbLine
 10
312.2307938729676
 20
67.61796688752292
 30
0.0
 11
312.2307938729676
 21
64.61796688752315
 31
0.0
  0
ARC
  5
136B
330
18
100
AcDbEntity
  8
1
  6
Continuous
100
AcDbCircle
 10
306.4807916582795
 20
67.26790674964741
 30
0.0
 40
9.649952699615059
100
AcDbArc
 50
240.5127306237643
 51
299.4872693762355
  0
ARC
  5
136C
330
18
100
AcDbEntity
  8
1
  6
Continuous
100
AcDbCircle
 10
306.4807916582795
 20
54.96801443187724
 30
0.0
 40
9.649952699615059
100
AcDbArc
 50
60.51273062376439
 51
119.4872693762355
  0
LINE
  5
136D
330
18
100
AcDbEntity
  8
1
  6
Continuous
100
AcDbLine
 10
301.7307938729676
 20
63.36796688752315
 30
0.0
 11
301.7307938729676
 21
58.86796688752315
 31
0.0
  0
LINE
  5
136E
330
18
100
AcDbEntity
  8
2
  6
Continuous
100
AcDbLine
 10
306.9807938729677
 20
53.61796688752304
 30
0.0
 11
306.9807938729677
 21
57.61796688752304
 31
0.0
  0
LINE
  5
136F
330
18
100
AcDbEntity
  8
1
  6
Continuous
100
AcDbLine
 10
307.7307938729676
 20
54.36796688752314
 30
0.0
 11
307.7307938729676
 21
57.61796688752304
 31
0.0
  0
LINE
  5
1370
330
18
100
AcDbEntity
  8
1
  6
Continuous
100
AcDbLine
 10
306.9807938729677
 20
53.61796688752304
 30
0.0
 11
307.7307938729676
 21
54.36796688752314
 31
0.0
  0
LINE
  5
1371
330
18
100
AcDbEntity
  8
1
  6
Continuous
100
AcDbLine
 10
311.2307894435916
 20
64.61796688752315
 30
0.0
 11
311.2307894435916
 21
57.61796688752339
 31
0.0
  0
ARC
  5
1373
330
18
100
AcDbEntity
  8
1
  6
Continuous
100
AcDbCircle
 10
315.6741672548944
 20
64.61796688752134
 30
0.0
 40
6.0
100
AcDbArc
 50
54.71873622849205
 51
90.0
  0
ARC
  5
1374
330
18
100
AcDbEntity
  8
1
  6
Continuous
100
AcDbCircle
 10
315.6741672548954
 20
64.61796688752065
 30
0.0
 40
3.0
100
AcDbArc
 50
54.71873622849276
 51
90.0
  0
ARC
  5
13AA
330
18
100
AcDbEntity
  8
1
  6
Continuous
100
AcDbCircle
 10
315.6741672548931
 20
132.617966887522
 30
0.0
 40
6.0
100
AcDbArc
 50
270.0
 51
305.2812637715086
  0
ARC
  5
13AB
330
18
100
AcDbEntity
  8
1
  6
Continuous
100
AcDbCircle
 10
315.6741672548931
 20
132.617966887522
 30
0.0
 40
3.0
100
AcDbArc
 50
270.0
 51
305.2812637715086
  0
ARC
  5
17F3
330
18
100
AcDbEntity
  8
1
  6
Continuous
100
AcDbCircle
 10
301.7307938729676
 20
110.0762948875219
 30
0.0
 40
23.541666
100
AcDbArc
 50
60.75820499999949
 51
119.2417200000003
  0
LINE
  5
17F4
330
18
100
AcDbEntity
  8
1
  6
Continuous
100
AcDbLine
 10
290.2307938729673
 20
130.6179668875219
 30
0.0
 11
313.2307938729677
 21
130.6179668875219
 31
0.0
  0
LINE
  5
180B
330
18
100
AcDbEntity
  8
1
  6
Continuous
100
AcDbLine
 10
313.2307938729677
 20
129.6179668875217
 30
0.0
 11
313.2307938729677
 21
130.6179668875219
 31
0.0
  0
LINE
  5
1877
330
18
100
AcDbEntity
  8
1
  6
Continuous
100
AcDbLine
 10
290.2307938729673
 20
129.6179668875217
 30
0.0
 11
290.2307938729673
 21
130.6179668875219
 31
0.0
  0
LINE
  5
19B4
330
18
100
AcDbEntity
  8
1
  6
Continuous
100
AcDbLine
 10
288.7308398729676
 20
65.61796688752213
 30
0.0
 11
288.7308398729676
 21
58.61796688752201
 31
0.0
  0
LINE
  5
19C6
330
18
100
AcDbEntity
  8
1
  6
Continuous
100
AcDbLine
 10
284.2307938729677
 20
129.6179668875218
 30
0.0
 11
284.2307938729677
 21
126.6179668875219
 31
0.0
  0
LINE
  5
19D2
330
18
100
AcDbEntity
  8
1
  6
Continuous
100
AcDbLine
 10
290.0308178729677
 20
67.11796688752213
 30
0.0
 11
290.0308178729677
 21
67.61796688752212
 31
0.0
  0
ARC
  5
19D3
330
18
100
AcDbEntity
  8
1
  6
Continuous
100
AcDbCircle
 10
290.0308178729677
 20
67.11796688752213
 30
0.0
 40
1.5
100
AcDbArc
 50
269.999978
 51
323.1285744938634
  0
LINE
  5
19D4
330
18
100
AcDbEntity
  8
1
  6
Continuous
100
AcDbLine
 10
204.2126988729674
 20
72.61796688752202
 30
0.0
 11
204.2126988729674
 21
72.11796688752201
 31
0.0
  0
ARC
  5
19D7
330
18
100
AcDbEntity
  8
1
  6
Continuous
100
AcDbCircle
 10
207.8597508729674
 20
93.11796688752199
 30
0.0
 40
3.0
100
AcDbArc
 50
90.00000000000005
 51
180.0
  0
LINE
  5
19D8
330
18
100
AcDbEntity
  8
1
  6
Continuous
100
AcDbLine
 10
204.8597508729674
 20
93.11796688752199
 30
0.0
 11
204.8597508729674
 21
92.61796688752202
 31
0.0
  0
ARC
  5
19D9
330
18
100
AcDbEntity
  8
1
  6
Continuous
100
AcDbCircle
 10
207.8597508729674
 20
72.11796688752201
 30
0.0
 40
3.0
100
AcDbArc
 50
180.0
 51
270.0
  0
LINE
  5
19DA
330
18
100
AcDbEntity
  8
1
  6
Continuous
100
AcDbLine
 10
204.8597508729674
 20
72.61796688752202
 30
0.0
 11
204.8597508729674
 21
72.11796688752201
 31
0.0
  0
ARC
  5
19E1
330
18
100
AcDbEntity
  8
1
  6
Continuous
100
AcDbCircle
 10
233.8071748324138
 20
121.2728796081452
 30
0.0
 40
8.656658671985146
100
AcDbArc
 50
122.9440126556984
 51
164.2821815859179
  0
ARC
  5
19E2
330
18
100
AcDbEntity
  8
1
  6
Continuous
100
AcDbCircle
 10
233.8071748324138
 20
105.9630541668987
 30
0.0
 40
8.656658671985146
100
AcDbArc
 50
195.7178184140819
 51
238.0477983588831
  0
LINE
  5
19E5
330
18
100
AcDbEntity
  8
1
  6
Continuous
100
AcDbLine
 10
236.3864762657981
 20
97.61796688752202
 30
0.0
 11
236.3864762657981
 21
74.1179668875219
 31
0.0
  0
LINE
  5
19E6
330
18
100
AcDbEntity
  8
1
  6
Continuous
100
AcDbLine
 10
238.5515506348673
 20
97.61796688752202
 30
0.0
 11
238.5515506348673
 21
76.61796688752201
 31
0.0
  0
LINE
  5
19E7
330
18
100
AcDbEntity
  8
1
  6
Continuous
100
AcDbLine
 10
236.3864762657981
 20
76.61796688752201
 30
0.0
 11
244.285221935267
 21
76.61796688752201
 31
0.0
  0
LINE
  5
19E8
330
18
100
AcDbEntity
  8
1
  6
Continuous
100
AcDbLine
 10
236.3864762657981
 20
74.1179668875219
 30
0.0
 11
244.285221935267
 21
74.1179668875219
 31
0.0
  0
LINE
  5
19EA
330
18
100
AcDbEntity
  8
1
  6
Continuous
100
AcDbLine
 10
244.285221935267
 20
73.61796688752201
 30
0.0
 11
237.8688820002228
 21
73.61796688752201
 31
0.0
  0
ARC
  5
19EE
330
18
100
AcDbEntity
  8
1
  6
Continuous
100
AcDbCircle
 10
235.386476265798
 20
97.61796688752202
 30
0.0
 40
1.0
100
AcDbArc
 50
0.0
 51
89.99999999999955
  0
ARC
  5
19EF
330
18
100
AcDbEntity
  8
1
  6
Continuous
100
AcDbCircle
 10
237.5515506348674
 20
97.61796688752202
 30
0.0
 40
1.0
100
AcDbArc
 50
0.0
 51
89.99999999999962
  0
LINE
  5
19F2
330
18
100
AcDbEntity
  8
1
  6
Continuous
100
AcDbLine
 10
245.6668828729676
 20
124.1179668875219
 30
0.0
 11
245.6668828729676
 21
116.7951812538124
 31
0.0
  0
LINE
  5
19F4
330
18
100
AcDbEntity
  8
1
  6
Continuous
100
AcDbLine
 10
244.285221935267
 20
123.6179668875219
 30
0.0
 11
244.285221935267
 21
116.4761993545974
 31
0.0
  0
ARC
  5
19F6
330
18
100
AcDbEntity
  8
1
  6
Continuous
100
AcDbCircle
 10
243.6668828729676
 20
124.1179668875219
 30
0.0
 40
2.0
100
AcDbArc
 50
0.0
 51
90.0000000000001
  0
ARC
  5
19F7
330
18
100
AcDbEntity
  8
1
  6
Continuous
100
AcDbCircle
 10
243.6668828729676
 20
73.11796688752202
 30
0.0
 40
2.0
100
AcDbArc
 50
269.9999999999998
 51
0.0
  0
LINE
  5
19F8
330
18
100
AcDbEntity
  8
1
  6
Continuous
100
AcDbLine
 10
245.6668828729676
 20
80.44075891106816
 30
0.0
 11
245.6668828729676
 21
73.11796688752202
 31
0.0
  0
LINE
  5
19F9
330
18
100
AcDbEntity
  8
1
  6
Continuous
100
AcDbLine
 10
244.285221935267
 20
80.75974018605243
 30
0.0
 11
244.285221935267
 21
73.61796688752201
 31
0.0
  0
LINE
  5
19FA
330
18
100
AcDbEntity
  8
1
  6
Continuous
100
AcDbLine
 10
236.7241688729674
 20
120.6179668875219
 30
0.0
 11
244.285221935267
 21
120.6179668875219
 31
0.0
  0
LINE
  5
19FB
330
18
100
AcDbEntity
  8
1
  6
Continuous
100
AcDbLine
 10
236.7241688729674
 20
123.117966887522
 30
0.0
 11
244.285221935267
 21
123.1179668875219
 31
0.0
  0
ARC
  5
19FD
330
18
100
AcDbEntity
  8
1
  6
Continuous
100
AcDbCircle
 10
259.5015548729675
 20
124.1179668875219
 30
0.0
 40
2.0
100
AcDbArc
 50
0.0
 51
90.0000000000001
  0
LINE
  5
19FE
330
18
100
AcDbEntity
  8
1
  6
Continuous
100
AcDbLine
 10
261.5015548729675
 20
124.1179668875219
 30
0.0
 11
261.5015548729675
 21
117.6179668875219
 31
0.0
  0
LINE
  5
19FF
330
18
100
AcDbEntity
  8
1
  6
Continuous
100
AcDbLine
 10
261.5015548729675
 20
79.61796688752213
 30
0.0
 11
261.5015548729675
 21
73.11796688752202
 31
0.0
  0
ARC
  5
1A00
330
18
100
AcDbEntity
  8
1
  6
Continuous
100
AcDbCircle
 10
259.5015548729675
 20
73.11796688752202
 30
0.0
 40
2.0
100
AcDbArc
 50
269.9999999999998
 51
0.0
  0
LINE
  5
1A01
330
18
100
AcDbEntity
  8
1
  6
Continuous
100
AcDbLine
 10
268.0308318729676
 20
126.1179668875219
 30
0.0
 11
268.0308318729676
 21
126.6179668875219
 31
0.0
  0
LINE
  5
1A02
330
18
100
AcDbEntity
  8
1
  6
Continuous
100
AcDbLine
 10
273.0308238729676
 20
126.117966887522
 30
0.0
 11
273.0308238729676
 21
126.6179668875219
 31
0.0
  0
LINE
  5
1A03
330
18
100
AcDbEntity
  8
1
  6
Continuous
100
AcDbLine
 10
285.0308318729675
 20
126.1179668875219
 30
0.0
 11
285.0308318729675
 21
126.6179668875219
 31
0.0
  0
LINE
  5
1A04
330
18
100
AcDbEntity
  8
1
  6
Continuous
100
AcDbLine
 10
290.0308238729676
 20
126.117966887522
 30
0.0
 11
290.0308238729676
 21
126.6179668875219
 31
0.0
  0
LINE
  5
1A07
330
18
100
AcDbEntity
  8
1
  6
Continuous
100
AcDbLine
 10
268.0308178729676
 20
73.61796688752213
 30
0.0
 11
268.0308178729676
 21
79.61796688752213
 31
0.0
  0
LINE
  5
1A08
330
18
100
AcDbEntity
  8
1
  6
Continuous
100
AcDbLine
 10
284.2307938729677
 20
67.61796688752202
 30
0.0
 11
284.2307938729677
 21
70.61796688752202
 31
0.0
  0
LINE
  5
1A0A
330
18
100
AcDbEntity
  8
1
  6
Continuous
100
AcDbLine
 10
242.5130328729676
 20
116.0670568381991
 30
0.0
 11
242.5130328729676
 21
120.6179668875219
 31
0.0
  0
LINE
  5
1A0B
330
18
100
AcDbEntity
  8
1
  6
Continuous
100
AcDbLine
 10
242.5130328729676
 20
123.1179668875219
 30
0.0
 11
242.5130328729676
 21
123.6179668875219
 31
0.0
  0
LINE
  5
1A0F
330
18
100
AcDbEntity
  8
1
  6
Continuous
100
AcDbLine
 10
242.5130328729676
 20
81.16888190178061
 30
0.0
 11
242.5130328729676
 21
76.61796688752201
 31
0.0
  0
LINE
  5
1A10
330
18
100
AcDbEntity
  8
1
  6
Continuous
100
AcDbLine
 10
242.5130328729676
 20
74.1179668875219
 30
0.0
 11
242.5130328729676
 21
73.61796688752201
 31
0.0
  0
LINE
  5
1A11
330
18
100
AcDbEntity
  8
1
  6
Continuous
100
AcDbLine
 10
242.5308278729674
 20
73.61796688752201
 30
0.0
 11
242.5308278729676
 21
73.61796688752201
 31
0.0
  0
LINE
  5
1A12
330
18
100
AcDbEntity
  8
1
  6
Continuous
100
AcDbLine
 10
285.0308178729676
 20
70.61796688752213
 30
0.0
 11
285.0308178729676
 21
71.11796688752213
 31
0.0
  0
LINE
  5
1A13
330
18
100
AcDbEntity
  8
1
  6
Continuous
100
AcDbLine
 10
290.0308178729677
 20
70.61796688752213
 30
0.0
 11
290.0308178729677
 21
71.11796688752213
 31
0.0
  0
CIRCLE
  5
1A5B
330
18
100
AcDbEntity
  8
1
  6
Continuous
100
AcDbCircle
 10
752.5025500227392
 20
350.5402573239441
 30
0.0
 40
2.5
  0
CIRCLE
  5
1A5C
330
18
100
AcDbEntity
  8
1
  6
Continuous
100
AcDbCircle
 10
769.5025580227392
 20
357.5402803239441
 30
0.0
 40
2.5
  0
CIRCLE
  5
1A5D
330
18
100
AcDbEntity
  8
1
  6
Continuous
100
AcDbCircle
 10
785.0025420227392
 20
353.5402423239441
 30
0.0
 40
2.5
  0
CIRCLE
  5
1A5F
330
18
100
AcDbEntity
  8
5
  6
PHANTOM
 48
0.3
100
AcDbCircle
 10
779.3645040227393
 20
344.9310803239441
 30
0.0
 40
2.5
  0
CIRCLE
  5
1A60
330
18
100
AcDbEntity
  8
5
  6
PHANTOM
 48
0.3
100
AcDbCircle
 10
793.2714940227392
 20
331.8528143239441
 30
0.0
 40
2.5
  0
CIRCLE
  5
1A61
330
18
100
AcDbEntity
  8
1
  6
Continuous
100
AcDbCircle
 10
795.0203650227392
 20
336.2727403239442
 30
0.0
 40
2.5
  0
LINE
  5
2450
330
18
100
AcDbEntity
  8
1
  6
Continuous
100
AcDbLine
 10
102.476762713197
 20
346.5402722348093
 30
0.0
 11
102.9767627131972
 21
346.5402722348093
 31
0.0
  0
ARC
  5
2451
330
18
100
AcDbEntity
  8
1
  6
Continuous
100
AcDbCircle
 10
39.9767627980816
 20
356.0402723239442
 30
0.0
 40
1.5
100
AcDbArc
 50
180.000036
 51
270.0000179999999
  0
LINE
  5
2459
330
18
100
AcDbEntity
  8
1
  6
Continuous
100
AcDbLine
 10
803.3068553244618
 20
364.5731644787046
 30
0.0
 11
802.6598073244617
 21
362.1583494787046
 31
0.0
  0
ARC
  5
2939
330
18
100
AcDbEntity
  8
1
  6
Continuous
100
AcDbCircle
 10
301.7307938729676
 20
281.0401843239442
 30
0.0
 40
21.49999999999999
100
AcDbArc
 50
135.8364019942144
 51
4.017793675378626
  0
ARC
  5
293A
330
18
100
AcDbEntity
  8
1
  6
Continuous
100
AcDbCircle
 10
301.7307938729676
 20
281.0401843239442
 30
0.0
 40
52.5
100
AcDbArc
 50
100.9806420562249
 51
36.10538309589681
  0
ARC
  5
293B
330
18
100
AcDbEntity
  8
1
  6
Continuous
100
AcDbCircle
 10
301.7307938729676
 20
281.0401843239442
 30
0.0
 40
44.512512
100
AcDbArc
 50
104.5209006211885
 51
32.64342652521153
  0
ARC
  5
293C
330
18
100
AcDbEntity
  8
1
  6
Continuous
100
AcDbCircle
 10
301.7307938729676
 20
281.0401843239442
 30
0.0
 40
62.49999200000001
100
AcDbArc
 50
104.5069178235117
 51
39.13403183027872
  0
ARC
  5
2AA2
330
18
100
AcDbEntity
  8
1
  6
Continuous
100
AcDbCircle
 10
738.3026445182037
 20
281.0401843239442
 30
0.0
 40
44.512512
100
AcDbArc
 50
147.3565734747884
 51
75.47909937881144
  0
ARC
  5
2AA3
330
18
100
AcDbEntity
  8
1
  6
Continuous
100
AcDbCircle
 10
738.3026445182037
 20
281.0401843239442
 30
0.0
 40
62.49999200000001
100
AcDbArc
 50
140.8659681697211
 51
75.49308217648811
  0
ARC
  5
2AA4
330
18
100
AcDbEntity
  8
1
  6
Continuous
100
AcDbCircle
 10
738.3026445182037
 20
281.0401843239442
 30
0.0
 40
52.5
100
AcDbArc
 50
143.8946169041031
 51
79.01935794377499
  0
ARC
  5
2AA5
330
18
100
AcDbEntity
  8
1
  6
Continuous
100
AcDbCircle
 10
738.3026445182037
 20
281.0401843239442
 30
0.0
 40
21.49999999999999
100
AcDbArc
 50
175.9822063246213
 51
44.16359800578542
  0
LINE
  5
2ABA
330
18
100
AcDbEntity
  8
1
  6
Continuous
100
AcDbLine
 10
282.3306738729675
 20
487.8444952806924
 30
0.0
 11
273.0308238729676
 21
487.8444952806923
 31
0.0
  0
LINE
  5
2ABB
330
18
100
AcDbEntity
  8
1
  6
Continuous
100
AcDbLine
 10
282.3306738729675
 20
525.8444952806923
 30
0.0
 11
273.0308238729676
 21
525.8444952806923
 31
0.0
  0
LINE
  5
2ACA
330
18
100
AcDbEntity
  8
1
  6
Continuous
100
AcDbLine
 10
47.60991279808161
 20
302.5177514239441
 30
0.0
 11
52.47675479808163
 21
303.1173593239441
 31
0.0
  0
LINE
  5
2ACB
330
18
100
AcDbEntity
  8
1
  6
Continuous
100
AcDbLine
 10
47.60991279808161
 20
259.5627772239442
 30
0.0
 11
52.47675479808163
 21
258.9631693239442
 31
0.0
  0
ARC
  5
2ACC
330
18
100
AcDbEntity
  8
1
  6
Continuous
100
AcDbCircle
 10
47.9767627980816
 20
299.5402643239442
 30
0.0
 40
3.0
100
AcDbArc
 50
97.02358999999935
 51
180.0000100000009
  0
LINE
  5
2ACD
330
18
100
AcDbEntity
  8
1
  6
Continuous
100
AcDbLine
 10
44.97676279808159
 20
262.5402643239441
 30
0.0
 11
44.97676279808159
 21
299.5402638003453
 31
0.0
  0
LINE
  5
2ACE
330
18
100
AcDbEntity
  8
1
  6
Continuous
100
AcDbLine
 10
44.47676279808161
 20
267.040264323944
 30
0.0
 11
44.47676279808161
 21
295.0402641494111
 31
0.0
  0
ARC
  5
2ACF
330
18
100
AcDbEntity
  8
1
  6
Continuous
100
AcDbCircle
 10
45.4767627980816
 20
267.040264323944
 30
0.0
 40
1.0
100
AcDbArc
 50
179.9999899999988
 51
240.0004999999988
  0
ARC
  5
2AD0
330
18
100
AcDbEntity
  8
1
  6
Continuous
100
AcDbCircle
 10
47.9767627980816
 20
262.5402643239441
 30
0.0
 40
3.0
100
AcDbArc
 50
179.9999899999988
 51
262.9764100000006
  0
LINE
  5
2AD1
330
18
100
AcDbEntity
  8
1
  6
Continuous
100
AcDbLine
 10
43.47676279808149
 20
272.5402643239442
 30
0.0
 11
44.47676279808149
 21
272.5402643239442
 31
0.0
  0
LINE
  5
2AD2
330
18
100
AcDbEntity
  8
1
  6
Continuous
100
AcDbLine
 10
43.47676279808149
 20
289.5402643239441
 30
0.0
 11
44.47676279808149
 21
289.5402643239441
 31
0.0
  0
ARC
  5
2AD3
330
18
100
AcDbEntity
  8
1
  6
Continuous
100
AcDbCircle
 10
45.4767627980816
 20
295.0402643239442
 30
0.0
 40
1.0
100
AcDbArc
 50
119.9995000000011
 51
180.0000100000009
  0
LINE
  5
2AD4
330
18
100
AcDbEntity
  8
1
  6
Continuous
100
AcDbLine
 10
90.47676279808159
 20
228.5402643239442
 30
0.0
 11
90.47676279808156
 21
312.0966993239442
 31
0.0
  0
LINE
  5
2AD5
330
18
100
AcDbEntity
  8
1
  6
Continuous
100
AcDbLine
 10
52.4767627980816
 20
228.5402643239442
 30
0.0
 11
52.4767627980816
 21
323.3547943239441
 31
0.0
  0
ARC
  5
2AD6
330
18
100
AcDbEntity
  8
1
  6
Continuous
100
AcDbCircle
 10
71.47676279808161
 20
343.5402643239441
 30
0.0
 40
125.0
100
AcDbArc
 50
270.0
 51
276.8281399999984
  0
ARC
  5
2AD7
330
18
100
AcDbEntity
  8
1
  6
Continuous
100
AcDbCircle
 10
71.47676279808161
 20
343.5402643239441
 30
0.0
 40
125.0
100
AcDbArc
 50
263.1718600000013
 51
270.0
  0
LINE
  5
2AD8
330
18
100
AcDbEntity
  8
1
  6
Continuous
100
AcDbLine
 10
52.47675479808163
 20
228.5402603239442
 30
0.0
 11
54.0488607980816
 21
221.7307283239442
 31
0.0
  0
ARC
  5
2AD9
330
18
100
AcDbEntity
  8
1
  6
Continuous
100
AcDbCircle
 10
56.9719717980816
 20
222.4055823239442
 30
0.0
 40
3.0
100
AcDbArc
 50
193.000000000001
 51
263.1718600000013
  0
ARC
  5
2ADA
330
18
100
AcDbEntity
  8
1
  6
Continuous
100
AcDbCircle
 10
85.98155379808162
 20
222.4055823239442
 30
0.0
 40
3.0
100
AcDbArc
 50
276.8281399999984
 51
346.9999999999988
  0
LINE
  5
2ADB
330
18
100
AcDbEntity
  8
1
  6
Continuous
100
AcDbLine
 10
90.47676279808159
 20
228.5402603239442
 30
0.0
 11
88.90466079808161
 21
221.7307323239442
 31
0.0
  0
LINE
  5
2ADC
330
18
100
AcDbEntity
  8
1
  6
Continuous
100
AcDbLine
 10
95.34359979808163
 20
302.5177514239441
 30
0.0
 11
90.47677379808156
 21
303.1173574239442
 31
0.0
  0
ARC
  5
2ADD
330
18
100
AcDbEntity
  8
1
  6
Continuous
100
AcDbCircle
 10
94.97676279808159
 20
299.5402643239442
 30
0.0
 40
3.0
100
AcDbArc
 50
0.0
 51
82.97640000000042
  0
LINE
  5
2ADE
330
18
100
AcDbEntity
  8
1
  6
Continuous
100
AcDbLine
 10
97.97676279808159
 20
262.5402643239441
 30
0.0
 11
97.97676279808159
 21
299.5402643239442
 31
0.0
  0
LINE
  5
2ADF
330
18
100
AcDbEntity
  8
1
  6
Continuous
100
AcDbLine
 10
98.47676279808162
 20
267.040264323944
 30
0.0
 11
98.47676279808162
 21
295.0402643239442
 31
0.0
  0
ARC
  5
2AE0
330
18
100
AcDbEntity
  8
1
  6
Continuous
100
AcDbCircle
 10
97.4767627980816
 20
267.040264323944
 30
0.0
 40
1.0
100
AcDbArc
 50
299.9994899999994
 51
0.0
  0
LINE
  5
2AE1
330
18
100
AcDbEntity
  8
1
  6
Continuous
100
AcDbLine
 10
95.34359979808163
 20
259.5627772239442
 30
0.0
 11
90.47677379808156
 21
258.963171223944
 31
0.0
  0
ARC
  5
2AE2
330
18
100
AcDbEntity
  8
1
  6
Continuous
100
AcDbCircle
 10
94.97676279808159
 20
262.5402643239441
 30
0.0
 40
3.0
100
AcDbArc
 50
277.0235999999996
 51
0.0
  0
LINE
  5
2AE3
330
18
100
AcDbEntity
  8
1
  6
Continuous
100
AcDbLine
 10
98.47676279808162
 20
272.5402643239442
 30
0.0
 11
99.4767627980816
 21
272.5402643239442
 31
0.0
  0
LINE
  5
2AE4
330
18
100
AcDbEntity
  8
1
  6
Continuous
100
AcDbLine
 10
99.4767627980816
 20
289.5402643239441
 30
0.0
 11
98.47676279808162
 21
289.5402643239441
 31
0.0
  0
ARC
  5
2AE5
330
18
100
AcDbEntity
  8
1
  6
Continuous
100
AcDbCircle
 10
97.4767627980816
 20
295.0402643239442
 30
0.0
 40
1.0
100
AcDbArc
 50
0.0
 51
60.00051000000049
  0
LINE
  5
2AEC
330
18
100
AcDbEntity
  8
1
  6
Continuous
100
AcDbLine
 10
496.1498499478533
 20
259.5627772239442
 30
0.0
 11
501.0166759478535
 21
258.963171223944
 31
0.0
  0
LINE
  5
2AED
330
18
100
AcDbEntity
  8
1
  6
Continuous
100
AcDbLine
 10
496.1498499478533
 20
302.5177514239441
 30
0.0
 11
501.0166759478535
 21
303.1173574239442
 31
0.0
  0
ARC
  5
2AEE
330
18
100
AcDbEntity
  8
1
  6
Continuous
100
AcDbCircle
 10
496.5166869478535
 20
299.5402643239442
 30
0.0
 40
3.0
100
AcDbArc
 50
97.02359999999961
 51
180.0
  0
LINE
  5
2AEF
330
18
100
AcDbEntity
  8
1
  6
Continuous
100
AcDbLine
 10
493.0166869478535
 20
267.040264323944
 30
0.0
 11
493.0166869478535
 21
295.0402643239442
 31
0.0
  0
LINE
  5
2AF0
330
18
100
AcDbEntity
  8
1
  6
Continuous
100
AcDbLine
 10
493.5166869478535
 20
262.5402643239441
 30
0.0
 11
493.5166869478535
 21
299.5402643239442
 31
0.0
  0
ARC
  5
2AF1
330
18
100
AcDbEntity
  8
1
  6
Continuous
100
AcDbCircle
 10
494.0166869478535
 20
267.040264323944
 30
0.0
 40
1.0
100
AcDbArc
 50
180.0
 51
240.0005100000005
  0
ARC
  5
2AF2
330
18
100
AcDbEntity
  8
1
  6
Continuous
100
AcDbCircle
 10
496.5166869478535
 20
262.5402643239441
 30
0.0
 40
3.0
100
AcDbArc
 50
180.0
 51
262.9764000000004
  0
LINE
  5
2AF3
330
18
100
AcDbEntity
  8
1
  6
Continuous
100
AcDbLine
 10
493.0166869478535
 20
272.5402643239442
 30
0.0
 11
492.0166869478533
 21
272.5402643239442
 31
0.0
  0
LINE
  5
2AF4
330
18
100
AcDbEntity
  8
1
  6
Continuous
100
AcDbLine
 10
492.0166869478533
 20
289.5402643239441
 30
0.0
 11
493.0166869478535
 21
289.5402643239441
 31
0.0
  0
ARC
  5
2AF5
330
18
100
AcDbEntity
  8
1
  6
Continuous
100
AcDbCircle
 10
494.0166869478535
 20
295.0402643239442
 30
0.0
 40
1.0
100
AcDbArc
 50
119.9994899999994
 51
180.0
  0
LINE
  5
2AF6
330
18
100
AcDbEntity
  8
1
  6
Continuous
100
AcDbLine
 10
539.0166869478535
 20
228.5402643239442
 30
0.0
 11
539.0166869478535
 21
333.5403029757145
 31
0.0
  0
LINE
  5
2AF7
330
18
100
AcDbEntity
  8
1
  6
Continuous
100
AcDbLine
 10
501.0166869478535
 20
228.5402643239442
 30
0.0
 11
501.0166869478536
 21
333.540268323944
 31
0.0
  0
ARC
  5
2AF8
330
18
100
AcDbEntity
  8
1
  6
Continuous
100
AcDbCircle
 10
520.0166869478533
 20
343.5402643239441
 30
0.0
 40
125.0
100
AcDbArc
 50
270.0
 51
276.8281399999984
  0
ARC
  5
2AF9
330
18
100
AcDbEntity
  8
1
  6
Continuous
100
AcDbCircle
 10
520.0166869478533
 20
343.5402643239441
 30
0.0
 40
125.0
100
AcDbArc
 50
263.1718600000013
 51
270.0
  0
LINE
  5
2AFA
330
18
100
AcDbEntity
  8
1
  6
Continuous
100
AcDbLine
 10
501.0166869478535
 20
228.5402603239442
 30
0.0
 11
502.5887889478534
 21
221.7307323239442
 31
0.0
  0
ARC
  5
2AFB
330
18
100
AcDbEntity
  8
1
  6
Continuous
100
AcDbCircle
 10
505.5118959478535
 20
222.4055823239442
 30
0.0
 40
3.0
100
AcDbArc
 50
193.000000000001
 51
263.1718600000013
  0
ARC
  5
2AFC
330
18
100
AcDbEntity
  8
1
  6
Continuous
100
AcDbCircle
 10
534.5214779478534
 20
222.4055823239442
 30
0.0
 40
3.0
100
AcDbArc
 50
276.8281399999984
 51
346.999999999999
  0
LINE
  5
2AFD
330
18
100
AcDbEntity
  8
1
  6
Continuous
100
AcDbLine
 10
539.0166949478533
 20
228.5402603239442
 30
0.0
 11
537.4445889478534
 21
221.7307283239442
 31
0.0
  0
ARC
  5
2AFE
330
18
100
AcDbEntity
  8
1
  6
Continuous
100
AcDbCircle
 10
543.5166869478535
 20
299.5402643239442
 30
0.0
 40
3.0
100
AcDbArc
 50
359.999989999999
 51
82.97641000000067
  0
LINE
  5
2AFF
330
18
100
AcDbEntity
  8
1
  6
Continuous
100
AcDbLine
 10
543.8835369478534
 20
302.5177514239441
 30
0.0
 11
539.0166949478533
 21
303.1173593239441
 31
0.0
  0
LINE
  5
2B00
330
18
100
AcDbEntity
  8
1
  6
Continuous
100
AcDbLine
 10
547.0166869478535
 20
267.040264323944
 30
0.0
 11
547.0166869478535
 21
295.0402641494111
 31
0.0
  0
LINE
  5
2B01
330
18
100
AcDbEntity
  8
1
  6
Continuous
100
AcDbLine
 10
546.5166869478535
 20
262.5402643239441
 30
0.0
 11
546.5166869478535
 21
299.5402638003453
 31
0.0
  0
ARC
  5
2B02
330
18
100
AcDbEntity
  8
1
  6
Continuous
100
AcDbCircle
 10
546.0166869478533
 20
267.040264323944
 30
0.0
 40
1.0
100
AcDbArc
 50
299.9995000000012
 51
0.0000100000010134
  0
LINE
  5
2B03
330
18
100
AcDbEntity
  8
1
  6
Continuous
100
AcDbLine
 10
543.8835369478534
 20
259.5627772239442
 30
0.0
 11
539.0166949478533
 21
258.9631693239442
 31
0.0
  0
ARC
  5
2B04
330
18
100
AcDbEntity
  8
1
  6
Continuous
100
AcDbCircle
 10
543.5166869478535
 20
262.5402643239441
 30
0.0
 40
3.0
100
AcDbArc
 50
277.0235899999993
 51
0.0000100000010134
  0
LINE
  5
2B05
330
18
100
AcDbEntity
  8
1
  6
Continuous
100
AcDbLine
 10
548.0166869478535
 20
272.5402643239442
 30
0.0
 11
547.0166869478537
 21
272.5402643239442
 31
0.0
  0
LINE
  5
2B06
330
18
100
AcDbEntity
  8
1
  6
Continuous
100
AcDbLine
 10
548.0166869478535
 20
289.5402643239441
 30
0.0
 11
547.0166869478537
 21
289.5402643239441
 31
0.0
  0
ARC
  5
2B07
330
18
100
AcDbEntity
  8
1
  6
Continuous
100
AcDbCircle
 10
546.0166869478533
 20
295.0402643239442
 30
0.0
 40
1.0
100
AcDbArc
 50
359.999989999999
 51
60.0004999999988
  0
ARC
  5
2B08
330
18
100
AcDbEntity
  8
1
  6
Continuous
100
AcDbCircle
 10
520.0166869478533
 20
218.5402643239441
 30
0.0
 40
125.0
100
AcDbArc
 50
83.17186000000145
 51
89.99999999999998
  0
ARC
  5
2B09
330
18
100
AcDbEntity
  8
1
  6
Continuous
100
AcDbCircle
 10
520.0166869478533
 20
218.5402643239441
 30
0.0
 40
125.0
100
AcDbArc
 50
89.99999999999998
 51
96.82813999999851
  0
LINE
  5
2B0A
330
18
100
AcDbEntity
  8
1
  6
Continuous
100
AcDbLine
 10
501.0166869478535
 20
333.5402683239442
 30
0.0
 11
502.5887889478534
 21
340.3497963239441
 31
0.0
  0
ARC
  5
2B0B
330
18
100
AcDbEntity
  8
1
  6
Continuous
100
AcDbCircle
 10
505.5118959478535
 20
339.6749463239442
 30
0.0
 40
3.0
100
AcDbArc
 50
96.82813999999851
 51
166.9999999999989
  0
LINE
  5
2B0C
330
18
100
AcDbEntity
  8
1
  6
Continuous
100
AcDbLine
 10
539.0166949478533
 20
333.5402683239442
 30
0.0
 11
537.4445889478534
 21
340.3498003239441
 31
0.0
  0
ARC
  5
2B0D
330
18
100
AcDbEntity
  8
1
  6
Continuous
100
AcDbCircle
 10
534.5214779478534
 20
339.6749463239442
 30
0.0
 40
3.0
100
AcDbArc
 50
13.00000000000099
 51
83.17186000000145
  0
LINE
  5
2B35
330
18
100
AcDbEntity
  8
1
  6
Continuous
100
AcDbLine
 10
354.2307938729677
 20
79.61796688752206
 30
0.0
 11
249.2307898729678
 21
79.61796688752213
 31
0.0
  0
LINE
  5
2B36
330
18
100
AcDbEntity
  8
1
  6
Continuous
100
AcDbLine
 10
354.2307938729677
 20
117.6179668875219
 30
0.0
 11
249.2307552211973
 21
117.6179668875219
 31
0.0
  0
LINE
  5
2B37
330
18
100
AcDbEntity
  8
1
  6
Continuous
100
AcDbLine
 10
249.2307898729676
 20
117.6179748875219
 30
0.0
 11
242.4212578729676
 21
116.0458688875219
 31
0.0
  0
LINE
  5
2B38
330
18
100
AcDbEntity
  8
1
  6
Continuous
100
AcDbLine
 10
249.2307898729676
 20
79.61796688752206
 30
0.0
 11
242.4212618729676
 21
81.19006888752204
 31
0.0
  0
ARC
  5
2B39
330
18
100
AcDbEntity
  8
1
  6
Continuous
100
AcDbCircle
 10
364.2307938729675
 20
98.61796688752209
 30
0.0
 40
125.0
100
AcDbArc
 50
180.0
 51
186.8281399999985
  0
ARC
  5
2B3A
330
18
100
AcDbEntity
  8
1
  6
Continuous
100
AcDbCircle
 10
243.0961118729676
 20
84.11317588752206
 30
0.0
 40
3.0
100
AcDbArc
 50
186.8281399999985
 51
256.9999999999989
  0
ARC
  5
2B3B
330
18
100
AcDbEntity
  8
1
  6
Continuous
100
AcDbCircle
 10
364.2307938729675
 20
98.61796688752209
 30
0.0
 40
125.0
100
AcDbArc
 50
173.1718600000014
 51
180.0
  0
ARC
  5
2B3C
330
18
100
AcDbEntity
  8
1
  6
Continuous
100
AcDbCircle
 10
243.0961118729676
 20
113.1227578875219
 30
0.0
 40
3.0
100
AcDbArc
 50
103.000000000001
 51
173.1718600000014
  0
ARC
  5
2B3D
330
18
100
AcDbEntity
  8
1
  6
Continuous
100
AcDbCircle
 10
320.2307938729676
 20
75.11796688752204
 30
0.0
 40
3.0
100
AcDbArc
 50
270.0
 51
352.9764000000003
  0
ARC
  5
2B3E
330
18
100
AcDbEntity
  8
1
  6
Continuous
100
AcDbCircle
 10
283.2307938729676
 20
75.11796688752204
 30
0.0
 40
3.0
100
AcDbArc
 50
187.0235999999995
 51
270.0
  0
LINE
  5
2B3F
330
18
100
AcDbEntity
  8
1
  6
Continuous
100
AcDbLine
 10
320.2307938729676
 20
72.11796688752206
 30
0.0
 11
283.2307938729676
 21
72.11796688752206
 31
0.0
  0
LINE
  5
2B40
330
18
100
AcDbEntity
  8
1
  6
Continuous
100
AcDbLine
 10
315.7307938729676
 20
71.61796688752206
 30
0.0
 11
287.7307938729677
 21
71.61796688752206
 31
0.0
  0
ARC
  5
2B41
330
18
100
AcDbEntity
  8
1
  6
Continuous
100
AcDbCircle
 10
287.7307938729677
 20
72.61796688752204
 30
0.0
 40
1.0
100
AcDbArc
 50
209.9994899999995
 51
270.0
  0
LINE
  5
2B42
330
18
100
AcDbEntity
  8
1
  6
Continuous
100
AcDbLine
 10
293.2307938729676
 20
70.61796688752206
 30
0.0
 11
293.2307938729676
 21
71.61796688752206
 31
0.0
  0
LINE
  5
2B43
330
18
100
AcDbEntity
  8
1
  6
Continuous
100
AcDbLine
 10
310.2307938729676
 20
71.61796688752206
 30
0.0
 11
310.2307938729676
 21
70.61796688752206
 31
0.0
  0
ARC
  5
2B44
330
18
100
AcDbEntity
  8
1
  6
Continuous
100
AcDbCircle
 10
315.7307938729676
 20
72.61796688752204
 30
0.0
 40
1.0
100
AcDbArc
 50
270.0
 51
330.0005100000006
  0
LINE
  5
2B45
330
18
100
AcDbEntity
  8
1
  6
Continuous
100
AcDbLine
 10
323.2082809729677
 20
122.4848168875219
 30
0.0
 11
323.8078888729676
 21
117.6179748875219
 31
0.0
  0
LINE
  5
2B46
330
18
100
AcDbEntity
  8
1
  6
Continuous
100
AcDbLine
 10
280.2533067729676
 20
122.4848168875219
 30
0.0
 11
279.6536988729676
 21
117.6179748875219
 31
0.0
  0
LINE
  5
2B47
330
18
100
AcDbEntity
  8
1
  6
Continuous
100
AcDbLine
 10
280.2533067729676
 20
74.75112988752205
 30
0.0
 11
279.6537007729676
 21
79.6179558875221
 31
0.0
  0
LINE
  5
2B48
330
18
100
AcDbEntity
  8
1
  6
Continuous
100
AcDbLine
 10
323.2082809729677
 20
74.75112988752205
 30
0.0
 11
323.8078869729676
 21
79.6179558875221
 31
0.0
  0
LINE
  5
2B49
330
18
100
AcDbEntity
  8
1
  6
Continuous
100
AcDbLine
 10
320.2307938729676
 20
125.1179668875219
 30
0.0
 11
283.2307943965665
 21
125.1179668875219
 31
0.0
  0
LINE
  5
2B4A
330
18
100
AcDbEntity
  8
1
  6
Continuous
100
AcDbLine
 10
315.7307938729676
 20
125.6179668875219
 30
0.0
 11
287.7307940475006
 21
125.6179668875219
 31
0.0
  0
ARC
  5
2B4B
330
18
100
AcDbEntity
  8
1
  6
Continuous
100
AcDbCircle
 10
287.7307938729677
 20
124.6179668875219
 30
0.0
 40
1.0
100
AcDbArc
 50
89.99998999999901
 51
150.0004999999988
  0
ARC
  5
2B4C
330
18
100
AcDbEntity
  8
1
  6
Continuous
100
AcDbCircle
 10
283.2307938729676
 20
122.1179668875219
 30
0.0
 40
3.0
100
AcDbArc
 50
89.99998999999901
 51
172.9764100000006
  0
LINE
  5
2B4D
330
18
100
AcDbEntity
  8
1
  6
Continuous
100
AcDbLine
 10
293.2307938729676
 20
126.617966887522
 30
0.0
 11
293.2307938729676
 21
125.617966887522
 31
0.0
  0
LINE
  5
2B4E
330
18
100
AcDbEntity
  8
1
  6
Continuous
100
AcDbLine
 10
310.2307938729676
 20
126.617966887522
 30
0.0
 11
310.2307938729676
 21
125.617966887522
 31
0.0
  0
ARC
  5
2B4F
330
18
100
AcDbEntity
  8
1
  6
Continuous
100
AcDbCircle
 10
320.2307938729676
 20
122.1179668875219
 30
0.0
 40
3.0
100
AcDbArc
 50
7.023589999999382
 51
90.00001000000102
  0
ARC
  5
2B50
330
18
100
AcDbEntity
  8
1
  6
Continuous
100
AcDbCircle
 10
315.7307938729676
 20
124.6179668875219
 30
0.0
 40
1.0
100
AcDbArc
 50
29.9995000000012
 51
90.00001000000102
  0
ARC
  5
2B51
330
18
100
AcDbEntity
  8
1
  6
Continuous
100
AcDbCircle
 10
239.2307938729676
 20
98.61796688752209
 30
0.0
 40
125.0
100
AcDbArc
 50
353.1718600000013
 51
0.0
  0
LINE
  5
2B52
330
18
100
AcDbEntity
  8
1
  6
Continuous
100
AcDbLine
 10
354.2307978729676
 20
79.61796688752206
 30
0.0
 11
361.0403258729677
 21
81.19006888752204
 31
0.0
  0
ARC
  5
2B53
330
18
100
AcDbEntity
  8
1
  6
Continuous
100
AcDbCircle
 10
360.3654758729676
 20
84.11317588752206
 30
0.0
 40
3.0
100
AcDbArc
 50
283.0000000000008
 51
353.1718600000013
  0
ARC
  5
2B54
330
18
100
AcDbEntity
  8
1
  6
Continuous
100
AcDbCircle
 10
239.2307938729676
 20
98.61796688752209
 30
0.0
 40
125.0
100
AcDbArc
 50
0.0
 51
6.828139999998521
  0
LINE
  5
2B55
330
18
100
AcDbEntity
  8
1
  6
Continuous
100
AcDbLine
 10
354.2307978729676
 20
117.6179748875219
 30
0.0
 11
361.0403298729676
 21
116.0458688875219
 31
0.0
  0
ARC
  5
2B56
330
18
100
AcDbEntity
  8
1
  6
Continuous
100
AcDbCircle
 10
360.3654758729676
 20
113.1227578875219
 30
0.0
 40
3.0
100
AcDbArc
 50
6.828139999998521
 51
76.999999999999
  0
ENDSEC
  0
SECTION
  2
OBJECTS
  0
DICTIONARY
  5
C
330
0
100
AcDbDictionary
281
     1
  3
ACAD_CIP_PREVIOUS_PRODUCT_INFO
350
2BFB
  3
ACAD_COLOR
350
2BDE
  3
ACAD_DETAILVIEWSTYLE
350
2BF7
  3
ACAD_GROUP
350
D
  3
ACAD_LAYOUT
350
5D
  3
ACAD_MATERIAL
350
2BAC
  3
ACAD_MLEADERSTYLE
350
2BF3
  3
ACAD_MLINESTYLE
350
1B
  3
ACAD_PLOTSETTINGS
350
5E
  3
ACAD_PLOTSTYLENAME
350
2BAA
  3
ACAD_SCALELIST
350
2BE1
  3
ACAD_SECTIONVIEWSTYLE
350
2BF5
  3
ACAD_TABLESTYLE
350
2BDF
  3
ACAD_VISUALSTYLE
350
2BC5
  3
ACDB_RECOMPOSE_DATA
350
2C19
  3
AcDbVariableDictionary
350
2C0C
  3
CONTENTDICTIONARY
350
3D
  3
DWGPROPS
350
2C1A
  0
DICTIONARY
  5
2BFC
330
E
100
AcDbDictionary
280
     1
281
     1
  3
ADSK_XREC_LAYER_RECONCILED
360
2BFD
  0
DICTIONARY
  5
2BFE
330
65
100
AcDbDictionary
280
     1
281
     1
  3
ADSK_XREC_LAYER_RECONCILED
360
2BFF
  0
DICTIONARY
  5
2C00
330
66
100
AcDbDictionary
280
     1
281
     1
  3
ADSK_XREC_LAYER_RECONCILED
360
2C01
  0
DICTIONARY
  5
2C02
330
67
100
AcDbDictionary
280
     1
281
     1
  3
ADSK_XREC_LAYER_RECONCILED
360
2C03
  0
DICTIONARY
  5
2C04
330
68
100
AcDbDictionary
280
     1
281
     1
  3
ADSK_XREC_LAYER_RECONCILED
360
2C05
  0
DICTIONARY
  5
2C06
330
69
100
AcDbDictionary
280
     1
281
     1
  3
ADSK_XREC_LAYER_RECONCILED
360
2C07
  0
DICTIONARY
  5
2C08
330
6A
100
AcDbDictionary
280
     1
281
     1
  3
ADSK_XREC_LAYER_RECONCILED
360
2C09
  0
DICTIONARY
  5
2C0A
330
6B
100
AcDbDictionary
280
     1
281
     1
  3
ADSK_XREC_LAYER_RECONCILED
360
2C0B
  0
DICTIONARY
  5
2B8D
330
18
100
AcDbDictionary
281
     1
  3
ACAD_LAYOUTSELFREF
350
2BA6
  0
DICTIONARY
  5
2B8B
330
15
100
AcDbDictionary
281
     1
  3
ACAD_LAYOUTSELFREF
350
2BA5
  0
XRECORD
  5
2BFB
102
{ACAD_REACTORS
330
C
102
}
330
C
100
AcDbXrecord
280
     1
300
ACDLT
300
2014
300
ACDLT_F_S
  0
DICTIONARY
  5
2BDE
102
{ACAD_REACTORS
330
C
102
}
330
C
100
AcDbDictionary
281
     1
  0
DICTIONARY
  5
2BF7
102
{ACAD_REACTORS
330
C
102
}
330
C
100
AcDbDictionary
281
     1
  3
Imperial24
350
2BF8
  0
DICTIONARY
  5
D
102
{ACAD_REACTORS
330
C
102
}
330
C
100
AcDbDictionary
281
     1
  0
DICTIONARY
  5
5D
102
{ACAD_REACTORS
330
C
102
}
330
C
100
AcDbDictionary
281
     1
  3
Model
350
2BF9
  3
レイアウト1
350
2BFA
  0
DICTIONARY
  5
2BAC
102
{ACAD_REACTORS
330
C
102
}
330
C
100
AcDbDictionary
281
     1
  3
ByBlock
350
2BB5
  3
ByLayer
350
2BAD
  3
Global
350
2BBD
  0
DICTIONARY
  5
2BF3
102
{ACAD_REACTORS
330
C
102
}
330
C
100
AcDbDictionary
281
     1
  3
Standard
350
2BF4
  0
DICTIONARY
  5
1B
102
{ACAD_REACTORS
330
C
102
}
330
C
100
AcDbDictionary
281
     1
  3
STANDARD
350
1C
  0
DICTIONARY
  5
5E
102
{ACAD_REACTORS
330
C
102
}
330
C
100
AcDbDictionary
281
     1
  0
ACDBDICTIONARYWDFLT
  5
2BAA
102
{ACAD_REACTORS
330
C
102
}
330
C
100
AcDbDictionary
281
     1
  3
Normal
350
2BAB
100
AcDbDictionaryWithDefault
340
2BAB
  0
DICTIONARY
  5
2BE1
102
{ACAD_REACTORS
330
C
102
}
330
C
100
AcDbDictionary
281
     1
  3
A0
350
2BE2
  3
A1
350
2BE3
  3
A2
350
2BE4
  3
A3
350
2BE5
  3
A4
350
2BE6
  3
A5
350
2BE7
  3
A6
350
2BE8
  3
A7
350
2BE9
  3
A8
350
2BEA
  3
A9
350
2BEB
  3
B0
350
2BEC
  3
B1
350
2BED
  3
B2
350
2BEE
  3
B3
350
2BEF
  3
B4
350
2BF0
  3
B5
350
2BF1
  3
B6
350
2BF2
  0
DICTIONARY
  5
2BF5
102
{ACAD_REACTORS
330
C
102
}
330
C
100
AcDbDictionary
281
     1
  3
Imperial24
350
2BF6
  0
DICTIONARY
  5
2BDF
102
{ACAD_REACTORS
330
C
102
}
330
C
100
AcDbDictionary
281
     1
  3
Standard
350
2BE0
  0
DICTIONARY
  5
2BC5
102
{ACAD_REACTORS
330
C
102
}
330
C
100
AcDbDictionary
281
     1
  3
2dWireframe
350
2BCB
  3
Basic
350
2BCA
  3
Brighten
350
2BD1
  3
ColorChange
350
2BD5
  3
Conceptual
350
2BCE
  3
Dim
350
2BD0
  3
EdgeColorOff
350
2BDD
  3
Facepattern
350
2BD4
  3
Flat
350
2BC6
  3
FlatWithEdges
350
2BC7
  3
Gouraud
350
2BC8
  3
GouraudWithEdges
350
2BC9
  3
Hidden
350
2BCD
  3
JitterOff
350
2BDB
  3
Linepattern
350
2BD3
  3
OverhangOff
350
2BDC
  3
Realistic
350
2BCF
  3
Shaded
350
2BDA
  3
Shaded with edges
350
2BD9
  3
Shades of Gray
350
2BD6
  3
Sketchy
350
2BD7
  3
Thicken
350
2BD2
  3
Wireframe
350
2BCC
  3
X-Ray
350
2BD8
  0
XRECORD
  5
2C19
102
{ACAD_REACTORS
330
C
102
}
330
C
100
AcDbXrecord
280
     1
 90
        1
330
2BE0
  0
DICTIONARY
  5
2C0C
102
{ACAD_REACTORS
330
C
102
}
330
C
100
AcDbDictionary
281
     1
  3
CANNOSCALE
350
2C11
  3
CMLEADERSTYLE
350
2C0E
  3
CTABLESTYLE
350
2C0D
  3
CVIEWDETAILSTYLE
350
2C0F
  3
CVIEWSECTIONSTYLE
350
2C10
  3
DIMASSOC
350
2C14
  3
INDEXCTL
350
2C13
  3
SORTENTS
350
2C12
  3
XCLIPFRAME
350
2C15
  0
DICTIONARY
  5
3D
102
{ACAD_REACTORS
330
C
102
}
330
C
100
AcDbDictionary
281
     1
  0
XRECORD
  5
2C1A
102
{ACAD_REACTORS
330
C
102
}
330
C
100
AcDbXrecord
280
     1
  1
DWGPROPS COOKIE
  2

  3

  4

  6

  7

  8
Yoshitsune
  9

300
=
301
=
302
=
303
=
304
=
305
=
306
=
307
=
308
=
309
=
 40
0.3074007407407407
 41
2453283.504009873
 42
2457192.689103843
  1

 90
        0
  0
XRECORD
  5
2BFD
102
{ACAD_REACTORS
330
2BFC
102
}
330
2BFC
100
AcDbXrecord
280
     1
290
     1
  0
XRECORD
  5
2BFF
102
{ACAD_REACTORS
330
2BFE
102
}
330
2BFE
100
AcDbXrecord
280
     1
290
     1
  0
XRECORD
  5
2C01
102
{ACAD_REACTORS
330
2C00
102
}
330
2C00
100
AcDbXrecord
280
     1
290
     1
  0
XRECORD
  5
2C03
102
{ACAD_REACTORS
330
2C02
102
}
330
2C02
100
AcDbXrecord
280
     1
290
     1
  0
XRECORD
  5
2C05
102
{ACAD_REACTORS
330
2C04
102
}
330
2C04
100
AcDbXrecord
280
     1
290
     1
  0
XRECORD
  5
2C07
102
{ACAD_REACTORS
330
2C06
102
}
330
2C06
100
AcDbXrecord
280
     1
290
     1
  0
XRECORD
  5
2C09
102
{ACAD_REACTORS
330
2C08
102
}
330
2C08
100
AcDbXrecord
280
     1
290
     1
  0
XRECORD
  5
2C0B
102
{ACAD_REACTORS
330
2C0A
102
}
330
2C0A
100
AcDbXrecord
280
     1
290
     1
  0
XRECORD
  5
2BA6
102
{ACAD_REACTORS
330
2B8D
102
}
330
2B8D
100
AcDbXrecord
280
     1
340
18
  0
XRECORD
  5
2BA5
102
{ACAD_REACTORS
330
2B8B
102
}
330
2B8B
100
AcDbXrecord
280
     1
340
15
  0
ACDBDETAILVIEWSTYLE
  5
2BF8
102
{ACAD_XDICTIONARY
360
2C52
102
}
102
{ACAD_REACTORS
330
2BF7
102
}
330
2BF7
100
AcDbModelDocViewStyle
 70
     0
  3
Imperial24
290
     0
100
AcDbDetailViewStyle
 70
     0
 71
     0
 90
        3
 71
     1
340
F
 40
0.24
340
0
 40
0.24
300

 40
0.36
280
     3
 71
     2
340
14
 90
       25
 71
     3
340
F
 40
0.24
 90
        1
 40
0.75
 90
        1
300
%<\AcVar ViewType \f "%tc1">% %<\AcVar ViewDetailId>%\PSCALE %<\AcVar ViewScale \f "%sn">%
 71
     4
340
14
 90
       25
340
14
 90
       25
280
     0
  0
LAYOUT
  5
2BF9
102
{ACAD_XDICTIONARY
360
2C54
102
}
102
{ACAD_REACTORS
330
5D
102
}
330
5D
100
AcDbPlotSettings
  1

  2
Canon LBP9100C
  4

  6

 40
0.0
 41
0.0
 42
0.0
 43
0.0
 44
0.0
 45
0.0
 46
0.0
 47
0.0
 48
0.0
 49
0.0
140
0.0
141
0.0
142
1.0
143
1.0
 70
  1712
 72
     0
 73
     0
 74
     0
  7

 75
     0
147
1.0
148
0.0
149
0.0
100
AcDbLayout
  1
Model
 70
     1
 71
     0
 10
0.0
 20
0.0
 11
12.0
 21
9.0
 12
0.0
 22
0.0
 32
0.0
 14
0.0
 24
0.0
 34
0.0
 15
0.0
 25
0.0
 35
0.0
146
0.0
 13
0.0
 23
0.0
 33
0.0
 16
1.0
 26
0.0
 36
0.0
 17
0.0
 27
1.0
 37
0.0
 76
     0
330
18
331
2BA4
  0
LAYOUT
  5
2BFA
102
{ACAD_XDICTIONARY
360
2C56
102
}
102
{ACAD_REACTORS
330
5D
102
}
330
5D
100
AcDbPlotSettings
  1

  2
Canon LBP9100C
  4

  6

 40
0.0
 41
0.0
 42
0.0
 43
0.0
 44
0.0
 45
0.0
 46
0.0
 47
0.0
 48
0.0
 49
0.0
140
0.0
141
0.0
142
1.0
143
1.0
 70
   688
 72
     0
 73
     0
 74
     5
  7

 75
    16
147
1.0
148
0.0
149
0.0
100
AcDbLayout
  1
レイアウト1
 70
     1
 71
     1
 10
0.0
 20
0.0
 11
420.0
 21
297.0
 12
0.0
 22
0.0
 32
0.0
 14
1.000000000000000E+20
 24
1.000000000000000E+20
 34
1.000000000000000E+20
 15
-1.000000000000000E+20
 25
-1.000000000000000E+20
 35
-1.000000000000000E+20
146
0.0
 13
0.0
 23
0.0
 33
0.0
 16
1.0
 26
0.0
 36
0.0
 17
0.0
 27
1.0
 37
0.0
 76
     0
330
15
  0
MATERIAL
  5
2BB5
102
{ACAD_XDICTIONARY
360
2BB6
102
}
102
{ACAD_REACTORS
330
2BAC
102
}
330
2BAC
100
AcDbMaterial
  1
ByBlock
 72
     0
 43
0.0208333333333333
 43
0.0
 43
0.0
 43
0.0
 43
0.0
 43
0.0208333333333333
 43
0.0
 43
0.0
 43
0.0
 43
0.0
 43
1.0
 43
0.0
 43
0.0
 43
0.0
 43
0.0
 43
1.0
 77
     0
 47
0.0208333333333333
 47
0.0
 47
0.0
 47
0.0
 47
0.0
 47
0.0208333333333333
 47
0.0
 47
0.0
 47
0.0
 47
0.0
 47
1.0
 47
0.0
 47
0.0
 47
0.0
 47
0.0
 47
1.0
171
     0
 49
0.0208333333333333
 49
0.0
 49
0.0
 49
0.0
 49
0.0
 49
0.0208333333333333
 49
0.0
 49
0.0
 49
0.0
 49
0.0
 49
1.0
 49
0.0
 49
0.0
 49
0.0
 49
0.0
 49
1.0
175
     0
142
0.0208333333333333
142
0.0
142
0.0
142
0.0
142
0.0
142
0.0208333333333333
142
0.0
142
0.0
142
0.0
142
0.0
142
1.0
142
0.0
142
0.0
142
0.0
142
0.0
142
1.0
179
     0
144
0.0208333333333333
144
0.0
144
0.0
144
0.0
144
0.0
144
0.0208333333333333
144
0.0
144
0.0
144
0.0
144
0.0
144
1.0
144
0.0
144
0.0
144
0.0
144
0.0
144
1.0
147
0.0208333333333333
147
0.0
147
0.0
147
0.0
147
0.0
147
0.0208333333333333
147
0.0
147
0.0
147
0.0
147
0.0
147
1.0
147
0.0
147
0.0
147
0.0
147
0.0
147
1.0
  0
MATERIAL
  5
2BAD
102
{ACAD_XDICTIONARY
360
2BAE
102
}
102
{ACAD_REACTORS
330
2BAC
102
}
330
2BAC
100
AcDbMaterial
  1
ByLayer
 72
     0
 43
0.0208333333333333
 43
0.0
 43
0.0
 43
0.0
 43
0.0
 43
0.0208333333333333
 43
0.0
 43
0.0
 43
0.0
 43
0.0
 43
1.0
 43
0.0
 43
0.0
 43
0.0
 43
0.0
 43
1.0
 77
     0
 47
0.0208333333333333
 47
0.0
 47
0.0
 47
0.0
 47
0.0
 47
0.0208333333333333
 47
0.0
 47
0.0
 47
0.0
 47
0.0
 47
1.0
 47
0.0
 47
0.0
 47
0.0
 47
0.0
 47
1.0
171
     0
 49
0.0208333333333333
 49
0.0
 49
0.0
 49
0.0
 49
0.0
 49
0.0208333333333333
 49
0.0
 49
0.0
 49
0.0
 49
0.0
 49
1.0
 49
0.0
 49
0.0
 49
0.0
 49
0.0
 49
1.0
175
     0
142
0.0208333333333333
142
0.0
142
0.0
142
0.0
142
0.0
142
0.0208333333333333
142
0.0
142
0.0
142
0.0
142
0.0
142
1.0
142
0.0
142
0.0
142
0.0
142
0.0
142
1.0
179
     0
144
0.0208333333333333
144
0.0
144
0.0
144
0.0
144
0.0
144
0.0208333333333333
144
0.0
144
0.0
144
0.0
144
0.0
144
1.0
144
0.0
144
0.0
144
0.0
144
0.0
144
1.0
147
0.0208333333333333
147
0.0
147
0.0
147
0.0
147
0.0
147
0.0208333333333333
147
0.0
147
0.0
147
0.0
147
0.0
147
1.0
147
0.0
147
0.0
147
0.0
147
0.0
147
1.0
  0
MATERIAL
  5
2BBD
102
{ACAD_XDICTIONARY
360
2BBE
102
}
102
{ACAD_REACTORS
330
2BAC
102
}
330
2BAC
100
AcDbMaterial
  1
Global
 72
     0
 43
0.0208333333333333
 43
0.0
 43
0.0
 43
0.0
 43
0.0
 43
0.0208333333333333
 43
0.0
 43
0.0
 43
0.0
 43
0.0
 43
1.0
 43
0.0
 43
0.0
 43
0.0
 43
0.0
 43
1.0
 77
     0
 47
0.0208333333333333
 47
0.0
 47
0.0
 47
0.0
 47
0.0
 47
0.0208333333333333
 47
0.0
 47
0.0
 47
0.0
 47
0.0
 47
1.0
 47
0.0
 47
0.0
 47
0.0
 47
0.0
 47
1.0
171
     0
 49
0.0208333333333333
 49
0.0
 49
0.0
 49
0.0
 49
0.0
 49
0.0208333333333333
 49
0.0
 49
0.0
 49
0.0
 49
0.0
 49
1.0
 49
0.0
 49
0.0
 49
0.0
 49
0.0
 49
1.0
175
     0
142
0.0208333333333333
142
0.0
142
0.0
142
0.0
142
0.0
142
0.0208333333333333
142
0.0
142
0.0
142
0.0
142
0.0
142
1.0
142
0.0
142
0.0
142
0.0
142
0.0
142
1.0
179
     0
144
0.0208333333333333
144
0.0
144
0.0
144
0.0
144
0.0
144
0.0208333333333333
144
0.0
144
0.0
144
0.0
144
0.0
144
1.0
144
0.0
144
0.0
144
0.0
144
0.0
144
1.0
147
0.0208333333333333
147
0.0
147
0.0
147
0.0
147
0.0
147
0.0208333333333333
147
0.0
147
0.0
147
0.0
147
0.0
147
1.0
147
0.0
147
0.0
147
0.0
147
0.0
147
1.0
  0
MLEADERSTYLE
  5
2BF4
102
{ACAD_REACTORS
330
2BF3
102
}
330
2BF3
100
AcDbMLeaderStyle
170
     2
171
     1
172
     0
 90
        2
 40
0.0
 41
0.0
173
     1
 91
-1056964608
340
12
 92
       -2
290
     1
 42
0.09
291
     1
 43
0.36
  3
Standard
 44
0.18
300

342
F
174
     1
178
     6
175
     1
176
     0
 93
-1056964608
 45
0.18
292
     0
297
     0
 46
0.18
 94
-1056964608
 47
1.0
 49
1.0
140
1.0
293
     1
141
0.0
294
     1
177
     0
142
1.0
295
     0
296
     0
143
0.125
1001
ACAD_MLEADERVER
1070
     2
  0
MLINESTYLE
  5
1C
102
{ACAD_REACTORS
330
1B
102
}
330
1B
100
AcDbMlineStyle
  2
STANDARD
 70
     0
  3

 62
   256
 51
90.0
 52
90.0
 71
     2
 49
0.5
 62
   256
  6
BYLAYER
 49
-0.5
 62
   256
  6
BYLAYER
  0
ACDBPLACEHOLDER
  5
2BAB
102
{ACAD_REACTORS
330
2BAA
102
}
330
2BAA
  0
SCALE
  5
2BE2
102
{ACAD_REACTORS
330
2BE1
102
}
330
2BE1
100
AcDbScale
 70
     0
300
1:1
140
1.0
141
1.0
290
     1
  0
SCALE
  5
2BE3
102
{ACAD_REACTORS
330
2BE1
102
}
330
2BE1
100
AcDbScale
 70
     0
300
1/128" = 1'-0"
140
0.0078125
141
12.0
290
     0
  0
SCALE
  5
2BE4
102
{ACAD_REACTORS
330
2BE1
102
}
330
2BE1
100
AcDbScale
 70
     0
300
1/64" = 1'-0"
140
0.015625
141
12.0
290
     0
  0
SCALE
  5
2BE5
102
{ACAD_REACTORS
330
2BE1
102
}
330
2BE1
100
AcDbScale
 70
     0
300
1/32" = 1'-0"
140
0.03125
141
12.0
290
     0
  0
SCALE
  5
2BE6
102
{ACAD_REACTORS
330
2BE1
102
}
330
2BE1
100
AcDbScale
 70
     0
300
1/16" = 1'-0"
140
0.0625
141
12.0
290
     0
  0
SCALE
  5
2BE7
102
{ACAD_REACTORS
330
2BE1
102
}
330
2BE1
100
AcDbScale
 70
     0
300
3/32" = 1'-0"
140
0.09375
141
12.0
290
     0
  0
SCALE
  5
2BE8
102
{ACAD_REACTORS
330
2BE1
102
}
330
2BE1
100
AcDbScale
 70
     0
300
1/8" = 1'-0"
140
0.125
141
12.0
290
     0
  0
SCALE
  5
2BE9
102
{ACAD_REACTORS
330
2BE1
102
}
330
2BE1
100
AcDbScale
 70
     0
300
3/16" = 1'-0"
140
0.1875
141
12.0
290
     0
  0
SCALE
  5
2BEA
102
{ACAD_REACTORS
330
2BE1
102
}
330
2BE1
100
AcDbScale
 70
     0
300
1/4" = 1'-0"
140
0.25
141
12.0
290
     0
  0
SCALE
  5
2BEB
102
{ACAD_REACTORS
330
2BE1
102
}
330
2BE1
100
AcDbScale
 70
     0
300
3/8" = 1'-0"
140
0.375
141
12.0
290
     0
  0
SCALE
  5
2BEC
102
{ACAD_REACTORS
330
2BE1
102
}
330
2BE1
100
AcDbScale
 70
     0
300
1/2" = 1'-0"
140
0.5
141
12.0
290
     0
  0
SCALE
  5
2BED
102
{ACAD_REACTORS
330
2BE1
102
}
330
2BE1
100
AcDbScale
 70
     0
300
3/4" = 1'-0"
140
0.75
141
12.0
290
     0
  0
SCALE
  5
2BEE
102
{ACAD_REACTORS
330
2BE1
102
}
330
2BE1
100
AcDbScale
 70
     0
300
1" = 1'-0"
140
1.0
141
12.0
290
     0
  0
SCALE
  5
2BEF
102
{ACAD_REACTORS
330
2BE1
102
}
330
2BE1
100
AcDbScale
 70
     0
300
1-1/2" = 1'-0"
140
1.5
141
12.0
290
     0
  0
SCALE
  5
2BF0
102
{ACAD_REACTORS
330
2BE1
102
}
330
2BE1
100
AcDbScale
 70
     0
300
3" = 1'-0"
140
3.0
141
12.0
290
     0
  0
SCALE
  5
2BF1
102
{ACAD_REACTORS
330
2BE1
102
}
330
2BE1
100
AcDbScale
 70
     0
300
6" = 1'-0"
140
6.0
141
12.0
290
     0
  0
SCALE
  5
2BF2
102
{ACAD_REACTORS
330
2BE1
102
}
330
2BE1
100
AcDbScale
 70
     0
300
1'-0" = 1'-0"
140
12.0
141
12.0
290
     0
  0
ACDBSECTIONVIEWSTYLE
  5
2BF6
102
{ACAD_XDICTIONARY
360
2C50
102
}
102
{ACAD_REACTORS
330
2BF5
102
}
330
2BF5
100
AcDbModelDocViewStyle
 70
     0
  3
Imperial24
290
     0
100
AcDbSectionViewStyle
 70
     0
 71
     0
 90
       78
 71
     1
340
F
 40
0.24
340
0
340
0
 40
0.24
300
I, O, Q, S, X, Z
 40
0.48
 90
        3
 40
0.18
 90
        1
 71
     2
340
14
 90
       25
340
14
 90
       50
 40
0.24
 40
0.0
 40
0.24
 71
     3
340
F
 40
0.24
 90
        1
 40
0.75
 90
        1
300
%<\AcVar ViewType \f "%tc1">% %<\AcVar ViewSectionStartId>%-%<\AcVar ViewSectionEndId>%\PSCALE %<\AcVar ViewScale \f "%sn">%
 71
     4
300
ANSI31
 40
1.0
 90
        0
290
     0
290
     0
 90
        6
 40
0.0
 40
1.570796326794896
 40
0.2617993877991494
 40
1.308996938995747
 40
-0.2617993877991494
 40
1.832595714594046
  0
TABLESTYLE
  5
2BE0
102
{ACAD_XDICTIONARY
360
2C17
102
}
102
{ACAD_REACTORS
330
2BDF
102
}
330
2BDF
100
AcDbTableStyle
  3
Standard
 70
     0
 71
     0
 40
0.06
 41
0.06
280
     0
281
     0
  7
STANDARD
140
0.18
170
     2
 62
     0
 63
     7
283
     0
274
    -2
284
     1
 64
     0
275
    -2
285
     1
 65
     0
276
    -2
286
     1
 66
     0
277
    -2
287
     1
 67
     0
278
    -2
288
     1
 68
     0
279
    -2
289
     1
 69
     0
  7
STANDARD
140
0.25
170
     5
 62
     0
 63
     7
283
     0
274
    -2
284
     1
 64
     0
275
    -2
285
     1
 65
     0
276
    -2
286
     1
 66
     0
277
    -2
287
     1
 67
     0
278
    -2
288
     1
 68
     0
279
    -2
289
     1
 69
     0
  7
STANDARD
140
0.18
170
     5
 62
     0
 63
     7
283
     0
274
    -2
284
     1
 64
     0
275
    -2
285
     1
 65
     0
276
    -2
286
     1
 66
     0
277
    -2
287
     1
 67
     0
278
    -2
288
     1
 68
     0
279
    -2
289
     1
 69
     0
  0
VISUALSTYLE
  5
2BCB
102
{ACAD_XDICTIONARY
360
2C28
102
}
102
{ACAD_REACTORS
330
2BC5
102
}
330
2BC5
100
AcDbVisualStyle
  2
2dWireframe
 70
     4
 71
     0
 72
     2
 73
     0
 90
        0
 40
-0.6
 41
-30.0
 62
     5
 63
     7
 74
     1
 91
        4
 64
     7
 65
   257
 75
     1
175
     1
 42
1.0
 92
        0
 66
   257
 43
1.0
 76
     1
 77
     6
 78
     2
 67
     7
 79
     5
170
     0
171
     0
290
     0
174
     0
 93
        1
 44
0.0
173
     0
291
     0
 45
0.0
1001
ACAD
1000
AcDbSavedByObjectVersion
1070
     0
  0
VISUALSTYLE
  5
2BCA
102
{ACAD_XDICTIONARY
360
2C26
102
}
102
{ACAD_REACTORS
330
2BC5
102
}
330
2BC5
100
AcDbVisualStyle
  2
Basic
 70
     7
 71
     1
 72
     0
 73
     1
 90
        0
 40
-0.6
 41
-30.0
 62
     5
 63
     7
 74
     0
 91
        4
 64
     7
 65
   257
 75
     1
175
     1
 42
1.0
 92
        8
 66
     7
 43
1.0
 76
     1
 77
     6
 78
     2
 67
     7
 79
     5
170
     0
171
     0
290
     0
174
     0
 93
        1
 44
0.0
173
     0
291
     1
 45
0.0
1001
ACAD
1000
AcDbSavedByObjectVersion
1070
     0
  0
VISUALSTYLE
  5
2BD1
102
{ACAD_XDICTIONARY
360
2C34
102
}
102
{ACAD_REACTORS
330
2BC5
102
}
330
2BC5
100
AcDbVisualStyle
  2
Brighten
 70
    12
 71
     2
 72
     2
 73
     0
 90
        0
 40
-0.6
 41
-30.0
 62
     5
 63
     7
 74
     1
 91
        4
 64
     7
 65
   257
 75
     1
175
     1
 42
1.0
 92
        8
 66
     7
 43
1.0
 76
     1
 77
     6
 78
     2
 67
     7
 79
     5
170
     0
171
     0
290
     0
174
     0
 93
        1
 44
50.0
173
     0
291
     1
 45
0.0
1001
ACAD
1000
AcDbSavedByObjectVersion
1070
     0
  0
VISUALSTYLE
  5
2BD5
102
{ACAD_XDICTIONARY
360
2C3C
102
}
102
{ACAD_REACTORS
330
2BC5
102
}
330
2BC5
100
AcDbVisualStyle
  2
ColorChange
 70
    16
 71
     2
 72
     2
 73
     3
 90
        0
 40
-0.6
 41
-30.0
 62
     5
 63
     8
 74
     1
 91
        4
 64
     7
 65
   257
 75
     1
175
     1
 42
1.0
 92
        8
 66
     8
 43
1.0
 76
     1
 77
     6
 78
     2
 67
     7
 79
     5
170
     0
171
     0
290
     0
174
     0
 93
        1
 44
0.0
173
     0
291
     1
 45
0.0
1001
ACAD
1000
AcDbSavedByObjectVersion
1070
     0
  0
VISUALSTYLE
  5
2BCE
102
{ACAD_XDICTIONARY
360
2C2E
102
}
102
{ACAD_REACTORS
330
2BC5
102
}
330
2BC5
100
AcDbVisualStyle
  2
Conceptual
 70
     9
 71
     3
 72
     2
 73
     0
 90
        0
 40
-0.6
 41
-30.0
 62
     5
 63
     7
 74
     2
 91
        2
 64
     7
 65
   257
 75
     1
175
     1
 42
179.0
 92
        8
 66
     7
 43
1.0
 76
     1
 77
     6
 78
     2
 67
     7
 79
     3
170
     0
171
     0
290
     0
174
     0
 93
        1
 44
0.0
173
     0
291
     0
 45
0.0
1001
ACAD
1000
AcDbSavedByObjectVersion
1070
     0
  0
VISUALSTYLE
  5
2BD0
102
{ACAD_XDICTIONARY
360
2C32
102
}
102
{ACAD_REACTORS
330
2BC5
102
}
330
2BC5
100
AcDbVisualStyle
  2
Dim
 70
    11
 71
     2
 72
     2
 73
     0
 90
        0
 40
-0.6
 41
-30.0
 62
     5
 63
     7
 74
     1
 91
        4
 64
     7
 65
   257
 75
     1
175
     1
 42
1.0
 92
        8
 66
     7
 43
1.0
 76
     1
 77
     6
 78
     2
 67
     7
 79
     5
170
     0
171
     0
290
     0
174
     0
 93
        1
 44
-50.0
173
     0
291
     1
 45
0.0
1001
ACAD
1000
AcDbSavedByObjectVersion
1070
     0
  0
VISUALSTYLE
  5
2BDD
102
{ACAD_XDICTIONARY
360
2C4C
102
}
102
{ACAD_REACTORS
330
2BC5
102
}
330
2BC5
100
AcDbVisualStyle
  2
EdgeColorOff
 70
    22
 71
     2
 72
     2
 73
     0
 90
        0
 40
-0.6
 41
-30.0
 62
     5
 63
     7
 74
     1
 91
        4
 64
     7
 65
   257
 75
     1
175
     1
 42
1.0
 92
        8
 66
     7
 43
1.0
 76
     1
 77
     6
 78
     2
 67
     7
 79
     5
170
     0
171
     0
290
     0
174
     0
 93
        1
 44
0.0
173
     0
291
     1
 45
0.0
1001
ACAD
1000
AcDbSavedByObjectVersion
1070
     0
  0
VISUALSTYLE
  5
2BD4
102
{ACAD_XDICTIONARY
360
2C3A
102
}
102
{ACAD_REACTORS
330
2BC5
102
}
330
2BC5
100
AcDbVisualStyle
  2
Facepattern
 70
    15
 71
     2
 72
     2
 73
     0
 90
        0
 40
-0.6
 41
-30.0
 62
     5
 63
     7
 74
     1
 91
        4
 64
     7
 65
   257
 75
     1
175
     1
 42
1.0
 92
        8
 66
     7
 43
1.0
 76
     1
 77
     6
 78
     2
 67
     7
 79
     5
170
     0
171
     0
290
     0
174
     0
 93
        1
 44
0.0
173
     0
291
     1
 45
0.0
1001
ACAD
1000
AcDbSavedByObjectVersion
1070
     0
  0
VISUALSTYLE
  5
2BC6
102
{ACAD_XDICTIONARY
360
2C1E
102
}
102
{ACAD_REACTORS
330
2BC5
102
}
330
2BC5
100
AcDbVisualStyle
  2
Flat
 70
     0
 71
     2
 72
     1
 73
     1
 90
        2
 40
-0.6
 41
30.0
 62
     5
 63
     7
 74
     0
 91
        0
 64
     7
 65
   257
 75
     1
175
     1
 42
1.0
 92
        8
 66
     7
 43
1.0
 76
     1
 77
     6
 78
     2
 67
     7
 79
     5
170
     0
171
     0
290
     0
174
     0
 93
       13
 44
0.0
173
     0
291
     1
 45
0.0
1001
ACAD
1000
AcDbSavedByObjectVersion
1070
     0
  0
VISUALSTYLE
  5
2BC7
102
{ACAD_XDICTIONARY
360
2C20
102
}
102
{ACAD_REACTORS
330
2BC5
102
}
330
2BC5
100
AcDbVisualStyle
  2
FlatWithEdges
 70
     1
 71
     2
 72
     1
 73
     1
 90
        2
 40
-0.6
 41
30.0
 62
     5
 63
     7
 74
     1
 91
        0
 64
     7
 65
   257
 75
     1
175
     1
 42
1.0
 92
        0
 66
   257
 43
1.0
 76
     1
 77
     6
 78
     2
 67
     7
 79
     5
170
     0
171
     0
290
     0
174
     0
 93
       13
 44
0.0
173
     0
291
     1
 45
0.0
1001
ACAD
1000
AcDbSavedByObjectVersion
1070
     0
  0
VISUALSTYLE
  5
2BC8
102
{ACAD_XDICTIONARY
360
2C22
102
}
102
{ACAD_REACTORS
330
2BC5
102
}
330
2BC5
100
AcDbVisualStyle
  2
Gouraud
 70
     2
 71
     2
 72
     2
 73
     1
 90
        2
 40
-0.6
 41
30.0
 62
     5
 63
     7
 74
     0
 91
        0
 64
     7
 65
   257
 75
     1
175
     1
 42
1.0
 92
        0
 66
     7
 43
1.0
 76
     1
 77
     6
 78
     2
 67
     7
 79
     5
170
     0
171
     0
290
     0
174
     0
 93
       13
 44
0.0
173
     0
291
     1
 45
0.0
1001
ACAD
1000
AcDbSavedByObjectVersion
1070
     0
  0
VISUALSTYLE
  5
2BC9
102
{ACAD_XDICTIONARY
360
2C24
102
}
102
{ACAD_REACTORS
330
2BC5
102
}
330
2BC5
100
AcDbVisualStyle
  2
GouraudWithEdges
 70
     3
 71
     2
 72
     2
 73
     1
 90
        2
 40
-0.6
 41
30.0
 62
     5
 63
     7
 74
     1
 91
        0
 64
     7
 65
   257
 75
     1
175
     1
 42
1.0
 92
        0
 66
   257
 43
1.0
 76
     1
 77
     6
 78
     2
 67
     7
 79
     5
170
     0
171
     0
290
     0
174
     0
 93
       13
 44
0.0
173
     0
291
     1
 45
0.0
1001
ACAD
1000
AcDbSavedByObjectVersion
1070
     0
  0
VISUALSTYLE
  5
2BCD
102
{ACAD_XDICTIONARY
360
2C2C
102
}
102
{ACAD_REACTORS
330
2BC5
102
}
330
2BC5
100
AcDbVisualStyle
  2
Hidden
 70
     6
 71
     1
 72
     2
 73
     2
 90
        0
 40
-0.6
 41
-30.0
 62
     5
 63
     7
 74
     2
 91
        2
 64
     7
 65
   257
 75
     2
175
     1
 42
40.0
 92
        0
 66
   257
 43
1.0
 76
     1
 77
     6
 78
     2
 67
     7
 79
     3
170
     0
171
     0
290
     0
174
     0
 93
        1
 44
0.0
173
     0
291
     0
 45
0.0
1001
ACAD
1000
AcDbSavedByObjectVersion
1070
     0
  0
VISUALSTYLE
  5
2BDB
102
{ACAD_XDICTIONARY
360
2C48
102
}
102
{ACAD_REACTORS
330
2BC5
102
}
330
2BC5
100
AcDbVisualStyle
  2
JitterOff
 70
    20
 71
     2
 72
     2
 73
     0
 90
        0
 40
-0.6
 41
-30.0
 62
     5
 63
     7
 74
     1
 91
        4
 64
     7
 65
   257
 75
     1
175
     1
 42
1.0
 92
       10
 66
     7
 43
1.0
 76
     1
 77
     6
 78
     2
 67
     7
 79
     5
170
     0
171
     0
290
     0
174
     0
 93
        1
 44
0.0
173
     0
291
     1
 45
0.0
1001
ACAD
1000
AcDbSavedByObjectVersion
1070
     0
  0
VISUALSTYLE
  5
2BD3
102
{ACAD_XDICTIONARY
360
2C38
102
}
102
{ACAD_REACTORS
330
2BC5
102
}
330
2BC5
100
AcDbVisualStyle
  2
Linepattern
 70
    14
 71
     2
 72
     2
 73
     0
 90
        0
 40
-0.6
 41
-30.0
 62
     5
 63
     7
 74
     1
 91
        4
 64
     7
 65
   257
 75
     7
175
     7
 42
1.0
 92
        8
 66
     7
 43
1.0
 76
     1
 77
     6
 78
     2
 67
     7
 79
     5
170
     0
171
     0
290
     0
174
     0
 93
        1
 44
0.0
173
     0
291
     1
 45
0.0
1001
ACAD
1000
AcDbSavedByObjectVersion
1070
     0
  0
VISUALSTYLE
  5
2BDC
102
{ACAD_XDICTIONARY
360
2C4A
102
}
102
{ACAD_REACTORS
330
2BC5
102
}
330
2BC5
100
AcDbVisualStyle
  2
OverhangOff
 70
    21
 71
     2
 72
     2
 73
     0
 90
        0
 40
-0.6
 41
-30.0
 62
     5
 63
     7
 74
     1
 91
        4
 64
     7
 65
   257
 75
     1
175
     1
 42
1.0
 92
        9
 66
     7
 43
1.0
 76
     1
 77
     6
 78
     2
 67
     7
 79
     5
170
     0
171
     0
290
     0
174
     0
 93
        1
 44
0.0
173
     0
291
     1
 45
0.0
1001
ACAD
1000
AcDbSavedByObjectVersion
1070
     0
  0
VISUALSTYLE
  5
2BCF
102
{ACAD_XDICTIONARY
360
2C30
102
}
102
{ACAD_REACTORS
330
2BC5
102
}
330
2BC5
100
AcDbVisualStyle
  2
Realistic
 70
     8
 71
     2
 72
     3
 73
     0
 90
        2
 40
-0.6
 41
30.0
 62
     5
 63
     7
 74
     0
 91
        0
 64
     7
 65
   257
 75
     1
175
     1
 42
1.0
 92
        8
 66
   257
 43
1.0
 76
     1
 77
     6
 78
     2
 67
     7
 79
     3
170
     0
171
     0
290
     0
174
     0
 93
       13
 44
0.0
173
     0
291
     0
 45
0.0
1001
ACAD
1000
AcDbSavedByObjectVersion
1070
     0
  0
VISUALSTYLE
  5
2BDA
102
{ACAD_XDICTIONARY
360
2C46
102
}
102
{ACAD_REACTORS
330
2BC5
102
}
330
2BC5
100
AcDbVisualStyle
  2
Shaded
 70
    27
 71
     2
 72
     2
 73
     1
 90
        2
 40
-0.6
 41
30.0
 62
     5
 63
     7
 74
     0
 91
        4
 64
     7
 65
   257
 75
     1
175
     1
 42
1.0
 92
        8
 66
   257
 43
1.0
 76
     1
 77
     6
 78
     2
 67
     8
 79
     3
170
     0
171
     0
290
     0
174
     0
 93
        5
 44
0.0
173
     0
291
     0
 45
0.0
1001
ACAD
1000
AcDbSavedByObjectVersion
1070
     0
  0
VISUALSTYLE
  5
2BD9
102
{ACAD_XDICTIONARY
360
2C44
102
}
102
{ACAD_REACTORS
330
2BC5
102
}
330
2BC5
100
AcDbVisualStyle
  2
Shaded with edges
 70
    26
 71
     2
 72
     2
 73
     1
 90
        2
 40
-0.6
 41
30.0
 62
     5
 63
     7
 74
     1
 91
       10
 64
     7
 65
   257
 75
     2
175
     1
 42
1.0
 92
        8
 66
   257
 43
1.0
 76
     1
 77
     6
 78
     2
 67
     7
 79
     3
170
     0
171
     0
290
     0
174
     0
 93
        5
 44
0.0
173
     0
291
     0
 45
0.0
1001
ACAD
1000
AcDbSavedByObjectVersion
1070
     0
  0
VISUALSTYLE
  5
2BD6
102
{ACAD_XDICTIONARY
360
2C3E
102
}
102
{ACAD_REACTORS
330
2BC5
102
}
330
2BC5
100
AcDbVisualStyle
  2
Shades of Gray
 70
    23
 71
     2
 72
     2
 73
     3
 90
        0
 40
-0.6
 41
-30.0
 62
     5
 63
     7
 74
     2
 91
        2
 64
     7
 65
     7
 75
     1
175
     1
 42
40.0
 92
        8
 66
     7
 43
1.0
 76
     1
 77
     6
 78
     2
 67
     7
 79
     3
170
     0
171
     0
290
     0
174
     0
 93
        1
 44
0.0
173
     0
291
     0
 45
0.0
1001
ACAD
1000
AcDbSavedByObjectVersion
1070
     0
  0
VISUALSTYLE
  5
2BD7
102
{ACAD_XDICTIONARY
360
2C40
102
}
102
{ACAD_REACTORS
330
2BC5
102
}
330
2BC5
100
AcDbVisualStyle
  2
Sketchy
 70
    24
 71
     1
 72
     2
 73
     2
 90
        0
 40
-0.6
 41
-30.0
 62
     5
 63
     7
 74
     2
 91
        2
 64
     7
 65
     7
 75
     1
175
     1
 42
40.0
 92
       11
 66
     7
 43
1.0
 76
     1
 77
     6
 78
     2
 67
     7
 79
     6
170
     0
171
     0
290
     0
174
     0
 93
        1
 44
0.0
173
     0
291
     0
 45
0.0
1001
ACAD
1000
AcDbSavedByObjectVersion
1070
     0
  0
VISUALSTYLE
  5
2BD2
102
{ACAD_XDICTIONARY
360
2C36
102
}
102
{ACAD_REACTORS
330
2BC5
102
}
330
2BC5
100
AcDbVisualStyle
  2
Thicken
 70
    13
 71
     2
 72
     2
 73
     0
 90
        0
 40
-0.6
 41
-30.0
 62
     5
 63
     7
 74
     1
 91
        4
 64
     7
 65
   257
 75
     1
175
     1
 42
1.0
 92
       12
 66
     7
 43
1.0
 76
     1
 77
     6
 78
     2
 67
     7
 79
     5
170
     0
171
     0
290
     0
174
     0
 93
        1
 44
0.0
173
     0
291
     1
 45
0.0
1001
ACAD
1000
AcDbSavedByObjectVersion
1070
     0
  0
VISUALSTYLE
  5
2BCC
102
{ACAD_XDICTIONARY
360
2C2A
102
}
102
{ACAD_REACTORS
330
2BC5
102
}
330
2BC5
100
AcDbVisualStyle
  2
Wireframe
 70
     5
 71
     0
 72
     2
 73
     0
 90
        0
 40
-0.6
 41
-30.0
 62
     5
 63
     7
 74
     1
 91
        4
 64
     7
 65
   257
 75
     1
175
     1
 42
1.0
 92
        0
 66
   257
 43
1.0
 76
     1
 77
     6
 78
     2
 67
     7
 79
     3
170
     0
171
     0
290
     0
174
     0
 93
        1
 44
0.0
173
     0
291
     0
 45
0.0
1001
ACAD
1000
AcDbSavedByObjectVersion
1070
     0
  0
VISUALSTYLE
  5
2BD8
102
{ACAD_XDICTIONARY
360
2C42
102
}
102
{ACAD_REACTORS
330
2BC5
102
}
330
2BC5
100
AcDbVisualStyle
  2
X-Ray
 70
    25
 71
     2
 72
     2
 73
     1
 90
        1
 40
0.5
 41
-30.0
 62
     5
 63
     7
 74
     1
 91
        0
 64
     7
 65
   257
 75
     1
175
     1
 42
1.0
 92
        8
 66
     7
 43
1.0
 76
     1
 77
     6
 78
     2
 67
     7
 79
     3
170
     0
171
     0
290
     0
174
     0
 93
       13
 44
0.0
173
     0
291
     0
 45
0.0
1001
ACAD
1000
AcDbSavedByObjectVersion
1070
     0
  0
DICTIONARYVAR
  5
2C11
102
{ACAD_REACTORS
330
2C0C
102
}
330
2C0C
100
DictionaryVariables
280
     0
  1
1:1
  0
DICTIONARYVAR
  5
2C0E
102
{ACAD_REACTORS
330
2C0C
102
}
330
2C0C
100
DictionaryVariables
280
     0
  1
STANDARD
  0
DICTIONARYVAR
  5
2C0D
102
{ACAD_REACTORS
330
2C0C
102
}
330
2C0C
100
DictionaryVariables
280
     0
  1
STANDARD
  0
DICTIONARYVAR
  5
2C0F
102
{ACAD_REACTORS
330
2C0C
102
}
330
2C0C
100
DictionaryVariables
280
     0
  1
Imperial24
  0
DICTIONARYVAR
  5
2C10
102
{ACAD_REACTORS
330
2C0C
102
}
330
2C0C
100
DictionaryVariables
280
     0
  1
Imperial24
  0
DICTIONARYVAR
  5
2C14
102
{ACAD_REACTORS
330
2C0C
102
}
330
2C0C
100
DictionaryVariables
280
     0
  1
1
  0
DICTIONARYVAR
  5
2C13
102
{ACAD_REACTORS
330
2C0C
102
}
330
2C0C
100
DictionaryVariables
280
     0
  1
0
  0
DICTIONARYVAR
  5
2C12
102
{ACAD_REACTORS
330
2C0C
102
}
330
2C0C
100
DictionaryVariables
280
     0
  1
127
  0
DICTIONARYVAR
  5
2C15
102
{ACAD_REACTORS
330
2C0C
102
}
330
2C0C
100
DictionaryVariables
280
     0
  1
2
  0
DICTIONARY
  5
2C52
330
2BF8
100
AcDbDictionary
280
     1
281
     1
  3
ACAD_XREC_ROUNDTRIP
360
2C53
  0
DICTIONARY
  5
2C54
330
2BF9
100
AcDbDictionary
280
     1
281
     1
  3
ACAD_XREC_ROUNDTRIP
360
2C55
  0
DICTIONARY
  5
2C56
330
2BFA
100
AcDbDictionary
280
     1
281
     1
  3
ACAD_XREC_ROUNDTRIP
360
2C57
  0
DICTIONARY
  5
2BB6
330
2BB5
100
AcDbDictionary
280
     1
281
     1
  3
ACAD_XREC_ROUNDTRIP
360
2C1C
  3
BUMPTILE
360
2BB8
  3
DIFFUSETILE
360
2BB7
  3
OPACITYTILE
360
2BBB
  3
REFLECTIONTILE
360
2BBA
  3
REFRACTIONTILE
360
2BBC
  3
SPECULARTILE
360
2BB9
  0
DICTIONARY
  5
2BAE
330
2BAD
100
AcDbDictionary
280
     1
281
     1
  3
ACAD_XREC_ROUNDTRIP
360
2C1B
  3
BUMPTILE
360
2BB0
  3
DIFFUSETILE
360
2BAF
  3
OPACITYTILE
360
2BB3
  3
REFLECTIONTILE
360
2BB2
  3
REFRACTIONTILE
360
2BB4
  3
SPECULARTILE
360
2BB1
  0
DICTIONARY
  5
2BBE
330
2BBD
100
AcDbDictionary
280
     1
281
     1
  3
ACAD_XREC_ROUNDTRIP
360
2C1D
  3
BUMPTILE
360
2BC0
  3
DIFFUSETILE
360
2BBF
  3
OPACITYTILE
360
2BC3
  3
REFLECTIONTILE
360
2BC2
  3
REFRACTIONTILE
360
2BC4
  3
SPECULARTILE
360
2BC1
  0
DICTIONARY
  5
2C50
330
2BF6
100
AcDbDictionary
280
     1
281
     1
  3
ACAD_XREC_ROUNDTRIP
360
2C51
  0
DICTIONARY
  5
2C17
330
2BE0
100
AcDbDictionary
280
     1
281
     1
  3
ACAD_ROUNDTRIP_2008_TABLESTYLE_CELLSTYLEMAP
360
2C18
  3
ACAD_XREC_ROUNDTRIP
360
2C4E
  0
DICTIONARY
  5
2C28
330
2BCB
100
AcDbDictionary
280
     1
281
     1
  3
ACAD_XREC_ROUNDTRIP
360
2C29
  0
DICTIONARY
  5
2C26
330
2BCA
100
AcDbDictionary
280
     1
281
     1
  3
ACAD_XREC_ROUNDTRIP
360
2C27
  0
DICTIONARY
  5
2C34
330
2BD1
100
AcDbDictionary
280
     1
281
     1
  3
ACAD_XREC_ROUNDTRIP
360
2C35
  0
DICTIONARY
  5
2C3C
330
2BD5
100
AcDbDictionary
280
     1
281
     1
  3
ACAD_XREC_ROUNDTRIP
360
2C3D
  0
DICTIONARY
  5
2C2E
330
2BCE
100
AcDbDictionary
280
     1
281
     1
  3
ACAD_XREC_ROUNDTRIP
360
2C2F
  0
DICTIONARY
  5
2C32
330
2BD0
100
AcDbDictionary
280
     1
281
     1
  3
ACAD_XREC_ROUNDTRIP
360
2C33
  0
DICTIONARY
  5
2C4C
330
2BDD
100
AcDbDictionary
280
     1
281
     1
  3
ACAD_XREC_ROUNDTRIP
360
2C4D
  0
DICTIONARY
  5
2C3A
330
2BD4
100
AcDbDictionary
280
     1
281
     1
  3
ACAD_XREC_ROUNDTRIP
360
2C3B
  0
DICTIONARY
  5
2C1E
330
2BC6
100
AcDbDictionary
280
     1
281
     1
  3
ACAD_XREC_ROUNDTRIP
360
2C1F
  0
DICTIONARY
  5
2C20
330
2BC7
100
AcDbDictionary
280
     1
281
     1
  3
ACAD_XREC_ROUNDTRIP
360
2C21
  0
DICTIONARY
  5
2C22
330
2BC8
100
AcDbDictionary
280
     1
281
     1
  3
ACAD_XREC_ROUNDTRIP
360
2C23
  0
DICTIONARY
  5
2C24
330
2BC9
100
AcDbDictionary
280
     1
281
     1
  3
ACAD_XREC_ROUNDTRIP
360
2C25
  0
DICTIONARY
  5
2C2C
330
2BCD
100
AcDbDictionary
280
     1
281
     1
  3
ACAD_XREC_ROUNDTRIP
360
2C2D
  0
DICTIONARY
  5
2C48
330
2BDB
100
AcDbDictionary
280
     1
281
     1
  3
ACAD_XREC_ROUNDTRIP
360
2C49
  0
DICTIONARY
  5
2C38
330
2BD3
100
AcDbDictionary
280
     1
281
     1
  3
ACAD_XREC_ROUNDTRIP
360
2C39
  0
DICTIONARY
  5
2C4A
330
2BDC
100
AcDbDictionary
280
     1
281
     1
  3
ACAD_XREC_ROUNDTRIP
360
2C4B
  0
DICTIONARY
  5
2C30
330
2BCF
100
AcDbDictionary
280
     1
281
     1
  3
ACAD_XREC_ROUNDTRIP
360
2C31
  0
DICTIONARY
  5
2C46
330
2BDA
100
AcDbDictionary
280
     1
281
     1
  3
ACAD_XREC_ROUNDTRIP
360
2C47
  0
DICTIONARY
  5
2C44
330
2BD9
100
AcDbDictionary
280
     1
281
     1
  3
ACAD_XREC_ROUNDTRIP
360
2C45
  0
DICTIONARY
  5
2C3E
330
2BD6
100
AcDbDictionary
280
     1
281
     1
  3
ACAD_XREC_ROUNDTRIP
360
2C3F
  0
DICTIONARY
  5
2C40
330
2BD7
100
AcDbDictionary
280
     1
281
     1
  3
ACAD_XREC_ROUNDTRIP
360
2C41
  0
DICTIONARY
  5
2C36
330
2BD2
100
AcDbDictionary
280
     1
281
     1
  3
ACAD_XREC_ROUNDTRIP
360
2C37
  0
DICTIONARY
  5
2C2A
330
2BCC
100
AcDbDictionary
280
     1
281
     1
  3
ACAD_XREC_ROUNDTRIP
360
2C2B
  0
DICTIONARY
  5
2C42
330
2BD8
100
AcDbDictionary
280
     1
281
     1
  3
ACAD_XREC_ROUNDTRIP
360
2C43
  0
XRECORD
  5
2C53
102
{ACAD_REACTORS
330
2C52
102
}
330
2C52
100
AcDbXrecord
280
     1
102
DISPLAYNAME
  1
Imperial24
102
FLAGS
 90
        0
  0
XRECORD
  5
2C55
102
{ACAD_REACTORS
330
2C54
102
}
330
2C54
100
AcDbXrecord
280
     1
102
SHADEPLOT
 70
     0
102
SHADEPLOTRESLEVEL
 70
     2
102
SHADEPLOTCUSTOMDPI
 70
   300
  0
XRECORD
  5
2C57
102
{ACAD_REACTORS
330
2C56
102
}
330
2C56
100
AcDbXrecord
280
     1
102
SHADEPLOT
 70
     0
102
SHADEPLOTRESLEVEL
 70
     2
102
SHADEPLOTCUSTOMDPI
 70
   300
  0
XRECORD
  5
2C1C
102
{ACAD_REACTORS
330
2BB6
102
}
330
2BB6
100
AcDbXrecord
280
     1
102
MATERIAL
148
0.0
149
0.0
149
0.0
 93
        0
 94
      127
282
     0
 72
     0
 77
     0
171
     0
175
     0
179
     0
273
     0
  0
XRECORD
  5
2BB8
102
{ACAD_REACTORS
330
2BB6
102
}
330
2BB6
100
AcDbXrecord
280
     1
270
     1
271
     1
  0
XRECORD
  5
2BB7
102
{ACAD_REACTORS
330
2BB6
102
}
330
2BB6
100
AcDbXrecord
280
     1
270
     1
271
     1
  0
XRECORD
  5
2BBB
102
{ACAD_REACTORS
330
2BB6
102
}
330
2BB6
100
AcDbXrecord
280
     1
270
     1
271
     1
  0
XRECORD
  5
2BBA
102
{ACAD_REACTORS
330
2BB6
102
}
330
2BB6
100
AcDbXrecord
280
     1
270
     1
271
     1
  0
XRECORD
  5
2BBC
102
{ACAD_REACTORS
330
2BB6
102
}
330
2BB6
100
AcDbXrecord
280
     1
270
     1
271
     1
  0
XRECORD
  5
2BB9
102
{ACAD_REACTORS
330
2BB6
102
}
330
2BB6
100
AcDbXrecord
280
     1
270
     1
271
     1
  0
XRECORD
  5
2C1B
102
{ACAD_REACTORS
330
2BAE
102
}
330
2BAE
100
AcDbXrecord
280
     1
102
MATERIAL
148
0.0
149
0.0
149
0.0
 93
        0
 94
      127
282
     0
 72
     0
 77
     0
171
     0
175
     0
179
     0
273
     0
  0
XRECORD
  5
2BB0
102
{ACAD_REACTORS
330
2BAE
102
}
330
2BAE
100
AcDbXrecord
280
     1
270
     1
271
     1
  0
XRECORD
  5
2BAF
102
{ACAD_REACTORS
330
2BAE
102
}
330
2BAE
100
AcDbXrecord
280
     1
270
     1
271
     1
  0
XRECORD
  5
2BB3
102
{ACAD_REACTORS
330
2BAE
102
}
330
2BAE
100
AcDbXrecord
280
     1
270
     1
271
     1
  0
XRECORD
  5
2BB2
102
{ACAD_REACTORS
330
2BAE
102
}
330
2BAE
100
AcDbXrecord
280
     1
270
     1
271
     1
  0
XRECORD
  5
2BB4
102
{ACAD_REACTORS
330
2BAE
102
}
330
2BAE
100
AcDbXrecord
280
     1
270
     1
271
     1
  0
XRECORD
  5
2BB1
102
{ACAD_REACTORS
330
2BAE
102
}
330
2BAE
100
AcDbXrecord
280
     1
270
     1
271
     1
  0
XRECORD
  5
2C1D
102
{ACAD_REACTORS
330
2BBE
102
}
330
2BBE
100
AcDbXrecord
280
     1
102
MATERIAL
148
0.0
149
0.0
149
0.0
 93
        0
 94
      127
282
     0
 72
     0
 77
     0
171
     0
175
     0
179
     0
273
     0
  0
XRECORD
  5
2BC0
102
{ACAD_REACTORS
330
2BBE
102
}
330
2BBE
100
AcDbXrecord
280
     1
270
     1
271
     1
  0
XRECORD
  5
2BBF
102
{ACAD_REACTORS
330
2BBE
102
}
330
2BBE
100
AcDbXrecord
280
     1
270
     1
271
     1
  0
XRECORD
  5
2BC3
102
{ACAD_REACTORS
330
2BBE
102
}
330
2BBE
100
AcDbXrecord
280
     1
270
     1
271
     1
  0
XRECORD
  5
2BC2
102
{ACAD_REACTORS
330
2BBE
102
}
330
2BBE
100
AcDbXrecord
280
     1
270
     1
271
     1
  0
XRECORD
  5
2BC4
102
{ACAD_REACTORS
330
2BBE
102
}
330
2BBE
100
AcDbXrecord
280
     1
270
     1
271
     1
  0
XRECORD
  5
2BC1
102
{ACAD_REACTORS
330
2BBE
102
}
330
2BBE
100
AcDbXrecord
280
     1
270
     1
271
     1
  0
XRECORD
  5
2C51
102
{ACAD_REACTORS
330
2C50
102
}
330
2C50
100
AcDbXrecord
280
     1
102
DISPLAYNAME
  1
Imperial24
102
FLAGS
 90
        0
  0
CELLSTYLEMAP
  5
2C18
102
{ACAD_REACTORS
330
2C17
102
}
330
2C17
100
AcDbCellStyleMap
 90
        3
300
CELLSTYLE
  1
TABLEFORMAT_BEGIN
 90
        5
170
     1
 91
        0
 92
    32768
 62
   257
 93
        1
300
CONTENTFORMAT
  1
CONTENTFORMAT_BEGIN
 90
        0
 91
        0
 92
      512
 93
        0
300

 40
0.0
140
1.0
 94
        5
 62
     0
340
F
144
0.25
309
CONTENTFORMAT_END
171
     0
 94
        0
309
TABLEFORMAT_END
  1
CELLSTYLE_BEGIN
 90
        1
 91
        1
300
_TITLE
309
CELLSTYLE_END
300
CELLSTYLE
  1
TABLEFORMAT_BEGIN
 90
        5
170
     1
 91
        0
 92
        0
 62
   257
 93
        1
300
CONTENTFORMAT
  1
CONTENTFORMAT_BEGIN
 90
        0
 91
        0
 92
      512
 93
        0
300

 40
0.0
140
1.0
 94
        5
 62
     0
340
F
144
0.18
309
CONTENTFORMAT_END
171
     0
 94
        0
309
TABLEFORMAT_END
  1
CELLSTYLE_BEGIN
 90
        2
 91
        1
300
_HEADER
309
CELLSTYLE_END
300
CELLSTYLE
  1
TABLEFORMAT_BEGIN
 90
        5
170
     1
 91
        0
 92
        0
 62
   257
 93
        1
300
CONTENTFORMAT
  1
CONTENTFORMAT_BEGIN
 90
        0
 91
        0
 92
      512
 93
        0
300

 40
0.0
140
1.0
 94
        2
 62
     0
340
F
144
0.18
309
CONTENTFORMAT_END
171
     0
 94
        0
309
TABLEFORMAT_END
  1
CELLSTYLE_BEGIN
 90
        3
 91
        2
300
_DATA
309
CELLSTYLE_END
  0
XRECORD
  5
2C4E
102
{ACAD_REACTORS
330
2C17
102
}
330
2C17
100
AcDbXrecord
280
     1
102
ACAD_ROUNDTRIP_PRE2007_TABLESTYLE
 90
      512
 91
        0
  1

 92
      512
 93
        0
  2

 94
      512
 95
        0
  3

  0
XRECORD
  5
2C29
102
{ACAD_REACTORS
330
2C28
102
}
330
2C28
100
AcDbXrecord
280
     1
102
RTVSPost2010Prop28
280
     1
102
RTVSPost2010PropOp28
 70
     1
102
RTVSPost2010Prop29
280
     1
102
RTVSPost2010PropOp29
 70
     1
102
RTVSPost2010Prop30
280
     0
102
RTVSPost2010PropOp30
 70
     1
102
RTVSPost2010Prop31
280
     0
102
RTVSPost2010PropOp31
 70
     1
102
RTVSPost2010Prop32
280
     0
102
RTVSPost2010PropOp32
 70
     1
102
RTVSPost2010Prop33
280
     0
102
RTVSPost2010PropOp33
 70
     1
102
RTVSPost2010Prop34
280
     0
102
RTVSPost2010PropOp34
 70
     1
102
RTVSPost2010Prop35
280
     0
102
RTVSPost2010PropOp35
 70
     1
102
RTVSPost2010Prop36
280
     0
102
RTVSPost2010PropOp36
 70
     1
102
RTVSPost2010Prop37
 90
       50
102
RTVSPost2010PropOp37
 70
     1
102
RTVSPost2010Prop38
140
0.0
102
RTVSPost2010PropOp38
 70
     1
102
RTVSPost2010Prop39
140
1.0
102
RTVSPost2010PropOp39
 70
     1
102
RTVSPost2010Prop40
 90
        0
102
RTVSPost2010PropOp40
 70
     1
102
RTVSPost2010Prop41ColorIndex
 90
       18
102
RTVSPost2010Prop41ColorRGB
 90
        0
102
RTVSPost2010PropOp41
 70
     1
102
RTVSPost2010Prop42
 90
       50
102
RTVSPost2010PropOp42
 70
     1
102
RTVSPost2010Prop43
 90
        3
102
RTVSPost2010PropOp43
 70
     1
102
RTVSPost2010Prop44ColorIndex
 90
        5
102
RTVSPost2010Prop44ColorRGB
 90
      255
102
RTVSPost2010PropOp44
 70
     1
102
RTVSPost2010Prop45
280
     0
102
RTVSPost2010PropOp45
 70
     1
102
RTVSPost2010Prop46
 90
       50
102
RTVSPost2010PropOp46
 70
     1
102
RTVSPost2010Prop47
 90
       50
102
RTVSPost2010PropOp47
 70
     1
102
RTVSPost2010Prop48
 90
       50
102
RTVSPost2010PropOp48
 70
     1
102
RTVSPost2010Prop49
280
     0
102
RTVSPost2010PropOp49
 70
     1
102
RTVSPost2010Prop50
 90
       50
102
RTVSPost2010PropOp50
 70
     1
102
RTVSPost2010Prop51ColorIndex
 90
      256
102
RTVSPost2010Prop51ColorRGB
 90
-16777216
102
RTVSPost2010PropOp51
 70
     0
102
RTVSPost2010Prop52
140
1.0
102
RTVSPost2010PropOp52
 70
     0
102
RTVSPost2010Prop53
 90
        2
102
RTVSPost2010PropOp53
 70
     1
102
RTVSPost2010Prop54
  1
strokes_ogs.tif
102
RTVSPost2010PropOp54
 70
     1
102
RTVSPost2010Prop55
280
     0
102
RTVSPost2010PropOp55
 70
     1
102
RTVSPost2010Prop56
140
1.0
102
RTVSPost2010PropOp56
 70
     1
102
RTVSPost2010Prop57
140
1.0
102
RTVSPost2010PropOp57
 70
     1
102
RTVSPropertyOp0
 70
     1
102
RTVSPropertyOp1
 70
     1
102
RTVSPropertyOp2
 70
     1
102
RTVSPropertyOp3
 70
     1
102
RTVSPropertyOp4
 70
     1
102
RTVSPropertyOp5
 70
     1
102
RTVSPropertyOp6
 70
     1
102
RTVSPropertyOp7
 70
     1
102
RTVSPropertyOp8
 70
     1
102
RTVSPropertyOp9
 70
     1
102
RTVSPropertyOp10
 70
     1
102
RTVSPropertyOp11
 70
     1
102
RTVSPropertyOp12
 70
     1
102
RTVSPropertyOp13
 70
     1
102
RTVSPropertyOp14
 70
     1
102
RTVSPropertyOp15
 70
     1
102
RTVSPropertyOp16
 70
     1
102
RTVSPropertyOp17
 70
     1
102
RTVSPropertyOp18
 70
     1
102
RTVSPropertyOp19
 70
     1
102
RTVSPropertyOp20
 70
     1
102
RTVSPropertyOp21
 70
     1
102
RTVSPropertyOp22
 70
     1
102
RTVSPropertyOp23
 70
     1
102
RTVSPropertyOp24
 70
     1
102
RTVSPropertyOp25
 70
     1
102
RTVSPropertyOp26
 70
     1
102
RTVSPropertyOp27
 70
     1
102
RTVSPropertyOp28
 70
     1
102
RTVSPropertyOp29
 70
     1
102
RTVSPropertyOp30
 70
     1
102
RTVSPropertyOp31
 70
     1
102
RTVSPropertyOp32
 70
     1
102
RTVSPropertyOp33
 70
     1
102
RTVSPropertyOp34
 70
     1
102
RTVSPropertyOp35
 70
     1
102
RTVSPropertyOp36
 70
     1
102
RTVSPropertyOp37
 70
     1
102
RTVSPropertyOp38
 70
     1
102
RTVSPropertyOp39
 70
     1
102
RTVSPropertyOp40
 70
     1
102
RTVSPropertyOp41
 70
     1
102
RTVSPropertyOp42
 70
     1
102
RTVSPropertyOp43
 70
     1
102
RTVSPropertyOp44
 70
     1
102
RTVSPropertyOp45
 70
     1
102
RTVSPropertyOp46
 70
     1
102
RTVSPropertyOp47
 70
     1
102
RTVSPropertyOp48
 70
     1
102
RTVSPropertyOp49
 70
     1
102
RTVSPropertyOp50
 70
     1
102
RTVSPropertyOp51
 70
     0
102
RTVSPropertyOp52
 70
     0
102
RTVSPropertyOp53
 70
     1
102
RTVSPropertyOp54
 70
     1
102
RTVSPropertyOp55
 70
     1
102
RTVSPropertyOp56
 70
     1
102
RTVSPropertyOp57
 70
     1
102
RTVSPropertyOp58
 70
     1
102
RTVSPropertyOp59
 70
     1
102
RTVSPropertyOp60
 70
     1
102
RTVSPropertyOp61
 70
     1
102
RTVSPropertyOp62
 70
     1
  0
XRECORD
  5
2C27
102
{ACAD_REACTORS
330
2C26
102
}
330
2C26
100
AcDbXrecord
280
     1
102
RTVSPost2010Prop28
280
     0
102
RTVSPost2010PropOp28
 70
     1
102
RTVSPost2010Prop29
280
     1
102
RTVSPost2010PropOp29
 70
     1
102
RTVSPost2010Prop30
280
     1
102
RTVSPost2010PropOp30
 70
     1
102
RTVSPost2010Prop31
280
     0
102
RTVSPost2010PropOp31
 70
     1
102
RTVSPost2010Prop32
280
     0
102
RTVSPost2010PropOp32
 70
     1
102
RTVSPost2010Prop33
280
     0
102
RTVSPost2010PropOp33
 70
     1
102
RTVSPost2010Prop34
280
     0
102
RTVSPost2010PropOp34
 70
     1
102
RTVSPost2010Prop35
280
     0
102
RTVSPost2010PropOp35
 70
     1
102
RTVSPost2010Prop36
280
     0
102
RTVSPost2010PropOp36
 70
     1
102
RTVSPost2010Prop37
 90
       50
102
RTVSPost2010PropOp37
 70
     1
102
RTVSPost2010Prop38
140
0.0
102
RTVSPost2010PropOp38
 70
     1
102
RTVSPost2010Prop39
140
1.0
102
RTVSPost2010PropOp39
 70
     1
102
RTVSPost2010Prop40
 90
        0
102
RTVSPost2010PropOp40
 70
     1
102
RTVSPost2010Prop41ColorIndex
 90
       18
102
RTVSPost2010Prop41ColorRGB
 90
        0
102
RTVSPost2010PropOp41
 70
     1
102
RTVSPost2010Prop42
 90
       50
102
RTVSPost2010PropOp42
 70
     1
102
RTVSPost2010Prop43
 90
        3
102
RTVSPost2010PropOp43
 70
     1
102
RTVSPost2010Prop44ColorIndex
 90
        5
102
RTVSPost2010Prop44ColorRGB
 90
      255
102
RTVSPost2010PropOp44
 70
     1
102
RTVSPost2010Prop45
280
     0
102
RTVSPost2010PropOp45
 70
     1
102
RTVSPost2010Prop46
 90
       50
102
RTVSPost2010PropOp46
 70
     1
102
RTVSPost2010Prop47
 90
       50
102
RTVSPost2010PropOp47
 70
     1
102
RTVSPost2010Prop48
 90
       50
102
RTVSPost2010PropOp48
 70
     1
102
RTVSPost2010Prop49
280
     0
102
RTVSPost2010PropOp49
 70
     1
102
RTVSPost2010Prop50
 90
       50
102
RTVSPost2010PropOp50
 70
     1
102
RTVSPost2010Prop51ColorIndex
 90
      256
102
RTVSPost2010Prop51ColorRGB
 90
-16777216
102
RTVSPost2010PropOp51
 70
     0
102
RTVSPost2010Prop52
140
1.0
102
RTVSPost2010PropOp52
 70
     0
102
RTVSPost2010Prop53
 90
        2
102
RTVSPost2010PropOp53
 70
     1
102
RTVSPost2010Prop54
  1
strokes_ogs.tif
102
RTVSPost2010PropOp54
 70
     1
102
RTVSPost2010Prop55
280
     0
102
RTVSPost2010PropOp55
 70
     1
102
RTVSPost2010Prop56
140
1.0
102
RTVSPost2010PropOp56
 70
     1
102
RTVSPost2010Prop57
140
1.0
102
RTVSPost2010PropOp57
 70
     1
102
RTVSPropertyOp0
 70
     1
102
RTVSPropertyOp1
 70
     1
102
RTVSPropertyOp2
 70
     1
102
RTVSPropertyOp3
 70
     1
102
RTVSPropertyOp4
 70
     1
102
RTVSPropertyOp5
 70
     1
102
RTVSPropertyOp6
 70
     1
102
RTVSPropertyOp7
 70
     1
102
RTVSPropertyOp8
 70
     1
102
RTVSPropertyOp9
 70
     1
102
RTVSPropertyOp10
 70
     1
102
RTVSPropertyOp11
 70
     1
102
RTVSPropertyOp12
 70
     1
102
RTVSPropertyOp13
 70
     1
102
RTVSPropertyOp14
 70
     1
102
RTVSPropertyOp15
 70
     1
102
RTVSPropertyOp16
 70
     1
102
RTVSPropertyOp17
 70
     1
102
RTVSPropertyOp18
 70
     1
102
RTVSPropertyOp19
 70
     1
102
RTVSPropertyOp20
 70
     1
102
RTVSPropertyOp21
 70
     1
102
RTVSPropertyOp22
 70
     1
102
RTVSPropertyOp23
 70
     1
102
RTVSPropertyOp24
 70
     1
102
RTVSPropertyOp25
 70
     1
102
RTVSPropertyOp26
 70
     1
102
RTVSPropertyOp27
 70
     1
102
RTVSPropertyOp28
 70
     1
102
RTVSPropertyOp29
 70
     1
102
RTVSPropertyOp30
 70
     1
102
RTVSPropertyOp31
 70
     1
102
RTVSPropertyOp32
 70
     1
102
RTVSPropertyOp33
 70
     1
102
RTVSPropertyOp34
 70
     1
102
RTVSPropertyOp35
 70
     1
102
RTVSPropertyOp36
 70
     1
102
RTVSPropertyOp37
 70
     1
102
RTVSPropertyOp38
 70
     1
102
RTVSPropertyOp39
 70
     1
102
RTVSPropertyOp40
 70
     1
102
RTVSPropertyOp41
 70
     1
102
RTVSPropertyOp42
 70
     1
102
RTVSPropertyOp43
 70
     1
102
RTVSPropertyOp44
 70
     1
102
RTVSPropertyOp45
 70
     1
102
RTVSPropertyOp46
 70
     1
102
RTVSPropertyOp47
 70
     1
102
RTVSPropertyOp48
 70
     1
102
RTVSPropertyOp49
 70
     1
102
RTVSPropertyOp50
 70
     1
102
RTVSPropertyOp51
 70
     0
102
RTVSPropertyOp52
 70
     0
102
RTVSPropertyOp53
 70
     1
102
RTVSPropertyOp54
 70
     1
102
RTVSPropertyOp55
 70
     1
102
RTVSPropertyOp56
 70
     1
102
RTVSPropertyOp57
 70
     1
102
RTVSPropertyOp58
 70
     1
102
RTVSPropertyOp59
 70
     1
102
RTVSPropertyOp60
 70
     1
102
RTVSPropertyOp61
 70
     1
102
RTVSPropertyOp62
 70
     1
  0
XRECORD
  5
2C35
102
{ACAD_REACTORS
330
2C34
102
}
330
2C34
100
AcDbXrecord
280
     1
102
RTVSPost2010Prop28
280
     0
102
RTVSPost2010PropOp28
 70
     1
102
RTVSPost2010Prop29
280
     1
102
RTVSPost2010PropOp29
 70
     1
102
RTVSPost2010Prop30
280
     1
102
RTVSPost2010PropOp30
 70
     1
102
RTVSPost2010Prop31
280
     0
102
RTVSPost2010PropOp31
 70
     1
102
RTVSPost2010Prop32
280
     0
102
RTVSPost2010PropOp32
 70
     1
102
RTVSPost2010Prop33
280
     0
102
RTVSPost2010PropOp33
 70
     1
102
RTVSPost2010Prop34
280
     0
102
RTVSPost2010PropOp34
 70
     1
102
RTVSPost2010Prop35
280
     0
102
RTVSPost2010PropOp35
 70
     1
102
RTVSPost2010Prop36
280
     0
102
RTVSPost2010PropOp36
 70
     1
102
RTVSPost2010Prop37
 90
       50
102
RTVSPost2010PropOp37
 70
     1
102
RTVSPost2010Prop38
140
0.0
102
RTVSPost2010PropOp38
 70
     1
102
RTVSPost2010Prop39
140
1.0
102
RTVSPost2010PropOp39
 70
     1
102
RTVSPost2010Prop40
 90
        0
102
RTVSPost2010PropOp40
 70
     1
102
RTVSPost2010Prop41ColorIndex
 90
       18
102
RTVSPost2010Prop41ColorRGB
 90
        0
102
RTVSPost2010PropOp41
 70
     1
102
RTVSPost2010Prop42
 90
       50
102
RTVSPost2010PropOp42
 70
     1
102
RTVSPost2010Prop43
 90
        3
102
RTVSPost2010PropOp43
 70
     1
102
RTVSPost2010Prop44ColorIndex
 90
        5
102
RTVSPost2010Prop44ColorRGB
 90
      255
102
RTVSPost2010PropOp44
 70
     1
102
RTVSPost2010Prop45
280
     0
102
RTVSPost2010PropOp45
 70
     1
102
RTVSPost2010Prop46
 90
       50
102
RTVSPost2010PropOp46
 70
     1
102
RTVSPost2010Prop47
 90
       50
102
RTVSPost2010PropOp47
 70
     1
102
RTVSPost2010Prop48
 90
       50
102
RTVSPost2010PropOp48
 70
     1
102
RTVSPost2010Prop49
280
     0
102
RTVSPost2010PropOp49
 70
     1
102
RTVSPost2010Prop50
 90
       50
102
RTVSPost2010PropOp50
 70
     1
102
RTVSPost2010Prop51ColorIndex
 90
      256
102
RTVSPost2010Prop51ColorRGB
 90
-16777216
102
RTVSPost2010PropOp51
 70
     0
102
RTVSPost2010Prop52
140
1.0
102
RTVSPost2010PropOp52
 70
     0
102
RTVSPost2010Prop53
 90
        2
102
RTVSPost2010PropOp53
 70
     1
102
RTVSPost2010Prop54
  1
strokes_ogs.tif
102
RTVSPost2010PropOp54
 70
     1
102
RTVSPost2010Prop55
280
     0
102
RTVSPost2010PropOp55
 70
     1
102
RTVSPost2010Prop56
140
1.0
102
RTVSPost2010PropOp56
 70
     1
102
RTVSPost2010Prop57
140
1.0
102
RTVSPost2010PropOp57
 70
     1
102
RTVSPropertyOp0
 70
     1
102
RTVSPropertyOp1
 70
     1
102
RTVSPropertyOp2
 70
     1
102
RTVSPropertyOp3
 70
     1
102
RTVSPropertyOp4
 70
     1
102
RTVSPropertyOp5
 70
     1
102
RTVSPropertyOp6
 70
     1
102
RTVSPropertyOp7
 70
     1
102
RTVSPropertyOp8
 70
     1
102
RTVSPropertyOp9
 70
     1
102
RTVSPropertyOp10
 70
     1
102
RTVSPropertyOp11
 70
     1
102
RTVSPropertyOp12
 70
     1
102
RTVSPropertyOp13
 70
     1
102
RTVSPropertyOp14
 70
     1
102
RTVSPropertyOp15
 70
     1
102
RTVSPropertyOp16
 70
     1
102
RTVSPropertyOp17
 70
     1
102
RTVSPropertyOp18
 70
     1
102
RTVSPropertyOp19
 70
     1
102
RTVSPropertyOp20
 70
     1
102
RTVSPropertyOp21
 70
     1
102
RTVSPropertyOp22
 70
     1
102
RTVSPropertyOp23
 70
     1
102
RTVSPropertyOp24
 70
     1
102
RTVSPropertyOp25
 70
     1
102
RTVSPropertyOp26
 70
     1
102
RTVSPropertyOp27
 70
     1
102
RTVSPropertyOp28
 70
     1
102
RTVSPropertyOp29
 70
     1
102
RTVSPropertyOp30
 70
     1
102
RTVSPropertyOp31
 70
     1
102
RTVSPropertyOp32
 70
     1
102
RTVSPropertyOp33
 70
     1
102
RTVSPropertyOp34
 70
     1
102
RTVSPropertyOp35
 70
     1
102
RTVSPropertyOp36
 70
     1
102
RTVSPropertyOp37
 70
     1
102
RTVSPropertyOp38
 70
     1
102
RTVSPropertyOp39
 70
     1
102
RTVSPropertyOp40
 70
     1
102
RTVSPropertyOp41
 70
     1
102
RTVSPropertyOp42
 70
     1
102
RTVSPropertyOp43
 70
     1
102
RTVSPropertyOp44
 70
     1
102
RTVSPropertyOp45
 70
     1
102
RTVSPropertyOp46
 70
     1
102
RTVSPropertyOp47
 70
     1
102
RTVSPropertyOp48
 70
     1
102
RTVSPropertyOp49
 70
     1
102
RTVSPropertyOp50
 70
     1
102
RTVSPropertyOp51
 70
     0
102
RTVSPropertyOp52
 70
     0
102
RTVSPropertyOp53
 70
     1
102
RTVSPropertyOp54
 70
     1
102
RTVSPropertyOp55
 70
     1
102
RTVSPropertyOp56
 70
     1
102
RTVSPropertyOp57
 70
     1
102
RTVSPropertyOp58
 70
     1
102
RTVSPropertyOp59
 70
     1
102
RTVSPropertyOp60
 70
     1
102
RTVSPropertyOp61
 70
     1
102
RTVSPropertyOp62
 70
     1
  0
XRECORD
  5
2C3D
102
{ACAD_REACTORS
330
2C3C
102
}
330
2C3C
100
AcDbXrecord
280
     1
102
RTVSPost2010Prop28
280
     0
102
RTVSPost2010PropOp28
 70
     1
102
RTVSPost2010Prop29
280
     1
102
RTVSPost2010PropOp29
 70
     1
102
RTVSPost2010Prop30
280
     1
102
RTVSPost2010PropOp30
 70
     1
102
RTVSPost2010Prop31
280
     0
102
RTVSPost2010PropOp31
 70
     1
102
RTVSPost2010Prop32
280
     0
102
RTVSPost2010PropOp32
 70
     1
102
RTVSPost2010Prop33
280
     0
102
RTVSPost2010PropOp33
 70
     1
102
RTVSPost2010Prop34
280
     0
102
RTVSPost2010PropOp34
 70
     1
102
RTVSPost2010Prop35
280
     0
102
RTVSPost2010PropOp35
 70
     1
102
RTVSPost2010Prop36
280
     0
102
RTVSPost2010PropOp36
 70
     1
102
RTVSPost2010Prop37
 90
       50
102
RTVSPost2010PropOp37
 70
     1
102
RTVSPost2010Prop38
140
0.0
102
RTVSPost2010PropOp38
 70
     1
102
RTVSPost2010Prop39
140
1.0
102
RTVSPost2010PropOp39
 70
     1
102
RTVSPost2010Prop40
 90
        0
102
RTVSPost2010PropOp40
 70
     1
102
RTVSPost2010Prop41ColorIndex
 90
       18
102
RTVSPost2010Prop41ColorRGB
 90
        0
102
RTVSPost2010PropOp41
 70
     1
102
RTVSPost2010Prop42
 90
       50
102
RTVSPost2010PropOp42
 70
     1
102
RTVSPost2010Prop43
 90
        3
102
RTVSPost2010PropOp43
 70
     1
102
RTVSPost2010Prop44ColorIndex
 90
        5
102
RTVSPost2010Prop44ColorRGB
 90
      255
102
RTVSPost2010PropOp44
 70
     1
102
RTVSPost2010Prop45
280
     0
102
RTVSPost2010PropOp45
 70
     1
102
RTVSPost2010Prop46
 90
       50
102
RTVSPost2010PropOp46
 70
     1
102
RTVSPost2010Prop47
 90
       50
102
RTVSPost2010PropOp47
 70
     1
102
RTVSPost2010Prop48
 90
       50
102
RTVSPost2010PropOp48
 70
     1
102
RTVSPost2010Prop49
280
     0
102
RTVSPost2010PropOp49
 70
     1
102
RTVSPost2010Prop50
 90
       50
102
RTVSPost2010PropOp50
 70
     1
102
RTVSPost2010Prop51ColorIndex
 90
      256
102
RTVSPost2010Prop51ColorRGB
 90
-16777216
102
RTVSPost2010PropOp51
 70
     0
102
RTVSPost2010Prop52
140
1.0
102
RTVSPost2010PropOp52
 70
     0
102
RTVSPost2010Prop53
 90
        2
102
RTVSPost2010PropOp53
 70
     1
102
RTVSPost2010Prop54
  1
strokes_ogs.tif
102
RTVSPost2010PropOp54
 70
     1
102
RTVSPost2010Prop55
280
     0
102
RTVSPost2010PropOp55
 70
     1
102
RTVSPost2010Prop56
140
1.0
102
RTVSPost2010PropOp56
 70
     1
102
RTVSPost2010Prop57
140
1.0
102
RTVSPost2010PropOp57
 70
     1
102
RTVSPropertyOp0
 70
     1
102
RTVSPropertyOp1
 70
     1
102
RTVSPropertyOp2
 70
     1
102
RTVSPropertyOp3
 70
     1
102
RTVSPropertyOp4
 70
     1
102
RTVSPropertyOp5
 70
     1
102
RTVSPropertyOp6
 70
     1
102
RTVSPropertyOp7
 70
     1
102
RTVSPropertyOp8
 70
     1
102
RTVSPropertyOp9
 70
     1
102
RTVSPropertyOp10
 70
     1
102
RTVSPropertyOp11
 70
     1
102
RTVSPropertyOp12
 70
     1
102
RTVSPropertyOp13
 70
     1
102
RTVSPropertyOp14
 70
     1
102
RTVSPropertyOp15
 70
     1
102
RTVSPropertyOp16
 70
     1
102
RTVSPropertyOp17
 70
     1
102
RTVSPropertyOp18
 70
     1
102
RTVSPropertyOp19
 70
     1
102
RTVSPropertyOp20
 70
     1
102
RTVSPropertyOp21
 70
     1
102
RTVSPropertyOp22
 70
     1
102
RTVSPropertyOp23
 70
     1
102
RTVSPropertyOp24
 70
     1
102
RTVSPropertyOp25
 70
     1
102
RTVSPropertyOp26
 70
     1
102
RTVSPropertyOp27
 70
     1
102
RTVSPropertyOp28
 70
     1
102
RTVSPropertyOp29
 70
     1
102
RTVSPropertyOp30
 70
     1
102
RTVSPropertyOp31
 70
     1
102
RTVSPropertyOp32
 70
     1
102
RTVSPropertyOp33
 70
     1
102
RTVSPropertyOp34
 70
     1
102
RTVSPropertyOp35
 70
     1
102
RTVSPropertyOp36
 70
     1
102
RTVSPropertyOp37
 70
     1
102
RTVSPropertyOp38
 70
     1
102
RTVSPropertyOp39
 70
     1
102
RTVSPropertyOp40
 70
     1
102
RTVSPropertyOp41
 70
     1
102
RTVSPropertyOp42
 70
     1
102
RTVSPropertyOp43
 70
     1
102
RTVSPropertyOp44
 70
     1
102
RTVSPropertyOp45
 70
     1
102
RTVSPropertyOp46
 70
     1
102
RTVSPropertyOp47
 70
     1
102
RTVSPropertyOp48
 70
     1
102
RTVSPropertyOp49
 70
     1
102
RTVSPropertyOp50
 70
     1
102
RTVSPropertyOp51
 70
     0
102
RTVSPropertyOp52
 70
     0
102
RTVSPropertyOp53
 70
     1
102
RTVSPropertyOp54
 70
     1
102
RTVSPropertyOp55
 70
     1
102
RTVSPropertyOp56
 70
     1
102
RTVSPropertyOp57
 70
     1
102
RTVSPropertyOp58
 70
     1
102
RTVSPropertyOp59
 70
     1
102
RTVSPropertyOp60
 70
     1
102
RTVSPropertyOp61
 70
     1
102
RTVSPropertyOp62
 70
     1
  0
XRECORD
  5
2C2F
102
{ACAD_REACTORS
330
2C2E
102
}
330
2C2E
100
AcDbXrecord
280
     1
102
RTVSPost2010Prop28
280
     0
102
RTVSPost2010PropOp28
 70
     1
102
RTVSPost2010Prop29
280
     1
102
RTVSPost2010PropOp29
 70
     1
102
RTVSPost2010Prop30
280
     1
102
RTVSPost2010PropOp30
 70
     1
102
RTVSPost2010Prop31
280
     0
102
RTVSPost2010PropOp31
 70
     1
102
RTVSPost2010Prop32
280
     0
102
RTVSPost2010PropOp32
 70
     1
102
RTVSPost2010Prop33
280
     0
102
RTVSPost2010PropOp33
 70
     1
102
RTVSPost2010Prop34
280
     0
102
RTVSPost2010PropOp34
 70
     1
102
RTVSPost2010Prop35
280
     0
102
RTVSPost2010PropOp35
 70
     1
102
RTVSPost2010Prop36
280
     0
102
RTVSPost2010PropOp36
 70
     1
102
RTVSPost2010Prop37
 90
       50
102
RTVSPost2010PropOp37
 70
     1
102
RTVSPost2010Prop38
140
0.0
102
RTVSPost2010PropOp38
 70
     1
102
RTVSPost2010Prop39
140
1.0
102
RTVSPost2010PropOp39
 70
     1
102
RTVSPost2010Prop40
 90
        0
102
RTVSPost2010PropOp40
 70
     1
102
RTVSPost2010Prop41ColorIndex
 90
       18
102
RTVSPost2010Prop41ColorRGB
 90
        0
102
RTVSPost2010PropOp41
 70
     1
102
RTVSPost2010Prop42
 90
       50
102
RTVSPost2010PropOp42
 70
     1
102
RTVSPost2010Prop43
 90
        3
102
RTVSPost2010PropOp43
 70
     1
102
RTVSPost2010Prop44ColorIndex
 90
        5
102
RTVSPost2010Prop44ColorRGB
 90
      255
102
RTVSPost2010PropOp44
 70
     1
102
RTVSPost2010Prop45
280
     0
102
RTVSPost2010PropOp45
 70
     1
102
RTVSPost2010Prop46
 90
       50
102
RTVSPost2010PropOp46
 70
     1
102
RTVSPost2010Prop47
 90
       50
102
RTVSPost2010PropOp47
 70
     1
102
RTVSPost2010Prop48
 90
       50
102
RTVSPost2010PropOp48
 70
     1
102
RTVSPost2010Prop49
280
     0
102
RTVSPost2010PropOp49
 70
     1
102
RTVSPost2010Prop50
 90
       50
102
RTVSPost2010PropOp50
 70
     1
102
RTVSPost2010Prop51ColorIndex
 90
      256
102
RTVSPost2010Prop51ColorRGB
 90
-16777216
102
RTVSPost2010PropOp51
 70
     0
102
RTVSPost2010Prop52
140
1.0
102
RTVSPost2010PropOp52
 70
     0
102
RTVSPost2010Prop53
 90
        2
102
RTVSPost2010PropOp53
 70
     1
102
RTVSPost2010Prop54
  1
strokes_ogs.tif
102
RTVSPost2010PropOp54
 70
     1
102
RTVSPost2010Prop55
280
     0
102
RTVSPost2010PropOp55
 70
     1
102
RTVSPost2010Prop56
140
1.0
102
RTVSPost2010PropOp56
 70
     1
102
RTVSPost2010Prop57
140
1.0
102
RTVSPost2010PropOp57
 70
     1
102
RTVSPropertyOp0
 70
     1
102
RTVSPropertyOp1
 70
     1
102
RTVSPropertyOp2
 70
     1
102
RTVSPropertyOp3
 70
     1
102
RTVSPropertyOp4
 70
     1
102
RTVSPropertyOp5
 70
     1
102
RTVSPropertyOp6
 70
     1
102
RTVSPropertyOp7
 70
     1
102
RTVSPropertyOp8
 70
     1
102
RTVSPropertyOp9
 70
     1
102
RTVSPropertyOp10
 70
     1
102
RTVSPropertyOp11
 70
     1
102
RTVSPropertyOp12
 70
     1
102
RTVSPropertyOp13
 70
     1
102
RTVSPropertyOp14
 70
     1
102
RTVSPropertyOp15
 70
     1
102
RTVSPropertyOp16
 70
     1
102
RTVSPropertyOp17
 70
     1
102
RTVSPropertyOp18
 70
     1
102
RTVSPropertyOp19
 70
     1
102
RTVSPropertyOp20
 70
     1
102
RTVSPropertyOp21
 70
     1
102
RTVSPropertyOp22
 70
     1
102
RTVSPropertyOp23
 70
     1
102
RTVSPropertyOp24
 70
     1
102
RTVSPropertyOp25
 70
     1
102
RTVSPropertyOp26
 70
     1
102
RTVSPropertyOp27
 70
     1
102
RTVSPropertyOp28
 70
     1
102
RTVSPropertyOp29
 70
     1
102
RTVSPropertyOp30
 70
     1
102
RTVSPropertyOp31
 70
     1
102
RTVSPropertyOp32
 70
     1
102
RTVSPropertyOp33
 70
     1
102
RTVSPropertyOp34
 70
     1
102
RTVSPropertyOp35
 70
     1
102
RTVSPropertyOp36
 70
     1
102
RTVSPropertyOp37
 70
     1
102
RTVSPropertyOp38
 70
     1
102
RTVSPropertyOp39
 70
     1
102
RTVSPropertyOp40
 70
     1
102
RTVSPropertyOp41
 70
     1
102
RTVSPropertyOp42
 70
     1
102
RTVSPropertyOp43
 70
     1
102
RTVSPropertyOp44
 70
     1
102
RTVSPropertyOp45
 70
     1
102
RTVSPropertyOp46
 70
     1
102
RTVSPropertyOp47
 70
     1
102
RTVSPropertyOp48
 70
     1
102
RTVSPropertyOp49
 70
     1
102
RTVSPropertyOp50
 70
     1
102
RTVSPropertyOp51
 70
     0
102
RTVSPropertyOp52
 70
     0
102
RTVSPropertyOp53
 70
     1
102
RTVSPropertyOp54
 70
     1
102
RTVSPropertyOp55
 70
     1
102
RTVSPropertyOp56
 70
     1
102
RTVSPropertyOp57
 70
     1
102
RTVSPropertyOp58
 70
     1
102
RTVSPropertyOp59
 70
     1
102
RTVSPropertyOp60
 70
     1
102
RTVSPropertyOp61
 70
     1
102
RTVSPropertyOp62
 70
     1
  0
XRECORD
  5
2C33
102
{ACAD_REACTORS
330
2C32
102
}
330
2C32
100
AcDbXrecord
280
     1
102
RTVSPost2010Prop28
280
     0
102
RTVSPost2010PropOp28
 70
     1
102
RTVSPost2010Prop29
280
     1
102
RTVSPost2010PropOp29
 70
     1
102
RTVSPost2010Prop30
280
     1
102
RTVSPost2010PropOp30
 70
     1
102
RTVSPost2010Prop31
280
     0
102
RTVSPost2010PropOp31
 70
     1
102
RTVSPost2010Prop32
280
     0
102
RTVSPost2010PropOp32
 70
     1
102
RTVSPost2010Prop33
280
     0
102
RTVSPost2010PropOp33
 70
     1
102
RTVSPost2010Prop34
280
     0
102
RTVSPost2010PropOp34
 70
     1
102
RTVSPost2010Prop35
280
     0
102
RTVSPost2010PropOp35
 70
     1
102
RTVSPost2010Prop36
280
     0
102
RTVSPost2010PropOp36
 70
     1
102
RTVSPost2010Prop37
 90
       50
102
RTVSPost2010PropOp37
 70
     1
102
RTVSPost2010Prop38
140
0.0
102
RTVSPost2010PropOp38
 70
     1
102
RTVSPost2010Prop39
140
1.0
102
RTVSPost2010PropOp39
 70
     1
102
RTVSPost2010Prop40
 90
        0
102
RTVSPost2010PropOp40
 70
     1
102
RTVSPost2010Prop41ColorIndex
 90
       18
102
RTVSPost2010Prop41ColorRGB
 90
        0
102
RTVSPost2010PropOp41
 70
     1
102
RTVSPost2010Prop42
 90
       50
102
RTVSPost2010PropOp42
 70
     1
102
RTVSPost2010Prop43
 90
        3
102
RTVSPost2010PropOp43
 70
     1
102
RTVSPost2010Prop44ColorIndex
 90
        5
102
RTVSPost2010Prop44ColorRGB
 90
      255
102
RTVSPost2010PropOp44
 70
     1
102
RTVSPost2010Prop45
280
     0
102
RTVSPost2010PropOp45
 70
     1
102
RTVSPost2010Prop46
 90
       50
102
RTVSPost2010PropOp46
 70
     1
102
RTVSPost2010Prop47
 90
       50
102
RTVSPost2010PropOp47
 70
     1
102
RTVSPost2010Prop48
 90
       50
102
RTVSPost2010PropOp48
 70
     1
102
RTVSPost2010Prop49
280
     0
102
RTVSPost2010PropOp49
 70
     1
102
RTVSPost2010Prop50
 90
       50
102
RTVSPost2010PropOp50
 70
     1
102
RTVSPost2010Prop51ColorIndex
 90
      256
102
RTVSPost2010Prop51ColorRGB
 90
-16777216
102
RTVSPost2010PropOp51
 70
     0
102
RTVSPost2010Prop52
140
1.0
102
RTVSPost2010PropOp52
 70
     0
102
RTVSPost2010Prop53
 90
        2
102
RTVSPost2010PropOp53
 70
     1
102
RTVSPost2010Prop54
  1
strokes_ogs.tif
102
RTVSPost2010PropOp54
 70
     1
102
RTVSPost2010Prop55
280
     0
102
RTVSPost2010PropOp55
 70
     1
102
RTVSPost2010Prop56
140
1.0
102
RTVSPost2010PropOp56
 70
     1
102
RTVSPost2010Prop57
140
1.0
102
RTVSPost2010PropOp57
 70
     1
102
RTVSPropertyOp0
 70
     1
102
RTVSPropertyOp1
 70
     1
102
RTVSPropertyOp2
 70
     1
102
RTVSPropertyOp3
 70
     1
102
RTVSPropertyOp4
 70
     1
102
RTVSPropertyOp5
 70
     1
102
RTVSPropertyOp6
 70
     1
102
RTVSPropertyOp7
 70
     1
102
RTVSPropertyOp8
 70
     1
102
RTVSPropertyOp9
 70
     1
102
RTVSPropertyOp10
 70
     1
102
RTVSPropertyOp11
 70
     1
102
RTVSPropertyOp12
 70
     1
102
RTVSPropertyOp13
 70
     1
102
RTVSPropertyOp14
 70
     1
102
RTVSPropertyOp15
 70
     1
102
RTVSPropertyOp16
 70
     1
102
RTVSPropertyOp17
 70
     1
102
RTVSPropertyOp18
 70
     1
102
RTVSPropertyOp19
 70
     1
102
RTVSPropertyOp20
 70
     1
102
RTVSPropertyOp21
 70
     1
102
RTVSPropertyOp22
 70
     1
102
RTVSPropertyOp23
 70
     1
102
RTVSPropertyOp24
 70
     1
102
RTVSPropertyOp25
 70
     1
102
RTVSPropertyOp26
 70
     1
102
RTVSPropertyOp27
 70
     1
102
RTVSPropertyOp28
 70
     1
102
RTVSPropertyOp29
 70
     1
102
RTVSPropertyOp30
 70
     1
102
RTVSPropertyOp31
 70
     1
102
RTVSPropertyOp32
 70
     1
102
RTVSPropertyOp33
 70
     1
102
RTVSPropertyOp34
 70
     1
102
RTVSPropertyOp35
 70
     1
102
RTVSPropertyOp36
 70
     1
102
RTVSPropertyOp37
 70
     1
102
RTVSPropertyOp38
 70
     1
102
RTVSPropertyOp39
 70
     1
102
RTVSPropertyOp40
 70
     1
102
RTVSPropertyOp41
 70
     1
102
RTVSPropertyOp42
 70
     1
102
RTVSPropertyOp43
 70
     1
102
RTVSPropertyOp44
 70
     1
102
RTVSPropertyOp45
 70
     1
102
RTVSPropertyOp46
 70
     1
102
RTVSPropertyOp47
 70
     1
102
RTVSPropertyOp48
 70
     1
102
RTVSPropertyOp49
 70
     1
102
RTVSPropertyOp50
 70
     1
102
RTVSPropertyOp51
 70
     0
102
RTVSPropertyOp52
 70
     0
102
RTVSPropertyOp53
 70
     1
102
RTVSPropertyOp54
 70
     1
102
RTVSPropertyOp55
 70
     1
102
RTVSPropertyOp56
 70
     1
102
RTVSPropertyOp57
 70
     1
102
RTVSPropertyOp58
 70
     1
102
RTVSPropertyOp59
 70
     1
102
RTVSPropertyOp60
 70
     1
102
RTVSPropertyOp61
 70
     1
102
RTVSPropertyOp62
 70
     1
  0
XRECORD
  5
2C4D
102
{ACAD_REACTORS
330
2C4C
102
}
330
2C4C
100
AcDbXrecord
280
     1
102
RTVSPost2010Prop28
280
     0
102
RTVSPost2010PropOp28
 70
     1
102
RTVSPost2010Prop29
280
     1
102
RTVSPost2010PropOp29
 70
     1
102
RTVSPost2010Prop30
280
     1
102
RTVSPost2010PropOp30
 70
     1
102
RTVSPost2010Prop31
280
     0
102
RTVSPost2010PropOp31
 70
     1
102
RTVSPost2010Prop32
280
     0
102
RTVSPost2010PropOp32
 70
     1
102
RTVSPost2010Prop33
280
     0
102
RTVSPost2010PropOp33
 70
     1
102
RTVSPost2010Prop34
280
     0
102
RTVSPost2010PropOp34
 70
     1
102
RTVSPost2010Prop35
280
     0
102
RTVSPost2010PropOp35
 70
     1
102
RTVSPost2010Prop36
280
     0
102
RTVSPost2010PropOp36
 70
     1
102
RTVSPost2010Prop37
 90
       50
102
RTVSPost2010PropOp37
 70
     0
102
RTVSPost2010Prop38
140
0.0
102
RTVSPost2010PropOp38
 70
     0
102
RTVSPost2010Prop39
140
1.0
102
RTVSPost2010PropOp39
 70
     0
102
RTVSPost2010Prop40
 90
        0
102
RTVSPost2010PropOp40
 70
     0
102
RTVSPost2010Prop41ColorIndex
 90
       18
102
RTVSPost2010Prop41ColorRGB
 90
        0
102
RTVSPost2010PropOp41
 70
     0
102
RTVSPost2010Prop42
 90
       50
102
RTVSPost2010PropOp42
 70
     0
102
RTVSPost2010Prop43
 90
        3
102
RTVSPost2010PropOp43
 70
     0
102
RTVSPost2010Prop44ColorIndex
 90
        5
102
RTVSPost2010Prop44ColorRGB
 90
      255
102
RTVSPost2010PropOp44
 70
     0
102
RTVSPost2010Prop45
280
     0
102
RTVSPost2010PropOp45
 70
     1
102
RTVSPost2010Prop46
 90
       50
102
RTVSPost2010PropOp46
 70
     0
102
RTVSPost2010Prop47
 90
       50
102
RTVSPost2010PropOp47
 70
     0
102
RTVSPost2010Prop48
 90
       50
102
RTVSPost2010PropOp48
 70
     0
102
RTVSPost2010Prop49
280
     0
102
RTVSPost2010PropOp49
 70
     1
102
RTVSPost2010Prop50
 90
       50
102
RTVSPost2010PropOp50
 70
     0
102
RTVSPost2010Prop51ColorIndex
 90
      256
102
RTVSPost2010Prop51ColorRGB
 90
-16777216
102
RTVSPost2010PropOp51
 70
     0
102
RTVSPost2010Prop52
140
1.0
102
RTVSPost2010PropOp52
 70
     0
102
RTVSPost2010Prop53
 90
        2
102
RTVSPost2010PropOp53
 70
     0
102
RTVSPost2010Prop54
  1
strokes_ogs.tif
102
RTVSPost2010PropOp54
 70
     0
102
RTVSPost2010Prop55
280
     0
102
RTVSPost2010PropOp55
 70
     1
102
RTVSPost2010Prop56
140
1.0
102
RTVSPost2010PropOp56
 70
     0
102
RTVSPost2010Prop57
140
1.0
102
RTVSPost2010PropOp57
 70
     0
102
RTVSPropertyOp0
 70
     0
102
RTVSPropertyOp1
 70
     0
102
RTVSPropertyOp2
 70
     0
102
RTVSPropertyOp3
 70
     0
102
RTVSPropertyOp4
 70
     0
102
RTVSPropertyOp5
 70
     0
102
RTVSPropertyOp6
 70
     0
102
RTVSPropertyOp7
 70
     0
102
RTVSPropertyOp8
 70
     0
102
RTVSPropertyOp9
 70
     0
102
RTVSPropertyOp10
 70
     0
102
RTVSPropertyOp11
 70
     0
102
RTVSPropertyOp12
 70
     0
102
RTVSPropertyOp13
 70
     0
102
RTVSPropertyOp14
 70
     2
102
RTVSPropertyOp15
 70
     0
102
RTVSPropertyOp16
 70
     0
102
RTVSPropertyOp17
 70
     0
102
RTVSPropertyOp18
 70
     0
102
RTVSPropertyOp19
 70
     0
102
RTVSPropertyOp20
 70
     0
102
RTVSPropertyOp21
 70
     0
102
RTVSPropertyOp22
 70
     0
102
RTVSPropertyOp23
 70
     0
102
RTVSPropertyOp24
 70
     0
102
RTVSPropertyOp25
 70
     0
102
RTVSPropertyOp26
 70
     0
102
RTVSPropertyOp27
 70
     0
102
RTVSPropertyOp28
 70
     1
102
RTVSPropertyOp29
 70
     1
102
RTVSPropertyOp30
 70
     1
102
RTVSPropertyOp31
 70
     1
102
RTVSPropertyOp32
 70
     1
102
RTVSPropertyOp33
 70
     1
102
RTVSPropertyOp34
 70
     1
102
RTVSPropertyOp35
 70
     1
102
RTVSPropertyOp36
 70
     1
102
RTVSPropertyOp37
 70
     0
102
RTVSPropertyOp38
 70
     0
102
RTVSPropertyOp39
 70
     0
102
RTVSPropertyOp40
 70
     0
102
RTVSPropertyOp41
 70
     0
102
RTVSPropertyOp42
 70
     0
102
RTVSPropertyOp43
 70
     0
102
RTVSPropertyOp44
 70
     0
102
RTVSPropertyOp45
 70
     1
102
RTVSPropertyOp46
 70
     0
102
RTVSPropertyOp47
 70
     0
102
RTVSPropertyOp48
 70
     0
102
RTVSPropertyOp49
 70
     1
102
RTVSPropertyOp50
 70
     0
102
RTVSPropertyOp51
 70
     0
102
RTVSPropertyOp52
 70
     0
102
RTVSPropertyOp53
 70
     0
102
RTVSPropertyOp54
 70
     0
102
RTVSPropertyOp55
 70
     1
102
RTVSPropertyOp56
 70
     0
102
RTVSPropertyOp57
 70
     0
102
RTVSPropertyOp58
 70
     0
102
RTVSPropertyOp59
 70
     0
102
RTVSPropertyOp60
 70
     0
102
RTVSPropertyOp61
 70
     0
102
RTVSPropertyOp62
 70
     0
  0
XRECORD
  5
2C3B
102
{ACAD_REACTORS
330
2C3A
102
}
330
2C3A
100
AcDbXrecord
280
     1
102
RTVSPost2010Prop28
280
     0
102
RTVSPost2010PropOp28
 70
     1
102
RTVSPost2010Prop29
280
     1
102
RTVSPost2010PropOp29
 70
     1
102
RTVSPost2010Prop30
280
     1
102
RTVSPost2010PropOp30
 70
     1
102
RTVSPost2010Prop31
280
     0
102
RTVSPost2010PropOp31
 70
     1
102
RTVSPost2010Prop32
280
     0
102
RTVSPost2010PropOp32
 70
     1
102
RTVSPost2010Prop33
280
     0
102
RTVSPost2010PropOp33
 70
     1
102
RTVSPost2010Prop34
280
     0
102
RTVSPost2010PropOp34
 70
     1
102
RTVSPost2010Prop35
280
     0
102
RTVSPost2010PropOp35
 70
     1
102
RTVSPost2010Prop36
280
     0
102
RTVSPost2010PropOp36
 70
     1
102
RTVSPost2010Prop37
 90
       50
102
RTVSPost2010PropOp37
 70
     1
102
RTVSPost2010Prop38
140
0.0
102
RTVSPost2010PropOp38
 70
     1
102
RTVSPost2010Prop39
140
1.0
102
RTVSPost2010PropOp39
 70
     1
102
RTVSPost2010Prop40
 90
        0
102
RTVSPost2010PropOp40
 70
     1
102
RTVSPost2010Prop41ColorIndex
 90
       18
102
RTVSPost2010Prop41ColorRGB
 90
        0
102
RTVSPost2010PropOp41
 70
     1
102
RTVSPost2010Prop42
 90
       50
102
RTVSPost2010PropOp42
 70
     1
102
RTVSPost2010Prop43
 90
        3
102
RTVSPost2010PropOp43
 70
     1
102
RTVSPost2010Prop44ColorIndex
 90
        5
102
RTVSPost2010Prop44ColorRGB
 90
      255
102
RTVSPost2010PropOp44
 70
     1
102
RTVSPost2010Prop45
280
     0
102
RTVSPost2010PropOp45
 70
     1
102
RTVSPost2010Prop46
 90
       50
102
RTVSPost2010PropOp46
 70
     1
102
RTVSPost2010Prop47
 90
       50
102
RTVSPost2010PropOp47
 70
     1
102
RTVSPost2010Prop48
 90
       50
102
RTVSPost2010PropOp48
 70
     1
102
RTVSPost2010Prop49
280
     0
102
RTVSPost2010PropOp49
 70
     1
102
RTVSPost2010Prop50
 90
       50
102
RTVSPost2010PropOp50
 70
     1
102
RTVSPost2010Prop51ColorIndex
 90
      256
102
RTVSPost2010Prop51ColorRGB
 90
-16777216
102
RTVSPost2010PropOp51
 70
     0
102
RTVSPost2010Prop52
140
1.0
102
RTVSPost2010PropOp52
 70
     0
102
RTVSPost2010Prop53
 90
        2
102
RTVSPost2010PropOp53
 70
     1
102
RTVSPost2010Prop54
  1
strokes_ogs.tif
102
RTVSPost2010PropOp54
 70
     1
102
RTVSPost2010Prop55
280
     0
102
RTVSPost2010PropOp55
 70
     1
102
RTVSPost2010Prop56
140
1.0
102
RTVSPost2010PropOp56
 70
     1
102
RTVSPost2010Prop57
140
1.0
102
RTVSPost2010PropOp57
 70
     1
102
RTVSPropertyOp0
 70
     1
102
RTVSPropertyOp1
 70
     1
102
RTVSPropertyOp2
 70
     1
102
RTVSPropertyOp3
 70
     1
102
RTVSPropertyOp4
 70
     1
102
RTVSPropertyOp5
 70
     1
102
RTVSPropertyOp6
 70
     1
102
RTVSPropertyOp7
 70
     1
102
RTVSPropertyOp8
 70
     1
102
RTVSPropertyOp9
 70
     1
102
RTVSPropertyOp10
 70
     1
102
RTVSPropertyOp11
 70
     1
102
RTVSPropertyOp12
 70
     1
102
RTVSPropertyOp13
 70
     1
102
RTVSPropertyOp14
 70
     1
102
RTVSPropertyOp15
 70
     1
102
RTVSPropertyOp16
 70
     1
102
RTVSPropertyOp17
 70
     1
102
RTVSPropertyOp18
 70
     1
102
RTVSPropertyOp19
 70
     1
102
RTVSPropertyOp20
 70
     1
102
RTVSPropertyOp21
 70
     1
102
RTVSPropertyOp22
 70
     1
102
RTVSPropertyOp23
 70
     1
102
RTVSPropertyOp24
 70
     1
102
RTVSPropertyOp25
 70
     1
102
RTVSPropertyOp26
 70
     1
102
RTVSPropertyOp27
 70
     1
102
RTVSPropertyOp28
 70
     1
102
RTVSPropertyOp29
 70
     1
102
RTVSPropertyOp30
 70
     1
102
RTVSPropertyOp31
 70
     1
102
RTVSPropertyOp32
 70
     1
102
RTVSPropertyOp33
 70
     1
102
RTVSPropertyOp34
 70
     1
102
RTVSPropertyOp35
 70
     1
102
RTVSPropertyOp36
 70
     1
102
RTVSPropertyOp37
 70
     1
102
RTVSPropertyOp38
 70
     1
102
RTVSPropertyOp39
 70
     1
102
RTVSPropertyOp40
 70
     1
102
RTVSPropertyOp41
 70
     1
102
RTVSPropertyOp42
 70
     1
102
RTVSPropertyOp43
 70
     1
102
RTVSPropertyOp44
 70
     1
102
RTVSPropertyOp45
 70
     1
102
RTVSPropertyOp46
 70
     1
102
RTVSPropertyOp47
 70
     1
102
RTVSPropertyOp48
 70
     1
102
RTVSPropertyOp49
 70
     1
102
RTVSPropertyOp50
 70
     1
102
RTVSPropertyOp51
 70
     0
102
RTVSPropertyOp52
 70
     0
102
RTVSPropertyOp53
 70
     1
102
RTVSPropertyOp54
 70
     1
102
RTVSPropertyOp55
 70
     1
102
RTVSPropertyOp56
 70
     1
102
RTVSPropertyOp57
 70
     1
102
RTVSPropertyOp58
 70
     1
102
RTVSPropertyOp59
 70
     1
102
RTVSPropertyOp60
 70
     1
102
RTVSPropertyOp61
 70
     1
102
RTVSPropertyOp62
 70
     1
  0
XRECORD
  5
2C1F
102
{ACAD_REACTORS
330
2C1E
102
}
330
2C1E
100
AcDbXrecord
280
     1
102
RTVSPost2010Prop28
280
     0
102
RTVSPost2010PropOp28
 70
     1
102
RTVSPost2010Prop29
280
     1
102
RTVSPost2010PropOp29
 70
     1
102
RTVSPost2010Prop30
280
     1
102
RTVSPost2010PropOp30
 70
     1
102
RTVSPost2010Prop31
280
     0
102
RTVSPost2010PropOp31
 70
     1
102
RTVSPost2010Prop32
280
     0
102
RTVSPost2010PropOp32
 70
     1
102
RTVSPost2010Prop33
280
     0
102
RTVSPost2010PropOp33
 70
     1
102
RTVSPost2010Prop34
280
     0
102
RTVSPost2010PropOp34
 70
     1
102
RTVSPost2010Prop35
280
     0
102
RTVSPost2010PropOp35
 70
     1
102
RTVSPost2010Prop36
280
     0
102
RTVSPost2010PropOp36
 70
     1
102
RTVSPost2010Prop37
 90
       50
102
RTVSPost2010PropOp37
 70
     1
102
RTVSPost2010Prop38
140
0.0
102
RTVSPost2010PropOp38
 70
     1
102
RTVSPost2010Prop39
140
1.0
102
RTVSPost2010PropOp39
 70
     1
102
RTVSPost2010Prop40
 90
        0
102
RTVSPost2010PropOp40
 70
     1
102
RTVSPost2010Prop41ColorIndex
 90
       18
102
RTVSPost2010Prop41ColorRGB
 90
        0
102
RTVSPost2010PropOp41
 70
     1
102
RTVSPost2010Prop42
 90
       50
102
RTVSPost2010PropOp42
 70
     1
102
RTVSPost2010Prop43
 90
        3
102
RTVSPost2010PropOp43
 70
     1
102
RTVSPost2010Prop44ColorIndex
 90
        5
102
RTVSPost2010Prop44ColorRGB
 90
      255
102
RTVSPost2010PropOp44
 70
     1
102
RTVSPost2010Prop45
280
     0
102
RTVSPost2010PropOp45
 70
     1
102
RTVSPost2010Prop46
 90
       50
102
RTVSPost2010PropOp46
 70
     1
102
RTVSPost2010Prop47
 90
       50
102
RTVSPost2010PropOp47
 70
     1
102
RTVSPost2010Prop48
 90
       50
102
RTVSPost2010PropOp48
 70
     1
102
RTVSPost2010Prop49
280
     0
102
RTVSPost2010PropOp49
 70
     1
102
RTVSPost2010Prop50
 90
       50
102
RTVSPost2010PropOp50
 70
     1
102
RTVSPost2010Prop51ColorIndex
 90
      256
102
RTVSPost2010Prop51ColorRGB
 90
-16777216
102
RTVSPost2010PropOp51
 70
     0
102
RTVSPost2010Prop52
140
1.0
102
RTVSPost2010PropOp52
 70
     0
102
RTVSPost2010Prop53
 90
        2
102
RTVSPost2010PropOp53
 70
     1
102
RTVSPost2010Prop54
  1
strokes_ogs.tif
102
RTVSPost2010PropOp54
 70
     1
102
RTVSPost2010Prop55
280
     0
102
RTVSPost2010PropOp55
 70
     1
102
RTVSPost2010Prop56
140
1.0
102
RTVSPost2010PropOp56
 70
     1
102
RTVSPost2010Prop57
140
1.0
102
RTVSPost2010PropOp57
 70
     1
102
RTVSPropertyOp0
 70
     1
102
RTVSPropertyOp1
 70
     1
102
RTVSPropertyOp2
 70
     1
102
RTVSPropertyOp3
 70
     1
102
RTVSPropertyOp4
 70
     1
102
RTVSPropertyOp5
 70
     1
102
RTVSPropertyOp6
 70
     1
102
RTVSPropertyOp7
 70
     1
102
RTVSPropertyOp8
 70
     1
102
RTVSPropertyOp9
 70
     1
102
RTVSPropertyOp10
 70
     1
102
RTVSPropertyOp11
 70
     1
102
RTVSPropertyOp12
 70
     1
102
RTVSPropertyOp13
 70
     1
102
RTVSPropertyOp14
 70
     1
102
RTVSPropertyOp15
 70
     1
102
RTVSPropertyOp16
 70
     1
102
RTVSPropertyOp17
 70
     1
102
RTVSPropertyOp18
 70
     1
102
RTVSPropertyOp19
 70
     1
102
RTVSPropertyOp20
 70
     1
102
RTVSPropertyOp21
 70
     1
102
RTVSPropertyOp22
 70
     1
102
RTVSPropertyOp23
 70
     1
102
RTVSPropertyOp24
 70
     1
102
RTVSPropertyOp25
 70
     1
102
RTVSPropertyOp26
 70
     1
102
RTVSPropertyOp27
 70
     1
102
RTVSPropertyOp28
 70
     1
102
RTVSPropertyOp29
 70
     1
102
RTVSPropertyOp30
 70
     1
102
RTVSPropertyOp31
 70
     1
102
RTVSPropertyOp32
 70
     1
102
RTVSPropertyOp33
 70
     1
102
RTVSPropertyOp34
 70
     1
102
RTVSPropertyOp35
 70
     1
102
RTVSPropertyOp36
 70
     1
102
RTVSPropertyOp37
 70
     1
102
RTVSPropertyOp38
 70
     1
102
RTVSPropertyOp39
 70
     1
102
RTVSPropertyOp40
 70
     1
102
RTVSPropertyOp41
 70
     1
102
RTVSPropertyOp42
 70
     1
102
RTVSPropertyOp43
 70
     1
102
RTVSPropertyOp44
 70
     1
102
RTVSPropertyOp45
 70
     1
102
RTVSPropertyOp46
 70
     1
102
RTVSPropertyOp47
 70
     1
102
RTVSPropertyOp48
 70
     1
102
RTVSPropertyOp49
 70
     1
102
RTVSPropertyOp50
 70
     1
102
RTVSPropertyOp51
 70
     0
102
RTVSPropertyOp52
 70
     0
102
RTVSPropertyOp53
 70
     1
102
RTVSPropertyOp54
 70
     1
102
RTVSPropertyOp55
 70
     1
102
RTVSPropertyOp56
 70
     1
102
RTVSPropertyOp57
 70
     1
102
RTVSPropertyOp58
 70
     1
102
RTVSPropertyOp59
 70
     1
102
RTVSPropertyOp60
 70
     1
102
RTVSPropertyOp61
 70
     1
102
RTVSPropertyOp62
 70
     1
  0
XRECORD
  5
2C21
102
{ACAD_REACTORS
330
2C20
102
}
330
2C20
100
AcDbXrecord
280
     1
102
RTVSPost2010Prop28
280
     0
102
RTVSPost2010PropOp28
 70
     1
102
RTVSPost2010Prop29
280
     1
102
RTVSPost2010PropOp29
 70
     1
102
RTVSPost2010Prop30
280
     1
102
RTVSPost2010PropOp30
 70
     1
102
RTVSPost2010Prop31
280
     0
102
RTVSPost2010PropOp31
 70
     1
102
RTVSPost2010Prop32
280
     0
102
RTVSPost2010PropOp32
 70
     1
102
RTVSPost2010Prop33
280
     0
102
RTVSPost2010PropOp33
 70
     1
102
RTVSPost2010Prop34
280
     0
102
RTVSPost2010PropOp34
 70
     1
102
RTVSPost2010Prop35
280
     0
102
RTVSPost2010PropOp35
 70
     1
102
RTVSPost2010Prop36
280
     0
102
RTVSPost2010PropOp36
 70
     1
102
RTVSPost2010Prop37
 90
       50
102
RTVSPost2010PropOp37
 70
     1
102
RTVSPost2010Prop38
140
0.0
102
RTVSPost2010PropOp38
 70
     1
102
RTVSPost2010Prop39
140
1.0
102
RTVSPost2010PropOp39
 70
     1
102
RTVSPost2010Prop40
 90
        0
102
RTVSPost2010PropOp40
 70
     1
102
RTVSPost2010Prop41ColorIndex
 90
       18
102
RTVSPost2010Prop41ColorRGB
 90
        0
102
RTVSPost2010PropOp41
 70
     1
102
RTVSPost2010Prop42
 90
       50
102
RTVSPost2010PropOp42
 70
     1
102
RTVSPost2010Prop43
 90
        3
102
RTVSPost2010PropOp43
 70
     1
102
RTVSPost2010Prop44ColorIndex
 90
        5
102
RTVSPost2010Prop44ColorRGB
 90
      255
102
RTVSPost2010PropOp44
 70
     1
102
RTVSPost2010Prop45
280
     0
102
RTVSPost2010PropOp45
 70
     1
102
RTVSPost2010Prop46
 90
       50
102
RTVSPost2010PropOp46
 70
     1
102
RTVSPost2010Prop47
 90
       50
102
RTVSPost2010PropOp47
 70
     1
102
RTVSPost2010Prop48
 90
       50
102
RTVSPost2010PropOp48
 70
     1
102
RTVSPost2010Prop49
280
     0
102
RTVSPost2010PropOp49
 70
     1
102
RTVSPost2010Prop50
 90
       50
102
RTVSPost2010PropOp50
 70
     1
102
RTVSPost2010Prop51ColorIndex
 90
      256
102
RTVSPost2010Prop51ColorRGB
 90
-16777216
102
RTVSPost2010PropOp51
 70
     0
102
RTVSPost2010Prop52
140
1.0
102
RTVSPost2010PropOp52
 70
     0
102
RTVSPost2010Prop53
 90
        2
102
RTVSPost2010PropOp53
 70
     1
102
RTVSPost2010Prop54
  1
strokes_ogs.tif
102
RTVSPost2010PropOp54
 70
     1
102
RTVSPost2010Prop55
280
     0
102
RTVSPost2010PropOp55
 70
     1
102
RTVSPost2010Prop56
140
1.0
102
RTVSPost2010PropOp56
 70
     1
102
RTVSPost2010Prop57
140
1.0
102
RTVSPost2010PropOp57
 70
     1
102
RTVSPropertyOp0
 70
     1
102
RTVSPropertyOp1
 70
     1
102
RTVSPropertyOp2
 70
     1
102
RTVSPropertyOp3
 70
     1
102
RTVSPropertyOp4
 70
     1
102
RTVSPropertyOp5
 70
     1
102
RTVSPropertyOp6
 70
     1
102
RTVSPropertyOp7
 70
     1
102
RTVSPropertyOp8
 70
     1
102
RTVSPropertyOp9
 70
     1
102
RTVSPropertyOp10
 70
     1
102
RTVSPropertyOp11
 70
     1
102
RTVSPropertyOp12
 70
     1
102
RTVSPropertyOp13
 70
     1
102
RTVSPropertyOp14
 70
     1
102
RTVSPropertyOp15
 70
     1
102
RTVSPropertyOp16
 70
     1
102
RTVSPropertyOp17
 70
     1
102
RTVSPropertyOp18
 70
     1
102
RTVSPropertyOp19
 70
     1
102
RTVSPropertyOp20
 70
     1
102
RTVSPropertyOp21
 70
     1
102
RTVSPropertyOp22
 70
     1
102
RTVSPropertyOp23
 70
     1
102
RTVSPropertyOp24
 70
     1
102
RTVSPropertyOp25
 70
     1
102
RTVSPropertyOp26
 70
     1
102
RTVSPropertyOp27
 70
     1
102
RTVSPropertyOp28
 70
     1
102
RTVSPropertyOp29
 70
     1
102
RTVSPropertyOp30
 70
     1
102
RTVSPropertyOp31
 70
     1
102
RTVSPropertyOp32
 70
     1
102
RTVSPropertyOp33
 70
     1
102
RTVSPropertyOp34
 70
     1
102
RTVSPropertyOp35
 70
     1
102
RTVSPropertyOp36
 70
     1
102
RTVSPropertyOp37
 70
     1
102
RTVSPropertyOp38
 70
     1
102
RTVSPropertyOp39
 70
     1
102
RTVSPropertyOp40
 70
     1
102
RTVSPropertyOp41
 70
     1
102
RTVSPropertyOp42
 70
     1
102
RTVSPropertyOp43
 70
     1
102
RTVSPropertyOp44
 70
     1
102
RTVSPropertyOp45
 70
     1
102
RTVSPropertyOp46
 70
     1
102
RTVSPropertyOp47
 70
     1
102
RTVSPropertyOp48
 70
     1
102
RTVSPropertyOp49
 70
     1
102
RTVSPropertyOp50
 70
     1
102
RTVSPropertyOp51
 70
     0
102
RTVSPropertyOp52
 70
     0
102
RTVSPropertyOp53
 70
     1
102
RTVSPropertyOp54
 70
     1
102
RTVSPropertyOp55
 70
     1
102
RTVSPropertyOp56
 70
     1
102
RTVSPropertyOp57
 70
     1
102
RTVSPropertyOp58
 70
     1
102
RTVSPropertyOp59
 70
     1
102
RTVSPropertyOp60
 70
     1
102
RTVSPropertyOp61
 70
     1
102
RTVSPropertyOp62
 70
     1
  0
XRECORD
  5
2C23
102
{ACAD_REACTORS
330
2C22
102
}
330
2C22
100
AcDbXrecord
280
     1
102
RTVSPost2010Prop28
280
     0
102
RTVSPost2010PropOp28
 70
     1
102
RTVSPost2010Prop29
280
     1
102
RTVSPost2010PropOp29
 70
     1
102
RTVSPost2010Prop30
280
     1
102
RTVSPost2010PropOp30
 70
     1
102
RTVSPost2010Prop31
280
     0
102
RTVSPost2010PropOp31
 70
     1
102
RTVSPost2010Prop32
280
     0
102
RTVSPost2010PropOp32
 70
     1
102
RTVSPost2010Prop33
280
     0
102
RTVSPost2010PropOp33
 70
     1
102
RTVSPost2010Prop34
280
     0
102
RTVSPost2010PropOp34
 70
     1
102
RTVSPost2010Prop35
280
     0
102
RTVSPost2010PropOp35
 70
     1
102
RTVSPost2010Prop36
280
     0
102
RTVSPost2010PropOp36
 70
     1
102
RTVSPost2010Prop37
 90
       50
102
RTVSPost2010PropOp37
 70
     1
102
RTVSPost2010Prop38
140
0.0
102
RTVSPost2010PropOp38
 70
     1
102
RTVSPost2010Prop39
140
1.0
102
RTVSPost2010PropOp39
 70
     1
102
RTVSPost2010Prop40
 90
        0
102
RTVSPost2010PropOp40
 70
     1
102
RTVSPost2010Prop41ColorIndex
 90
       18
102
RTVSPost2010Prop41ColorRGB
 90
        0
102
RTVSPost2010PropOp41
 70
     1
102
RTVSPost2010Prop42
 90
       50
102
RTVSPost2010PropOp42
 70
     1
102
RTVSPost2010Prop43
 90
        3
102
RTVSPost2010PropOp43
 70
     1
102
RTVSPost2010Prop44ColorIndex
 90
        5
102
RTVSPost2010Prop44ColorRGB
 90
      255
102
RTVSPost2010PropOp44
 70
     1
102
RTVSPost2010Prop45
280
     0
102
RTVSPost2010PropOp45
 70
     1
102
RTVSPost2010Prop46
 90
       50
102
RTVSPost2010PropOp46
 70
     1
102
RTVSPost2010Prop47
 90
       50
102
RTVSPost2010PropOp47
 70
     1
102
RTVSPost2010Prop48
 90
       50
102
RTVSPost2010PropOp48
 70
     1
102
RTVSPost2010Prop49
280
     0
102
RTVSPost2010PropOp49
 70
     1
102
RTVSPost2010Prop50
 90
       50
102
RTVSPost2010PropOp50
 70
     1
102
RTVSPost2010Prop51ColorIndex
 90
      256
102
RTVSPost2010Prop51ColorRGB
 90
-16777216
102
RTVSPost2010PropOp51
 70
     0
102
RTVSPost2010Prop52
140
1.0
102
RTVSPost2010PropOp52
 70
     0
102
RTVSPost2010Prop53
 90
        2
102
RTVSPost2010PropOp53
 70
     1
102
RTVSPost2010Prop54
  1
strokes_ogs.tif
102
RTVSPost2010PropOp54
 70
     1
102
RTVSPost2010Prop55
280
     0
102
RTVSPost2010PropOp55
 70
     1
102
RTVSPost2010Prop56
140
1.0
102
RTVSPost2010PropOp56
 70
     1
102
RTVSPost2010Prop57
140
1.0
102
RTVSPost2010PropOp57
 70
     1
102
RTVSPropertyOp0
 70
     1
102
RTVSPropertyOp1
 70
     1
102
RTVSPropertyOp2
 70
     1
102
RTVSPropertyOp3
 70
     1
102
RTVSPropertyOp4
 70
     1
102
RTVSPropertyOp5
 70
     1
102
RTVSPropertyOp6
 70
     1
102
RTVSPropertyOp7
 70
     1
102
RTVSPropertyOp8
 70
     1
102
RTVSPropertyOp9
 70
     1
102
RTVSPropertyOp10
 70
     1
102
RTVSPropertyOp11
 70
     1
102
RTVSPropertyOp12
 70
     1
102
RTVSPropertyOp13
 70
     1
102
RTVSPropertyOp14
 70
     1
102
RTVSPropertyOp15
 70
     1
102
RTVSPropertyOp16
 70
     1
102
RTVSPropertyOp17
 70
     1
102
RTVSPropertyOp18
 70
     1
102
RTVSPropertyOp19
 70
     1
102
RTVSPropertyOp20
 70
     1
102
RTVSPropertyOp21
 70
     1
102
RTVSPropertyOp22
 70
     1
102
RTVSPropertyOp23
 70
     1
102
RTVSPropertyOp24
 70
     1
102
RTVSPropertyOp25
 70
     1
102
RTVSPropertyOp26
 70
     1
102
RTVSPropertyOp27
 70
     1
102
RTVSPropertyOp28
 70
     1
102
RTVSPropertyOp29
 70
     1
102
RTVSPropertyOp30
 70
     1
102
RTVSPropertyOp31
 70
     1
102
RTVSPropertyOp32
 70
     1
102
RTVSPropertyOp33
 70
     1
102
RTVSPropertyOp34
 70
     1
102
RTVSPropertyOp35
 70
     1
102
RTVSPropertyOp36
 70
     1
102
RTVSPropertyOp37
 70
     1
102
RTVSPropertyOp38
 70
     1
102
RTVSPropertyOp39
 70
     1
102
RTVSPropertyOp40
 70
     1
102
RTVSPropertyOp41
 70
     1
102
RTVSPropertyOp42
 70
     1
102
RTVSPropertyOp43
 70
     1
102
RTVSPropertyOp44
 70
     1
102
RTVSPropertyOp45
 70
     1
102
RTVSPropertyOp46
 70
     1
102
RTVSPropertyOp47
 70
     1
102
RTVSPropertyOp48
 70
     1
102
RTVSPropertyOp49
 70
     1
102
RTVSPropertyOp50
 70
     1
102
RTVSPropertyOp51
 70
     0
102
RTVSPropertyOp52
 70
     0
102
RTVSPropertyOp53
 70
     1
102
RTVSPropertyOp54
 70
     1
102
RTVSPropertyOp55
 70
     1
102
RTVSPropertyOp56
 70
     1
102
RTVSPropertyOp57
 70
     1
102
RTVSPropertyOp58
 70
     1
102
RTVSPropertyOp59
 70
     1
102
RTVSPropertyOp60
 70
     1
102
RTVSPropertyOp61
 70
     1
102
RTVSPropertyOp62
 70
     1
  0
XRECORD
  5
2C25
102
{ACAD_REACTORS
330
2C24
102
}
330
2C24
100
AcDbXrecord
280
     1
102
RTVSPost2010Prop28
280
     0
102
RTVSPost2010PropOp28
 70
     1
102
RTVSPost2010Prop29
280
     1
102
RTVSPost2010PropOp29
 70
     1
102
RTVSPost2010Prop30
280
     1
102
RTVSPost2010PropOp30
 70
     1
102
RTVSPost2010Prop31
280
     0
102
RTVSPost2010PropOp31
 70
     1
102
RTVSPost2010Prop32
280
     0
102
RTVSPost2010PropOp32
 70
     1
102
RTVSPost2010Prop33
280
     0
102
RTVSPost2010PropOp33
 70
     1
102
RTVSPost2010Prop34
280
     0
102
RTVSPost2010PropOp34
 70
     1
102
RTVSPost2010Prop35
280
     0
102
RTVSPost2010PropOp35
 70
     1
102
RTVSPost2010Prop36
280
     0
102
RTVSPost2010PropOp36
 70
     1
102
RTVSPost2010Prop37
 90
       50
102
RTVSPost2010PropOp37
 70
     1
102
RTVSPost2010Prop38
140
0.0
102
RTVSPost2010PropOp38
 70
     1
102
RTVSPost2010Prop39
140
1.0
102
RTVSPost2010PropOp39
 70
     1
102
RTVSPost2010Prop40
 90
        0
102
RTVSPost2010PropOp40
 70
     1
102
RTVSPost2010Prop41ColorIndex
 90
       18
102
RTVSPost2010Prop41ColorRGB
 90
        0
102
RTVSPost2010PropOp41
 70
     1
102
RTVSPost2010Prop42
 90
       50
102
RTVSPost2010PropOp42
 70
     1
102
RTVSPost2010Prop43
 90
        3
102
RTVSPost2010PropOp43
 70
     1
102
RTVSPost2010Prop44ColorIndex
 90
        5
102
RTVSPost2010Prop44ColorRGB
 90
      255
102
RTVSPost2010PropOp44
 70
     1
102
RTVSPost2010Prop45
280
     0
102
RTVSPost2010PropOp45
 70
     1
102
RTVSPost2010Prop46
 90
       50
102
RTVSPost2010PropOp46
 70
     1
102
RTVSPost2010Prop47
 90
       50
102
RTVSPost2010PropOp47
 70
     1
102
RTVSPost2010Prop48
 90
       50
102
RTVSPost2010PropOp48
 70
     1
102
RTVSPost2010Prop49
280
     0
102
RTVSPost2010PropOp49
 70
     1
102
RTVSPost2010Prop50
 90
       50
102
RTVSPost2010PropOp50
 70
     1
102
RTVSPost2010Prop51ColorIndex
 90
      256
102
RTVSPost2010Prop51ColorRGB
 90
-16777216
102
RTVSPost2010PropOp51
 70
     0
102
RTVSPost2010Prop52
140
1.0
102
RTVSPost2010PropOp52
 70
     0
102
RTVSPost2010Prop53
 90
        2
102
RTVSPost2010PropOp53
 70
     1
102
RTVSPost2010Prop54
  1
strokes_ogs.tif
102
RTVSPost2010PropOp54
 70
     1
102
RTVSPost2010Prop55
280
     0
102
RTVSPost2010PropOp55
 70
     1
102
RTVSPost2010Prop56
140
1.0
102
RTVSPost2010PropOp56
 70
     1
102
RTVSPost2010Prop57
140
1.0
102
RTVSPost2010PropOp57
 70
     1
102
RTVSPropertyOp0
 70
     1
102
RTVSPropertyOp1
 70
     1
102
RTVSPropertyOp2
 70
     1
102
RTVSPropertyOp3
 70
     1
102
RTVSPropertyOp4
 70
     1
102
RTVSPropertyOp5
 70
     1
102
RTVSPropertyOp6
 70
     1
102
RTVSPropertyOp7
 70
     1
102
RTVSPropertyOp8
 70
     1
102
RTVSPropertyOp9
 70
     1
102
RTVSPropertyOp10
 70
     1
102
RTVSPropertyOp11
 70
     1
102
RTVSPropertyOp12
 70
     1
102
RTVSPropertyOp13
 70
     1
102
RTVSPropertyOp14
 70
     1
102
RTVSPropertyOp15
 70
     1
102
RTVSPropertyOp16
 70
     1
102
RTVSPropertyOp17
 70
     1
102
RTVSPropertyOp18
 70
     1
102
RTVSPropertyOp19
 70
     1
102
RTVSPropertyOp20
 70
     1
102
RTVSPropertyOp21
 70
     1
102
RTVSPropertyOp22
 70
     1
102
RTVSPropertyOp23
 70
     1
102
RTVSPropertyOp24
 70
     1
102
RTVSPropertyOp25
 70
     1
102
RTVSPropertyOp26
 70
     1
102
RTVSPropertyOp27
 70
     1
102
RTVSPropertyOp28
 70
     1
102
RTVSPropertyOp29
 70
     1
102
RTVSPropertyOp30
 70
     1
102
RTVSPropertyOp31
 70
     1
102
RTVSPropertyOp32
 70
     1
102
RTVSPropertyOp33
 70
     1
102
RTVSPropertyOp34
 70
     1
102
RTVSPropertyOp35
 70
     1
102
RTVSPropertyOp36
 70
     1
102
RTVSPropertyOp37
 70
     1
102
RTVSPropertyOp38
 70
     1
102
RTVSPropertyOp39
 70
     1
102
RTVSPropertyOp40
 70
     1
102
RTVSPropertyOp41
 70
     1
102
RTVSPropertyOp42
 70
     1
102
RTVSPropertyOp43
 70
     1
102
RTVSPropertyOp44
 70
     1
102
RTVSPropertyOp45
 70
     1
102
RTVSPropertyOp46
 70
     1
102
RTVSPropertyOp47
 70
     1
102
RTVSPropertyOp48
 70
     1
102
RTVSPropertyOp49
 70
     1
102
RTVSPropertyOp50
 70
     1
102
RTVSPropertyOp51
 70
     0
102
RTVSPropertyOp52
 70
     0
102
RTVSPropertyOp53
 70
     1
102
RTVSPropertyOp54
 70
     1
102
RTVSPropertyOp55
 70
     1
102
RTVSPropertyOp56
 70
     1
102
RTVSPropertyOp57
 70
     1
102
RTVSPropertyOp58
 70
     1
102
RTVSPropertyOp59
 70
     1
102
RTVSPropertyOp60
 70
     1
102
RTVSPropertyOp61
 70
     1
102
RTVSPropertyOp62
 70
     1
  0
XRECORD
  5
2C2D
102
{ACAD_REACTORS
330
2C2C
102
}
330
2C2C
100
AcDbXrecord
280
     1
102
RTVSPost2010Prop28
280
     0
102
RTVSPost2010PropOp28
 70
     1
102
RTVSPost2010Prop29
280
     1
102
RTVSPost2010PropOp29
 70
     1
102
RTVSPost2010Prop30
280
     1
102
RTVSPost2010PropOp30
 70
     1
102
RTVSPost2010Prop31
280
     0
102
RTVSPost2010PropOp31
 70
     1
102
RTVSPost2010Prop32
280
     0
102
RTVSPost2010PropOp32
 70
     1
102
RTVSPost2010Prop33
280
     0
102
RTVSPost2010PropOp33
 70
     1
102
RTVSPost2010Prop34
280
     0
102
RTVSPost2010PropOp34
 70
     1
102
RTVSPost2010Prop35
280
     0
102
RTVSPost2010PropOp35
 70
     1
102
RTVSPost2010Prop36
280
     0
102
RTVSPost2010PropOp36
 70
     1
102
RTVSPost2010Prop37
 90
       50
102
RTVSPost2010PropOp37
 70
     1
102
RTVSPost2010Prop38
140
0.0
102
RTVSPost2010PropOp38
 70
     1
102
RTVSPost2010Prop39
140
1.0
102
RTVSPost2010PropOp39
 70
     1
102
RTVSPost2010Prop40
 90
        0
102
RTVSPost2010PropOp40
 70
     1
102
RTVSPost2010Prop41ColorIndex
 90
       18
102
RTVSPost2010Prop41ColorRGB
 90
        0
102
RTVSPost2010PropOp41
 70
     1
102
RTVSPost2010Prop42
 90
       50
102
RTVSPost2010PropOp42
 70
     1
102
RTVSPost2010Prop43
 90
        3
102
RTVSPost2010PropOp43
 70
     1
102
RTVSPost2010Prop44ColorIndex
 90
        5
102
RTVSPost2010Prop44ColorRGB
 90
      255
102
RTVSPost2010PropOp44
 70
     1
102
RTVSPost2010Prop45
280
     0
102
RTVSPost2010PropOp45
 70
     1
102
RTVSPost2010Prop46
 90
       50
102
RTVSPost2010PropOp46
 70
     1
102
RTVSPost2010Prop47
 90
       50
102
RTVSPost2010PropOp47
 70
     1
102
RTVSPost2010Prop48
 90
       50
102
RTVSPost2010PropOp48
 70
     1
102
RTVSPost2010Prop49
280
     0
102
RTVSPost2010PropOp49
 70
     1
102
RTVSPost2010Prop50
 90
       50
102
RTVSPost2010PropOp50
 70
     1
102
RTVSPost2010Prop51ColorIndex
 90
      256
102
RTVSPost2010Prop51ColorRGB
 90
-16777216
102
RTVSPost2010PropOp51
 70
     0
102
RTVSPost2010Prop52
140
1.0
102
RTVSPost2010PropOp52
 70
     0
102
RTVSPost2010Prop53
 90
        2
102
RTVSPost2010PropOp53
 70
     1
102
RTVSPost2010Prop54
  1
strokes_ogs.tif
102
RTVSPost2010PropOp54
 70
     1
102
RTVSPost2010Prop55
280
     0
102
RTVSPost2010PropOp55
 70
     1
102
RTVSPost2010Prop56
140
1.0
102
RTVSPost2010PropOp56
 70
     1
102
RTVSPost2010Prop57
140
1.0
102
RTVSPost2010PropOp57
 70
     1
102
RTVSPropertyOp0
 70
     1
102
RTVSPropertyOp1
 70
     1
102
RTVSPropertyOp2
 70
     1
102
RTVSPropertyOp3
 70
     1
102
RTVSPropertyOp4
 70
     1
102
RTVSPropertyOp5
 70
     1
102
RTVSPropertyOp6
 70
     1
102
RTVSPropertyOp7
 70
     1
102
RTVSPropertyOp8
 70
     1
102
RTVSPropertyOp9
 70
     1
102
RTVSPropertyOp10
 70
     1
102
RTVSPropertyOp11
 70
     1
102
RTVSPropertyOp12
 70
     1
102
RTVSPropertyOp13
 70
     1
102
RTVSPropertyOp14
 70
     1
102
RTVSPropertyOp15
 70
     1
102
RTVSPropertyOp16
 70
     1
102
RTVSPropertyOp17
 70
     1
102
RTVSPropertyOp18
 70
     1
102
RTVSPropertyOp19
 70
     1
102
RTVSPropertyOp20
 70
     1
102
RTVSPropertyOp21
 70
     1
102
RTVSPropertyOp22
 70
     1
102
RTVSPropertyOp23
 70
     1
102
RTVSPropertyOp24
 70
     1
102
RTVSPropertyOp25
 70
     1
102
RTVSPropertyOp26
 70
     1
102
RTVSPropertyOp27
 70
     1
102
RTVSPropertyOp28
 70
     1
102
RTVSPropertyOp29
 70
     1
102
RTVSPropertyOp30
 70
     1
102
RTVSPropertyOp31
 70
     1
102
RTVSPropertyOp32
 70
     1
102
RTVSPropertyOp33
 70
     1
102
RTVSPropertyOp34
 70
     1
102
RTVSPropertyOp35
 70
     1
102
RTVSPropertyOp36
 70
     1
102
RTVSPropertyOp37
 70
     1
102
RTVSPropertyOp38
 70
     1
102
RTVSPropertyOp39
 70
     1
102
RTVSPropertyOp40
 70
     1
102
RTVSPropertyOp41
 70
     1
102
RTVSPropertyOp42
 70
     1
102
RTVSPropertyOp43
 70
     1
102
RTVSPropertyOp44
 70
     1
102
RTVSPropertyOp45
 70
     1
102
RTVSPropertyOp46
 70
     1
102
RTVSPropertyOp47
 70
     1
102
RTVSPropertyOp48
 70
     1
102
RTVSPropertyOp49
 70
     1
102
RTVSPropertyOp50
 70
     1
102
RTVSPropertyOp51
 70
     0
102
RTVSPropertyOp52
 70
     0
102
RTVSPropertyOp53
 70
     1
102
RTVSPropertyOp54
 70
     1
102
RTVSPropertyOp55
 70
     1
102
RTVSPropertyOp56
 70
     1
102
RTVSPropertyOp57
 70
     1
102
RTVSPropertyOp58
 70
     1
102
RTVSPropertyOp59
 70
     1
102
RTVSPropertyOp60
 70
     1
102
RTVSPropertyOp61
 70
     1
102
RTVSPropertyOp62
 70
     1
  0
XRECORD
  5
2C49
102
{ACAD_REACTORS
330
2C48
102
}
330
2C48
100
AcDbXrecord
280
     1
102
RTVSPost2010Prop28
280
     0
102
RTVSPost2010PropOp28
 70
     1
102
RTVSPost2010Prop29
280
     1
102
RTVSPost2010PropOp29
 70
     1
102
RTVSPost2010Prop30
280
     1
102
RTVSPost2010PropOp30
 70
     1
102
RTVSPost2010Prop31
280
     0
102
RTVSPost2010PropOp31
 70
     1
102
RTVSPost2010Prop32
280
     0
102
RTVSPost2010PropOp32
 70
     1
102
RTVSPost2010Prop33
280
     0
102
RTVSPost2010PropOp33
 70
     1
102
RTVSPost2010Prop34
280
     0
102
RTVSPost2010PropOp34
 70
     1
102
RTVSPost2010Prop35
280
     0
102
RTVSPost2010PropOp35
 70
     1
102
RTVSPost2010Prop36
280
     0
102
RTVSPost2010PropOp36
 70
     1
102
RTVSPost2010Prop37
 90
       50
102
RTVSPost2010PropOp37
 70
     0
102
RTVSPost2010Prop38
140
0.0
102
RTVSPost2010PropOp38
 70
     0
102
RTVSPost2010Prop39
140
1.0
102
RTVSPost2010PropOp39
 70
     0
102
RTVSPost2010Prop40
 90
        0
102
RTVSPost2010PropOp40
 70
     0
102
RTVSPost2010Prop41ColorIndex
 90
       18
102
RTVSPost2010Prop41ColorRGB
 90
        0
102
RTVSPost2010PropOp41
 70
     0
102
RTVSPost2010Prop42
 90
       50
102
RTVSPost2010PropOp42
 70
     0
102
RTVSPost2010Prop43
 90
        3
102
RTVSPost2010PropOp43
 70
     0
102
RTVSPost2010Prop44ColorIndex
 90
        5
102
RTVSPost2010Prop44ColorRGB
 90
      255
102
RTVSPost2010PropOp44
 70
     0
102
RTVSPost2010Prop45
280
     0
102
RTVSPost2010PropOp45
 70
     1
102
RTVSPost2010Prop46
 90
       50
102
RTVSPost2010PropOp46
 70
     0
102
RTVSPost2010Prop47
 90
       50
102
RTVSPost2010PropOp47
 70
     0
102
RTVSPost2010Prop48
 90
       50
102
RTVSPost2010PropOp48
 70
     0
102
RTVSPost2010Prop49
280
     0
102
RTVSPost2010PropOp49
 70
     1
102
RTVSPost2010Prop50
 90
       50
102
RTVSPost2010PropOp50
 70
     0
102
RTVSPost2010Prop51ColorIndex
 90
      256
102
RTVSPost2010Prop51ColorRGB
 90
-16777216
102
RTVSPost2010PropOp51
 70
     0
102
RTVSPost2010Prop52
140
1.0
102
RTVSPost2010PropOp52
 70
     0
102
RTVSPost2010Prop53
 90
        2
102
RTVSPost2010PropOp53
 70
     0
102
RTVSPost2010Prop54
  1
strokes_ogs.tif
102
RTVSPost2010PropOp54
 70
     0
102
RTVSPost2010Prop55
280
     0
102
RTVSPost2010PropOp55
 70
     1
102
RTVSPost2010Prop56
140
1.0
102
RTVSPost2010PropOp56
 70
     0
102
RTVSPost2010Prop57
140
1.0
102
RTVSPost2010PropOp57
 70
     0
102
RTVSPropertyOp0
 70
     0
102
RTVSPropertyOp1
 70
     0
102
RTVSPropertyOp2
 70
     0
102
RTVSPropertyOp3
 70
     0
102
RTVSPropertyOp4
 70
     0
102
RTVSPropertyOp5
 70
     0
102
RTVSPropertyOp6
 70
     0
102
RTVSPropertyOp7
 70
     0
102
RTVSPropertyOp8
 70
     0
102
RTVSPropertyOp9
 70
     0
102
RTVSPropertyOp10
 70
     0
102
RTVSPropertyOp11
 70
     0
102
RTVSPropertyOp12
 70
     0
102
RTVSPropertyOp13
 70
     0
102
RTVSPropertyOp14
 70
     2
102
RTVSPropertyOp15
 70
     0
102
RTVSPropertyOp16
 70
     0
102
RTVSPropertyOp17
 70
     0
102
RTVSPropertyOp18
 70
     0
102
RTVSPropertyOp19
 70
     0
102
RTVSPropertyOp20
 70
     0
102
RTVSPropertyOp21
 70
     0
102
RTVSPropertyOp22
 70
     0
102
RTVSPropertyOp23
 70
     0
102
RTVSPropertyOp24
 70
     0
102
RTVSPropertyOp25
 70
     0
102
RTVSPropertyOp26
 70
     0
102
RTVSPropertyOp27
 70
     0
102
RTVSPropertyOp28
 70
     1
102
RTVSPropertyOp29
 70
     1
102
RTVSPropertyOp30
 70
     1
102
RTVSPropertyOp31
 70
     1
102
RTVSPropertyOp32
 70
     1
102
RTVSPropertyOp33
 70
     1
102
RTVSPropertyOp34
 70
     1
102
RTVSPropertyOp35
 70
     1
102
RTVSPropertyOp36
 70
     1
102
RTVSPropertyOp37
 70
     0
102
RTVSPropertyOp38
 70
     0
102
RTVSPropertyOp39
 70
     0
102
RTVSPropertyOp40
 70
     0
102
RTVSPropertyOp41
 70
     0
102
RTVSPropertyOp42
 70
     0
102
RTVSPropertyOp43
 70
     0
102
RTVSPropertyOp44
 70
     0
102
RTVSPropertyOp45
 70
     1
102
RTVSPropertyOp46
 70
     0
102
RTVSPropertyOp47
 70
     0
102
RTVSPropertyOp48
 70
     0
102
RTVSPropertyOp49
 70
     1
102
RTVSPropertyOp50
 70
     0
102
RTVSPropertyOp51
 70
     0
102
RTVSPropertyOp52
 70
     0
102
RTVSPropertyOp53
 70
     0
102
RTVSPropertyOp54
 70
     0
102
RTVSPropertyOp55
 70
     1
102
RTVSPropertyOp56
 70
     0
102
RTVSPropertyOp57
 70
     0
102
RTVSPropertyOp58
 70
     0
102
RTVSPropertyOp59
 70
     0
102
RTVSPropertyOp60
 70
     0
102
RTVSPropertyOp61
 70
     0
102
RTVSPropertyOp62
 70
     0
  0
XRECORD
  5
2C39
102
{ACAD_REACTORS
330
2C38
102
}
330
2C38
100
AcDbXrecord
280
     1
102
RTVSPost2010Prop28
280
     0
102
RTVSPost2010PropOp28
 70
     1
102
RTVSPost2010Prop29
280
     1
102
RTVSPost2010PropOp29
 70
     1
102
RTVSPost2010Prop30
280
     1
102
RTVSPost2010PropOp30
 70
     1
102
RTVSPost2010Prop31
280
     0
102
RTVSPost2010PropOp31
 70
     1
102
RTVSPost2010Prop32
280
     0
102
RTVSPost2010PropOp32
 70
     1
102
RTVSPost2010Prop33
280
     0
102
RTVSPost2010PropOp33
 70
     1
102
RTVSPost2010Prop34
280
     0
102
RTVSPost2010PropOp34
 70
     1
102
RTVSPost2010Prop35
280
     0
102
RTVSPost2010PropOp35
 70
     1
102
RTVSPost2010Prop36
280
     0
102
RTVSPost2010PropOp36
 70
     1
102
RTVSPost2010Prop37
 90
       50
102
RTVSPost2010PropOp37
 70
     1
102
RTVSPost2010Prop38
140
0.0
102
RTVSPost2010PropOp38
 70
     1
102
RTVSPost2010Prop39
140
1.0
102
RTVSPost2010PropOp39
 70
     1
102
RTVSPost2010Prop40
 90
        0
102
RTVSPost2010PropOp40
 70
     1
102
RTVSPost2010Prop41ColorIndex
 90
       18
102
RTVSPost2010Prop41ColorRGB
 90
        0
102
RTVSPost2010PropOp41
 70
     1
102
RTVSPost2010Prop42
 90
       50
102
RTVSPost2010PropOp42
 70
     1
102
RTVSPost2010Prop43
 90
        3
102
RTVSPost2010PropOp43
 70
     1
102
RTVSPost2010Prop44ColorIndex
 90
        5
102
RTVSPost2010Prop44ColorRGB
 90
      255
102
RTVSPost2010PropOp44
 70
     1
102
RTVSPost2010Prop45
280
     0
102
RTVSPost2010PropOp45
 70
     1
102
RTVSPost2010Prop46
 90
       50
102
RTVSPost2010PropOp46
 70
     1
102
RTVSPost2010Prop47
 90
       50
102
RTVSPost2010PropOp47
 70
     1
102
RTVSPost2010Prop48
 90
       50
102
RTVSPost2010PropOp48
 70
     1
102
RTVSPost2010Prop49
280
     0
102
RTVSPost2010PropOp49
 70
     1
102
RTVSPost2010Prop50
 90
       50
102
RTVSPost2010PropOp50
 70
     1
102
RTVSPost2010Prop51ColorIndex
 90
      256
102
RTVSPost2010Prop51ColorRGB
 90
-16777216
102
RTVSPost2010PropOp51
 70
     0
102
RTVSPost2010Prop52
140
1.0
102
RTVSPost2010PropOp52
 70
     0
102
RTVSPost2010Prop53
 90
        2
102
RTVSPost2010PropOp53
 70
     1
102
RTVSPost2010Prop54
  1
strokes_ogs.tif
102
RTVSPost2010PropOp54
 70
     1
102
RTVSPost2010Prop55
280
     0
102
RTVSPost2010PropOp55
 70
     1
102
RTVSPost2010Prop56
140
1.0
102
RTVSPost2010PropOp56
 70
     1
102
RTVSPost2010Prop57
140
1.0
102
RTVSPost2010PropOp57
 70
     1
102
RTVSPropertyOp0
 70
     1
102
RTVSPropertyOp1
 70
     1
102
RTVSPropertyOp2
 70
     1
102
RTVSPropertyOp3
 70
     1
102
RTVSPropertyOp4
 70
     1
102
RTVSPropertyOp5
 70
     1
102
RTVSPropertyOp6
 70
     1
102
RTVSPropertyOp7
 70
     1
102
RTVSPropertyOp8
 70
     1
102
RTVSPropertyOp9
 70
     1
102
RTVSPropertyOp10
 70
     1
102
RTVSPropertyOp11
 70
     1
102
RTVSPropertyOp12
 70
     1
102
RTVSPropertyOp13
 70
     1
102
RTVSPropertyOp14
 70
     1
102
RTVSPropertyOp15
 70
     1
102
RTVSPropertyOp16
 70
     1
102
RTVSPropertyOp17
 70
     1
102
RTVSPropertyOp18
 70
     1
102
RTVSPropertyOp19
 70
     1
102
RTVSPropertyOp20
 70
     1
102
RTVSPropertyOp21
 70
     1
102
RTVSPropertyOp22
 70
     1
102
RTVSPropertyOp23
 70
     1
102
RTVSPropertyOp24
 70
     1
102
RTVSPropertyOp25
 70
     1
102
RTVSPropertyOp26
 70
     1
102
RTVSPropertyOp27
 70
     1
102
RTVSPropertyOp28
 70
     1
102
RTVSPropertyOp29
 70
     1
102
RTVSPropertyOp30
 70
     1
102
RTVSPropertyOp31
 70
     1
102
RTVSPropertyOp32
 70
     1
102
RTVSPropertyOp33
 70
     1
102
RTVSPropertyOp34
 70
     1
102
RTVSPropertyOp35
 70
     1
102
RTVSPropertyOp36
 70
     1
102
RTVSPropertyOp37
 70
     1
102
RTVSPropertyOp38
 70
     1
102
RTVSPropertyOp39
 70
     1
102
RTVSPropertyOp40
 70
     1
102
RTVSPropertyOp41
 70
     1
102
RTVSPropertyOp42
 70
     1
102
RTVSPropertyOp43
 70
     1
102
RTVSPropertyOp44
 70
     1
102
RTVSPropertyOp45
 70
     1
102
RTVSPropertyOp46
 70
     1
102
RTVSPropertyOp47
 70
     1
102
RTVSPropertyOp48
 70
     1
102
RTVSPropertyOp49
 70
     1
102
RTVSPropertyOp50
 70
     1
102
RTVSPropertyOp51
 70
     0
102
RTVSPropertyOp52
 70
     0
102
RTVSPropertyOp53
 70
     1
102
RTVSPropertyOp54
 70
     1
102
RTVSPropertyOp55
 70
     1
102
RTVSPropertyOp56
 70
     1
102
RTVSPropertyOp57
 70
     1
102
RTVSPropertyOp58
 70
     1
102
RTVSPropertyOp59
 70
     1
102
RTVSPropertyOp60
 70
     1
102
RTVSPropertyOp61
 70
     1
102
RTVSPropertyOp62
 70
     1
  0
XRECORD
  5
2C4B
102
{ACAD_REACTORS
330
2C4A
102
}
330
2C4A
100
AcDbXrecord
280
     1
102
RTVSPost2010Prop28
280
     0
102
RTVSPost2010PropOp28
 70
     1
102
RTVSPost2010Prop29
280
     1
102
RTVSPost2010PropOp29
 70
     1
102
RTVSPost2010Prop30
280
     1
102
RTVSPost2010PropOp30
 70
     1
102
RTVSPost2010Prop31
280
     0
102
RTVSPost2010PropOp31
 70
     1
102
RTVSPost2010Prop32
280
     0
102
RTVSPost2010PropOp32
 70
     1
102
RTVSPost2010Prop33
280
     0
102
RTVSPost2010PropOp33
 70
     1
102
RTVSPost2010Prop34
280
     0
102
RTVSPost2010PropOp34
 70
     1
102
RTVSPost2010Prop35
280
     0
102
RTVSPost2010PropOp35
 70
     1
102
RTVSPost2010Prop36
280
     0
102
RTVSPost2010PropOp36
 70
     1
102
RTVSPost2010Prop37
 90
       50
102
RTVSPost2010PropOp37
 70
     0
102
RTVSPost2010Prop38
140
0.0
102
RTVSPost2010PropOp38
 70
     0
102
RTVSPost2010Prop39
140
1.0
102
RTVSPost2010PropOp39
 70
     0
102
RTVSPost2010Prop40
 90
        0
102
RTVSPost2010PropOp40
 70
     0
102
RTVSPost2010Prop41ColorIndex
 90
       18
102
RTVSPost2010Prop41ColorRGB
 90
        0
102
RTVSPost2010PropOp41
 70
     0
102
RTVSPost2010Prop42
 90
       50
102
RTVSPost2010PropOp42
 70
     0
102
RTVSPost2010Prop43
 90
        3
102
RTVSPost2010PropOp43
 70
     0
102
RTVSPost2010Prop44ColorIndex
 90
        5
102
RTVSPost2010Prop44ColorRGB
 90
      255
102
RTVSPost2010PropOp44
 70
     0
102
RTVSPost2010Prop45
280
     0
102
RTVSPost2010PropOp45
 70
     1
102
RTVSPost2010Prop46
 90
       50
102
RTVSPost2010PropOp46
 70
     0
102
RTVSPost2010Prop47
 90
       50
102
RTVSPost2010PropOp47
 70
     0
102
RTVSPost2010Prop48
 90
       50
102
RTVSPost2010PropOp48
 70
     0
102
RTVSPost2010Prop49
280
     0
102
RTVSPost2010PropOp49
 70
     1
102
RTVSPost2010Prop50
 90
       50
102
RTVSPost2010PropOp50
 70
     0
102
RTVSPost2010Prop51ColorIndex
 90
      256
102
RTVSPost2010Prop51ColorRGB
 90
-16777216
102
RTVSPost2010PropOp51
 70
     0
102
RTVSPost2010Prop52
140
1.0
102
RTVSPost2010PropOp52
 70
     0
102
RTVSPost2010Prop53
 90
        2
102
RTVSPost2010PropOp53
 70
     0
102
RTVSPost2010Prop54
  1
strokes_ogs.tif
102
RTVSPost2010PropOp54
 70
     0
102
RTVSPost2010Prop55
280
     0
102
RTVSPost2010PropOp55
 70
     1
102
RTVSPost2010Prop56
140
1.0
102
RTVSPost2010PropOp56
 70
     0
102
RTVSPost2010Prop57
140
1.0
102
RTVSPost2010PropOp57
 70
     0
102
RTVSPropertyOp0
 70
     0
102
RTVSPropertyOp1
 70
     0
102
RTVSPropertyOp2
 70
     0
102
RTVSPropertyOp3
 70
     0
102
RTVSPropertyOp4
 70
     0
102
RTVSPropertyOp5
 70
     0
102
RTVSPropertyOp6
 70
     0
102
RTVSPropertyOp7
 70
     0
102
RTVSPropertyOp8
 70
     0
102
RTVSPropertyOp9
 70
     0
102
RTVSPropertyOp10
 70
     0
102
RTVSPropertyOp11
 70
     0
102
RTVSPropertyOp12
 70
     0
102
RTVSPropertyOp13
 70
     0
102
RTVSPropertyOp14
 70
     2
102
RTVSPropertyOp15
 70
     0
102
RTVSPropertyOp16
 70
     0
102
RTVSPropertyOp17
 70
     0
102
RTVSPropertyOp18
 70
     0
102
RTVSPropertyOp19
 70
     0
102
RTVSPropertyOp20
 70
     0
102
RTVSPropertyOp21
 70
     0
102
RTVSPropertyOp22
 70
     0
102
RTVSPropertyOp23
 70
     0
102
RTVSPropertyOp24
 70
     0
102
RTVSPropertyOp25
 70
     0
102
RTVSPropertyOp26
 70
     0
102
RTVSPropertyOp27
 70
     0
102
RTVSPropertyOp28
 70
     1
102
RTVSPropertyOp29
 70
     1
102
RTVSPropertyOp30
 70
     1
102
RTVSPropertyOp31
 70
     1
102
RTVSPropertyOp32
 70
     1
102
RTVSPropertyOp33
 70
     1
102
RTVSPropertyOp34
 70
     1
102
RTVSPropertyOp35
 70
     1
102
RTVSPropertyOp36
 70
     1
102
RTVSPropertyOp37
 70
     0
102
RTVSPropertyOp38
 70
     0
102
RTVSPropertyOp39
 70
     0
102
RTVSPropertyOp40
 70
     0
102
RTVSPropertyOp41
 70
     0
102
RTVSPropertyOp42
 70
     0
102
RTVSPropertyOp43
 70
     0
102
RTVSPropertyOp44
 70
     0
102
RTVSPropertyOp45
 70
     1
102
RTVSPropertyOp46
 70
     0
102
RTVSPropertyOp47
 70
     0
102
RTVSPropertyOp48
 70
     0
102
RTVSPropertyOp49
 70
     1
102
RTVSPropertyOp50
 70
     0
102
RTVSPropertyOp51
 70
     0
102
RTVSPropertyOp52
 70
     0
102
RTVSPropertyOp53
 70
     0
102
RTVSPropertyOp54
 70
     0
102
RTVSPropertyOp55
 70
     1
102
RTVSPropertyOp56
 70
     0
102
RTVSPropertyOp57
 70
     0
102
RTVSPropertyOp58
 70
     0
102
RTVSPropertyOp59
 70
     0
102
RTVSPropertyOp60
 70
     0
102
RTVSPropertyOp61
 70
     0
102
RTVSPropertyOp62
 70
     0
  0
XRECORD
  5
2C31
102
{ACAD_REACTORS
330
2C30
102
}
330
2C30
100
AcDbXrecord
280
     1
102
RTVSPost2010Prop28
280
     0
102
RTVSPost2010PropOp28
 70
     1
102
RTVSPost2010Prop29
280
     1
102
RTVSPost2010PropOp29
 70
     1
102
RTVSPost2010Prop30
280
     1
102
RTVSPost2010PropOp30
 70
     1
102
RTVSPost2010Prop31
280
     0
102
RTVSPost2010PropOp31
 70
     1
102
RTVSPost2010Prop32
280
     0
102
RTVSPost2010PropOp32
 70
     1
102
RTVSPost2010Prop33
280
     0
102
RTVSPost2010PropOp33
 70
     1
102
RTVSPost2010Prop34
280
     0
102
RTVSPost2010PropOp34
 70
     1
102
RTVSPost2010Prop35
280
     0
102
RTVSPost2010PropOp35
 70
     1
102
RTVSPost2010Prop36
280
     0
102
RTVSPost2010PropOp36
 70
     1
102
RTVSPost2010Prop37
 90
       50
102
RTVSPost2010PropOp37
 70
     1
102
RTVSPost2010Prop38
140
0.0
102
RTVSPost2010PropOp38
 70
     1
102
RTVSPost2010Prop39
140
1.0
102
RTVSPost2010PropOp39
 70
     1
102
RTVSPost2010Prop40
 90
        0
102
RTVSPost2010PropOp40
 70
     1
102
RTVSPost2010Prop41ColorIndex
 90
       18
102
RTVSPost2010Prop41ColorRGB
 90
        0
102
RTVSPost2010PropOp41
 70
     1
102
RTVSPost2010Prop42
 90
       50
102
RTVSPost2010PropOp42
 70
     1
102
RTVSPost2010Prop43
 90
        3
102
RTVSPost2010PropOp43
 70
     1
102
RTVSPost2010Prop44ColorIndex
 90
        5
102
RTVSPost2010Prop44ColorRGB
 90
      255
102
RTVSPost2010PropOp44
 70
     1
102
RTVSPost2010Prop45
280
     0
102
RTVSPost2010PropOp45
 70
     1
102
RTVSPost2010Prop46
 90
       50
102
RTVSPost2010PropOp46
 70
     1
102
RTVSPost2010Prop47
 90
       50
102
RTVSPost2010PropOp47
 70
     1
102
RTVSPost2010Prop48
 90
       50
102
RTVSPost2010PropOp48
 70
     1
102
RTVSPost2010Prop49
280
     0
102
RTVSPost2010PropOp49
 70
     1
102
RTVSPost2010Prop50
 90
       50
102
RTVSPost2010PropOp50
 70
     1
102
RTVSPost2010Prop51ColorIndex
 90
      256
102
RTVSPost2010Prop51ColorRGB
 90
-16777216
102
RTVSPost2010PropOp51
 70
     0
102
RTVSPost2010Prop52
140
1.0
102
RTVSPost2010PropOp52
 70
     0
102
RTVSPost2010Prop53
 90
        2
102
RTVSPost2010PropOp53
 70
     1
102
RTVSPost2010Prop54
  1
strokes_ogs.tif
102
RTVSPost2010PropOp54
 70
     1
102
RTVSPost2010Prop55
280
     0
102
RTVSPost2010PropOp55
 70
     1
102
RTVSPost2010Prop56
140
1.0
102
RTVSPost2010PropOp56
 70
     1
102
RTVSPost2010Prop57
140
1.0
102
RTVSPost2010PropOp57
 70
     1
102
RTVSPropertyOp0
 70
     1
102
RTVSPropertyOp1
 70
     1
102
RTVSPropertyOp2
 70
     1
102
RTVSPropertyOp3
 70
     1
102
RTVSPropertyOp4
 70
     1
102
RTVSPropertyOp5
 70
     1
102
RTVSPropertyOp6
 70
     1
102
RTVSPropertyOp7
 70
     1
102
RTVSPropertyOp8
 70
     1
102
RTVSPropertyOp9
 70
     1
102
RTVSPropertyOp10
 70
     1
102
RTVSPropertyOp11
 70
     1
102
RTVSPropertyOp12
 70
     1
102
RTVSPropertyOp13
 70
     1
102
RTVSPropertyOp14
 70
     1
102
RTVSPropertyOp15
 70
     1
102
RTVSPropertyOp16
 70
     1
102
RTVSPropertyOp17
 70
     1
102
RTVSPropertyOp18
 70
     1
102
RTVSPropertyOp19
 70
     1
102
RTVSPropertyOp20
 70
     1
102
RTVSPropertyOp21
 70
     1
102
RTVSPropertyOp22
 70
     1
102
RTVSPropertyOp23
 70
     1
102
RTVSPropertyOp24
 70
     1
102
RTVSPropertyOp25
 70
     1
102
RTVSPropertyOp26
 70
     1
102
RTVSPropertyOp27
 70
     1
102
RTVSPropertyOp28
 70
     1
102
RTVSPropertyOp29
 70
     1
102
RTVSPropertyOp30
 70
     1
102
RTVSPropertyOp31
 70
     1
102
RTVSPropertyOp32
 70
     1
102
RTVSPropertyOp33
 70
     1
102
RTVSPropertyOp34
 70
     1
102
RTVSPropertyOp35
 70
     1
102
RTVSPropertyOp36
 70
     1
102
RTVSPropertyOp37
 70
     1
102
RTVSPropertyOp38
 70
     1
102
RTVSPropertyOp39
 70
     1
102
RTVSPropertyOp40
 70
     1
102
RTVSPropertyOp41
 70
     1
102
RTVSPropertyOp42
 70
     1
102
RTVSPropertyOp43
 70
     1
102
RTVSPropertyOp44
 70
     1
102
RTVSPropertyOp45
 70
     1
102
RTVSPropertyOp46
 70
     1
102
RTVSPropertyOp47
 70
     1
102
RTVSPropertyOp48
 70
     1
102
RTVSPropertyOp49
 70
     1
102
RTVSPropertyOp50
 70
     1
102
RTVSPropertyOp51
 70
     0
102
RTVSPropertyOp52
 70
     0
102
RTVSPropertyOp53
 70
     1
102
RTVSPropertyOp54
 70
     1
102
RTVSPropertyOp55
 70
     1
102
RTVSPropertyOp56
 70
     1
102
RTVSPropertyOp57
 70
     1
102
RTVSPropertyOp58
 70
     1
102
RTVSPropertyOp59
 70
     1
102
RTVSPropertyOp60
 70
     1
102
RTVSPropertyOp61
 70
     1
102
RTVSPropertyOp62
 70
     1
  0
XRECORD
  5
2C47
102
{ACAD_REACTORS
330
2C46
102
}
330
2C46
100
AcDbXrecord
280
     1
102
RTVSPost2010Prop28
280
     0
102
RTVSPost2010PropOp28
 70
     1
102
RTVSPost2010Prop29
280
     1
102
RTVSPost2010PropOp29
 70
     1
102
RTVSPost2010Prop30
280
     1
102
RTVSPost2010PropOp30
 70
     1
102
RTVSPost2010Prop31
280
     0
102
RTVSPost2010PropOp31
 70
     1
102
RTVSPost2010Prop32
280
     0
102
RTVSPost2010PropOp32
 70
     1
102
RTVSPost2010Prop33
280
     0
102
RTVSPost2010PropOp33
 70
     1
102
RTVSPost2010Prop34
280
     0
102
RTVSPost2010PropOp34
 70
     1
102
RTVSPost2010Prop35
280
     0
102
RTVSPost2010PropOp35
 70
     1
102
RTVSPost2010Prop36
280
     0
102
RTVSPost2010PropOp36
 70
     1
102
RTVSPost2010Prop37
 90
       50
102
RTVSPost2010PropOp37
 70
     1
102
RTVSPost2010Prop38
140
0.0
102
RTVSPost2010PropOp38
 70
     1
102
RTVSPost2010Prop39
140
1.0
102
RTVSPost2010PropOp39
 70
     1
102
RTVSPost2010Prop40
 90
        0
102
RTVSPost2010PropOp40
 70
     1
102
RTVSPost2010Prop41ColorIndex
 90
       18
102
RTVSPost2010Prop41ColorRGB
 90
        0
102
RTVSPost2010PropOp41
 70
     1
102
RTVSPost2010Prop42
 90
       50
102
RTVSPost2010PropOp42
 70
     1
102
RTVSPost2010Prop43
 90
        3
102
RTVSPost2010PropOp43
 70
     1
102
RTVSPost2010Prop44ColorIndex
 90
        5
102
RTVSPost2010Prop44ColorRGB
 90
      255
102
RTVSPost2010PropOp44
 70
     1
102
RTVSPost2010Prop45
280
     0
102
RTVSPost2010PropOp45
 70
     1
102
RTVSPost2010Prop46
 90
       50
102
RTVSPost2010PropOp46
 70
     1
102
RTVSPost2010Prop47
 90
       50
102
RTVSPost2010PropOp47
 70
     1
102
RTVSPost2010Prop48
 90
       50
102
RTVSPost2010PropOp48
 70
     1
102
RTVSPost2010Prop49
280
     0
102
RTVSPost2010PropOp49
 70
     1
102
RTVSPost2010Prop50
 90
       50
102
RTVSPost2010PropOp50
 70
     1
102
RTVSPost2010Prop51ColorIndex
 90
      256
102
RTVSPost2010Prop51ColorRGB
 90
-16777216
102
RTVSPost2010PropOp51
 70
     0
102
RTVSPost2010Prop52
140
1.0
102
RTVSPost2010PropOp52
 70
     0
102
RTVSPost2010Prop53
 90
        2
102
RTVSPost2010PropOp53
 70
     1
102
RTVSPost2010Prop54
  1
strokes_ogs.tif
102
RTVSPost2010PropOp54
 70
     1
102
RTVSPost2010Prop55
280
     0
102
RTVSPost2010PropOp55
 70
     1
102
RTVSPost2010Prop56
140
1.0
102
RTVSPost2010PropOp56
 70
     1
102
RTVSPost2010Prop57
140
1.0
102
RTVSPost2010PropOp57
 70
     1
102
RTVSPropertyOp0
 70
     1
102
RTVSPropertyOp1
 70
     1
102
RTVSPropertyOp2
 70
     1
102
RTVSPropertyOp3
 70
     1
102
RTVSPropertyOp4
 70
     1
102
RTVSPropertyOp5
 70
     1
102
RTVSPropertyOp6
 70
     1
102
RTVSPropertyOp7
 70
     1
102
RTVSPropertyOp8
 70
     1
102
RTVSPropertyOp9
 70
     1
102
RTVSPropertyOp10
 70
     1
102
RTVSPropertyOp11
 70
     1
102
RTVSPropertyOp12
 70
     1
102
RTVSPropertyOp13
 70
     1
102
RTVSPropertyOp14
 70
     1
102
RTVSPropertyOp15
 70
     1
102
RTVSPropertyOp16
 70
     1
102
RTVSPropertyOp17
 70
     1
102
RTVSPropertyOp18
 70
     1
102
RTVSPropertyOp19
 70
     1
102
RTVSPropertyOp20
 70
     1
102
RTVSPropertyOp21
 70
     1
102
RTVSPropertyOp22
 70
     1
102
RTVSPropertyOp23
 70
     1
102
RTVSPropertyOp24
 70
     1
102
RTVSPropertyOp25
 70
     1
102
RTVSPropertyOp26
 70
     1
102
RTVSPropertyOp27
 70
     1
102
RTVSPropertyOp28
 70
     1
102
RTVSPropertyOp29
 70
     1
102
RTVSPropertyOp30
 70
     1
102
RTVSPropertyOp31
 70
     1
102
RTVSPropertyOp32
 70
     1
102
RTVSPropertyOp33
 70
     1
102
RTVSPropertyOp34
 70
     1
102
RTVSPropertyOp35
 70
     1
102
RTVSPropertyOp36
 70
     1
102
RTVSPropertyOp37
 70
     1
102
RTVSPropertyOp38
 70
     1
102
RTVSPropertyOp39
 70
     1
102
RTVSPropertyOp40
 70
     1
102
RTVSPropertyOp41
 70
     1
102
RTVSPropertyOp42
 70
     1
102
RTVSPropertyOp43
 70
     1
102
RTVSPropertyOp44
 70
     1
102
RTVSPropertyOp45
 70
     1
102
RTVSPropertyOp46
 70
     1
102
RTVSPropertyOp47
 70
     1
102
RTVSPropertyOp48
 70
     1
102
RTVSPropertyOp49
 70
     1
102
RTVSPropertyOp50
 70
     1
102
RTVSPropertyOp51
 70
     0
102
RTVSPropertyOp52
 70
     0
102
RTVSPropertyOp53
 70
     1
102
RTVSPropertyOp54
 70
     1
102
RTVSPropertyOp55
 70
     1
102
RTVSPropertyOp56
 70
     1
102
RTVSPropertyOp57
 70
     1
102
RTVSPropertyOp58
 70
     1
102
RTVSPropertyOp59
 70
     1
102
RTVSPropertyOp60
 70
     1
102
RTVSPropertyOp61
 70
     1
102
RTVSPropertyOp62
 70
     1
  0
XRECORD
  5
2C45
102
{ACAD_REACTORS
330
2C44
102
}
330
2C44
100
AcDbXrecord
280
     1
102
RTVSPost2010Prop28
280
     0
102
RTVSPost2010PropOp28
 70
     1
102
RTVSPost2010Prop29
280
     1
102
RTVSPost2010PropOp29
 70
     1
102
RTVSPost2010Prop30
280
     1
102
RTVSPost2010PropOp30
 70
     1
102
RTVSPost2010Prop31
280
     0
102
RTVSPost2010PropOp31
 70
     1
102
RTVSPost2010Prop32
280
     0
102
RTVSPost2010PropOp32
 70
     1
102
RTVSPost2010Prop33
280
     0
102
RTVSPost2010PropOp33
 70
     1
102
RTVSPost2010Prop34
280
     0
102
RTVSPost2010PropOp34
 70
     1
102
RTVSPost2010Prop35
280
     0
102
RTVSPost2010PropOp35
 70
     1
102
RTVSPost2010Prop36
280
     0
102
RTVSPost2010PropOp36
 70
     1
102
RTVSPost2010Prop37
 90
       50
102
RTVSPost2010PropOp37
 70
     1
102
RTVSPost2010Prop38
140
0.0
102
RTVSPost2010PropOp38
 70
     1
102
RTVSPost2010Prop39
140
1.0
102
RTVSPost2010PropOp39
 70
     1
102
RTVSPost2010Prop40
 90
        0
102
RTVSPost2010PropOp40
 70
     1
102
RTVSPost2010Prop41ColorIndex
 90
       18
102
RTVSPost2010Prop41ColorRGB
 90
        0
102
RTVSPost2010PropOp41
 70
     1
102
RTVSPost2010Prop42
 90
       50
102
RTVSPost2010PropOp42
 70
     1
102
RTVSPost2010Prop43
 90
        3
102
RTVSPost2010PropOp43
 70
     1
102
RTVSPost2010Prop44ColorIndex
 90
        5
102
RTVSPost2010Prop44ColorRGB
 90
      255
102
RTVSPost2010PropOp44
 70
     1
102
RTVSPost2010Prop45
280
     0
102
RTVSPost2010PropOp45
 70
     1
102
RTVSPost2010Prop46
 90
       50
102
RTVSPost2010PropOp46
 70
     1
102
RTVSPost2010Prop47
 90
       50
102
RTVSPost2010PropOp47
 70
     1
102
RTVSPost2010Prop48
 90
       50
102
RTVSPost2010PropOp48
 70
     1
102
RTVSPost2010Prop49
280
     0
102
RTVSPost2010PropOp49
 70
     1
102
RTVSPost2010Prop50
 90
       50
102
RTVSPost2010PropOp50
 70
     1
102
RTVSPost2010Prop51ColorIndex
 90
      256
102
RTVSPost2010Prop51ColorRGB
 90
-16777216
102
RTVSPost2010PropOp51
 70
     0
102
RTVSPost2010Prop52
140
1.0
102
RTVSPost2010PropOp52
 70
     0
102
RTVSPost2010Prop53
 90
        2
102
RTVSPost2010PropOp53
 70
     1
102
RTVSPost2010Prop54
  1
strokes_ogs.tif
102
RTVSPost2010PropOp54
 70
     1
102
RTVSPost2010Prop55
280
     0
102
RTVSPost2010PropOp55
 70
     1
102
RTVSPost2010Prop56
140
1.0
102
RTVSPost2010PropOp56
 70
     1
102
RTVSPost2010Prop57
140
1.0
102
RTVSPost2010PropOp57
 70
     1
102
RTVSPropertyOp0
 70
     1
102
RTVSPropertyOp1
 70
     1
102
RTVSPropertyOp2
 70
     1
102
RTVSPropertyOp3
 70
     1
102
RTVSPropertyOp4
 70
     1
102
RTVSPropertyOp5
 70
     1
102
RTVSPropertyOp6
 70
     1
102
RTVSPropertyOp7
 70
     1
102
RTVSPropertyOp8
 70
     1
102
RTVSPropertyOp9
 70
     1
102
RTVSPropertyOp10
 70
     1
102
RTVSPropertyOp11
 70
     1
102
RTVSPropertyOp12
 70
     1
102
RTVSPropertyOp13
 70
     1
102
RTVSPropertyOp14
 70
     1
102
RTVSPropertyOp15
 70
     1
102
RTVSPropertyOp16
 70
     1
102
RTVSPropertyOp17
 70
     1
102
RTVSPropertyOp18
 70
     1
102
RTVSPropertyOp19
 70
     1
102
RTVSPropertyOp20
 70
     1
102
RTVSPropertyOp21
 70
     1
102
RTVSPropertyOp22
 70
     1
102
RTVSPropertyOp23
 70
     1
102
RTVSPropertyOp24
 70
     1
102
RTVSPropertyOp25
 70
     1
102
RTVSPropertyOp26
 70
     1
102
RTVSPropertyOp27
 70
     1
102
RTVSPropertyOp28
 70
     1
102
RTVSPropertyOp29
 70
     1
102
RTVSPropertyOp30
 70
     1
102
RTVSPropertyOp31
 70
     1
102
RTVSPropertyOp32
 70
     1
102
RTVSPropertyOp33
 70
     1
102
RTVSPropertyOp34
 70
     1
102
RTVSPropertyOp35
 70
     1
102
RTVSPropertyOp36
 70
     1
102
RTVSPropertyOp37
 70
     1
102
RTVSPropertyOp38
 70
     1
102
RTVSPropertyOp39
 70
     1
102
RTVSPropertyOp40
 70
     1
102
RTVSPropertyOp41
 70
     1
102
RTVSPropertyOp42
 70
     1
102
RTVSPropertyOp43
 70
     1
102
RTVSPropertyOp44
 70
     1
102
RTVSPropertyOp45
 70
     1
102
RTVSPropertyOp46
 70
     1
102
RTVSPropertyOp47
 70
     1
102
RTVSPropertyOp48
 70
     1
102
RTVSPropertyOp49
 70
     1
102
RTVSPropertyOp50
 70
     1
102
RTVSPropertyOp51
 70
     0
102
RTVSPropertyOp52
 70
     0
102
RTVSPropertyOp53
 70
     1
102
RTVSPropertyOp54
 70
     1
102
RTVSPropertyOp55
 70
     1
102
RTVSPropertyOp56
 70
     1
102
RTVSPropertyOp57
 70
     1
102
RTVSPropertyOp58
 70
     1
102
RTVSPropertyOp59
 70
     1
102
RTVSPropertyOp60
 70
     1
102
RTVSPropertyOp61
 70
     1
102
RTVSPropertyOp62
 70
     1
  0
XRECORD
  5
2C3F
102
{ACAD_REACTORS
330
2C3E
102
}
330
2C3E
100
AcDbXrecord
280
     1
102
RTVSPost2010Prop28
280
     0
102
RTVSPost2010PropOp28
 70
     1
102
RTVSPost2010Prop29
280
     1
102
RTVSPost2010PropOp29
 70
     1
102
RTVSPost2010Prop30
280
     1
102
RTVSPost2010PropOp30
 70
     1
102
RTVSPost2010Prop31
280
     0
102
RTVSPost2010PropOp31
 70
     1
102
RTVSPost2010Prop32
280
     0
102
RTVSPost2010PropOp32
 70
     1
102
RTVSPost2010Prop33
280
     0
102
RTVSPost2010PropOp33
 70
     1
102
RTVSPost2010Prop34
280
     0
102
RTVSPost2010PropOp34
 70
     1
102
RTVSPost2010Prop35
280
     0
102
RTVSPost2010PropOp35
 70
     1
102
RTVSPost2010Prop36
280
     0
102
RTVSPost2010PropOp36
 70
     1
102
RTVSPost2010Prop37
 90
       50
102
RTVSPost2010PropOp37
 70
     1
102
RTVSPost2010Prop38
140
0.0
102
RTVSPost2010PropOp38
 70
     1
102
RTVSPost2010Prop39
140
1.0
102
RTVSPost2010PropOp39
 70
     1
102
RTVSPost2010Prop40
 90
        0
102
RTVSPost2010PropOp40
 70
     1
102
RTVSPost2010Prop41ColorIndex
 90
       18
102
RTVSPost2010Prop41ColorRGB
 90
        0
102
RTVSPost2010PropOp41
 70
     1
102
RTVSPost2010Prop42
 90
       50
102
RTVSPost2010PropOp42
 70
     1
102
RTVSPost2010Prop43
 90
        3
102
RTVSPost2010PropOp43
 70
     1
102
RTVSPost2010Prop44ColorIndex
 90
        5
102
RTVSPost2010Prop44ColorRGB
 90
      255
102
RTVSPost2010PropOp44
 70
     1
102
RTVSPost2010Prop45
280
     0
102
RTVSPost2010PropOp45
 70
     1
102
RTVSPost2010Prop46
 90
       50
102
RTVSPost2010PropOp46
 70
     1
102
RTVSPost2010Prop47
 90
       50
102
RTVSPost2010PropOp47
 70
     1
102
RTVSPost2010Prop48
 90
       50
102
RTVSPost2010PropOp48
 70
     1
102
RTVSPost2010Prop49
280
     0
102
RTVSPost2010PropOp49
 70
     1
102
RTVSPost2010Prop50
 90
       50
102
RTVSPost2010PropOp50
 70
     1
102
RTVSPost2010Prop51ColorIndex
 90
      256
102
RTVSPost2010Prop51ColorRGB
 90
-16777216
102
RTVSPost2010PropOp51
 70
     0
102
RTVSPost2010Prop52
140
1.0
102
RTVSPost2010PropOp52
 70
     0
102
RTVSPost2010Prop53
 90
        2
102
RTVSPost2010PropOp53
 70
     1
102
RTVSPost2010Prop54
  1
strokes_ogs.tif
102
RTVSPost2010PropOp54
 70
     1
102
RTVSPost2010Prop55
280
     0
102
RTVSPost2010PropOp55
 70
     1
102
RTVSPost2010Prop56
140
1.0
102
RTVSPost2010PropOp56
 70
     1
102
RTVSPost2010Prop57
140
1.0
102
RTVSPost2010PropOp57
 70
     1
102
RTVSPropertyOp0
 70
     1
102
RTVSPropertyOp1
 70
     1
102
RTVSPropertyOp2
 70
     1
102
RTVSPropertyOp3
 70
     1
102
RTVSPropertyOp4
 70
     1
102
RTVSPropertyOp5
 70
     1
102
RTVSPropertyOp6
 70
     1
102
RTVSPropertyOp7
 70
     1
102
RTVSPropertyOp8
 70
     1
102
RTVSPropertyOp9
 70
     1
102
RTVSPropertyOp10
 70
     1
102
RTVSPropertyOp11
 70
     1
102
RTVSPropertyOp12
 70
     1
102
RTVSPropertyOp13
 70
     1
102
RTVSPropertyOp14
 70
     1
102
RTVSPropertyOp15
 70
     1
102
RTVSPropertyOp16
 70
     1
102
RTVSPropertyOp17
 70
     1
102
RTVSPropertyOp18
 70
     1
102
RTVSPropertyOp19
 70
     1
102
RTVSPropertyOp20
 70
     1
102
RTVSPropertyOp21
 70
     1
102
RTVSPropertyOp22
 70
     1
102
RTVSPropertyOp23
 70
     1
102
RTVSPropertyOp24
 70
     1
102
RTVSPropertyOp25
 70
     1
102
RTVSPropertyOp26
 70
     1
102
RTVSPropertyOp27
 70
     1
102
RTVSPropertyOp28
 70
     1
102
RTVSPropertyOp29
 70
     1
102
RTVSPropertyOp30
 70
     1
102
RTVSPropertyOp31
 70
     1
102
RTVSPropertyOp32
 70
     1
102
RTVSPropertyOp33
 70
     1
102
RTVSPropertyOp34
 70
     1
102
RTVSPropertyOp35
 70
     1
102
RTVSPropertyOp36
 70
     1
102
RTVSPropertyOp37
 70
     1
102
RTVSPropertyOp38
 70
     1
102
RTVSPropertyOp39
 70
     1
102
RTVSPropertyOp40
 70
     1
102
RTVSPropertyOp41
 70
     1
102
RTVSPropertyOp42
 70
     1
102
RTVSPropertyOp43
 70
     1
102
RTVSPropertyOp44
 70
     1
102
RTVSPropertyOp45
 70
     1
102
RTVSPropertyOp46
 70
     1
102
RTVSPropertyOp47
 70
     1
102
RTVSPropertyOp48
 70
     1
102
RTVSPropertyOp49
 70
     1
102
RTVSPropertyOp50
 70
     1
102
RTVSPropertyOp51
 70
     0
102
RTVSPropertyOp52
 70
     0
102
RTVSPropertyOp53
 70
     1
102
RTVSPropertyOp54
 70
     1
102
RTVSPropertyOp55
 70
     1
102
RTVSPropertyOp56
 70
     1
102
RTVSPropertyOp57
 70
     1
102
RTVSPropertyOp58
 70
     1
102
RTVSPropertyOp59
 70
     1
102
RTVSPropertyOp60
 70
     1
102
RTVSPropertyOp61
 70
     1
102
RTVSPropertyOp62
 70
     1
  0
XRECORD
  5
2C41
102
{ACAD_REACTORS
330
2C40
102
}
330
2C40
100
AcDbXrecord
280
     1
102
RTVSPost2010Prop28
280
     0
102
RTVSPost2010PropOp28
 70
     1
102
RTVSPost2010Prop29
280
     1
102
RTVSPost2010PropOp29
 70
     1
102
RTVSPost2010Prop30
280
     1
102
RTVSPost2010PropOp30
 70
     1
102
RTVSPost2010Prop31
280
     0
102
RTVSPost2010PropOp31
 70
     1
102
RTVSPost2010Prop32
280
     0
102
RTVSPost2010PropOp32
 70
     1
102
RTVSPost2010Prop33
280
     0
102
RTVSPost2010PropOp33
 70
     1
102
RTVSPost2010Prop34
280
     0
102
RTVSPost2010PropOp34
 70
     1
102
RTVSPost2010Prop35
280
     0
102
RTVSPost2010PropOp35
 70
     1
102
RTVSPost2010Prop36
280
     0
102
RTVSPost2010PropOp36
 70
     1
102
RTVSPost2010Prop37
 90
       50
102
RTVSPost2010PropOp37
 70
     1
102
RTVSPost2010Prop38
140
0.0
102
RTVSPost2010PropOp38
 70
     1
102
RTVSPost2010Prop39
140
1.0
102
RTVSPost2010PropOp39
 70
     1
102
RTVSPost2010Prop40
 90
        0
102
RTVSPost2010PropOp40
 70
     1
102
RTVSPost2010Prop41ColorIndex
 90
       18
102
RTVSPost2010Prop41ColorRGB
 90
        0
102
RTVSPost2010PropOp41
 70
     1
102
RTVSPost2010Prop42
 90
       50
102
RTVSPost2010PropOp42
 70
     1
102
RTVSPost2010Prop43
 90
        3
102
RTVSPost2010PropOp43
 70
     1
102
RTVSPost2010Prop44ColorIndex
 90
        5
102
RTVSPost2010Prop44ColorRGB
 90
      255
102
RTVSPost2010PropOp44
 70
     1
102
RTVSPost2010Prop45
280
     0
102
RTVSPost2010PropOp45
 70
     1
102
RTVSPost2010Prop46
 90
       50
102
RTVSPost2010PropOp46
 70
     1
102
RTVSPost2010Prop47
 90
       50
102
RTVSPost2010PropOp47
 70
     1
102
RTVSPost2010Prop48
 90
       50
102
RTVSPost2010PropOp48
 70
     1
102
RTVSPost2010Prop49
280
     0
102
RTVSPost2010PropOp49
 70
     1
102
RTVSPost2010Prop50
 90
       50
102
RTVSPost2010PropOp50
 70
     1
102
RTVSPost2010Prop51ColorIndex
 90
      256
102
RTVSPost2010Prop51ColorRGB
 90
-16777216
102
RTVSPost2010PropOp51
 70
     0
102
RTVSPost2010Prop52
140
1.0
102
RTVSPost2010PropOp52
 70
     0
102
RTVSPost2010Prop53
 90
        2
102
RTVSPost2010PropOp53
 70
     1
102
RTVSPost2010Prop54
  1
strokes_ogs.tif
102
RTVSPost2010PropOp54
 70
     1
102
RTVSPost2010Prop55
280
     0
102
RTVSPost2010PropOp55
 70
     1
102
RTVSPost2010Prop56
140
1.0
102
RTVSPost2010PropOp56
 70
     1
102
RTVSPost2010Prop57
140
1.0
102
RTVSPost2010PropOp57
 70
     1
102
RTVSPropertyOp0
 70
     1
102
RTVSPropertyOp1
 70
     1
102
RTVSPropertyOp2
 70
     1
102
RTVSPropertyOp3
 70
     1
102
RTVSPropertyOp4
 70
     1
102
RTVSPropertyOp5
 70
     1
102
RTVSPropertyOp6
 70
     1
102
RTVSPropertyOp7
 70
     1
102
RTVSPropertyOp8
 70
     1
102
RTVSPropertyOp9
 70
     1
102
RTVSPropertyOp10
 70
     1
102
RTVSPropertyOp11
 70
     1
102
RTVSPropertyOp12
 70
     1
102
RTVSPropertyOp13
 70
     1
102
RTVSPropertyOp14
 70
     1
102
RTVSPropertyOp15
 70
     1
102
RTVSPropertyOp16
 70
     1
102
RTVSPropertyOp17
 70
     1
102
RTVSPropertyOp18
 70
     1
102
RTVSPropertyOp19
 70
     1
102
RTVSPropertyOp20
 70
     1
102
RTVSPropertyOp21
 70
     1
102
RTVSPropertyOp22
 70
     1
102
RTVSPropertyOp23
 70
     1
102
RTVSPropertyOp24
 70
     1
102
RTVSPropertyOp25
 70
     1
102
RTVSPropertyOp26
 70
     1
102
RTVSPropertyOp27
 70
     1
102
RTVSPropertyOp28
 70
     1
102
RTVSPropertyOp29
 70
     1
102
RTVSPropertyOp30
 70
     1
102
RTVSPropertyOp31
 70
     1
102
RTVSPropertyOp32
 70
     1
102
RTVSPropertyOp33
 70
     1
102
RTVSPropertyOp34
 70
     1
102
RTVSPropertyOp35
 70
     1
102
RTVSPropertyOp36
 70
     1
102
RTVSPropertyOp37
 70
     1
102
RTVSPropertyOp38
 70
     1
102
RTVSPropertyOp39
 70
     1
102
RTVSPropertyOp40
 70
     1
102
RTVSPropertyOp41
 70
     1
102
RTVSPropertyOp42
 70
     1
102
RTVSPropertyOp43
 70
     1
102
RTVSPropertyOp44
 70
     1
102
RTVSPropertyOp45
 70
     1
102
RTVSPropertyOp46
 70
     1
102
RTVSPropertyOp47
 70
     1
102
RTVSPropertyOp48
 70
     1
102
RTVSPropertyOp49
 70
     1
102
RTVSPropertyOp50
 70
     1
102
RTVSPropertyOp51
 70
     0
102
RTVSPropertyOp52
 70
     0
102
RTVSPropertyOp53
 70
     1
102
RTVSPropertyOp54
 70
     1
102
RTVSPropertyOp55
 70
     1
102
RTVSPropertyOp56
 70
     1
102
RTVSPropertyOp57
 70
     1
102
RTVSPropertyOp58
 70
     1
102
RTVSPropertyOp59
 70
     1
102
RTVSPropertyOp60
 70
     1
102
RTVSPropertyOp61
 70
     1
102
RTVSPropertyOp62
 70
     1
  0
XRECORD
  5
2C37
102
{ACAD_REACTORS
330
2C36
102
}
330
2C36
100
AcDbXrecord
280
     1
102
RTVSPost2010Prop28
280
     0
102
RTVSPost2010PropOp28
 70
     1
102
RTVSPost2010Prop29
280
     1
102
RTVSPost2010PropOp29
 70
     1
102
RTVSPost2010Prop30
280
     1
102
RTVSPost2010PropOp30
 70
     1
102
RTVSPost2010Prop31
280
     0
102
RTVSPost2010PropOp31
 70
     1
102
RTVSPost2010Prop32
280
     0
102
RTVSPost2010PropOp32
 70
     1
102
RTVSPost2010Prop33
280
     0
102
RTVSPost2010PropOp33
 70
     1
102
RTVSPost2010Prop34
280
     0
102
RTVSPost2010PropOp34
 70
     1
102
RTVSPost2010Prop35
280
     0
102
RTVSPost2010PropOp35
 70
     1
102
RTVSPost2010Prop36
280
     0
102
RTVSPost2010PropOp36
 70
     1
102
RTVSPost2010Prop37
 90
       50
102
RTVSPost2010PropOp37
 70
     1
102
RTVSPost2010Prop38
140
0.0
102
RTVSPost2010PropOp38
 70
     1
102
RTVSPost2010Prop39
140
1.0
102
RTVSPost2010PropOp39
 70
     1
102
RTVSPost2010Prop40
 90
        0
102
RTVSPost2010PropOp40
 70
     1
102
RTVSPost2010Prop41ColorIndex
 90
       18
102
RTVSPost2010Prop41ColorRGB
 90
        0
102
RTVSPost2010PropOp41
 70
     1
102
RTVSPost2010Prop42
 90
       50
102
RTVSPost2010PropOp42
 70
     1
102
RTVSPost2010Prop43
 90
        3
102
RTVSPost2010PropOp43
 70
     1
102
RTVSPost2010Prop44ColorIndex
 90
        5
102
RTVSPost2010Prop44ColorRGB
 90
      255
102
RTVSPost2010PropOp44
 70
     1
102
RTVSPost2010Prop45
280
     0
102
RTVSPost2010PropOp45
 70
     1
102
RTVSPost2010Prop46
 90
       50
102
RTVSPost2010PropOp46
 70
     1
102
RTVSPost2010Prop47
 90
       50
102
RTVSPost2010PropOp47
 70
     1
102
RTVSPost2010Prop48
 90
       50
102
RTVSPost2010PropOp48
 70
     1
102
RTVSPost2010Prop49
280
     0
102
RTVSPost2010PropOp49
 70
     1
102
RTVSPost2010Prop50
 90
       50
102
RTVSPost2010PropOp50
 70
     1
102
RTVSPost2010Prop51ColorIndex
 90
      256
102
RTVSPost2010Prop51ColorRGB
 90
-16777216
102
RTVSPost2010PropOp51
 70
     0
102
RTVSPost2010Prop52
140
1.0
102
RTVSPost2010PropOp52
 70
     0
102
RTVSPost2010Prop53
 90
        2
102
RTVSPost2010PropOp53
 70
     1
102
RTVSPost2010Prop54
  1
strokes_ogs.tif
102
RTVSPost2010PropOp54
 70
     1
102
RTVSPost2010Prop55
280
     0
102
RTVSPost2010PropOp55
 70
     1
102
RTVSPost2010Prop56
140
1.0
102
RTVSPost2010PropOp56
 70
     1
102
RTVSPost2010Prop57
140
1.0
102
RTVSPost2010PropOp57
 70
     1
102
RTVSPropertyOp0
 70
     1
102
RTVSPropertyOp1
 70
     1
102
RTVSPropertyOp2
 70
     1
102
RTVSPropertyOp3
 70
     1
102
RTVSPropertyOp4
 70
     1
102
RTVSPropertyOp5
 70
     1
102
RTVSPropertyOp6
 70
     1
102
RTVSPropertyOp7
 70
     1
102
RTVSPropertyOp8
 70
     1
102
RTVSPropertyOp9
 70
     1
102
RTVSPropertyOp10
 70
     1
102
RTVSPropertyOp11
 70
     1
102
RTVSPropertyOp12
 70
     1
102
RTVSPropertyOp13
 70
     1
102
RTVSPropertyOp14
 70
     1
102
RTVSPropertyOp15
 70
     1
102
RTVSPropertyOp16
 70
     1
102
RTVSPropertyOp17
 70
     1
102
RTVSPropertyOp18
 70
     1
102
RTVSPropertyOp19
 70
     1
102
RTVSPropertyOp20
 70
     1
102
RTVSPropertyOp21
 70
     1
102
RTVSPropertyOp22
 70
     1
102
RTVSPropertyOp23
 70
     1
102
RTVSPropertyOp24
 70
     1
102
RTVSPropertyOp25
 70
     1
102
RTVSPropertyOp26
 70
     1
102
RTVSPropertyOp27
 70
     1
102
RTVSPropertyOp28
 70
     1
102
RTVSPropertyOp29
 70
     1
102
RTVSPropertyOp30
 70
     1
102
RTVSPropertyOp31
 70
     1
102
RTVSPropertyOp32
 70
     1
102
RTVSPropertyOp33
 70
     1
102
RTVSPropertyOp34
 70
     1
102
RTVSPropertyOp35
 70
     1
102
RTVSPropertyOp36
 70
     1
102
RTVSPropertyOp37
 70
     1
102
RTVSPropertyOp38
 70
     1
102
RTVSPropertyOp39
 70
     1
102
RTVSPropertyOp40
 70
     1
102
RTVSPropertyOp41
 70
     1
102
RTVSPropertyOp42
 70
     1
102
RTVSPropertyOp43
 70
     1
102
RTVSPropertyOp44
 70
     1
102
RTVSPropertyOp45
 70
     1
102
RTVSPropertyOp46
 70
     1
102
RTVSPropertyOp47
 70
     1
102
RTVSPropertyOp48
 70
     1
102
RTVSPropertyOp49
 70
     1
102
RTVSPropertyOp50
 70
     1
102
RTVSPropertyOp51
 70
     0
102
RTVSPropertyOp52
 70
     0
102
RTVSPropertyOp53
 70
     1
102
RTVSPropertyOp54
 70
     1
102
RTVSPropertyOp55
 70
     1
102
RTVSPropertyOp56
 70
     1
102
RTVSPropertyOp57
 70
     1
102
RTVSPropertyOp58
 70
     1
102
RTVSPropertyOp59
 70
     1
102
RTVSPropertyOp60
 70
     1
102
RTVSPropertyOp61
 70
     1
102
RTVSPropertyOp62
 70
     1
  0
XRECORD
  5
2C2B
102
{ACAD_REACTORS
330
2C2A
102
}
330
2C2A
100
AcDbXrecord
280
     1
102
RTVSPost2010Prop28
280
     0
102
RTVSPost2010PropOp28
 70
     1
102
RTVSPost2010Prop29
280
     1
102
RTVSPost2010PropOp29
 70
     1
102
RTVSPost2010Prop30
280
     1
102
RTVSPost2010PropOp30
 70
     1
102
RTVSPost2010Prop31
280
     0
102
RTVSPost2010PropOp31
 70
     1
102
RTVSPost2010Prop32
280
     0
102
RTVSPost2010PropOp32
 70
     1
102
RTVSPost2010Prop33
280
     0
102
RTVSPost2010PropOp33
 70
     1
102
RTVSPost2010Prop34
280
     0
102
RTVSPost2010PropOp34
 70
     1
102
RTVSPost2010Prop35
280
     0
102
RTVSPost2010PropOp35
 70
     1
102
RTVSPost2010Prop36
280
     0
102
RTVSPost2010PropOp36
 70
     1
102
RTVSPost2010Prop37
 90
       50
102
RTVSPost2010PropOp37
 70
     1
102
RTVSPost2010Prop38
140
0.0
102
RTVSPost2010PropOp38
 70
     1
102
RTVSPost2010Prop39
140
1.0
102
RTVSPost2010PropOp39
 70
     1
102
RTVSPost2010Prop40
 90
        0
102
RTVSPost2010PropOp40
 70
     1
102
RTVSPost2010Prop41ColorIndex
 90
       18
102
RTVSPost2010Prop41ColorRGB
 90
        0
102
RTVSPost2010PropOp41
 70
     1
102
RTVSPost2010Prop42
 90
       50
102
RTVSPost2010PropOp42
 70
     1
102
RTVSPost2010Prop43
 90
        3
102
RTVSPost2010PropOp43
 70
     1
102
RTVSPost2010Prop44ColorIndex
 90
        5
102
RTVSPost2010Prop44ColorRGB
 90
      255
102
RTVSPost2010PropOp44
 70
     1
102
RTVSPost2010Prop45
280
     0
102
RTVSPost2010PropOp45
 70
     1
102
RTVSPost2010Prop46
 90
       50
102
RTVSPost2010PropOp46
 70
     1
102
RTVSPost2010Prop47
 90
       50
102
RTVSPost2010PropOp47
 70
     1
102
RTVSPost2010Prop48
 90
       50
102
RTVSPost2010PropOp48
 70
     1
102
RTVSPost2010Prop49
280
     0
102
RTVSPost2010PropOp49
 70
     1
102
RTVSPost2010Prop50
 90
       50
102
RTVSPost2010PropOp50
 70
     1
102
RTVSPost2010Prop51ColorIndex
 90
      256
102
RTVSPost2010Prop51ColorRGB
 90
-16777216
102
RTVSPost2010PropOp51
 70
     0
102
RTVSPost2010Prop52
140
1.0
102
RTVSPost2010PropOp52
 70
     0
102
RTVSPost2010Prop53
 90
        2
102
RTVSPost2010PropOp53
 70
     1
102
RTVSPost2010Prop54
  1
strokes_ogs.tif
102
RTVSPost2010PropOp54
 70
     1
102
RTVSPost2010Prop55
280
     0
102
RTVSPost2010PropOp55
 70
     1
102
RTVSPost2010Prop56
140
1.0
102
RTVSPost2010PropOp56
 70
     1
102
RTVSPost2010Prop57
140
1.0
102
RTVSPost2010PropOp57
 70
     1
102
RTVSPropertyOp0
 70
     1
102
RTVSPropertyOp1
 70
     1
102
RTVSPropertyOp2
 70
     1
102
RTVSPropertyOp3
 70
     1
102
RTVSPropertyOp4
 70
     1
102
RTVSPropertyOp5
 70
     1
102
RTVSPropertyOp6
 70
     1
102
RTVSPropertyOp7
 70
     1
102
RTVSPropertyOp8
 70
     1
102
RTVSPropertyOp9
 70
     1
102
RTVSPropertyOp10
 70
     1
102
RTVSPropertyOp11
 70
     1
102
RTVSPropertyOp12
 70
     1
102
RTVSPropertyOp13
 70
     1
102
RTVSPropertyOp14
 70
     1
102
RTVSPropertyOp15
 70
     1
102
RTVSPropertyOp16
 70
     1
102
RTVSPropertyOp17
 70
     1
102
RTVSPropertyOp18
 70
     1
102
RTVSPropertyOp19
 70
     1
102
RTVSPropertyOp20
 70
     1
102
RTVSPropertyOp21
 70
     1
102
RTVSPropertyOp22
 70
     1
102
RTVSPropertyOp23
 70
     1
102
RTVSPropertyOp24
 70
     1
102
RTVSPropertyOp25
 70
     1
102
RTVSPropertyOp26
 70
     1
102
RTVSPropertyOp27
 70
     1
102
RTVSPropertyOp28
 70
     1
102
RTVSPropertyOp29
 70
     1
102
RTVSPropertyOp30
 70
     1
102
RTVSPropertyOp31
 70
     1
102
RTVSPropertyOp32
 70
     1
102
RTVSPropertyOp33
 70
     1
102
RTVSPropertyOp34
 70
     1
102
RTVSPropertyOp35
 70
     1
102
RTVSPropertyOp36
 70
     1
102
RTVSPropertyOp37
 70
     1
102
RTVSPropertyOp38
 70
     1
102
RTVSPropertyOp39
 70
     1
102
RTVSPropertyOp40
 70
     1
102
RTVSPropertyOp41
 70
     1
102
RTVSPropertyOp42
 70
     1
102
RTVSPropertyOp43
 70
     1
102
RTVSPropertyOp44
 70
     1
102
RTVSPropertyOp45
 70
     1
102
RTVSPropertyOp46
 70
     1
102
RTVSPropertyOp47
 70
     1
102
RTVSPropertyOp48
 70
     1
102
RTVSPropertyOp49
 70
     1
102
RTVSPropertyOp50
 70
     1
102
RTVSPropertyOp51
 70
     0
102
RTVSPropertyOp52
 70
     0
102
RTVSPropertyOp53
 70
     1
102
RTVSPropertyOp54
 70
     1
102
RTVSPropertyOp55
 70
     1
102
RTVSPropertyOp56
 70
     1
102
RTVSPropertyOp57
 70
     1
102
RTVSPropertyOp58
 70
     1
102
RTVSPropertyOp59
 70
     1
102
RTVSPropertyOp60
 70
     1
102
RTVSPropertyOp61
 70
     1
102
RTVSPropertyOp62
 70
     1
  0
XRECORD
  5
2C43
102
{ACAD_REACTORS
330
2C42
102
}
330
2C42
100
AcDbXrecord
280
     1
102
RTVSPost2010Prop28
280
     0
102
RTVSPost2010PropOp28
 70
     1
102
RTVSPost2010Prop29
280
     1
102
RTVSPost2010PropOp29
 70
     1
102
RTVSPost2010Prop30
280
     1
102
RTVSPost2010PropOp30
 70
     1
102
RTVSPost2010Prop31
280
     0
102
RTVSPost2010PropOp31
 70
     1
102
RTVSPost2010Prop32
280
     0
102
RTVSPost2010PropOp32
 70
     1
102
RTVSPost2010Prop33
280
     0
102
RTVSPost2010PropOp33
 70
     1
102
RTVSPost2010Prop34
280
     0
102
RTVSPost2010PropOp34
 70
     1
102
RTVSPost2010Prop35
280
     0
102
RTVSPost2010PropOp35
 70
     1
102
RTVSPost2010Prop36
280
     0
102
RTVSPost2010PropOp36
 70
     1
102
RTVSPost2010Prop37
 90
       50
102
RTVSPost2010PropOp37
 70
     1
102
RTVSPost2010Prop38
140
0.0
102
RTVSPost2010PropOp38
 70
     1
102
RTVSPost2010Prop39
140
1.0
102
RTVSPost2010PropOp39
 70
     1
102
RTVSPost2010Prop40
 90
        0
102
RTVSPost2010PropOp40
 70
     1
102
RTVSPost2010Prop41ColorIndex
 90
       18
102
RTVSPost2010Prop41ColorRGB
 90
        0
102
RTVSPost2010PropOp41
 70
     1
102
RTVSPost2010Prop42
 90
       50
102
RTVSPost2010PropOp42
 70
     1
102
RTVSPost2010Prop43
 90
        3
102
RTVSPost2010PropOp43
 70
     1
102
RTVSPost2010Prop44ColorIndex
 90
        5
102
RTVSPost2010Prop44ColorRGB
 90
      255
102
RTVSPost2010PropOp44
 70
     1
102
RTVSPost2010Prop45
280
     0
102
RTVSPost2010PropOp45
 70
     1
102
RTVSPost2010Prop46
 90
       50
102
RTVSPost2010PropOp46
 70
     1
102
RTVSPost2010Prop47
 90
       50
102
RTVSPost2010PropOp47
 70
     1
102
RTVSPost2010Prop48
 90
       50
102
RTVSPost2010PropOp48
 70
     1
102
RTVSPost2010Prop49
280
     0
102
RTVSPost2010PropOp49
 70
     1
102
RTVSPost2010Prop50
 90
       50
102
RTVSPost2010PropOp50
 70
     1
102
RTVSPost2010Prop51ColorIndex
 90
      256
102
RTVSPost2010Prop51ColorRGB
 90
-16777216
102
RTVSPost2010PropOp51
 70
     0
102
RTVSPost2010Prop52
140
1.0
102
RTVSPost2010PropOp52
 70
     0
102
RTVSPost2010Prop53
 90
        2
102
RTVSPost2010PropOp53
 70
     1
102
RTVSPost2010Prop54
  1
strokes_ogs.tif
102
RTVSPost2010PropOp54
 70
     1
102
RTVSPost2010Prop55
280
     0
102
RTVSPost2010PropOp55
 70
     1
102
RTVSPost2010Prop56
140
1.0
102
RTVSPost2010PropOp56
 70
     1
102
RTVSPost2010Prop57
140
1.0
102
RTVSPost2010PropOp57
 70
     1
102
RTVSPropertyOp0
 70
     1
102
RTVSPropertyOp1
 70
     1
102
RTVSPropertyOp2
 70
     1
102
RTVSPropertyOp3
 70
     1
102
RTVSPropertyOp4
 70
     1
102
RTVSPropertyOp5
 70
     1
102
RTVSPropertyOp6
 70
     1
102
RTVSPropertyOp7
 70
     1
102
RTVSPropertyOp8
 70
     1
102
RTVSPropertyOp9
 70
     1
102
RTVSPropertyOp10
 70
     1
102
RTVSPropertyOp11
 70
     1
102
RTVSPropertyOp12
 70
     1
102
RTVSPropertyOp13
 70
     1
102
RTVSPropertyOp14
 70
     1
102
RTVSPropertyOp15
 70
     1
102
RTVSPropertyOp16
 70
     1
102
RTVSPropertyOp17
 70
     1
102
RTVSPropertyOp18
 70
     1
102
RTVSPropertyOp19
 70
     1
102
RTVSPropertyOp20
 70
     1
102
RTVSPropertyOp21
 70
     1
102
RTVSPropertyOp22
 70
     1
102
RTVSPropertyOp23
 70
     1
102
RTVSPropertyOp24
 70
     1
102
RTVSPropertyOp25
 70
     1
102
RTVSPropertyOp26
 70
     1
102
RTVSPropertyOp27
 70
     1
102
RTVSPropertyOp28
 70
     1
102
RTVSPropertyOp29
 70
     1
102
RTVSPropertyOp30
 70
     1
102
RTVSPropertyOp31
 70
     1
102
RTVSPropertyOp32
 70
     1
102
RTVSPropertyOp33
 70
     1
102
RTVSPropertyOp34
 70
     1
102
RTVSPropertyOp35
 70
     1
102
RTVSPropertyOp36
 70
     1
102
RTVSPropertyOp37
 70
     1
102
RTVSPropertyOp38
 70
     1
102
RTVSPropertyOp39
 70
     1
102
RTVSPropertyOp40
 70
     1
102
RTVSPropertyOp41
 70
     1
102
RTVSPropertyOp42
 70
     1
102
RTVSPropertyOp43
 70
     1
102
RTVSPropertyOp44
 70
     1
102
RTVSPropertyOp45
 70
     1
102
RTVSPropertyOp46
 70
     1
102
RTVSPropertyOp47
 70
     1
102
RTVSPropertyOp48
 70
     1
102
RTVSPropertyOp49
 70
     1
102
RTVSPropertyOp50
 70
     1
102
RTVSPropertyOp51
 70
     0
102
RTVSPropertyOp52
 70
     0
102
RTVSPropertyOp53
 70
     1
102
RTVSPropertyOp54
 70
     1
102
RTVSPropertyOp55
 70
     1
102
RTVSPropertyOp56
 70
     1
102
RTVSPropertyOp57
 70
     1
102
RTVSPropertyOp58
 70
     1
102
RTVSPropertyOp59
 70
     1
102
RTVSPropertyOp60
 70
     1
102
RTVSPropertyOp61
 70
     1
102
RTVSPropertyOp62
 70
     1
  0
ENDSEC
  0
EOF
