  0
SECTION
  2
HEADER
  9
$ACADVER
  1
AC1015
  9
$ACADMAINTVER
 70
    20
  9
$DWGCODEPAGE
  3
ANSI_932
  9
$INSBASE
 10
0.0
 20
0.0
 30
0.0
  9
$EXTMIN
 10
9.999999064246615
 20
9.999999806846602
 30
0.0
  9
$EXTMAX
 10
657.2929947136135
 20
469.6360732340633
 30
0.0
  9
$LIMMIN
 10
0.0000015376081137
 20
-0.0000001931532552
  9
$LIMMAX
 10
725.0000015376082
 20
499.8106058674527
  9
$ORTHOMODE
 70
     0
  9
$REGENMODE
 70
     1
  9
$FILLMODE
 70
     1
  9
$QTEXTMODE
 70
     0
  9
$MIRRTEXT
 70
     1
  9
$LTSCALE
 40
1.0
  9
$ATTMODE
 70
     1
  9
$TEXTSIZE
 40
2.5
  9
$TRACEWID
 40
1.0
  9
$TEXTSTYLE
  7
STANDARD
  9
$CLAYER
  8
0
  9
$CELTYPE
  6
BYLAYER
  9
$CECOLOR
 62
   256
  9
$CELTSCALE
 40
1.0
  9
$DISPSILH
 70
     0
  9
$DIMSCALE
 40
1.0
  9
$DIMASZ
 40
3.0
  9
$DIMEXO
 40
1.0
  9
$DIMDLI
 40
10.0
  9
$DIMRND
 40
0.0
  9
$DIMDLE
 40
0.0
  9
$DIMEXE
 40
1.0
  9
$DIMTP
 40
0.0
  9
$DIMTM
 40
0.0
  9
$DIMTXT
 40
3.2
  9
$DIMCEN
 40
0.0
  9
$DIMTSZ
 40
0.0
  9
$DIMTOL
 70
     0
  9
$DIMLIM
 70
     0
  9
$DIMTIH
 70
     0
  9
$DIMTOH
 70
     0
  9
$DIMSE1
 70
     0
  9
$DIMSE2
 70
     0
  9
$DIMTAD
 70
     3
  9
$DIMZIN
 70
     8
  9
$DIMBLK
  1

  9
$DIMASO
 70
     1
  9
$DIMSHO
 70
     1
  9
$DIMPOST
  1

  9
$DIMAPOST
  1

  9
$DIMALT
 70
     0
  9
$DIMALTD
 70
     2
  9
$DIMALTF
 40
25.4
  9
$DIMLFAC
 40
1.0
  9
$DIMTOFL
 70
     1
  9
$DIMTVP
 40
0.0
  9
$DIMTIX
 70
     0
  9
$DIMSOXD
 70
     0
  9
$DIMSAH
 70
     1
  9
$DIMBLK1
  1
OPEN
  9
$DIMBLK2
  1
OPEN
  9
$DIMSTYLE
  2
STANDARD
  9
$DIMCLRD
 70
     0
  9
$DIMCLRE
 70
     0
  9
$DIMCLRT
 70
     0
  9
$DIMTFAC
 40
1.0
  9
$DIMGAP
 40
1.0
  9
$DIMJUST
 70
     0
  9
$DIMSD1
 70
     0
  9
$DIMSD2
 70
     0
  9
$DIMTOLJ
 70
     1
  9
$DIMTZIN
 70
     0
  9
$DIMALTZ
 70
     0
  9
$DIMALTTZ
 70
     0
  9
$DIMUPT
 70
     0
  9
$DIMDEC
 70
     4
  9
$DIMTDEC
 70
     4
  9
$DIMALTU
 70
     2
  9
$DIMALTTD
 70
     2
  9
$DIMTXSTY
  7
STANDARD
  9
$DIMAUNIT
 70
     0
  9
$DIMADEC
 70
     0
  9
$DIMALTRND
 40
0.0
  9
$DIMAZIN
 70
     0
  9
$DIMDSEP
 70
    46
  9
$DIMATFIT
 70
     3
  9
$DIMFRAC
 70
     0
  9
$DIMLDRBLK
  1
OPEN
  9
$DIMLUNIT
 70
     2
  9
$DIMLWD
 70
    -2
  9
$DIMLWE
 70
    -2
  9
$DIMTMOVE
 70
     0
  9
$LUNITS
 70
     2
  9
$LUPREC
 70
     4
  9
$SKETCHINC
 40
1.0
  9
$FILLETRAD
 40
4.0
  9
$AUNITS
 70
     0
  9
$AUPREC
 70
     0
  9
$MENU
  1
.
  9
$ELEVATION
 40
0.0
  9
$PELEVATION
 40
0.0
  9
$THICKNESS
 40
0.0
  9
$LIMCHECK
 70
     0
  9
$CHAMFERA
 40
10.0
  9
$CHAMFERB
 40
10.0
  9
$CHAMFERC
 40
20.0
  9
$CHAMFERD
 40
0.0
  9
$SKPOLY
 70
     0
  9
$TDCREATE
 40
2453258.445961181
  9
$TDUCREATE
 40
2453258.070961181
  9
$TDUPDATE
 40
2457192.689358414
  9
$TDUUPDATE
 40
2457192.314358414
  9
$TDINDWG
 40
0.0672380671
  9
$TDUSRTIMER
 40
0.0672380671
  9
$USRTIMER
 70
     1
  9
$ANGBASE
 50
0.0
  9
$ANGDIR
 70
     0
  9
$PDMODE
 70
     0
  9
$PDSIZE
 40
0.0
  9
$PLINEWID
 40
0.0
  9
$SPLFRAME
 70
     0
  9
$SPLINETYPE
 70
     6
  9
$SPLINESEGS
 70
     8
  9
$HANDSEED
  5
C9E
  9
$SURFTAB1
 70
     6
  9
$SURFTAB2
 70
     6
  9
$SURFTYPE
 70
     6
  9
$SURFU
 70
     6
  9
$SURFV
 70
     6
  9
$UCSBASE
  2

  9
$UCSNAME
  2

  9
$UCSORG
 10
0.0
 20
0.0
 30
0.0
  9
$UCSXDIR
 10
1.0
 20
0.0
 30
0.0
  9
$UCSYDIR
 10
0.0
 20
1.0
 30
0.0
  9
$UCSORTHOREF
  2

  9
$UCSORTHOVIEW
 70
     0
  9
$UCSORGTOP
 10
0.0
 20
0.0
 30
0.0
  9
$UCSORGBOTTOM
 10
0.0
 20
0.0
 30
0.0
  9
$UCSORGLEFT
 10
0.0
 20
0.0
 30
0.0
  9
$UCSORGRIGHT
 10
0.0
 20
0.0
 30
0.0
  9
$UCSORGFRONT
 10
0.0
 20
0.0
 30
0.0
  9
$UCSORGBACK
 10
0.0
 20
0.0
 30
0.0
  9
$PUCSBASE
  2

  9
$PUCSNAME
  2

  9
$PUCSORG
 10
0.0
 20
0.0
 30
0.0
  9
$PUCSXDIR
 10
1.0
 20
0.0
 30
0.0
  9
$PUCSYDIR
 10
0.0
 20
1.0
 30
0.0
  9
$PUCSORTHOREF
  2

  9
$PUCSORTHOVIEW
 70
     0
  9
$PUCSORGTOP
 10
0.0
 20
0.0
 30
0.0
  9
$PUCSORGBOTTOM
 10
0.0
 20
0.0
 30
0.0
  9
$PUCSORGLEFT
 10
0.0
 20
0.0
 30
0.0
  9
$PUCSORGRIGHT
 10
0.0
 20
0.0
 30
0.0
  9
$PUCSORGFRONT
 10
0.0
 20
0.0
 30
0.0
  9
$PUCSORGBACK
 10
0.0
 20
0.0
 30
0.0
  9
$USERI1
 70
     0
  9
$USERI2
 70
     0
  9
$USERI3
 70
     0
  9
$USERI4
 70
     0
  9
$USERI5
 70
     0
  9
$USERR1
 40
0.0
  9
$USERR2
 40
0.0
  9
$USERR3
 40
0.0
  9
$USERR4
 40
0.0
  9
$USERR5
 40
0.0
  9
$WORLDVIEW
 70
     1
  9
$SHADEDGE
 70
     3
  9
$SHADEDIF
 70
    70
  9
$TILEMODE
 70
     1
  9
$MAXACTVP
 70
    48
  9
$PINSBASE
 10
0.0
 20
0.0
 30
0.0
  9
$PLIMCHECK
 70
     0
  9
$PEXTMIN
 10
1.000000000000000E+20
 20
1.000000000000000E+20
 30
1.000000000000000E+20
  9
$PEXTMAX
 10
-1.000000000000000E+20
 20
-1.000000000000000E+20
 30
-1.000000000000000E+20
  9
$PLIMMIN
 10
0.0
 20
0.0
  9
$PLIMMAX
 10
420.0
 20
297.0
  9
$UNITMODE
 70
     0
  9
$VISRETAIN
 70
     1
  9
$PLINEGEN
 70
     0
  9
$PSLTSCALE
 70
     1
  9
$TREEDEPTH
 70
  3020
  9
$CMLSTYLE
  2
STANDARD
  9
$CMLJUST
 70
     0
  9
$CMLSCALE
 40
20.0
  9
$PROXYGRAPHICS
 70
     1
  9
$MEASUREMENT
 70
     0
  9
$CELWEIGHT
370
    -1
  9
$ENDCAPS
280
     0
  9
$JOINSTYLE
280
     0
  9
$LWDISPLAY
290
     0
  9
$INSUNITS
 70
     0
  9
$HYPERLINKBASE
  1

  9
$STYLESHEET
  1

  9
$XEDIT
290
     1
  9
$CEPSNTYPE
380
     0
  9
$PSTYLEMODE
290
     1
  9
$FINGERPRINTGUID
  2
{CC4743A2-C53E-40E8-B265-D68A576E5A48}
  9
$VERSIONGUID
  2
{79159948-ED2D-483F-BFC3-29BC2C48AF10}
  9
$EXTNAMES
290
     1
  9
$PSVPSCALE
 40
0.0
  9
$OLESTARTUP
290
     0
  0
ENDSEC
  0
SECTION
  2
CLASSES
  0
CLASS
  1
ACDBDICTIONARYWDFLT
  2
AcDbDictionaryWithDefault
  3
ObjectDBX Classes
 90
        0
280
     0
281
     0
  0
CLASS
  1
ACDBPLACEHOLDER
  2
AcDbPlaceHolder
  3
ObjectDBX Classes
 90
        0
280
     0
281
     0
  0
CLASS
  1
LAYOUT
  2
AcDbLayout
  3
ObjectDBX Classes
 90
        0
280
     0
281
     0
  0
CLASS
  1
DICTIONARYVAR
  2
AcDbDictionaryVar
  3
ObjectDBX Classes
 90
        0
280
     0
281
     0
  0
CLASS
  1
MATERIAL
  2
AcDbMaterial
  3
ObjectDBX Classes
 90
     1153
280
     0
281
     0
  0
CLASS
  1
VISUALSTYLE
  2
AcDbVisualStyle
  3
ObjectDBX Classes
 90
     4095
280
     0
281
     0
  0
CLASS
  1
TABLESTYLE
  2
AcDbTableStyle
  3
ObjectDBX Classes
 90
     4095
280
     0
281
     0
  0
CLASS
  1
SCALE
  2
AcDbScale
  3
ObjectDBX Classes
 90
     1153
280
     0
281
     0
  0
CLASS
  1
MLEADERSTYLE
  2
AcDbMLeaderStyle
  3
ACDB_MLEADERSTYLE_CLASS
 90
     4095
280
     0
281
     0
  0
CLASS
  1
ACDBSECTIONVIEWSTYLE
  2
AcDbSectionViewStyle
  3
ObjectDBX Classes
 90
     1025
280
     0
281
     0
  0
CLASS
  1
ACDBDETAILVIEWSTYLE
  2
AcDbDetailViewStyle
  3
ObjectDBX Classes
 90
     1025
280
     0
281
     0
  0
CLASS
  1
CELLSTYLEMAP
  2
AcDbCellStyleMap
  3
ObjectDBX Classes
 90
     1152
280
     0
281
     0
  0
ENDSEC
  0
SECTION
  2
TABLES
  0
TABLE
  2
VPORT
  5
8
330
0
100
AcDbSymbolTable
 70
     1
  0
VPORT
  5
BEA
330
8
100
AcDbSymbolTableRecord
100
AcDbViewportTableRecord
  2
*ACTIVE
 70
     0
 10
0.0
 20
0.0
 11
1.0
 21
1.0
 12
510.5875094390368
 22
239.8192516436131
 13
0.0
 23
0.0
 14
10.0
 24
10.0
 15
10.0
 25
10.0
 16
0.0
 26
0.0
 36
1.0
 17
0.0
 27
0.0
 37
0.0
 40
463.3166776228907
 41
2.35006605019815
 42
50.0
 43
0.0
 44
0.0
 50
0.0
 51
0.0
 71
     0
 72
   100
 73
     1
 74
     0
 75
     0
 76
     0
 77
     0
 78
     0
281
     0
 65
     1
110
0.0
120
0.0
130
0.0
111
1.0
121
0.0
131
0.0
112
0.0
122
1.0
132
0.0
 79
     0
146
0.0
1001
ACAD_NAV_VCDISPLAY
1070
     3
  0
ENDTAB
  0
TABLE
  2
LTYPE
  5
5
330
0
100
AcDbSymbolTable
 70
     4
  0
LTYPE
  5
12
330
5
100
AcDbSymbolTableRecord
100
AcDbLinetypeTableRecord
  2
BYBLOCK
 70
     0
  3

 72
    65
 73
     0
 40
0.0
  0
LTYPE
  5
13
330
5
100
AcDbSymbolTableRecord
100
AcDbLinetypeTableRecord
  2
BYLAYER
 70
     0
  3

 72
    65
 73
     0
 40
0.0
  0
LTYPE
  5
14
330
5
100
AcDbSymbolTableRecord
100
AcDbLinetypeTableRecord
  2
CONTINUOUS
 70
     0
  3
Solid line
 72
    65
 73
     0
 40
0.0
  0
LTYPE
  5
62
330
5
100
AcDbSymbolTableRecord
100
AcDbLinetypeTableRecord
  2
DASHED
 70
     0
  3
Dashed __ __ __ __ __ __ __ __ __ __ __ __ __ _
 72
    65
 73
     2
 40
19.04999999999998
 49
12.7
 74
     0
 49
-6.349999999999997
 74
     0
  0
LTYPE
  5
63
330
5
100
AcDbSymbolTableRecord
100
AcDbLinetypeTableRecord
  2
CENTER
 70
     0
  3
Center ____ _ ____ _ ____ _ ____ _ ____ _ ____
 72
    65
 73
     4
 40
50.8
 49
31.75
 74
     0
 49
-6.349999999999997
 74
     0
 49
6.349999999999997
 74
     0
 49
-6.349999999999997
 74
     0
  0
LTYPE
  5
64
330
5
100
AcDbSymbolTableRecord
100
AcDbLinetypeTableRecord
  2
PHANTOM
 70
     0
  3
Phantom ______  __  __  ______  __  __  ______
 72
    65
 73
     6
 40
63.5
 49
31.75
 74
     0
 49
-6.349999999999997
 74
     0
 49
6.349999999999997
 74
     0
 49
-6.349999999999997
 74
     0
 49
6.349999999999997
 74
     0
 49
-6.349999999999997
 74
     0
  0
ENDTAB
  0
TABLE
  2
LAYER
  5
2
330
0
100
AcDbSymbolTable
 70
     8
  0
LAYER
  5
E
102
{ACAD_XDICTIONARY
360
C42
102
}
330
2
100
AcDbSymbolTableRecord
100
AcDbLayerTableRecord
  2
0
 70
     0
 62
     7
  6
CONTINUOUS
370
    -3
390
BF1
  0
LAYER
  5
65
102
{ACAD_XDICTIONARY
360
C44
102
}
330
2
100
AcDbSymbolTableRecord
100
AcDbLayerTableRecord
  2
4
 70
     0
 62
     1
  6
CENTER
370
    -3
390
BF1
  0
LAYER
  5
66
102
{ACAD_XDICTIONARY
360
C46
102
}
330
2
100
AcDbSymbolTableRecord
100
AcDbLayerTableRecord
  2
5
 70
     0
 62
     6
  6
PHANTOM
370
    -3
390
BF1
  0
LAYER
  5
67
102
{ACAD_XDICTIONARY
360
C48
102
}
330
2
100
AcDbSymbolTableRecord
100
AcDbLayerTableRecord
  2
1
 70
     0
 62
     7
  6
CONTINUOUS
370
    -3
390
BF1
  0
LAYER
  5
68
102
{ACAD_XDICTIONARY
360
C4A
102
}
330
2
100
AcDbSymbolTableRecord
100
AcDbLayerTableRecord
  2
2
 70
     0
 62
     4
  6
CONTINUOUS
370
    -3
390
BF1
  0
LAYER
  5
69
102
{ACAD_XDICTIONARY
360
C4C
102
}
330
2
100
AcDbSymbolTableRecord
100
AcDbLayerTableRecord
  2
3
 70
     0
 62
     2
  6
DASHED
370
    -3
390
BF1
  0
LAYER
  5
6A
102
{ACAD_XDICTIONARY
360
C4E
102
}
330
2
100
AcDbSymbolTableRecord
100
AcDbLayerTableRecord
  2
6
 70
     0
 62
     5
  6
CONTINUOUS
370
    -3
390
BF1
  0
LAYER
  5
6B
102
{ACAD_XDICTIONARY
360
C50
102
}
330
2
100
AcDbSymbolTableRecord
100
AcDbLayerTableRecord
  2
7
 70
     0
 62
     3
  6
CONTINUOUS
370
    -3
390
BF1
  0
ENDTAB
  0
TABLE
  2
STYLE
  5
3
330
0
100
AcDbSymbolTable
 70
     1
  0
STYLE
  5
F
330
3
100
AcDbSymbolTableRecord
100
AcDbTextStyleTableRecord
  2
STANDARD
 70
     0
 40
0.0
 41
1.0
 50
0.0
 71
     0
 42
2.5
  3
simplex.shx
  4

  0
ENDTAB
  0
TABLE
  2
VIEW
  5
6
330
0
100
AcDbSymbolTable
 70
     0
  0
ENDTAB
  0
TABLE
  2
UCS
  5
7
330
0
100
AcDbSymbolTable
 70
     0
  0
ENDTAB
  0
TABLE
  2
APPID
  5
9
330
0
100
AcDbSymbolTable
 70
     5
  0
APPID
  5
10
330
9
100
AcDbSymbolTableRecord
100
AcDbRegAppTableRecord
  2
ACAD
 70
     0
  0
APPID
  5
3E
330
9
100
AcDbSymbolTableRecord
100
AcDbRegAppTableRecord
  2
CONTENTTABDATA
 70
     0
  0
APPID
  5
3F
330
9
100
AcDbSymbolTableRecord
100
AcDbRegAppTableRecord
  2
CONTENTCURRENTTAB
 70
     0
  0
APPID
  5
C5C
330
9
100
AcDbSymbolTableRecord
100
AcDbRegAppTableRecord
  2
ACAD_NAV_VCDISPLAY
 70
     0
  0
APPID
  5
C95
330
9
100
AcDbSymbolTableRecord
100
AcDbRegAppTableRecord
  2
ACAD_MLEADERVER
 70
     0
  0
ENDTAB
  0
TABLE
  2
DIMSTYLE
  5
A
330
0
100
AcDbSymbolTable
 70
     1
100
AcDbDimStyleTable
 71
     0
  0
DIMSTYLE
105
1D
330
A
100
AcDbSymbolTableRecord
100
AcDbDimStyleTableRecord
  2
STANDARD
 70
     0
 41
3.0
 42
1.0
 43
10.0
 44
1.0
 73
     0
 74
     0
 77
     3
 78
     8
140
3.2
141
0.0
147
1.0
172
     1
173
     1
340
F
341
2E
343
2E
344
2E
  0
ENDTAB
  0
TABLE
  2
BLOCK_RECORD
  5
1
330
0
100
AcDbSymbolTable
 70
     1
  0
BLOCK_RECORD
  5
18
102
{ACAD_XDICTIONARY
360
BD3
102
}
330
1
100
AcDbSymbolTableRecord
100
AcDbBlockTableRecord
  2
*MODEL_SPACE
340
C3F
  0
BLOCK_RECORD
  5
15
102
{ACAD_XDICTIONARY
360
BD1
102
}
330
1
100
AcDbSymbolTableRecord
100
AcDbBlockTableRecord
  2
*PAPER_SPACE
340
C40
  0
BLOCK_RECORD
  5
2E
330
1
100
AcDbSymbolTableRecord
100
AcDbBlockTableRecord
  2
_OPEN
340
0
  0
ENDTAB
  0
ENDSEC
  0
SECTION
  2
BLOCKS
  0
BLOCK
  5
19
330
18
100
AcDbEntity
  8
0
100
AcDbBlockBegin
  2
*MODEL_SPACE
 70
     0
 10
0.0
 20
0.0
 30
0.0
  3
*MODEL_SPACE
  1

  0
ENDBLK
  5
1A
330
18
100
AcDbEntity
  8
0
100
AcDbBlockEnd
  0
BLOCK
  5
16
330
15
100
AcDbEntity
 67
     1
  8
0
100
AcDbBlockBegin
  2
*PAPER_SPACE
 70
     0
 10
0.0
 20
0.0
 30
0.0
  3
*PAPER_SPACE
  1

  0
ENDBLK
  5
17
330
15
100
AcDbEntity
 67
     1
  8
0
100
AcDbBlockEnd
  0
BLOCK
  5
2F
330
2E
100
AcDbEntity
  8
0
100
AcDbBlockBegin
  2
_OPEN
 70
     0
 10
0.0
 20
0.0
 30
0.0
  3
_OPEN
  1

  0
LINE
  5
30
330
2E
100
AcDbEntity
  8
0
  6
ByBlock
 62
     0
100
AcDbLine
 10
-1.0
 20
0.1666666666666666
 30
0.0
 11
0.0
 21
0.0
 31
0.0
  0
LINE
  5
31
330
2E
100
AcDbEntity
  8
0
  6
ByBlock
 62
     0
100
AcDbLine
 10
0.0
 20
0.0
 30
0.0
 11
-1.0
 21
-0.1666666666666666
 31
0.0
  0
LINE
  5
32
330
2E
100
AcDbEntity
  8
0
  6
ByBlock
 62
     0
100
AcDbLine
 10
0.0
 20
0.0
 30
0.0
 11
-1.0
 21
0.0
 31
0.0
  0
ENDBLK
  5
33
330
2E
100
AcDbEntity
  8
0
100
AcDbBlockEnd
  0
ENDSEC
  0
SECTION
  2
ENTITIES
  0
LINE
  5
15C
330
18
100
AcDbEntity
  8
4
  6
CENTER
100
AcDbLine
 10
145.515096458982
 20
435.3049184524476
 30
0.0
 11
309.4630499165248
 21
435.3049184524476
 31
0.0
  0
LINE
  5
15D
330
18
100
AcDbEntity
  8
4
  6
CENTER
100
AcDbLine
 10
144.7394264589819
 20
241.5007549482571
 30
0.0
 11
283.1294364589819
 21
241.5007549482571
 31
0.0
  0
ARC
  5
15E
330
18
100
AcDbEntity
  8
1
  6
Continuous
100
AcDbCircle
 10
215.3994264589818
 20
241.5007549482571
 30
0.0
 40
62.5
100
AcDbArc
 50
97.87023799999971
 51
49.50483900000001
  0
ARC
  5
15F
330
18
100
AcDbEntity
  8
1
  6
Continuous
100
AcDbCircle
 10
215.3994264589818
 20
241.5007549482571
 30
0.0
 40
44.5
100
AcDbArc
 50
102.2441399999999
 51
45.13094899999979
  0
ARC
  5
160
330
18
100
AcDbEntity
  8
1
  6
Continuous
100
AcDbCircle
 10
215.3994264589818
 20
241.5007549482571
 30
0.0
 40
31.5
100
AcDbArc
 50
108.6798699999997
 51
38.69521700000019
  0
LINE
  5
161
330
18
100
AcDbEntity
  8
1
  6
Continuous
100
AcDbLine
 10
205.685866458982
 20
448.8049184524476
 30
0.0
 11
155.8789064589819
 21
448.8049184524476
 31
0.0
  0
LINE
  5
162
330
18
100
AcDbEntity
  8
1
  6
Continuous
100
AcDbLine
 10
205.685866458982
 20
421.8049184524478
 30
0.0
 11
155.8789064589819
 21
421.8049184524478
 31
0.0
  0
TEXT
  5
163
330
18
100
AcDbEntity
  8
1
  6
Continuous
 48
0.25
100
AcDbText
 10
9.999999064246617
 20
10.00000056761549
 30
0.0
 40
1.399999999999999
  1
LAYER
100
AcDbText
  0
TEXT
  5
164
330
18
100
AcDbEntity
  8
7
  6
Continuous
 48
0.25
100
AcDbText
 10
9.999999064246617
 20
18.0000005676155
 30
0.0
 40
3.0
  1
TYPE No.TCA-320E-R125
100
AcDbText
  0
TEXT
  5
165
330
18
100
AcDbEntity
  8
7
  6
Continuous
 48
0.25
100
AcDbText
 10
9.999999064246617
 20
26.0000005676155
 30
0.0
 40
3.0
  1
CODE No.19190
100
AcDbText
  0
TEXT
  5
166
330
18
100
AcDbEntity
  8
7
  6
Continuous
 48
0.25
100
AcDbText
 10
29.97951006424661
 20
9.999999806846602
 30
0.0
 40
1.399999999999999
  1
7
100
AcDbText
  0
TEXT
  5
167
330
18
100
AcDbEntity
  8
6
  6
Continuous
 48
0.25
100
AcDbText
 10
27.97951006424661
 20
9.999999806846602
 30
0.0
 40
1.399999999999999
  1
6
100
AcDbText
  0
TEXT
  5
168
330
18
100
AcDbEntity
  8
5
  6
PHANTOM
 48
0.25
100
AcDbText
 10
25.97951006424661
 20
9.999999806846602
 30
0.0
 40
1.399999999999999
  1
5
100
AcDbText
  0
TEXT
  5
169
330
18
100
AcDbEntity
  8
1
  6
Continuous
 48
0.25
100
AcDbText
 10
17.9795100642466
 20
9.999999806846602
 30
0.0
 40
1.399999999999999
  1
1
100
AcDbText
  0
TEXT
  5
16A
330
18
100
AcDbEntity
  8
3
  6
DASHED
 48
0.25
100
AcDbText
 10
21.97951006424661
 20
9.999999806846602
 30
0.0
 40
1.399999999999999
  1
3
100
AcDbText
  0
TEXT
  5
16B
330
18
100
AcDbEntity
  8
2
  6
Continuous
 48
0.25
100
AcDbText
 10
19.9795100642466
 20
9.999999806846602
 30
0.0
 40
1.399999999999999
  1
2
100
AcDbText
  0
TEXT
  5
16C
330
18
100
AcDbEntity
  8
4
  6
CENTER
 48
0.25
100
AcDbText
 10
23.97951006424661
 20
9.999999806846602
 30
0.0
 40
1.399999999999999
  1
4
100
AcDbText
  0
LINE
  5
16D
330
18
100
AcDbEntity
  8
1
  6
Continuous
100
AcDbLine
 10
32.46193578920912
 20
318.6007529482572
 30
0.0
 11
75.46193578920912
 21
318.6007529482572
 31
0.0
  0
LINE
  5
16E
330
18
100
AcDbEntity
  8
1
  6
Continuous
100
AcDbLine
 10
30.71193578920912
 20
319.8007579482571
 30
0.0
 11
53.96193578920911
 21
319.8007579482571
 31
0.0
  0
LINE
  5
16F
330
18
100
AcDbEntity
  8
1
  6
Continuous
100
AcDbLine
 10
24.96193578920918
 20
325.0007549482571
 30
0.0
 11
53.96193578920911
 21
325.0007549482571
 31
0.0
  0
LINE
  5
170
330
18
100
AcDbEntity
  8
1
  6
Continuous
100
AcDbLine
 10
24.96193578920918
 20
327.0007549482571
 30
0.0
 11
53.96193578920911
 21
327.0007549482571
 31
0.0
  0
ARC
  5
171
330
18
100
AcDbEntity
  8
1
  6
Continuous
100
AcDbCircle
 10
53.96193578920911
 20
739.4452449482574
 30
0.0
 40
429.1584799999998
100
AcDbArc
 50
267.9421799999995
 51
272.0578200000003
  0
ARC
  5
172
330
18
100
AcDbEntity
  8
1
  6
Continuous
100
AcDbCircle
 10
53.96193578920911
 20
440.0660749482572
 30
0.0
 40
125.2653199999999
100
AcDbArc
 50
262.6616299999998
 51
277.33837
  0
ARC
  5
173
330
18
100
AcDbEntity
  8
1
  6
Continuous
100
AcDbCircle
 10
43.5060637892091
 20
320.4787519482572
 30
0.0
 40
2.778000099999998
100
AcDbArc
 50
194.12632
 51
222.5338600000001
  0
LINE
  5
174
330
18
100
AcDbEntity
  8
4
  6
CENTER
100
AcDbLine
 10
26.70201778920922
 20
241.5007549482571
 30
0.0
 11
78.96193578920912
 21
241.5007549482571
 31
0.0
  0
ARC
  5
175
330
18
100
AcDbEntity
  8
1
  6
Continuous
100
AcDbCircle
 10
42.46193578920911
 20
181.9802399482571
 30
0.0
 40
2.0
100
AcDbArc
 50
179.9999899999995
 51
260.26348
  0
ARC
  5
176
330
18
100
AcDbEntity
  8
1
  6
Continuous
100
AcDbCircle
 10
53.96193578920911
 20
707.1365249482575
 30
0.0
 40
398.81937
100
AcDbArc
 50
267.7754499999997
 51
272.2245599999995
  0
ARC
  5
177
330
18
100
AcDbEntity
  8
1
  6
Continuous
100
AcDbCircle
 10
42.46193578920911
 20
301.0212739482572
 30
0.0
 40
2.0
100
AcDbArc
 50
99.7365190000003
 51
180.0000100000002
  0
ARC
  5
178
330
18
100
AcDbEntity
  8
1
  6
Continuous
100
AcDbCircle
 10
87.46180608920912
 20
286.1446259482572
 30
0.0
 40
59.0
100
AcDbArc
 50
179.87851
 51
209.2050599999999
  0
LINE
  5
179
330
18
100
AcDbEntity
  8
1
  6
Continuous
100
AcDbLine
 10
35.96193578920911
 20
308.0651619482571
 30
0.0
 11
35.96193578920911
 21
230.0007549482571
 31
0.0
  0
LINE
  5
17A
330
18
100
AcDbEntity
  8
1
  6
Continuous
100
AcDbLine
 10
37.96193578920911
 20
308.1181069482572
 30
0.0
 11
37.96193578920911
 21
230.0007549482571
 31
0.0
  0
LINE
  5
17B
330
18
100
AcDbEntity
  8
1
  6
Continuous
100
AcDbLine
 10
40.4619357892091
 20
301.0212739482572
 30
0.0
 11
40.4619357892091
 21
181.9802399482571
 31
0.0
  0
LINE
  5
17E
330
18
100
AcDbEntity
  8
1
  6
Continuous
100
AcDbLine
 10
29.58695078920914
 20
237.5007549482571
 30
0.0
 11
29.58695078920914
 21
245.5007549482571
 31
0.0
  0
LINE
  5
17F
330
18
100
AcDbEntity
  8
1
  6
Continuous
100
AcDbLine
 10
28.96195078920914
 20
238.1257549482571
 30
0.0
 11
28.96195078920914
 21
244.8757549482571
 31
0.0
  0
LINE
  5
181
330
18
100
AcDbEntity
  8
1
  6
Continuous
100
AcDbLine
 10
38.96193578920911
 20
253.5007549482571
 30
0.0
 11
38.96193578920911
 21
229.5007549482571
 31
0.0
  0
LINE
  5
184
330
18
100
AcDbEntity
  8
1
  6
Continuous
100
AcDbLine
 10
29.58695078920914
 20
237.5007549482571
 30
0.0
 11
28.96195078920914
 21
238.1257559482571
 31
0.0
  0
LINE
  5
185
330
18
100
AcDbEntity
  8
2
  6
Continuous
100
AcDbLine
 10
28.96195078920914
 20
238.1257549482571
 30
0.0
 11
30.96195078920914
 21
238.1257549482571
 31
0.0
  0
LINE
  5
186
330
18
100
AcDbEntity
  8
1
  6
Continuous
100
AcDbLine
 10
29.58695078920914
 20
237.5007549482571
 30
0.0
 11
30.96195078920914
 21
237.5007549482571
 31
0.0
  0
LINE
  5
187
330
18
100
AcDbEntity
  8
1
  6
Continuous
100
AcDbLine
 10
35.96193578920911
 20
230.0007549482571
 30
0.0
 11
37.96193578920911
 21
230.0007549482571
 31
0.0
  0
ARC
  5
188
330
18
100
AcDbEntity
  8
1
  6
Continuous
100
AcDbCircle
 10
41.96193578920911
 20
229.5007549482571
 30
0.0
 40
3.0
100
AcDbArc
 50
179.9999899999995
 51
240.0000100000004
  0
LINE
  5
18D
330
18
100
AcDbEntity
  8
1
  6
Continuous
100
AcDbLine
 10
37.96193578920911
 20
237.5007549482571
 30
0.0
 11
38.96193578920911
 21
237.5007549482571
 31
0.0
  0
LINE
  5
190
330
18
100
AcDbEntity
  8
1
  6
Continuous
100
AcDbLine
 10
28.96195078920914
 20
244.8757549482571
 30
0.0
 11
29.58695078920914
 21
245.5007554482571
 31
0.0
  0
LINE
  5
191
330
18
100
AcDbEntity
  8
2
  6
Continuous
100
AcDbLine
 10
28.96195078920914
 20
244.8757549482571
 30
0.0
 11
30.96195078920914
 21
244.8757549482571
 31
0.0
  0
LINE
  5
192
330
18
100
AcDbEntity
  8
1
  6
Continuous
100
AcDbLine
 10
29.58695078920914
 20
245.5007549482571
 30
0.0
 11
30.96195078920914
 21
245.5007549482571
 31
0.0
  0
LINE
  5
195
330
18
100
AcDbEntity
  8
1
  6
Continuous
100
AcDbLine
 10
37.96193578920911
 20
245.5007549482571
 30
0.0
 11
38.96193578920911
 21
245.5007549482571
 31
0.0
  0
ARC
  5
198
330
18
100
AcDbEntity
  8
1
  6
Continuous
100
AcDbCircle
 10
41.96193578920911
 20
253.5007549482571
 30
0.0
 40
3.0
100
AcDbArc
 50
119.9999999999999
 51
180.0000100000002
  0
ARC
  5
199
330
18
100
AcDbEntity
  8
1
  6
Continuous
100
AcDbCircle
 10
39.5358187892091
 20
320.4787519482572
 30
0.0
 40
2.778000099999998
100
AcDbArc
 50
194.12632
 51
222.5338600000001
  0
ARC
  5
19A
330
18
100
AcDbEntity
  8
1
  6
Continuous
100
AcDbCircle
 10
35.96600978920923
 20
320.4787519482572
 30
0.0
 40
2.778000099999998
100
AcDbArc
 50
194.12632
 51
222.5338600000001
  0
ARC
  5
19B
330
18
100
AcDbEntity
  8
1
  6
Continuous
100
AcDbCircle
 10
36.94002378920913
 20
320.4787519482572
 30
0.0
 40
2.778000099999998
100
AcDbArc
 50
194.12632
 51
222.5338600000001
  0
ARC
  5
19C
330
18
100
AcDbEntity
  8
1
  6
Continuous
100
AcDbCircle
 10
32.46193578920912
 20
315.6007529482571
 30
0.0
 40
3.0
100
AcDbArc
 50
90.00000300000015
 51
178.0507199999998
  0
LINE
  5
19D
330
18
100
AcDbEntity
  8
1
  6
Continuous
100
AcDbLine
 10
28.46194378920916
 20
286.2697369482571
 30
0.0
 11
29.46367578920922
 21
315.7027969482571
 31
0.0
  0
ARC
  5
19E
330
18
100
AcDbEntity
  8
1
  6
Continuous
100
AcDbCircle
 10
38.46193578920911
 20
308.0651619482571
 30
0.0
 40
2.5
100
AcDbArc
 50
87.94217599999962
 51
180.0000100000002
  0
ARC
  5
19F
330
18
100
AcDbEntity
  8
1
  6
Continuous
100
AcDbCircle
 10
38.46193578920911
 20
308.1181069482572
 30
0.0
 40
0.5
100
AcDbArc
 50
87.77543699999972
 51
180.0000100000002
  0
LINE
  5
1A0
330
18
100
AcDbEntity
  8
1
  6
Continuous
100
AcDbLine
 10
24.96193578920918
 20
327.0007549482571
 30
0.0
 11
24.96193578920918
 21
325.0007549482571
 31
0.0
  0
LINE
  5
1A1
330
18
100
AcDbEntity
  8
1
  6
Continuous
100
AcDbLine
 10
28.48747178920916
 20
321.1598049482571
 30
0.0
 11
26.65682078920918
 21
324.7289429482572
 31
0.0
  0
ARC
  5
1A2
330
18
100
AcDbEntity
  8
1
  6
Continuous
100
AcDbCircle
 10
26.21193578920918
 20
324.5007549482572
 30
0.0
 40
0.5
100
AcDbArc
 50
27.15370899999993
 51
90.00000300000015
  0
ARC
  5
1A3
330
18
100
AcDbEntity
  8
1
  6
Continuous
100
AcDbCircle
 10
30.71193578920912
 20
322.3007579482571
 30
0.0
 40
2.5
100
AcDbArc
 50
207.15371
 51
270.0
  0
LINE
  5
1A4
330
18
100
AcDbEntity
  8
4
  6
CENTER
100
AcDbLine
 10
33.96193578920912
 20
330.8452374482572
 30
0.0
 11
33.96193578920912
 21
321.1562724482571
 31
0.0
  0
ARC
  5
1A5
330
18
100
AcDbEntity
  8
1
  6
Continuous
100
AcDbCircle
 10
20.46207278920917
 20
286.1446259482572
 30
0.0
 40
59.0
100
AcDbArc
 50
330.79494
 51
0.1214969899998609
  0
LINE
  5
1A6
330
18
100
AcDbEntity
  8
1
  6
Continuous
100
AcDbLine
 10
69.96193578920912
 20
308.1181069482572
 30
0.0
 11
69.96193578920912
 21
230.0007549482571
 31
0.0
  0
LINE
  5
1A7
330
18
100
AcDbEntity
  8
1
  6
Continuous
100
AcDbLine
 10
71.96193578920912
 20
308.0651619482571
 30
0.0
 11
71.96193578920912
 21
230.0007549482571
 31
0.0
  0
LINE
  5
1A8
330
18
100
AcDbEntity
  8
1
  6
Continuous
100
AcDbLine
 10
67.46193578920906
 20
301.0212739482572
 30
0.0
 11
67.46193578920906
 21
181.9802399482571
 31
0.0
  0
LINE
  5
1A9
330
18
100
AcDbEntity
  8
4
  6
CENTER
100
AcDbLine
 10
53.96193578920911
 20
330.7907559482571
 30
0.0
 11
53.96193578920911
 21
171.8207469482571
 31
0.0
  0
ARC
  5
1AA
330
18
100
AcDbEntity
  8
1
  6
Continuous
100
AcDbCircle
 10
53.96193578920911
 20
249.0007549482571
 30
0.0
 40
70.0
100
AcDbArc
 50
260.26348
 51
279.7365199999997
  0
ARC
  5
1AB
330
18
100
AcDbEntity
  8
1
  6
Continuous
100
AcDbCircle
 10
65.46193578920906
 20
181.9802399482571
 30
0.0
 40
2.0
100
AcDbArc
 50
279.7365199999997
 51
0.0
  0
ARC
  5
1AC
330
18
100
AcDbEntity
  8
1
  6
Continuous
100
AcDbCircle
 10
73.46190478920914
 20
240.0007549482571
 30
0.0
 40
1.5
100
AcDbArc
 50
179.99996
 51
269.9999499999996
  0
ARC
  5
1AD
330
18
100
AcDbEntity
  8
1
  6
Continuous
100
AcDbCircle
 10
74.46190478920915
 20
240.0007549482571
 30
0.0
 40
1.5
100
AcDbArc
 50
269.9999599999999
 51
0.0
  0
LINE
  5
1AE
330
18
100
AcDbEntity
  8
1
  6
Continuous
100
AcDbLine
 10
75.96190478920914
 20
247.5007549482571
 30
0.0
 11
75.96190478920914
 21
235.5007549482571
 31
0.0
  0
LINE
  5
1AF
330
18
100
AcDbEntity
  8
1
  6
Continuous
100
AcDbLine
 10
68.96193578920907
 20
253.5007549482571
 30
0.0
 11
68.96193578920907
 21
229.5007549482571
 31
0.0
  0
LINE
  5
1B0
330
18
100
AcDbEntity
  8
1
  6
Continuous
100
AcDbLine
 10
69.96193578920912
 20
230.0007549482571
 30
0.0
 11
71.96193578920912
 21
230.0007549482571
 31
0.0
  0
ARC
  5
1B1
330
18
100
AcDbEntity
  8
1
  6
Continuous
100
AcDbCircle
 10
65.96193578920907
 20
229.5007549482571
 30
0.0
 40
3.0
100
AcDbArc
 50
299.9999999999999
 51
0.0
  0
LINE
  5
1B2
330
18
100
AcDbEntity
  8
1
  6
Continuous
100
AcDbLine
 10
68.96193578920907
 20
237.5007549482571
 30
0.0
 11
69.96193578920912
 21
237.5007549482571
 31
0.0
  0
ARC
  5
1B3
330
18
100
AcDbEntity
  8
1
  6
Continuous
100
AcDbCircle
 10
74.46190478920915
 20
236.5007549482571
 30
0.0
 40
1.5
100
AcDbArc
 50
0.0
 51
89.99998199999998
  0
ARC
  5
1B4
330
18
100
AcDbEntity
  8
1
  6
Continuous
100
AcDbCircle
 10
74.46190478920915
 20
235.5007549482571
 30
0.0
 40
1.5
100
AcDbArc
 50
269.9999599999999
 51
0.0
  0
LINE
  5
1B5
330
18
100
AcDbEntity
  8
1
  6
Continuous
100
AcDbLine
 10
74.46190478920915
 20
238.5007549482571
 30
0.0
 11
73.46190478920914
 21
238.5007549482571
 31
0.0
  0
LINE
  5
1B6
330
18
100
AcDbEntity
  8
1
  6
Continuous
100
AcDbLine
 10
74.46190478920915
 20
238.000754948257
 30
0.0
 11
73.46190478920914
 21
238.000754948257
 31
0.0
  0
ARC
  5
1B7
330
18
100
AcDbEntity
  8
1
  6
Continuous
100
AcDbCircle
 10
73.46190478920914
 20
236.5007549482571
 30
0.0
 40
1.5
100
AcDbArc
 50
89.99998199999998
 51
179.99996
  0
LINE
  5
1B8
330
18
100
AcDbEntity
  8
1
  6
Continuous
100
AcDbLine
 10
74.46190478920915
 20
234.000754948257
 30
0.0
 11
73.46190478920914
 21
234.000754948257
 31
0.0
  0
ARC
  5
1B9
330
18
100
AcDbEntity
  8
1
  6
Continuous
100
AcDbCircle
 10
73.46190478920914
 20
235.5007549482571
 30
0.0
 40
1.5
100
AcDbArc
 50
179.99996
 51
269.9999499999996
  0
LINE
  5
1BA
330
18
100
AcDbEntity
  8
1
  6
Continuous
100
AcDbLine
 10
68.96193578920907
 20
245.5007549482571
 30
0.0
 11
69.96193578920912
 21
245.5007549482571
 31
0.0
  0
ARC
  5
1BB
330
18
100
AcDbEntity
  8
1
  6
Continuous
100
AcDbCircle
 10
73.46190478920914
 20
246.500754948257
 30
0.0
 40
1.5
100
AcDbArc
 50
179.99996
 51
269.9999499999996
  0
ARC
  5
1BC
330
18
100
AcDbEntity
  8
1
  6
Continuous
100
AcDbCircle
 10
74.46190478920915
 20
246.500754948257
 30
0.0
 40
1.5
100
AcDbArc
 50
269.9999599999999
 51
0.0
  0
ARC
  5
1BD
330
18
100
AcDbEntity
  8
1
  6
Continuous
100
AcDbCircle
 10
74.46190478920915
 20
243.0007549482571
 30
0.0
 40
1.5
100
AcDbArc
 50
0.0
 51
89.99998199999998
  0
LINE
  5
1BE
330
18
100
AcDbEntity
  8
1
  6
Continuous
100
AcDbLine
 10
74.46190478920915
 20
244.5007549482571
 30
0.0
 11
73.46190478920914
 21
244.5007549482571
 31
0.0
  0
LINE
  5
1BF
330
18
100
AcDbEntity
  8
1
  6
Continuous
100
AcDbLine
 10
74.46190478920915
 20
245.0007549482571
 30
0.0
 11
73.46190478920914
 21
245.0007549482571
 31
0.0
  0
ARC
  5
1C0
330
18
100
AcDbEntity
  8
1
  6
Continuous
100
AcDbCircle
 10
73.46190478920914
 20
243.0007549482571
 30
0.0
 40
1.5
100
AcDbArc
 50
89.99998199999998
 51
179.99996
  0
ARC
  5
1C1
330
18
100
AcDbEntity
  8
1
  6
Continuous
100
AcDbCircle
 10
74.46190478920915
 20
247.5007549482571
 30
0.0
 40
1.5
100
AcDbArc
 50
0.0
 51
89.99998199999998
  0
LINE
  5
1C2
330
18
100
AcDbEntity
  8
1
  6
Continuous
100
AcDbLine
 10
74.46190478920915
 20
249.0007549482571
 30
0.0
 11
73.46190478920914
 21
249.0007549482571
 31
0.0
  0
ARC
  5
1C3
330
18
100
AcDbEntity
  8
1
  6
Continuous
100
AcDbCircle
 10
73.46190478920914
 20
247.5007549482571
 30
0.0
 40
1.5
100
AcDbArc
 50
89.99998199999998
 51
179.99996
  0
ARC
  5
1C4
330
18
100
AcDbEntity
  8
1
  6
Continuous
100
AcDbCircle
 10
65.96193578920907
 20
253.5007549482571
 30
0.0
 40
3.0
100
AcDbArc
 50
0.0
 51
60.00000199999967
  0
ARC
  5
1C5
330
18
100
AcDbEntity
  8
1
  6
Continuous
100
AcDbCircle
 10
70.98384778920911
 20
320.4787519482572
 30
0.0
 40
2.778000099999998
100
AcDbArc
 50
317.4661300000003
 51
345.87368
  0
ARC
  5
1C6
330
18
100
AcDbEntity
  8
1
  6
Continuous
100
AcDbCircle
 10
71.95786178920909
 20
320.4787519482572
 30
0.0
 40
2.778000099999998
100
AcDbArc
 50
317.4661300000003
 51
345.87368
  0
ARC
  5
1C7
330
18
100
AcDbEntity
  8
1
  6
Continuous
100
AcDbCircle
 10
68.3880527892091
 20
320.4787519482572
 30
0.0
 40
2.778000099999998
100
AcDbArc
 50
317.4661300000003
 51
345.87368
  0
ARC
  5
1C8
330
18
100
AcDbEntity
  8
1
  6
Continuous
100
AcDbCircle
 10
75.46193578920912
 20
315.6007529482571
 30
0.0
 40
3.0
100
AcDbArc
 50
1.949273900000191
 51
89.99999600000005
  0
ARC
  5
1C9
330
18
100
AcDbEntity
  8
1
  6
Continuous
100
AcDbCircle
 10
64.41780778920912
 20
320.4787519482572
 30
0.0
 40
2.778000099999998
100
AcDbArc
 50
317.4661300000003
 51
345.87368
  0
ARC
  5
1CA
330
18
100
AcDbEntity
  8
1
  6
Continuous
100
AcDbCircle
 10
59.45137678920912
 20
320.4787519482572
 30
0.0
 40
2.778000099999998
100
AcDbArc
 50
317.4661300000003
 51
345.87368
  0
ARC
  5
1CB
330
18
100
AcDbEntity
  8
1
  6
Continuous
100
AcDbCircle
 10
64.41780778920912
 20
320.4787519482572
 30
0.0
 40
2.778000099999998
100
AcDbArc
 50
206.6342499999995
 51
222.5338600000001
  0
ARC
  5
1CC
330
18
100
AcDbEntity
  8
1
  6
Continuous
100
AcDbCircle
 10
53.96193578920911
 20
320.4787519482572
 30
0.0
 40
2.778000099999998
100
AcDbArc
 50
317.4661300000003
 51
345.87368
  0
ARC
  5
1CD
330
18
100
AcDbEntity
  8
1
  6
Continuous
100
AcDbCircle
 10
59.45137678920912
 20
320.4787519482572
 30
0.0
 40
2.778000099999998
100
AcDbArc
 50
194.12632
 51
222.5338600000001
  0
ARC
  5
1CE
330
18
100
AcDbEntity
  8
1
  6
Continuous
100
AcDbCircle
 10
53.96193578920911
 20
320.4787519482572
 30
0.0
 40
2.778000099999998
100
AcDbArc
 50
194.12632
 51
222.5338600000001
  0
ARC
  5
1CF
330
18
100
AcDbEntity
  8
1
  6
Continuous
100
AcDbCircle
 10
43.5060637892091
 20
320.4787519482572
 30
0.0
 40
2.778000099999998
100
AcDbArc
 50
317.4661300000003
 51
333.3657600000002
  0
ARC
  5
1D0
330
18
100
AcDbEntity
  8
1
  6
Continuous
100
AcDbCircle
 10
48.47249478920911
 20
320.4787519482572
 30
0.0
 40
2.778000099999998
100
AcDbArc
 50
194.12632
 51
222.5338600000001
  0
ARC
  5
1D1
330
18
100
AcDbEntity
  8
1
  6
Continuous
100
AcDbCircle
 10
48.47249478920911
 20
320.4787519482572
 30
0.0
 40
2.778000099999998
100
AcDbArc
 50
317.4661300000003
 51
345.87368
  0
LINE
  5
1D2
330
18
100
AcDbEntity
  8
1
  6
Continuous
100
AcDbLine
 10
79.46193878920913
 20
286.2697369482571
 30
0.0
 11
78.46020278920914
 21
315.7027969482571
 31
0.0
  0
ARC
  5
1D3
330
18
100
AcDbEntity
  8
1
  6
Continuous
100
AcDbCircle
 10
53.96193578920911
 20
234.000754948257
 30
0.0
 40
70.0
100
AcDbArc
 50
80.26347899999986
 51
99.7365190000003
  0
ARC
  5
1D4
330
18
100
AcDbEntity
  8
1
  6
Continuous
100
AcDbCircle
 10
65.46193578920906
 20
301.0212739482572
 30
0.0
 40
2.0
100
AcDbArc
 50
0.0
 51
80.26347899999986
  0
ARC
  5
1D5
330
18
100
AcDbEntity
  8
1
  6
Continuous
100
AcDbCircle
 10
69.46193578920912
 20
308.0651619482571
 30
0.0
 40
2.5
100
AcDbArc
 50
0.0
 51
92.05782199999992
  0
ARC
  5
1D6
330
18
100
AcDbEntity
  8
1
  6
Continuous
100
AcDbCircle
 10
69.46193578920912
 20
308.1181069482572
 30
0.0
 40
0.5
100
AcDbArc
 50
0.0
 51
92.22456099999979
  0
LINE
  5
1D7
330
18
100
AcDbEntity
  8
1
  6
Continuous
100
AcDbLine
 10
82.96193578920911
 20
327.0007549482571
 30
0.0
 11
53.96193578920911
 21
327.0007549482571
 31
0.0
  0
LINE
  5
1D8
330
18
100
AcDbEntity
  8
1
  6
Continuous
100
AcDbLine
 10
82.96193578920911
 20
325.0007549482571
 30
0.0
 11
53.96193578920911
 21
325.0007549482571
 31
0.0
  0
LINE
  5
1D9
330
18
100
AcDbEntity
  8
1
  6
Continuous
100
AcDbLine
 10
79.43639678920908
 20
321.1598049482571
 30
0.0
 11
81.26703978920909
 21
324.7289429482572
 31
0.0
  0
LINE
  5
1DA
330
18
100
AcDbEntity
  8
1
  6
Continuous
100
AcDbLine
 10
77.21193578920912
 20
319.8007579482571
 30
0.0
 11
53.96193578920911
 21
319.8007579482571
 31
0.0
  0
LINE
  5
1DB
330
18
100
AcDbEntity
  8
4
  6
CENTER
100
AcDbLine
 10
73.96193578920912
 20
330.8452374482572
 30
0.0
 11
73.96193578920912
 21
321.1562724482571
 31
0.0
  0
ARC
  5
1DC
330
18
100
AcDbEntity
  8
1
  6
Continuous
100
AcDbCircle
 10
77.21193578920912
 20
322.3007579482571
 30
0.0
 40
2.5
100
AcDbArc
 50
270.0
 51
332.84629
  0
LINE
  5
1DD
330
18
100
AcDbEntity
  8
1
  6
Continuous
100
AcDbLine
 10
82.96193578920911
 20
327.0007549482571
 30
0.0
 11
82.96193578920911
 21
325.0007549482571
 31
0.0
  0
ARC
  5
1DE
330
18
100
AcDbEntity
  8
1
  6
Continuous
100
AcDbCircle
 10
81.71193578920911
 20
324.5007549482572
 30
0.0
 40
0.5
100
AcDbArc
 50
90.00000300000015
 51
152.8462899999999
  0
ARC
  5
1DF
330
18
100
AcDbEntity
  8
1
  6
Continuous
100
AcDbCircle
 10
222.899426458982
 20
435.3049184524476
 30
0.0
 40
70.0
100
AcDbArc
 50
170.2634699999997
 51
189.7365199999996
  0
ARC
  5
1E0
330
18
100
AcDbEntity
  8
1
  6
Continuous
100
AcDbCircle
 10
155.8789064589819
 20
423.8049184524476
 30
0.0
 40
2.0
100
AcDbArc
 50
189.7365299999998
 51
270.0
  0
ARC
  5
1E1
330
18
100
AcDbEntity
  8
1
  6
Continuous
100
AcDbCircle
 10
155.8789064589819
 20
446.8049184524478
 30
0.0
 40
2.0
100
AcDbArc
 50
89.99999600000005
 51
170.2634699999997
  0
LINE
  5
1E2
330
18
100
AcDbEntity
  8
1
  6
Continuous
100
AcDbLine
 10
207.1077064589819
 20
308.9936479482572
 30
0.0
 11
203.9125064589818
 21
242.0490175482572
 31
0.0
  0
LINE
  5
1E3
330
18
100
AcDbEntity
  8
1
  6
Continuous
100
AcDbLine
 10
225.3695064589819
 20
235.7694819482571
 30
0.0
 11
265.564606458982
 21
305.6926149482571
 31
0.0
  0
LINE
  5
1E4
330
18
100
AcDbEntity
  8
4
  6
CENTER
100
AcDbLine
 10
215.3994264589818
 20
308.7757569482572
 30
0.0
 11
215.3994264589818
 21
172.5557479482571
 31
0.0
  0
LINE
  5
1E5
330
18
100
AcDbEntity
  8
1
  6
Continuous
100
AcDbLine
 10
237.7786564589818
 20
315.8267899482571
 30
0.0
 11
237.7786564589818
 21
265.690753948257
 31
0.0
  0
ARC
  5
1E6
330
18
100
AcDbEntity
  8
1
  6
Continuous
100
AcDbCircle
 10
215.3994264589818
 20
241.5007549482571
 30
0.0
 40
11.5
100
AcDbArc
 50
177.2674
 51
330.1076899999998
  0
ARC
  5
1E7
330
18
100
AcDbEntity
  8
1
  6
Continuous
100
AcDbCircle
 10
215.3994264589818
 20
241.5007549482571
 30
0.0
 40
15.5
100
AcDbArc
 50
135.16395
 51
12.21115899999998
  0
CIRCLE
  5
1E8
330
18
100
AcDbEntity
  8
1
  6
Continuous
100
AcDbCircle
 10
215.3994264589818
 20
241.5007549482571
 30
0.0
 40
6.3000002
  0
LINE
  5
1E9
330
18
100
AcDbEntity
  8
1
  6
Continuous
100
AcDbLine
 10
208.399426458982
 20
244.1933361482572
 30
0.0
 11
208.399426458982
 21
238.808173948257
 31
0.0
  0
LINE
  5
1EA
330
18
100
AcDbEntity
  8
1
  6
Continuous
100
AcDbLine
 10
222.3994264589819
 20
244.1933361482572
 30
0.0
 11
222.3994264589819
 21
238.808173948257
 31
0.0
  0
ARC
  5
1EB
330
18
100
AcDbEntity
  8
1
  6
Continuous
100
AcDbCircle
 10
215.3994264589818
 20
241.5007549482571
 30
0.0
 40
7.5
100
AcDbArc
 50
261.0394499999999
 51
278.9605599999999
  0
LINE
  5
1EC
330
18
100
AcDbEntity
  8
1
  6
Continuous
100
AcDbLine
 10
209.5675764589818
 20
236.7848619482571
 30
0.0
 11
214.2312764589819
 21
234.0922809482572
 31
0.0
  0
ARC
  5
1ED
330
18
100
AcDbEntity
  8
1
  6
Continuous
100
AcDbCircle
 10
215.3994264589818
 20
241.5007549482571
 30
0.0
 40
7.5
100
AcDbArc
 50
201.0394399999999
 51
218.9605299999999
  0
LINE
  5
1EE
330
18
100
AcDbEntity
  8
1
  6
Continuous
100
AcDbLine
 10
216.5675764589818
 20
234.0922819482571
 30
0.0
 11
221.231276458982
 21
236.7848629482571
 31
0.0
  0
ARC
  5
1EF
330
18
100
AcDbEntity
  8
1
  6
Continuous
100
AcDbCircle
 10
215.3994264589818
 20
241.5007549482571
 30
0.0
 40
7.5
100
AcDbArc
 50
321.0394400000001
 51
338.9605400000001
  0
ARC
  5
1F0
330
18
100
AcDbEntity
  8
1
  6
Continuous
100
AcDbCircle
 10
215.3994264589818
 20
241.5007549482571
 30
0.0
 40
7.5
100
AcDbArc
 50
81.03948399999987
 51
98.96051400000031
  0
CIRCLE
  5
1F1
330
18
100
AcDbEntity
  8
1
  6
Continuous
100
AcDbCircle
 10
215.3994264589818
 20
241.5007549482571
 30
0.0
 40
2.299999999999998
  0
ARC
  5
1F2
330
18
100
AcDbEntity
  8
1
  6
Continuous
100
AcDbCircle
 10
215.3994264589818
 20
241.5007549482571
 30
0.0
 40
7.5
100
AcDbArc
 50
141.03953
 51
158.96056
  0
LINE
  5
1F3
330
18
100
AcDbEntity
  8
1
  6
Continuous
100
AcDbLine
 10
209.5675764589818
 20
246.216630848257
 30
0.0
 11
214.2312764589819
 21
248.9092193482572
 31
0.0
  0
ARC
  5
1F4
330
18
100
AcDbEntity
  8
1
  6
Continuous
100
AcDbCircle
 10
215.3994264589818
 20
241.5007549482571
 30
0.0
 40
7.5
100
AcDbArc
 50
21.03945999999992
 51
38.96051599999968
  0
LINE
  5
1F5
330
18
100
AcDbEntity
  8
1
  6
Continuous
100
AcDbLine
 10
216.5675764589818
 20
248.9092247482571
 30
0.0
 11
221.231276458982
 21
246.2166439482571
 31
0.0
  0
LINE
  5
1F6
330
18
100
AcDbEntity
  8
1
  6
Continuous
100
AcDbLine
 10
204.3994264589819
 20
327.0007549482571
 30
0.0
 11
304.3994264589818
 21
327.0007549482571
 31
0.0
  0
LINE
  5
1F7
330
18
100
AcDbEntity
  8
1
  6
Continuous
100
AcDbLine
 10
204.3994264589819
 20
325.0007549482571
 30
0.0
 11
304.3994264589818
 21
325.0007549482571
 31
0.0
  0
LINE
  5
1F8
330
18
100
AcDbEntity
  8
1
  6
Continuous
100
AcDbLine
 10
232.8994264589819
 20
318.6007529482572
 30
0.0
 11
275.8994264589819
 21
318.6007529482572
 31
0.0
  0
LINE
  5
1F9
330
18
100
AcDbEntity
  8
1
  6
Continuous
100
AcDbLine
 10
277.6494264589818
 20
319.8007579482571
 30
0.0
 11
254.3994264589819
 21
319.8007579482571
 31
0.0
  0
ARC
  5
1FA
330
18
100
AcDbEntity
  8
1
  6
Continuous
100
AcDbCircle
 10
259.8888664589819
 20
320.4787519482572
 30
0.0
 40
2.778000099999998
100
AcDbArc
 50
317.4661300000003
 51
345.87368
  0
ARC
  5
1FB
330
18
100
AcDbEntity
  8
1
  6
Continuous
100
AcDbCircle
 10
264.8552964589819
 20
320.4787519482572
 30
0.0
 40
2.778000099999998
100
AcDbArc
 50
206.6342499999995
 51
222.5338600000001
  0
ARC
  5
1FC
330
18
100
AcDbEntity
  8
1
  6
Continuous
100
AcDbCircle
 10
254.3994264589819
 20
320.4787519482572
 30
0.0
 40
2.778000099999998
100
AcDbArc
 50
317.4661300000003
 51
345.87368
  0
ARC
  5
1FD
330
18
100
AcDbEntity
  8
1
  6
Continuous
100
AcDbCircle
 10
259.8888664589819
 20
320.4787519482572
 30
0.0
 40
2.778000099999998
100
AcDbArc
 50
194.12632
 51
222.5338600000001
  0
ARC
  5
1FE
330
18
100
AcDbEntity
  8
1
  6
Continuous
100
AcDbCircle
 10
254.3994264589819
 20
320.4787519482572
 30
0.0
 40
2.778000099999998
100
AcDbArc
 50
194.12632
 51
222.5338600000001
  0
ARC
  5
1FF
330
18
100
AcDbEntity
  8
1
  6
Continuous
100
AcDbCircle
 10
248.9099864589819
 20
320.4787519482572
 30
0.0
 40
2.778000099999998
100
AcDbArc
 50
317.4661300000003
 51
345.87368
  0
ARC
  5
200
330
18
100
AcDbEntity
  8
1
  6
Continuous
100
AcDbCircle
 10
243.9435564589818
 20
320.4787519482572
 30
0.0
 40
2.778000099999998
100
AcDbArc
 50
317.4661300000003
 51
333.3657600000002
  0
ARC
  5
201
330
18
100
AcDbEntity
  8
1
  6
Continuous
100
AcDbCircle
 10
248.9099864589819
 20
320.4787519482572
 30
0.0
 40
2.778000099999998
100
AcDbArc
 50
194.12632
 51
222.5338600000001
  0
ARC
  5
202
330
18
100
AcDbEntity
  8
1
  6
Continuous
100
AcDbCircle
 10
243.9435564589818
 20
320.4787519482572
 30
0.0
 40
2.778000099999998
100
AcDbArc
 50
194.12632
 51
222.5338600000001
  0
ARC
  5
203
330
18
100
AcDbEntity
  8
1
  6
Continuous
100
AcDbCircle
 10
239.973306458982
 20
320.4787519482572
 30
0.0
 40
2.778000099999998
100
AcDbArc
 50
194.12632
 51
222.5338600000001
  0
ARC
  5
204
330
18
100
AcDbEntity
  8
1
  6
Continuous
100
AcDbCircle
 10
237.3775164589818
 20
320.4787519482572
 30
0.0
 40
2.778000099999998
100
AcDbArc
 50
194.12632
 51
222.5338600000001
  0
ARC
  5
205
330
18
100
AcDbEntity
  8
1
  6
Continuous
100
AcDbCircle
 10
236.4034964589818
 20
320.4787519482572
 30
0.0
 40
2.778000099999998
100
AcDbArc
 50
194.12632
 51
222.5338600000001
  0
LINE
  5
206
330
18
100
AcDbEntity
  8
4
  6
CENTER
100
AcDbLine
 10
254.3994264589819
 20
332.7413779482571
 30
0.0
 11
254.3994264589819
 21
272.7340849482569
 31
0.0
  0
LINE
  5
207
330
18
100
AcDbEntity
  8
1
  6
Continuous
100
AcDbLine
 10
203.8994264589819
 20
310.2867849482572
 30
0.0
 11
235.3183764589819
 21
315.8267899482571
 31
0.0
  0
LINE
  5
208
330
18
100
AcDbEntity
  8
1
  6
Continuous
100
AcDbLine
 10
204.2467364589819
 20
308.3171689482571
 30
0.0
 11
205.8672564589818
 21
308.6029159482571
 31
0.0
  0
ARC
  5
209
330
18
100
AcDbEntity
  8
1
  6
Continuous
100
AcDbCircle
 10
205.6094164589818
 20
309.0651619482571
 30
0.0
 40
1.5
100
AcDbArc
 50
357.2674000000002
 51
100.0000000000001
  0
LINE
  5
20A
330
18
100
AcDbEntity
  8
1
  6
Continuous
100
AcDbLine
 10
203.8994264589819
 20
310.2867849482572
 30
0.0
 11
204.2467364589819
 21
308.3171689482571
 31
0.0
  0
ARC
  5
20B
330
18
100
AcDbEntity
  8
1
  6
Continuous
100
AcDbCircle
 10
206.0409164589819
 20
307.6181069482572
 30
0.0
 40
1.0
100
AcDbArc
 50
357.2674000000002
 51
100.0000000000001
  0
LINE
  5
20C
330
18
100
AcDbEntity
  8
1
  6
Continuous
100
AcDbLine
 10
229.4994364589819
 20
314.8007579482571
 30
0.0
 11
230.0393164589818
 21
316.5061869482571
 31
0.0
  0
ARC
  5
20D
330
18
100
AcDbEntity
  8
1
  6
Continuous
100
AcDbCircle
 10
232.8994264589819
 20
315.6007529482571
 30
0.0
 40
3.0
100
AcDbArc
 50
90.00000300000015
 51
162.4335399999998
  0
LINE
  5
20E
330
18
100
AcDbEntity
  8
1
  6
Continuous
100
AcDbLine
 10
204.3994264589819
 20
327.0007549482571
 30
0.0
 11
204.3994264589819
 21
325.0007549482571
 31
0.0
  0
LINE
  5
20F
330
18
100
AcDbEntity
  8
4
  6
CENTER
100
AcDbLine
 10
213.3994264589819
 20
330.8452374482572
 30
0.0
 11
213.3994264589819
 21
321.1562724482571
 31
0.0
  0
LINE
  5
210
330
18
100
AcDbEntity
  8
1
  6
Continuous
100
AcDbLine
 10
231.1494264589819
 20
319.8007579482571
 30
0.0
 11
254.3994264589819
 21
319.8007579482571
 31
0.0
  0
ARC
  5
211
330
18
100
AcDbEntity
  8
1
  6
Continuous
100
AcDbCircle
 10
231.1494264589819
 20
322.3007579482571
 30
0.0
 40
2.5
100
AcDbArc
 50
207.15371
 51
270.0
  0
ARC
  5
212
330
18
100
AcDbEntity
  8
1
  6
Continuous
100
AcDbCircle
 10
226.6494264589819
 20
324.5007549482572
 30
0.0
 40
0.5
100
AcDbArc
 50
27.15370899999993
 51
90.00000300000015
  0
LINE
  5
213
330
18
100
AcDbEntity
  8
1
  6
Continuous
100
AcDbLine
 10
228.9249664589819
 20
321.1598049482571
 30
0.0
 11
227.0943264589817
 21
324.7289429482572
 31
0.0
  0
ARC
  5
214
330
18
100
AcDbEntity
  8
1
  6
Continuous
100
AcDbCircle
 10
271.421336458982
 20
320.4787519482572
 30
0.0
 40
2.778000099999998
100
AcDbArc
 50
317.4661300000003
 51
345.87368
  0
ARC
  5
215
330
18
100
AcDbEntity
  8
1
  6
Continuous
100
AcDbCircle
 10
272.3953564589819
 20
320.4787519482572
 30
0.0
 40
2.778000099999998
100
AcDbArc
 50
317.4661300000003
 51
345.87368
  0
ARC
  5
216
330
18
100
AcDbEntity
  8
1
  6
Continuous
100
AcDbCircle
 10
275.8994264589819
 20
315.6007529482571
 30
0.0
 40
3.0
100
AcDbArc
 50
0.0
 51
90.00000300000015
  0
ARC
  5
217
330
18
100
AcDbEntity
  8
1
  6
Continuous
100
AcDbCircle
 10
268.8255464589818
 20
320.4787519482572
 30
0.0
 40
2.778000099999998
100
AcDbArc
 50
317.4661300000003
 51
345.87368
  0
ARC
  5
218
330
18
100
AcDbEntity
  8
1
  6
Continuous
100
AcDbCircle
 10
264.8552964589819
 20
320.4787519482572
 30
0.0
 40
2.778000099999998
100
AcDbArc
 50
317.4661300000003
 51
345.87368
  0
ARC
  5
219
330
18
100
AcDbEntity
  8
1
  6
Continuous
100
AcDbCircle
 10
269.8994264589819
 20
303.2007559482571
 30
0.0
 40
5.0
100
AcDbArc
 50
90.00000300000015
 51
150.10768
  0
LINE
  5
21A
330
18
100
AcDbEntity
  8
1
  6
Continuous
100
AcDbLine
 10
269.8994264589819
 20
308.2007559482572
 30
0.0
 11
278.8994264589819
 21
308.2007559482572
 31
0.0
  0
LINE
  5
21B
330
18
100
AcDbEntity
  8
1
  6
Continuous
100
AcDbLine
 10
278.8994264589819
 20
315.6007529482571
 30
0.0
 11
278.8994264589819
 21
308.2007559482572
 31
0.0
  0
ARC
  5
21C
330
18
100
AcDbEntity
  8
1
  6
Continuous
100
AcDbCircle
 10
277.6494264589818
 20
322.3007579482571
 30
0.0
 40
2.5
100
AcDbArc
 50
270.0
 51
332.84629
  0
ARC
  5
21D
330
18
100
AcDbEntity
  8
1
  6
Continuous
100
AcDbCircle
 10
282.1494264589818
 20
324.5007549482572
 30
0.0
 40
0.5
100
AcDbArc
 50
90.00000300000015
 51
152.8462899999999
  0
LINE
  5
21E
330
18
100
AcDbEntity
  8
1
  6
Continuous
100
AcDbLine
 10
279.8738864589819
 20
321.1598199482572
 30
0.0
 11
281.704526458982
 21
324.7289499482572
 31
0.0
  0
LINE
  5
21F
330
18
100
AcDbEntity
  8
4
  6
CENTER
100
AcDbLine
 10
295.3994264589818
 20
330.8452374482572
 30
0.0
 11
295.3994264589818
 21
321.1562724482571
 31
0.0
  0
LINE
  5
220
330
18
100
AcDbEntity
  8
1
  6
Continuous
100
AcDbLine
 10
304.3994264589818
 20
327.0007549482571
 30
0.0
 11
304.3994264589818
 21
325.0007549482571
 31
0.0
  0
LINE
  5
221
330
18
100
AcDbEntity
  8
4
  6
CENTER
100
AcDbLine
 10
254.3994264589819
 20
469.6360732340633
 30
0.0
 11
254.3994264589819
 21
400.5792170468628
 31
0.0
  0
CIRCLE
  5
222
330
18
100
AcDbEntity
  8
1
  6
Continuous
100
AcDbCircle
 10
254.3994264589819
 20
435.3049184524476
 30
0.0
 40
9.5
  0
CIRCLE
  5
223
330
18
100
AcDbEntity
  8
1
  6
Continuous
100
AcDbCircle
 10
254.3994264589819
 20
435.3049184524476
 30
0.0
 40
22.5
  0
CIRCLE
  5
224
330
18
100
AcDbEntity
  8
1
  6
Continuous
100
AcDbCircle
 10
254.3994264589819
 20
435.3049184524476
 30
0.0
 40
24.0
  0
CIRCLE
  5
225
330
18
100
AcDbEntity
  8
1
  6
Continuous
100
AcDbCircle
 10
254.3994264589819
 20
435.3049184524476
 30
0.0
 40
12.25
  0
LINE
  5
226
330
18
100
AcDbEntity
  8
1
  6
Continuous
100
AcDbLine
 10
296.899426458982
 20
464.3049184524477
 30
0.0
 11
254.3994264589819
 21
464.3049184524477
 31
0.0
  0
LINE
  5
227
330
18
100
AcDbEntity
  8
1
  6
Continuous
100
AcDbLine
 10
296.899426458982
 20
406.3049184524476
 30
0.0
 11
254.3994264589819
 21
406.3049184524476
 31
0.0
  0
CIRCLE
  5
228
330
18
100
AcDbEntity
  8
1
  6
Continuous
100
AcDbCircle
 10
213.3994264589819
 20
415.3049184524476
 30
0.0
 40
4.400000099999997
  0
LINE
  5
229
330
18
100
AcDbEntity
  8
4
  6
CENTER
100
AcDbLine
 10
213.3994264589819
 20
409.3049184524478
 30
0.0
 11
213.3994264589819
 21
421.3049184524478
 31
0.0
  0
ARC
  5
22A
330
18
100
AcDbEntity
  8
1
  6
Continuous
100
AcDbCircle
 10
121.9327664589819
 20
435.3049184524476
 30
0.0
 40
85.0
100
AcDbArc
 50
346.5596799999998
 51
13.44032100000005
  0
LINE
  5
22B
330
18
100
AcDbEntity
  8
4
  6
CENTER
100
AcDbLine
 10
215.3994264589818
 20
467.8048984524478
 30
0.0
 11
215.3994264589818
 21
402.8049184524476
 31
0.0
  0
LINE
  5
22C
330
18
100
AcDbEntity
  8
1
  6
Continuous
100
AcDbLine
 10
211.8994264589819
 20
406.3049184524476
 30
0.0
 11
254.3994264589819
 21
406.3049184524476
 31
0.0
  0
ARC
  5
22D
330
18
100
AcDbEntity
  8
1
  6
Continuous
100
AcDbCircle
 10
211.8994264589819
 20
413.8049184524478
 30
0.0
 40
7.5
100
AcDbArc
 50
166.55968
 51
269.9999499999996
  0
LINE
  5
22E
330
18
100
AcDbEntity
  8
4
  6
CENTER
100
AcDbLine
 10
207.3994264589819
 20
415.3049184524476
 30
0.0
 11
219.3994264589818
 21
415.3049184524476
 31
0.0
  0
LINE
  5
22F
330
18
100
AcDbEntity
  8
1
  6
Continuous
100
AcDbLine
 10
211.8994264589819
 20
464.3049184524477
 30
0.0
 11
254.3994264589819
 21
464.3049184524477
 31
0.0
  0
ARC
  5
230
330
18
100
AcDbEntity
  8
1
  6
Continuous
100
AcDbCircle
 10
256.184846458982
 20
435.3049184524476
 30
0.0
 40
52.272331
100
AcDbArc
 50
164.5940099999998
 51
195.40599
  0
LINE
  5
231
330
18
100
AcDbEntity
  8
1
  6
Continuous
100
AcDbLine
 10
205.4132964589819
 20
419.3049184524476
 30
0.0
 11
203.8994264589819
 21
419.3049184524476
 31
0.0
  0
LINE
  5
232
330
18
100
AcDbEntity
  8
1
  6
Continuous
100
AcDbLine
 10
205.5987664589818
 20
420.3049184524478
 30
0.0
 11
203.3994264589819
 21
420.3049184524478
 31
0.0
  0
ARC
  5
233
330
18
100
AcDbEntity
  8
1
  6
Continuous
100
AcDbCircle
 10
203.3994264589819
 20
423.3049184524476
 30
0.0
 40
3.0
100
AcDbArc
 50
210.0
 51
270.0
  0
LINE
  5
234
330
18
100
AcDbEntity
  8
1
  6
Continuous
100
AcDbLine
 10
203.9125064589818
 20
419.3049184524476
 30
0.0
 11
203.9125064589818
 21
417.3049184524478
 31
0.0
  0
LINE
  5
235
330
18
100
AcDbEntity
  8
1
  6
Continuous
100
AcDbLine
 10
205.0050164589818
 20
417.3049184524478
 30
0.0
 11
203.8994264589819
 21
417.3049184524478
 31
0.0
  0
LINE
  5
236
330
18
100
AcDbEntity
  8
1
  6
Continuous
100
AcDbLine
 10
205.4132964589819
 20
451.3049184524478
 30
0.0
 11
203.8994264589819
 21
451.3049184524478
 31
0.0
  0
LINE
  5
237
330
18
100
AcDbEntity
  8
1
  6
Continuous
100
AcDbLine
 10
205.5987664589818
 20
450.3049184524478
 30
0.0
 11
203.3994264589819
 21
450.3049184524478
 31
0.0
  0
ARC
  5
238
330
18
100
AcDbEntity
  8
1
  6
Continuous
100
AcDbCircle
 10
211.8994264589819
 20
456.8049184524476
 30
0.0
 40
7.5
100
AcDbArc
 50
89.99998199999998
 51
193.4402899999998
  0
ARC
  5
239
330
18
100
AcDbEntity
  8
1
  6
Continuous
100
AcDbCircle
 10
203.3994264589819
 20
447.3049184524477
 30
0.0
 40
3.0
100
AcDbArc
 50
89.99999600000005
 51
149.9999999999998
  0
LINE
  5
23A
330
18
100
AcDbEntity
  8
1
  6
Continuous
100
AcDbLine
 10
205.0050164589818
 20
453.3049184524478
 30
0.0
 11
203.8994264589819
 21
453.3049184524478
 31
0.0
  0
LINE
  5
23B
330
18
100
AcDbEntity
  8
1
  6
Continuous
100
AcDbLine
 10
203.9125064589818
 20
453.3049184524478
 30
0.0
 11
203.9125064589818
 21
451.3049184524478
 31
0.0
  0
CIRCLE
  5
23C
330
18
100
AcDbEntity
  8
1
  6
Continuous
100
AcDbCircle
 10
213.3994264589819
 20
455.3049184524478
 30
0.0
 40
4.400000099999997
  0
LINE
  5
23D
330
18
100
AcDbEntity
  8
4
  6
CENTER
100
AcDbLine
 10
213.3994264589819
 20
461.3049184524476
 30
0.0
 11
213.3994264589819
 21
449.3049184524478
 31
0.0
  0
LINE
  5
23E
330
18
100
AcDbEntity
  8
4
  6
CENTER
100
AcDbLine
 10
207.3994264589819
 20
455.3049184524478
 30
0.0
 11
219.3994264589818
 21
455.3049184524478
 31
0.0
  0
CIRCLE
  5
23F
330
18
100
AcDbEntity
  8
1
  6
Continuous
100
AcDbCircle
 10
295.3994264589818
 20
415.3049184524476
 30
0.0
 40
4.400000099999997
  0
LINE
  5
240
330
18
100
AcDbEntity
  8
4
  6
CENTER
100
AcDbLine
 10
295.3994264589818
 20
409.3049184524478
 30
0.0
 11
295.3994264589818
 21
421.3049184524478
 31
0.0
  0
ARC
  5
241
330
18
100
AcDbEntity
  8
1
  6
Continuous
100
AcDbCircle
 10
386.8660964589819
 20
435.3049184524476
 30
0.0
 40
85.0
100
AcDbArc
 50
166.55964
 51
193.4402899999998
  0
ARC
  5
242
330
18
100
AcDbEntity
  8
1
  6
Continuous
100
AcDbCircle
 10
296.899426458982
 20
413.8049184524478
 30
0.0
 40
7.5
100
AcDbArc
 50
270.0000200000004
 51
13.44028200000016
  0
LINE
  5
243
330
18
100
AcDbEntity
  8
4
  6
CENTER
100
AcDbLine
 10
301.399426458982
 20
415.3049184524476
 30
0.0
 11
289.3994264589818
 21
415.3049184524476
 31
0.0
  0
ARC
  5
244
330
18
100
AcDbEntity
  8
1
  6
Continuous
100
AcDbCircle
 10
296.899426458982
 20
456.8049184524476
 30
0.0
 40
7.5
100
AcDbArc
 50
346.5596799999998
 51
89.99998199999998
  0
CIRCLE
  5
245
330
18
100
AcDbEntity
  8
1
  6
Continuous
100
AcDbCircle
 10
295.3994264589818
 20
455.3049184524478
 30
0.0
 40
4.400000099999997
  0
LINE
  5
246
330
18
100
AcDbEntity
  8
4
  6
CENTER
100
AcDbLine
 10
295.3994264589818
 20
461.3049184524476
 30
0.0
 11
295.3994264589818
 21
449.3049184524478
 31
0.0
  0
LINE
  5
247
330
18
100
AcDbEntity
  8
4
  6
CENTER
100
AcDbLine
 10
301.399426458982
 20
455.3049184524478
 30
0.0
 11
289.3994264589818
 21
455.3049184524478
 31
0.0
  0
LINE
  5
434
330
18
100
AcDbEntity
  8
4
  6
CENTER
100
AcDbLine
 10
401.0162105862979
 20
330.7907559482571
 30
0.0
 11
401.0162105862979
 21
171.8207469482571
 31
0.0
  0
LINE
  5
435
330
18
100
AcDbEntity
  8
1
  6
Continuous
100
AcDbLine
 10
387.5162105862979
 20
301.0212739482572
 30
0.0
 11
387.5162105862979
 21
181.9802399482571
 31
0.0
  0
LINE
  5
436
330
18
100
AcDbEntity
  8
1
  6
Continuous
100
AcDbLine
 10
383.0162105862978
 20
257.3563625240551
 30
0.0
 11
383.0162105862978
 21
230.0007549482571
 31
0.0
  0
LINE
  5
437
330
18
100
AcDbEntity
  8
1
  6
Continuous
100
AcDbLine
 10
385.0162105862976
 20
308.2007559482569
 30
0.0
 11
385.0162105862978
 21
230.0007549482571
 31
0.0
  0
ARC
  5
438
330
18
100
AcDbEntity
  8
1
  6
Continuous
100
AcDbCircle
 10
434.5160735862974
 20
286.1446259482572
 30
0.0
 40
59.0
100
AcDbArc
 50
179.8785030100001
 51
209.2050547505716
  0
LINE
  5
439
330
18
100
AcDbEntity
  8
1
  6
Continuous
100
AcDbLine
 10
414.5162105862977
 20
301.0212739482572
 30
0.0
 11
414.5162105862977
 21
181.9802399482571
 31
0.0
  0
LINE
  5
43A
330
18
100
AcDbEntity
  8
1
  6
Continuous
100
AcDbLine
 10
417.0162105862975
 20
308.2007559482568
 30
0.0
 11
417.0162105862978
 21
230.0007549482571
 31
0.0
  0
LINE
  5
43B
330
18
100
AcDbEntity
  8
1
  6
Continuous
100
AcDbLine
 10
419.0162105862976
 20
257.3563755831659
 30
0.0
 11
419.0162105862976
 21
230.0007549482571
 31
0.0
  0
ARC
  5
43C
330
18
100
AcDbEntity
  8
1
  6
Continuous
100
AcDbCircle
 10
367.5163402862977
 20
286.1446259482572
 30
0.0
 40
59.0
100
AcDbArc
 50
330.7949597782412
 51
0.1214899999998352
  0
LINE
  5
444
330
18
100
AcDbEntity
  8
4
  6
CENTER
100
AcDbLine
 10
428.2761285862975
 20
241.5007549482571
 30
0.0
 11
376.0162105862979
 21
241.5007549482571
 31
0.0
  0
LINE
  5
445
330
18
100
AcDbEntity
  8
1
  6
Continuous
100
AcDbLine
 10
426.0161955862976
 20
238.1257549482571
 30
0.0
 11
426.0161955862976
 21
244.8757549482571
 31
0.0
  0
LINE
  5
446
330
18
100
AcDbEntity
  8
1
  6
Continuous
100
AcDbLine
 10
425.3911955862975
 20
237.5007549482571
 30
0.0
 11
425.3911955862975
 21
245.5007549482571
 31
0.0
  0
LINE
  5
44B
330
18
100
AcDbEntity
  8
1
  6
Continuous
100
AcDbLine
 10
425.3911955862975
 20
237.5007549482571
 30
0.0
 11
424.0161955862975
 21
237.5007549482571
 31
0.0
  0
LINE
  5
44C
330
18
100
AcDbEntity
  8
2
  6
Continuous
100
AcDbLine
 10
426.0161955862976
 20
238.1257549482571
 30
0.0
 11
424.0161955862975
 21
238.1257549482571
 31
0.0
  0
LINE
  5
44D
330
18
100
AcDbEntity
  8
1
  6
Continuous
100
AcDbLine
 10
425.3911955862975
 20
237.5007549482571
 30
0.0
 11
426.0161955862976
 21
238.1257559482571
 31
0.0
  0
LINE
  5
452
330
18
100
AcDbEntity
  8
1
  6
Continuous
100
AcDbLine
 10
425.3911955862975
 20
245.5007549482571
 30
0.0
 11
424.0161955862975
 21
245.5007549482571
 31
0.0
  0
LINE
  5
453
330
18
100
AcDbEntity
  8
2
  6
Continuous
100
AcDbLine
 10
426.0161955862976
 20
244.8757549482571
 30
0.0
 11
424.0161955862975
 21
244.8757549482571
 31
0.0
  0
LINE
  5
454
330
18
100
AcDbEntity
  8
1
  6
Continuous
100
AcDbLine
 10
426.0161955862976
 20
244.8757549482571
 30
0.0
 11
425.3911955862975
 21
245.5007554482571
 31
0.0
  0
ARC
  5
457
330
18
100
AcDbEntity
  8
1
  6
Continuous
100
AcDbCircle
 10
389.5162105862977
 20
181.9802399482571
 30
0.0
 40
2.0
100
AcDbArc
 50
180.0
 51
260.2634800000001
  0
ARC
  5
458
330
18
100
AcDbEntity
  8
1
  6
Continuous
100
AcDbCircle
 10
401.0162105862979
 20
249.0007549482571
 30
0.0
 40
70.0
100
AcDbArc
 50
260.2634800000001
 51
279.7365199999997
  0
ARC
  5
459
330
18
100
AcDbEntity
  8
1
  6
Continuous
100
AcDbCircle
 10
412.5162105862978
 20
181.9802399482571
 30
0.0
 40
2.0
100
AcDbArc
 50
279.7365199999997
 51
0.0000100000001992
  0
LINE
  5
45A
330
18
100
AcDbEntity
  8
1
  6
Continuous
100
AcDbLine
 10
416.0162105862978
 20
253.5007549482571
 30
0.0
 11
416.0162105862978
 21
229.5007549482571
 31
0.0
  0
ARC
  5
45B
330
18
100
AcDbEntity
  8
1
  6
Continuous
100
AcDbCircle
 10
413.0162105862978
 20
229.5007549482571
 30
0.0
 40
3.0
100
AcDbArc
 50
299.9999899999995
 51
0.0000100000001992
  0
LINE
  5
45C
330
18
100
AcDbEntity
  8
1
  6
Continuous
100
AcDbLine
 10
417.0162105862978
 20
237.5007549482571
 30
0.0
 11
416.0162105862978
 21
237.5007549482571
 31
0.0
  0
LINE
  5
45D
330
18
100
AcDbEntity
  8
1
  6
Continuous
100
AcDbLine
 10
419.0162105862976
 20
230.0007549482571
 30
0.0
 11
417.0162105862978
 21
230.0007549482571
 31
0.0
  0
LINE
  5
45E
330
18
100
AcDbEntity
  8
1
  6
Continuous
100
AcDbLine
 10
417.0162105862978
 20
245.5007549482571
 30
0.0
 11
416.0162105862978
 21
245.5007549482571
 31
0.0
  0
ARC
  5
45F
330
18
100
AcDbEntity
  8
1
  6
Continuous
100
AcDbCircle
 10
413.0162105862978
 20
253.5007549482571
 30
0.0
 40
3.0
100
AcDbArc
 50
359.9999899999998
 51
60.00000000000006
  0
LINE
  5
460
330
18
100
AcDbEntity
  8
1
  6
Continuous
100
AcDbLine
 10
386.0162105862979
 20
253.5007549482571
 30
0.0
 11
386.0162105862979
 21
229.5007549482571
 31
0.0
  0
LINE
  5
461
330
18
100
AcDbEntity
  8
1
  6
Continuous
100
AcDbLine
 10
379.0162415862976
 20
247.5007549482571
 30
0.0
 11
379.0162415862976
 21
235.5007549482571
 31
0.0
  0
ARC
  5
462
330
18
100
AcDbEntity
  8
1
  6
Continuous
100
AcDbCircle
 10
389.0162105862978
 20
229.5007549482571
 30
0.0
 40
3.0
100
AcDbArc
 50
180.0
 51
240.0
  0
LINE
  5
463
330
18
100
AcDbEntity
  8
1
  6
Continuous
100
AcDbLine
 10
380.5162415862976
 20
234.000754948257
 30
0.0
 11
381.5162415862976
 21
234.000754948257
 31
0.0
  0
LINE
  5
464
330
18
100
AcDbEntity
  8
1
  6
Continuous
100
AcDbLine
 10
380.5162415862976
 20
238.000754948257
 30
0.0
 11
381.5162415862976
 21
238.000754948257
 31
0.0
  0
LINE
  5
465
330
18
100
AcDbEntity
  8
1
  6
Continuous
100
AcDbLine
 10
380.5162415862976
 20
238.5007549482571
 30
0.0
 11
381.5162415862976
 21
238.5007549482571
 31
0.0
  0
ARC
  5
466
330
18
100
AcDbEntity
  8
1
  6
Continuous
100
AcDbCircle
 10
381.5162415862976
 20
235.5007549482571
 30
0.0
 40
1.5
100
AcDbArc
 50
270.0000500000001
 51
0.0000399999999616
  0
ARC
  5
467
330
18
100
AcDbEntity
  8
1
  6
Continuous
100
AcDbCircle
 10
381.5162415862976
 20
236.5007549482571
 30
0.0
 40
1.5
100
AcDbArc
 50
0.0000399999999616
 51
90.00001800000005
  0
LINE
  5
468
330
18
100
AcDbEntity
  8
1
  6
Continuous
100
AcDbLine
 10
386.0162105862979
 20
237.5007549482571
 30
0.0
 11
385.0162105862978
 21
237.5007549482571
 31
0.0
  0
LINE
  5
469
330
18
100
AcDbEntity
  8
1
  6
Continuous
100
AcDbLine
 10
385.0162105862978
 20
230.0007549482571
 30
0.0
 11
383.0162105862978
 21
230.0007549482571
 31
0.0
  0
ARC
  5
46A
330
18
100
AcDbEntity
  8
1
  6
Continuous
100
AcDbCircle
 10
381.5162415862976
 20
240.0007549482571
 30
0.0
 40
1.5
100
AcDbArc
 50
270.0000500000001
 51
0.0000399999999616
  0
ARC
  5
46B
330
18
100
AcDbEntity
  8
1
  6
Continuous
100
AcDbCircle
 10
380.5162415862976
 20
235.5007549482571
 30
0.0
 40
1.5
100
AcDbArc
 50
180.0
 51
270.0000399999999
  0
ARC
  5
46C
330
18
100
AcDbEntity
  8
1
  6
Continuous
100
AcDbCircle
 10
380.5162415862976
 20
236.5007549482571
 30
0.0
 40
1.5
100
AcDbArc
 50
90.00001800000005
 51
180.0
  0
ARC
  5
46D
330
18
100
AcDbEntity
  8
1
  6
Continuous
100
AcDbCircle
 10
380.5162415862976
 20
240.0007549482571
 30
0.0
 40
1.5
100
AcDbArc
 50
180.0
 51
270.0000399999999
  0
LINE
  5
46E
330
18
100
AcDbEntity
  8
1
  6
Continuous
100
AcDbLine
 10
380.5162415862976
 20
249.0007549482571
 30
0.0
 11
381.5162415862976
 21
249.0007549482571
 31
0.0
  0
LINE
  5
46F
330
18
100
AcDbEntity
  8
1
  6
Continuous
100
AcDbLine
 10
380.5162415862976
 20
245.0007549482571
 30
0.0
 11
381.5162415862976
 21
245.0007549482571
 31
0.0
  0
LINE
  5
470
330
18
100
AcDbEntity
  8
1
  6
Continuous
100
AcDbLine
 10
380.5162415862976
 20
244.5007549482571
 30
0.0
 11
381.5162415862976
 21
244.5007549482571
 31
0.0
  0
ARC
  5
471
330
18
100
AcDbEntity
  8
1
  6
Continuous
100
AcDbCircle
 10
381.5162415862976
 20
247.5007549482571
 30
0.0
 40
1.5
100
AcDbArc
 50
0.0000399999999616
 51
90.00001800000005
  0
ARC
  5
472
330
18
100
AcDbEntity
  8
1
  6
Continuous
100
AcDbCircle
 10
381.5162415862976
 20
243.0007549482571
 30
0.0
 40
1.5
100
AcDbArc
 50
0.0000399999999616
 51
90.00001800000005
  0
ARC
  5
473
330
18
100
AcDbEntity
  8
1
  6
Continuous
100
AcDbCircle
 10
381.5162415862976
 20
246.500754948257
 30
0.0
 40
1.5
100
AcDbArc
 50
270.0000500000001
 51
0.0000399999999616
  0
LINE
  5
474
330
18
100
AcDbEntity
  8
1
  6
Continuous
100
AcDbLine
 10
386.0162105862979
 20
245.5007549482571
 30
0.0
 11
385.0162105862978
 21
245.5007549482571
 31
0.0
  0
ARC
  5
475
330
18
100
AcDbEntity
  8
1
  6
Continuous
100
AcDbCircle
 10
380.5162415862976
 20
247.5007549482571
 30
0.0
 40
1.5
100
AcDbArc
 50
90.00001800000005
 51
180.0
  0
ARC
  5
476
330
18
100
AcDbEntity
  8
1
  6
Continuous
100
AcDbCircle
 10
380.5162415862976
 20
243.0007549482571
 30
0.0
 40
1.5
100
AcDbArc
 50
90.00001800000005
 51
180.0
  0
ARC
  5
477
330
18
100
AcDbEntity
  8
1
  6
Continuous
100
AcDbCircle
 10
380.5162415862976
 20
246.500754948257
 30
0.0
 40
1.5
100
AcDbArc
 50
180.0
 51
270.0000399999999
  0
ARC
  5
478
330
18
100
AcDbEntity
  8
1
  6
Continuous
100
AcDbCircle
 10
389.0162105862978
 20
253.5007549482571
 30
0.0
 40
3.0
100
AcDbArc
 50
119.9999980000003
 51
180.0
  0
LINE
  5
47C
330
18
100
AcDbEntity
  8
1
  6
Continuous
100
AcDbLine
 10
430.0162105862977
 20
327.0007549482571
 30
0.0
 11
401.0162105862979
 21
327.0007549482571
 31
0.0
  0
LINE
  5
47D
330
18
100
AcDbEntity
  8
1
  6
Continuous
100
AcDbLine
 10
430.0162105862977
 20
325.0007549482571
 30
0.0
 11
401.0162105862979
 21
325.0007549482571
 31
0.0
  0
LINE
  5
47E
330
18
100
AcDbEntity
  8
1
  6
Continuous
100
AcDbLine
 10
424.2662105862978
 20
319.8007579482571
 30
0.0
 11
401.0162105862979
 21
319.8007579482571
 31
0.0
  0
LINE
  5
47F
330
18
100
AcDbEntity
  8
1
  6
Continuous
100
AcDbLine
 10
422.5162105862978
 20
318.6007529482572
 30
0.0
 11
379.5162105862979
 21
318.6007529482572
 31
0.0
  0
LINE
  5
480
330
18
100
AcDbEntity
  8
1
  6
Continuous
100
AcDbLine
 10
426.5162025862975
 20
286.2697369482571
 30
0.0
 11
425.5144745749569
 21
315.7027973224752
 31
0.0
  0
LINE
  5
481
330
18
100
AcDbEntity
  8
4
  6
CENTER
100
AcDbLine
 10
421.0162105862978
 20
330.8452374482572
 30
0.0
 11
421.0162105862978
 21
321.1562724482571
 31
0.0
  0
LINE
  5
482
330
18
100
AcDbEntity
  8
1
  6
Continuous
100
AcDbLine
 10
430.0162105862977
 20
327.0007549482571
 30
0.0
 11
430.0162105862977
 21
325.0007549482571
 31
0.0
  0
LINE
  5
483
330
18
100
AcDbEntity
  8
1
  6
Continuous
100
AcDbLine
 10
426.4906745862977
 20
321.1598049482571
 30
0.0
 11
428.3213255862976
 21
324.7289429482572
 31
0.0
  0
ARC
  5
484
330
18
100
AcDbEntity
  8
1
  6
Continuous
100
AcDbCircle
 10
428.7662105862977
 20
324.5007549482572
 30
0.0
 40
0.5
100
AcDbArc
 50
89.99999699999987
 51
152.8462909999999
  0
ARC
  5
485
330
18
100
AcDbEntity
  8
1
  6
Continuous
100
AcDbCircle
 10
424.2662105862978
 20
322.3007579482571
 30
0.0
 40
2.5
100
AcDbArc
 50
270.0
 51
332.84629
  0
ARC
  5
486
330
18
100
AcDbEntity
  8
1
  6
Continuous
100
AcDbCircle
 10
422.5162105862978
 20
315.6007529482571
 30
0.0
 40
3.0
100
AcDbArc
 50
1.949280000000194
 51
89.99999699999987
  0
ARC
  5
487
330
18
100
AcDbEntity
  8
1
  6
Continuous
100
AcDbCircle
 10
418.0381225862976
 20
320.4787519482572
 30
0.0
 40
2.778000099999998
100
AcDbArc
 50
317.4661399999997
 51
345.87368
  0
ARC
  5
488
330
18
100
AcDbEntity
  8
1
  6
Continuous
100
AcDbCircle
 10
419.0121365862976
 20
320.4787519482572
 30
0.0
 40
2.778000099999998
100
AcDbArc
 50
317.4661399999997
 51
345.87368
  0
LINE
  5
489
330
18
100
AcDbEntity
  8
1
  6
Continuous
100
AcDbLine
 10
375.5162075862977
 20
286.2697369482571
 30
0.0
 11
376.5179465867743
 21
315.7027970032647
 31
0.0
  0
ARC
  5
48A
330
18
100
AcDbEntity
  8
1
  6
Continuous
100
AcDbCircle
 10
389.5162105862977
 20
301.0212739482572
 30
0.0
 40
2.0
100
AcDbArc
 50
99.73652100000014
 51
180.0
  0
ARC
  5
48B
330
18
100
AcDbEntity
  8
1
  6
Continuous
100
AcDbCircle
 10
401.0162105862979
 20
234.000754948257
 30
0.0
 40
70.0
100
AcDbArc
 50
80.26348099999969
 51
99.73652100000014
  0
ARC
  5
48C
330
18
100
AcDbEntity
  8
1
  6
Continuous
100
AcDbCircle
 10
412.5162105862978
 20
301.0212739482572
 30
0.0
 40
2.0
100
AcDbArc
 50
359.9999899999998
 51
80.26348099999969
  0
LINE
  5
48D
330
18
100
AcDbEntity
  8
1
  6
Continuous
100
AcDbLine
 10
377.7662105862979
 20
319.8007579482571
 30
0.0
 11
401.0162105862979
 21
319.8007579482571
 31
0.0
  0
LINE
  5
48E
330
18
100
AcDbEntity
  8
1
  6
Continuous
100
AcDbLine
 10
372.0162105862979
 20
325.0007549482571
 30
0.0
 11
401.0162105862979
 21
325.0007549482571
 31
0.0
  0
LINE
  5
48F
330
18
100
AcDbEntity
  8
1
  6
Continuous
100
AcDbLine
 10
372.0162105862979
 20
327.0007549482571
 30
0.0
 11
401.0162105862979
 21
327.0007549482571
 31
0.0
  0
ARC
  5
493
330
18
100
AcDbEntity
  8
1
  6
Continuous
100
AcDbCircle
 10
406.5056515862976
 20
320.4787519482572
 30
0.0
 40
2.778000099999998
100
AcDbArc
 50
194.12632
 51
222.5338699999996
  0
ARC
  5
496
330
18
100
AcDbEntity
  8
1
  6
Continuous
100
AcDbCircle
 10
415.4423275862978
 20
320.4787519482572
 30
0.0
 40
2.778000099999998
100
AcDbArc
 50
317.4661399999997
 51
345.87368
  0
ARC
  5
497
330
18
100
AcDbEntity
  8
1
  6
Continuous
100
AcDbCircle
 10
411.4720825862979
 20
320.4787519482572
 30
0.0
 40
2.778000099999998
100
AcDbArc
 50
317.4661399999997
 51
345.87368
  0
ARC
  5
498
330
18
100
AcDbEntity
  8
1
  6
Continuous
100
AcDbCircle
 10
406.5056515862976
 20
320.4787519482572
 30
0.0
 40
2.778000099999998
100
AcDbArc
 50
317.4661399999997
 51
345.87368
  0
ARC
  5
499
330
18
100
AcDbEntity
  8
1
  6
Continuous
100
AcDbCircle
 10
411.4720825862979
 20
320.4787519482572
 30
0.0
 40
2.778000099999998
100
AcDbArc
 50
206.6342399999998
 51
222.5338699999996
  0
ARC
  5
49A
330
18
100
AcDbEntity
  8
1
  6
Continuous
100
AcDbCircle
 10
401.0162105862979
 20
320.4787519482572
 30
0.0
 40
2.778000099999998
100
AcDbArc
 50
317.4661399999997
 51
345.87368
  0
ARC
  5
49B
330
18
100
AcDbEntity
  8
1
  6
Continuous
100
AcDbCircle
 10
395.5267695862977
 20
320.4787519482572
 30
0.0
 40
2.778000099999998
100
AcDbArc
 50
317.4661399999997
 51
345.87368
  0
ARC
  5
49C
330
18
100
AcDbEntity
  8
1
  6
Continuous
100
AcDbCircle
 10
401.0162105862979
 20
320.4787519482572
 30
0.0
 40
2.778000099999998
100
AcDbArc
 50
194.12632
 51
222.5338699999996
  0
ARC
  5
49D
330
18
100
AcDbEntity
  8
1
  6
Continuous
100
AcDbCircle
 10
390.5603385862979
 20
320.4787519482572
 30
0.0
 40
2.778000099999998
100
AcDbArc
 50
317.4661399999997
 51
333.3657500000003
  0
ARC
  5
49E
330
18
100
AcDbEntity
  8
1
  6
Continuous
100
AcDbCircle
 10
395.5267695862977
 20
320.4787519482572
 30
0.0
 40
2.778000099999998
100
AcDbArc
 50
194.12632
 51
222.5338699999996
  0
LINE
  5
49F
330
18
100
AcDbEntity
  8
1
  6
Continuous
100
AcDbLine
 10
372.0162105862979
 20
327.0007549482571
 30
0.0
 11
372.0162105862979
 21
325.0007549482571
 31
0.0
  0
LINE
  5
4A0
330
18
100
AcDbEntity
  8
4
  6
CENTER
100
AcDbLine
 10
381.0162105862977
 20
330.8452374482572
 30
0.0
 11
381.0162105862977
 21
321.1562724482571
 31
0.0
  0
ARC
  5
4A1
330
18
100
AcDbEntity
  8
1
  6
Continuous
100
AcDbCircle
 10
373.2662105862979
 20
324.5007549482572
 30
0.0
 40
0.5
100
AcDbArc
 50
27.15370999999997
 51
89.99999699999987
  0
ARC
  5
4A4
330
18
100
AcDbEntity
  8
1
  6
Continuous
100
AcDbCircle
 10
390.5603385862979
 20
320.4787519482572
 30
0.0
 40
2.778000099999998
100
AcDbArc
 50
194.12632
 51
222.5338699999996
  0
ARC
  5
4A5
330
18
100
AcDbEntity
  8
1
  6
Continuous
100
AcDbCircle
 10
386.5900935862979
 20
320.4787519482572
 30
0.0
 40
2.778000099999998
100
AcDbArc
 50
194.12632
 51
222.5338699999996
  0
ARC
  5
4A6
330
18
100
AcDbEntity
  8
1
  6
Continuous
100
AcDbCircle
 10
383.9942985862977
 20
320.4787519482572
 30
0.0
 40
2.778000099999998
100
AcDbArc
 50
194.12632
 51
222.5338699999996
  0
ARC
  5
4A7
330
18
100
AcDbEntity
  8
1
  6
Continuous
100
AcDbCircle
 10
377.7662105862979
 20
322.3007579482571
 30
0.0
 40
2.5
100
AcDbArc
 50
207.15371
 51
270.0
  0
LINE
  5
4A8
330
18
100
AcDbEntity
  8
1
  6
Continuous
100
AcDbLine
 10
375.5417495862976
 20
321.1598049482571
 30
0.0
 11
373.7111065862976
 21
324.7289429482572
 31
0.0
  0
ARC
  5
4A9
330
18
100
AcDbEntity
  8
1
  6
Continuous
100
AcDbCircle
 10
379.5162105862979
 20
315.6007529482571
 30
0.0
 40
3.0
100
AcDbArc
 50
90.00000399999995
 51
178.0507260999998
  0
ARC
  5
4AA
330
18
100
AcDbEntity
  8
1
  6
Continuous
100
AcDbCircle
 10
383.0202845862976
 20
320.4787519482572
 30
0.0
 40
2.778000099999998
100
AcDbArc
 50
194.12632
 51
222.5338699999996
  0
ARC
  5
542
330
18
100
AcDbEntity
  8
1
  6
Continuous
100
AcDbCircle
 10
586.6329947136136
 20
241.5007549482571
 30
0.0
 40
62.5
100
AcDbArc
 50
130.4951609999999
 51
82.1297620000003
  0
ARC
  5
543
330
18
100
AcDbEntity
  8
1
  6
Continuous
100
AcDbCircle
 10
586.6329947136136
 20
241.5007549482571
 30
0.0
 40
44.5
100
AcDbArc
 50
134.8690510000002
 51
77.75586000000004
  0
ARC
  5
544
330
18
100
AcDbEntity
  8
1
  6
Continuous
100
AcDbCircle
 10
586.6329947136136
 20
241.5007549482571
 30
0.0
 40
31.5
100
AcDbArc
 50
141.3047829999998
 51
71.32013000000029
  0
LINE
  5
545
330
18
100
AcDbEntity
  8
1
  6
Continuous
100
AcDbLine
 10
594.9247147136134
 20
308.9936479482572
 30
0.0
 11
598.1199147136135
 21
242.0490175482572
 31
0.0
  0
LINE
  5
546
330
18
100
AcDbEntity
  8
1
  6
Continuous
100
AcDbLine
 10
576.6629147136136
 20
235.7694819482571
 30
0.0
 11
536.4678147136134
 21
305.6926149482571
 31
0.0
  0
LINE
  5
547
330
18
100
AcDbEntity
  8
4
  6
CENTER
100
AcDbLine
 10
586.6329947136136
 20
308.7757569482572
 30
0.0
 11
586.6329947136136
 21
172.5557479482571
 31
0.0
  0
LINE
  5
54D
330
18
100
AcDbEntity
  8
4
  6
CENTER
100
AcDbLine
 10
657.2929947136135
 20
241.5007549482571
 30
0.0
 11
518.9029847136135
 21
241.5007549482571
 31
0.0
  0
ARC
  5
54E
330
18
100
AcDbEntity
  8
1
  6
Continuous
100
AcDbCircle
 10
586.6329947136136
 20
241.5007549482571
 30
0.0
 40
11.5
100
AcDbArc
 50
209.8923099999999
 51
2.732599999999838
  0
ARC
  5
54F
330
18
100
AcDbEntity
  8
1
  6
Continuous
100
AcDbCircle
 10
586.6329947136136
 20
241.5007549482571
 30
0.0
 40
15.5
100
AcDbArc
 50
167.7888409999999
 51
44.83604999999989
  0
LINE
  5
55D
330
18
100
AcDbEntity
  8
1
  6
Continuous
100
AcDbLine
 10
597.6329947136137
 20
327.0007549482571
 30
0.0
 11
497.6329947136132
 21
327.0007549482571
 31
0.0
  0
LINE
  5
55E
330
18
100
AcDbEntity
  8
1
  6
Continuous
100
AcDbLine
 10
597.6329947136137
 20
325.0007549482571
 30
0.0
 11
497.6329947136132
 21
325.0007549482571
 31
0.0
  0
LINE
  5
55F
330
18
100
AcDbEntity
  8
1
  6
Continuous
100
AcDbLine
 10
598.1329947136137
 20
310.2867849482572
 30
0.0
 11
566.7140447136135
 21
315.8267899482571
 31
0.0
  0
LINE
  5
561
330
18
100
AcDbEntity
  8
4
  6
CENTER
100
AcDbLine
 10
588.6329947136133
 20
330.8452374482572
 30
0.0
 11
588.6329947136133
 21
321.1562724482571
 31
0.0
  0
LINE
  5
562
330
18
100
AcDbEntity
  8
1
  6
Continuous
100
AcDbLine
 10
597.6329947136137
 20
327.0007549482571
 30
0.0
 11
597.6329947136137
 21
325.0007549482571
 31
0.0
  0
LINE
  5
563
330
18
100
AcDbEntity
  8
1
  6
Continuous
100
AcDbLine
 10
597.7856847136137
 20
308.3171689482571
 30
0.0
 11
596.1651647136136
 21
308.6029159482571
 31
0.0
  0
LINE
  5
564
330
18
100
AcDbEntity
  8
1
  6
Continuous
100
AcDbLine
 10
598.1329947136137
 20
310.2867849482572
 30
0.0
 11
597.7856847136137
 21
308.3171689482571
 31
0.0
  0
ARC
  5
565
330
18
100
AcDbEntity
  8
1
  6
Continuous
100
AcDbCircle
 10
596.4230047136136
 20
309.0651619482571
 30
0.0
 40
1.5
100
AcDbArc
 50
79.99999999999983
 51
182.7325999999998
  0
ARC
  5
566
330
18
100
AcDbEntity
  8
1
  6
Continuous
100
AcDbCircle
 10
595.9915047136132
 20
307.6181069482572
 30
0.0
 40
1.0
100
AcDbArc
 50
79.99999999999983
 51
182.7325999999998
  0
LINE
  5
567
330
18
100
AcDbEntity
  8
1
  6
Continuous
100
AcDbLine
 10
564.2537647136132
 20
315.8267899482571
 30
0.0
 11
564.2537647136132
 21
265.690753948257
 31
0.0
  0
LINE
  5
568
330
18
100
AcDbEntity
  8
4
  6
CENTER
100
AcDbLine
 10
547.6329947136132
 20
332.7413779482571
 30
0.0
 11
547.6329947136132
 21
272.7340849482569
 31
0.0
  0
ARC
  5
569
330
18
100
AcDbEntity
  8
1
  6
Continuous
100
AcDbCircle
 10
547.6329947136132
 20
320.4787519482572
 30
0.0
 40
2.778000099999998
100
AcDbArc
 50
317.4661399999997
 51
345.87368
  0
LINE
  5
56A
330
18
100
AcDbEntity
  8
1
  6
Continuous
100
AcDbLine
 10
570.8829947136137
 20
319.8007579482571
 30
0.0
 11
547.6329947136132
 21
319.8007579482571
 31
0.0
  0
LINE
  5
56B
330
18
100
AcDbEntity
  8
1
  6
Continuous
100
AcDbLine
 10
569.1329947136137
 20
318.6007529482572
 30
0.0
 11
526.1329947136132
 21
318.6007529482572
 31
0.0
  0
LINE
  5
56C
330
18
100
AcDbEntity
  8
1
  6
Continuous
100
AcDbLine
 10
572.5329847136134
 20
314.8007579482571
 30
0.0
 11
571.9931047136135
 21
316.5061869482571
 31
0.0
  0
LINE
  5
56D
330
18
100
AcDbEntity
  8
1
  6
Continuous
100
AcDbLine
 10
573.1074547136135
 20
321.1598049482571
 30
0.0
 11
574.9380947136135
 21
324.7289429482572
 31
0.0
  0
ARC
  5
56E
330
18
100
AcDbEntity
  8
1
  6
Continuous
100
AcDbCircle
 10
575.3829947136137
 20
324.5007549482572
 30
0.0
 40
0.5
100
AcDbArc
 50
89.99999699999987
 51
152.8462909999999
  0
ARC
  5
56F
330
18
100
AcDbEntity
  8
1
  6
Continuous
100
AcDbCircle
 10
564.6549047136135
 20
320.4787519482572
 30
0.0
 40
2.778000099999998
100
AcDbArc
 50
317.4661399999997
 51
345.87368
  0
ARC
  5
570
330
18
100
AcDbEntity
  8
1
  6
Continuous
100
AcDbCircle
 10
569.1329947136137
 20
315.6007529482571
 30
0.0
 40
3.0
100
AcDbArc
 50
17.56646000000018
 51
89.99999699999987
  0
ARC
  5
571
330
18
100
AcDbEntity
  8
1
  6
Continuous
100
AcDbCircle
 10
570.8829947136137
 20
322.3007579482571
 30
0.0
 40
2.5
100
AcDbArc
 50
270.0
 51
332.84629
  0
ARC
  5
572
330
18
100
AcDbEntity
  8
1
  6
Continuous
100
AcDbCircle
 10
565.6289247136135
 20
320.4787519482572
 30
0.0
 40
2.778000099999998
100
AcDbArc
 50
317.4661399999997
 51
345.87368
  0
ARC
  5
573
330
18
100
AcDbEntity
  8
1
  6
Continuous
100
AcDbCircle
 10
562.0591147136133
 20
320.4787519482572
 30
0.0
 40
2.778000099999998
100
AcDbArc
 50
317.4661399999997
 51
345.87368
  0
ARC
  5
574
330
18
100
AcDbEntity
  8
1
  6
Continuous
100
AcDbCircle
 10
558.0888647136132
 20
320.4787519482572
 30
0.0
 40
2.778000099999998
100
AcDbArc
 50
317.4661399999997
 51
345.87368
  0
ARC
  5
575
330
18
100
AcDbEntity
  8
1
  6
Continuous
100
AcDbCircle
 10
553.1224347136135
 20
320.4787519482572
 30
0.0
 40
2.778000099999998
100
AcDbArc
 50
194.12632
 51
222.5338699999996
  0
ARC
  5
576
330
18
100
AcDbEntity
  8
1
  6
Continuous
100
AcDbCircle
 10
558.0888647136132
 20
320.4787519482572
 30
0.0
 40
2.778000099999998
100
AcDbArc
 50
206.6342399999998
 51
222.5338699999996
  0
ARC
  5
577
330
18
100
AcDbEntity
  8
1
  6
Continuous
100
AcDbCircle
 10
553.1224347136135
 20
320.4787519482572
 30
0.0
 40
2.778000099999998
100
AcDbArc
 50
317.4661399999997
 51
345.87368
  0
ARC
  5
578
330
18
100
AcDbEntity
  8
1
  6
Continuous
100
AcDbCircle
 10
537.1771247136132
 20
320.4787519482572
 30
0.0
 40
2.778000099999998
100
AcDbArc
 50
194.12632
 51
222.5338699999996
  0
ARC
  5
579
330
18
100
AcDbEntity
  8
1
  6
Continuous
100
AcDbCircle
 10
532.1329947136132
 20
303.2007559482571
 30
0.0
 40
5.0
100
AcDbArc
 50
29.89231999999983
 51
89.99999699999987
  0
LINE
  5
57A
330
18
100
AcDbEntity
  8
1
  6
Continuous
100
AcDbLine
 10
524.3829947136132
 20
319.8007579482571
 30
0.0
 11
547.6329947136132
 21
319.8007579482571
 31
0.0
  0
ARC
  5
57B
330
18
100
AcDbEntity
  8
1
  6
Continuous
100
AcDbCircle
 10
547.6329947136132
 20
320.4787519482572
 30
0.0
 40
2.778000099999998
100
AcDbArc
 50
194.12632
 51
222.5338699999996
  0
ARC
  5
57C
330
18
100
AcDbEntity
  8
1
  6
Continuous
100
AcDbCircle
 10
542.1435547136135
 20
320.4787519482572
 30
0.0
 40
2.778000099999998
100
AcDbArc
 50
317.4661399999997
 51
345.87368
  0
ARC
  5
57D
330
18
100
AcDbEntity
  8
1
  6
Continuous
100
AcDbCircle
 10
542.1435547136135
 20
320.4787519482572
 30
0.0
 40
2.778000099999998
100
AcDbArc
 50
194.12632
 51
222.5338699999996
  0
ARC
  5
57E
330
18
100
AcDbEntity
  8
1
  6
Continuous
100
AcDbCircle
 10
537.1771247136132
 20
320.4787519482572
 30
0.0
 40
2.778000099999998
100
AcDbArc
 50
317.4661399999997
 51
333.3657500000003
  0
LINE
  5
57F
330
18
100
AcDbEntity
  8
1
  6
Continuous
100
AcDbLine
 10
523.1329947136132
 20
315.6007529482571
 30
0.0
 11
523.1329947136132
 21
308.2007559482572
 31
0.0
  0
LINE
  5
580
330
18
100
AcDbEntity
  8
1
  6
Continuous
100
AcDbLine
 10
532.1329947136132
 20
308.2007559482572
 30
0.0
 11
523.1329947136132
 21
308.2007559482572
 31
0.0
  0
ARC
  5
581
330
18
100
AcDbEntity
  8
1
  6
Continuous
100
AcDbCircle
 10
529.6370647136135
 20
320.4787519482572
 30
0.0
 40
2.778000099999998
100
AcDbArc
 50
194.12632
 51
222.5338699999996
  0
ARC
  5
582
330
18
100
AcDbEntity
  8
1
  6
Continuous
100
AcDbCircle
 10
530.6110847136135
 20
320.4787519482572
 30
0.0
 40
2.778000099999998
100
AcDbArc
 50
194.12632
 51
222.5338699999996
  0
ARC
  5
583
330
18
100
AcDbEntity
  8
1
  6
Continuous
100
AcDbCircle
 10
533.2068747136132
 20
320.4787519482572
 30
0.0
 40
2.778000099999998
100
AcDbArc
 50
194.12632
 51
222.5338699999996
  0
ARC
  5
584
330
18
100
AcDbEntity
  8
1
  6
Continuous
100
AcDbCircle
 10
519.8829947136132
 20
324.5007549482572
 30
0.0
 40
0.5
100
AcDbArc
 50
27.15370999999997
 51
89.99999699999987
  0
ARC
  5
585
330
18
100
AcDbEntity
  8
1
  6
Continuous
100
AcDbCircle
 10
526.1329947136132
 20
315.6007529482571
 30
0.0
 40
3.0
100
AcDbArc
 50
89.99999699999987
 51
180.0
  0
ARC
  5
586
330
18
100
AcDbEntity
  8
1
  6
Continuous
100
AcDbCircle
 10
524.3829947136132
 20
322.3007579482571
 30
0.0
 40
2.5
100
AcDbArc
 50
207.15371
 51
270.0
  0
LINE
  5
587
330
18
100
AcDbEntity
  8
1
  6
Continuous
100
AcDbLine
 10
522.1585347136135
 20
321.1598199482572
 30
0.0
 11
520.3278947136133
 21
324.7289499482572
 31
0.0
  0
LINE
  5
589
330
18
100
AcDbEntity
  8
1
  6
Continuous
100
AcDbLine
 10
497.6329947136132
 20
327.0007549482571
 30
0.0
 11
497.6329947136132
 21
325.0007549482571
 31
0.0
  0
LINE
  5
58A
330
18
100
AcDbEntity
  8
4
  6
CENTER
100
AcDbLine
 10
506.6329947136132
 20
330.8452374482572
 30
0.0
 11
506.6329947136132
 21
321.1562724482571
 31
0.0
  0
ARC
  5
60F
330
18
100
AcDbEntity
  8
1
  6
Continuous
100
AcDbCircle
 10
386.8660964589819
 20
67.30658444406663
 30
0.0
 40
85.0
100
AcDbArc
 50
166.5597100000001
 51
193.4403599999999
  0
LINE
  5
611
330
18
100
AcDbEntity
  8
4
  6
CENTER
100
AcDbLine
 10
215.3994264589818
 20
34.80660444406662
 30
0.0
 11
215.3994264589818
 21
99.80658444406664
 31
0.0
  0
ARC
  5
612
330
18
100
AcDbEntity
  8
1
  6
Continuous
100
AcDbCircle
 10
121.9327664589819
 20
67.30658444406663
 30
0.0
 40
85.0
100
AcDbArc
 50
346.5596789999998
 51
347.7742114068425
  0
LINE
  5
615
330
18
100
AcDbEntity
  8
4
  6
CENTER
100
AcDbLine
 10
254.3994264589819
 20
32.97542966245095
 30
0.0
 11
254.3994264589819
 21
102.0322858496516
 31
0.0
  0
ARC
  5
616
330
18
100
AcDbEntity
  8
1
  6
Continuous
100
AcDbCircle
 10
222.899426458982
 20
67.30658444406663
 30
0.0
 40
70.0
100
AcDbArc
 50
170.2634800000002
 51
189.7365300000003
  0
LINE
  5
619
330
18
100
AcDbEntity
  8
1
  6
Continuous
100
AcDbLine
 10
211.8994264589819
 20
96.30658444406662
 30
0.0
 11
254.3994264589819
 21
96.30658444406662
 31
0.0
  0
LINE
  5
61B
330
18
100
AcDbEntity
  8
1
  6
Continuous
100
AcDbLine
 10
274.9199464589817
 20
80.80658444406664
 30
0.0
 11
155.8789064589819
 21
80.80658444406664
 31
0.0
  0
ARC
  5
61C
330
18
100
AcDbEntity
  8
1
  6
Continuous
100
AcDbCircle
 10
155.8789064589819
 20
78.80658444406662
 30
0.0
 40
2.0
100
AcDbArc
 50
90.00000000000005
 51
170.2634700000001
  0
LINE
  5
61D
330
18
100
AcDbEntity
  8
4
  6
CENTER
100
AcDbLine
 10
213.3994264589819
 20
93.30658444406664
 30
0.0
 11
213.3994264589819
 21
81.30658444406662
 31
0.0
  0
ARC
  5
61E
330
18
100
AcDbEntity
  8
1
  6
Continuous
100
AcDbCircle
 10
211.8994264589819
 20
88.80658444406661
 30
0.0
 40
7.5
100
AcDbArc
 50
90.00005000000015
 51
193.4403199999999
  0
LINE
  5
61F
330
18
100
AcDbEntity
  8
1
  6
Continuous
100
AcDbLine
 10
227.3994264589819
 20
82.30658444406662
 30
0.0
 11
203.3994264589819
 21
82.30658444406662
 31
0.0
  0
LINE
  5
620
330
18
100
AcDbEntity
  8
1
  6
Continuous
100
AcDbLine
 10
237.014087808268
 20
83.30658444406664
 30
0.0
 11
203.8994264589819
 21
83.30658444406664
 31
0.0
  0
ARC
  5
621
330
18
100
AcDbEntity
  8
1
  6
Continuous
100
AcDbCircle
 10
203.3994264589819
 20
79.30658444406663
 30
0.0
 40
3.0
100
AcDbArc
 50
90.00000000000005
 51
149.9999999999998
  0
LINE
  5
622
330
18
100
AcDbEntity
  8
1
  6
Continuous
100
AcDbLine
 10
237.014087808268
 20
85.30658444406663
 30
0.0
 11
203.8994264589819
 21
85.30658444406663
 31
0.0
  0
LINE
  5
623
330
18
100
AcDbEntity
  8
1
  6
Continuous
100
AcDbLine
 10
203.9125064589818
 20
83.30658444406664
 30
0.0
 11
203.9125064589818
 21
85.30658444406663
 31
0.0
  0
LINE
  5
624
330
18
100
AcDbEntity
  8
4
  6
CENTER
100
AcDbLine
 10
207.3994264589819
 20
87.30658444406662
 30
0.0
 11
219.3994264589818
 21
87.30658444406662
 31
0.0
  0
ARC
  5
625
330
18
100
AcDbEntity
  8
1
  6
Continuous
100
AcDbCircle
 10
213.3994264589819
 20
87.30658444406662
 30
0.0
 40
4.400000099999997
100
AcDbArc
 50
27.03554522423373
 51
152.964454775766
  0
LINE
  5
626
330
18
100
AcDbEntity
  8
1
  6
Continuous
100
AcDbLine
 10
296.899426458982
 20
96.30658444406662
 30
0.0
 11
254.3994264589819
 21
96.30658444406662
 31
0.0
  0
LINE
  5
627
330
18
100
AcDbEntity
  8
4
  6
CENTER
100
AcDbLine
 10
295.3994264589818
 20
93.30658444406664
 30
0.0
 11
295.3994264589818
 21
81.30658444406662
 31
0.0
  0
ARC
  5
628
330
18
100
AcDbEntity
  8
1
  6
Continuous
100
AcDbCircle
 10
296.899426458982
 20
88.80658444406661
 30
0.0
 40
7.5
100
AcDbArc
 50
346.5597179999999
 51
89.99997999999962
  0
CIRCLE
  5
629
330
18
100
AcDbEntity
  8
1
  6
Continuous
100
AcDbCircle
 10
295.3994264589818
 20
87.30658444406662
 30
0.0
 40
4.400000099999997
  0
LINE
  5
62A
330
18
100
AcDbEntity
  8
4
  6
CENTER
100
AcDbLine
 10
301.399426458982
 20
87.30658444406662
 30
0.0
 11
289.3994264589818
 21
87.30658444406662
 31
0.0
  0
LINE
  5
62B
330
18
100
AcDbEntity
  8
1
  6
Continuous
100
AcDbLine
 10
211.8994264589819
 20
38.30658444406664
 30
0.0
 11
254.3994264589819
 21
38.30658444406664
 31
0.0
  0
LINE
  5
62F
330
18
100
AcDbEntity
  8
4
  6
CENTER
100
AcDbLine
 10
145.515096458982
 20
67.30658444406663
 30
0.0
 11
309.4630499165248
 21
67.30658444406663
 31
0.0
  0
LINE
  5
630
330
18
100
AcDbEntity
  8
1
  6
Continuous
100
AcDbLine
 10
274.9199464589817
 20
53.80658444406662
 30
0.0
 11
155.8789064589819
 21
53.80658444406662
 31
0.0
  0
ARC
  5
632
330
18
100
AcDbEntity
  8
1
  6
Continuous
100
AcDbCircle
 10
155.8789064589819
 20
55.80658444406663
 30
0.0
 40
2.0
100
AcDbArc
 50
189.7365300000003
 51
270.0000039999999
  0
LINE
  5
633
330
18
100
AcDbEntity
  8
4
  6
CENTER
100
AcDbLine
 10
213.3994264589819
 20
41.30658444406662
 30
0.0
 11
213.3994264589819
 21
53.30658444406663
 31
0.0
  0
LINE
  5
635
330
18
100
AcDbEntity
  8
1
  6
Continuous
100
AcDbLine
 10
227.3994264589819
 20
52.30658444406663
 30
0.0
 11
203.3994264589819
 21
52.30658444406663
 31
0.0
  0
LINE
  5
636
330
18
100
AcDbEntity
  8
1
  6
Continuous
100
AcDbLine
 10
237.014087808268
 20
51.30658444406662
 30
0.0
 11
203.8994264589819
 21
51.30658444406662
 31
0.0
  0
LINE
  5
637
330
18
100
AcDbEntity
  8
1
  6
Continuous
100
AcDbLine
 10
203.9125064589818
 20
49.30658444406663
 30
0.0
 11
203.9125064589818
 21
51.30658444406662
 31
0.0
  0
LINE
  5
638
330
18
100
AcDbEntity
  8
1
  6
Continuous
100
AcDbLine
 10
237.014087808268
 20
49.30658444406663
 30
0.0
 11
203.8994264589819
 21
49.30658444406663
 31
0.0
  0
ARC
  5
639
330
18
100
AcDbEntity
  8
1
  6
Continuous
100
AcDbCircle
 10
203.3994264589819
 20
55.30658444406663
 30
0.0
 40
3.0
100
AcDbArc
 50
210.0
 51
270.0000039999999
  0
ARC
  5
63A
330
18
100
AcDbEntity
  8
1
  6
Continuous
100
AcDbCircle
 10
211.8994264589819
 20
45.80658444406663
 30
0.0
 40
7.5
100
AcDbArc
 50
166.5597100000001
 51
270.0000179999999
  0
LINE
  5
63B
330
18
100
AcDbEntity
  8
4
  6
CENTER
100
AcDbLine
 10
207.3994264589819
 20
47.30658444406663
 30
0.0
 11
219.3994264589818
 21
47.30658444406663
 31
0.0
  0
LINE
  5
63C
330
18
100
AcDbEntity
  8
1
  6
Continuous
100
AcDbLine
 10
296.899426458982
 20
38.30658444406664
 30
0.0
 11
254.3994264589819
 21
38.30658444406664
 31
0.0
  0
LINE
  5
63D
330
18
100
AcDbEntity
  8
4
  6
CENTER
100
AcDbLine
 10
295.3994264589818
 20
41.30658444406662
 30
0.0
 11
295.3994264589818
 21
53.30658444406663
 31
0.0
  0
CIRCLE
  5
63E
330
18
100
AcDbEntity
  8
1
  6
Continuous
100
AcDbCircle
 10
295.3994264589818
 20
47.30658444406663
 30
0.0
 40
4.400000099999997
  0
LINE
  5
63F
330
18
100
AcDbEntity
  8
4
  6
CENTER
100
AcDbLine
 10
301.399426458982
 20
47.30658444406663
 30
0.0
 11
289.3994264589818
 21
47.30658444406663
 31
0.0
  0
ARC
  5
640
330
18
100
AcDbEntity
  8
1
  6
Continuous
100
AcDbCircle
 10
296.899426458982
 20
45.80658444406663
 30
0.0
 40
7.5
100
AcDbArc
 50
270.0000179999999
 51
13.44031999999993
  0
ARC
  5
6E3
330
18
100
AcDbEntity
  8
1
  6
Continuous
100
AcDbCircle
 10
207.8994264589816
 20
67.30658444406663
 30
0.0
 40
70.0
100
AcDbArc
 50
350.2634699999997
 51
9.736519999999812
  0
ARC
  5
6E4
330
18
100
AcDbEntity
  8
1
  6
Continuous
100
AcDbCircle
 10
274.9199464589817
 20
55.80658444406663
 30
0.0
 40
2.0
100
AcDbArc
 50
269.9999959999999
 51
350.2634699999997
  0
ARC
  5
6E5
330
18
100
AcDbEntity
  8
1
  6
Continuous
100
AcDbCircle
 10
274.9199464589817
 20
78.80658444406662
 30
0.0
 40
2.0
100
AcDbArc
 50
9.736529999999877
 51
89.99999999999998
  0
ARC
  5
6E6
330
18
100
AcDbEntity
  8
1
  6
Continuous
100
AcDbCircle
 10
227.3994264589819
 20
79.30658444406663
 30
0.0
 40
3.0
100
AcDbArc
 50
30.00000000000015
 51
89.99999999999998
  0
ARC
  5
6E7
330
18
100
AcDbEntity
  8
1
  6
Continuous
100
AcDbCircle
 10
227.3994264589819
 20
55.30658444406663
 30
0.0
 40
3.0
100
AcDbArc
 50
269.9999959999999
 51
329.9999999999998
  0
ARC
  5
6E8
330
18
100
AcDbEntity
  8
1
  6
Continuous
100
AcDbCircle
 10
121.9327664589819
 20
67.30658444406663
 30
0.0
 40
85.0
100
AcDbArc
 50
10.16424862172348
 51
10.8498158629969
  0
ARC
  5
6F7
330
18
100
AcDbEntity
  8
1
  6
Continuous
100
AcDbCircle
 10
254.3994264589819
 20
67.30658444406663
 30
0.0
 40
24.5
100
AcDbArc
 50
229.0006463497952
 51
326.5629545700845
  0
ARC
  5
6F8
330
18
100
AcDbEntity
  8
1
  6
Continuous
100
AcDbCircle
 10
254.3994264589819
 20
67.30658444406663
 30
0.0
 40
22.5
100
AcDbArc
 50
229.0006463497952
 51
323.130102354156
  0
ARC
  5
6F9
330
18
100
AcDbEntity
  8
1
  6
Continuous
100
AcDbCircle
 10
237.014087808268
 20
87.30658444406662
 30
0.0
 40
2.0
100
AcDbArc
 50
270.0
 51
310.9993536502049
  0
ARC
  5
6FA
330
18
100
AcDbEntity
  8
1
  6
Continuous
100
AcDbCircle
 10
237.014087808268
 20
87.30658444406662
 30
0.0
 40
4.0
100
AcDbArc
 50
270.0
 51
310.9993536502049
  0
ARC
  5
6FC
330
18
100
AcDbEntity
  8
1
  6
Continuous
100
AcDbCircle
 10
121.9327664589819
 20
67.30658444406663
 30
0.0
 40
85.0
100
AcDbArc
 50
12.22578859315746
 51
13.44031999999993
  0
ARC
  5
6FD
330
18
100
AcDbEntity
  8
1
  6
Continuous
100
AcDbCircle
 10
237.014087808268
 20
47.30658444406663
 30
0.0
 40
4.0
100
AcDbArc
 50
49.00064634979509
 51
90.00000000000005
  0
ARC
  5
6FE
330
18
100
AcDbEntity
  8
1
  6
Continuous
100
AcDbCircle
 10
237.014087808268
 20
47.30658444406663
 30
0.0
 40
2.0
100
AcDbArc
 50
49.00064634979509
 51
90.00000000000005
  0
ARC
  5
700
330
18
100
AcDbEntity
  8
1
  6
Continuous
100
AcDbCircle
 10
121.9327664589819
 20
67.30658444406663
 30
0.0
 40
85.0
100
AcDbArc
 50
349.1501841370031
 51
349.8357513782766
  0
ARC
  5
701
330
18
100
AcDbEntity
  8
1
  6
Continuous
100
AcDbCircle
 10
254.3994264589819
 20
67.30658444406663
 30
0.0
 40
24.5
100
AcDbArc
 50
33.43704542991547
 51
130.9993536502046
  0
ARC
  5
702
330
18
100
AcDbEntity
  8
1
  6
Continuous
100
AcDbCircle
 10
254.3994264589819
 20
67.30658444406663
 30
0.0
 40
22.5
100
AcDbArc
 50
36.86989764584404
 51
130.9993536502047
  0
ARC
  5
703
330
18
100
AcDbEntity
  8
1
  6
Continuous
100
AcDbCircle
 10
254.3994264589819
 20
67.30658444406663
 30
0.0
 40
24.5
100
AcDbArc
 50
339.7377282747787
 51
20.26227172522133
  0
LINE
  5
70A
330
18
100
AcDbEntity
  8
1
  6
Continuous
100
AcDbLine
 10
218.7744264589819
 20
42.30659944406665
 30
0.0
 11
212.0244264589818
 21
42.30659944406665
 31
0.0
  0
LINE
  5
70B
330
18
100
AcDbEntity
  8
1
  6
Continuous
100
AcDbLine
 10
219.3994264589818
 20
42.93159944406665
 30
0.0
 11
211.3994264589819
 21
42.93159944406665
 31
0.0
  0
LINE
  5
710
330
18
100
AcDbEntity
  8
1
  6
Continuous
100
AcDbLine
 10
219.3994264589818
 20
42.93159944406665
 30
0.0
 11
219.3994264589818
 21
44.30659944406665
 31
0.0
  0
LINE
  5
711
330
18
100
AcDbEntity
  8
2
  6
Continuous
100
AcDbLine
 10
218.7744264589819
 20
42.30659944406665
 30
0.0
 11
218.7744264589819
 21
44.30659944406665
 31
0.0
  0
LINE
  5
712
330
18
100
AcDbEntity
  8
1
  6
Continuous
100
AcDbLine
 10
219.3994264589818
 20
42.93159944406665
 30
0.0
 11
218.7744254589819
 21
42.30659944406665
 31
0.0
  0
LINE
  5
717
330
18
100
AcDbEntity
  8
1
  6
Continuous
100
AcDbLine
 10
211.3994264589819
 20
42.93159944406665
 30
0.0
 11
211.3994264589819
 21
44.30659944406665
 31
0.0
  0
LINE
  5
718
330
18
100
AcDbEntity
  8
2
  6
Continuous
100
AcDbLine
 10
212.0244264589818
 20
42.30659944406665
 30
0.0
 11
212.0244264589818
 21
44.30659944406665
 31
0.0
  0
LINE
  5
719
330
18
100
AcDbEntity
  8
1
  6
Continuous
100
AcDbLine
 10
212.0244264589818
 20
42.30659944406665
 30
0.0
 11
211.3994259589818
 21
42.93159944406665
 31
0.0
  0
LINE
  5
71C
330
18
100
AcDbEntity
  8
1
  6
Continuous
100
AcDbLine
 10
219.3994264589818
 20
51.30658444406662
 30
0.0
 11
219.3994264589818
 21
52.30658444406663
 31
0.0
  0
LINE
  5
71D
330
18
100
AcDbEntity
  8
1
  6
Continuous
100
AcDbLine
 10
211.3994264589819
 20
51.30658444406662
 30
0.0
 11
211.3994264589819
 21
52.30658444406663
 31
0.0
  0
LINE
  5
724
330
18
100
AcDbEntity
  8
1
  6
Continuous
100
AcDbLine
 10
219.3994264589818
 20
82.30658444406655
 30
0.0
 11
219.3994264589818
 21
83.30658444406664
 31
0.0
  0
LINE
  5
72F
330
18
100
AcDbEntity
  8
1
  6
Continuous
100
AcDbLine
 10
211.3994264589819
 20
82.30658444406655
 30
0.0
 11
211.3994264589819
 21
83.30658444406664
 31
0.0
  0
LINE
  5
777
330
18
100
AcDbEntity
  8
1
  6
Continuous
100
AcDbLine
 10
222.0994264432738
 20
89.30657446406669
 30
0.0
 11
208.6994264432739
 21
89.30657446406669
 31
0.0
  0
ARC
  5
778
330
18
100
AcDbEntity
  8
1
  6
Continuous
100
AcDbCircle
 10
219.7312764432738
 20
86.80657446406669
 30
0.0
 40
1.5
100
AcDbArc
 50
270.0000029999976
 51
0.0000100000009873
  0
ARC
  5
779
330
18
100
AcDbEntity
  8
1
  6
Continuous
100
AcDbCircle
 10
219.7312764432738
 20
87.8065744640669
 30
0.0
 40
1.5
100
AcDbArc
 50
359.999989999999
 51
90.0
  0
LINE
  5
77A
330
18
100
AcDbEntity
  8
1
  6
Continuous
100
AcDbLine
 10
221.2312764432737
 20
87.8065744640669
 30
0.0
 11
221.2312764432737
 21
86.80657446406669
 31
0.0
  0
LINE
  5
77B
330
18
100
AcDbEntity
  8
1
  6
Continuous
100
AcDbLine
 10
222.3994264432738
 20
89.00657446406695
 30
0.0
 11
222.3994264432738
 21
85.60658446406682
 31
0.0
  0
ARC
  5
77C
330
18
100
AcDbEntity
  8
1
  6
Continuous
100
AcDbCircle
 10
222.0994264432738
 20
89.00657446406695
 30
0.0
 40
0.30000001
100
AcDbArc
 50
359.999989999999
 51
90.0
  0
ARC
  5
77D
330
18
100
AcDbEntity
  8
1
  6
Continuous
100
AcDbCircle
 10
222.0994264432738
 20
85.60658446406682
 30
0.0
 40
0.30000001
100
AcDbArc
 50
270.0000029999976
 51
0.0000100000009873
  0
ARC
  5
77E
330
18
100
AcDbEntity
  8
1
  6
Continuous
100
AcDbCircle
 10
208.6994264432739
 20
85.60658446406682
 30
0.0
 40
0.30000001
100
AcDbArc
 50
180.0
 51
270.0000029999976
  0
ARC
  5
77F
330
18
100
AcDbEntity
  8
1
  6
Continuous
100
AcDbCircle
 10
211.0675764432737
 20
86.80657446406669
 30
0.0
 40
1.5
100
AcDbArc
 50
180.0
 51
270.0000029999976
  0
ARC
  5
780
330
18
100
AcDbEntity
  8
1
  6
Continuous
100
AcDbCircle
 10
208.6994264432739
 20
89.00657446406695
 30
0.0
 40
0.30000001
100
AcDbArc
 50
90.0
 51
180.0
  0
ARC
  5
781
330
18
100
AcDbEntity
  8
1
  6
Continuous
100
AcDbCircle
 10
211.0675764432737
 20
87.8065744640669
 30
0.0
 40
1.5
100
AcDbArc
 50
90.0
 51
180.0
  0
LINE
  5
782
330
18
100
AcDbEntity
  8
1
  6
Continuous
100
AcDbLine
 10
208.3994264432738
 20
89.00657446406695
 30
0.0
 11
208.3994264432738
 21
85.60658446406682
 31
0.0
  0
LINE
  5
783
330
18
100
AcDbEntity
  8
1
  6
Continuous
100
AcDbLine
 10
209.5675764432737
 20
87.8065744640669
 30
0.0
 11
209.5675764432737
 21
86.80657446406669
 31
0.0
  0
ARC
  5
784
330
18
100
AcDbEntity
  8
1
  6
Continuous
100
AcDbCircle
 10
212.7312764432737
 20
86.80657446406669
 30
0.0
 40
1.5
100
AcDbArc
 50
270.0000029999976
 51
0.0000100000009873
  0
ARC
  5
785
330
18
100
AcDbEntity
  8
1
  6
Continuous
100
AcDbCircle
 10
218.0675764432737
 20
86.80657446406669
 30
0.0
 40
1.5
100
AcDbArc
 50
180.0
 51
270.0000029999976
  0
ARC
  5
786
330
18
100
AcDbEntity
  8
1
  6
Continuous
100
AcDbCircle
 10
212.7312764432737
 20
87.8065744640669
 30
0.0
 40
1.5
100
AcDbArc
 50
359.999989999999
 51
90.0
  0
ARC
  5
787
330
18
100
AcDbEntity
  8
1
  6
Continuous
100
AcDbCircle
 10
218.0675764432737
 20
87.8065744640669
 30
0.0
 40
1.5
100
AcDbArc
 50
90.0
 51
180.0
  0
LINE
  5
788
330
18
100
AcDbEntity
  8
1
  6
Continuous
100
AcDbLine
 10
216.5675764432737
 20
87.8065744640669
 30
0.0
 11
216.5675764432737
 21
86.80657446406669
 31
0.0
  0
LINE
  5
789
330
18
100
AcDbEntity
  8
1
  6
Continuous
100
AcDbLine
 10
214.2312764432737
 20
87.8065744640669
 30
0.0
 11
214.2312764432737
 21
86.80657446406669
 31
0.0
  0
ARC
  5
7C4
330
18
100
AcDbEntity
  8
1
  6
Continuous
100
AcDbCircle
 10
434.5160735862974
 20
286.1446259482572
 30
0.0
 40
57.0
100
AcDbArc
 50
179.8785030100001
 51
208.7118368769778
  0
ARC
  5
7C5
330
18
100
AcDbEntity
  8
1
  6
Continuous
100
AcDbCircle
 10
367.5163402862977
 20
286.1446259482572
 30
0.0
 40
57.0
100
AcDbArc
 50
331.2881773958005
 51
0.1214899999998352
  0
LINE
  5
7C6
330
18
100
AcDbEntity
  8
1
  6
Continuous
100
AcDbLine
 10
424.5173599108621
 20
286.2017078452366
 30
0.0
 11
423.9987750030294
 21
301.4388578088289
 31
0.0
  0
LINE
  5
7C7
330
18
100
AcDbEntity
  8
1
  6
Continuous
100
AcDbLine
 10
377.5150502524986
 20
286.201707573905
 30
0.0
 11
378.03363727264
 21
301.4388587584897
 31
0.0
  0
LINE
  5
7CA
330
18
100
AcDbEntity
  8
1
  6
Continuous
100
AcDbLine
 10
383.0284286004456
 20
308.2007559482569
 30
0.0
 11
419.0039836336577
 21
308.2007559482569
 31
0.0
  0
ARC
  5
7CB
330
18
100
AcDbEntity
  8
1
  6
Continuous
100
AcDbCircle
 10
417.0028256390052
 20
301.2007559482571
 30
0.0
 40
7.0
100
AcDbArc
 50
1.949266247027044
 51
90.0
  0
ARC
  5
7CC
330
18
100
AcDbEntity
  8
1
  6
Continuous
100
AcDbCircle
 10
419.0039836336577
 20
301.2007559482569
 30
0.0
 40
7.0
100
AcDbArc
 50
1.949266247027044
 51
89.99999999999998
  0
ARC
  5
7CD
330
18
100
AcDbEntity
  8
1
  6
Continuous
100
AcDbCircle
 10
385.0295866043434
 20
301.2007559482571
 30
0.0
 40
7.0
100
AcDbArc
 50
89.99999999999994
 51
178.0507259753939
  0
ARC
  5
7CE
330
18
100
AcDbEntity
  8
1
  6
Continuous
100
AcDbCircle
 10
383.0284286004456
 20
301.2007559482571
 30
0.0
 40
7.0
100
AcDbArc
 50
89.99999999999991
 51
178.0507259753939
  0
ARC
  5
B21
330
18
100
AcDbEntity
  8
1
  6
Continuous
100
AcDbCircle
 10
421.0162105862976
 20
256.8399526369375
 30
0.0
 40
4.0
100
AcDbArc
 50
151.2881773958
 51
180.0
  0
ARC
  5
B22
330
18
100
AcDbEntity
  8
1
  6
Continuous
100
AcDbCircle
 10
381.0162105862977
 20
256.8399393097474
 30
0.0
 40
4.0
100
AcDbArc
 50
0.0
 51
28.71183687697767
  0
ARC
  5
B2B
330
18
100
AcDbEntity
  8
1
  6
Continuous
100
AcDbCircle
 10
254.3994264589806
 20
67.30658444406663
 30
0.0
 40
27.75000000000122
100
AcDbArc
 50
220.4397930915554
 51
139.5602069084445
  0
ARC
  5
B2C
330
18
100
AcDbEntity
  8
1
  6
Continuous
100
AcDbCircle
 10
254.3994264589819
 20
67.30658444406663
 30
0.0
 40
17.5
100
AcDbArc
 50
50.48234720282723
 51
129.5176527971727
  0
ARC
  5
B2D
330
18
100
AcDbEntity
  8
1
  6
Continuous
100
AcDbCircle
 10
254.3994264589819
 20
67.30658444406663
 30
0.0
 40
17.5
100
AcDbArc
 50
230.4823472028271
 51
309.5176527971728
  0
LINE
  5
B74
330
18
100
AcDbEntity
  8
1
  6
Continuous
100
AcDbLine
 10
30.96193578920912
 20
235.6364017482571
 30
0.0
 11
30.96193578920912
 21
247.3650966482571
 31
0.0
  0
ARC
  5
B75
330
18
100
AcDbEntity
  8
1
  6
Continuous
100
AcDbCircle
 10
35.72520328920911
 20
236.0757557482571
 30
0.0
 40
4.363269299999998
100
AcDbArc
 50
155.2749389999979
 51
204.7250400000016
  0
LINE
  5
B76
330
18
100
AcDbEntity
  8
1
  6
Continuous
100
AcDbLine
 10
31.76193888920903
 20
234.2507549482571
 30
0.0
 11
35.16193268920898
 21
234.2507549482571
 31
0.0
  0
ARC
  5
B77
330
18
100
AcDbEntity
  8
1
  6
Continuous
100
AcDbCircle
 10
35.09460428920903
 20
235.2484856482571
 30
0.0
 40
1.0
100
AcDbArc
 50
273.8605100000061
 51
330.1500000000033
  0
LINE
  5
B78
330
18
100
AcDbEntity
  8
1
  6
Continuous
100
AcDbLine
 10
31.76199508920905
 20
234.2507892482569
 30
0.0
 11
30.96199058920893
 21
235.6364346482572
 31
0.0
  0
LINE
  5
B79
330
18
100
AcDbEntity
  8
1
  6
Continuous
100
AcDbLine
 10
31.76193888920903
 20
248.7507549482571
 30
0.0
 11
35.16193268920898
 21
248.7507549482571
 31
0.0
  0
LINE
  5
B7A
330
18
100
AcDbEntity
  8
1
  6
Continuous
100
AcDbLine
 10
31.76193888920903
 20
245.1007534482571
 30
0.0
 11
35.16192508920909
 21
245.1007534482571
 31
0.0
  0
LINE
  5
B7B
330
18
100
AcDbEntity
  8
1
  6
Continuous
100
AcDbLine
 10
31.76193888920903
 20
237.9007564482571
 30
0.0
 11
35.16192508920909
 21
237.9007564482571
 31
0.0
  0
ARC
  5
B7D
330
18
100
AcDbEntity
  8
1
  6
Continuous
100
AcDbCircle
 10
35.09460428920903
 20
247.7530242482572
 30
0.0
 40
1.0
100
AcDbArc
 50
29.84999999999644
 51
86.1394929999985
  0
ARC
  5
B7E
330
18
100
AcDbEntity
  8
1
  6
Continuous
100
AcDbCircle
 10
35.09460428920903
 20
246.098484648257
 30
0.0
 40
1.0
100
AcDbArc
 50
266.1397700000037
 51
330.1499900000032
  0
ARC
  5
B7F
330
18
100
AcDbEntity
  8
1
  6
Continuous
100
AcDbCircle
 10
34.96213888920903
 20
238.8805955482571
 30
0.0
 40
1.0
100
AcDbArc
 50
281.5245799999999
 51
1.155210000004073
  0
ARC
  5
B80
330
18
100
AcDbEntity
  8
1
  6
Continuous
100
AcDbCircle
 10
35.09460428920903
 20
236.9030252482571
 30
0.0
 40
1.0
100
AcDbArc
 50
29.85000999999672
 51
93.86022899999934
  0
ARC
  5
B81
330
18
100
AcDbEntity
  8
1
  6
Continuous
100
AcDbCircle
 10
34.96213888920903
 20
244.120914348257
 30
0.0
 40
1.0
100
AcDbArc
 50
358.8447899999958
 51
78.47542999999574
  0
LINE
  5
B82
330
18
100
AcDbEntity
  8
1
  6
Continuous
100
AcDbLine
 10
31.761903589209
 20
248.7507606482571
 30
0.0
 11
30.96190288920894
 21
247.3651138482571
 31
0.0
  0
ARC
  5
B83
330
18
100
AcDbEntity
  8
1
  6
Continuous
100
AcDbCircle
 10
35.72520328920911
 20
246.9257541482571
 30
0.0
 40
4.363265
100
AcDbArc
 50
155.2749389999979
 51
204.7250299999989
  0
ARC
  5
B84
330
18
100
AcDbEntity
  8
1
  6
Continuous
100
AcDbCircle
 10
47.76186978920899
 20
241.5007549482571
 30
0.0
 40
16.399935
100
AcDbArc
 50
167.3195809999997
 51
192.6803999999995
  0
LINE
  5
B86
330
18
100
AcDbEntity
  8
1
  6
Continuous
100
AcDbLine
 10
580.5054957136136
 20
237.532913848257
 30
0.0
 11
586.2604937136137
 21
234.2102647482571
 31
0.0
  0
LINE
  5
B87
330
18
100
AcDbEntity
  8
1
  6
Continuous
100
AcDbLine
 10
587.0054957136136
 20
234.2102657482571
 30
0.0
 11
592.7604937136137
 21
237.5329149482571
 31
0.0
  0
CIRCLE
  5
B88
330
18
100
AcDbEntity
  8
1
  6
Continuous
100
AcDbCircle
 10
586.6329947136136
 20
241.5007549482571
 30
0.0
 40
6.400000099999997
  0
ARC
  5
B89
330
18
100
AcDbEntity
  8
1
  6
Continuous
100
AcDbCircle
 10
586.6329947136136
 20
241.5007549482571
 30
0.0
 40
7.3000002
100
AcDbArc
 50
267.0750600000002
 51
272.9249299999986
  0
LINE
  5
B8A
330
18
100
AcDbEntity
  8
1
  6
Continuous
100
AcDbLine
 10
583.2126337136136
 20
244.4249898482571
 30
0.0
 11
582.9491077136136
 21
244.8814319482571
 31
0.0
  0
ARC
  5
B8B
330
18
100
AcDbEntity
  8
1
  6
Continuous
100
AcDbCircle
 10
586.6329947136136
 20
241.5007549482571
 30
0.0
 40
5.0
100
AcDbArc
 50
102.5423900000058
 51
137.4576000000045
  0
LINE
  5
B8C
330
18
100
AcDbEntity
  8
1
  6
Continuous
100
AcDbLine
 10
583.2126337136136
 20
238.5765200482571
 30
0.0
 11
582.9491077136136
 21
238.1200779482571
 31
0.0
  0
LINE
  5
B8D
330
18
100
AcDbEntity
  8
1
  6
Continuous
100
AcDbLine
 10
580.5054957136136
 20
245.468596048257
 30
0.0
 11
586.2604937136137
 21
248.7912451482571
 31
0.0
  0
CIRCLE
  5
B8E
330
18
100
AcDbEntity
  8
1
  6
Continuous
100
AcDbCircle
 10
586.6329947136136
 20
241.5007549482571
 30
0.0
 40
4.0
  0
CIRCLE
  5
B8F
330
18
100
AcDbEntity
  8
1
  6
Continuous
100
AcDbCircle
 10
586.6329947136136
 20
241.5007549482571
 30
0.0
 40
4.5
  0
ARC
  5
B90
330
18
100
AcDbEntity
  8
1
  6
Continuous
100
AcDbCircle
 10
586.6329947136136
 20
241.5007549482571
 30
0.0
 40
5.0
100
AcDbArc
 50
222.5423999999953
 51
257.457609999994
  0
ARC
  5
B91
330
18
100
AcDbEntity
  8
1
  6
Continuous
100
AcDbCircle
 10
586.6329947136136
 20
241.5007549482571
 30
0.0
 40
7.3000002
100
AcDbArc
 50
147.0750599999981
 51
152.9249300000014
  0
ARC
  5
B92
330
18
100
AcDbEntity
  8
1
  6
Continuous
100
AcDbCircle
 10
586.6329947136136
 20
241.5007549482571
 30
0.0
 40
7.3000002
100
AcDbArc
 50
207.0750699999984
 51
212.9249400000019
  0
LINE
  5
B93
330
18
100
AcDbEntity
  8
1
  6
Continuous
100
AcDbLine
 10
580.1329947136133
 20
244.8234044482571
 30
0.0
 11
580.1329947136133
 21
238.1781054482571
 31
0.0
  0
ARC
  5
B94
330
18
100
AcDbEntity
  8
1
  6
Continuous
100
AcDbCircle
 10
586.6329947136136
 20
241.5007549482571
 30
0.0
 40
7.3000002
100
AcDbArc
 50
27.07506599999929
 51
32.92493400000118
  0
ARC
  5
B95
330
18
100
AcDbEntity
  8
1
  6
Continuous
100
AcDbCircle
 10
586.6329947136136
 20
241.5007549482571
 30
0.0
 40
7.3000002
100
AcDbArc
 50
87.07507000000139
 51
92.92493499999912
  0
LINE
  5
B96
330
18
100
AcDbEntity
  8
1
  6
Continuous
100
AcDbLine
 10
587.0054957136136
 20
248.7912441482571
 30
0.0
 11
592.7604937136137
 21
245.4685949482571
 31
0.0
  0
ARC
  5
B97
330
18
100
AcDbEntity
  8
1
  6
Continuous
100
AcDbCircle
 10
586.6329947136136
 20
241.5007549482571
 30
0.0
 40
7.3000002
100
AcDbArc
 50
327.0750699999986
 51
332.9249300000014
  0
ARC
  5
B98
330
18
100
AcDbEntity
  8
1
  6
Continuous
100
AcDbCircle
 10
586.6329947136136
 20
241.5007549482571
 30
0.0
 40
5.0
100
AcDbArc
 50
342.5423999999988
 51
17.4576030000056
  0
LINE
  5
B99
330
18
100
AcDbEntity
  8
1
  6
Continuous
100
AcDbLine
 10
590.8756357136136
 20
243.0007549482571
 30
0.0
 11
591.4026897136137
 21
243.0007549482571
 31
0.0
  0
LINE
  5
B9A
330
18
100
AcDbEntity
  8
1
  6
Continuous
100
AcDbLine
 10
590.8756357136136
 20
240.0007549482571
 30
0.0
 11
591.4026897136137
 21
240.0007549482571
 31
0.0
  0
LINE
  5
B9B
330
18
100
AcDbEntity
  8
1
  6
Continuous
100
AcDbLine
 10
593.1329947136133
 20
244.8234044482571
 30
0.0
 11
593.1329947136133
 21
238.1781054482571
 31
0.0
  0
LINE
  5
B9C
330
18
100
AcDbEntity
  8
1
  6
Continuous
100
AcDbLine
 10
585.8107097136135
 20
245.9249898482571
 30
0.0
 11
585.5471827136137
 21
246.381431648257
 31
0.0
  0
LINE
  5
B9D
330
18
100
AcDbEntity
  8
1
  6
Continuous
100
AcDbLine
 10
585.8107097136135
 20
237.0765200482571
 30
0.0
 11
585.5471827136137
 21
236.6200782482571
 31
0.0
  0
CIRCLE
  5
B9E
330
18
100
AcDbEntity
  8
2
  6
Continuous
100
AcDbCircle
 10
586.6329947136136
 20
241.5007549482571
 30
0.0
 40
3.375
  0
LINE
  5
B9F
330
18
100
AcDbEntity
  8
1
  6
Continuous
100
AcDbLine
 10
208.8994264589818
 20
44.67358062589346
 30
0.0
 11
208.8994264589818
 21
48.37192454406738
 31
0.0
  0
LINE
  5
BA0
330
18
100
AcDbEntity
  8
1
  6
Continuous
100
AcDbLine
 10
215.3994293115601
 20
45.10659099839357
 30
0.0
 11
215.3994293115601
 21
48.50657719839365
 31
0.0
  0
LINE
  5
BA2
330
18
100
AcDbEntity
  8
1
  6
Continuous
100
AcDbLine
 10
221.8994264589819
 20
44.67358062589357
 30
0.0
 11
221.8994264589819
 21
48.37192454406556
 31
0.0
  0
ARC
  5
BA3
330
18
100
AcDbEntity
  8
1
  6
Continuous
100
AcDbCircle
 10
212.148291893381
 20
58.11876819938209
 30
0.0
 40
13.41218555531533
100
AcDbArc
 50
255.9716747596946
 51
284.0283252403052
  0
LINE
  5
BA4
330
18
100
AcDbEntity
  8
1
  6
Continuous
100
AcDbLine
 10
209.5350732589817
 20
44.30658444406674
 30
0.0
 11
221.2637681589818
 21
44.30658444406674
 31
0.0
  0
LINE
  5
BA5
330
18
100
AcDbEntity
  8
1
  6
Continuous
100
AcDbLine
 10
208.8994264589818
 20
44.67358062589346
 30
0.0
 11
209.5350847589818
 21
44.30658444406674
 31
0.0
  0
LINE
  5
BA6
330
18
100
AcDbEntity
  8
1
  6
Continuous
100
AcDbLine
 10
221.8994264589819
 20
44.67358062589357
 30
0.0
 11
221.2637681589818
 21
44.30658444406674
 31
0.0
  0
ARC
  5
BA7
330
18
100
AcDbEntity
  8
1
  6
Continuous
100
AcDbCircle
 10
218.6505610245826
 20
58.11876819938209
 30
0.0
 40
13.41218555531533
100
AcDbArc
 50
255.9716747596946
 51
284.0283252403052
  0
ARC
  5
BA9
330
18
100
AcDbEntity
  8
1
  6
Continuous
100
AcDbCircle
 10
209.8971573277804
 20
48.43925294406663
 30
0.0
 40
1.0
100
AcDbArc
 50
119.8500099999957
 51
183.8605536375327
  0
ARC
  5
BAA
330
18
100
AcDbEntity
  8
1
  6
Continuous
100
AcDbCircle
 10
214.3994236064036
 20
48.43925294406663
 30
0.0
 40
1.0
100
AcDbArc
 50
0.0
 51
60.14999000000429
  0
ARC
  5
BAB
330
18
100
AcDbEntity
  8
1
  6
Continuous
100
AcDbCircle
 10
216.3994293115601
 20
48.43925294406663
 30
0.0
 40
1.0
100
AcDbArc
 50
119.8500099999957
 51
180.0
  0
ARC
  5
BAC
330
18
100
AcDbEntity
  8
1
  6
Continuous
100
AcDbCircle
 10
220.9016955901834
 20
48.43925294406663
 30
0.0
 40
1.0
100
AcDbArc
 50
356.1394463623626
 51
60.14999000000429
  0
ARC
  5
BAF
330
18
100
AcDbEntity
  8
1
  6
Continuous
100
AcDbCircle
 10
419.2529430862978
 20
236.0757557482571
 30
0.0
 40
4.363269299999998
100
AcDbArc
 50
335.2749599999983
 51
24.72506100000203
  0
LINE
  5
BB0
330
18
100
AcDbEntity
  8
1
  6
Continuous
100
AcDbLine
 10
424.0162105862976
 20
235.6364017482571
 30
0.0
 11
424.0162105862976
 21
247.3650966482571
 31
0.0
  0
LINE
  5
BB2
330
18
100
AcDbEntity
  8
1
  6
Continuous
100
AcDbLine
 10
423.2162074862978
 20
234.2507549482571
 30
0.0
 11
419.8162136862978
 21
234.2507549482571
 31
0.0
  0
ARC
  5
BB3
330
18
100
AcDbEntity
  8
1
  6
Continuous
100
AcDbCircle
 10
419.8835420862979
 20
235.2484856482571
 30
0.0
 40
1.0
100
AcDbArc
 50
209.8499999999964
 51
266.1394899999939
  0
LINE
  5
BB4
330
18
100
AcDbEntity
  8
1
  6
Continuous
100
AcDbLine
 10
423.2161512862978
 20
234.2507892482569
 30
0.0
 11
424.016155786298
 21
235.6364346482572
 31
0.0
  0
LINE
  5
BB6
330
18
100
AcDbEntity
  8
1
  6
Continuous
100
AcDbLine
 10
423.2162074862978
 20
237.9007564482571
 30
0.0
 11
419.8162212862978
 21
237.9007564482571
 31
0.0
  0
LINE
  5
BB7
330
18
100
AcDbEntity
  8
1
  6
Continuous
100
AcDbLine
 10
423.2162074862978
 20
245.1007534482571
 30
0.0
 11
419.8162212862978
 21
245.1007534482571
 31
0.0
  0
LINE
  5
BB8
330
18
100
AcDbEntity
  8
1
  6
Continuous
100
AcDbLine
 10
423.2162074862978
 20
248.7507549482571
 30
0.0
 11
419.8162136862978
 21
248.7507549482571
 31
0.0
  0
ARC
  5
BB9
330
18
100
AcDbEntity
  8
1
  6
Continuous
100
AcDbCircle
 10
420.0160074862979
 20
244.120914348257
 30
0.0
 40
1.0
100
AcDbArc
 50
101.5245700000041
 51
181.155210000004
  0
ARC
  5
BBA
330
18
100
AcDbEntity
  8
1
  6
Continuous
100
AcDbCircle
 10
419.8835420862979
 20
236.9030252482571
 30
0.0
 40
1.0
100
AcDbArc
 50
86.13977100000067
 51
150.1499900000033
  0
ARC
  5
BBB
330
18
100
AcDbEntity
  8
1
  6
Continuous
100
AcDbCircle
 10
420.0160074862979
 20
238.8805955482571
 30
0.0
 40
1.0
100
AcDbArc
 50
178.8447899999959
 51
258.4754200000001
  0
ARC
  5
BBC
330
18
100
AcDbEntity
  8
1
  6
Continuous
100
AcDbCircle
 10
419.8835420862979
 20
246.098484648257
 30
0.0
 40
1.0
100
AcDbArc
 50
209.8500099999966
 51
273.8602299999961
  0
ARC
  5
BBD
330
18
100
AcDbEntity
  8
1
  6
Continuous
100
AcDbCircle
 10
419.8835420862979
 20
247.7530242482572
 30
0.0
 40
1.0
100
AcDbArc
 50
93.86050700000151
 51
150.1500000000035
  0
ARC
  5
BBE
330
18
100
AcDbEntity
  8
1
  6
Continuous
100
AcDbCircle
 10
419.2529430862978
 20
246.9257541482571
 30
0.0
 40
4.363265
100
AcDbArc
 50
335.2749700000011
 51
24.72506100000203
  0
LINE
  5
BBF
330
18
100
AcDbEntity
  8
1
  6
Continuous
100
AcDbLine
 10
423.2162427862979
 20
248.7507606482571
 30
0.0
 11
424.016243486298
 21
247.3651138482571
 31
0.0
  0
ARC
  5
BC0
330
18
100
AcDbEntity
  8
1
  6
Continuous
100
AcDbCircle
 10
407.2162765862978
 20
241.5007549482571
 30
0.0
 40
16.399935
100
AcDbArc
 50
347.3196000000003
 51
12.6804190000001
  0
ENDSEC
  0
SECTION
  2
OBJECTS
  0
DICTIONARY
  5
C
330
0
100
AcDbDictionary
281
     1
  3
ACAD_CIP_PREVIOUS_PRODUCT_INFO
350
C41
  3
ACAD_COLOR
350
C24
  3
ACAD_DETAILVIEWSTYLE
350
C3D
  3
ACAD_GROUP
350
D
  3
ACAD_LAYOUT
350
5D
  3
ACAD_MATERIAL
350
BF2
  3
ACAD_MLEADERSTYLE
350
C39
  3
ACAD_MLINESTYLE
350
1B
  3
ACAD_PLOTSETTINGS
350
5E
  3
ACAD_PLOTSTYLENAME
350
BF0
  3
ACAD_SCALELIST
350
C27
  3
ACAD_SECTIONVIEWSTYLE
350
C3B
  3
ACAD_TABLESTYLE
350
C25
  3
ACAD_VISUALSTYLE
350
C0B
  3
ACDB_RECOMPOSE_DATA
350
C5F
  3
AcDbVariableDictionary
350
C52
  3
CONTENTDICTIONARY
350
3D
  3
DWGPROPS
350
C60
  0
DICTIONARY
  5
C42
330
E
100
AcDbDictionary
280
     1
281
     1
  3
ADSK_XREC_LAYER_RECONCILED
360
C43
  0
DICTIONARY
  5
C44
330
65
100
AcDbDictionary
280
     1
281
     1
  3
ADSK_XREC_LAYER_RECONCILED
360
C45
  0
DICTIONARY
  5
C46
330
66
100
AcDbDictionary
280
     1
281
     1
  3
ADSK_XREC_LAYER_RECONCILED
360
C47
  0
DICTIONARY
  5
C48
330
67
100
AcDbDictionary
280
     1
281
     1
  3
ADSK_XREC_LAYER_RECONCILED
360
C49
  0
DICTIONARY
  5
C4A
330
68
100
AcDbDictionary
280
     1
281
     1
  3
ADSK_XREC_LAYER_RECONCILED
360
C4B
  0
DICTIONARY
  5
C4C
330
69
100
AcDbDictionary
280
     1
281
     1
  3
ADSK_XREC_LAYER_RECONCILED
360
C4D
  0
DICTIONARY
  5
C4E
330
6A
100
AcDbDictionary
280
     1
281
     1
  3
ADSK_XREC_LAYER_RECONCILED
360
C4F
  0
DICTIONARY
  5
C50
330
6B
100
AcDbDictionary
280
     1
281
     1
  3
ADSK_XREC_LAYER_RECONCILED
360
C51
  0
DICTIONARY
  5
BD3
330
18
100
AcDbDictionary
281
     1
  3
ACAD_LAYOUTSELFREF
350
BEC
  0
DICTIONARY
  5
BD1
330
15
100
AcDbDictionary
281
     1
  3
ACAD_LAYOUTSELFREF
350
BEB
  0
XRECORD
  5
C41
102
{ACAD_REACTORS
330
C
102
}
330
C
100
AcDbXrecord
280
     1
300
ACDLT
300
2014
300
ACDLT_F_S
  0
DICTIONARY
  5
C24
102
{ACAD_REACTORS
330
C
102
}
330
C
100
AcDbDictionary
281
     1
  0
DICTIONARY
  5
C3D
102
{ACAD_REACTORS
330
C
102
}
330
C
100
AcDbDictionary
281
     1
  3
Imperial24
350
C3E
  0
DICTIONARY
  5
D
102
{ACAD_REACTORS
330
C
102
}
330
C
100
AcDbDictionary
281
     1
  0
DICTIONARY
  5
5D
102
{ACAD_REACTORS
330
C
102
}
330
C
100
AcDbDictionary
281
     1
  3
Model
350
C3F
  3
レイアウト1
350
C40
  0
DICTIONARY
  5
BF2
102
{ACAD_REACTORS
330
C
102
}
330
C
100
AcDbDictionary
281
     1
  3
ByBlock
350
BFB
  3
ByLayer
350
BF3
  3
Global
350
C03
  0
DICTIONARY
  5
C39
102
{ACAD_REACTORS
330
C
102
}
330
C
100
AcDbDictionary
281
     1
  3
Standard
350
C3A
  0
DICTIONARY
  5
1B
102
{ACAD_REACTORS
330
C
102
}
330
C
100
AcDbDictionary
281
     1
  3
STANDARD
350
1C
  0
DICTIONARY
  5
5E
102
{ACAD_REACTORS
330
C
102
}
330
C
100
AcDbDictionary
281
     1
  0
ACDBDICTIONARYWDFLT
  5
BF0
102
{ACAD_REACTORS
330
C
102
}
330
C
100
AcDbDictionary
281
     1
  3
Normal
350
BF1
100
AcDbDictionaryWithDefault
340
BF1
  0
DICTIONARY
  5
C27
102
{ACAD_REACTORS
330
C
102
}
330
C
100
AcDbDictionary
281
     1
  3
A0
350
C28
  3
A1
350
C29
  3
A2
350
C2A
  3
A3
350
C2B
  3
A4
350
C2C
  3
A5
350
C2D
  3
A6
350
C2E
  3
A7
350
C2F
  3
A8
350
C30
  3
A9
350
C31
  3
B0
350
C32
  3
B1
350
C33
  3
B2
350
C34
  3
B3
350
C35
  3
B4
350
C36
  3
B5
350
C37
  3
B6
350
C38
  0
DICTIONARY
  5
C3B
102
{ACAD_REACTORS
330
C
102
}
330
C
100
AcDbDictionary
281
     1
  3
Imperial24
350
C3C
  0
DICTIONARY
  5
C25
102
{ACAD_REACTORS
330
C
102
}
330
C
100
AcDbDictionary
281
     1
  3
Standard
350
C26
  0
DICTIONARY
  5
C0B
102
{ACAD_REACTORS
330
C
102
}
330
C
100
AcDbDictionary
281
     1
  3
2dWireframe
350
C11
  3
Basic
350
C10
  3
Brighten
350
C17
  3
ColorChange
350
C1B
  3
Conceptual
350
C14
  3
Dim
350
C16
  3
EdgeColorOff
350
C23
  3
Facepattern
350
C1A
  3
Flat
350
C0C
  3
FlatWithEdges
350
C0D
  3
Gouraud
350
C0E
  3
GouraudWithEdges
350
C0F
  3
Hidden
350
C13
  3
JitterOff
350
C21
  3
Linepattern
350
C19
  3
OverhangOff
350
C22
  3
Realistic
350
C15
  3
Shaded
350
C20
  3
Shaded with edges
350
C1F
  3
Shades of Gray
350
C1C
  3
Sketchy
350
C1D
  3
Thicken
350
C18
  3
Wireframe
350
C12
  3
X-Ray
350
C1E
  0
XRECORD
  5
C5F
102
{ACAD_REACTORS
330
C
102
}
330
C
100
AcDbXrecord
280
     1
 90
        1
330
C26
  0
DICTIONARY
  5
C52
102
{ACAD_REACTORS
330
C
102
}
330
C
100
AcDbDictionary
281
     1
  3
CANNOSCALE
350
C57
  3
CMLEADERSTYLE
350
C54
  3
CTABLESTYLE
350
C53
  3
CVIEWDETAILSTYLE
350
C55
  3
CVIEWSECTIONSTYLE
350
C56
  3
DIMASSOC
350
C5A
  3
INDEXCTL
350
C59
  3
SORTENTS
350
C58
  3
XCLIPFRAME
350
C5B
  0
DICTIONARY
  5
3D
102
{ACAD_REACTORS
330
C
102
}
330
C
100
AcDbDictionary
281
     1
  0
XRECORD
  5
C60
102
{ACAD_REACTORS
330
C
102
}
330
C
100
AcDbXrecord
280
     1
  1
DWGPROPS COOKIE
  2

  3

  4

  6

  7

  8
Yoshitsune
  9

300
=
301
=
302
=
303
=
304
=
305
=
306
=
307
=
308
=
309
=
 40
0.0672373958333333
 41
2453258.445961181
 42
2457192.689358414
  1

 90
        0
  0
XRECORD
  5
C43
102
{ACAD_REACTORS
330
C42
102
}
330
C42
100
AcDbXrecord
280
     1
290
     1
  0
XRECORD
  5
C45
102
{ACAD_REACTORS
330
C44
102
}
330
C44
100
AcDbXrecord
280
     1
290
     1
  0
XRECORD
  5
C47
102
{ACAD_REACTORS
330
C46
102
}
330
C46
100
AcDbXrecord
280
     1
290
     1
  0
XRECORD
  5
C49
102
{ACAD_REACTORS
330
C48
102
}
330
C48
100
AcDbXrecord
280
     1
290
     1
  0
XRECORD
  5
C4B
102
{ACAD_REACTORS
330
C4A
102
}
330
C4A
100
AcDbXrecord
280
     1
290
     1
  0
XRECORD
  5
C4D
102
{ACAD_REACTORS
330
C4C
102
}
330
C4C
100
AcDbXrecord
280
     1
290
     1
  0
XRECORD
  5
C4F
102
{ACAD_REACTORS
330
C4E
102
}
330
C4E
100
AcDbXrecord
280
     1
290
     1
  0
XRECORD
  5
C51
102
{ACAD_REACTORS
330
C50
102
}
330
C50
100
AcDbXrecord
280
     1
290
     1
  0
XRECORD
  5
BEC
102
{ACAD_REACTORS
330
BD3
102
}
330
BD3
100
AcDbXrecord
280
     1
340
18
  0
XRECORD
  5
BEB
102
{ACAD_REACTORS
330
BD1
102
}
330
BD1
100
AcDbXrecord
280
     1
340
15
  0
ACDBDETAILVIEWSTYLE
  5
C3E
102
{ACAD_XDICTIONARY
360
C98
102
}
102
{ACAD_REACTORS
330
C3D
102
}
330
C3D
100
AcDbModelDocViewStyle
 70
     0
  3
Imperial24
290
     0
100
AcDbDetailViewStyle
 70
     0
 71
     0
 90
        3
 71
     1
340
F
 40
0.24
340
0
 40
0.24
300

 40
0.36
280
     3
 71
     2
340
14
 90
       25
 71
     3
340
F
 40
0.24
 90
        1
 40
0.75
 90
        1
300
%<\AcVar ViewType \f "%tc1">% %<\AcVar ViewDetailId>%\PSCALE %<\AcVar ViewScale \f "%sn">%
 71
     4
340
14
 90
       25
340
14
 90
       25
280
     0
  0
LAYOUT
  5
C3F
102
{ACAD_XDICTIONARY
360
C9A
102
}
102
{ACAD_REACTORS
330
5D
102
}
330
5D
100
AcDbPlotSettings
  1

  2
Canon LBP9100C
  4

  6

 40
0.0
 41
0.0
 42
0.0
 43
0.0
 44
0.0
 45
0.0
 46
0.0
 47
0.0
 48
0.0
 49
0.0
140
0.0
141
0.0
142
1.0
143
1.0
 70
  1712
 72
     0
 73
     0
 74
     0
  7

 75
     0
147
1.0
148
0.0
149
0.0
100
AcDbLayout
  1
Model
 70
     1
 71
     0
 10
0.0
 20
0.0
 11
12.0
 21
9.0
 12
0.0
 22
0.0
 32
0.0
 14
0.0
 24
0.0
 34
0.0
 15
0.0
 25
0.0
 35
0.0
146
0.0
 13
0.0
 23
0.0
 33
0.0
 16
1.0
 26
0.0
 36
0.0
 17
0.0
 27
1.0
 37
0.0
 76
     0
330
18
331
BEA
  0
LAYOUT
  5
C40
102
{ACAD_XDICTIONARY
360
C9C
102
}
102
{ACAD_REACTORS
330
5D
102
}
330
5D
100
AcDbPlotSettings
  1

  2
Canon LBP9100C
  4

  6

 40
0.0
 41
0.0
 42
0.0
 43
0.0
 44
0.0
 45
0.0
 46
0.0
 47
0.0
 48
0.0
 49
0.0
140
0.0
141
0.0
142
1.0
143
1.0
 70
   688
 72
     0
 73
     0
 74
     5
  7

 75
    16
147
1.0
148
0.0
149
0.0
100
AcDbLayout
  1
レイアウト1
 70
     1
 71
     1
 10
0.0
 20
0.0
 11
420.0
 21
297.0
 12
0.0
 22
0.0
 32
0.0
 14
1.000000000000000E+20
 24
1.000000000000000E+20
 34
1.000000000000000E+20
 15
-1.000000000000000E+20
 25
-1.000000000000000E+20
 35
-1.000000000000000E+20
146
0.0
 13
0.0
 23
0.0
 33
0.0
 16
1.0
 26
0.0
 36
0.0
 17
0.0
 27
1.0
 37
0.0
 76
     0
330
15
  0
MATERIAL
  5
BFB
102
{ACAD_XDICTIONARY
360
BFC
102
}
102
{ACAD_REACTORS
330
BF2
102
}
330
BF2
100
AcDbMaterial
  1
ByBlock
 72
     0
 43
0.0208333333333333
 43
0.0
 43
0.0
 43
0.0
 43
0.0
 43
0.0208333333333333
 43
0.0
 43
0.0
 43
0.0
 43
0.0
 43
1.0
 43
0.0
 43
0.0
 43
0.0
 43
0.0
 43
1.0
 77
     0
 47
0.0208333333333333
 47
0.0
 47
0.0
 47
0.0
 47
0.0
 47
0.0208333333333333
 47
0.0
 47
0.0
 47
0.0
 47
0.0
 47
1.0
 47
0.0
 47
0.0
 47
0.0
 47
0.0
 47
1.0
171
     0
 49
0.0208333333333333
 49
0.0
 49
0.0
 49
0.0
 49
0.0
 49
0.0208333333333333
 49
0.0
 49
0.0
 49
0.0
 49
0.0
 49
1.0
 49
0.0
 49
0.0
 49
0.0
 49
0.0
 49
1.0
175
     0
142
0.0208333333333333
142
0.0
142
0.0
142
0.0
142
0.0
142
0.0208333333333333
142
0.0
142
0.0
142
0.0
142
0.0
142
1.0
142
0.0
142
0.0
142
0.0
142
0.0
142
1.0
179
     0
144
0.0208333333333333
144
0.0
144
0.0
144
0.0
144
0.0
144
0.0208333333333333
144
0.0
144
0.0
144
0.0
144
0.0
144
1.0
144
0.0
144
0.0
144
0.0
144
0.0
144
1.0
147
0.0208333333333333
147
0.0
147
0.0
147
0.0
147
0.0
147
0.0208333333333333
147
0.0
147
0.0
147
0.0
147
0.0
147
1.0
147
0.0
147
0.0
147
0.0
147
0.0
147
1.0
  0
MATERIAL
  5
BF3
102
{ACAD_XDICTIONARY
360
BF4
102
}
102
{ACAD_REACTORS
330
BF2
102
}
330
BF2
100
AcDbMaterial
  1
ByLayer
 72
     0
 43
0.0208333333333333
 43
0.0
 43
0.0
 43
0.0
 43
0.0
 43
0.0208333333333333
 43
0.0
 43
0.0
 43
0.0
 43
0.0
 43
1.0
 43
0.0
 43
0.0
 43
0.0
 43
0.0
 43
1.0
 77
     0
 47
0.0208333333333333
 47
0.0
 47
0.0
 47
0.0
 47
0.0
 47
0.0208333333333333
 47
0.0
 47
0.0
 47
0.0
 47
0.0
 47
1.0
 47
0.0
 47
0.0
 47
0.0
 47
0.0
 47
1.0
171
     0
 49
0.0208333333333333
 49
0.0
 49
0.0
 49
0.0
 49
0.0
 49
0.0208333333333333
 49
0.0
 49
0.0
 49
0.0
 49
0.0
 49
1.0
 49
0.0
 49
0.0
 49
0.0
 49
0.0
 49
1.0
175
     0
142
0.0208333333333333
142
0.0
142
0.0
142
0.0
142
0.0
142
0.0208333333333333
142
0.0
142
0.0
142
0.0
142
0.0
142
1.0
142
0.0
142
0.0
142
0.0
142
0.0
142
1.0
179
     0
144
0.0208333333333333
144
0.0
144
0.0
144
0.0
144
0.0
144
0.0208333333333333
144
0.0
144
0.0
144
0.0
144
0.0
144
1.0
144
0.0
144
0.0
144
0.0
144
0.0
144
1.0
147
0.0208333333333333
147
0.0
147
0.0
147
0.0
147
0.0
147
0.0208333333333333
147
0.0
147
0.0
147
0.0
147
0.0
147
1.0
147
0.0
147
0.0
147
0.0
147
0.0
147
1.0
  0
MATERIAL
  5
C03
102
{ACAD_XDICTIONARY
360
C04
102
}
102
{ACAD_REACTORS
330
BF2
102
}
330
BF2
100
AcDbMaterial
  1
Global
 72
     0
 43
0.0208333333333333
 43
0.0
 43
0.0
 43
0.0
 43
0.0
 43
0.0208333333333333
 43
0.0
 43
0.0
 43
0.0
 43
0.0
 43
1.0
 43
0.0
 43
0.0
 43
0.0
 43
0.0
 43
1.0
 77
     0
 47
0.0208333333333333
 47
0.0
 47
0.0
 47
0.0
 47
0.0
 47
0.0208333333333333
 47
0.0
 47
0.0
 47
0.0
 47
0.0
 47
1.0
 47
0.0
 47
0.0
 47
0.0
 47
0.0
 47
1.0
171
     0
 49
0.0208333333333333
 49
0.0
 49
0.0
 49
0.0
 49
0.0
 49
0.0208333333333333
 49
0.0
 49
0.0
 49
0.0
 49
0.0
 49
1.0
 49
0.0
 49
0.0
 49
0.0
 49
0.0
 49
1.0
175
     0
142
0.0208333333333333
142
0.0
142
0.0
142
0.0
142
0.0
142
0.0208333333333333
142
0.0
142
0.0
142
0.0
142
0.0
142
1.0
142
0.0
142
0.0
142
0.0
142
0.0
142
1.0
179
     0
144
0.0208333333333333
144
0.0
144
0.0
144
0.0
144
0.0
144
0.0208333333333333
144
0.0
144
0.0
144
0.0
144
0.0
144
1.0
144
0.0
144
0.0
144
0.0
144
0.0
144
1.0
147
0.0208333333333333
147
0.0
147
0.0
147
0.0
147
0.0
147
0.0208333333333333
147
0.0
147
0.0
147
0.0
147
0.0
147
1.0
147
0.0
147
0.0
147
0.0
147
0.0
147
1.0
  0
MLEADERSTYLE
  5
C3A
102
{ACAD_REACTORS
330
C39
102
}
330
C39
100
AcDbMLeaderStyle
170
     2
171
     1
172
     0
 90
        2
 40
0.0
 41
0.0
173
     1
 91
-1056964608
340
12
 92
       -2
290
     1
 42
0.09
291
     1
 43
0.36
  3
Standard
 44
0.18
300

342
F
174
     1
178
     6
175
     1
176
     0
 93
-1056964608
 45
0.18
292
     0
297
     0
 46
0.18
 94
-1056964608
 47
1.0
 49
1.0
140
1.0
293
     1
141
0.0
294
     1
177
     0
142
1.0
295
     0
296
     0
143
0.125
1001
ACAD_MLEADERVER
1070
     2
  0
MLINESTYLE
  5
1C
102
{ACAD_REACTORS
330
1B
102
}
330
1B
100
AcDbMlineStyle
  2
STANDARD
 70
     0
  3

 62
   256
 51
90.0
 52
90.0
 71
     2
 49
0.5
 62
   256
  6
BYLAYER
 49
-0.5
 62
   256
  6
BYLAYER
  0
ACDBPLACEHOLDER
  5
BF1
102
{ACAD_REACTORS
330
BF0
102
}
330
BF0
  0
SCALE
  5
C28
102
{ACAD_REACTORS
330
C27
102
}
330
C27
100
AcDbScale
 70
     0
300
1:1
140
1.0
141
1.0
290
     1
  0
SCALE
  5
C29
102
{ACAD_REACTORS
330
C27
102
}
330
C27
100
AcDbScale
 70
     0
300
1/128" = 1'-0"
140
0.0078125
141
12.0
290
     0
  0
SCALE
  5
C2A
102
{ACAD_REACTORS
330
C27
102
}
330
C27
100
AcDbScale
 70
     0
300
1/64" = 1'-0"
140
0.015625
141
12.0
290
     0
  0
SCALE
  5
C2B
102
{ACAD_REACTORS
330
C27
102
}
330
C27
100
AcDbScale
 70
     0
300
1/32" = 1'-0"
140
0.03125
141
12.0
290
     0
  0
SCALE
  5
C2C
102
{ACAD_REACTORS
330
C27
102
}
330
C27
100
AcDbScale
 70
     0
300
1/16" = 1'-0"
140
0.0625
141
12.0
290
     0
  0
SCALE
  5
C2D
102
{ACAD_REACTORS
330
C27
102
}
330
C27
100
AcDbScale
 70
     0
300
3/32" = 1'-0"
140
0.09375
141
12.0
290
     0
  0
SCALE
  5
C2E
102
{ACAD_REACTORS
330
C27
102
}
330
C27
100
AcDbScale
 70
     0
300
1/8" = 1'-0"
140
0.125
141
12.0
290
     0
  0
SCALE
  5
C2F
102
{ACAD_REACTORS
330
C27
102
}
330
C27
100
AcDbScale
 70
     0
300
3/16" = 1'-0"
140
0.1875
141
12.0
290
     0
  0
SCALE
  5
C30
102
{ACAD_REACTORS
330
C27
102
}
330
C27
100
AcDbScale
 70
     0
300
1/4" = 1'-0"
140
0.25
141
12.0
290
     0
  0
SCALE
  5
C31
102
{ACAD_REACTORS
330
C27
102
}
330
C27
100
AcDbScale
 70
     0
300
3/8" = 1'-0"
140
0.375
141
12.0
290
     0
  0
SCALE
  5
C32
102
{ACAD_REACTORS
330
C27
102
}
330
C27
100
AcDbScale
 70
     0
300
1/2" = 1'-0"
140
0.5
141
12.0
290
     0
  0
SCALE
  5
C33
102
{ACAD_REACTORS
330
C27
102
}
330
C27
100
AcDbScale
 70
     0
300
3/4" = 1'-0"
140
0.75
141
12.0
290
     0
  0
SCALE
  5
C34
102
{ACAD_REACTORS
330
C27
102
}
330
C27
100
AcDbScale
 70
     0
300
1" = 1'-0"
140
1.0
141
12.0
290
     0
  0
SCALE
  5
C35
102
{ACAD_REACTORS
330
C27
102
}
330
C27
100
AcDbScale
 70
     0
300
1-1/2" = 1'-0"
140
1.5
141
12.0
290
     0
  0
SCALE
  5
C36
102
{ACAD_REACTORS
330
C27
102
}
330
C27
100
AcDbScale
 70
     0
300
3" = 1'-0"
140
3.0
141
12.0
290
     0
  0
SCALE
  5
C37
102
{ACAD_REACTORS
330
C27
102
}
330
C27
100
AcDbScale
 70
     0
300
6" = 1'-0"
140
6.0
141
12.0
290
     0
  0
SCALE
  5
C38
102
{ACAD_REACTORS
330
C27
102
}
330
C27
100
AcDbScale
 70
     0
300
1'-0" = 1'-0"
140
12.0
141
12.0
290
     0
  0
ACDBSECTIONVIEWSTYLE
  5
C3C
102
{ACAD_XDICTIONARY
360
C96
102
}
102
{ACAD_REACTORS
330
C3B
102
}
330
C3B
100
AcDbModelDocViewStyle
 70
     0
  3
Imperial24
290
     0
100
AcDbSectionViewStyle
 70
     0
 71
     0
 90
       78
 71
     1
340
F
 40
0.24
340
0
340
0
 40
0.24
300
I, O, Q, S, X, Z
 40
0.48
 90
        3
 40
0.18
 90
        1
 71
     2
340
14
 90
       25
340
14
 90
       50
 40
0.24
 40
0.0
 40
0.24
 71
     3
340
F
 40
0.24
 90
        1
 40
0.75
 90
        1
300
%<\AcVar ViewType \f "%tc1">% %<\AcVar ViewSectionStartId>%-%<\AcVar ViewSectionEndId>%\PSCALE %<\AcVar ViewScale \f "%sn">%
 71
     4
300
ANSI31
 40
1.0
 90
        0
290
     0
290
     0
 90
        6
 40
0.0
 40
1.570796326794896
 40
0.2617993877991494
 40
1.308996938995747
 40
-0.2617993877991494
 40
1.832595714594046
  0
TABLESTYLE
  5
C26
102
{ACAD_XDICTIONARY
360
C5D
102
}
102
{ACAD_REACTORS
330
C25
102
}
330
C25
100
AcDbTableStyle
  3
Standard
 70
     0
 71
     0
 40
0.06
 41
0.06
280
     0
281
     0
  7
STANDARD
140
0.18
170
     2
 62
     0
 63
     7
283
     0
274
    -2
284
     1
 64
     0
275
    -2
285
     1
 65
     0
276
    -2
286
     1
 66
     0
277
    -2
287
     1
 67
     0
278
    -2
288
     1
 68
     0
279
    -2
289
     1
 69
     0
  7
STANDARD
140
0.25
170
     5
 62
     0
 63
     7
283
     0
274
    -2
284
     1
 64
     0
275
    -2
285
     1
 65
     0
276
    -2
286
     1
 66
     0
277
    -2
287
     1
 67
     0
278
    -2
288
     1
 68
     0
279
    -2
289
     1
 69
     0
  7
STANDARD
140
0.18
170
     5
 62
     0
 63
     7
283
     0
274
    -2
284
     1
 64
     0
275
    -2
285
     1
 65
     0
276
    -2
286
     1
 66
     0
277
    -2
287
     1
 67
     0
278
    -2
288
     1
 68
     0
279
    -2
289
     1
 69
     0
  0
VISUALSTYLE
  5
C11
102
{ACAD_XDICTIONARY
360
C6E
102
}
102
{ACAD_REACTORS
330
C0B
102
}
330
C0B
100
AcDbVisualStyle
  2
2dWireframe
 70
     4
 71
     0
 72
     2
 73
     0
 90
        0
 40
-0.6
 41
-30.0
 62
     5
 63
     7
 74
     1
 91
        4
 64
     7
 65
   257
 75
     1
175
     1
 42
1.0
 92
        0
 66
   257
 43
1.0
 76
     1
 77
     6
 78
     2
 67
     7
 79
     5
170
     0
171
     0
290
     0
174
     0
 93
        1
 44
0.0
173
     0
291
     0
 45
0.0
1001
ACAD
1000
AcDbSavedByObjectVersion
1070
     0
  0
VISUALSTYLE
  5
C10
102
{ACAD_XDICTIONARY
360
C6C
102
}
102
{ACAD_REACTORS
330
C0B
102
}
330
C0B
100
AcDbVisualStyle
  2
Basic
 70
     7
 71
     1
 72
     0
 73
     1
 90
        0
 40
-0.6
 41
-30.0
 62
     5
 63
     7
 74
     0
 91
        4
 64
     7
 65
   257
 75
     1
175
     1
 42
1.0
 92
        8
 66
     7
 43
1.0
 76
     1
 77
     6
 78
     2
 67
     7
 79
     5
170
     0
171
     0
290
     0
174
     0
 93
        1
 44
0.0
173
     0
291
     1
 45
0.0
1001
ACAD
1000
AcDbSavedByObjectVersion
1070
     0
  0
VISUALSTYLE
  5
C17
102
{ACAD_XDICTIONARY
360
C7A
102
}
102
{ACAD_REACTORS
330
C0B
102
}
330
C0B
100
AcDbVisualStyle
  2
Brighten
 70
    12
 71
     2
 72
     2
 73
     0
 90
        0
 40
-0.6
 41
-30.0
 62
     5
 63
     7
 74
     1
 91
        4
 64
     7
 65
   257
 75
     1
175
     1
 42
1.0
 92
        8
 66
     7
 43
1.0
 76
     1
 77
     6
 78
     2
 67
     7
 79
     5
170
     0
171
     0
290
     0
174
     0
 93
        1
 44
50.0
173
     0
291
     1
 45
0.0
1001
ACAD
1000
AcDbSavedByObjectVersion
1070
     0
  0
VISUALSTYLE
  5
C1B
102
{ACAD_XDICTIONARY
360
C82
102
}
102
{ACAD_REACTORS
330
C0B
102
}
330
C0B
100
AcDbVisualStyle
  2
ColorChange
 70
    16
 71
     2
 72
     2
 73
     3
 90
        0
 40
-0.6
 41
-30.0
 62
     5
 63
     8
 74
     1
 91
        4
 64
     7
 65
   257
 75
     1
175
     1
 42
1.0
 92
        8
 66
     8
 43
1.0
 76
     1
 77
     6
 78
     2
 67
     7
 79
     5
170
     0
171
     0
290
     0
174
     0
 93
        1
 44
0.0
173
     0
291
     1
 45
0.0
1001
ACAD
1000
AcDbSavedByObjectVersion
1070
     0
  0
VISUALSTYLE
  5
C14
102
{ACAD_XDICTIONARY
360
C74
102
}
102
{ACAD_REACTORS
330
C0B
102
}
330
C0B
100
AcDbVisualStyle
  2
Conceptual
 70
     9
 71
     3
 72
     2
 73
     0
 90
        0
 40
-0.6
 41
-30.0
 62
     5
 63
     7
 74
     2
 91
        2
 64
     7
 65
   257
 75
     1
175
     1
 42
179.0
 92
        8
 66
     7
 43
1.0
 76
     1
 77
     6
 78
     2
 67
     7
 79
     3
170
     0
171
     0
290
     0
174
     0
 93
        1
 44
0.0
173
     0
291
     0
 45
0.0
1001
ACAD
1000
AcDbSavedByObjectVersion
1070
     0
  0
VISUALSTYLE
  5
C16
102
{ACAD_XDICTIONARY
360
C78
102
}
102
{ACAD_REACTORS
330
C0B
102
}
330
C0B
100
AcDbVisualStyle
  2
Dim
 70
    11
 71
     2
 72
     2
 73
     0
 90
        0
 40
-0.6
 41
-30.0
 62
     5
 63
     7
 74
     1
 91
        4
 64
     7
 65
   257
 75
     1
175
     1
 42
1.0
 92
        8
 66
     7
 43
1.0
 76
     1
 77
     6
 78
     2
 67
     7
 79
     5
170
     0
171
     0
290
     0
174
     0
 93
        1
 44
-50.0
173
     0
291
     1
 45
0.0
1001
ACAD
1000
AcDbSavedByObjectVersion
1070
     0
  0
VISUALSTYLE
  5
C23
102
{ACAD_XDICTIONARY
360
C92
102
}
102
{ACAD_REACTORS
330
C0B
102
}
330
C0B
100
AcDbVisualStyle
  2
EdgeColorOff
 70
    22
 71
     2
 72
     2
 73
     0
 90
        0
 40
-0.6
 41
-30.0
 62
     5
 63
     7
 74
     1
 91
        4
 64
     7
 65
   257
 75
     1
175
     1
 42
1.0
 92
        8
 66
     7
 43
1.0
 76
     1
 77
     6
 78
     2
 67
     7
 79
     5
170
     0
171
     0
290
     0
174
     0
 93
        1
 44
0.0
173
     0
291
     1
 45
0.0
1001
ACAD
1000
AcDbSavedByObjectVersion
1070
     0
  0
VISUALSTYLE
  5
C1A
102
{ACAD_XDICTIONARY
360
C80
102
}
102
{ACAD_REACTORS
330
C0B
102
}
330
C0B
100
AcDbVisualStyle
  2
Facepattern
 70
    15
 71
     2
 72
     2
 73
     0
 90
        0
 40
-0.6
 41
-30.0
 62
     5
 63
     7
 74
     1
 91
        4
 64
     7
 65
   257
 75
     1
175
     1
 42
1.0
 92
        8
 66
     7
 43
1.0
 76
     1
 77
     6
 78
     2
 67
     7
 79
     5
170
     0
171
     0
290
     0
174
     0
 93
        1
 44
0.0
173
     0
291
     1
 45
0.0
1001
ACAD
1000
AcDbSavedByObjectVersion
1070
     0
  0
VISUALSTYLE
  5
C0C
102
{ACAD_XDICTIONARY
360
C64
102
}
102
{ACAD_REACTORS
330
C0B
102
}
330
C0B
100
AcDbVisualStyle
  2
Flat
 70
     0
 71
     2
 72
     1
 73
     1
 90
        2
 40
-0.6
 41
30.0
 62
     5
 63
     7
 74
     0
 91
        0
 64
     7
 65
   257
 75
     1
175
     1
 42
1.0
 92
        8
 66
     7
 43
1.0
 76
     1
 77
     6
 78
     2
 67
     7
 79
     5
170
     0
171
     0
290
     0
174
     0
 93
       13
 44
0.0
173
     0
291
     1
 45
0.0
1001
ACAD
1000
AcDbSavedByObjectVersion
1070
     0
  0
VISUALSTYLE
  5
C0D
102
{ACAD_XDICTIONARY
360
C66
102
}
102
{ACAD_REACTORS
330
C0B
102
}
330
C0B
100
AcDbVisualStyle
  2
FlatWithEdges
 70
     1
 71
     2
 72
     1
 73
     1
 90
        2
 40
-0.6
 41
30.0
 62
     5
 63
     7
 74
     1
 91
        0
 64
     7
 65
   257
 75
     1
175
     1
 42
1.0
 92
        0
 66
   257
 43
1.0
 76
     1
 77
     6
 78
     2
 67
     7
 79
     5
170
     0
171
     0
290
     0
174
     0
 93
       13
 44
0.0
173
     0
291
     1
 45
0.0
1001
ACAD
1000
AcDbSavedByObjectVersion
1070
     0
  0
VISUALSTYLE
  5
C0E
102
{ACAD_XDICTIONARY
360
C68
102
}
102
{ACAD_REACTORS
330
C0B
102
}
330
C0B
100
AcDbVisualStyle
  2
Gouraud
 70
     2
 71
     2
 72
     2
 73
     1
 90
        2
 40
-0.6
 41
30.0
 62
     5
 63
     7
 74
     0
 91
        0
 64
     7
 65
   257
 75
     1
175
     1
 42
1.0
 92
        0
 66
     7
 43
1.0
 76
     1
 77
     6
 78
     2
 67
     7
 79
     5
170
     0
171
     0
290
     0
174
     0
 93
       13
 44
0.0
173
     0
291
     1
 45
0.0
1001
ACAD
1000
AcDbSavedByObjectVersion
1070
     0
  0
VISUALSTYLE
  5
C0F
102
{ACAD_XDICTIONARY
360
C6A
102
}
102
{ACAD_REACTORS
330
C0B
102
}
330
C0B
100
AcDbVisualStyle
  2
GouraudWithEdges
 70
     3
 71
     2
 72
     2
 73
     1
 90
        2
 40
-0.6
 41
30.0
 62
     5
 63
     7
 74
     1
 91
        0
 64
     7
 65
   257
 75
     1
175
     1
 42
1.0
 92
        0
 66
   257
 43
1.0
 76
     1
 77
     6
 78
     2
 67
     7
 79
     5
170
     0
171
     0
290
     0
174
     0
 93
       13
 44
0.0
173
     0
291
     1
 45
0.0
1001
ACAD
1000
AcDbSavedByObjectVersion
1070
     0
  0
VISUALSTYLE
  5
C13
102
{ACAD_XDICTIONARY
360
C72
102
}
102
{ACAD_REACTORS
330
C0B
102
}
330
C0B
100
AcDbVisualStyle
  2
Hidden
 70
     6
 71
     1
 72
     2
 73
     2
 90
        0
 40
-0.6
 41
-30.0
 62
     5
 63
     7
 74
     2
 91
        2
 64
     7
 65
   257
 75
     2
175
     1
 42
40.0
 92
        0
 66
   257
 43
1.0
 76
     1
 77
     6
 78
     2
 67
     7
 79
     3
170
     0
171
     0
290
     0
174
     0
 93
        1
 44
0.0
173
     0
291
     0
 45
0.0
1001
ACAD
1000
AcDbSavedByObjectVersion
1070
     0
  0
VISUALSTYLE
  5
C21
102
{ACAD_XDICTIONARY
360
C8E
102
}
102
{ACAD_REACTORS
330
C0B
102
}
330
C0B
100
AcDbVisualStyle
  2
JitterOff
 70
    20
 71
     2
 72
     2
 73
     0
 90
        0
 40
-0.6
 41
-30.0
 62
     5
 63
     7
 74
     1
 91
        4
 64
     7
 65
   257
 75
     1
175
     1
 42
1.0
 92
       10
 66
     7
 43
1.0
 76
     1
 77
     6
 78
     2
 67
     7
 79
     5
170
     0
171
     0
290
     0
174
     0
 93
        1
 44
0.0
173
     0
291
     1
 45
0.0
1001
ACAD
1000
AcDbSavedByObjectVersion
1070
     0
  0
VISUALSTYLE
  5
C19
102
{ACAD_XDICTIONARY
360
C7E
102
}
102
{ACAD_REACTORS
330
C0B
102
}
330
C0B
100
AcDbVisualStyle
  2
Linepattern
 70
    14
 71
     2
 72
     2
 73
     0
 90
        0
 40
-0.6
 41
-30.0
 62
     5
 63
     7
 74
     1
 91
        4
 64
     7
 65
   257
 75
     7
175
     7
 42
1.0
 92
        8
 66
     7
 43
1.0
 76
     1
 77
     6
 78
     2
 67
     7
 79
     5
170
     0
171
     0
290
     0
174
     0
 93
        1
 44
0.0
173
     0
291
     1
 45
0.0
1001
ACAD
1000
AcDbSavedByObjectVersion
1070
     0
  0
VISUALSTYLE
  5
C22
102
{ACAD_XDICTIONARY
360
C90
102
}
102
{ACAD_REACTORS
330
C0B
102
}
330
C0B
100
AcDbVisualStyle
  2
OverhangOff
 70
    21
 71
     2
 72
     2
 73
     0
 90
        0
 40
-0.6
 41
-30.0
 62
     5
 63
     7
 74
     1
 91
        4
 64
     7
 65
   257
 75
     1
175
     1
 42
1.0
 92
        9
 66
     7
 43
1.0
 76
     1
 77
     6
 78
     2
 67
     7
 79
     5
170
     0
171
     0
290
     0
174
     0
 93
        1
 44
0.0
173
     0
291
     1
 45
0.0
1001
ACAD
1000
AcDbSavedByObjectVersion
1070
     0
  0
VISUALSTYLE
  5
C15
102
{ACAD_XDICTIONARY
360
C76
102
}
102
{ACAD_REACTORS
330
C0B
102
}
330
C0B
100
AcDbVisualStyle
  2
Realistic
 70
     8
 71
     2
 72
     3
 73
     0
 90
        2
 40
-0.6
 41
30.0
 62
     5
 63
     7
 74
     0
 91
        0
 64
     7
 65
   257
 75
     1
175
     1
 42
1.0
 92
        8
 66
   257
 43
1.0
 76
     1
 77
     6
 78
     2
 67
     7
 79
     3
170
     0
171
     0
290
     0
174
     0
 93
       13
 44
0.0
173
     0
291
     0
 45
0.0
1001
ACAD
1000
AcDbSavedByObjectVersion
1070
     0
  0
VISUALSTYLE
  5
C20
102
{ACAD_XDICTIONARY
360
C8C
102
}
102
{ACAD_REACTORS
330
C0B
102
}
330
C0B
100
AcDbVisualStyle
  2
Shaded
 70
    27
 71
     2
 72
     2
 73
     1
 90
        2
 40
-0.6
 41
30.0
 62
     5
 63
     7
 74
     0
 91
        4
 64
     7
 65
   257
 75
     1
175
     1
 42
1.0
 92
        8
 66
   257
 43
1.0
 76
     1
 77
     6
 78
     2
 67
     8
 79
     3
170
     0
171
     0
290
     0
174
     0
 93
        5
 44
0.0
173
     0
291
     0
 45
0.0
1001
ACAD
1000
AcDbSavedByObjectVersion
1070
     0
  0
VISUALSTYLE
  5
C1F
102
{ACAD_XDICTIONARY
360
C8A
102
}
102
{ACAD_REACTORS
330
C0B
102
}
330
C0B
100
AcDbVisualStyle
  2
Shaded with edges
 70
    26
 71
     2
 72
     2
 73
     1
 90
        2
 40
-0.6
 41
30.0
 62
     5
 63
     7
 74
     1
 91
       10
 64
     7
 65
   257
 75
     2
175
     1
 42
1.0
 92
        8
 66
   257
 43
1.0
 76
     1
 77
     6
 78
     2
 67
     7
 79
     3
170
     0
171
     0
290
     0
174
     0
 93
        5
 44
0.0
173
     0
291
     0
 45
0.0
1001
ACAD
1000
AcDbSavedByObjectVersion
1070
     0
  0
VISUALSTYLE
  5
C1C
102
{ACAD_XDICTIONARY
360
C84
102
}
102
{ACAD_REACTORS
330
C0B
102
}
330
C0B
100
AcDbVisualStyle
  2
Shades of Gray
 70
    23
 71
     2
 72
     2
 73
     3
 90
        0
 40
-0.6
 41
-30.0
 62
     5
 63
     7
 74
     2
 91
        2
 64
     7
 65
     7
 75
     1
175
     1
 42
40.0
 92
        8
 66
     7
 43
1.0
 76
     1
 77
     6
 78
     2
 67
     7
 79
     3
170
     0
171
     0
290
     0
174
     0
 93
        1
 44
0.0
173
     0
291
     0
 45
0.0
1001
ACAD
1000
AcDbSavedByObjectVersion
1070
     0
  0
VISUALSTYLE
  5
C1D
102
{ACAD_XDICTIONARY
360
C86
102
}
102
{ACAD_REACTORS
330
C0B
102
}
330
C0B
100
AcDbVisualStyle
  2
Sketchy
 70
    24
 71
     1
 72
     2
 73
     2
 90
        0
 40
-0.6
 41
-30.0
 62
     5
 63
     7
 74
     2
 91
        2
 64
     7
 65
     7
 75
     1
175
     1
 42
40.0
 92
       11
 66
     7
 43
1.0
 76
     1
 77
     6
 78
     2
 67
     7
 79
     6
170
     0
171
     0
290
     0
174
     0
 93
        1
 44
0.0
173
     0
291
     0
 45
0.0
1001
ACAD
1000
AcDbSavedByObjectVersion
1070
     0
  0
VISUALSTYLE
  5
C18
102
{ACAD_XDICTIONARY
360
C7C
102
}
102
{ACAD_REACTORS
330
C0B
102
}
330
C0B
100
AcDbVisualStyle
  2
Thicken
 70
    13
 71
     2
 72
     2
 73
     0
 90
        0
 40
-0.6
 41
-30.0
 62
     5
 63
     7
 74
     1
 91
        4
 64
     7
 65
   257
 75
     1
175
     1
 42
1.0
 92
       12
 66
     7
 43
1.0
 76
     1
 77
     6
 78
     2
 67
     7
 79
     5
170
     0
171
     0
290
     0
174
     0
 93
        1
 44
0.0
173
     0
291
     1
 45
0.0
1001
ACAD
1000
AcDbSavedByObjectVersion
1070
     0
  0
VISUALSTYLE
  5
C12
102
{ACAD_XDICTIONARY
360
C70
102
}
102
{ACAD_REACTORS
330
C0B
102
}
330
C0B
100
AcDbVisualStyle
  2
Wireframe
 70
     5
 71
     0
 72
     2
 73
     0
 90
        0
 40
-0.6
 41
-30.0
 62
     5
 63
     7
 74
     1
 91
        4
 64
     7
 65
   257
 75
     1
175
     1
 42
1.0
 92
        0
 66
   257
 43
1.0
 76
     1
 77
     6
 78
     2
 67
     7
 79
     3
170
     0
171
     0
290
     0
174
     0
 93
        1
 44
0.0
173
     0
291
     0
 45
0.0
1001
ACAD
1000
AcDbSavedByObjectVersion
1070
     0
  0
VISUALSTYLE
  5
C1E
102
{ACAD_XDICTIONARY
360
C88
102
}
102
{ACAD_REACTORS
330
C0B
102
}
330
C0B
100
AcDbVisualStyle
  2
X-Ray
 70
    25
 71
     2
 72
     2
 73
     1
 90
        1
 40
0.5
 41
-30.0
 62
     5
 63
     7
 74
     1
 91
        0
 64
     7
 65
   257
 75
     1
175
     1
 42
1.0
 92
        8
 66
     7
 43
1.0
 76
     1
 77
     6
 78
     2
 67
     7
 79
     3
170
     0
171
     0
290
     0
174
     0
 93
       13
 44
0.0
173
     0
291
     0
 45
0.0
1001
ACAD
1000
AcDbSavedByObjectVersion
1070
     0
  0
DICTIONARYVAR
  5
C57
102
{ACAD_REACTORS
330
C52
102
}
330
C52
100
DictionaryVariables
280
     0
  1
1:1
  0
DICTIONARYVAR
  5
C54
102
{ACAD_REACTORS
330
C52
102
}
330
C52
100
DictionaryVariables
280
     0
  1
STANDARD
  0
DICTIONARYVAR
  5
C53
102
{ACAD_REACTORS
330
C52
102
}
330
C52
100
DictionaryVariables
280
     0
  1
STANDARD
  0
DICTIONARYVAR
  5
C55
102
{ACAD_REACTORS
330
C52
102
}
330
C52
100
DictionaryVariables
280
     0
  1
Imperial24
  0
DICTIONARYVAR
  5
C56
102
{ACAD_REACTORS
330
C52
102
}
330
C52
100
DictionaryVariables
280
     0
  1
Imperial24
  0
DICTIONARYVAR
  5
C5A
102
{ACAD_REACTORS
330
C52
102
}
330
C52
100
DictionaryVariables
280
     0
  1
1
  0
DICTIONARYVAR
  5
C59
102
{ACAD_REACTORS
330
C52
102
}
330
C52
100
DictionaryVariables
280
     0
  1
0
  0
DICTIONARYVAR
  5
C58
102
{ACAD_REACTORS
330
C52
102
}
330
C52
100
DictionaryVariables
280
     0
  1
127
  0
DICTIONARYVAR
  5
C5B
102
{ACAD_REACTORS
330
C52
102
}
330
C52
100
DictionaryVariables
280
     0
  1
2
  0
DICTIONARY
  5
C98
330
C3E
100
AcDbDictionary
280
     1
281
     1
  3
ACAD_XREC_ROUNDTRIP
360
C99
  0
DICTIONARY
  5
C9A
330
C3F
100
AcDbDictionary
280
     1
281
     1
  3
ACAD_XREC_ROUNDTRIP
360
C9B
  0
DICTIONARY
  5
C9C
330
C40
100
AcDbDictionary
280
     1
281
     1
  3
ACAD_XREC_ROUNDTRIP
360
C9D
  0
DICTIONARY
  5
BFC
330
BFB
100
AcDbDictionary
280
     1
281
     1
  3
ACAD_XREC_ROUNDTRIP
360
C62
  3
BUMPTILE
360
BFE
  3
DIFFUSETILE
360
BFD
  3
OPACITYTILE
360
C01
  3
REFLECTIONTILE
360
C00
  3
REFRACTIONTILE
360
C02
  3
SPECULARTILE
360
BFF
  0
DICTIONARY
  5
BF4
330
BF3
100
AcDbDictionary
280
     1
281
     1
  3
ACAD_XREC_ROUNDTRIP
360
C61
  3
BUMPTILE
360
BF6
  3
DIFFUSETILE
360
BF5
  3
OPACITYTILE
360
BF9
  3
REFLECTIONTILE
360
BF8
  3
REFRACTIONTILE
360
BFA
  3
SPECULARTILE
360
BF7
  0
DICTIONARY
  5
C04
330
C03
100
AcDbDictionary
280
     1
281
     1
  3
ACAD_XREC_ROUNDTRIP
360
C63
  3
BUMPTILE
360
C06
  3
DIFFUSETILE
360
C05
  3
OPACITYTILE
360
C09
  3
REFLECTIONTILE
360
C08
  3
REFRACTIONTILE
360
C0A
  3
SPECULARTILE
360
C07
  0
DICTIONARY
  5
C96
330
C3C
100
AcDbDictionary
280
     1
281
     1
  3
ACAD_XREC_ROUNDTRIP
360
C97
  0
DICTIONARY
  5
C5D
330
C26
100
AcDbDictionary
280
     1
281
     1
  3
ACAD_ROUNDTRIP_2008_TABLESTYLE_CELLSTYLEMAP
360
C5E
  3
ACAD_XREC_ROUNDTRIP
360
C94
  0
DICTIONARY
  5
C6E
330
C11
100
AcDbDictionary
280
     1
281
     1
  3
ACAD_XREC_ROUNDTRIP
360
C6F
  0
DICTIONARY
  5
C6C
330
C10
100
AcDbDictionary
280
     1
281
     1
  3
ACAD_XREC_ROUNDTRIP
360
C6D
  0
DICTIONARY
  5
C7A
330
C17
100
AcDbDictionary
280
     1
281
     1
  3
ACAD_XREC_ROUNDTRIP
360
C7B
  0
DICTIONARY
  5
C82
330
C1B
100
AcDbDictionary
280
     1
281
     1
  3
ACAD_XREC_ROUNDTRIP
360
C83
  0
DICTIONARY
  5
C74
330
C14
100
AcDbDictionary
280
     1
281
     1
  3
ACAD_XREC_ROUNDTRIP
360
C75
  0
DICTIONARY
  5
C78
330
C16
100
AcDbDictionary
280
     1
281
     1
  3
ACAD_XREC_ROUNDTRIP
360
C79
  0
DICTIONARY
  5
C92
330
C23
100
AcDbDictionary
280
     1
281
     1
  3
ACAD_XREC_ROUNDTRIP
360
C93
  0
DICTIONARY
  5
C80
330
C1A
100
AcDbDictionary
280
     1
281
     1
  3
ACAD_XREC_ROUNDTRIP
360
C81
  0
DICTIONARY
  5
C64
330
C0C
100
AcDbDictionary
280
     1
281
     1
  3
ACAD_XREC_ROUNDTRIP
360
C65
  0
DICTIONARY
  5
C66
330
C0D
100
AcDbDictionary
280
     1
281
     1
  3
ACAD_XREC_ROUNDTRIP
360
C67
  0
DICTIONARY
  5
C68
330
C0E
100
AcDbDictionary
280
     1
281
     1
  3
ACAD_XREC_ROUNDTRIP
360
C69
  0
DICTIONARY
  5
C6A
330
C0F
100
AcDbDictionary
280
     1
281
     1
  3
ACAD_XREC_ROUNDTRIP
360
C6B
  0
DICTIONARY
  5
C72
330
C13
100
AcDbDictionary
280
     1
281
     1
  3
ACAD_XREC_ROUNDTRIP
360
C73
  0
DICTIONARY
  5
C8E
330
C21
100
AcDbDictionary
280
     1
281
     1
  3
ACAD_XREC_ROUNDTRIP
360
C8F
  0
DICTIONARY
  5
C7E
330
C19
100
AcDbDictionary
280
     1
281
     1
  3
ACAD_XREC_ROUNDTRIP
360
C7F
  0
DICTIONARY
  5
C90
330
C22
100
AcDbDictionary
280
     1
281
     1
  3
ACAD_XREC_ROUNDTRIP
360
C91
  0
DICTIONARY
  5
C76
330
C15
100
AcDbDictionary
280
     1
281
     1
  3
ACAD_XREC_ROUNDTRIP
360
C77
  0
DICTIONARY
  5
C8C
330
C20
100
AcDbDictionary
280
     1
281
     1
  3
ACAD_XREC_ROUNDTRIP
360
C8D
  0
DICTIONARY
  5
C8A
330
C1F
100
AcDbDictionary
280
     1
281
     1
  3
ACAD_XREC_ROUNDTRIP
360
C8B
  0
DICTIONARY
  5
C84
330
C1C
100
AcDbDictionary
280
     1
281
     1
  3
ACAD_XREC_ROUNDTRIP
360
C85
  0
DICTIONARY
  5
C86
330
C1D
100
AcDbDictionary
280
     1
281
     1
  3
ACAD_XREC_ROUNDTRIP
360
C87
  0
DICTIONARY
  5
C7C
330
C18
100
AcDbDictionary
280
     1
281
     1
  3
ACAD_XREC_ROUNDTRIP
360
C7D
  0
DICTIONARY
  5
C70
330
C12
100
AcDbDictionary
280
     1
281
     1
  3
ACAD_XREC_ROUNDTRIP
360
C71
  0
DICTIONARY
  5
C88
330
C1E
100
AcDbDictionary
280
     1
281
     1
  3
ACAD_XREC_ROUNDTRIP
360
C89
  0
XRECORD
  5
C99
102
{ACAD_REACTORS
330
C98
102
}
330
C98
100
AcDbXrecord
280
     1
102
DISPLAYNAME
  1
Imperial24
102
FLAGS
 90
        0
  0
XRECORD
  5
C9B
102
{ACAD_REACTORS
330
C9A
102
}
330
C9A
100
AcDbXrecord
280
     1
102
SHADEPLOT
 70
     0
102
SHADEPLOTRESLEVEL
 70
     2
102
SHADEPLOTCUSTOMDPI
 70
   300
  0
XRECORD
  5
C9D
102
{ACAD_REACTORS
330
C9C
102
}
330
C9C
100
AcDbXrecord
280
     1
102
SHADEPLOT
 70
     0
102
SHADEPLOTRESLEVEL
 70
     2
102
SHADEPLOTCUSTOMDPI
 70
   300
  0
XRECORD
  5
C62
102
{ACAD_REACTORS
330
BFC
102
}
330
BFC
100
AcDbXrecord
280
     1
102
MATERIAL
148
0.0
149
0.0
149
0.0
 93
        0
 94
      127
282
     0
 72
     0
 77
     0
171
     0
175
     0
179
     0
273
     0
  0
XRECORD
  5
BFE
102
{ACAD_REACTORS
330
BFC
102
}
330
BFC
100
AcDbXrecord
280
     1
270
     1
271
     1
  0
XRECORD
  5
BFD
102
{ACAD_REACTORS
330
BFC
102
}
330
BFC
100
AcDbXrecord
280
     1
270
     1
271
     1
  0
XRECORD
  5
C01
102
{ACAD_REACTORS
330
BFC
102
}
330
BFC
100
AcDbXrecord
280
     1
270
     1
271
     1
  0
XRECORD
  5
C00
102
{ACAD_REACTORS
330
BFC
102
}
330
BFC
100
AcDbXrecord
280
     1
270
     1
271
     1
  0
XRECORD
  5
C02
102
{ACAD_REACTORS
330
BFC
102
}
330
BFC
100
AcDbXrecord
280
     1
270
     1
271
     1
  0
XRECORD
  5
BFF
102
{ACAD_REACTORS
330
BFC
102
}
330
BFC
100
AcDbXrecord
280
     1
270
     1
271
     1
  0
XRECORD
  5
C61
102
{ACAD_REACTORS
330
BF4
102
}
330
BF4
100
AcDbXrecord
280
     1
102
MATERIAL
148
0.0
149
0.0
149
0.0
 93
        0
 94
      127
282
     0
 72
     0
 77
     0
171
     0
175
     0
179
     0
273
     0
  0
XRECORD
  5
BF6
102
{ACAD_REACTORS
330
BF4
102
}
330
BF4
100
AcDbXrecord
280
     1
270
     1
271
     1
  0
XRECORD
  5
BF5
102
{ACAD_REACTORS
330
BF4
102
}
330
BF4
100
AcDbXrecord
280
     1
270
     1
271
     1
  0
XRECORD
  5
BF9
102
{ACAD_REACTORS
330
BF4
102
}
330
BF4
100
AcDbXrecord
280
     1
270
     1
271
     1
  0
XRECORD
  5
BF8
102
{ACAD_REACTORS
330
BF4
102
}
330
BF4
100
AcDbXrecord
280
     1
270
     1
271
     1
  0
XRECORD
  5
BFA
102
{ACAD_REACTORS
330
BF4
102
}
330
BF4
100
AcDbXrecord
280
     1
270
     1
271
     1
  0
XRECORD
  5
BF7
102
{ACAD_REACTORS
330
BF4
102
}
330
BF4
100
AcDbXrecord
280
     1
270
     1
271
     1
  0
XRECORD
  5
C63
102
{ACAD_REACTORS
330
C04
102
}
330
C04
100
AcDbXrecord
280
     1
102
MATERIAL
148
0.0
149
0.0
149
0.0
 93
        0
 94
      127
282
     0
 72
     0
 77
     0
171
     0
175
     0
179
     0
273
     0
  0
XRECORD
  5
C06
102
{ACAD_REACTORS
330
C04
102
}
330
C04
100
AcDbXrecord
280
     1
270
     1
271
     1
  0
XRECORD
  5
C05
102
{ACAD_REACTORS
330
C04
102
}
330
C04
100
AcDbXrecord
280
     1
270
     1
271
     1
  0
XRECORD
  5
C09
102
{ACAD_REACTORS
330
C04
102
}
330
C04
100
AcDbXrecord
280
     1
270
     1
271
     1
  0
XRECORD
  5
C08
102
{ACAD_REACTORS
330
C04
102
}
330
C04
100
AcDbXrecord
280
     1
270
     1
271
     1
  0
XRECORD
  5
C0A
102
{ACAD_REACTORS
330
C04
102
}
330
C04
100
AcDbXrecord
280
     1
270
     1
271
     1
  0
XRECORD
  5
C07
102
{ACAD_REACTORS
330
C04
102
}
330
C04
100
AcDbXrecord
280
     1
270
     1
271
     1
  0
XRECORD
  5
C97
102
{ACAD_REACTORS
330
C96
102
}
330
C96
100
AcDbXrecord
280
     1
102
DISPLAYNAME
  1
Imperial24
102
FLAGS
 90
        0
  0
CELLSTYLEMAP
  5
C5E
102
{ACAD_REACTORS
330
C5D
102
}
330
C5D
100
AcDbCellStyleMap
 90
        3
300
CELLSTYLE
  1
TABLEFORMAT_BEGIN
 90
        5
170
     1
 91
        0
 92
    32768
 62
   257
 93
        1
300
CONTENTFORMAT
  1
CONTENTFORMAT_BEGIN
 90
        0
 91
        0
 92
      512
 93
        0
300

 40
0.0
140
1.0
 94
        5
 62
     0
340
F
144
0.25
309
CONTENTFORMAT_END
171
     0
 94
        0
309
TABLEFORMAT_END
  1
CELLSTYLE_BEGIN
 90
        1
 91
        1
300
_TITLE
309
CELLSTYLE_END
300
CELLSTYLE
  1
TABLEFORMAT_BEGIN
 90
        5
170
     1
 91
        0
 92
        0
 62
   257
 93
        1
300
CONTENTFORMAT
  1
CONTENTFORMAT_BEGIN
 90
        0
 91
        0
 92
      512
 93
        0
300

 40
0.0
140
1.0
 94
        5
 62
     0
340
F
144
0.18
309
CONTENTFORMAT_END
171
     0
 94
        0
309
TABLEFORMAT_END
  1
CELLSTYLE_BEGIN
 90
        2
 91
        1
300
_HEADER
309
CELLSTYLE_END
300
CELLSTYLE
  1
TABLEFORMAT_BEGIN
 90
        5
170
     1
 91
        0
 92
        0
 62
   257
 93
        1
300
CONTENTFORMAT
  1
CONTENTFORMAT_BEGIN
 90
        0
 91
        0
 92
      512
 93
        0
300

 40
0.0
140
1.0
 94
        2
 62
     0
340
F
144
0.18
309
CONTENTFORMAT_END
171
     0
 94
        0
309
TABLEFORMAT_END
  1
CELLSTYLE_BEGIN
 90
        3
 91
        2
300
_DATA
309
CELLSTYLE_END
  0
XRECORD
  5
C94
102
{ACAD_REACTORS
330
C5D
102
}
330
C5D
100
AcDbXrecord
280
     1
102
ACAD_ROUNDTRIP_PRE2007_TABLESTYLE
 90
      512
 91
        0
  1

 92
      512
 93
        0
  2

 94
      512
 95
        0
  3

  0
XRECORD
  5
C6F
102
{ACAD_REACTORS
330
C6E
102
}
330
C6E
100
AcDbXrecord
280
     1
102
RTVSPost2010Prop28
280
     1
102
RTVSPost2010PropOp28
 70
     1
102
RTVSPost2010Prop29
280
     1
102
RTVSPost2010PropOp29
 70
     1
102
RTVSPost2010Prop30
280
     0
102
RTVSPost2010PropOp30
 70
     1
102
RTVSPost2010Prop31
280
     0
102
RTVSPost2010PropOp31
 70
     1
102
RTVSPost2010Prop32
280
     0
102
RTVSPost2010PropOp32
 70
     1
102
RTVSPost2010Prop33
280
     0
102
RTVSPost2010PropOp33
 70
     1
102
RTVSPost2010Prop34
280
     0
102
RTVSPost2010PropOp34
 70
     1
102
RTVSPost2010Prop35
280
     0
102
RTVSPost2010PropOp35
 70
     1
102
RTVSPost2010Prop36
280
     0
102
RTVSPost2010PropOp36
 70
     1
102
RTVSPost2010Prop37
 90
       50
102
RTVSPost2010PropOp37
 70
     1
102
RTVSPost2010Prop38
140
0.0
102
RTVSPost2010PropOp38
 70
     1
102
RTVSPost2010Prop39
140
1.0
102
RTVSPost2010PropOp39
 70
     1
102
RTVSPost2010Prop40
 90
        0
102
RTVSPost2010PropOp40
 70
     1
102
RTVSPost2010Prop41ColorIndex
 90
       18
102
RTVSPost2010Prop41ColorRGB
 90
        0
102
RTVSPost2010PropOp41
 70
     1
102
RTVSPost2010Prop42
 90
       50
102
RTVSPost2010PropOp42
 70
     1
102
RTVSPost2010Prop43
 90
        3
102
RTVSPost2010PropOp43
 70
     1
102
RTVSPost2010Prop44ColorIndex
 90
        5
102
RTVSPost2010Prop44ColorRGB
 90
      255
102
RTVSPost2010PropOp44
 70
     1
102
RTVSPost2010Prop45
280
     0
102
RTVSPost2010PropOp45
 70
     1
102
RTVSPost2010Prop46
 90
       50
102
RTVSPost2010PropOp46
 70
     1
102
RTVSPost2010Prop47
 90
       50
102
RTVSPost2010PropOp47
 70
     1
102
RTVSPost2010Prop48
 90
       50
102
RTVSPost2010PropOp48
 70
     1
102
RTVSPost2010Prop49
280
     0
102
RTVSPost2010PropOp49
 70
     1
102
RTVSPost2010Prop50
 90
       50
102
RTVSPost2010PropOp50
 70
     1
102
RTVSPost2010Prop51ColorIndex
 90
      256
102
RTVSPost2010Prop51ColorRGB
 90
-16777216
102
RTVSPost2010PropOp51
 70
     0
102
RTVSPost2010Prop52
140
1.0
102
RTVSPost2010PropOp52
 70
     0
102
RTVSPost2010Prop53
 90
        2
102
RTVSPost2010PropOp53
 70
     1
102
RTVSPost2010Prop54
  1
strokes_ogs.tif
102
RTVSPost2010PropOp54
 70
     1
102
RTVSPost2010Prop55
280
     0
102
RTVSPost2010PropOp55
 70
     1
102
RTVSPost2010Prop56
140
1.0
102
RTVSPost2010PropOp56
 70
     1
102
RTVSPost2010Prop57
140
1.0
102
RTVSPost2010PropOp57
 70
     1
102
RTVSPropertyOp0
 70
     1
102
RTVSPropertyOp1
 70
     1
102
RTVSPropertyOp2
 70
     1
102
RTVSPropertyOp3
 70
     1
102
RTVSPropertyOp4
 70
     1
102
RTVSPropertyOp5
 70
     1
102
RTVSPropertyOp6
 70
     1
102
RTVSPropertyOp7
 70
     1
102
RTVSPropertyOp8
 70
     1
102
RTVSPropertyOp9
 70
     1
102
RTVSPropertyOp10
 70
     1
102
RTVSPropertyOp11
 70
     1
102
RTVSPropertyOp12
 70
     1
102
RTVSPropertyOp13
 70
     1
102
RTVSPropertyOp14
 70
     1
102
RTVSPropertyOp15
 70
     1
102
RTVSPropertyOp16
 70
     1
102
RTVSPropertyOp17
 70
     1
102
RTVSPropertyOp18
 70
     1
102
RTVSPropertyOp19
 70
     1
102
RTVSPropertyOp20
 70
     1
102
RTVSPropertyOp21
 70
     1
102
RTVSPropertyOp22
 70
     1
102
RTVSPropertyOp23
 70
     1
102
RTVSPropertyOp24
 70
     1
102
RTVSPropertyOp25
 70
     1
102
RTVSPropertyOp26
 70
     1
102
RTVSPropertyOp27
 70
     1
102
RTVSPropertyOp28
 70
     1
102
RTVSPropertyOp29
 70
     1
102
RTVSPropertyOp30
 70
     1
102
RTVSPropertyOp31
 70
     1
102
RTVSPropertyOp32
 70
     1
102
RTVSPropertyOp33
 70
     1
102
RTVSPropertyOp34
 70
     1
102
RTVSPropertyOp35
 70
     1
102
RTVSPropertyOp36
 70
     1
102
RTVSPropertyOp37
 70
     1
102
RTVSPropertyOp38
 70
     1
102
RTVSPropertyOp39
 70
     1
102
RTVSPropertyOp40
 70
     1
102
RTVSPropertyOp41
 70
     1
102
RTVSPropertyOp42
 70
     1
102
RTVSPropertyOp43
 70
     1
102
RTVSPropertyOp44
 70
     1
102
RTVSPropertyOp45
 70
     1
102
RTVSPropertyOp46
 70
     1
102
RTVSPropertyOp47
 70
     1
102
RTVSPropertyOp48
 70
     1
102
RTVSPropertyOp49
 70
     1
102
RTVSPropertyOp50
 70
     1
102
RTVSPropertyOp51
 70
     0
102
RTVSPropertyOp52
 70
     0
102
RTVSPropertyOp53
 70
     1
102
RTVSPropertyOp54
 70
     1
102
RTVSPropertyOp55
 70
     1
102
RTVSPropertyOp56
 70
     1
102
RTVSPropertyOp57
 70
     1
102
RTVSPropertyOp58
 70
     1
102
RTVSPropertyOp59
 70
     1
102
RTVSPropertyOp60
 70
     1
102
RTVSPropertyOp61
 70
     1
102
RTVSPropertyOp62
 70
     1
  0
XRECORD
  5
C6D
102
{ACAD_REACTORS
330
C6C
102
}
330
C6C
100
AcDbXrecord
280
     1
102
RTVSPost2010Prop28
280
     0
102
RTVSPost2010PropOp28
 70
     1
102
RTVSPost2010Prop29
280
     1
102
RTVSPost2010PropOp29
 70
     1
102
RTVSPost2010Prop30
280
     1
102
RTVSPost2010PropOp30
 70
     1
102
RTVSPost2010Prop31
280
     0
102
RTVSPost2010PropOp31
 70
     1
102
RTVSPost2010Prop32
280
     0
102
RTVSPost2010PropOp32
 70
     1
102
RTVSPost2010Prop33
280
     0
102
RTVSPost2010PropOp33
 70
     1
102
RTVSPost2010Prop34
280
     0
102
RTVSPost2010PropOp34
 70
     1
102
RTVSPost2010Prop35
280
     0
102
RTVSPost2010PropOp35
 70
     1
102
RTVSPost2010Prop36
280
     0
102
RTVSPost2010PropOp36
 70
     1
102
RTVSPost2010Prop37
 90
       50
102
RTVSPost2010PropOp37
 70
     1
102
RTVSPost2010Prop38
140
0.0
102
RTVSPost2010PropOp38
 70
     1
102
RTVSPost2010Prop39
140
1.0
102
RTVSPost2010PropOp39
 70
     1
102
RTVSPost2010Prop40
 90
        0
102
RTVSPost2010PropOp40
 70
     1
102
RTVSPost2010Prop41ColorIndex
 90
       18
102
RTVSPost2010Prop41ColorRGB
 90
        0
102
RTVSPost2010PropOp41
 70
     1
102
RTVSPost2010Prop42
 90
       50
102
RTVSPost2010PropOp42
 70
     1
102
RTVSPost2010Prop43
 90
        3
102
RTVSPost2010PropOp43
 70
     1
102
RTVSPost2010Prop44ColorIndex
 90
        5
102
RTVSPost2010Prop44ColorRGB
 90
      255
102
RTVSPost2010PropOp44
 70
     1
102
RTVSPost2010Prop45
280
     0
102
RTVSPost2010PropOp45
 70
     1
102
RTVSPost2010Prop46
 90
       50
102
RTVSPost2010PropOp46
 70
     1
102
RTVSPost2010Prop47
 90
       50
102
RTVSPost2010PropOp47
 70
     1
102
RTVSPost2010Prop48
 90
       50
102
RTVSPost2010PropOp48
 70
     1
102
RTVSPost2010Prop49
280
     0
102
RTVSPost2010PropOp49
 70
     1
102
RTVSPost2010Prop50
 90
       50
102
RTVSPost2010PropOp50
 70
     1
102
RTVSPost2010Prop51ColorIndex
 90
      256
102
RTVSPost2010Prop51ColorRGB
 90
-16777216
102
RTVSPost2010PropOp51
 70
     0
102
RTVSPost2010Prop52
140
1.0
102
RTVSPost2010PropOp52
 70
     0
102
RTVSPost2010Prop53
 90
        2
102
RTVSPost2010PropOp53
 70
     1
102
RTVSPost2010Prop54
  1
strokes_ogs.tif
102
RTVSPost2010PropOp54
 70
     1
102
RTVSPost2010Prop55
280
     0
102
RTVSPost2010PropOp55
 70
     1
102
RTVSPost2010Prop56
140
1.0
102
RTVSPost2010PropOp56
 70
     1
102
RTVSPost2010Prop57
140
1.0
102
RTVSPost2010PropOp57
 70
     1
102
RTVSPropertyOp0
 70
     1
102
RTVSPropertyOp1
 70
     1
102
RTVSPropertyOp2
 70
     1
102
RTVSPropertyOp3
 70
     1
102
RTVSPropertyOp4
 70
     1
102
RTVSPropertyOp5
 70
     1
102
RTVSPropertyOp6
 70
     1
102
RTVSPropertyOp7
 70
     1
102
RTVSPropertyOp8
 70
     1
102
RTVSPropertyOp9
 70
     1
102
RTVSPropertyOp10
 70
     1
102
RTVSPropertyOp11
 70
     1
102
RTVSPropertyOp12
 70
     1
102
RTVSPropertyOp13
 70
     1
102
RTVSPropertyOp14
 70
     1
102
RTVSPropertyOp15
 70
     1
102
RTVSPropertyOp16
 70
     1
102
RTVSPropertyOp17
 70
     1
102
RTVSPropertyOp18
 70
     1
102
RTVSPropertyOp19
 70
     1
102
RTVSPropertyOp20
 70
     1
102
RTVSPropertyOp21
 70
     1
102
RTVSPropertyOp22
 70
     1
102
RTVSPropertyOp23
 70
     1
102
RTVSPropertyOp24
 70
     1
102
RTVSPropertyOp25
 70
     1
102
RTVSPropertyOp26
 70
     1
102
RTVSPropertyOp27
 70
     1
102
RTVSPropertyOp28
 70
     1
102
RTVSPropertyOp29
 70
     1
102
RTVSPropertyOp30
 70
     1
102
RTVSPropertyOp31
 70
     1
102
RTVSPropertyOp32
 70
     1
102
RTVSPropertyOp33
 70
     1
102
RTVSPropertyOp34
 70
     1
102
RTVSPropertyOp35
 70
     1
102
RTVSPropertyOp36
 70
     1
102
RTVSPropertyOp37
 70
     1
102
RTVSPropertyOp38
 70
     1
102
RTVSPropertyOp39
 70
     1
102
RTVSPropertyOp40
 70
     1
102
RTVSPropertyOp41
 70
     1
102
RTVSPropertyOp42
 70
     1
102
RTVSPropertyOp43
 70
     1
102
RTVSPropertyOp44
 70
     1
102
RTVSPropertyOp45
 70
     1
102
RTVSPropertyOp46
 70
     1
102
RTVSPropertyOp47
 70
     1
102
RTVSPropertyOp48
 70
     1
102
RTVSPropertyOp49
 70
     1
102
RTVSPropertyOp50
 70
     1
102
RTVSPropertyOp51
 70
     0
102
RTVSPropertyOp52
 70
     0
102
RTVSPropertyOp53
 70
     1
102
RTVSPropertyOp54
 70
     1
102
RTVSPropertyOp55
 70
     1
102
RTVSPropertyOp56
 70
     1
102
RTVSPropertyOp57
 70
     1
102
RTVSPropertyOp58
 70
     1
102
RTVSPropertyOp59
 70
     1
102
RTVSPropertyOp60
 70
     1
102
RTVSPropertyOp61
 70
     1
102
RTVSPropertyOp62
 70
     1
  0
XRECORD
  5
C7B
102
{ACAD_REACTORS
330
C7A
102
}
330
C7A
100
AcDbXrecord
280
     1
102
RTVSPost2010Prop28
280
     0
102
RTVSPost2010PropOp28
 70
     1
102
RTVSPost2010Prop29
280
     1
102
RTVSPost2010PropOp29
 70
     1
102
RTVSPost2010Prop30
280
     1
102
RTVSPost2010PropOp30
 70
     1
102
RTVSPost2010Prop31
280
     0
102
RTVSPost2010PropOp31
 70
     1
102
RTVSPost2010Prop32
280
     0
102
RTVSPost2010PropOp32
 70
     1
102
RTVSPost2010Prop33
280
     0
102
RTVSPost2010PropOp33
 70
     1
102
RTVSPost2010Prop34
280
     0
102
RTVSPost2010PropOp34
 70
     1
102
RTVSPost2010Prop35
280
     0
102
RTVSPost2010PropOp35
 70
     1
102
RTVSPost2010Prop36
280
     0
102
RTVSPost2010PropOp36
 70
     1
102
RTVSPost2010Prop37
 90
       50
102
RTVSPost2010PropOp37
 70
     1
102
RTVSPost2010Prop38
140
0.0
102
RTVSPost2010PropOp38
 70
     1
102
RTVSPost2010Prop39
140
1.0
102
RTVSPost2010PropOp39
 70
     1
102
RTVSPost2010Prop40
 90
        0
102
RTVSPost2010PropOp40
 70
     1
102
RTVSPost2010Prop41ColorIndex
 90
       18
102
RTVSPost2010Prop41ColorRGB
 90
        0
102
RTVSPost2010PropOp41
 70
     1
102
RTVSPost2010Prop42
 90
       50
102
RTVSPost2010PropOp42
 70
     1
102
RTVSPost2010Prop43
 90
        3
102
RTVSPost2010PropOp43
 70
     1
102
RTVSPost2010Prop44ColorIndex
 90
        5
102
RTVSPost2010Prop44ColorRGB
 90
      255
102
RTVSPost2010PropOp44
 70
     1
102
RTVSPost2010Prop45
280
     0
102
RTVSPost2010PropOp45
 70
     1
102
RTVSPost2010Prop46
 90
       50
102
RTVSPost2010PropOp46
 70
     1
102
RTVSPost2010Prop47
 90
       50
102
RTVSPost2010PropOp47
 70
     1
102
RTVSPost2010Prop48
 90
       50
102
RTVSPost2010PropOp48
 70
     1
102
RTVSPost2010Prop49
280
     0
102
RTVSPost2010PropOp49
 70
     1
102
RTVSPost2010Prop50
 90
       50
102
RTVSPost2010PropOp50
 70
     1
102
RTVSPost2010Prop51ColorIndex
 90
      256
102
RTVSPost2010Prop51ColorRGB
 90
-16777216
102
RTVSPost2010PropOp51
 70
     0
102
RTVSPost2010Prop52
140
1.0
102
RTVSPost2010PropOp52
 70
     0
102
RTVSPost2010Prop53
 90
        2
102
RTVSPost2010PropOp53
 70
     1
102
RTVSPost2010Prop54
  1
strokes_ogs.tif
102
RTVSPost2010PropOp54
 70
     1
102
RTVSPost2010Prop55
280
     0
102
RTVSPost2010PropOp55
 70
     1
102
RTVSPost2010Prop56
140
1.0
102
RTVSPost2010PropOp56
 70
     1
102
RTVSPost2010Prop57
140
1.0
102
RTVSPost2010PropOp57
 70
     1
102
RTVSPropertyOp0
 70
     1
102
RTVSPropertyOp1
 70
     1
102
RTVSPropertyOp2
 70
     1
102
RTVSPropertyOp3
 70
     1
102
RTVSPropertyOp4
 70
     1
102
RTVSPropertyOp5
 70
     1
102
RTVSPropertyOp6
 70
     1
102
RTVSPropertyOp7
 70
     1
102
RTVSPropertyOp8
 70
     1
102
RTVSPropertyOp9
 70
     1
102
RTVSPropertyOp10
 70
     1
102
RTVSPropertyOp11
 70
     1
102
RTVSPropertyOp12
 70
     1
102
RTVSPropertyOp13
 70
     1
102
RTVSPropertyOp14
 70
     1
102
RTVSPropertyOp15
 70
     1
102
RTVSPropertyOp16
 70
     1
102
RTVSPropertyOp17
 70
     1
102
RTVSPropertyOp18
 70
     1
102
RTVSPropertyOp19
 70
     1
102
RTVSPropertyOp20
 70
     1
102
RTVSPropertyOp21
 70
     1
102
RTVSPropertyOp22
 70
     1
102
RTVSPropertyOp23
 70
     1
102
RTVSPropertyOp24
 70
     1
102
RTVSPropertyOp25
 70
     1
102
RTVSPropertyOp26
 70
     1
102
RTVSPropertyOp27
 70
     1
102
RTVSPropertyOp28
 70
     1
102
RTVSPropertyOp29
 70
     1
102
RTVSPropertyOp30
 70
     1
102
RTVSPropertyOp31
 70
     1
102
RTVSPropertyOp32
 70
     1
102
RTVSPropertyOp33
 70
     1
102
RTVSPropertyOp34
 70
     1
102
RTVSPropertyOp35
 70
     1
102
RTVSPropertyOp36
 70
     1
102
RTVSPropertyOp37
 70
     1
102
RTVSPropertyOp38
 70
     1
102
RTVSPropertyOp39
 70
     1
102
RTVSPropertyOp40
 70
     1
102
RTVSPropertyOp41
 70
     1
102
RTVSPropertyOp42
 70
     1
102
RTVSPropertyOp43
 70
     1
102
RTVSPropertyOp44
 70
     1
102
RTVSPropertyOp45
 70
     1
102
RTVSPropertyOp46
 70
     1
102
RTVSPropertyOp47
 70
     1
102
RTVSPropertyOp48
 70
     1
102
RTVSPropertyOp49
 70
     1
102
RTVSPropertyOp50
 70
     1
102
RTVSPropertyOp51
 70
     0
102
RTVSPropertyOp52
 70
     0
102
RTVSPropertyOp53
 70
     1
102
RTVSPropertyOp54
 70
     1
102
RTVSPropertyOp55
 70
     1
102
RTVSPropertyOp56
 70
     1
102
RTVSPropertyOp57
 70
     1
102
RTVSPropertyOp58
 70
     1
102
RTVSPropertyOp59
 70
     1
102
RTVSPropertyOp60
 70
     1
102
RTVSPropertyOp61
 70
     1
102
RTVSPropertyOp62
 70
     1
  0
XRECORD
  5
C83
102
{ACAD_REACTORS
330
C82
102
}
330
C82
100
AcDbXrecord
280
     1
102
RTVSPost2010Prop28
280
     0
102
RTVSPost2010PropOp28
 70
     1
102
RTVSPost2010Prop29
280
     1
102
RTVSPost2010PropOp29
 70
     1
102
RTVSPost2010Prop30
280
     1
102
RTVSPost2010PropOp30
 70
     1
102
RTVSPost2010Prop31
280
     0
102
RTVSPost2010PropOp31
 70
     1
102
RTVSPost2010Prop32
280
     0
102
RTVSPost2010PropOp32
 70
     1
102
RTVSPost2010Prop33
280
     0
102
RTVSPost2010PropOp33
 70
     1
102
RTVSPost2010Prop34
280
     0
102
RTVSPost2010PropOp34
 70
     1
102
RTVSPost2010Prop35
280
     0
102
RTVSPost2010PropOp35
 70
     1
102
RTVSPost2010Prop36
280
     0
102
RTVSPost2010PropOp36
 70
     1
102
RTVSPost2010Prop37
 90
       50
102
RTVSPost2010PropOp37
 70
     1
102
RTVSPost2010Prop38
140
0.0
102
RTVSPost2010PropOp38
 70
     1
102
RTVSPost2010Prop39
140
1.0
102
RTVSPost2010PropOp39
 70
     1
102
RTVSPost2010Prop40
 90
        0
102
RTVSPost2010PropOp40
 70
     1
102
RTVSPost2010Prop41ColorIndex
 90
       18
102
RTVSPost2010Prop41ColorRGB
 90
        0
102
RTVSPost2010PropOp41
 70
     1
102
RTVSPost2010Prop42
 90
       50
102
RTVSPost2010PropOp42
 70
     1
102
RTVSPost2010Prop43
 90
        3
102
RTVSPost2010PropOp43
 70
     1
102
RTVSPost2010Prop44ColorIndex
 90
        5
102
RTVSPost2010Prop44ColorRGB
 90
      255
102
RTVSPost2010PropOp44
 70
     1
102
RTVSPost2010Prop45
280
     0
102
RTVSPost2010PropOp45
 70
     1
102
RTVSPost2010Prop46
 90
       50
102
RTVSPost2010PropOp46
 70
     1
102
RTVSPost2010Prop47
 90
       50
102
RTVSPost2010PropOp47
 70
     1
102
RTVSPost2010Prop48
 90
       50
102
RTVSPost2010PropOp48
 70
     1
102
RTVSPost2010Prop49
280
     0
102
RTVSPost2010PropOp49
 70
     1
102
RTVSPost2010Prop50
 90
       50
102
RTVSPost2010PropOp50
 70
     1
102
RTVSPost2010Prop51ColorIndex
 90
      256
102
RTVSPost2010Prop51ColorRGB
 90
-16777216
102
RTVSPost2010PropOp51
 70
     0
102
RTVSPost2010Prop52
140
1.0
102
RTVSPost2010PropOp52
 70
     0
102
RTVSPost2010Prop53
 90
        2
102
RTVSPost2010PropOp53
 70
     1
102
RTVSPost2010Prop54
  1
strokes_ogs.tif
102
RTVSPost2010PropOp54
 70
     1
102
RTVSPost2010Prop55
280
     0
102
RTVSPost2010PropOp55
 70
     1
102
RTVSPost2010Prop56
140
1.0
102
RTVSPost2010PropOp56
 70
     1
102
RTVSPost2010Prop57
140
1.0
102
RTVSPost2010PropOp57
 70
     1
102
RTVSPropertyOp0
 70
     1
102
RTVSPropertyOp1
 70
     1
102
RTVSPropertyOp2
 70
     1
102
RTVSPropertyOp3
 70
     1
102
RTVSPropertyOp4
 70
     1
102
RTVSPropertyOp5
 70
     1
102
RTVSPropertyOp6
 70
     1
102
RTVSPropertyOp7
 70
     1
102
RTVSPropertyOp8
 70
     1
102
RTVSPropertyOp9
 70
     1
102
RTVSPropertyOp10
 70
     1
102
RTVSPropertyOp11
 70
     1
102
RTVSPropertyOp12
 70
     1
102
RTVSPropertyOp13
 70
     1
102
RTVSPropertyOp14
 70
     1
102
RTVSPropertyOp15
 70
     1
102
RTVSPropertyOp16
 70
     1
102
RTVSPropertyOp17
 70
     1
102
RTVSPropertyOp18
 70
     1
102
RTVSPropertyOp19
 70
     1
102
RTVSPropertyOp20
 70
     1
102
RTVSPropertyOp21
 70
     1
102
RTVSPropertyOp22
 70
     1
102
RTVSPropertyOp23
 70
     1
102
RTVSPropertyOp24
 70
     1
102
RTVSPropertyOp25
 70
     1
102
RTVSPropertyOp26
 70
     1
102
RTVSPropertyOp27
 70
     1
102
RTVSPropertyOp28
 70
     1
102
RTVSPropertyOp29
 70
     1
102
RTVSPropertyOp30
 70
     1
102
RTVSPropertyOp31
 70
     1
102
RTVSPropertyOp32
 70
     1
102
RTVSPropertyOp33
 70
     1
102
RTVSPropertyOp34
 70
     1
102
RTVSPropertyOp35
 70
     1
102
RTVSPropertyOp36
 70
     1
102
RTVSPropertyOp37
 70
     1
102
RTVSPropertyOp38
 70
     1
102
RTVSPropertyOp39
 70
     1
102
RTVSPropertyOp40
 70
     1
102
RTVSPropertyOp41
 70
     1
102
RTVSPropertyOp42
 70
     1
102
RTVSPropertyOp43
 70
     1
102
RTVSPropertyOp44
 70
     1
102
RTVSPropertyOp45
 70
     1
102
RTVSPropertyOp46
 70
     1
102
RTVSPropertyOp47
 70
     1
102
RTVSPropertyOp48
 70
     1
102
RTVSPropertyOp49
 70
     1
102
RTVSPropertyOp50
 70
     1
102
RTVSPropertyOp51
 70
     0
102
RTVSPropertyOp52
 70
     0
102
RTVSPropertyOp53
 70
     1
102
RTVSPropertyOp54
 70
     1
102
RTVSPropertyOp55
 70
     1
102
RTVSPropertyOp56
 70
     1
102
RTVSPropertyOp57
 70
     1
102
RTVSPropertyOp58
 70
     1
102
RTVSPropertyOp59
 70
     1
102
RTVSPropertyOp60
 70
     1
102
RTVSPropertyOp61
 70
     1
102
RTVSPropertyOp62
 70
     1
  0
XRECORD
  5
C75
102
{ACAD_REACTORS
330
C74
102
}
330
C74
100
AcDbXrecord
280
     1
102
RTVSPost2010Prop28
280
     0
102
RTVSPost2010PropOp28
 70
     1
102
RTVSPost2010Prop29
280
     1
102
RTVSPost2010PropOp29
 70
     1
102
RTVSPost2010Prop30
280
     1
102
RTVSPost2010PropOp30
 70
     1
102
RTVSPost2010Prop31
280
     0
102
RTVSPost2010PropOp31
 70
     1
102
RTVSPost2010Prop32
280
     0
102
RTVSPost2010PropOp32
 70
     1
102
RTVSPost2010Prop33
280
     0
102
RTVSPost2010PropOp33
 70
     1
102
RTVSPost2010Prop34
280
     0
102
RTVSPost2010PropOp34
 70
     1
102
RTVSPost2010Prop35
280
     0
102
RTVSPost2010PropOp35
 70
     1
102
RTVSPost2010Prop36
280
     0
102
RTVSPost2010PropOp36
 70
     1
102
RTVSPost2010Prop37
 90
       50
102
RTVSPost2010PropOp37
 70
     1
102
RTVSPost2010Prop38
140
0.0
102
RTVSPost2010PropOp38
 70
     1
102
RTVSPost2010Prop39
140
1.0
102
RTVSPost2010PropOp39
 70
     1
102
RTVSPost2010Prop40
 90
        0
102
RTVSPost2010PropOp40
 70
     1
102
RTVSPost2010Prop41ColorIndex
 90
       18
102
RTVSPost2010Prop41ColorRGB
 90
        0
102
RTVSPost2010PropOp41
 70
     1
102
RTVSPost2010Prop42
 90
       50
102
RTVSPost2010PropOp42
 70
     1
102
RTVSPost2010Prop43
 90
        3
102
RTVSPost2010PropOp43
 70
     1
102
RTVSPost2010Prop44ColorIndex
 90
        5
102
RTVSPost2010Prop44ColorRGB
 90
      255
102
RTVSPost2010PropOp44
 70
     1
102
RTVSPost2010Prop45
280
     0
102
RTVSPost2010PropOp45
 70
     1
102
RTVSPost2010Prop46
 90
       50
102
RTVSPost2010PropOp46
 70
     1
102
RTVSPost2010Prop47
 90
       50
102
RTVSPost2010PropOp47
 70
     1
102
RTVSPost2010Prop48
 90
       50
102
RTVSPost2010PropOp48
 70
     1
102
RTVSPost2010Prop49
280
     0
102
RTVSPost2010PropOp49
 70
     1
102
RTVSPost2010Prop50
 90
       50
102
RTVSPost2010PropOp50
 70
     1
102
RTVSPost2010Prop51ColorIndex
 90
      256
102
RTVSPost2010Prop51ColorRGB
 90
-16777216
102
RTVSPost2010PropOp51
 70
     0
102
RTVSPost2010Prop52
140
1.0
102
RTVSPost2010PropOp52
 70
     0
102
RTVSPost2010Prop53
 90
        2
102
RTVSPost2010PropOp53
 70
     1
102
RTVSPost2010Prop54
  1
strokes_ogs.tif
102
RTVSPost2010PropOp54
 70
     1
102
RTVSPost2010Prop55
280
     0
102
RTVSPost2010PropOp55
 70
     1
102
RTVSPost2010Prop56
140
1.0
102
RTVSPost2010PropOp56
 70
     1
102
RTVSPost2010Prop57
140
1.0
102
RTVSPost2010PropOp57
 70
     1
102
RTVSPropertyOp0
 70
     1
102
RTVSPropertyOp1
 70
     1
102
RTVSPropertyOp2
 70
     1
102
RTVSPropertyOp3
 70
     1
102
RTVSPropertyOp4
 70
     1
102
RTVSPropertyOp5
 70
     1
102
RTVSPropertyOp6
 70
     1
102
RTVSPropertyOp7
 70
     1
102
RTVSPropertyOp8
 70
     1
102
RTVSPropertyOp9
 70
     1
102
RTVSPropertyOp10
 70
     1
102
RTVSPropertyOp11
 70
     1
102
RTVSPropertyOp12
 70
     1
102
RTVSPropertyOp13
 70
     1
102
RTVSPropertyOp14
 70
     1
102
RTVSPropertyOp15
 70
     1
102
RTVSPropertyOp16
 70
     1
102
RTVSPropertyOp17
 70
     1
102
RTVSPropertyOp18
 70
     1
102
RTVSPropertyOp19
 70
     1
102
RTVSPropertyOp20
 70
     1
102
RTVSPropertyOp21
 70
     1
102
RTVSPropertyOp22
 70
     1
102
RTVSPropertyOp23
 70
     1
102
RTVSPropertyOp24
 70
     1
102
RTVSPropertyOp25
 70
     1
102
RTVSPropertyOp26
 70
     1
102
RTVSPropertyOp27
 70
     1
102
RTVSPropertyOp28
 70
     1
102
RTVSPropertyOp29
 70
     1
102
RTVSPropertyOp30
 70
     1
102
RTVSPropertyOp31
 70
     1
102
RTVSPropertyOp32
 70
     1
102
RTVSPropertyOp33
 70
     1
102
RTVSPropertyOp34
 70
     1
102
RTVSPropertyOp35
 70
     1
102
RTVSPropertyOp36
 70
     1
102
RTVSPropertyOp37
 70
     1
102
RTVSPropertyOp38
 70
     1
102
RTVSPropertyOp39
 70
     1
102
RTVSPropertyOp40
 70
     1
102
RTVSPropertyOp41
 70
     1
102
RTVSPropertyOp42
 70
     1
102
RTVSPropertyOp43
 70
     1
102
RTVSPropertyOp44
 70
     1
102
RTVSPropertyOp45
 70
     1
102
RTVSPropertyOp46
 70
     1
102
RTVSPropertyOp47
 70
     1
102
RTVSPropertyOp48
 70
     1
102
RTVSPropertyOp49
 70
     1
102
RTVSPropertyOp50
 70
     1
102
RTVSPropertyOp51
 70
     0
102
RTVSPropertyOp52
 70
     0
102
RTVSPropertyOp53
 70
     1
102
RTVSPropertyOp54
 70
     1
102
RTVSPropertyOp55
 70
     1
102
RTVSPropertyOp56
 70
     1
102
RTVSPropertyOp57
 70
     1
102
RTVSPropertyOp58
 70
     1
102
RTVSPropertyOp59
 70
     1
102
RTVSPropertyOp60
 70
     1
102
RTVSPropertyOp61
 70
     1
102
RTVSPropertyOp62
 70
     1
  0
XRECORD
  5
C79
102
{ACAD_REACTORS
330
C78
102
}
330
C78
100
AcDbXrecord
280
     1
102
RTVSPost2010Prop28
280
     0
102
RTVSPost2010PropOp28
 70
     1
102
RTVSPost2010Prop29
280
     1
102
RTVSPost2010PropOp29
 70
     1
102
RTVSPost2010Prop30
280
     1
102
RTVSPost2010PropOp30
 70
     1
102
RTVSPost2010Prop31
280
     0
102
RTVSPost2010PropOp31
 70
     1
102
RTVSPost2010Prop32
280
     0
102
RTVSPost2010PropOp32
 70
     1
102
RTVSPost2010Prop33
280
     0
102
RTVSPost2010PropOp33
 70
     1
102
RTVSPost2010Prop34
280
     0
102
RTVSPost2010PropOp34
 70
     1
102
RTVSPost2010Prop35
280
     0
102
RTVSPost2010PropOp35
 70
     1
102
RTVSPost2010Prop36
280
     0
102
RTVSPost2010PropOp36
 70
     1
102
RTVSPost2010Prop37
 90
       50
102
RTVSPost2010PropOp37
 70
     1
102
RTVSPost2010Prop38
140
0.0
102
RTVSPost2010PropOp38
 70
     1
102
RTVSPost2010Prop39
140
1.0
102
RTVSPost2010PropOp39
 70
     1
102
RTVSPost2010Prop40
 90
        0
102
RTVSPost2010PropOp40
 70
     1
102
RTVSPost2010Prop41ColorIndex
 90
       18
102
RTVSPost2010Prop41ColorRGB
 90
        0
102
RTVSPost2010PropOp41
 70
     1
102
RTVSPost2010Prop42
 90
       50
102
RTVSPost2010PropOp42
 70
     1
102
RTVSPost2010Prop43
 90
        3
102
RTVSPost2010PropOp43
 70
     1
102
RTVSPost2010Prop44ColorIndex
 90
        5
102
RTVSPost2010Prop44ColorRGB
 90
      255
102
RTVSPost2010PropOp44
 70
     1
102
RTVSPost2010Prop45
280
     0
102
RTVSPost2010PropOp45
 70
     1
102
RTVSPost2010Prop46
 90
       50
102
RTVSPost2010PropOp46
 70
     1
102
RTVSPost2010Prop47
 90
       50
102
RTVSPost2010PropOp47
 70
     1
102
RTVSPost2010Prop48
 90
       50
102
RTVSPost2010PropOp48
 70
     1
102
RTVSPost2010Prop49
280
     0
102
RTVSPost2010PropOp49
 70
     1
102
RTVSPost2010Prop50
 90
       50
102
RTVSPost2010PropOp50
 70
     1
102
RTVSPost2010Prop51ColorIndex
 90
      256
102
RTVSPost2010Prop51ColorRGB
 90
-16777216
102
RTVSPost2010PropOp51
 70
     0
102
RTVSPost2010Prop52
140
1.0
102
RTVSPost2010PropOp52
 70
     0
102
RTVSPost2010Prop53
 90
        2
102
RTVSPost2010PropOp53
 70
     1
102
RTVSPost2010Prop54
  1
strokes_ogs.tif
102
RTVSPost2010PropOp54
 70
     1
102
RTVSPost2010Prop55
280
     0
102
RTVSPost2010PropOp55
 70
     1
102
RTVSPost2010Prop56
140
1.0
102
RTVSPost2010PropOp56
 70
     1
102
RTVSPost2010Prop57
140
1.0
102
RTVSPost2010PropOp57
 70
     1
102
RTVSPropertyOp0
 70
     1
102
RTVSPropertyOp1
 70
     1
102
RTVSPropertyOp2
 70
     1
102
RTVSPropertyOp3
 70
     1
102
RTVSPropertyOp4
 70
     1
102
RTVSPropertyOp5
 70
     1
102
RTVSPropertyOp6
 70
     1
102
RTVSPropertyOp7
 70
     1
102
RTVSPropertyOp8
 70
     1
102
RTVSPropertyOp9
 70
     1
102
RTVSPropertyOp10
 70
     1
102
RTVSPropertyOp11
 70
     1
102
RTVSPropertyOp12
 70
     1
102
RTVSPropertyOp13
 70
     1
102
RTVSPropertyOp14
 70
     1
102
RTVSPropertyOp15
 70
     1
102
RTVSPropertyOp16
 70
     1
102
RTVSPropertyOp17
 70
     1
102
RTVSPropertyOp18
 70
     1
102
RTVSPropertyOp19
 70
     1
102
RTVSPropertyOp20
 70
     1
102
RTVSPropertyOp21
 70
     1
102
RTVSPropertyOp22
 70
     1
102
RTVSPropertyOp23
 70
     1
102
RTVSPropertyOp24
 70
     1
102
RTVSPropertyOp25
 70
     1
102
RTVSPropertyOp26
 70
     1
102
RTVSPropertyOp27
 70
     1
102
RTVSPropertyOp28
 70
     1
102
RTVSPropertyOp29
 70
     1
102
RTVSPropertyOp30
 70
     1
102
RTVSPropertyOp31
 70
     1
102
RTVSPropertyOp32
 70
     1
102
RTVSPropertyOp33
 70
     1
102
RTVSPropertyOp34
 70
     1
102
RTVSPropertyOp35
 70
     1
102
RTVSPropertyOp36
 70
     1
102
RTVSPropertyOp37
 70
     1
102
RTVSPropertyOp38
 70
     1
102
RTVSPropertyOp39
 70
     1
102
RTVSPropertyOp40
 70
     1
102
RTVSPropertyOp41
 70
     1
102
RTVSPropertyOp42
 70
     1
102
RTVSPropertyOp43
 70
     1
102
RTVSPropertyOp44
 70
     1
102
RTVSPropertyOp45
 70
     1
102
RTVSPropertyOp46
 70
     1
102
RTVSPropertyOp47
 70
     1
102
RTVSPropertyOp48
 70
     1
102
RTVSPropertyOp49
 70
     1
102
RTVSPropertyOp50
 70
     1
102
RTVSPropertyOp51
 70
     0
102
RTVSPropertyOp52
 70
     0
102
RTVSPropertyOp53
 70
     1
102
RTVSPropertyOp54
 70
     1
102
RTVSPropertyOp55
 70
     1
102
RTVSPropertyOp56
 70
     1
102
RTVSPropertyOp57
 70
     1
102
RTVSPropertyOp58
 70
     1
102
RTVSPropertyOp59
 70
     1
102
RTVSPropertyOp60
 70
     1
102
RTVSPropertyOp61
 70
     1
102
RTVSPropertyOp62
 70
     1
  0
XRECORD
  5
C93
102
{ACAD_REACTORS
330
C92
102
}
330
C92
100
AcDbXrecord
280
     1
102
RTVSPost2010Prop28
280
     0
102
RTVSPost2010PropOp28
 70
     1
102
RTVSPost2010Prop29
280
     1
102
RTVSPost2010PropOp29
 70
     1
102
RTVSPost2010Prop30
280
     1
102
RTVSPost2010PropOp30
 70
     1
102
RTVSPost2010Prop31
280
     0
102
RTVSPost2010PropOp31
 70
     1
102
RTVSPost2010Prop32
280
     0
102
RTVSPost2010PropOp32
 70
     1
102
RTVSPost2010Prop33
280
     0
102
RTVSPost2010PropOp33
 70
     1
102
RTVSPost2010Prop34
280
     0
102
RTVSPost2010PropOp34
 70
     1
102
RTVSPost2010Prop35
280
     0
102
RTVSPost2010PropOp35
 70
     1
102
RTVSPost2010Prop36
280
     0
102
RTVSPost2010PropOp36
 70
     1
102
RTVSPost2010Prop37
 90
       50
102
RTVSPost2010PropOp37
 70
     0
102
RTVSPost2010Prop38
140
0.0
102
RTVSPost2010PropOp38
 70
     0
102
RTVSPost2010Prop39
140
1.0
102
RTVSPost2010PropOp39
 70
     0
102
RTVSPost2010Prop40
 90
        0
102
RTVSPost2010PropOp40
 70
     0
102
RTVSPost2010Prop41ColorIndex
 90
       18
102
RTVSPost2010Prop41ColorRGB
 90
        0
102
RTVSPost2010PropOp41
 70
     0
102
RTVSPost2010Prop42
 90
       50
102
RTVSPost2010PropOp42
 70
     0
102
RTVSPost2010Prop43
 90
        3
102
RTVSPost2010PropOp43
 70
     0
102
RTVSPost2010Prop44ColorIndex
 90
        5
102
RTVSPost2010Prop44ColorRGB
 90
      255
102
RTVSPost2010PropOp44
 70
     0
102
RTVSPost2010Prop45
280
     0
102
RTVSPost2010PropOp45
 70
     1
102
RTVSPost2010Prop46
 90
       50
102
RTVSPost2010PropOp46
 70
     0
102
RTVSPost2010Prop47
 90
       50
102
RTVSPost2010PropOp47
 70
     0
102
RTVSPost2010Prop48
 90
       50
102
RTVSPost2010PropOp48
 70
     0
102
RTVSPost2010Prop49
280
     0
102
RTVSPost2010PropOp49
 70
     1
102
RTVSPost2010Prop50
 90
       50
102
RTVSPost2010PropOp50
 70
     0
102
RTVSPost2010Prop51ColorIndex
 90
      256
102
RTVSPost2010Prop51ColorRGB
 90
-16777216
102
RTVSPost2010PropOp51
 70
     0
102
RTVSPost2010Prop52
140
1.0
102
RTVSPost2010PropOp52
 70
     0
102
RTVSPost2010Prop53
 90
        2
102
RTVSPost2010PropOp53
 70
     0
102
RTVSPost2010Prop54
  1
strokes_ogs.tif
102
RTVSPost2010PropOp54
 70
     0
102
RTVSPost2010Prop55
280
     0
102
RTVSPost2010PropOp55
 70
     1
102
RTVSPost2010Prop56
140
1.0
102
RTVSPost2010PropOp56
 70
     0
102
RTVSPost2010Prop57
140
1.0
102
RTVSPost2010PropOp57
 70
     0
102
RTVSPropertyOp0
 70
     0
102
RTVSPropertyOp1
 70
     0
102
RTVSPropertyOp2
 70
     0
102
RTVSPropertyOp3
 70
     0
102
RTVSPropertyOp4
 70
     0
102
RTVSPropertyOp5
 70
     0
102
RTVSPropertyOp6
 70
     0
102
RTVSPropertyOp7
 70
     0
102
RTVSPropertyOp8
 70
     0
102
RTVSPropertyOp9
 70
     0
102
RTVSPropertyOp10
 70
     0
102
RTVSPropertyOp11
 70
     0
102
RTVSPropertyOp12
 70
     0
102
RTVSPropertyOp13
 70
     0
102
RTVSPropertyOp14
 70
     2
102
RTVSPropertyOp15
 70
     0
102
RTVSPropertyOp16
 70
     0
102
RTVSPropertyOp17
 70
     0
102
RTVSPropertyOp18
 70
     0
102
RTVSPropertyOp19
 70
     0
102
RTVSPropertyOp20
 70
     0
102
RTVSPropertyOp21
 70
     0
102
RTVSPropertyOp22
 70
     0
102
RTVSPropertyOp23
 70
     0
102
RTVSPropertyOp24
 70
     0
102
RTVSPropertyOp25
 70
     0
102
RTVSPropertyOp26
 70
     0
102
RTVSPropertyOp27
 70
     0
102
RTVSPropertyOp28
 70
     1
102
RTVSPropertyOp29
 70
     1
102
RTVSPropertyOp30
 70
     1
102
RTVSPropertyOp31
 70
     1
102
RTVSPropertyOp32
 70
     1
102
RTVSPropertyOp33
 70
     1
102
RTVSPropertyOp34
 70
     1
102
RTVSPropertyOp35
 70
     1
102
RTVSPropertyOp36
 70
     1
102
RTVSPropertyOp37
 70
     0
102
RTVSPropertyOp38
 70
     0
102
RTVSPropertyOp39
 70
     0
102
RTVSPropertyOp40
 70
     0
102
RTVSPropertyOp41
 70
     0
102
RTVSPropertyOp42
 70
     0
102
RTVSPropertyOp43
 70
     0
102
RTVSPropertyOp44
 70
     0
102
RTVSPropertyOp45
 70
     1
102
RTVSPropertyOp46
 70
     0
102
RTVSPropertyOp47
 70
     0
102
RTVSPropertyOp48
 70
     0
102
RTVSPropertyOp49
 70
     1
102
RTVSPropertyOp50
 70
     0
102
RTVSPropertyOp51
 70
     0
102
RTVSPropertyOp52
 70
     0
102
RTVSPropertyOp53
 70
     0
102
RTVSPropertyOp54
 70
     0
102
RTVSPropertyOp55
 70
     1
102
RTVSPropertyOp56
 70
     0
102
RTVSPropertyOp57
 70
     0
102
RTVSPropertyOp58
 70
     0
102
RTVSPropertyOp59
 70
     0
102
RTVSPropertyOp60
 70
     0
102
RTVSPropertyOp61
 70
     0
102
RTVSPropertyOp62
 70
     0
  0
XRECORD
  5
C81
102
{ACAD_REACTORS
330
C80
102
}
330
C80
100
AcDbXrecord
280
     1
102
RTVSPost2010Prop28
280
     0
102
RTVSPost2010PropOp28
 70
     1
102
RTVSPost2010Prop29
280
     1
102
RTVSPost2010PropOp29
 70
     1
102
RTVSPost2010Prop30
280
     1
102
RTVSPost2010PropOp30
 70
     1
102
RTVSPost2010Prop31
280
     0
102
RTVSPost2010PropOp31
 70
     1
102
RTVSPost2010Prop32
280
     0
102
RTVSPost2010PropOp32
 70
     1
102
RTVSPost2010Prop33
280
     0
102
RTVSPost2010PropOp33
 70
     1
102
RTVSPost2010Prop34
280
     0
102
RTVSPost2010PropOp34
 70
     1
102
RTVSPost2010Prop35
280
     0
102
RTVSPost2010PropOp35
 70
     1
102
RTVSPost2010Prop36
280
     0
102
RTVSPost2010PropOp36
 70
     1
102
RTVSPost2010Prop37
 90
       50
102
RTVSPost2010PropOp37
 70
     1
102
RTVSPost2010Prop38
140
0.0
102
RTVSPost2010PropOp38
 70
     1
102
RTVSPost2010Prop39
140
1.0
102
RTVSPost2010PropOp39
 70
     1
102
RTVSPost2010Prop40
 90
        0
102
RTVSPost2010PropOp40
 70
     1
102
RTVSPost2010Prop41ColorIndex
 90
       18
102
RTVSPost2010Prop41ColorRGB
 90
        0
102
RTVSPost2010PropOp41
 70
     1
102
RTVSPost2010Prop42
 90
       50
102
RTVSPost2010PropOp42
 70
     1
102
RTVSPost2010Prop43
 90
        3
102
RTVSPost2010PropOp43
 70
     1
102
RTVSPost2010Prop44ColorIndex
 90
        5
102
RTVSPost2010Prop44ColorRGB
 90
      255
102
RTVSPost2010PropOp44
 70
     1
102
RTVSPost2010Prop45
280
     0
102
RTVSPost2010PropOp45
 70
     1
102
RTVSPost2010Prop46
 90
       50
102
RTVSPost2010PropOp46
 70
     1
102
RTVSPost2010Prop47
 90
       50
102
RTVSPost2010PropOp47
 70
     1
102
RTVSPost2010Prop48
 90
       50
102
RTVSPost2010PropOp48
 70
     1
102
RTVSPost2010Prop49
280
     0
102
RTVSPost2010PropOp49
 70
     1
102
RTVSPost2010Prop50
 90
       50
102
RTVSPost2010PropOp50
 70
     1
102
RTVSPost2010Prop51ColorIndex
 90
      256
102
RTVSPost2010Prop51ColorRGB
 90
-16777216
102
RTVSPost2010PropOp51
 70
     0
102
RTVSPost2010Prop52
140
1.0
102
RTVSPost2010PropOp52
 70
     0
102
RTVSPost2010Prop53
 90
        2
102
RTVSPost2010PropOp53
 70
     1
102
RTVSPost2010Prop54
  1
strokes_ogs.tif
102
RTVSPost2010PropOp54
 70
     1
102
RTVSPost2010Prop55
280
     0
102
RTVSPost2010PropOp55
 70
     1
102
RTVSPost2010Prop56
140
1.0
102
RTVSPost2010PropOp56
 70
     1
102
RTVSPost2010Prop57
140
1.0
102
RTVSPost2010PropOp57
 70
     1
102
RTVSPropertyOp0
 70
     1
102
RTVSPropertyOp1
 70
     1
102
RTVSPropertyOp2
 70
     1
102
RTVSPropertyOp3
 70
     1
102
RTVSPropertyOp4
 70
     1
102
RTVSPropertyOp5
 70
     1
102
RTVSPropertyOp6
 70
     1
102
RTVSPropertyOp7
 70
     1
102
RTVSPropertyOp8
 70
     1
102
RTVSPropertyOp9
 70
     1
102
RTVSPropertyOp10
 70
     1
102
RTVSPropertyOp11
 70
     1
102
RTVSPropertyOp12
 70
     1
102
RTVSPropertyOp13
 70
     1
102
RTVSPropertyOp14
 70
     1
102
RTVSPropertyOp15
 70
     1
102
RTVSPropertyOp16
 70
     1
102
RTVSPropertyOp17
 70
     1
102
RTVSPropertyOp18
 70
     1
102
RTVSPropertyOp19
 70
     1
102
RTVSPropertyOp20
 70
     1
102
RTVSPropertyOp21
 70
     1
102
RTVSPropertyOp22
 70
     1
102
RTVSPropertyOp23
 70
     1
102
RTVSPropertyOp24
 70
     1
102
RTVSPropertyOp25
 70
     1
102
RTVSPropertyOp26
 70
     1
102
RTVSPropertyOp27
 70
     1
102
RTVSPropertyOp28
 70
     1
102
RTVSPropertyOp29
 70
     1
102
RTVSPropertyOp30
 70
     1
102
RTVSPropertyOp31
 70
     1
102
RTVSPropertyOp32
 70
     1
102
RTVSPropertyOp33
 70
     1
102
RTVSPropertyOp34
 70
     1
102
RTVSPropertyOp35
 70
     1
102
RTVSPropertyOp36
 70
     1
102
RTVSPropertyOp37
 70
     1
102
RTVSPropertyOp38
 70
     1
102
RTVSPropertyOp39
 70
     1
102
RTVSPropertyOp40
 70
     1
102
RTVSPropertyOp41
 70
     1
102
RTVSPropertyOp42
 70
     1
102
RTVSPropertyOp43
 70
     1
102
RTVSPropertyOp44
 70
     1
102
RTVSPropertyOp45
 70
     1
102
RTVSPropertyOp46
 70
     1
102
RTVSPropertyOp47
 70
     1
102
RTVSPropertyOp48
 70
     1
102
RTVSPropertyOp49
 70
     1
102
RTVSPropertyOp50
 70
     1
102
RTVSPropertyOp51
 70
     0
102
RTVSPropertyOp52
 70
     0
102
RTVSPropertyOp53
 70
     1
102
RTVSPropertyOp54
 70
     1
102
RTVSPropertyOp55
 70
     1
102
RTVSPropertyOp56
 70
     1
102
RTVSPropertyOp57
 70
     1
102
RTVSPropertyOp58
 70
     1
102
RTVSPropertyOp59
 70
     1
102
RTVSPropertyOp60
 70
     1
102
RTVSPropertyOp61
 70
     1
102
RTVSPropertyOp62
 70
     1
  0
XRECORD
  5
C65
102
{ACAD_REACTORS
330
C64
102
}
330
C64
100
AcDbXrecord
280
     1
102
RTVSPost2010Prop28
280
     0
102
RTVSPost2010PropOp28
 70
     1
102
RTVSPost2010Prop29
280
     1
102
RTVSPost2010PropOp29
 70
     1
102
RTVSPost2010Prop30
280
     1
102
RTVSPost2010PropOp30
 70
     1
102
RTVSPost2010Prop31
280
     0
102
RTVSPost2010PropOp31
 70
     1
102
RTVSPost2010Prop32
280
     0
102
RTVSPost2010PropOp32
 70
     1
102
RTVSPost2010Prop33
280
     0
102
RTVSPost2010PropOp33
 70
     1
102
RTVSPost2010Prop34
280
     0
102
RTVSPost2010PropOp34
 70
     1
102
RTVSPost2010Prop35
280
     0
102
RTVSPost2010PropOp35
 70
     1
102
RTVSPost2010Prop36
280
     0
102
RTVSPost2010PropOp36
 70
     1
102
RTVSPost2010Prop37
 90
       50
102
RTVSPost2010PropOp37
 70
     1
102
RTVSPost2010Prop38
140
0.0
102
RTVSPost2010PropOp38
 70
     1
102
RTVSPost2010Prop39
140
1.0
102
RTVSPost2010PropOp39
 70
     1
102
RTVSPost2010Prop40
 90
        0
102
RTVSPost2010PropOp40
 70
     1
102
RTVSPost2010Prop41ColorIndex
 90
       18
102
RTVSPost2010Prop41ColorRGB
 90
        0
102
RTVSPost2010PropOp41
 70
     1
102
RTVSPost2010Prop42
 90
       50
102
RTVSPost2010PropOp42
 70
     1
102
RTVSPost2010Prop43
 90
        3
102
RTVSPost2010PropOp43
 70
     1
102
RTVSPost2010Prop44ColorIndex
 90
        5
102
RTVSPost2010Prop44ColorRGB
 90
      255
102
RTVSPost2010PropOp44
 70
     1
102
RTVSPost2010Prop45
280
     0
102
RTVSPost2010PropOp45
 70
     1
102
RTVSPost2010Prop46
 90
       50
102
RTVSPost2010PropOp46
 70
     1
102
RTVSPost2010Prop47
 90
       50
102
RTVSPost2010PropOp47
 70
     1
102
RTVSPost2010Prop48
 90
       50
102
RTVSPost2010PropOp48
 70
     1
102
RTVSPost2010Prop49
280
     0
102
RTVSPost2010PropOp49
 70
     1
102
RTVSPost2010Prop50
 90
       50
102
RTVSPost2010PropOp50
 70
     1
102
RTVSPost2010Prop51ColorIndex
 90
      256
102
RTVSPost2010Prop51ColorRGB
 90
-16777216
102
RTVSPost2010PropOp51
 70
     0
102
RTVSPost2010Prop52
140
1.0
102
RTVSPost2010PropOp52
 70
     0
102
RTVSPost2010Prop53
 90
        2
102
RTVSPost2010PropOp53
 70
     1
102
RTVSPost2010Prop54
  1
strokes_ogs.tif
102
RTVSPost2010PropOp54
 70
     1
102
RTVSPost2010Prop55
280
     0
102
RTVSPost2010PropOp55
 70
     1
102
RTVSPost2010Prop56
140
1.0
102
RTVSPost2010PropOp56
 70
     1
102
RTVSPost2010Prop57
140
1.0
102
RTVSPost2010PropOp57
 70
     1
102
RTVSPropertyOp0
 70
     1
102
RTVSPropertyOp1
 70
     1
102
RTVSPropertyOp2
 70
     1
102
RTVSPropertyOp3
 70
     1
102
RTVSPropertyOp4
 70
     1
102
RTVSPropertyOp5
 70
     1
102
RTVSPropertyOp6
 70
     1
102
RTVSPropertyOp7
 70
     1
102
RTVSPropertyOp8
 70
     1
102
RTVSPropertyOp9
 70
     1
102
RTVSPropertyOp10
 70
     1
102
RTVSPropertyOp11
 70
     1
102
RTVSPropertyOp12
 70
     1
102
RTVSPropertyOp13
 70
     1
102
RTVSPropertyOp14
 70
     1
102
RTVSPropertyOp15
 70
     1
102
RTVSPropertyOp16
 70
     1
102
RTVSPropertyOp17
 70
     1
102
RTVSPropertyOp18
 70
     1
102
RTVSPropertyOp19
 70
     1
102
RTVSPropertyOp20
 70
     1
102
RTVSPropertyOp21
 70
     1
102
RTVSPropertyOp22
 70
     1
102
RTVSPropertyOp23
 70
     1
102
RTVSPropertyOp24
 70
     1
102
RTVSPropertyOp25
 70
     1
102
RTVSPropertyOp26
 70
     1
102
RTVSPropertyOp27
 70
     1
102
RTVSPropertyOp28
 70
     1
102
RTVSPropertyOp29
 70
     1
102
RTVSPropertyOp30
 70
     1
102
RTVSPropertyOp31
 70
     1
102
RTVSPropertyOp32
 70
     1
102
RTVSPropertyOp33
 70
     1
102
RTVSPropertyOp34
 70
     1
102
RTVSPropertyOp35
 70
     1
102
RTVSPropertyOp36
 70
     1
102
RTVSPropertyOp37
 70
     1
102
RTVSPropertyOp38
 70
     1
102
RTVSPropertyOp39
 70
     1
102
RTVSPropertyOp40
 70
     1
102
RTVSPropertyOp41
 70
     1
102
RTVSPropertyOp42
 70
     1
102
RTVSPropertyOp43
 70
     1
102
RTVSPropertyOp44
 70
     1
102
RTVSPropertyOp45
 70
     1
102
RTVSPropertyOp46
 70
     1
102
RTVSPropertyOp47
 70
     1
102
RTVSPropertyOp48
 70
     1
102
RTVSPropertyOp49
 70
     1
102
RTVSPropertyOp50
 70
     1
102
RTVSPropertyOp51
 70
     0
102
RTVSPropertyOp52
 70
     0
102
RTVSPropertyOp53
 70
     1
102
RTVSPropertyOp54
 70
     1
102
RTVSPropertyOp55
 70
     1
102
RTVSPropertyOp56
 70
     1
102
RTVSPropertyOp57
 70
     1
102
RTVSPropertyOp58
 70
     1
102
RTVSPropertyOp59
 70
     1
102
RTVSPropertyOp60
 70
     1
102
RTVSPropertyOp61
 70
     1
102
RTVSPropertyOp62
 70
     1
  0
XRECORD
  5
C67
102
{ACAD_REACTORS
330
C66
102
}
330
C66
100
AcDbXrecord
280
     1
102
RTVSPost2010Prop28
280
     0
102
RTVSPost2010PropOp28
 70
     1
102
RTVSPost2010Prop29
280
     1
102
RTVSPost2010PropOp29
 70
     1
102
RTVSPost2010Prop30
280
     1
102
RTVSPost2010PropOp30
 70
     1
102
RTVSPost2010Prop31
280
     0
102
RTVSPost2010PropOp31
 70
     1
102
RTVSPost2010Prop32
280
     0
102
RTVSPost2010PropOp32
 70
     1
102
RTVSPost2010Prop33
280
     0
102
RTVSPost2010PropOp33
 70
     1
102
RTVSPost2010Prop34
280
     0
102
RTVSPost2010PropOp34
 70
     1
102
RTVSPost2010Prop35
280
     0
102
RTVSPost2010PropOp35
 70
     1
102
RTVSPost2010Prop36
280
     0
102
RTVSPost2010PropOp36
 70
     1
102
RTVSPost2010Prop37
 90
       50
102
RTVSPost2010PropOp37
 70
     1
102
RTVSPost2010Prop38
140
0.0
102
RTVSPost2010PropOp38
 70
     1
102
RTVSPost2010Prop39
140
1.0
102
RTVSPost2010PropOp39
 70
     1
102
RTVSPost2010Prop40
 90
        0
102
RTVSPost2010PropOp40
 70
     1
102
RTVSPost2010Prop41ColorIndex
 90
       18
102
RTVSPost2010Prop41ColorRGB
 90
        0
102
RTVSPost2010PropOp41
 70
     1
102
RTVSPost2010Prop42
 90
       50
102
RTVSPost2010PropOp42
 70
     1
102
RTVSPost2010Prop43
 90
        3
102
RTVSPost2010PropOp43
 70
     1
102
RTVSPost2010Prop44ColorIndex
 90
        5
102
RTVSPost2010Prop44ColorRGB
 90
      255
102
RTVSPost2010PropOp44
 70
     1
102
RTVSPost2010Prop45
280
     0
102
RTVSPost2010PropOp45
 70
     1
102
RTVSPost2010Prop46
 90
       50
102
RTVSPost2010PropOp46
 70
     1
102
RTVSPost2010Prop47
 90
       50
102
RTVSPost2010PropOp47
 70
     1
102
RTVSPost2010Prop48
 90
       50
102
RTVSPost2010PropOp48
 70
     1
102
RTVSPost2010Prop49
280
     0
102
RTVSPost2010PropOp49
 70
     1
102
RTVSPost2010Prop50
 90
       50
102
RTVSPost2010PropOp50
 70
     1
102
RTVSPost2010Prop51ColorIndex
 90
      256
102
RTVSPost2010Prop51ColorRGB
 90
-16777216
102
RTVSPost2010PropOp51
 70
     0
102
RTVSPost2010Prop52
140
1.0
102
RTVSPost2010PropOp52
 70
     0
102
RTVSPost2010Prop53
 90
        2
102
RTVSPost2010PropOp53
 70
     1
102
RTVSPost2010Prop54
  1
strokes_ogs.tif
102
RTVSPost2010PropOp54
 70
     1
102
RTVSPost2010Prop55
280
     0
102
RTVSPost2010PropOp55
 70
     1
102
RTVSPost2010Prop56
140
1.0
102
RTVSPost2010PropOp56
 70
     1
102
RTVSPost2010Prop57
140
1.0
102
RTVSPost2010PropOp57
 70
     1
102
RTVSPropertyOp0
 70
     1
102
RTVSPropertyOp1
 70
     1
102
RTVSPropertyOp2
 70
     1
102
RTVSPropertyOp3
 70
     1
102
RTVSPropertyOp4
 70
     1
102
RTVSPropertyOp5
 70
     1
102
RTVSPropertyOp6
 70
     1
102
RTVSPropertyOp7
 70
     1
102
RTVSPropertyOp8
 70
     1
102
RTVSPropertyOp9
 70
     1
102
RTVSPropertyOp10
 70
     1
102
RTVSPropertyOp11
 70
     1
102
RTVSPropertyOp12
 70
     1
102
RTVSPropertyOp13
 70
     1
102
RTVSPropertyOp14
 70
     1
102
RTVSPropertyOp15
 70
     1
102
RTVSPropertyOp16
 70
     1
102
RTVSPropertyOp17
 70
     1
102
RTVSPropertyOp18
 70
     1
102
RTVSPropertyOp19
 70
     1
102
RTVSPropertyOp20
 70
     1
102
RTVSPropertyOp21
 70
     1
102
RTVSPropertyOp22
 70
     1
102
RTVSPropertyOp23
 70
     1
102
RTVSPropertyOp24
 70
     1
102
RTVSPropertyOp25
 70
     1
102
RTVSPropertyOp26
 70
     1
102
RTVSPropertyOp27
 70
     1
102
RTVSPropertyOp28
 70
     1
102
RTVSPropertyOp29
 70
     1
102
RTVSPropertyOp30
 70
     1
102
RTVSPropertyOp31
 70
     1
102
RTVSPropertyOp32
 70
     1
102
RTVSPropertyOp33
 70
     1
102
RTVSPropertyOp34
 70
     1
102
RTVSPropertyOp35
 70
     1
102
RTVSPropertyOp36
 70
     1
102
RTVSPropertyOp37
 70
     1
102
RTVSPropertyOp38
 70
     1
102
RTVSPropertyOp39
 70
     1
102
RTVSPropertyOp40
 70
     1
102
RTVSPropertyOp41
 70
     1
102
RTVSPropertyOp42
 70
     1
102
RTVSPropertyOp43
 70
     1
102
RTVSPropertyOp44
 70
     1
102
RTVSPropertyOp45
 70
     1
102
RTVSPropertyOp46
 70
     1
102
RTVSPropertyOp47
 70
     1
102
RTVSPropertyOp48
 70
     1
102
RTVSPropertyOp49
 70
     1
102
RTVSPropertyOp50
 70
     1
102
RTVSPropertyOp51
 70
     0
102
RTVSPropertyOp52
 70
     0
102
RTVSPropertyOp53
 70
     1
102
RTVSPropertyOp54
 70
     1
102
RTVSPropertyOp55
 70
     1
102
RTVSPropertyOp56
 70
     1
102
RTVSPropertyOp57
 70
     1
102
RTVSPropertyOp58
 70
     1
102
RTVSPropertyOp59
 70
     1
102
RTVSPropertyOp60
 70
     1
102
RTVSPropertyOp61
 70
     1
102
RTVSPropertyOp62
 70
     1
  0
XRECORD
  5
C69
102
{ACAD_REACTORS
330
C68
102
}
330
C68
100
AcDbXrecord
280
     1
102
RTVSPost2010Prop28
280
     0
102
RTVSPost2010PropOp28
 70
     1
102
RTVSPost2010Prop29
280
     1
102
RTVSPost2010PropOp29
 70
     1
102
RTVSPost2010Prop30
280
     1
102
RTVSPost2010PropOp30
 70
     1
102
RTVSPost2010Prop31
280
     0
102
RTVSPost2010PropOp31
 70
     1
102
RTVSPost2010Prop32
280
     0
102
RTVSPost2010PropOp32
 70
     1
102
RTVSPost2010Prop33
280
     0
102
RTVSPost2010PropOp33
 70
     1
102
RTVSPost2010Prop34
280
     0
102
RTVSPost2010PropOp34
 70
     1
102
RTVSPost2010Prop35
280
     0
102
RTVSPost2010PropOp35
 70
     1
102
RTVSPost2010Prop36
280
     0
102
RTVSPost2010PropOp36
 70
     1
102
RTVSPost2010Prop37
 90
       50
102
RTVSPost2010PropOp37
 70
     1
102
RTVSPost2010Prop38
140
0.0
102
RTVSPost2010PropOp38
 70
     1
102
RTVSPost2010Prop39
140
1.0
102
RTVSPost2010PropOp39
 70
     1
102
RTVSPost2010Prop40
 90
        0
102
RTVSPost2010PropOp40
 70
     1
102
RTVSPost2010Prop41ColorIndex
 90
       18
102
RTVSPost2010Prop41ColorRGB
 90
        0
102
RTVSPost2010PropOp41
 70
     1
102
RTVSPost2010Prop42
 90
       50
102
RTVSPost2010PropOp42
 70
     1
102
RTVSPost2010Prop43
 90
        3
102
RTVSPost2010PropOp43
 70
     1
102
RTVSPost2010Prop44ColorIndex
 90
        5
102
RTVSPost2010Prop44ColorRGB
 90
      255
102
RTVSPost2010PropOp44
 70
     1
102
RTVSPost2010Prop45
280
     0
102
RTVSPost2010PropOp45
 70
     1
102
RTVSPost2010Prop46
 90
       50
102
RTVSPost2010PropOp46
 70
     1
102
RTVSPost2010Prop47
 90
       50
102
RTVSPost2010PropOp47
 70
     1
102
RTVSPost2010Prop48
 90
       50
102
RTVSPost2010PropOp48
 70
     1
102
RTVSPost2010Prop49
280
     0
102
RTVSPost2010PropOp49
 70
     1
102
RTVSPost2010Prop50
 90
       50
102
RTVSPost2010PropOp50
 70
     1
102
RTVSPost2010Prop51ColorIndex
 90
      256
102
RTVSPost2010Prop51ColorRGB
 90
-16777216
102
RTVSPost2010PropOp51
 70
     0
102
RTVSPost2010Prop52
140
1.0
102
RTVSPost2010PropOp52
 70
     0
102
RTVSPost2010Prop53
 90
        2
102
RTVSPost2010PropOp53
 70
     1
102
RTVSPost2010Prop54
  1
strokes_ogs.tif
102
RTVSPost2010PropOp54
 70
     1
102
RTVSPost2010Prop55
280
     0
102
RTVSPost2010PropOp55
 70
     1
102
RTVSPost2010Prop56
140
1.0
102
RTVSPost2010PropOp56
 70
     1
102
RTVSPost2010Prop57
140
1.0
102
RTVSPost2010PropOp57
 70
     1
102
RTVSPropertyOp0
 70
     1
102
RTVSPropertyOp1
 70
     1
102
RTVSPropertyOp2
 70
     1
102
RTVSPropertyOp3
 70
     1
102
RTVSPropertyOp4
 70
     1
102
RTVSPropertyOp5
 70
     1
102
RTVSPropertyOp6
 70
     1
102
RTVSPropertyOp7
 70
     1
102
RTVSPropertyOp8
 70
     1
102
RTVSPropertyOp9
 70
     1
102
RTVSPropertyOp10
 70
     1
102
RTVSPropertyOp11
 70
     1
102
RTVSPropertyOp12
 70
     1
102
RTVSPropertyOp13
 70
     1
102
RTVSPropertyOp14
 70
     1
102
RTVSPropertyOp15
 70
     1
102
RTVSPropertyOp16
 70
     1
102
RTVSPropertyOp17
 70
     1
102
RTVSPropertyOp18
 70
     1
102
RTVSPropertyOp19
 70
     1
102
RTVSPropertyOp20
 70
     1
102
RTVSPropertyOp21
 70
     1
102
RTVSPropertyOp22
 70
     1
102
RTVSPropertyOp23
 70
     1
102
RTVSPropertyOp24
 70
     1
102
RTVSPropertyOp25
 70
     1
102
RTVSPropertyOp26
 70
     1
102
RTVSPropertyOp27
 70
     1
102
RTVSPropertyOp28
 70
     1
102
RTVSPropertyOp29
 70
     1
102
RTVSPropertyOp30
 70
     1
102
RTVSPropertyOp31
 70
     1
102
RTVSPropertyOp32
 70
     1
102
RTVSPropertyOp33
 70
     1
102
RTVSPropertyOp34
 70
     1
102
RTVSPropertyOp35
 70
     1
102
RTVSPropertyOp36
 70
     1
102
RTVSPropertyOp37
 70
     1
102
RTVSPropertyOp38
 70
     1
102
RTVSPropertyOp39
 70
     1
102
RTVSPropertyOp40
 70
     1
102
RTVSPropertyOp41
 70
     1
102
RTVSPropertyOp42
 70
     1
102
RTVSPropertyOp43
 70
     1
102
RTVSPropertyOp44
 70
     1
102
RTVSPropertyOp45
 70
     1
102
RTVSPropertyOp46
 70
     1
102
RTVSPropertyOp47
 70
     1
102
RTVSPropertyOp48
 70
     1
102
RTVSPropertyOp49
 70
     1
102
RTVSPropertyOp50
 70
     1
102
RTVSPropertyOp51
 70
     0
102
RTVSPropertyOp52
 70
     0
102
RTVSPropertyOp53
 70
     1
102
RTVSPropertyOp54
 70
     1
102
RTVSPropertyOp55
 70
     1
102
RTVSPropertyOp56
 70
     1
102
RTVSPropertyOp57
 70
     1
102
RTVSPropertyOp58
 70
     1
102
RTVSPropertyOp59
 70
     1
102
RTVSPropertyOp60
 70
     1
102
RTVSPropertyOp61
 70
     1
102
RTVSPropertyOp62
 70
     1
  0
XRECORD
  5
C6B
102
{ACAD_REACTORS
330
C6A
102
}
330
C6A
100
AcDbXrecord
280
     1
102
RTVSPost2010Prop28
280
     0
102
RTVSPost2010PropOp28
 70
     1
102
RTVSPost2010Prop29
280
     1
102
RTVSPost2010PropOp29
 70
     1
102
RTVSPost2010Prop30
280
     1
102
RTVSPost2010PropOp30
 70
     1
102
RTVSPost2010Prop31
280
     0
102
RTVSPost2010PropOp31
 70
     1
102
RTVSPost2010Prop32
280
     0
102
RTVSPost2010PropOp32
 70
     1
102
RTVSPost2010Prop33
280
     0
102
RTVSPost2010PropOp33
 70
     1
102
RTVSPost2010Prop34
280
     0
102
RTVSPost2010PropOp34
 70
     1
102
RTVSPost2010Prop35
280
     0
102
RTVSPost2010PropOp35
 70
     1
102
RTVSPost2010Prop36
280
     0
102
RTVSPost2010PropOp36
 70
     1
102
RTVSPost2010Prop37
 90
       50
102
RTVSPost2010PropOp37
 70
     1
102
RTVSPost2010Prop38
140
0.0
102
RTVSPost2010PropOp38
 70
     1
102
RTVSPost2010Prop39
140
1.0
102
RTVSPost2010PropOp39
 70
     1
102
RTVSPost2010Prop40
 90
        0
102
RTVSPost2010PropOp40
 70
     1
102
RTVSPost2010Prop41ColorIndex
 90
       18
102
RTVSPost2010Prop41ColorRGB
 90
        0
102
RTVSPost2010PropOp41
 70
     1
102
RTVSPost2010Prop42
 90
       50
102
RTVSPost2010PropOp42
 70
     1
102
RTVSPost2010Prop43
 90
        3
102
RTVSPost2010PropOp43
 70
     1
102
RTVSPost2010Prop44ColorIndex
 90
        5
102
RTVSPost2010Prop44ColorRGB
 90
      255
102
RTVSPost2010PropOp44
 70
     1
102
RTVSPost2010Prop45
280
     0
102
RTVSPost2010PropOp45
 70
     1
102
RTVSPost2010Prop46
 90
       50
102
RTVSPost2010PropOp46
 70
     1
102
RTVSPost2010Prop47
 90
       50
102
RTVSPost2010PropOp47
 70
     1
102
RTVSPost2010Prop48
 90
       50
102
RTVSPost2010PropOp48
 70
     1
102
RTVSPost2010Prop49
280
     0
102
RTVSPost2010PropOp49
 70
     1
102
RTVSPost2010Prop50
 90
       50
102
RTVSPost2010PropOp50
 70
     1
102
RTVSPost2010Prop51ColorIndex
 90
      256
102
RTVSPost2010Prop51ColorRGB
 90
-16777216
102
RTVSPost2010PropOp51
 70
     0
102
RTVSPost2010Prop52
140
1.0
102
RTVSPost2010PropOp52
 70
     0
102
RTVSPost2010Prop53
 90
        2
102
RTVSPost2010PropOp53
 70
     1
102
RTVSPost2010Prop54
  1
strokes_ogs.tif
102
RTVSPost2010PropOp54
 70
     1
102
RTVSPost2010Prop55
280
     0
102
RTVSPost2010PropOp55
 70
     1
102
RTVSPost2010Prop56
140
1.0
102
RTVSPost2010PropOp56
 70
     1
102
RTVSPost2010Prop57
140
1.0
102
RTVSPost2010PropOp57
 70
     1
102
RTVSPropertyOp0
 70
     1
102
RTVSPropertyOp1
 70
     1
102
RTVSPropertyOp2
 70
     1
102
RTVSPropertyOp3
 70
     1
102
RTVSPropertyOp4
 70
     1
102
RTVSPropertyOp5
 70
     1
102
RTVSPropertyOp6
 70
     1
102
RTVSPropertyOp7
 70
     1
102
RTVSPropertyOp8
 70
     1
102
RTVSPropertyOp9
 70
     1
102
RTVSPropertyOp10
 70
     1
102
RTVSPropertyOp11
 70
     1
102
RTVSPropertyOp12
 70
     1
102
RTVSPropertyOp13
 70
     1
102
RTVSPropertyOp14
 70
     1
102
RTVSPropertyOp15
 70
     1
102
RTVSPropertyOp16
 70
     1
102
RTVSPropertyOp17
 70
     1
102
RTVSPropertyOp18
 70
     1
102
RTVSPropertyOp19
 70
     1
102
RTVSPropertyOp20
 70
     1
102
RTVSPropertyOp21
 70
     1
102
RTVSPropertyOp22
 70
     1
102
RTVSPropertyOp23
 70
     1
102
RTVSPropertyOp24
 70
     1
102
RTVSPropertyOp25
 70
     1
102
RTVSPropertyOp26
 70
     1
102
RTVSPropertyOp27
 70
     1
102
RTVSPropertyOp28
 70
     1
102
RTVSPropertyOp29
 70
     1
102
RTVSPropertyOp30
 70
     1
102
RTVSPropertyOp31
 70
     1
102
RTVSPropertyOp32
 70
     1
102
RTVSPropertyOp33
 70
     1
102
RTVSPropertyOp34
 70
     1
102
RTVSPropertyOp35
 70
     1
102
RTVSPropertyOp36
 70
     1
102
RTVSPropertyOp37
 70
     1
102
RTVSPropertyOp38
 70
     1
102
RTVSPropertyOp39
 70
     1
102
RTVSPropertyOp40
 70
     1
102
RTVSPropertyOp41
 70
     1
102
RTVSPropertyOp42
 70
     1
102
RTVSPropertyOp43
 70
     1
102
RTVSPropertyOp44
 70
     1
102
RTVSPropertyOp45
 70
     1
102
RTVSPropertyOp46
 70
     1
102
RTVSPropertyOp47
 70
     1
102
RTVSPropertyOp48
 70
     1
102
RTVSPropertyOp49
 70
     1
102
RTVSPropertyOp50
 70
     1
102
RTVSPropertyOp51
 70
     0
102
RTVSPropertyOp52
 70
     0
102
RTVSPropertyOp53
 70
     1
102
RTVSPropertyOp54
 70
     1
102
RTVSPropertyOp55
 70
     1
102
RTVSPropertyOp56
 70
     1
102
RTVSPropertyOp57
 70
     1
102
RTVSPropertyOp58
 70
     1
102
RTVSPropertyOp59
 70
     1
102
RTVSPropertyOp60
 70
     1
102
RTVSPropertyOp61
 70
     1
102
RTVSPropertyOp62
 70
     1
  0
XRECORD
  5
C73
102
{ACAD_REACTORS
330
C72
102
}
330
C72
100
AcDbXrecord
280
     1
102
RTVSPost2010Prop28
280
     0
102
RTVSPost2010PropOp28
 70
     1
102
RTVSPost2010Prop29
280
     1
102
RTVSPost2010PropOp29
 70
     1
102
RTVSPost2010Prop30
280
     1
102
RTVSPost2010PropOp30
 70
     1
102
RTVSPost2010Prop31
280
     0
102
RTVSPost2010PropOp31
 70
     1
102
RTVSPost2010Prop32
280
     0
102
RTVSPost2010PropOp32
 70
     1
102
RTVSPost2010Prop33
280
     0
102
RTVSPost2010PropOp33
 70
     1
102
RTVSPost2010Prop34
280
     0
102
RTVSPost2010PropOp34
 70
     1
102
RTVSPost2010Prop35
280
     0
102
RTVSPost2010PropOp35
 70
     1
102
RTVSPost2010Prop36
280
     0
102
RTVSPost2010PropOp36
 70
     1
102
RTVSPost2010Prop37
 90
       50
102
RTVSPost2010PropOp37
 70
     1
102
RTVSPost2010Prop38
140
0.0
102
RTVSPost2010PropOp38
 70
     1
102
RTVSPost2010Prop39
140
1.0
102
RTVSPost2010PropOp39
 70
     1
102
RTVSPost2010Prop40
 90
        0
102
RTVSPost2010PropOp40
 70
     1
102
RTVSPost2010Prop41ColorIndex
 90
       18
102
RTVSPost2010Prop41ColorRGB
 90
        0
102
RTVSPost2010PropOp41
 70
     1
102
RTVSPost2010Prop42
 90
       50
102
RTVSPost2010PropOp42
 70
     1
102
RTVSPost2010Prop43
 90
        3
102
RTVSPost2010PropOp43
 70
     1
102
RTVSPost2010Prop44ColorIndex
 90
        5
102
RTVSPost2010Prop44ColorRGB
 90
      255
102
RTVSPost2010PropOp44
 70
     1
102
RTVSPost2010Prop45
280
     0
102
RTVSPost2010PropOp45
 70
     1
102
RTVSPost2010Prop46
 90
       50
102
RTVSPost2010PropOp46
 70
     1
102
RTVSPost2010Prop47
 90
       50
102
RTVSPost2010PropOp47
 70
     1
102
RTVSPost2010Prop48
 90
       50
102
RTVSPost2010PropOp48
 70
     1
102
RTVSPost2010Prop49
280
     0
102
RTVSPost2010PropOp49
 70
     1
102
RTVSPost2010Prop50
 90
       50
102
RTVSPost2010PropOp50
 70
     1
102
RTVSPost2010Prop51ColorIndex
 90
      256
102
RTVSPost2010Prop51ColorRGB
 90
-16777216
102
RTVSPost2010PropOp51
 70
     0
102
RTVSPost2010Prop52
140
1.0
102
RTVSPost2010PropOp52
 70
     0
102
RTVSPost2010Prop53
 90
        2
102
RTVSPost2010PropOp53
 70
     1
102
RTVSPost2010Prop54
  1
strokes_ogs.tif
102
RTVSPost2010PropOp54
 70
     1
102
RTVSPost2010Prop55
280
     0
102
RTVSPost2010PropOp55
 70
     1
102
RTVSPost2010Prop56
140
1.0
102
RTVSPost2010PropOp56
 70
     1
102
RTVSPost2010Prop57
140
1.0
102
RTVSPost2010PropOp57
 70
     1
102
RTVSPropertyOp0
 70
     1
102
RTVSPropertyOp1
 70
     1
102
RTVSPropertyOp2
 70
     1
102
RTVSPropertyOp3
 70
     1
102
RTVSPropertyOp4
 70
     1
102
RTVSPropertyOp5
 70
     1
102
RTVSPropertyOp6
 70
     1
102
RTVSPropertyOp7
 70
     1
102
RTVSPropertyOp8
 70
     1
102
RTVSPropertyOp9
 70
     1
102
RTVSPropertyOp10
 70
     1
102
RTVSPropertyOp11
 70
     1
102
RTVSPropertyOp12
 70
     1
102
RTVSPropertyOp13
 70
     1
102
RTVSPropertyOp14
 70
     1
102
RTVSPropertyOp15
 70
     1
102
RTVSPropertyOp16
 70
     1
102
RTVSPropertyOp17
 70
     1
102
RTVSPropertyOp18
 70
     1
102
RTVSPropertyOp19
 70
     1
102
RTVSPropertyOp20
 70
     1
102
RTVSPropertyOp21
 70
     1
102
RTVSPropertyOp22
 70
     1
102
RTVSPropertyOp23
 70
     1
102
RTVSPropertyOp24
 70
     1
102
RTVSPropertyOp25
 70
     1
102
RTVSPropertyOp26
 70
     1
102
RTVSPropertyOp27
 70
     1
102
RTVSPropertyOp28
 70
     1
102
RTVSPropertyOp29
 70
     1
102
RTVSPropertyOp30
 70
     1
102
RTVSPropertyOp31
 70
     1
102
RTVSPropertyOp32
 70
     1
102
RTVSPropertyOp33
 70
     1
102
RTVSPropertyOp34
 70
     1
102
RTVSPropertyOp35
 70
     1
102
RTVSPropertyOp36
 70
     1
102
RTVSPropertyOp37
 70
     1
102
RTVSPropertyOp38
 70
     1
102
RTVSPropertyOp39
 70
     1
102
RTVSPropertyOp40
 70
     1
102
RTVSPropertyOp41
 70
     1
102
RTVSPropertyOp42
 70
     1
102
RTVSPropertyOp43
 70
     1
102
RTVSPropertyOp44
 70
     1
102
RTVSPropertyOp45
 70
     1
102
RTVSPropertyOp46
 70
     1
102
RTVSPropertyOp47
 70
     1
102
RTVSPropertyOp48
 70
     1
102
RTVSPropertyOp49
 70
     1
102
RTVSPropertyOp50
 70
     1
102
RTVSPropertyOp51
 70
     0
102
RTVSPropertyOp52
 70
     0
102
RTVSPropertyOp53
 70
     1
102
RTVSPropertyOp54
 70
     1
102
RTVSPropertyOp55
 70
     1
102
RTVSPropertyOp56
 70
     1
102
RTVSPropertyOp57
 70
     1
102
RTVSPropertyOp58
 70
     1
102
RTVSPropertyOp59
 70
     1
102
RTVSPropertyOp60
 70
     1
102
RTVSPropertyOp61
 70
     1
102
RTVSPropertyOp62
 70
     1
  0
XRECORD
  5
C8F
102
{ACAD_REACTORS
330
C8E
102
}
330
C8E
100
AcDbXrecord
280
     1
102
RTVSPost2010Prop28
280
     0
102
RTVSPost2010PropOp28
 70
     1
102
RTVSPost2010Prop29
280
     1
102
RTVSPost2010PropOp29
 70
     1
102
RTVSPost2010Prop30
280
     1
102
RTVSPost2010PropOp30
 70
     1
102
RTVSPost2010Prop31
280
     0
102
RTVSPost2010PropOp31
 70
     1
102
RTVSPost2010Prop32
280
     0
102
RTVSPost2010PropOp32
 70
     1
102
RTVSPost2010Prop33
280
     0
102
RTVSPost2010PropOp33
 70
     1
102
RTVSPost2010Prop34
280
     0
102
RTVSPost2010PropOp34
 70
     1
102
RTVSPost2010Prop35
280
     0
102
RTVSPost2010PropOp35
 70
     1
102
RTVSPost2010Prop36
280
     0
102
RTVSPost2010PropOp36
 70
     1
102
RTVSPost2010Prop37
 90
       50
102
RTVSPost2010PropOp37
 70
     0
102
RTVSPost2010Prop38
140
0.0
102
RTVSPost2010PropOp38
 70
     0
102
RTVSPost2010Prop39
140
1.0
102
RTVSPost2010PropOp39
 70
     0
102
RTVSPost2010Prop40
 90
        0
102
RTVSPost2010PropOp40
 70
     0
102
RTVSPost2010Prop41ColorIndex
 90
       18
102
RTVSPost2010Prop41ColorRGB
 90
        0
102
RTVSPost2010PropOp41
 70
     0
102
RTVSPost2010Prop42
 90
       50
102
RTVSPost2010PropOp42
 70
     0
102
RTVSPost2010Prop43
 90
        3
102
RTVSPost2010PropOp43
 70
     0
102
RTVSPost2010Prop44ColorIndex
 90
        5
102
RTVSPost2010Prop44ColorRGB
 90
      255
102
RTVSPost2010PropOp44
 70
     0
102
RTVSPost2010Prop45
280
     0
102
RTVSPost2010PropOp45
 70
     1
102
RTVSPost2010Prop46
 90
       50
102
RTVSPost2010PropOp46
 70
     0
102
RTVSPost2010Prop47
 90
       50
102
RTVSPost2010PropOp47
 70
     0
102
RTVSPost2010Prop48
 90
       50
102
RTVSPost2010PropOp48
 70
     0
102
RTVSPost2010Prop49
280
     0
102
RTVSPost2010PropOp49
 70
     1
102
RTVSPost2010Prop50
 90
       50
102
RTVSPost2010PropOp50
 70
     0
102
RTVSPost2010Prop51ColorIndex
 90
      256
102
RTVSPost2010Prop51ColorRGB
 90
-16777216
102
RTVSPost2010PropOp51
 70
     0
102
RTVSPost2010Prop52
140
1.0
102
RTVSPost2010PropOp52
 70
     0
102
RTVSPost2010Prop53
 90
        2
102
RTVSPost2010PropOp53
 70
     0
102
RTVSPost2010Prop54
  1
strokes_ogs.tif
102
RTVSPost2010PropOp54
 70
     0
102
RTVSPost2010Prop55
280
     0
102
RTVSPost2010PropOp55
 70
     1
102
RTVSPost2010Prop56
140
1.0
102
RTVSPost2010PropOp56
 70
     0
102
RTVSPost2010Prop57
140
1.0
102
RTVSPost2010PropOp57
 70
     0
102
RTVSPropertyOp0
 70
     0
102
RTVSPropertyOp1
 70
     0
102
RTVSPropertyOp2
 70
     0
102
RTVSPropertyOp3
 70
     0
102
RTVSPropertyOp4
 70
     0
102
RTVSPropertyOp5
 70
     0
102
RTVSPropertyOp6
 70
     0
102
RTVSPropertyOp7
 70
     0
102
RTVSPropertyOp8
 70
     0
102
RTVSPropertyOp9
 70
     0
102
RTVSPropertyOp10
 70
     0
102
RTVSPropertyOp11
 70
     0
102
RTVSPropertyOp12
 70
     0
102
RTVSPropertyOp13
 70
     0
102
RTVSPropertyOp14
 70
     2
102
RTVSPropertyOp15
 70
     0
102
RTVSPropertyOp16
 70
     0
102
RTVSPropertyOp17
 70
     0
102
RTVSPropertyOp18
 70
     0
102
RTVSPropertyOp19
 70
     0
102
RTVSPropertyOp20
 70
     0
102
RTVSPropertyOp21
 70
     0
102
RTVSPropertyOp22
 70
     0
102
RTVSPropertyOp23
 70
     0
102
RTVSPropertyOp24
 70
     0
102
RTVSPropertyOp25
 70
     0
102
RTVSPropertyOp26
 70
     0
102
RTVSPropertyOp27
 70
     0
102
RTVSPropertyOp28
 70
     1
102
RTVSPropertyOp29
 70
     1
102
RTVSPropertyOp30
 70
     1
102
RTVSPropertyOp31
 70
     1
102
RTVSPropertyOp32
 70
     1
102
RTVSPropertyOp33
 70
     1
102
RTVSPropertyOp34
 70
     1
102
RTVSPropertyOp35
 70
     1
102
RTVSPropertyOp36
 70
     1
102
RTVSPropertyOp37
 70
     0
102
RTVSPropertyOp38
 70
     0
102
RTVSPropertyOp39
 70
     0
102
RTVSPropertyOp40
 70
     0
102
RTVSPropertyOp41
 70
     0
102
RTVSPropertyOp42
 70
     0
102
RTVSPropertyOp43
 70
     0
102
RTVSPropertyOp44
 70
     0
102
RTVSPropertyOp45
 70
     1
102
RTVSPropertyOp46
 70
     0
102
RTVSPropertyOp47
 70
     0
102
RTVSPropertyOp48
 70
     0
102
RTVSPropertyOp49
 70
     1
102
RTVSPropertyOp50
 70
     0
102
RTVSPropertyOp51
 70
     0
102
RTVSPropertyOp52
 70
     0
102
RTVSPropertyOp53
 70
     0
102
RTVSPropertyOp54
 70
     0
102
RTVSPropertyOp55
 70
     1
102
RTVSPropertyOp56
 70
     0
102
RTVSPropertyOp57
 70
     0
102
RTVSPropertyOp58
 70
     0
102
RTVSPropertyOp59
 70
     0
102
RTVSPropertyOp60
 70
     0
102
RTVSPropertyOp61
 70
     0
102
RTVSPropertyOp62
 70
     0
  0
XRECORD
  5
C7F
102
{ACAD_REACTORS
330
C7E
102
}
330
C7E
100
AcDbXrecord
280
     1
102
RTVSPost2010Prop28
280
     0
102
RTVSPost2010PropOp28
 70
     1
102
RTVSPost2010Prop29
280
     1
102
RTVSPost2010PropOp29
 70
     1
102
RTVSPost2010Prop30
280
     1
102
RTVSPost2010PropOp30
 70
     1
102
RTVSPost2010Prop31
280
     0
102
RTVSPost2010PropOp31
 70
     1
102
RTVSPost2010Prop32
280
     0
102
RTVSPost2010PropOp32
 70
     1
102
RTVSPost2010Prop33
280
     0
102
RTVSPost2010PropOp33
 70
     1
102
RTVSPost2010Prop34
280
     0
102
RTVSPost2010PropOp34
 70
     1
102
RTVSPost2010Prop35
280
     0
102
RTVSPost2010PropOp35
 70
     1
102
RTVSPost2010Prop36
280
     0
102
RTVSPost2010PropOp36
 70
     1
102
RTVSPost2010Prop37
 90
       50
102
RTVSPost2010PropOp37
 70
     1
102
RTVSPost2010Prop38
140
0.0
102
RTVSPost2010PropOp38
 70
     1
102
RTVSPost2010Prop39
140
1.0
102
RTVSPost2010PropOp39
 70
     1
102
RTVSPost2010Prop40
 90
        0
102
RTVSPost2010PropOp40
 70
     1
102
RTVSPost2010Prop41ColorIndex
 90
       18
102
RTVSPost2010Prop41ColorRGB
 90
        0
102
RTVSPost2010PropOp41
 70
     1
102
RTVSPost2010Prop42
 90
       50
102
RTVSPost2010PropOp42
 70
     1
102
RTVSPost2010Prop43
 90
        3
102
RTVSPost2010PropOp43
 70
     1
102
RTVSPost2010Prop44ColorIndex
 90
        5
102
RTVSPost2010Prop44ColorRGB
 90
      255
102
RTVSPost2010PropOp44
 70
     1
102
RTVSPost2010Prop45
280
     0
102
RTVSPost2010PropOp45
 70
     1
102
RTVSPost2010Prop46
 90
       50
102
RTVSPost2010PropOp46
 70
     1
102
RTVSPost2010Prop47
 90
       50
102
RTVSPost2010PropOp47
 70
     1
102
RTVSPost2010Prop48
 90
       50
102
RTVSPost2010PropOp48
 70
     1
102
RTVSPost2010Prop49
280
     0
102
RTVSPost2010PropOp49
 70
     1
102
RTVSPost2010Prop50
 90
       50
102
RTVSPost2010PropOp50
 70
     1
102
RTVSPost2010Prop51ColorIndex
 90
      256
102
RTVSPost2010Prop51ColorRGB
 90
-16777216
102
RTVSPost2010PropOp51
 70
     0
102
RTVSPost2010Prop52
140
1.0
102
RTVSPost2010PropOp52
 70
     0
102
RTVSPost2010Prop53
 90
        2
102
RTVSPost2010PropOp53
 70
     1
102
RTVSPost2010Prop54
  1
strokes_ogs.tif
102
RTVSPost2010PropOp54
 70
     1
102
RTVSPost2010Prop55
280
     0
102
RTVSPost2010PropOp55
 70
     1
102
RTVSPost2010Prop56
140
1.0
102
RTVSPost2010PropOp56
 70
     1
102
RTVSPost2010Prop57
140
1.0
102
RTVSPost2010PropOp57
 70
     1
102
RTVSPropertyOp0
 70
     1
102
RTVSPropertyOp1
 70
     1
102
RTVSPropertyOp2
 70
     1
102
RTVSPropertyOp3
 70
     1
102
RTVSPropertyOp4
 70
     1
102
RTVSPropertyOp5
 70
     1
102
RTVSPropertyOp6
 70
     1
102
RTVSPropertyOp7
 70
     1
102
RTVSPropertyOp8
 70
     1
102
RTVSPropertyOp9
 70
     1
102
RTVSPropertyOp10
 70
     1
102
RTVSPropertyOp11
 70
     1
102
RTVSPropertyOp12
 70
     1
102
RTVSPropertyOp13
 70
     1
102
RTVSPropertyOp14
 70
     1
102
RTVSPropertyOp15
 70
     1
102
RTVSPropertyOp16
 70
     1
102
RTVSPropertyOp17
 70
     1
102
RTVSPropertyOp18
 70
     1
102
RTVSPropertyOp19
 70
     1
102
RTVSPropertyOp20
 70
     1
102
RTVSPropertyOp21
 70
     1
102
RTVSPropertyOp22
 70
     1
102
RTVSPropertyOp23
 70
     1
102
RTVSPropertyOp24
 70
     1
102
RTVSPropertyOp25
 70
     1
102
RTVSPropertyOp26
 70
     1
102
RTVSPropertyOp27
 70
     1
102
RTVSPropertyOp28
 70
     1
102
RTVSPropertyOp29
 70
     1
102
RTVSPropertyOp30
 70
     1
102
RTVSPropertyOp31
 70
     1
102
RTVSPropertyOp32
 70
     1
102
RTVSPropertyOp33
 70
     1
102
RTVSPropertyOp34
 70
     1
102
RTVSPropertyOp35
 70
     1
102
RTVSPropertyOp36
 70
     1
102
RTVSPropertyOp37
 70
     1
102
RTVSPropertyOp38
 70
     1
102
RTVSPropertyOp39
 70
     1
102
RTVSPropertyOp40
 70
     1
102
RTVSPropertyOp41
 70
     1
102
RTVSPropertyOp42
 70
     1
102
RTVSPropertyOp43
 70
     1
102
RTVSPropertyOp44
 70
     1
102
RTVSPropertyOp45
 70
     1
102
RTVSPropertyOp46
 70
     1
102
RTVSPropertyOp47
 70
     1
102
RTVSPropertyOp48
 70
     1
102
RTVSPropertyOp49
 70
     1
102
RTVSPropertyOp50
 70
     1
102
RTVSPropertyOp51
 70
     0
102
RTVSPropertyOp52
 70
     0
102
RTVSPropertyOp53
 70
     1
102
RTVSPropertyOp54
 70
     1
102
RTVSPropertyOp55
 70
     1
102
RTVSPropertyOp56
 70
     1
102
RTVSPropertyOp57
 70
     1
102
RTVSPropertyOp58
 70
     1
102
RTVSPropertyOp59
 70
     1
102
RTVSPropertyOp60
 70
     1
102
RTVSPropertyOp61
 70
     1
102
RTVSPropertyOp62
 70
     1
  0
XRECORD
  5
C91
102
{ACAD_REACTORS
330
C90
102
}
330
C90
100
AcDbXrecord
280
     1
102
RTVSPost2010Prop28
280
     0
102
RTVSPost2010PropOp28
 70
     1
102
RTVSPost2010Prop29
280
     1
102
RTVSPost2010PropOp29
 70
     1
102
RTVSPost2010Prop30
280
     1
102
RTVSPost2010PropOp30
 70
     1
102
RTVSPost2010Prop31
280
     0
102
RTVSPost2010PropOp31
 70
     1
102
RTVSPost2010Prop32
280
     0
102
RTVSPost2010PropOp32
 70
     1
102
RTVSPost2010Prop33
280
     0
102
RTVSPost2010PropOp33
 70
     1
102
RTVSPost2010Prop34
280
     0
102
RTVSPost2010PropOp34
 70
     1
102
RTVSPost2010Prop35
280
     0
102
RTVSPost2010PropOp35
 70
     1
102
RTVSPost2010Prop36
280
     0
102
RTVSPost2010PropOp36
 70
     1
102
RTVSPost2010Prop37
 90
       50
102
RTVSPost2010PropOp37
 70
     0
102
RTVSPost2010Prop38
140
0.0
102
RTVSPost2010PropOp38
 70
     0
102
RTVSPost2010Prop39
140
1.0
102
RTVSPost2010PropOp39
 70
     0
102
RTVSPost2010Prop40
 90
        0
102
RTVSPost2010PropOp40
 70
     0
102
RTVSPost2010Prop41ColorIndex
 90
       18
102
RTVSPost2010Prop41ColorRGB
 90
        0
102
RTVSPost2010PropOp41
 70
     0
102
RTVSPost2010Prop42
 90
       50
102
RTVSPost2010PropOp42
 70
     0
102
RTVSPost2010Prop43
 90
        3
102
RTVSPost2010PropOp43
 70
     0
102
RTVSPost2010Prop44ColorIndex
 90
        5
102
RTVSPost2010Prop44ColorRGB
 90
      255
102
RTVSPost2010PropOp44
 70
     0
102
RTVSPost2010Prop45
280
     0
102
RTVSPost2010PropOp45
 70
     1
102
RTVSPost2010Prop46
 90
       50
102
RTVSPost2010PropOp46
 70
     0
102
RTVSPost2010Prop47
 90
       50
102
RTVSPost2010PropOp47
 70
     0
102
RTVSPost2010Prop48
 90
       50
102
RTVSPost2010PropOp48
 70
     0
102
RTVSPost2010Prop49
280
     0
102
RTVSPost2010PropOp49
 70
     1
102
RTVSPost2010Prop50
 90
       50
102
RTVSPost2010PropOp50
 70
     0
102
RTVSPost2010Prop51ColorIndex
 90
      256
102
RTVSPost2010Prop51ColorRGB
 90
-16777216
102
RTVSPost2010PropOp51
 70
     0
102
RTVSPost2010Prop52
140
1.0
102
RTVSPost2010PropOp52
 70
     0
102
RTVSPost2010Prop53
 90
        2
102
RTVSPost2010PropOp53
 70
     0
102
RTVSPost2010Prop54
  1
strokes_ogs.tif
102
RTVSPost2010PropOp54
 70
     0
102
RTVSPost2010Prop55
280
     0
102
RTVSPost2010PropOp55
 70
     1
102
RTVSPost2010Prop56
140
1.0
102
RTVSPost2010PropOp56
 70
     0
102
RTVSPost2010Prop57
140
1.0
102
RTVSPost2010PropOp57
 70
     0
102
RTVSPropertyOp0
 70
     0
102
RTVSPropertyOp1
 70
     0
102
RTVSPropertyOp2
 70
     0
102
RTVSPropertyOp3
 70
     0
102
RTVSPropertyOp4
 70
     0
102
RTVSPropertyOp5
 70
     0
102
RTVSPropertyOp6
 70
     0
102
RTVSPropertyOp7
 70
     0
102
RTVSPropertyOp8
 70
     0
102
RTVSPropertyOp9
 70
     0
102
RTVSPropertyOp10
 70
     0
102
RTVSPropertyOp11
 70
     0
102
RTVSPropertyOp12
 70
     0
102
RTVSPropertyOp13
 70
     0
102
RTVSPropertyOp14
 70
     2
102
RTVSPropertyOp15
 70
     0
102
RTVSPropertyOp16
 70
     0
102
RTVSPropertyOp17
 70
     0
102
RTVSPropertyOp18
 70
     0
102
RTVSPropertyOp19
 70
     0
102
RTVSPropertyOp20
 70
     0
102
RTVSPropertyOp21
 70
     0
102
RTVSPropertyOp22
 70
     0
102
RTVSPropertyOp23
 70
     0
102
RTVSPropertyOp24
 70
     0
102
RTVSPropertyOp25
 70
     0
102
RTVSPropertyOp26
 70
     0
102
RTVSPropertyOp27
 70
     0
102
RTVSPropertyOp28
 70
     1
102
RTVSPropertyOp29
 70
     1
102
RTVSPropertyOp30
 70
     1
102
RTVSPropertyOp31
 70
     1
102
RTVSPropertyOp32
 70
     1
102
RTVSPropertyOp33
 70
     1
102
RTVSPropertyOp34
 70
     1
102
RTVSPropertyOp35
 70
     1
102
RTVSPropertyOp36
 70
     1
102
RTVSPropertyOp37
 70
     0
102
RTVSPropertyOp38
 70
     0
102
RTVSPropertyOp39
 70
     0
102
RTVSPropertyOp40
 70
     0
102
RTVSPropertyOp41
 70
     0
102
RTVSPropertyOp42
 70
     0
102
RTVSPropertyOp43
 70
     0
102
RTVSPropertyOp44
 70
     0
102
RTVSPropertyOp45
 70
     1
102
RTVSPropertyOp46
 70
     0
102
RTVSPropertyOp47
 70
     0
102
RTVSPropertyOp48
 70
     0
102
RTVSPropertyOp49
 70
     1
102
RTVSPropertyOp50
 70
     0
102
RTVSPropertyOp51
 70
     0
102
RTVSPropertyOp52
 70
     0
102
RTVSPropertyOp53
 70
     0
102
RTVSPropertyOp54
 70
     0
102
RTVSPropertyOp55
 70
     1
102
RTVSPropertyOp56
 70
     0
102
RTVSPropertyOp57
 70
     0
102
RTVSPropertyOp58
 70
     0
102
RTVSPropertyOp59
 70
     0
102
RTVSPropertyOp60
 70
     0
102
RTVSPropertyOp61
 70
     0
102
RTVSPropertyOp62
 70
     0
  0
XRECORD
  5
C77
102
{ACAD_REACTORS
330
C76
102
}
330
C76
100
AcDbXrecord
280
     1
102
RTVSPost2010Prop28
280
     0
102
RTVSPost2010PropOp28
 70
     1
102
RTVSPost2010Prop29
280
     1
102
RTVSPost2010PropOp29
 70
     1
102
RTVSPost2010Prop30
280
     1
102
RTVSPost2010PropOp30
 70
     1
102
RTVSPost2010Prop31
280
     0
102
RTVSPost2010PropOp31
 70
     1
102
RTVSPost2010Prop32
280
     0
102
RTVSPost2010PropOp32
 70
     1
102
RTVSPost2010Prop33
280
     0
102
RTVSPost2010PropOp33
 70
     1
102
RTVSPost2010Prop34
280
     0
102
RTVSPost2010PropOp34
 70
     1
102
RTVSPost2010Prop35
280
     0
102
RTVSPost2010PropOp35
 70
     1
102
RTVSPost2010Prop36
280
     0
102
RTVSPost2010PropOp36
 70
     1
102
RTVSPost2010Prop37
 90
       50
102
RTVSPost2010PropOp37
 70
     1
102
RTVSPost2010Prop38
140
0.0
102
RTVSPost2010PropOp38
 70
     1
102
RTVSPost2010Prop39
140
1.0
102
RTVSPost2010PropOp39
 70
     1
102
RTVSPost2010Prop40
 90
        0
102
RTVSPost2010PropOp40
 70
     1
102
RTVSPost2010Prop41ColorIndex
 90
       18
102
RTVSPost2010Prop41ColorRGB
 90
        0
102
RTVSPost2010PropOp41
 70
     1
102
RTVSPost2010Prop42
 90
       50
102
RTVSPost2010PropOp42
 70
     1
102
RTVSPost2010Prop43
 90
        3
102
RTVSPost2010PropOp43
 70
     1
102
RTVSPost2010Prop44ColorIndex
 90
        5
102
RTVSPost2010Prop44ColorRGB
 90
      255
102
RTVSPost2010PropOp44
 70
     1
102
RTVSPost2010Prop45
280
     0
102
RTVSPost2010PropOp45
 70
     1
102
RTVSPost2010Prop46
 90
       50
102
RTVSPost2010PropOp46
 70
     1
102
RTVSPost2010Prop47
 90
       50
102
RTVSPost2010PropOp47
 70
     1
102
RTVSPost2010Prop48
 90
       50
102
RTVSPost2010PropOp48
 70
     1
102
RTVSPost2010Prop49
280
     0
102
RTVSPost2010PropOp49
 70
     1
102
RTVSPost2010Prop50
 90
       50
102
RTVSPost2010PropOp50
 70
     1
102
RTVSPost2010Prop51ColorIndex
 90
      256
102
RTVSPost2010Prop51ColorRGB
 90
-16777216
102
RTVSPost2010PropOp51
 70
     0
102
RTVSPost2010Prop52
140
1.0
102
RTVSPost2010PropOp52
 70
     0
102
RTVSPost2010Prop53
 90
        2
102
RTVSPost2010PropOp53
 70
     1
102
RTVSPost2010Prop54
  1
strokes_ogs.tif
102
RTVSPost2010PropOp54
 70
     1
102
RTVSPost2010Prop55
280
     0
102
RTVSPost2010PropOp55
 70
     1
102
RTVSPost2010Prop56
140
1.0
102
RTVSPost2010PropOp56
 70
     1
102
RTVSPost2010Prop57
140
1.0
102
RTVSPost2010PropOp57
 70
     1
102
RTVSPropertyOp0
 70
     1
102
RTVSPropertyOp1
 70
     1
102
RTVSPropertyOp2
 70
     1
102
RTVSPropertyOp3
 70
     1
102
RTVSPropertyOp4
 70
     1
102
RTVSPropertyOp5
 70
     1
102
RTVSPropertyOp6
 70
     1
102
RTVSPropertyOp7
 70
     1
102
RTVSPropertyOp8
 70
     1
102
RTVSPropertyOp9
 70
     1
102
RTVSPropertyOp10
 70
     1
102
RTVSPropertyOp11
 70
     1
102
RTVSPropertyOp12
 70
     1
102
RTVSPropertyOp13
 70
     1
102
RTVSPropertyOp14
 70
     1
102
RTVSPropertyOp15
 70
     1
102
RTVSPropertyOp16
 70
     1
102
RTVSPropertyOp17
 70
     1
102
RTVSPropertyOp18
 70
     1
102
RTVSPropertyOp19
 70
     1
102
RTVSPropertyOp20
 70
     1
102
RTVSPropertyOp21
 70
     1
102
RTVSPropertyOp22
 70
     1
102
RTVSPropertyOp23
 70
     1
102
RTVSPropertyOp24
 70
     1
102
RTVSPropertyOp25
 70
     1
102
RTVSPropertyOp26
 70
     1
102
RTVSPropertyOp27
 70
     1
102
RTVSPropertyOp28
 70
     1
102
RTVSPropertyOp29
 70
     1
102
RTVSPropertyOp30
 70
     1
102
RTVSPropertyOp31
 70
     1
102
RTVSPropertyOp32
 70
     1
102
RTVSPropertyOp33
 70
     1
102
RTVSPropertyOp34
 70
     1
102
RTVSPropertyOp35
 70
     1
102
RTVSPropertyOp36
 70
     1
102
RTVSPropertyOp37
 70
     1
102
RTVSPropertyOp38
 70
     1
102
RTVSPropertyOp39
 70
     1
102
RTVSPropertyOp40
 70
     1
102
RTVSPropertyOp41
 70
     1
102
RTVSPropertyOp42
 70
     1
102
RTVSPropertyOp43
 70
     1
102
RTVSPropertyOp44
 70
     1
102
RTVSPropertyOp45
 70
     1
102
RTVSPropertyOp46
 70
     1
102
RTVSPropertyOp47
 70
     1
102
RTVSPropertyOp48
 70
     1
102
RTVSPropertyOp49
 70
     1
102
RTVSPropertyOp50
 70
     1
102
RTVSPropertyOp51
 70
     0
102
RTVSPropertyOp52
 70
     0
102
RTVSPropertyOp53
 70
     1
102
RTVSPropertyOp54
 70
     1
102
RTVSPropertyOp55
 70
     1
102
RTVSPropertyOp56
 70
     1
102
RTVSPropertyOp57
 70
     1
102
RTVSPropertyOp58
 70
     1
102
RTVSPropertyOp59
 70
     1
102
RTVSPropertyOp60
 70
     1
102
RTVSPropertyOp61
 70
     1
102
RTVSPropertyOp62
 70
     1
  0
XRECORD
  5
C8D
102
{ACAD_REACTORS
330
C8C
102
}
330
C8C
100
AcDbXrecord
280
     1
102
RTVSPost2010Prop28
280
     0
102
RTVSPost2010PropOp28
 70
     1
102
RTVSPost2010Prop29
280
     1
102
RTVSPost2010PropOp29
 70
     1
102
RTVSPost2010Prop30
280
     1
102
RTVSPost2010PropOp30
 70
     1
102
RTVSPost2010Prop31
280
     0
102
RTVSPost2010PropOp31
 70
     1
102
RTVSPost2010Prop32
280
     0
102
RTVSPost2010PropOp32
 70
     1
102
RTVSPost2010Prop33
280
     0
102
RTVSPost2010PropOp33
 70
     1
102
RTVSPost2010Prop34
280
     0
102
RTVSPost2010PropOp34
 70
     1
102
RTVSPost2010Prop35
280
     0
102
RTVSPost2010PropOp35
 70
     1
102
RTVSPost2010Prop36
280
     0
102
RTVSPost2010PropOp36
 70
     1
102
RTVSPost2010Prop37
 90
       50
102
RTVSPost2010PropOp37
 70
     1
102
RTVSPost2010Prop38
140
0.0
102
RTVSPost2010PropOp38
 70
     1
102
RTVSPost2010Prop39
140
1.0
102
RTVSPost2010PropOp39
 70
     1
102
RTVSPost2010Prop40
 90
        0
102
RTVSPost2010PropOp40
 70
     1
102
RTVSPost2010Prop41ColorIndex
 90
       18
102
RTVSPost2010Prop41ColorRGB
 90
        0
102
RTVSPost2010PropOp41
 70
     1
102
RTVSPost2010Prop42
 90
       50
102
RTVSPost2010PropOp42
 70
     1
102
RTVSPost2010Prop43
 90
        3
102
RTVSPost2010PropOp43
 70
     1
102
RTVSPost2010Prop44ColorIndex
 90
        5
102
RTVSPost2010Prop44ColorRGB
 90
      255
102
RTVSPost2010PropOp44
 70
     1
102
RTVSPost2010Prop45
280
     0
102
RTVSPost2010PropOp45
 70
     1
102
RTVSPost2010Prop46
 90
       50
102
RTVSPost2010PropOp46
 70
     1
102
RTVSPost2010Prop47
 90
       50
102
RTVSPost2010PropOp47
 70
     1
102
RTVSPost2010Prop48
 90
       50
102
RTVSPost2010PropOp48
 70
     1
102
RTVSPost2010Prop49
280
     0
102
RTVSPost2010PropOp49
 70
     1
102
RTVSPost2010Prop50
 90
       50
102
RTVSPost2010PropOp50
 70
     1
102
RTVSPost2010Prop51ColorIndex
 90
      256
102
RTVSPost2010Prop51ColorRGB
 90
-16777216
102
RTVSPost2010PropOp51
 70
     0
102
RTVSPost2010Prop52
140
1.0
102
RTVSPost2010PropOp52
 70
     0
102
RTVSPost2010Prop53
 90
        2
102
RTVSPost2010PropOp53
 70
     1
102
RTVSPost2010Prop54
  1
strokes_ogs.tif
102
RTVSPost2010PropOp54
 70
     1
102
RTVSPost2010Prop55
280
     0
102
RTVSPost2010PropOp55
 70
     1
102
RTVSPost2010Prop56
140
1.0
102
RTVSPost2010PropOp56
 70
     1
102
RTVSPost2010Prop57
140
1.0
102
RTVSPost2010PropOp57
 70
     1
102
RTVSPropertyOp0
 70
     1
102
RTVSPropertyOp1
 70
     1
102
RTVSPropertyOp2
 70
     1
102
RTVSPropertyOp3
 70
     1
102
RTVSPropertyOp4
 70
     1
102
RTVSPropertyOp5
 70
     1
102
RTVSPropertyOp6
 70
     1
102
RTVSPropertyOp7
 70
     1
102
RTVSPropertyOp8
 70
     1
102
RTVSPropertyOp9
 70
     1
102
RTVSPropertyOp10
 70
     1
102
RTVSPropertyOp11
 70
     1
102
RTVSPropertyOp12
 70
     1
102
RTVSPropertyOp13
 70
     1
102
RTVSPropertyOp14
 70
     1
102
RTVSPropertyOp15
 70
     1
102
RTVSPropertyOp16
 70
     1
102
RTVSPropertyOp17
 70
     1
102
RTVSPropertyOp18
 70
     1
102
RTVSPropertyOp19
 70
     1
102
RTVSPropertyOp20
 70
     1
102
RTVSPropertyOp21
 70
     1
102
RTVSPropertyOp22
 70
     1
102
RTVSPropertyOp23
 70
     1
102
RTVSPropertyOp24
 70
     1
102
RTVSPropertyOp25
 70
     1
102
RTVSPropertyOp26
 70
     1
102
RTVSPropertyOp27
 70
     1
102
RTVSPropertyOp28
 70
     1
102
RTVSPropertyOp29
 70
     1
102
RTVSPropertyOp30
 70
     1
102
RTVSPropertyOp31
 70
     1
102
RTVSPropertyOp32
 70
     1
102
RTVSPropertyOp33
 70
     1
102
RTVSPropertyOp34
 70
     1
102
RTVSPropertyOp35
 70
     1
102
RTVSPropertyOp36
 70
     1
102
RTVSPropertyOp37
 70
     1
102
RTVSPropertyOp38
 70
     1
102
RTVSPropertyOp39
 70
     1
102
RTVSPropertyOp40
 70
     1
102
RTVSPropertyOp41
 70
     1
102
RTVSPropertyOp42
 70
     1
102
RTVSPropertyOp43
 70
     1
102
RTVSPropertyOp44
 70
     1
102
RTVSPropertyOp45
 70
     1
102
RTVSPropertyOp46
 70
     1
102
RTVSPropertyOp47
 70
     1
102
RTVSPropertyOp48
 70
     1
102
RTVSPropertyOp49
 70
     1
102
RTVSPropertyOp50
 70
     1
102
RTVSPropertyOp51
 70
     0
102
RTVSPropertyOp52
 70
     0
102
RTVSPropertyOp53
 70
     1
102
RTVSPropertyOp54
 70
     1
102
RTVSPropertyOp55
 70
     1
102
RTVSPropertyOp56
 70
     1
102
RTVSPropertyOp57
 70
     1
102
RTVSPropertyOp58
 70
     1
102
RTVSPropertyOp59
 70
     1
102
RTVSPropertyOp60
 70
     1
102
RTVSPropertyOp61
 70
     1
102
RTVSPropertyOp62
 70
     1
  0
XRECORD
  5
C8B
102
{ACAD_REACTORS
330
C8A
102
}
330
C8A
100
AcDbXrecord
280
     1
102
RTVSPost2010Prop28
280
     0
102
RTVSPost2010PropOp28
 70
     1
102
RTVSPost2010Prop29
280
     1
102
RTVSPost2010PropOp29
 70
     1
102
RTVSPost2010Prop30
280
     1
102
RTVSPost2010PropOp30
 70
     1
102
RTVSPost2010Prop31
280
     0
102
RTVSPost2010PropOp31
 70
     1
102
RTVSPost2010Prop32
280
     0
102
RTVSPost2010PropOp32
 70
     1
102
RTVSPost2010Prop33
280
     0
102
RTVSPost2010PropOp33
 70
     1
102
RTVSPost2010Prop34
280
     0
102
RTVSPost2010PropOp34
 70
     1
102
RTVSPost2010Prop35
280
     0
102
RTVSPost2010PropOp35
 70
     1
102
RTVSPost2010Prop36
280
     0
102
RTVSPost2010PropOp36
 70
     1
102
RTVSPost2010Prop37
 90
       50
102
RTVSPost2010PropOp37
 70
     1
102
RTVSPost2010Prop38
140
0.0
102
RTVSPost2010PropOp38
 70
     1
102
RTVSPost2010Prop39
140
1.0
102
RTVSPost2010PropOp39
 70
     1
102
RTVSPost2010Prop40
 90
        0
102
RTVSPost2010PropOp40
 70
     1
102
RTVSPost2010Prop41ColorIndex
 90
       18
102
RTVSPost2010Prop41ColorRGB
 90
        0
102
RTVSPost2010PropOp41
 70
     1
102
RTVSPost2010Prop42
 90
       50
102
RTVSPost2010PropOp42
 70
     1
102
RTVSPost2010Prop43
 90
        3
102
RTVSPost2010PropOp43
 70
     1
102
RTVSPost2010Prop44ColorIndex
 90
        5
102
RTVSPost2010Prop44ColorRGB
 90
      255
102
RTVSPost2010PropOp44
 70
     1
102
RTVSPost2010Prop45
280
     0
102
RTVSPost2010PropOp45
 70
     1
102
RTVSPost2010Prop46
 90
       50
102
RTVSPost2010PropOp46
 70
     1
102
RTVSPost2010Prop47
 90
       50
102
RTVSPost2010PropOp47
 70
     1
102
RTVSPost2010Prop48
 90
       50
102
RTVSPost2010PropOp48
 70
     1
102
RTVSPost2010Prop49
280
     0
102
RTVSPost2010PropOp49
 70
     1
102
RTVSPost2010Prop50
 90
       50
102
RTVSPost2010PropOp50
 70
     1
102
RTVSPost2010Prop51ColorIndex
 90
      256
102
RTVSPost2010Prop51ColorRGB
 90
-16777216
102
RTVSPost2010PropOp51
 70
     0
102
RTVSPost2010Prop52
140
1.0
102
RTVSPost2010PropOp52
 70
     0
102
RTVSPost2010Prop53
 90
        2
102
RTVSPost2010PropOp53
 70
     1
102
RTVSPost2010Prop54
  1
strokes_ogs.tif
102
RTVSPost2010PropOp54
 70
     1
102
RTVSPost2010Prop55
280
     0
102
RTVSPost2010PropOp55
 70
     1
102
RTVSPost2010Prop56
140
1.0
102
RTVSPost2010PropOp56
 70
     1
102
RTVSPost2010Prop57
140
1.0
102
RTVSPost2010PropOp57
 70
     1
102
RTVSPropertyOp0
 70
     1
102
RTVSPropertyOp1
 70
     1
102
RTVSPropertyOp2
 70
     1
102
RTVSPropertyOp3
 70
     1
102
RTVSPropertyOp4
 70
     1
102
RTVSPropertyOp5
 70
     1
102
RTVSPropertyOp6
 70
     1
102
RTVSPropertyOp7
 70
     1
102
RTVSPropertyOp8
 70
     1
102
RTVSPropertyOp9
 70
     1
102
RTVSPropertyOp10
 70
     1
102
RTVSPropertyOp11
 70
     1
102
RTVSPropertyOp12
 70
     1
102
RTVSPropertyOp13
 70
     1
102
RTVSPropertyOp14
 70
     1
102
RTVSPropertyOp15
 70
     1
102
RTVSPropertyOp16
 70
     1
102
RTVSPropertyOp17
 70
     1
102
RTVSPropertyOp18
 70
     1
102
RTVSPropertyOp19
 70
     1
102
RTVSPropertyOp20
 70
     1
102
RTVSPropertyOp21
 70
     1
102
RTVSPropertyOp22
 70
     1
102
RTVSPropertyOp23
 70
     1
102
RTVSPropertyOp24
 70
     1
102
RTVSPropertyOp25
 70
     1
102
RTVSPropertyOp26
 70
     1
102
RTVSPropertyOp27
 70
     1
102
RTVSPropertyOp28
 70
     1
102
RTVSPropertyOp29
 70
     1
102
RTVSPropertyOp30
 70
     1
102
RTVSPropertyOp31
 70
     1
102
RTVSPropertyOp32
 70
     1
102
RTVSPropertyOp33
 70
     1
102
RTVSPropertyOp34
 70
     1
102
RTVSPropertyOp35
 70
     1
102
RTVSPropertyOp36
 70
     1
102
RTVSPropertyOp37
 70
     1
102
RTVSPropertyOp38
 70
     1
102
RTVSPropertyOp39
 70
     1
102
RTVSPropertyOp40
 70
     1
102
RTVSPropertyOp41
 70
     1
102
RTVSPropertyOp42
 70
     1
102
RTVSPropertyOp43
 70
     1
102
RTVSPropertyOp44
 70
     1
102
RTVSPropertyOp45
 70
     1
102
RTVSPropertyOp46
 70
     1
102
RTVSPropertyOp47
 70
     1
102
RTVSPropertyOp48
 70
     1
102
RTVSPropertyOp49
 70
     1
102
RTVSPropertyOp50
 70
     1
102
RTVSPropertyOp51
 70
     0
102
RTVSPropertyOp52
 70
     0
102
RTVSPropertyOp53
 70
     1
102
RTVSPropertyOp54
 70
     1
102
RTVSPropertyOp55
 70
     1
102
RTVSPropertyOp56
 70
     1
102
RTVSPropertyOp57
 70
     1
102
RTVSPropertyOp58
 70
     1
102
RTVSPropertyOp59
 70
     1
102
RTVSPropertyOp60
 70
     1
102
RTVSPropertyOp61
 70
     1
102
RTVSPropertyOp62
 70
     1
  0
XRECORD
  5
C85
102
{ACAD_REACTORS
330
C84
102
}
330
C84
100
AcDbXrecord
280
     1
102
RTVSPost2010Prop28
280
     0
102
RTVSPost2010PropOp28
 70
     1
102
RTVSPost2010Prop29
280
     1
102
RTVSPost2010PropOp29
 70
     1
102
RTVSPost2010Prop30
280
     1
102
RTVSPost2010PropOp30
 70
     1
102
RTVSPost2010Prop31
280
     0
102
RTVSPost2010PropOp31
 70
     1
102
RTVSPost2010Prop32
280
     0
102
RTVSPost2010PropOp32
 70
     1
102
RTVSPost2010Prop33
280
     0
102
RTVSPost2010PropOp33
 70
     1
102
RTVSPost2010Prop34
280
     0
102
RTVSPost2010PropOp34
 70
     1
102
RTVSPost2010Prop35
280
     0
102
RTVSPost2010PropOp35
 70
     1
102
RTVSPost2010Prop36
280
     0
102
RTVSPost2010PropOp36
 70
     1
102
RTVSPost2010Prop37
 90
       50
102
RTVSPost2010PropOp37
 70
     1
102
RTVSPost2010Prop38
140
0.0
102
RTVSPost2010PropOp38
 70
     1
102
RTVSPost2010Prop39
140
1.0
102
RTVSPost2010PropOp39
 70
     1
102
RTVSPost2010Prop40
 90
        0
102
RTVSPost2010PropOp40
 70
     1
102
RTVSPost2010Prop41ColorIndex
 90
       18
102
RTVSPost2010Prop41ColorRGB
 90
        0
102
RTVSPost2010PropOp41
 70
     1
102
RTVSPost2010Prop42
 90
       50
102
RTVSPost2010PropOp42
 70
     1
102
RTVSPost2010Prop43
 90
        3
102
RTVSPost2010PropOp43
 70
     1
102
RTVSPost2010Prop44ColorIndex
 90
        5
102
RTVSPost2010Prop44ColorRGB
 90
      255
102
RTVSPost2010PropOp44
 70
     1
102
RTVSPost2010Prop45
280
     0
102
RTVSPost2010PropOp45
 70
     1
102
RTVSPost2010Prop46
 90
       50
102
RTVSPost2010PropOp46
 70
     1
102
RTVSPost2010Prop47
 90
       50
102
RTVSPost2010PropOp47
 70
     1
102
RTVSPost2010Prop48
 90
       50
102
RTVSPost2010PropOp48
 70
     1
102
RTVSPost2010Prop49
280
     0
102
RTVSPost2010PropOp49
 70
     1
102
RTVSPost2010Prop50
 90
       50
102
RTVSPost2010PropOp50
 70
     1
102
RTVSPost2010Prop51ColorIndex
 90
      256
102
RTVSPost2010Prop51ColorRGB
 90
-16777216
102
RTVSPost2010PropOp51
 70
     0
102
RTVSPost2010Prop52
140
1.0
102
RTVSPost2010PropOp52
 70
     0
102
RTVSPost2010Prop53
 90
        2
102
RTVSPost2010PropOp53
 70
     1
102
RTVSPost2010Prop54
  1
strokes_ogs.tif
102
RTVSPost2010PropOp54
 70
     1
102
RTVSPost2010Prop55
280
     0
102
RTVSPost2010PropOp55
 70
     1
102
RTVSPost2010Prop56
140
1.0
102
RTVSPost2010PropOp56
 70
     1
102
RTVSPost2010Prop57
140
1.0
102
RTVSPost2010PropOp57
 70
     1
102
RTVSPropertyOp0
 70
     1
102
RTVSPropertyOp1
 70
     1
102
RTVSPropertyOp2
 70
     1
102
RTVSPropertyOp3
 70
     1
102
RTVSPropertyOp4
 70
     1
102
RTVSPropertyOp5
 70
     1
102
RTVSPropertyOp6
 70
     1
102
RTVSPropertyOp7
 70
     1
102
RTVSPropertyOp8
 70
     1
102
RTVSPropertyOp9
 70
     1
102
RTVSPropertyOp10
 70
     1
102
RTVSPropertyOp11
 70
     1
102
RTVSPropertyOp12
 70
     1
102
RTVSPropertyOp13
 70
     1
102
RTVSPropertyOp14
 70
     1
102
RTVSPropertyOp15
 70
     1
102
RTVSPropertyOp16
 70
     1
102
RTVSPropertyOp17
 70
     1
102
RTVSPropertyOp18
 70
     1
102
RTVSPropertyOp19
 70
     1
102
RTVSPropertyOp20
 70
     1
102
RTVSPropertyOp21
 70
     1
102
RTVSPropertyOp22
 70
     1
102
RTVSPropertyOp23
 70
     1
102
RTVSPropertyOp24
 70
     1
102
RTVSPropertyOp25
 70
     1
102
RTVSPropertyOp26
 70
     1
102
RTVSPropertyOp27
 70
     1
102
RTVSPropertyOp28
 70
     1
102
RTVSPropertyOp29
 70
     1
102
RTVSPropertyOp30
 70
     1
102
RTVSPropertyOp31
 70
     1
102
RTVSPropertyOp32
 70
     1
102
RTVSPropertyOp33
 70
     1
102
RTVSPropertyOp34
 70
     1
102
RTVSPropertyOp35
 70
     1
102
RTVSPropertyOp36
 70
     1
102
RTVSPropertyOp37
 70
     1
102
RTVSPropertyOp38
 70
     1
102
RTVSPropertyOp39
 70
     1
102
RTVSPropertyOp40
 70
     1
102
RTVSPropertyOp41
 70
     1
102
RTVSPropertyOp42
 70
     1
102
RTVSPropertyOp43
 70
     1
102
RTVSPropertyOp44
 70
     1
102
RTVSPropertyOp45
 70
     1
102
RTVSPropertyOp46
 70
     1
102
RTVSPropertyOp47
 70
     1
102
RTVSPropertyOp48
 70
     1
102
RTVSPropertyOp49
 70
     1
102
RTVSPropertyOp50
 70
     1
102
RTVSPropertyOp51
 70
     0
102
RTVSPropertyOp52
 70
     0
102
RTVSPropertyOp53
 70
     1
102
RTVSPropertyOp54
 70
     1
102
RTVSPropertyOp55
 70
     1
102
RTVSPropertyOp56
 70
     1
102
RTVSPropertyOp57
 70
     1
102
RTVSPropertyOp58
 70
     1
102
RTVSPropertyOp59
 70
     1
102
RTVSPropertyOp60
 70
     1
102
RTVSPropertyOp61
 70
     1
102
RTVSPropertyOp62
 70
     1
  0
XRECORD
  5
C87
102
{ACAD_REACTORS
330
C86
102
}
330
C86
100
AcDbXrecord
280
     1
102
RTVSPost2010Prop28
280
     0
102
RTVSPost2010PropOp28
 70
     1
102
RTVSPost2010Prop29
280
     1
102
RTVSPost2010PropOp29
 70
     1
102
RTVSPost2010Prop30
280
     1
102
RTVSPost2010PropOp30
 70
     1
102
RTVSPost2010Prop31
280
     0
102
RTVSPost2010PropOp31
 70
     1
102
RTVSPost2010Prop32
280
     0
102
RTVSPost2010PropOp32
 70
     1
102
RTVSPost2010Prop33
280
     0
102
RTVSPost2010PropOp33
 70
     1
102
RTVSPost2010Prop34
280
     0
102
RTVSPost2010PropOp34
 70
     1
102
RTVSPost2010Prop35
280
     0
102
RTVSPost2010PropOp35
 70
     1
102
RTVSPost2010Prop36
280
     0
102
RTVSPost2010PropOp36
 70
     1
102
RTVSPost2010Prop37
 90
       50
102
RTVSPost2010PropOp37
 70
     1
102
RTVSPost2010Prop38
140
0.0
102
RTVSPost2010PropOp38
 70
     1
102
RTVSPost2010Prop39
140
1.0
102
RTVSPost2010PropOp39
 70
     1
102
RTVSPost2010Prop40
 90
        0
102
RTVSPost2010PropOp40
 70
     1
102
RTVSPost2010Prop41ColorIndex
 90
       18
102
RTVSPost2010Prop41ColorRGB
 90
        0
102
RTVSPost2010PropOp41
 70
     1
102
RTVSPost2010Prop42
 90
       50
102
RTVSPost2010PropOp42
 70
     1
102
RTVSPost2010Prop43
 90
        3
102
RTVSPost2010PropOp43
 70
     1
102
RTVSPost2010Prop44ColorIndex
 90
        5
102
RTVSPost2010Prop44ColorRGB
 90
      255
102
RTVSPost2010PropOp44
 70
     1
102
RTVSPost2010Prop45
280
     0
102
RTVSPost2010PropOp45
 70
     1
102
RTVSPost2010Prop46
 90
       50
102
RTVSPost2010PropOp46
 70
     1
102
RTVSPost2010Prop47
 90
       50
102
RTVSPost2010PropOp47
 70
     1
102
RTVSPost2010Prop48
 90
       50
102
RTVSPost2010PropOp48
 70
     1
102
RTVSPost2010Prop49
280
     0
102
RTVSPost2010PropOp49
 70
     1
102
RTVSPost2010Prop50
 90
       50
102
RTVSPost2010PropOp50
 70
     1
102
RTVSPost2010Prop51ColorIndex
 90
      256
102
RTVSPost2010Prop51ColorRGB
 90
-16777216
102
RTVSPost2010PropOp51
 70
     0
102
RTVSPost2010Prop52
140
1.0
102
RTVSPost2010PropOp52
 70
     0
102
RTVSPost2010Prop53
 90
        2
102
RTVSPost2010PropOp53
 70
     1
102
RTVSPost2010Prop54
  1
strokes_ogs.tif
102
RTVSPost2010PropOp54
 70
     1
102
RTVSPost2010Prop55
280
     0
102
RTVSPost2010PropOp55
 70
     1
102
RTVSPost2010Prop56
140
1.0
102
RTVSPost2010PropOp56
 70
     1
102
RTVSPost2010Prop57
140
1.0
102
RTVSPost2010PropOp57
 70
     1
102
RTVSPropertyOp0
 70
     1
102
RTVSPropertyOp1
 70
     1
102
RTVSPropertyOp2
 70
     1
102
RTVSPropertyOp3
 70
     1
102
RTVSPropertyOp4
 70
     1
102
RTVSPropertyOp5
 70
     1
102
RTVSPropertyOp6
 70
     1
102
RTVSPropertyOp7
 70
     1
102
RTVSPropertyOp8
 70
     1
102
RTVSPropertyOp9
 70
     1
102
RTVSPropertyOp10
 70
     1
102
RTVSPropertyOp11
 70
     1
102
RTVSPropertyOp12
 70
     1
102
RTVSPropertyOp13
 70
     1
102
RTVSPropertyOp14
 70
     1
102
RTVSPropertyOp15
 70
     1
102
RTVSPropertyOp16
 70
     1
102
RTVSPropertyOp17
 70
     1
102
RTVSPropertyOp18
 70
     1
102
RTVSPropertyOp19
 70
     1
102
RTVSPropertyOp20
 70
     1
102
RTVSPropertyOp21
 70
     1
102
RTVSPropertyOp22
 70
     1
102
RTVSPropertyOp23
 70
     1
102
RTVSPropertyOp24
 70
     1
102
RTVSPropertyOp25
 70
     1
102
RTVSPropertyOp26
 70
     1
102
RTVSPropertyOp27
 70
     1
102
RTVSPropertyOp28
 70
     1
102
RTVSPropertyOp29
 70
     1
102
RTVSPropertyOp30
 70
     1
102
RTVSPropertyOp31
 70
     1
102
RTVSPropertyOp32
 70
     1
102
RTVSPropertyOp33
 70
     1
102
RTVSPropertyOp34
 70
     1
102
RTVSPropertyOp35
 70
     1
102
RTVSPropertyOp36
 70
     1
102
RTVSPropertyOp37
 70
     1
102
RTVSPropertyOp38
 70
     1
102
RTVSPropertyOp39
 70
     1
102
RTVSPropertyOp40
 70
     1
102
RTVSPropertyOp41
 70
     1
102
RTVSPropertyOp42
 70
     1
102
RTVSPropertyOp43
 70
     1
102
RTVSPropertyOp44
 70
     1
102
RTVSPropertyOp45
 70
     1
102
RTVSPropertyOp46
 70
     1
102
RTVSPropertyOp47
 70
     1
102
RTVSPropertyOp48
 70
     1
102
RTVSPropertyOp49
 70
     1
102
RTVSPropertyOp50
 70
     1
102
RTVSPropertyOp51
 70
     0
102
RTVSPropertyOp52
 70
     0
102
RTVSPropertyOp53
 70
     1
102
RTVSPropertyOp54
 70
     1
102
RTVSPropertyOp55
 70
     1
102
RTVSPropertyOp56
 70
     1
102
RTVSPropertyOp57
 70
     1
102
RTVSPropertyOp58
 70
     1
102
RTVSPropertyOp59
 70
     1
102
RTVSPropertyOp60
 70
     1
102
RTVSPropertyOp61
 70
     1
102
RTVSPropertyOp62
 70
     1
  0
XRECORD
  5
C7D
102
{ACAD_REACTORS
330
C7C
102
}
330
C7C
100
AcDbXrecord
280
     1
102
RTVSPost2010Prop28
280
     0
102
RTVSPost2010PropOp28
 70
     1
102
RTVSPost2010Prop29
280
     1
102
RTVSPost2010PropOp29
 70
     1
102
RTVSPost2010Prop30
280
     1
102
RTVSPost2010PropOp30
 70
     1
102
RTVSPost2010Prop31
280
     0
102
RTVSPost2010PropOp31
 70
     1
102
RTVSPost2010Prop32
280
     0
102
RTVSPost2010PropOp32
 70
     1
102
RTVSPost2010Prop33
280
     0
102
RTVSPost2010PropOp33
 70
     1
102
RTVSPost2010Prop34
280
     0
102
RTVSPost2010PropOp34
 70
     1
102
RTVSPost2010Prop35
280
     0
102
RTVSPost2010PropOp35
 70
     1
102
RTVSPost2010Prop36
280
     0
102
RTVSPost2010PropOp36
 70
     1
102
RTVSPost2010Prop37
 90
       50
102
RTVSPost2010PropOp37
 70
     1
102
RTVSPost2010Prop38
140
0.0
102
RTVSPost2010PropOp38
 70
     1
102
RTVSPost2010Prop39
140
1.0
102
RTVSPost2010PropOp39
 70
     1
102
RTVSPost2010Prop40
 90
        0
102
RTVSPost2010PropOp40
 70
     1
102
RTVSPost2010Prop41ColorIndex
 90
       18
102
RTVSPost2010Prop41ColorRGB
 90
        0
102
RTVSPost2010PropOp41
 70
     1
102
RTVSPost2010Prop42
 90
       50
102
RTVSPost2010PropOp42
 70
     1
102
RTVSPost2010Prop43
 90
        3
102
RTVSPost2010PropOp43
 70
     1
102
RTVSPost2010Prop44ColorIndex
 90
        5
102
RTVSPost2010Prop44ColorRGB
 90
      255
102
RTVSPost2010PropOp44
 70
     1
102
RTVSPost2010Prop45
280
     0
102
RTVSPost2010PropOp45
 70
     1
102
RTVSPost2010Prop46
 90
       50
102
RTVSPost2010PropOp46
 70
     1
102
RTVSPost2010Prop47
 90
       50
102
RTVSPost2010PropOp47
 70
     1
102
RTVSPost2010Prop48
 90
       50
102
RTVSPost2010PropOp48
 70
     1
102
RTVSPost2010Prop49
280
     0
102
RTVSPost2010PropOp49
 70
     1
102
RTVSPost2010Prop50
 90
       50
102
RTVSPost2010PropOp50
 70
     1
102
RTVSPost2010Prop51ColorIndex
 90
      256
102
RTVSPost2010Prop51ColorRGB
 90
-16777216
102
RTVSPost2010PropOp51
 70
     0
102
RTVSPost2010Prop52
140
1.0
102
RTVSPost2010PropOp52
 70
     0
102
RTVSPost2010Prop53
 90
        2
102
RTVSPost2010PropOp53
 70
     1
102
RTVSPost2010Prop54
  1
strokes_ogs.tif
102
RTVSPost2010PropOp54
 70
     1
102
RTVSPost2010Prop55
280
     0
102
RTVSPost2010PropOp55
 70
     1
102
RTVSPost2010Prop56
140
1.0
102
RTVSPost2010PropOp56
 70
     1
102
RTVSPost2010Prop57
140
1.0
102
RTVSPost2010PropOp57
 70
     1
102
RTVSPropertyOp0
 70
     1
102
RTVSPropertyOp1
 70
     1
102
RTVSPropertyOp2
 70
     1
102
RTVSPropertyOp3
 70
     1
102
RTVSPropertyOp4
 70
     1
102
RTVSPropertyOp5
 70
     1
102
RTVSPropertyOp6
 70
     1
102
RTVSPropertyOp7
 70
     1
102
RTVSPropertyOp8
 70
     1
102
RTVSPropertyOp9
 70
     1
102
RTVSPropertyOp10
 70
     1
102
RTVSPropertyOp11
 70
     1
102
RTVSPropertyOp12
 70
     1
102
RTVSPropertyOp13
 70
     1
102
RTVSPropertyOp14
 70
     1
102
RTVSPropertyOp15
 70
     1
102
RTVSPropertyOp16
 70
     1
102
RTVSPropertyOp17
 70
     1
102
RTVSPropertyOp18
 70
     1
102
RTVSPropertyOp19
 70
     1
102
RTVSPropertyOp20
 70
     1
102
RTVSPropertyOp21
 70
     1
102
RTVSPropertyOp22
 70
     1
102
RTVSPropertyOp23
 70
     1
102
RTVSPropertyOp24
 70
     1
102
RTVSPropertyOp25
 70
     1
102
RTVSPropertyOp26
 70
     1
102
RTVSPropertyOp27
 70
     1
102
RTVSPropertyOp28
 70
     1
102
RTVSPropertyOp29
 70
     1
102
RTVSPropertyOp30
 70
     1
102
RTVSPropertyOp31
 70
     1
102
RTVSPropertyOp32
 70
     1
102
RTVSPropertyOp33
 70
     1
102
RTVSPropertyOp34
 70
     1
102
RTVSPropertyOp35
 70
     1
102
RTVSPropertyOp36
 70
     1
102
RTVSPropertyOp37
 70
     1
102
RTVSPropertyOp38
 70
     1
102
RTVSPropertyOp39
 70
     1
102
RTVSPropertyOp40
 70
     1
102
RTVSPropertyOp41
 70
     1
102
RTVSPropertyOp42
 70
     1
102
RTVSPropertyOp43
 70
     1
102
RTVSPropertyOp44
 70
     1
102
RTVSPropertyOp45
 70
     1
102
RTVSPropertyOp46
 70
     1
102
RTVSPropertyOp47
 70
     1
102
RTVSPropertyOp48
 70
     1
102
RTVSPropertyOp49
 70
     1
102
RTVSPropertyOp50
 70
     1
102
RTVSPropertyOp51
 70
     0
102
RTVSPropertyOp52
 70
     0
102
RTVSPropertyOp53
 70
     1
102
RTVSPropertyOp54
 70
     1
102
RTVSPropertyOp55
 70
     1
102
RTVSPropertyOp56
 70
     1
102
RTVSPropertyOp57
 70
     1
102
RTVSPropertyOp58
 70
     1
102
RTVSPropertyOp59
 70
     1
102
RTVSPropertyOp60
 70
     1
102
RTVSPropertyOp61
 70
     1
102
RTVSPropertyOp62
 70
     1
  0
XRECORD
  5
C71
102
{ACAD_REACTORS
330
C70
102
}
330
C70
100
AcDbXrecord
280
     1
102
RTVSPost2010Prop28
280
     0
102
RTVSPost2010PropOp28
 70
     1
102
RTVSPost2010Prop29
280
     1
102
RTVSPost2010PropOp29
 70
     1
102
RTVSPost2010Prop30
280
     1
102
RTVSPost2010PropOp30
 70
     1
102
RTVSPost2010Prop31
280
     0
102
RTVSPost2010PropOp31
 70
     1
102
RTVSPost2010Prop32
280
     0
102
RTVSPost2010PropOp32
 70
     1
102
RTVSPost2010Prop33
280
     0
102
RTVSPost2010PropOp33
 70
     1
102
RTVSPost2010Prop34
280
     0
102
RTVSPost2010PropOp34
 70
     1
102
RTVSPost2010Prop35
280
     0
102
RTVSPost2010PropOp35
 70
     1
102
RTVSPost2010Prop36
280
     0
102
RTVSPost2010PropOp36
 70
     1
102
RTVSPost2010Prop37
 90
       50
102
RTVSPost2010PropOp37
 70
     1
102
RTVSPost2010Prop38
140
0.0
102
RTVSPost2010PropOp38
 70
     1
102
RTVSPost2010Prop39
140
1.0
102
RTVSPost2010PropOp39
 70
     1
102
RTVSPost2010Prop40
 90
        0
102
RTVSPost2010PropOp40
 70
     1
102
RTVSPost2010Prop41ColorIndex
 90
       18
102
RTVSPost2010Prop41ColorRGB
 90
        0
102
RTVSPost2010PropOp41
 70
     1
102
RTVSPost2010Prop42
 90
       50
102
RTVSPost2010PropOp42
 70
     1
102
RTVSPost2010Prop43
 90
        3
102
RTVSPost2010PropOp43
 70
     1
102
RTVSPost2010Prop44ColorIndex
 90
        5
102
RTVSPost2010Prop44ColorRGB
 90
      255
102
RTVSPost2010PropOp44
 70
     1
102
RTVSPost2010Prop45
280
     0
102
RTVSPost2010PropOp45
 70
     1
102
RTVSPost2010Prop46
 90
       50
102
RTVSPost2010PropOp46
 70
     1
102
RTVSPost2010Prop47
 90
       50
102
RTVSPost2010PropOp47
 70
     1
102
RTVSPost2010Prop48
 90
       50
102
RTVSPost2010PropOp48
 70
     1
102
RTVSPost2010Prop49
280
     0
102
RTVSPost2010PropOp49
 70
     1
102
RTVSPost2010Prop50
 90
       50
102
RTVSPost2010PropOp50
 70
     1
102
RTVSPost2010Prop51ColorIndex
 90
      256
102
RTVSPost2010Prop51ColorRGB
 90
-16777216
102
RTVSPost2010PropOp51
 70
     0
102
RTVSPost2010Prop52
140
1.0
102
RTVSPost2010PropOp52
 70
     0
102
RTVSPost2010Prop53
 90
        2
102
RTVSPost2010PropOp53
 70
     1
102
RTVSPost2010Prop54
  1
strokes_ogs.tif
102
RTVSPost2010PropOp54
 70
     1
102
RTVSPost2010Prop55
280
     0
102
RTVSPost2010PropOp55
 70
     1
102
RTVSPost2010Prop56
140
1.0
102
RTVSPost2010PropOp56
 70
     1
102
RTVSPost2010Prop57
140
1.0
102
RTVSPost2010PropOp57
 70
     1
102
RTVSPropertyOp0
 70
     1
102
RTVSPropertyOp1
 70
     1
102
RTVSPropertyOp2
 70
     1
102
RTVSPropertyOp3
 70
     1
102
RTVSPropertyOp4
 70
     1
102
RTVSPropertyOp5
 70
     1
102
RTVSPropertyOp6
 70
     1
102
RTVSPropertyOp7
 70
     1
102
RTVSPropertyOp8
 70
     1
102
RTVSPropertyOp9
 70
     1
102
RTVSPropertyOp10
 70
     1
102
RTVSPropertyOp11
 70
     1
102
RTVSPropertyOp12
 70
     1
102
RTVSPropertyOp13
 70
     1
102
RTVSPropertyOp14
 70
     1
102
RTVSPropertyOp15
 70
     1
102
RTVSPropertyOp16
 70
     1
102
RTVSPropertyOp17
 70
     1
102
RTVSPropertyOp18
 70
     1
102
RTVSPropertyOp19
 70
     1
102
RTVSPropertyOp20
 70
     1
102
RTVSPropertyOp21
 70
     1
102
RTVSPropertyOp22
 70
     1
102
RTVSPropertyOp23
 70
     1
102
RTVSPropertyOp24
 70
     1
102
RTVSPropertyOp25
 70
     1
102
RTVSPropertyOp26
 70
     1
102
RTVSPropertyOp27
 70
     1
102
RTVSPropertyOp28
 70
     1
102
RTVSPropertyOp29
 70
     1
102
RTVSPropertyOp30
 70
     1
102
RTVSPropertyOp31
 70
     1
102
RTVSPropertyOp32
 70
     1
102
RTVSPropertyOp33
 70
     1
102
RTVSPropertyOp34
 70
     1
102
RTVSPropertyOp35
 70
     1
102
RTVSPropertyOp36
 70
     1
102
RTVSPropertyOp37
 70
     1
102
RTVSPropertyOp38
 70
     1
102
RTVSPropertyOp39
 70
     1
102
RTVSPropertyOp40
 70
     1
102
RTVSPropertyOp41
 70
     1
102
RTVSPropertyOp42
 70
     1
102
RTVSPropertyOp43
 70
     1
102
RTVSPropertyOp44
 70
     1
102
RTVSPropertyOp45
 70
     1
102
RTVSPropertyOp46
 70
     1
102
RTVSPropertyOp47
 70
     1
102
RTVSPropertyOp48
 70
     1
102
RTVSPropertyOp49
 70
     1
102
RTVSPropertyOp50
 70
     1
102
RTVSPropertyOp51
 70
     0
102
RTVSPropertyOp52
 70
     0
102
RTVSPropertyOp53
 70
     1
102
RTVSPropertyOp54
 70
     1
102
RTVSPropertyOp55
 70
     1
102
RTVSPropertyOp56
 70
     1
102
RTVSPropertyOp57
 70
     1
102
RTVSPropertyOp58
 70
     1
102
RTVSPropertyOp59
 70
     1
102
RTVSPropertyOp60
 70
     1
102
RTVSPropertyOp61
 70
     1
102
RTVSPropertyOp62
 70
     1
  0
XRECORD
  5
C89
102
{ACAD_REACTORS
330
C88
102
}
330
C88
100
AcDbXrecord
280
     1
102
RTVSPost2010Prop28
280
     0
102
RTVSPost2010PropOp28
 70
     1
102
RTVSPost2010Prop29
280
     1
102
RTVSPost2010PropOp29
 70
     1
102
RTVSPost2010Prop30
280
     1
102
RTVSPost2010PropOp30
 70
     1
102
RTVSPost2010Prop31
280
     0
102
RTVSPost2010PropOp31
 70
     1
102
RTVSPost2010Prop32
280
     0
102
RTVSPost2010PropOp32
 70
     1
102
RTVSPost2010Prop33
280
     0
102
RTVSPost2010PropOp33
 70
     1
102
RTVSPost2010Prop34
280
     0
102
RTVSPost2010PropOp34
 70
     1
102
RTVSPost2010Prop35
280
     0
102
RTVSPost2010PropOp35
 70
     1
102
RTVSPost2010Prop36
280
     0
102
RTVSPost2010PropOp36
 70
     1
102
RTVSPost2010Prop37
 90
       50
102
RTVSPost2010PropOp37
 70
     1
102
RTVSPost2010Prop38
140
0.0
102
RTVSPost2010PropOp38
 70
     1
102
RTVSPost2010Prop39
140
1.0
102
RTVSPost2010PropOp39
 70
     1
102
RTVSPost2010Prop40
 90
        0
102
RTVSPost2010PropOp40
 70
     1
102
RTVSPost2010Prop41ColorIndex
 90
       18
102
RTVSPost2010Prop41ColorRGB
 90
        0
102
RTVSPost2010PropOp41
 70
     1
102
RTVSPost2010Prop42
 90
       50
102
RTVSPost2010PropOp42
 70
     1
102
RTVSPost2010Prop43
 90
        3
102
RTVSPost2010PropOp43
 70
     1
102
RTVSPost2010Prop44ColorIndex
 90
        5
102
RTVSPost2010Prop44ColorRGB
 90
      255
102
RTVSPost2010PropOp44
 70
     1
102
RTVSPost2010Prop45
280
     0
102
RTVSPost2010PropOp45
 70
     1
102
RTVSPost2010Prop46
 90
       50
102
RTVSPost2010PropOp46
 70
     1
102
RTVSPost2010Prop47
 90
       50
102
RTVSPost2010PropOp47
 70
     1
102
RTVSPost2010Prop48
 90
       50
102
RTVSPost2010PropOp48
 70
     1
102
RTVSPost2010Prop49
280
     0
102
RTVSPost2010PropOp49
 70
     1
102
RTVSPost2010Prop50
 90
       50
102
RTVSPost2010PropOp50
 70
     1
102
RTVSPost2010Prop51ColorIndex
 90
      256
102
RTVSPost2010Prop51ColorRGB
 90
-16777216
102
RTVSPost2010PropOp51
 70
     0
102
RTVSPost2010Prop52
140
1.0
102
RTVSPost2010PropOp52
 70
     0
102
RTVSPost2010Prop53
 90
        2
102
RTVSPost2010PropOp53
 70
     1
102
RTVSPost2010Prop54
  1
strokes_ogs.tif
102
RTVSPost2010PropOp54
 70
     1
102
RTVSPost2010Prop55
280
     0
102
RTVSPost2010PropOp55
 70
     1
102
RTVSPost2010Prop56
140
1.0
102
RTVSPost2010PropOp56
 70
     1
102
RTVSPost2010Prop57
140
1.0
102
RTVSPost2010PropOp57
 70
     1
102
RTVSPropertyOp0
 70
     1
102
RTVSPropertyOp1
 70
     1
102
RTVSPropertyOp2
 70
     1
102
RTVSPropertyOp3
 70
     1
102
RTVSPropertyOp4
 70
     1
102
RTVSPropertyOp5
 70
     1
102
RTVSPropertyOp6
 70
     1
102
RTVSPropertyOp7
 70
     1
102
RTVSPropertyOp8
 70
     1
102
RTVSPropertyOp9
 70
     1
102
RTVSPropertyOp10
 70
     1
102
RTVSPropertyOp11
 70
     1
102
RTVSPropertyOp12
 70
     1
102
RTVSPropertyOp13
 70
     1
102
RTVSPropertyOp14
 70
     1
102
RTVSPropertyOp15
 70
     1
102
RTVSPropertyOp16
 70
     1
102
RTVSPropertyOp17
 70
     1
102
RTVSPropertyOp18
 70
     1
102
RTVSPropertyOp19
 70
     1
102
RTVSPropertyOp20
 70
     1
102
RTVSPropertyOp21
 70
     1
102
RTVSPropertyOp22
 70
     1
102
RTVSPropertyOp23
 70
     1
102
RTVSPropertyOp24
 70
     1
102
RTVSPropertyOp25
 70
     1
102
RTVSPropertyOp26
 70
     1
102
RTVSPropertyOp27
 70
     1
102
RTVSPropertyOp28
 70
     1
102
RTVSPropertyOp29
 70
     1
102
RTVSPropertyOp30
 70
     1
102
RTVSPropertyOp31
 70
     1
102
RTVSPropertyOp32
 70
     1
102
RTVSPropertyOp33
 70
     1
102
RTVSPropertyOp34
 70
     1
102
RTVSPropertyOp35
 70
     1
102
RTVSPropertyOp36
 70
     1
102
RTVSPropertyOp37
 70
     1
102
RTVSPropertyOp38
 70
     1
102
RTVSPropertyOp39
 70
     1
102
RTVSPropertyOp40
 70
     1
102
RTVSPropertyOp41
 70
     1
102
RTVSPropertyOp42
 70
     1
102
RTVSPropertyOp43
 70
     1
102
RTVSPropertyOp44
 70
     1
102
RTVSPropertyOp45
 70
     1
102
RTVSPropertyOp46
 70
     1
102
RTVSPropertyOp47
 70
     1
102
RTVSPropertyOp48
 70
     1
102
RTVSPropertyOp49
 70
     1
102
RTVSPropertyOp50
 70
     1
102
RTVSPropertyOp51
 70
     0
102
RTVSPropertyOp52
 70
     0
102
RTVSPropertyOp53
 70
     1
102
RTVSPropertyOp54
 70
     1
102
RTVSPropertyOp55
 70
     1
102
RTVSPropertyOp56
 70
     1
102
RTVSPropertyOp57
 70
     1
102
RTVSPropertyOp58
 70
     1
102
RTVSPropertyOp59
 70
     1
102
RTVSPropertyOp60
 70
     1
102
RTVSPropertyOp61
 70
     1
102
RTVSPropertyOp62
 70
     1
  0
ENDSEC
  0
EOF
