  0
SECTION
  2
HEADER
  9
$ACADVER
  1
AC1015
  9
$ACADMAINTVER
 70
    20
  9
$DWGCODEPAGE
  3
ANSI_932
  9
$INSBASE
 10
0.0
 20
0.0
 30
0.0
  9
$EXTMIN
 10
9.9999975266385
 20
10.0
 30
0.0
  9
$EXTMAX
 10
651.2722939053469
 20
506.9210524411205
 30
0.0
  9
$LIMMIN
 10
0.0000015376081137
 20
-0.0000001931532552
  9
$LIMMAX
 10
792.0000015376082
 20
545.9999998068466
  9
$ORTHOMODE
 70
     1
  9
$REGENMODE
 70
     1
  9
$FILLMODE
 70
     1
  9
$QTEXTMODE
 70
     0
  9
$MIRRTEXT
 70
     1
  9
$LTSCALE
 40
1.0
  9
$ATTMODE
 70
     1
  9
$TEXTSIZE
 40
2.5
  9
$TRACEWID
 40
1.0
  9
$TEXTSTYLE
  7
STANDARD
  9
$CLAYER
  8
0
  9
$CELTYPE
  6
BYLAYER
  9
$CECOLOR
 62
   256
  9
$CELTSCALE
 40
1.0
  9
$DISPSILH
 70
     0
  9
$DIMSCALE
 40
1.0
  9
$DIMASZ
 40
3.0
  9
$DIMEXO
 40
1.0
  9
$DIMDLI
 40
10.0
  9
$DIMRND
 40
0.0
  9
$DIMDLE
 40
0.0
  9
$DIMEXE
 40
1.0
  9
$DIMTP
 40
0.0
  9
$DIMTM
 40
0.0
  9
$DIMTXT
 40
3.2
  9
$DIMCEN
 40
0.0
  9
$DIMTSZ
 40
0.0
  9
$DIMTOL
 70
     0
  9
$DIMLIM
 70
     0
  9
$DIMTIH
 70
     0
  9
$DIMTOH
 70
     0
  9
$DIMSE1
 70
     0
  9
$DIMSE2
 70
     0
  9
$DIMTAD
 70
     3
  9
$DIMZIN
 70
     8
  9
$DIMBLK
  1

  9
$DIMASO
 70
     1
  9
$DIMSHO
 70
     1
  9
$DIMPOST
  1

  9
$DIMAPOST
  1

  9
$DIMALT
 70
     0
  9
$DIMALTD
 70
     2
  9
$DIMALTF
 40
25.4
  9
$DIMLFAC
 40
1.0
  9
$DIMTOFL
 70
     1
  9
$DIMTVP
 40
0.0
  9
$DIMTIX
 70
     0
  9
$DIMSOXD
 70
     0
  9
$DIMSAH
 70
     1
  9
$DIMBLK1
  1
OPEN
  9
$DIMBLK2
  1
OPEN
  9
$DIMSTYLE
  2
STANDARD
  9
$DIMCLRD
 70
     0
  9
$DIMCLRE
 70
     0
  9
$DIMCLRT
 70
     0
  9
$DIMTFAC
 40
1.0
  9
$DIMGAP
 40
1.0
  9
$DIMJUST
 70
     0
  9
$DIMSD1
 70
     0
  9
$DIMSD2
 70
     0
  9
$DIMTOLJ
 70
     1
  9
$DIMTZIN
 70
     0
  9
$DIMALTZ
 70
     0
  9
$DIMALTTZ
 70
     0
  9
$DIMUPT
 70
     0
  9
$DIMDEC
 70
     4
  9
$DIMTDEC
 70
     4
  9
$DIMALTU
 70
     2
  9
$DIMALTTD
 70
     2
  9
$DIMTXSTY
  7
STANDARD
  9
$DIMAUNIT
 70
     0
  9
$DIMADEC
 70
     0
  9
$DIMALTRND
 40
0.0
  9
$DIMAZIN
 70
     0
  9
$DIMDSEP
 70
    46
  9
$DIMATFIT
 70
     3
  9
$DIMFRAC
 70
     0
  9
$DIMLDRBLK
  1
OPEN
  9
$DIMLUNIT
 70
     2
  9
$DIMLWD
 70
    -2
  9
$DIMLWE
 70
    -2
  9
$DIMTMOVE
 70
     0
  9
$LUNITS
 70
     2
  9
$LUPREC
 70
     4
  9
$SKETCHINC
 40
1.0
  9
$FILLETRAD
 40
0.0
  9
$AUNITS
 70
     0
  9
$AUPREC
 70
     0
  9
$MENU
  1
.
  9
$ELEVATION
 40
0.0
  9
$PELEVATION
 40
0.0
  9
$THICKNESS
 40
0.0
  9
$LIMCHECK
 70
     0
  9
$CHAMFERA
 40
10.0
  9
$CHAMFERB
 40
10.0
  9
$CHAMFERC
 40
20.0
  9
$CHAMFERD
 40
0.0
  9
$SKPOLY
 70
     0
  9
$TDCREATE
 40
2453811.402924803
  9
$TDUCREATE
 40
2453811.027924803
  9
$TDUPDATE
 40
2457192.689442095
  9
$TDUUPDATE
 40
2457192.314442095
  9
$TDINDWG
 40
0.0500651389
  9
$TDUSRTIMER
 40
0.0500651273
  9
$USRTIMER
 70
     1
  9
$ANGBASE
 50
0.0
  9
$ANGDIR
 70
     0
  9
$PDMODE
 70
     0
  9
$PDSIZE
 40
0.0
  9
$PLINEWID
 40
0.0
  9
$SPLFRAME
 70
     0
  9
$SPLINETYPE
 70
     6
  9
$SPLINESEGS
 70
     8
  9
$HANDSEED
  5
12C9
  9
$SURFTAB1
 70
     6
  9
$SURFTAB2
 70
     6
  9
$SURFTYPE
 70
     6
  9
$SURFU
 70
     6
  9
$SURFV
 70
     6
  9
$UCSBASE
  2

  9
$UCSNAME
  2

  9
$UCSORG
 10
0.0
 20
0.0
 30
0.0
  9
$UCSXDIR
 10
1.0
 20
0.0
 30
0.0
  9
$UCSYDIR
 10
0.0
 20
1.0
 30
0.0
  9
$UCSORTHOREF
  2

  9
$UCSORTHOVIEW
 70
     0
  9
$UCSORGTOP
 10
0.0
 20
0.0
 30
0.0
  9
$UCSORGBOTTOM
 10
0.0
 20
0.0
 30
0.0
  9
$UCSORGLEFT
 10
0.0
 20
0.0
 30
0.0
  9
$UCSORGRIGHT
 10
0.0
 20
0.0
 30
0.0
  9
$UCSORGFRONT
 10
0.0
 20
0.0
 30
0.0
  9
$UCSORGBACK
 10
0.0
 20
0.0
 30
0.0
  9
$PUCSBASE
  2

  9
$PUCSNAME
  2

  9
$PUCSORG
 10
0.0
 20
0.0
 30
0.0
  9
$PUCSXDIR
 10
1.0
 20
0.0
 30
0.0
  9
$PUCSYDIR
 10
0.0
 20
1.0
 30
0.0
  9
$PUCSORTHOREF
  2

  9
$PUCSORTHOVIEW
 70
     0
  9
$PUCSORGTOP
 10
0.0
 20
0.0
 30
0.0
  9
$PUCSORGBOTTOM
 10
0.0
 20
0.0
 30
0.0
  9
$PUCSORGLEFT
 10
0.0
 20
0.0
 30
0.0
  9
$PUCSORGRIGHT
 10
0.0
 20
0.0
 30
0.0
  9
$PUCSORGFRONT
 10
0.0
 20
0.0
 30
0.0
  9
$PUCSORGBACK
 10
0.0
 20
0.0
 30
0.0
  9
$USERI1
 70
     0
  9
$USERI2
 70
     0
  9
$USERI3
 70
     0
  9
$USERI4
 70
     0
  9
$USERI5
 70
     0
  9
$USERR1
 40
0.0
  9
$USERR2
 40
0.0
  9
$USERR3
 40
0.0
  9
$USERR4
 40
0.0
  9
$USERR5
 40
0.0
  9
$WORLDVIEW
 70
     1
  9
$SHADEDGE
 70
     3
  9
$SHADEDIF
 70
    70
  9
$TILEMODE
 70
     1
  9
$MAXACTVP
 70
    48
  9
$PINSBASE
 10
0.0
 20
0.0
 30
0.0
  9
$PLIMCHECK
 70
     0
  9
$PEXTMIN
 10
1.000000000000000E+20
 20
1.000000000000000E+20
 30
1.000000000000000E+20
  9
$PEXTMAX
 10
-1.000000000000000E+20
 20
-1.000000000000000E+20
 30
-1.000000000000000E+20
  9
$PLIMMIN
 10
0.0
 20
0.0
  9
$PLIMMAX
 10
420.0
 20
297.0
  9
$UNITMODE
 70
     0
  9
$VISRETAIN
 70
     1
  9
$PLINEGEN
 70
     0
  9
$PSLTSCALE
 70
     1
  9
$TREEDEPTH
 70
  3020
  9
$CMLSTYLE
  2
STANDARD
  9
$CMLJUST
 70
     0
  9
$CMLSCALE
 40
20.0
  9
$PROXYGRAPHICS
 70
     1
  9
$MEASUREMENT
 70
     0
  9
$CELWEIGHT
370
    -1
  9
$ENDCAPS
280
     0
  9
$JOINSTYLE
280
     0
  9
$LWDISPLAY
290
     0
  9
$INSUNITS
 70
     0
  9
$HYPERLINKBASE
  1

  9
$STYLESHEET
  1

  9
$XEDIT
290
     1
  9
$CEPSNTYPE
380
     0
  9
$PSTYLEMODE
290
     1
  9
$FINGERPRINTGUID
  2
{F55CC70A-5C24-40F4-8861-EFDE0E6EB948}
  9
$VERSIONGUID
  2
{1079DB01-DC00-4A6D-B44B-355AD827591F}
  9
$EXTNAMES
290
     1
  9
$PSVPSCALE
 40
0.0
  9
$OLESTARTUP
290
     0
  0
ENDSEC
  0
SECTION
  2
CLASSES
  0
CLASS
  1
ACDBDICTIONARYWDFLT
  2
AcDbDictionaryWithDefault
  3
ObjectDBX Classes
 90
        0
280
     0
281
     0
  0
CLASS
  1
ACDBPLACEHOLDER
  2
AcDbPlaceHolder
  3
ObjectDBX Classes
 90
        0
280
     0
281
     0
  0
CLASS
  1
LAYOUT
  2
AcDbLayout
  3
ObjectDBX Classes
 90
        0
280
     0
281
     0
  0
CLASS
  1
DICTIONARYVAR
  2
AcDbDictionaryVar
  3
ObjectDBX Classes
 90
        0
280
     0
281
     0
  0
CLASS
  1
MATERIAL
  2
AcDbMaterial
  3
ObjectDBX Classes
 90
     1153
280
     0
281
     0
  0
CLASS
  1
VISUALSTYLE
  2
AcDbVisualStyle
  3
ObjectDBX Classes
 90
     4095
280
     0
281
     0
  0
CLASS
  1
TABLESTYLE
  2
AcDbTableStyle
  3
ObjectDBX Classes
 90
     4095
280
     0
281
     0
  0
CLASS
  1
SCALE
  2
AcDbScale
  3
ObjectDBX Classes
 90
     1153
280
     0
281
     0
  0
CLASS
  1
MLEADERSTYLE
  2
AcDbMLeaderStyle
  3
ACDB_MLEADERSTYLE_CLASS
 90
     4095
280
     0
281
     0
  0
CLASS
  1
ACDBSECTIONVIEWSTYLE
  2
AcDbSectionViewStyle
  3
ObjectDBX Classes
 90
     1025
280
     0
281
     0
  0
CLASS
  1
ACDBDETAILVIEWSTYLE
  2
AcDbDetailViewStyle
  3
ObjectDBX Classes
 90
     1025
280
     0
281
     0
  0
CLASS
  1
CELLSTYLEMAP
  2
AcDbCellStyleMap
  3
ObjectDBX Classes
 90
     1152
280
     0
281
     0
  0
ENDSEC
  0
SECTION
  2
TABLES
  0
TABLE
  2
VPORT
  5
8
330
0
100
AcDbSymbolTable
 70
     1
  0
VPORT
  5
1215
330
8
100
AcDbSymbolTableRecord
100
AcDbViewportTableRecord
  2
*ACTIVE
 70
     0
 10
0.0
 20
0.0
 11
1.0
 21
1.0
 12
521.9005417158436
 22
258.4618846060992
 13
0.0
 23
0.0
 14
10.0
 24
10.0
 15
10.0
 25
10.0
 16
0.0
 26
0.0
 36
1.0
 17
0.0
 27
0.0
 37
0.0
 40
500.8853590540466
 41
2.35006605019815
 42
50.0
 43
0.0
 44
0.0
 50
0.0
 51
0.0
 71
     0
 72
   100
 73
     1
 74
     0
 75
     0
 76
     0
 77
     0
 78
     0
281
     0
 65
     1
110
0.0
120
0.0
130
0.0
111
1.0
121
0.0
131
0.0
112
0.0
122
1.0
132
0.0
 79
     0
146
0.0
1001
ACAD_NAV_VCDISPLAY
1070
     3
  0
ENDTAB
  0
TABLE
  2
LTYPE
  5
5
330
0
100
AcDbSymbolTable
 70
     4
  0
LTYPE
  5
12
330
5
100
AcDbSymbolTableRecord
100
AcDbLinetypeTableRecord
  2
BYBLOCK
 70
     0
  3

 72
    65
 73
     0
 40
0.0
  0
LTYPE
  5
13
330
5
100
AcDbSymbolTableRecord
100
AcDbLinetypeTableRecord
  2
BYLAYER
 70
     0
  3

 72
    65
 73
     0
 40
0.0
  0
LTYPE
  5
14
330
5
100
AcDbSymbolTableRecord
100
AcDbLinetypeTableRecord
  2
CONTINUOUS
 70
     0
  3
Solid line
 72
    65
 73
     0
 40
0.0
  0
LTYPE
  5
4B
330
5
100
AcDbSymbolTableRecord
100
AcDbLinetypeTableRecord
  2
DASHED
 70
     0
  3
Dashed __ __ __ __ __ __ __ __ __ __ __ __ __ _
 72
    65
 73
     2
 40
19.04999999999998
 49
12.7
 74
     0
 49
-6.349999999999997
 74
     0
  0
LTYPE
  5
4C
330
5
100
AcDbSymbolTableRecord
100
AcDbLinetypeTableRecord
  2
CENTER
 70
     0
  3
Center ____ _ ____ _ ____ _ ____ _ ____ _ ____
 72
    65
 73
     4
 40
50.8
 49
31.75
 74
     0
 49
-6.349999999999997
 74
     0
 49
6.349999999999997
 74
     0
 49
-6.349999999999997
 74
     0
  0
LTYPE
  5
4D
330
5
100
AcDbSymbolTableRecord
100
AcDbLinetypeTableRecord
  2
PHANTOM
 70
     0
  3
Phantom ______  __  __  ______  __  __  ______
 72
    65
 73
     6
 40
63.5
 49
31.75
 74
     0
 49
-6.349999999999997
 74
     0
 49
6.349999999999997
 74
     0
 49
-6.349999999999997
 74
     0
 49
6.349999999999997
 74
     0
 49
-6.349999999999997
 74
     0
  0
ENDTAB
  0
TABLE
  2
LAYER
  5
2
330
0
100
AcDbSymbolTable
 70
     8
  0
LAYER
  5
E
102
{ACAD_XDICTIONARY
360
126D
102
}
330
2
100
AcDbSymbolTableRecord
100
AcDbLayerTableRecord
  2
0
 70
     0
 62
     7
  6
CONTINUOUS
370
    -3
390
121C
  0
LAYER
  5
4E
102
{ACAD_XDICTIONARY
360
126F
102
}
330
2
100
AcDbSymbolTableRecord
100
AcDbLayerTableRecord
  2
4
 70
     0
 62
     1
  6
CENTER
370
    -3
390
121C
  0
LAYER
  5
4F
102
{ACAD_XDICTIONARY
360
1271
102
}
330
2
100
AcDbSymbolTableRecord
100
AcDbLayerTableRecord
  2
5
 70
     0
 62
     6
  6
PHANTOM
370
    -3
390
121C
  0
LAYER
  5
50
102
{ACAD_XDICTIONARY
360
1273
102
}
330
2
100
AcDbSymbolTableRecord
100
AcDbLayerTableRecord
  2
1
 70
     0
 62
     7
  6
CONTINUOUS
370
    -3
390
121C
  0
LAYER
  5
51
102
{ACAD_XDICTIONARY
360
1275
102
}
330
2
100
AcDbSymbolTableRecord
100
AcDbLayerTableRecord
  2
2
 70
     0
 62
     4
  6
CONTINUOUS
370
    -3
390
121C
  0
LAYER
  5
52
102
{ACAD_XDICTIONARY
360
1277
102
}
330
2
100
AcDbSymbolTableRecord
100
AcDbLayerTableRecord
  2
3
 70
     0
 62
     2
  6
DASHED
370
    -3
390
121C
  0
LAYER
  5
53
102
{ACAD_XDICTIONARY
360
1279
102
}
330
2
100
AcDbSymbolTableRecord
100
AcDbLayerTableRecord
  2
6
 70
     0
 62
     5
  6
CONTINUOUS
370
    -3
390
121C
  0
LAYER
  5
54
102
{ACAD_XDICTIONARY
360
127B
102
}
330
2
100
AcDbSymbolTableRecord
100
AcDbLayerTableRecord
  2
7
 70
     0
 62
     3
  6
CONTINUOUS
370
    -3
390
121C
  0
ENDTAB
  0
TABLE
  2
STYLE
  5
3
330
0
100
AcDbSymbolTable
 70
     1
  0
STYLE
  5
F
330
3
100
AcDbSymbolTableRecord
100
AcDbTextStyleTableRecord
  2
STANDARD
 70
     0
 40
0.0
 41
1.0
 50
0.0
 71
     0
 42
2.5
  3
simplex.shx
  4

  0
ENDTAB
  0
TABLE
  2
VIEW
  5
6
330
0
100
AcDbSymbolTable
 70
     0
  0
ENDTAB
  0
TABLE
  2
UCS
  5
7
330
0
100
AcDbSymbolTable
 70
     0
  0
ENDTAB
  0
TABLE
  2
APPID
  5
9
330
0
100
AcDbSymbolTable
 70
     5
  0
APPID
  5
10
330
9
100
AcDbSymbolTableRecord
100
AcDbRegAppTableRecord
  2
ACAD
 70
     0
  0
APPID
  5
3E
330
9
100
AcDbSymbolTableRecord
100
AcDbRegAppTableRecord
  2
CONTENTTABDATA
 70
     0
  0
APPID
  5
3F
330
9
100
AcDbSymbolTableRecord
100
AcDbRegAppTableRecord
  2
CONTENTCURRENTTAB
 70
     0
  0
APPID
  5
1287
330
9
100
AcDbSymbolTableRecord
100
AcDbRegAppTableRecord
  2
ACAD_NAV_VCDISPLAY
 70
     0
  0
APPID
  5
12C0
330
9
100
AcDbSymbolTableRecord
100
AcDbRegAppTableRecord
  2
ACAD_MLEADERVER
 70
     0
  0
ENDTAB
  0
TABLE
  2
DIMSTYLE
  5
A
330
0
100
AcDbSymbolTable
 70
     1
100
AcDbDimStyleTable
 71
     0
  0
DIMSTYLE
105
1D
330
A
100
AcDbSymbolTableRecord
100
AcDbDimStyleTableRecord
  2
STANDARD
 70
     0
 41
3.0
 42
1.0
 43
10.0
 44
1.0
 73
     0
 74
     0
 77
     3
 78
     8
140
3.2
141
0.0
147
1.0
172
     1
173
     1
340
F
341
2E
343
2E
344
2E
  0
ENDTAB
  0
TABLE
  2
BLOCK_RECORD
  5
1
330
0
100
AcDbSymbolTable
 70
     1
  0
BLOCK_RECORD
  5
18
102
{ACAD_XDICTIONARY
360
11FB
102
}
330
1
100
AcDbSymbolTableRecord
100
AcDbBlockTableRecord
  2
*MODEL_SPACE
340
126A
  0
BLOCK_RECORD
  5
15
102
{ACAD_XDICTIONARY
360
11F9
102
}
330
1
100
AcDbSymbolTableRecord
100
AcDbBlockTableRecord
  2
*PAPER_SPACE
340
126B
  0
BLOCK_RECORD
  5
2E
330
1
100
AcDbSymbolTableRecord
100
AcDbBlockTableRecord
  2
_OPEN
340
0
  0
ENDTAB
  0
ENDSEC
  0
SECTION
  2
BLOCKS
  0
BLOCK
  5
19
330
18
100
AcDbEntity
  8
0
100
AcDbBlockBegin
  2
*MODEL_SPACE
 70
     0
 10
0.0
 20
0.0
 30
0.0
  3
*MODEL_SPACE
  1

  0
ENDBLK
  5
1A
330
18
100
AcDbEntity
  8
0
100
AcDbBlockEnd
  0
BLOCK
  5
16
330
15
100
AcDbEntity
 67
     1
  8
0
100
AcDbBlockBegin
  2
*PAPER_SPACE
 70
     0
 10
0.0
 20
0.0
 30
0.0
  3
*PAPER_SPACE
  1

  0
ENDBLK
  5
17
330
15
100
AcDbEntity
 67
     1
  8
0
100
AcDbBlockEnd
  0
BLOCK
  5
2F
330
2E
100
AcDbEntity
  8
0
100
AcDbBlockBegin
  2
_OPEN
 70
     0
 10
0.0
 20
0.0
 30
0.0
  3
_OPEN
  1

  0
LINE
  5
30
330
2E
100
AcDbEntity
  8
0
  6
ByBlock
 62
     0
100
AcDbLine
 10
-1.0
 20
0.1666666666666666
 30
0.0
 11
0.0
 21
0.0
 31
0.0
  0
LINE
  5
31
330
2E
100
AcDbEntity
  8
0
  6
ByBlock
 62
     0
100
AcDbLine
 10
0.0
 20
0.0
 30
0.0
 11
-1.0
 21
-0.1666666666666666
 31
0.0
  0
LINE
  5
32
330
2E
100
AcDbEntity
  8
0
  6
ByBlock
 62
     0
100
AcDbLine
 10
0.0
 20
0.0
 30
0.0
 11
-1.0
 21
0.0
 31
0.0
  0
ENDBLK
  5
33
330
2E
100
AcDbEntity
  8
0
100
AcDbBlockEnd
  0
ENDSEC
  0
SECTION
  2
ENTITIES
  0
TEXT
  5
63
330
18
100
AcDbEntity
  8
4
  6
CENTER
 48
0.25
100
AcDbText
 10
23.97950852663849
 20
10.0
 30
0.0
 40
1.399999999999999
  1
4
100
AcDbText
  0
TEXT
  5
64
330
18
100
AcDbEntity
  8
7
  6
Continuous
 48
0.25
100
AcDbText
 10
9.999997526638502
 20
26.0000007607689
 30
0.0
 40
3.0
  1
CODE No.19257
100
AcDbText
  0
TEXT
  5
65
330
18
100
AcDbEntity
  8
7
  6
Continuous
 48
0.25
100
AcDbText
 10
9.999997526638502
 20
18.00000076076889
 30
0.0
 40
3.0
  1
TYPE No.TCA-320SR-ARB100
100
AcDbText
  0
TEXT
  5
66
330
18
100
AcDbEntity
  8
1
  6
Continuous
 48
0.25
100
AcDbText
 10
9.999997526638502
 20
10.00000076076889
 30
0.0
 40
1.399999999999999
  1
LAYER
100
AcDbText
  0
TEXT
  5
67
330
18
100
AcDbEntity
  8
2
  6
Continuous
 48
0.25
100
AcDbText
 10
19.9795085266385
 20
10.0
 30
0.0
 40
1.399999999999999
  1
2
100
AcDbText
  0
TEXT
  5
68
330
18
100
AcDbEntity
  8
3
  6
DASHED
 48
0.25
100
AcDbText
 10
21.97950852663849
 20
10.0
 30
0.0
 40
1.399999999999999
  1
3
100
AcDbText
  0
TEXT
  5
69
330
18
100
AcDbEntity
  8
1
  6
Continuous
 48
0.25
100
AcDbText
 10
17.9795085266385
 20
10.0
 30
0.0
 40
1.399999999999999
  1
1
100
AcDbText
  0
TEXT
  5
6A
330
18
100
AcDbEntity
  8
5
  6
PHANTOM
 48
0.25
100
AcDbText
 10
25.97950852663849
 20
10.0
 30
0.0
 40
1.399999999999999
  1
5
100
AcDbText
  0
TEXT
  5
6B
330
18
100
AcDbEntity
  8
6
  6
Continuous
 48
0.25
100
AcDbText
 10
27.97950852663849
 20
10.0
 30
0.0
 40
1.399999999999999
  1
6
100
AcDbText
  0
TEXT
  5
6C
330
18
100
AcDbEntity
  8
7
  6
Continuous
 48
0.25
100
AcDbText
 10
29.9795085266385
 20
10.0
 30
0.0
 40
1.399999999999999
  1
7
100
AcDbText
  0
ARC
  5
3A1
330
18
100
AcDbEntity
  8
1
  6
Continuous
100
AcDbCircle
 10
82.71249703678359
 20
326.5499545753669
 30
0.0
 40
1.5
100
AcDbArc
 50
0.0
 51
89.99998199999998
  0
LINE
  5
3A2
330
18
100
AcDbEntity
  8
1
  6
Continuous
100
AcDbLine
 10
22.21255903678367
 20
328.0499545753668
 30
0.0
 11
100.2124970367834
 21
328.0499545753668
 31
0.0
  0
LINE
  5
3A3
330
18
100
AcDbEntity
  8
1
  6
Continuous
100
AcDbLine
 10
22.21255903678367
 20
331.0499545753669
 30
0.0
 11
100.2124970367834
 21
331.0499545753669
 31
0.0
  0
ARC
  5
3A5
330
18
100
AcDbEntity
  8
1
  6
Continuous
100
AcDbCircle
 10
151.5394780367835
 20
323.0499545753668
 30
0.0
 40
126.32692
100
AcDbArc
 50
179.999978
 51
201.278366999999
  0
ARC
  5
3A6
330
18
100
AcDbEntity
  8
1
  6
Continuous
100
AcDbCircle
 10
139.9987520367835
 20
323.0499545753668
 30
0.0
 40
117.7861939999999
100
AcDbArc
 50
179.999978
 51
201.961276
  0
LINE
  5
3A7
330
18
100
AcDbEntity
  8
1
  6
Continuous
100
AcDbLine
 10
38.21255903678366
 20
326.5499545753669
 30
0.0
 11
38.21255903678366
 21
234.0499395753668
 31
0.0
  0
ARC
  5
3A9
330
18
100
AcDbEntity
  8
1
  6
Continuous
100
AcDbCircle
 10
30.22298003678361
 20
256.4111685753668
 30
0.0
 40
3.510416999999999
100
AcDbArc
 50
135.6541410000003
 51
224.3458549999993
  0
ARC
  5
3AA
330
18
100
AcDbEntity
  8
1
  6
Continuous
100
AcDbCircle
 10
39.25423003678361
 20
249.0499545753668
 30
0.0
 40
12.541667
100
AcDbArc
 50
156.9649729999991
 51
203.0350370000008
  0
ARC
  5
3AB
330
18
100
AcDbEntity
  8
1
  6
Continuous
100
AcDbCircle
 10
30.22298003678361
 20
241.6887405753668
 30
0.0
 40
3.510416999999999
100
AcDbArc
 50
135.6541410000003
 51
224.3458549999993
  0
LINE
  5
3AC
330
18
100
AcDbEntity
  8
1
  6
Continuous
100
AcDbLine
 10
26.71255903678366
 20
241.6887405753668
 30
0.0
 11
26.71255903678366
 21
256.4111685753668
 31
0.0
  0
LINE
  5
3AD
330
18
100
AcDbEntity
  8
1
  6
Continuous
100
AcDbLine
 10
23.46263503678369
 20
254.0499545753668
 30
0.0
 11
23.46263503678369
 21
244.0499545753668
 31
0.0
  0
LINE
  5
3AE
330
18
100
AcDbEntity
  8
1
  6
Continuous
100
AcDbLine
 10
23.46263503678357
 20
244.0499545753668
 30
0.0
 11
22.71260903678364
 21
244.7999785753669
 31
0.0
  0
LINE
  5
3AF
330
18
100
AcDbEntity
  8
1
  6
Continuous
100
AcDbLine
 10
23.46263503678369
 20
244.0499545753668
 30
0.0
 11
26.71255903678366
 21
244.0499545753668
 31
0.0
  0
LINE
  5
3B1
330
18
100
AcDbEntity
  8
1
  6
Continuous
100
AcDbLine
 10
23.46263503678369
 20
254.0499545753668
 30
0.0
 11
26.71255903678366
 21
254.0499545753668
 31
0.0
  0
LINE
  5
3B2
330
18
100
AcDbEntity
  8
2
  6
Continuous
100
AcDbLine
 10
22.71263603678357
 20
244.8619545753668
 30
0.0
 11
26.71256303678365
 21
244.8619545753668
 31
0.0
  0
LINE
  5
3B3
330
18
100
AcDbEntity
  8
1
  6
Continuous
100
AcDbLine
 10
22.71255903678365
 20
253.2999545753668
 30
0.0
 11
22.71255903678365
 21
244.7999545753668
 31
0.0
  0
LINE
  5
3B4
330
18
100
AcDbEntity
  8
1
  6
Continuous
100
AcDbLine
 10
23.46263503678369
 20
254.0499545753668
 30
0.0
 11
22.71260903678364
 21
253.2999305753668
 31
0.0
  0
ARC
  5
3B5
330
18
100
AcDbEntity
  8
1
  6
Continuous
100
AcDbCircle
 10
29.2021370367836
 20
256.4111685753668
 30
0.0
 40
3.510416999999999
100
AcDbArc
 50
315.6541430000002
 51
44.34585699999975
  0
ARC
  5
3B6
330
18
100
AcDbEntity
  8
1
  6
Continuous
100
AcDbCircle
 10
-26.15514796321644
 20
253.8469215753668
 30
0.0
 40
64.36770600000001
100
AcDbArc
 50
0.0
 51
21.27838500000025
  0
LINE
  5
3B7
330
18
100
AcDbEntity
  8
1
  6
Continuous
100
AcDbLine
 10
32.71255903678365
 20
240.0499545753668
 30
0.0
 11
32.71255903678365
 21
258.0499545753669
 31
0.0
  0
LINE
  5
3B8
330
18
100
AcDbEntity
  8
1
  6
Continuous
100
AcDbLine
 10
35.21255903678365
 20
256.0499545753669
 30
0.0
 11
35.21255903678365
 21
234.0499395753668
 31
0.0
  0
LINE
  5
3B9
330
18
100
AcDbEntity
  8
1
  6
Continuous
100
AcDbLine
 10
32.71255903678365
 20
240.0499545753668
 30
0.0
 11
35.21255903678365
 21
240.0499545753668
 31
0.0
  0
ARC
  5
3BA
330
18
100
AcDbEntity
  8
1
  6
Continuous
100
AcDbCircle
 10
29.2021370367836
 20
241.6887405753668
 30
0.0
 40
3.510416999999999
100
AcDbArc
 50
315.6541430000002
 51
44.34585699999975
  0
LINE
  5
3BB
330
18
100
AcDbEntity
  8
1
  6
Continuous
100
AcDbLine
 10
27.71255903678365
 20
239.2349975753668
 30
0.0
 11
31.71255903678366
 21
239.2349975753668
 31
0.0
  0
LINE
  5
3BC
330
18
100
AcDbEntity
  8
1
  6
Continuous
100
AcDbLine
 10
27.71255903678365
 20
253.9574325753668
 30
0.0
 11
31.71255903678366
 21
253.9574325753668
 31
0.0
  0
LINE
  5
3BD
330
18
100
AcDbEntity
  8
1
  6
Continuous
100
AcDbLine
 10
27.71255903678365
 20
244.1424765753668
 30
0.0
 11
31.71255903678366
 21
244.1424765753668
 31
0.0
  0
ARC
  5
3BE
330
18
100
AcDbEntity
  8
1
  6
Continuous
100
AcDbCircle
 10
20.17088703678358
 20
249.0499545753668
 30
0.0
 40
12.541667
100
AcDbArc
 50
336.9649680000001
 51
23.03503199999985
  0
LINE
  5
3BF
330
18
100
AcDbEntity
  8
1
  6
Continuous
100
AcDbLine
 10
35.21255903678365
 20
234.0499395753668
 30
0.0
 11
38.21255903678366
 21
234.0499395753668
 31
0.0
  0
LINE
  5
3C0
330
18
100
AcDbEntity
  8
1
  6
Continuous
100
AcDbLine
 10
38.21255903678366
 20
243.0499545753669
 30
0.0
 11
38.71252803678361
 21
243.0499545753669
 31
0.0
  0
ARC
  5
3C1
330
18
100
AcDbEntity
  8
1
  6
Continuous
100
AcDbCircle
 10
-26.15514796321644
 20
256.0499545753669
 30
0.0
 40
61.367702
100
AcDbArc
 50
0.0
 51
21.96129700000055
  0
LINE
  5
3C2
330
18
100
AcDbEntity
  8
1
  6
Continuous
100
AcDbLine
 10
32.71255903678365
 20
258.0499545753669
 30
0.0
 11
35.21255903678365
 21
258.0499545753669
 31
0.0
  0
LINE
  5
3C3
330
18
100
AcDbEntity
  8
1
  6
Continuous
100
AcDbLine
 10
27.71255903678365
 20
258.8649115753668
 30
0.0
 11
31.71255903678366
 21
258.8649115753668
 31
0.0
  0
LINE
  5
3C4
330
18
100
AcDbEntity
  8
1
  6
Continuous
100
AcDbLine
 10
38.21255903678366
 20
255.0499545753669
 30
0.0
 11
38.71252803678361
 21
255.0499545753669
 31
0.0
  0
ARC
  5
3C5
330
18
100
AcDbEntity
  8
1
  6
Continuous
100
AcDbCircle
 10
21.21255903678366
 20
324.1769705753668
 30
0.0
 40
4.0
100
AcDbArc
 50
0.0
 51
75.52248799999988
  0
LINE
  5
3C6
330
18
100
AcDbEntity
  8
1
  6
Continuous
100
AcDbLine
 10
22.21255903678367
 20
331.0499625753668
 30
0.0
 11
22.21255903678367
 21
323.0499545753668
 31
0.0
  0
ARC
  5
3C7
330
18
100
AcDbEntity
  8
1
  6
Continuous
100
AcDbCircle
 10
26.71255903678366
 20
326.5499545753669
 30
0.0
 40
1.5
100
AcDbArc
 50
89.99998199999998
 51
179.9999639999999
  0
LINE
  5
3C8
330
18
100
AcDbEntity
  8
1
  6
Continuous
100
AcDbLine
 10
25.21255903678365
 20
326.5499545753669
 30
0.0
 11
25.21255903678365
 21
323.0499545753668
 31
0.0
  0
ARC
  5
3C9
330
18
100
AcDbEntity
  8
1
  6
Continuous
100
AcDbCircle
 10
55.42706703678367
 20
328.2644895753668
 30
0.0
 40
2.214531
100
AcDbArc
 50
185.559307277751
 51
270.0000279999998
  0
LINE
  5
3CA
330
18
100
AcDbEntity
  8
1
  6
Continuous
100
AcDbLine
 10
47.2125280367836
 20
326.0499545753668
 30
0.0
 11
75.21252803678362
 21
326.0499545753668
 31
0.0
  0
ARC
  5
3CB
330
18
100
AcDbEntity
  8
1
  6
Continuous
100
AcDbCircle
 10
39.71255903678366
 20
326.5499545753669
 30
0.0
 40
1.5
100
AcDbArc
 50
89.99998199999998
 51
179.9999639999999
  0
ARC
  5
3CC
330
18
100
AcDbEntity
  8
1
  6
Continuous
100
AcDbCircle
 10
47.2125280367836
 20
328.0499545753668
 30
0.0
 40
2.0
100
AcDbArc
 50
179.999978
 51
270.0000279999998
  0
ARC
  5
3CD
330
18
100
AcDbEntity
  8
1
  6
Continuous
100
AcDbCircle
 10
66.99798903678356
 20
328.2644895753668
 30
0.0
 40
2.214531
100
AcDbArc
 50
269.9999629999997
 51
354.4406927222488
  0
ARC
  5
3CE
330
18
100
AcDbEntity
  8
1
  6
Continuous
100
AcDbCircle
 10
75.21252803678362
 20
328.0499545753668
 30
0.0
 40
2.0
100
AcDbArc
 50
269.9999629999997
 51
0.0
  0
ARC
  5
3CF
330
18
100
AcDbEntity
  8
1
  6
Continuous
100
AcDbCircle
 10
-17.57369596321631
 20
323.0499545753668
 30
0.0
 40
117.7861939999999
100
AcDbArc
 50
338.0387019999998
 51
0.0
  0
ARC
  5
3D0
330
18
100
AcDbEntity
  8
1
  6
Continuous
100
AcDbCircle
 10
-29.11443696321635
 20
323.0499545753668
 30
0.0
 40
126.32692
100
AcDbArc
 50
338.7216109999996
 51
0.0
  0
LINE
  5
3D1
330
18
100
AcDbEntity
  8
1
  6
Continuous
100
AcDbLine
 10
84.21249703678359
 20
326.5499545753669
 30
0.0
 11
84.21249703678359
 21
234.0499395753668
 31
0.0
  0
ARC
  5
3D2
330
18
100
AcDbEntity
  8
1
  6
Continuous
100
AcDbCircle
 10
73.76250103678366
 20
249.0499545753668
 30
0.0
 40
17.450001
100
AcDbArc
 50
328.9517629999998
 51
31.04826399999952
  0
ARC
  5
3D3
330
18
100
AcDbEntity
  8
1
  6
Continuous
100
AcDbCircle
 10
148.5802040367836
 20
253.8469215753668
 30
0.0
 40
64.36770600000001
100
AcDbArc
 50
158.7215750000002
 51
179.9999639999999
  0
LINE
  5
3D4
330
18
100
AcDbEntity
  8
1
  6
Continuous
100
AcDbLine
 10
88.71249703678357
 20
240.0499545753668
 30
0.0
 11
88.71249703678357
 21
258.0499545753669
 31
0.0
  0
LINE
  5
3D5
330
18
100
AcDbEntity
  8
1
  6
Continuous
100
AcDbLine
 10
87.21249703678358
 20
256.0499545753669
 30
0.0
 11
87.21249703678358
 21
234.0499395753668
 31
0.0
  0
LINE
  5
3D6
330
18
100
AcDbEntity
  8
1
  6
Continuous
100
AcDbLine
 10
87.21249703678358
 20
234.0499395753668
 30
0.0
 11
84.21249703678359
 21
234.0499395753668
 31
0.0
  0
LINE
  5
3D7
330
18
100
AcDbEntity
  8
1
  6
Continuous
100
AcDbLine
 10
83.71252803678363
 20
243.0499545753669
 30
0.0
 11
84.21249703678359
 21
243.0499545753669
 31
0.0
  0
LINE
  5
3D8
330
18
100
AcDbEntity
  8
1
  6
Continuous
100
AcDbLine
 10
88.71249703678357
 20
240.0499545753668
 30
0.0
 11
87.21249703678358
 21
240.0499545753668
 31
0.0
  0
ARC
  5
3D9
330
18
100
AcDbEntity
  8
1
  6
Continuous
100
AcDbCircle
 10
148.5802040367836
 20
256.0499545753669
 30
0.0
 40
61.367702
100
AcDbArc
 50
158.038665999999
 51
179.9999639999999
  0
LINE
  5
3DA
330
18
100
AcDbEntity
  8
1
  6
Continuous
100
AcDbLine
 10
83.71252803678363
 20
255.0499545753669
 30
0.0
 11
84.21249703678359
 21
255.0499545753669
 31
0.0
  0
LINE
  5
3DB
330
18
100
AcDbEntity
  8
1
  6
Continuous
100
AcDbLine
 10
88.71249703678357
 20
258.0499545753669
 30
0.0
 11
87.24510603678369
 21
258.0499545753669
 31
0.0
  0
ARC
  5
3DC
330
18
100
AcDbEntity
  8
1
  6
Continuous
100
AcDbCircle
 10
95.71249703678359
 20
326.5499545753669
 30
0.0
 40
1.5
100
AcDbArc
 50
0.0
 51
89.99998199999998
  0
ARC
  5
3DD
330
18
100
AcDbEntity
  8
1
  6
Continuous
100
AcDbCircle
 10
101.2124970367834
 20
324.1769705753668
 30
0.0
 40
4.0
100
AcDbArc
 50
104.4774760000001
 51
179.9999639999999
  0
LINE
  5
3DE
330
18
100
AcDbEntity
  8
1
  6
Continuous
100
AcDbLine
 10
97.2124970367836
 20
326.5499545753669
 30
0.0
 11
97.2124970367836
 21
323.0499545753668
 31
0.0
  0
LINE
  5
3DF
330
18
100
AcDbEntity
  8
1
  6
Continuous
100
AcDbLine
 10
100.2124970367834
 20
331.0499625753668
 30
0.0
 11
100.2124970367834
 21
323.0499545753668
 31
0.0
  0
LINE
  5
3E0
330
18
100
AcDbEntity
  8
1
  6
Continuous
100
AcDbLine
 10
184.5657833263047
 20
432.4210834411206
 30
0.0
 11
184.5657833263047
 21
494.4210834411206
 31
0.0
  0
LINE
  5
3E1
330
18
100
AcDbEntity
  8
4
  6
CENTER
 48
0.8
100
AcDbLine
 10
239.5657833263047
 20
428.4211094411205
 30
0.0
 11
239.5657833263047
 21
506.9210524411205
 31
0.0
  0
LINE
  5
3E2
330
18
100
AcDbEntity
  8
1
  6
Continuous
100
AcDbLine
 10
294.5657833263047
 20
432.4210834411206
 30
0.0
 11
294.5657833263047
 21
494.4210834411206
 31
0.0
  0
ARC
  5
3E3
330
18
100
AcDbEntity
  8
1
  6
Continuous
100
AcDbCircle
 10
209.5657833263047
 20
441.4210834411206
 30
0.0
 40
14.0
100
AcDbArc
 50
31.96572199999941
 51
89.99998199999998
  0
ARC
  5
3E4
330
18
100
AcDbEntity
  8
1
  6
Continuous
100
AcDbCircle
 10
269.5657833263047
 20
441.4210834411206
 30
0.0
 40
14.0
100
AcDbArc
 50
90.00003699999981
 51
148.0342960000001
  0
LINE
  5
3E6
330
18
100
AcDbEntity
  8
1
  6
Continuous
100
AcDbLine
 10
255.1435803263047
 20
447.4210834411207
 30
0.0
 11
223.9879883263046
 21
447.4210834411207
 31
0.0
  0
LINE
  5
3E7
330
18
100
AcDbEntity
  8
1
  6
Continuous
100
AcDbLine
 10
225.5657833263047
 20
437.4210834411207
 30
0.0
 11
253.5657833263047
 21
437.4210834411207
 31
0.0
  0
LINE
  5
3E8
330
18
100
AcDbEntity
  8
1
  6
Continuous
100
AcDbLine
 10
184.5658143263047
 20
331.0499625753668
 30
0.0
 11
294.5657533263046
 21
331.0499625753668
 31
0.0
  0
ARC
  5
3E9
330
18
100
AcDbEntity
  8
1
  6
Continuous
100
AcDbCircle
 10
239.5657833263047
 20
252.0499545753668
 30
0.0
 40
18.0
100
AcDbArc
 50
193.5319929999998
 51
270.0000179999999
  0
CIRCLE
  5
3EA
330
18
100
AcDbEntity
  8
1
  6
Continuous
100
AcDbCircle
 10
239.5657833263047
 20
249.0499545753668
 30
0.0
 40
9.000007999999997
  0
LINE
  5
3EB
330
18
100
AcDbEntity
  8
4
  6
CENTER
 48
0.8
100
AcDbLine
 10
294.5657833263047
 20
249.0499545753668
 30
0.0
 11
184.5657833263047
 21
249.0499545753668
 31
0.0
  0
LINE
  5
3EC
330
18
100
AcDbEntity
  8
1
  6
Continuous
100
AcDbLine
 10
222.0654753263047
 20
247.8381635753668
 30
0.0
 11
206.3298493263046
 21
313.2208165753668
 31
0.0
  0
LINE
  5
3ED
330
18
100
AcDbEntity
  8
1
  6
Continuous
100
AcDbLine
 10
220.5657833263046
 20
327.6832935753668
 30
0.0
 11
220.5657833263046
 21
258.7499665753668
 31
0.0
  0
ARC
  5
3EE
330
18
100
AcDbEntity
  8
1
  6
Continuous
100
AcDbCircle
 10
-60.5819746736953
 20
224.3975725753668
 30
0.0
 40
281.3645629999999
100
AcDbArc
 50
8.513190000000196
 51
18.70001999999976
  0
ARC
  5
3EF
330
18
100
AcDbEntity
  8
1
  6
Continuous
100
AcDbCircle
 10
190.7740183263047
 20
309.4769985753668
 30
0.0
 40
16.0
100
AcDbArc
 50
13.53200799999949
 51
60.72247900000002
  0
LINE
  5
3F0
330
18
100
AcDbEntity
  8
1
  6
Continuous
100
AcDbLine
 10
184.5658143263047
 20
328.0499625753668
 30
0.0
 11
197.0657833263047
 21
328.0499625753668
 31
0.0
  0
LINE
  5
3F1
330
18
100
AcDbEntity
  8
1
  6
Continuous
100
AcDbLine
 10
184.5658143263047
 20
331.0499815753668
 30
0.0
 11
184.5658143263047
 21
328.0499625753668
 31
0.0
  0
ARC
  5
3F2
330
18
100
AcDbEntity
  8
1
  6
Continuous
100
AcDbCircle
 10
194.0657833263047
 20
328.0499625753668
 30
0.0
 40
3.0
100
AcDbArc
 50
0.0
 51
89.99998199999998
  0
LINE
  5
3F3
330
18
100
AcDbEntity
  8
1
  6
Continuous
100
AcDbLine
 10
197.0657833263047
 20
328.0499625753668
 30
0.0
 11
197.0657833263047
 21
326.0499625753668
 31
0.0
  0
ARC
  5
3F4
330
18
100
AcDbEntity
  8
1
  6
Continuous
100
AcDbCircle
 10
200.0657833263047
 20
326.0499625753668
 30
0.0
 40
3.0
100
AcDbArc
 50
179.999978
 51
240.7224489999999
  0
ARC
  5
3F5
330
18
100
AcDbEntity
  8
1
  6
Continuous
100
AcDbCircle
 10
200.8473693263047
 20
438.4210834411207
 30
0.0
 40
14.0
100
AcDbArc
 50
270.0000179999999
 51
325.4818909999995
  0
LINE
  5
3F7
330
18
100
AcDbEntity
  8
1
  6
Continuous
100
AcDbLine
 10
192.1061073263047
 20
443.3404344411207
 30
0.0
 11
197.1061063263047
 21
445.8404334411206
 31
0.0
  0
ARC
  5
3F8
330
18
100
AcDbEntity
  8
1
  6
Continuous
100
AcDbCircle
 10
194.5657833263047
 20
438.4210834411207
 30
0.0
 40
5.5
100
AcDbArc
 50
116.565074
 51
296.5650379999999
  0
ARC
  5
3F9
330
18
100
AcDbEntity
  8
1
  6
Continuous
100
AcDbCircle
 10
192.5657833263047
 20
432.4210834411206
 30
0.0
 40
8.0
100
AcDbArc
 50
179.999978
 51
270.0000279999998
  0
LINE
  5
3FA
330
18
100
AcDbEntity
  8
1
  6
Continuous
100
AcDbLine
 10
200.8473693263047
 20
424.4210834411206
 30
0.0
 11
192.5657833263047
 21
424.4210834411206
 31
0.0
  0
LINE
  5
3FC
330
18
100
AcDbEntity
  8
1
  6
Continuous
100
AcDbLine
 10
197.0254573263046
 20
433.5017354411204
 30
0.0
 11
202.0254553263046
 21
436.0017344411205
 31
0.0
  0
ARC
  5
3FD
330
18
100
AcDbEntity
  8
1
  6
Continuous
100
AcDbCircle
 10
199.5657833263047
 20
440.9210834411206
 30
0.0
 40
5.5
100
AcDbArc
 50
296.5650479999998
 51
116.565074
  0
ARC
  5
400
330
18
100
AcDbEntity
  8
1
  6
Continuous
100
AcDbCircle
 10
225.5657833263047
 20
421.4210834411207
 30
0.0
 40
16.0
100
AcDbArc
 50
89.99998199999998
 51
145.4819090000001
  0
ARC
  5
401
330
18
100
AcDbEntity
  8
1
  6
Continuous
100
AcDbCircle
 10
223.9879883263046
 20
450.4210834411207
 30
0.0
 40
3.0
100
AcDbArc
 50
211.965675999999
 51
270.0000179999999
  0
LINE
  5
403
330
18
100
AcDbEntity
  8
1
  6
Continuous
100
AcDbLine
 10
258.5657833263047
 20
327.6832935753668
 30
0.0
 11
258.5657833263047
 21
258.7499665753668
 31
0.0
  0
LINE
  5
404
330
18
100
AcDbEntity
  8
1
  6
Continuous
100
AcDbLine
 10
257.0660913263047
 20
247.8381535753669
 30
0.0
 11
272.8017193263046
 21
313.2208175753668
 31
0.0
  0
ARC
  5
405
330
18
100
AcDbEntity
  8
1
  6
Continuous
100
AcDbCircle
 10
539.7135573263049
 20
224.3975725753668
 30
0.0
 40
281.3645629999999
100
AcDbArc
 50
161.2999440000005
 51
171.4867749999996
  0
ARC
  5
406
330
18
100
AcDbEntity
  8
1
  6
Continuous
100
AcDbCircle
 10
239.5657833263047
 20
252.0499545753668
 30
0.0
 40
18.0
100
AcDbArc
 50
269.9999629999997
 51
346.4679880000006
  0
ARC
  5
407
330
18
100
AcDbEntity
  8
1
  6
Continuous
100
AcDbCircle
 10
284.5657833263047
 20
438.4210834411207
 30
0.0
 40
5.5
100
AcDbArc
 50
243.434981
 51
63.43494500000011
  0
ARC
  5
408
330
18
100
AcDbEntity
  8
1
  6
Continuous
100
AcDbCircle
 10
286.5657833263047
 20
432.4210834411206
 30
0.0
 40
8.0
100
AcDbArc
 50
270.0000179999999
 51
0.00005500000065
  0
LINE
  5
409
330
18
100
AcDbEntity
  8
1
  6
Continuous
100
AcDbLine
 10
294.5657533263047
 20
328.0499625753668
 30
0.0
 11
282.0657833263047
 21
328.0499625753668
 31
0.0
  0
ARC
  5
40A
330
18
100
AcDbEntity
  8
1
  6
Continuous
100
AcDbCircle
 10
288.3575463263047
 20
309.4769985753668
 30
0.0
 40
16.0
100
AcDbArc
 50
119.2774789999997
 51
166.4679520000001
  0
ARC
  5
40B
330
18
100
AcDbEntity
  8
1
  6
Continuous
100
AcDbCircle
 10
285.0657833263047
 20
328.0499625753668
 30
0.0
 40
3.0
100
AcDbArc
 50
89.99998199999998
 51
179.9999639999999
  0
ARC
  5
40C
330
18
100
AcDbEntity
  8
1
  6
Continuous
100
AcDbCircle
 10
279.0657833263046
 20
326.0499625753668
 30
0.0
 40
3.0
100
AcDbArc
 50
299.277542
 51
0.0000140000001062
  0
LINE
  5
40D
330
18
100
AcDbEntity
  8
1
  6
Continuous
100
AcDbLine
 10
282.0657833263047
 20
328.0499625753668
 30
0.0
 11
282.0657833263047
 21
326.0499625753668
 31
0.0
  0
ARC
  5
40E
330
18
100
AcDbEntity
  8
1
  6
Continuous
100
AcDbCircle
 10
253.5657833263047
 20
421.4210834411207
 30
0.0
 40
16.0
100
AcDbArc
 50
34.51810900000046
 51
90.00003699999981
  0
ARC
  5
40F
330
18
100
AcDbEntity
  8
1
  6
Continuous
100
AcDbCircle
 10
255.1435803263047
 20
450.4210834411207
 30
0.0
 40
3.0
100
AcDbArc
 50
270.0000179999999
 51
328.0343599999997
  0
ARC
  5
410
330
18
100
AcDbEntity
  8
1
  6
Continuous
100
AcDbCircle
 10
279.5657833263047
 20
440.9210834411206
 30
0.0
 40
5.5
100
AcDbArc
 50
63.43494500000011
 51
243.4349629999999
  0
ARC
  5
411
330
18
100
AcDbEntity
  8
1
  6
Continuous
100
AcDbCircle
 10
278.2841973263046
 20
438.4210834411207
 30
0.0
 40
14.0
100
AcDbArc
 50
214.5181449999995
 51
270.0000179999999
  0
LINE
  5
412
330
18
100
AcDbEntity
  8
1
  6
Continuous
100
AcDbLine
 10
278.2841973263046
 20
424.4210834411206
 30
0.0
 11
286.5657833263047
 21
424.4210834411206
 31
0.0
  0
LINE
  5
415
330
18
100
AcDbEntity
  8
1
  6
Continuous
100
AcDbLine
 10
282.1061113263048
 20
433.5017344411205
 30
0.0
 11
277.1061123263046
 21
436.0017334411207
 31
0.0
  0
LINE
  5
418
330
18
100
AcDbEntity
  8
1
  6
Continuous
100
AcDbLine
 10
287.0254603263047
 20
443.3404334411205
 30
0.0
 11
282.0254613263049
 21
445.8404324411206
 31
0.0
  0
LINE
  5
419
330
18
100
AcDbEntity
  8
1
  6
Continuous
100
AcDbLine
 10
294.5657533263047
 20
331.0499815753668
 30
0.0
 11
294.5657533263047
 21
328.0499625753668
 31
0.0
  0
LINE
  5
41A
330
18
100
AcDbEntity
  8
4
  6
CENTER
 48
0.8
100
AcDbLine
 10
299.5657833263047
 20
463.4210834411207
 30
0.0
 11
179.5657833263045
 21
463.4210834411207
 31
0.0
  0
LINE
  5
41B
330
18
100
AcDbEntity
  8
1
  6
Continuous
100
AcDbLine
 10
225.5657833263047
 20
489.4210834411206
 30
0.0
 11
253.5657833263047
 21
489.4210834411206
 31
0.0
  0
LINE
  5
41C
330
18
100
AcDbEntity
  8
1
  6
Continuous
100
AcDbLine
 10
255.1435803263047
 20
479.4210834411207
 30
0.0
 11
223.9879883263046
 21
479.4210834411207
 31
0.0
  0
LINE
  5
41D
330
18
100
AcDbEntity
  8
1
  6
Continuous
100
AcDbLine
 10
209.5657833263047
 20
455.4210834411207
 30
0.0
 11
202.5657833263047
 21
455.4210834411207
 31
0.0
  0
LINE
  5
41E
330
18
100
AcDbEntity
  8
1
  6
Continuous
100
AcDbLine
 10
209.5657833263047
 20
471.4210834411207
 30
0.0
 11
202.5657833263047
 21
471.4210834411207
 31
0.0
  0
ARC
  5
41F
330
18
100
AcDbEntity
  8
1
  6
Continuous
100
AcDbCircle
 10
200.8473693263047
 20
488.4210834411207
 30
0.0
 40
14.0
100
AcDbArc
 50
34.51810900000046
 51
89.99998199999998
  0
LINE
  5
420
330
18
100
AcDbEntity
  8
1
  6
Continuous
100
AcDbLine
 10
197.0254603263047
 20
493.3404354411207
 30
0.0
 11
202.0254623263046
 21
490.8404344411207
 31
0.0
  0
ARC
  5
421
330
18
100
AcDbEntity
  8
1
  6
Continuous
100
AcDbCircle
 10
194.5657833263047
 20
488.4210834411207
 30
0.0
 40
5.5
100
AcDbArc
 50
63.43496499999982
 51
243.4349359999999
  0
LINE
  5
422
330
18
100
AcDbEntity
  8
1
  6
Continuous
100
AcDbLine
 10
192.1061113263047
 20
483.5017364411206
 30
0.0
 11
197.1061123263045
 21
481.0017354411207
 31
0.0
  0
ARC
  5
424
330
18
100
AcDbEntity
  8
1
  6
Continuous
100
AcDbCircle
 10
202.5657833263047
 20
463.4210834411207
 30
0.0
 40
8.0
100
AcDbArc
 50
90.00000300000015
 51
270.0000009999997
  0
ARC
  5
426
330
18
100
AcDbEntity
  8
1
  6
Continuous
100
AcDbCircle
 10
199.5657833263047
 20
485.9210834411206
 30
0.0
 40
5.5
100
AcDbArc
 50
243.4349259999998
 51
63.43495199999978
  0
ARC
  5
429
330
18
100
AcDbEntity
  8
1
  6
Continuous
100
AcDbCircle
 10
192.5657833263047
 20
494.4210834411206
 30
0.0
 40
8.0
100
AcDbArc
 50
89.99998199999998
 51
180.0000190000005
  0
LINE
  5
42A
330
18
100
AcDbEntity
  8
1
  6
Continuous
100
AcDbLine
 10
200.8473693263047
 20
502.4210834411205
 30
0.0
 11
192.5657833263047
 21
502.4210834411205
 31
0.0
  0
ARC
  5
42B
330
18
100
AcDbEntity
  8
1
  6
Continuous
100
AcDbCircle
 10
225.5657833263047
 20
505.4210834411207
 30
0.0
 40
16.0
100
AcDbArc
 50
214.5180909999997
 51
270.0000179999999
  0
ARC
  5
42C
330
18
100
AcDbEntity
  8
1
  6
Continuous
100
AcDbCircle
 10
209.5657833263047
 20
485.4210834411206
 30
0.0
 40
14.0
100
AcDbArc
 50
270.0000179999999
 51
328.0342780000006
  0
ARC
  5
42D
330
18
100
AcDbEntity
  8
1
  6
Continuous
100
AcDbCircle
 10
223.9879883263046
 20
476.4210834411207
 30
0.0
 40
3.0
100
AcDbArc
 50
89.99998199999998
 51
148.0343240000008
  0
ARC
  5
42E
330
18
100
AcDbEntity
  8
1
  6
Continuous
100
AcDbCircle
 10
286.5657833263047
 20
494.4210834411206
 30
0.0
 40
8.0
100
AcDbArc
 50
359.9999449999992
 51
89.99998199999998
  0
ARC
  5
42F
330
18
100
AcDbEntity
  8
1
  6
Continuous
100
AcDbCircle
 10
284.5657833263047
 20
488.4210834411207
 30
0.0
 40
5.5
100
AcDbArc
 50
296.5650549999998
 51
116.5650189999998
  0
ARC
  5
430
330
18
100
AcDbEntity
  8
1
  6
Continuous
100
AcDbCircle
 10
253.5657833263047
 20
505.4210834411207
 30
0.0
 40
16.0
100
AcDbArc
 50
269.9999629999997
 51
325.4818909999995
  0
ARC
  5
431
330
18
100
AcDbEntity
  8
1
  6
Continuous
100
AcDbCircle
 10
269.5657833263047
 20
485.4210834411206
 30
0.0
 40
14.0
100
AcDbArc
 50
211.9657039999998
 51
269.9999629999997
  0
ARC
  5
432
330
18
100
AcDbEntity
  8
1
  6
Continuous
100
AcDbCircle
 10
255.1435803263047
 20
476.4210834411207
 30
0.0
 40
3.0
100
AcDbArc
 50
31.96564000000025
 51
89.99998199999998
  0
LINE
  5
433
330
18
100
AcDbEntity
  8
1
  6
Continuous
100
AcDbLine
 10
282.1061063263046
 20
493.3404354411207
 30
0.0
 11
277.1061113263048
 21
490.8404374411206
 31
0.0
  0
LINE
  5
434
330
18
100
AcDbEntity
  8
1
  6
Continuous
100
AcDbLine
 10
269.5657833263047
 20
455.4210834411207
 30
0.0
 11
276.5657833263047
 21
455.4210834411207
 31
0.0
  0
LINE
  5
435
330
18
100
AcDbEntity
  8
1
  6
Continuous
100
AcDbLine
 10
269.5657833263047
 20
471.4210834411207
 30
0.0
 11
276.5657833263047
 21
471.4210834411207
 31
0.0
  0
ARC
  5
436
330
18
100
AcDbEntity
  8
1
  6
Continuous
100
AcDbCircle
 10
279.5657833263047
 20
485.9210834411206
 30
0.0
 40
5.5
100
AcDbArc
 50
116.5650330000003
 51
296.5650649999993
  0
ARC
  5
437
330
18
100
AcDbEntity
  8
1
  6
Continuous
100
AcDbCircle
 10
276.5657833263047
 20
463.4210834411207
 30
0.0
 40
8.0
100
AcDbArc
 50
270.0000179999999
 51
90.00000300000015
  0
LINE
  5
438
330
18
100
AcDbEntity
  8
4
  6
CENTER
 48
0.8
100
AcDbLine
 10
272.0657833263047
 20
485.9210834411206
 30
0.0
 11
287.0657833263048
 21
485.9210834411206
 31
0.0
  0
LINE
  5
439
330
18
100
AcDbEntity
  8
4
  6
CENTER
 48
0.8
100
AcDbLine
 10
277.0657833263047
 20
488.4210834411207
 30
0.0
 11
292.0657833263047
 21
488.4210834411207
 31
0.0
  0
LINE
  5
43B
330
18
100
AcDbEntity
  8
1
  6
Continuous
100
AcDbLine
 10
287.0254593263047
 20
483.5017294411207
 30
0.0
 11
282.0254643263048
 21
481.0017314411206
 31
0.0
  0
LINE
  5
43C
330
18
100
AcDbEntity
  8
4
  6
CENTER
 48
0.8
100
AcDbLine
 10
284.5657833263047
 20
495.9210834411207
 30
0.0
 11
284.5657833263047
 21
480.9210834411207
 31
0.0
  0
ARC
  5
43D
330
18
100
AcDbEntity
  8
1
  6
Continuous
100
AcDbCircle
 10
278.2841973263046
 20
488.4210834411207
 30
0.0
 40
14.0
100
AcDbArc
 50
89.99998199999998
 51
145.4818550000003
  0
LINE
  5
43E
330
18
100
AcDbEntity
  8
1
  6
Continuous
100
AcDbLine
 10
278.2841973263046
 20
502.4210834411205
 30
0.0
 11
286.5657833263047
 21
502.4210834411205
 31
0.0
  0
ARC
  5
443
330
18
100
AcDbEntity
  8
1
  6
Continuous
100
AcDbCircle
 10
239.5657833263047
 20
249.0499545753668
 30
0.0
 40
50.0
100
AcDbArc
 50
123.772460357208
 51
56.2275372879078
  0
LINE
  5
447
330
18
100
AcDbEntity
  8
4
  6
CENTER
 48
0.8
100
AcDbLine
 10
239.5657833263047
 20
336.0499625753668
 30
0.0
 11
239.5657833263047
 21
194.0499545753668
 31
0.0
  0
ARC
  5
448
330
18
100
AcDbEntity
  8
1
  6
Continuous
100
AcDbCircle
 10
239.5657833263047
 20
249.0499545753668
 30
0.0
 40
17.0
100
AcDbArc
 50
194.7677759465292
 51
345.2322240534706
  0
ARC
  5
449
330
18
100
AcDbEntity
  8
1
  6
Continuous
100
AcDbCircle
 10
239.5657833263047
 20
249.0499545753668
 30
0.0
 40
16.0
100
AcDbArc
 50
217.9216507842909
 51
322.078349215709
  0
ARC
  5
44D
330
18
100
AcDbEntity
  8
1
  6
Continuous
100
AcDbCircle
 10
252.5561643263046
 20
256.5499545753668
 30
0.0
 40
15.0
100
AcDbArc
 50
6.728910000000531
 51
51.11380290085643
  0
ARC
  5
44E
330
18
100
AcDbEntity
  8
1
  6
Continuous
100
AcDbCircle
 10
245.6043823263047
 20
255.7297515753668
 30
0.0
 40
22.0
100
AcDbArc
 50
357.8356240000009
 51
6.728910000000531
  0
ARC
  5
44F
330
18
100
AcDbEntity
  8
1
  6
Continuous
100
AcDbCircle
 10
262.9964983263046
 20
254.2462605753669
 30
0.0
 40
3.0
100
AcDbArc
 50
192.5042929999992
 51
233.4842859999987
  0
ARC
  5
450
330
18
100
AcDbEntity
  8
1
  6
Continuous
100
AcDbCircle
 10
239.5657833263047
 20
249.0499545753668
 30
0.0
 40
21.0
100
AcDbArc
 50
12.50429299999921
 51
21.00946296972896
  0
ARC
  5
451
330
18
100
AcDbEntity
  8
1
  6
Continuous
100
AcDbCircle
 10
263.5915413263047
 20
255.0499545753668
 30
0.0
 40
4.0
100
AcDbArc
 50
233.4842859999987
 51
357.8356240000009
  0
ARC
  5
452
330
18
100
AcDbEntity
  8
1
  6
Continuous
100
AcDbCircle
 10
262.9964983263046
 20
243.8536485753668
 30
0.0
 40
3.0
100
AcDbArc
 50
126.5157140000013
 51
167.4957070000008
  0
ARC
  5
453
330
18
100
AcDbEntity
  8
1
  6
Continuous
100
AcDbCircle
 10
263.5915413263047
 20
243.0499545753668
 30
0.0
 40
4.0
100
AcDbArc
 50
2.164375999999105
 51
126.5157140000013
  0
ARC
  5
454
330
18
100
AcDbEntity
  8
1
  6
Continuous
100
AcDbCircle
 10
245.6043823263047
 20
242.3701575753669
 30
0.0
 40
22.0
100
AcDbArc
 50
353.2710899999994
 51
2.164375999999105
  0
ARC
  5
455
330
18
100
AcDbEntity
  8
1
  6
Continuous
100
AcDbCircle
 10
252.5561643263046
 20
241.5499545753668
 30
0.0
 40
15.0
100
AcDbArc
 50
306.7289099999996
 51
353.2710899999994
  0
ARC
  5
456
330
18
100
AcDbEntity
  8
1
  6
Continuous
100
AcDbCircle
 10
248.3699573263046
 20
247.1602725753669
 30
0.0
 40
22.0
100
AcDbArc
 50
297.8356239999998
 51
306.7289099999996
  0
ARC
  5
457
330
18
100
AcDbEntity
  8
1
  6
Continuous
100
AcDbCircle
 10
255.7812743263046
 20
231.3565135753668
 30
0.0
 40
3.0
100
AcDbArc
 50
132.5042929999999
 51
173.4842860000012
  0
ARC
  5
458
330
18
100
AcDbEntity
  8
1
  6
Continuous
100
AcDbCircle
 10
239.5657833263047
 20
249.0499545753668
 30
0.0
 40
21.0
100
AcDbArc
 50
312.504293
 51
347.4957070000006
  0
ARC
  5
459
330
18
100
AcDbEntity
  8
1
  6
Continuous
100
AcDbCircle
 10
256.7748143263047
 20
231.2430375753669
 30
0.0
 40
4.0
100
AcDbArc
 50
173.4842860000012
 51
297.8356239999998
  0
ARC
  5
45A
330
18
100
AcDbEntity
  8
1
  6
Continuous
100
AcDbCircle
 10
246.7810073263046
 20
226.1602065753669
 30
0.0
 40
3.0
100
AcDbArc
 50
66.51571400000069
 51
107.4957069999995
  0
ARC
  5
45B
330
18
100
AcDbEntity
  8
1
  6
Continuous
100
AcDbCircle
 10
246.3825103263046
 20
225.2430375753669
 30
0.0
 40
4.0
100
AcDbArc
 50
302.1643759999999
 51
66.51571400000069
  0
ARC
  5
45C
330
18
100
AcDbEntity
  8
1
  6
Continuous
100
AcDbCircle
 10
236.8002093263047
 20
240.4804755753668
 30
0.0
 40
22.0
100
AcDbArc
 50
293.2710900000007
 51
302.1643759999999
  0
ARC
  5
45D
330
18
100
AcDbEntity
  8
1
  6
Continuous
100
AcDbCircle
 10
239.5657833263047
 20
234.0499545753668
 30
0.0
 40
15.0
100
AcDbArc
 50
246.7289099999991
 51
293.2710900000007
  0
ARC
  5
45E
330
18
100
AcDbEntity
  8
1
  6
Continuous
100
AcDbCircle
 10
242.3313573263047
 20
240.4804755753668
 30
0.0
 40
22.0
100
AcDbArc
 50
237.835624
 51
246.7289099999991
  0
ARC
  5
45F
330
18
100
AcDbEntity
  8
1
  6
Continuous
100
AcDbCircle
 10
232.3505593263047
 20
226.1602065753669
 30
0.0
 40
3.0
100
AcDbArc
 50
72.50429300000039
 51
113.4842859999993
  0
ARC
  5
460
330
18
100
AcDbEntity
  8
1
  6
Continuous
100
AcDbCircle
 10
239.5657833263047
 20
249.0499545753668
 30
0.0
 40
21.0
100
AcDbArc
 50
252.5042930000004
 51
287.4957069999997
  0
ARC
  5
461
330
18
100
AcDbEntity
  8
1
  6
Continuous
100
AcDbCircle
 10
232.7490563263046
 20
225.2430375753669
 30
0.0
 40
4.0
100
AcDbArc
 50
113.4842859999993
 51
237.835624
  0
ARC
  5
462
330
18
100
AcDbEntity
  8
1
  6
Continuous
100
AcDbCircle
 10
223.3502923263047
 20
231.3565135753668
 30
0.0
 40
3.0
100
AcDbArc
 50
6.515713999998627
 51
47.49570699999996
  0
ARC
  5
463
330
18
100
AcDbEntity
  8
1
  6
Continuous
100
AcDbCircle
 10
222.3567513263047
 20
231.2430375753669
 30
0.0
 40
4.0
100
AcDbArc
 50
242.164376
 51
6.515713999998627
  0
ARC
  5
464
330
18
100
AcDbEntity
  8
1
  6
Continuous
100
AcDbCircle
 10
230.7616093263046
 20
247.1602725753669
 30
0.0
 40
22.0
100
AcDbArc
 50
233.2710900000001
 51
242.164376
  0
ARC
  5
465
330
18
100
AcDbEntity
  8
1
  6
Continuous
100
AcDbCircle
 10
226.5754023263045
 20
241.5499545753668
 30
0.0
 40
15.0
100
AcDbArc
 50
186.7289100000005
 51
233.2710900000001
  0
ARC
  5
466
330
18
100
AcDbEntity
  8
1
  6
Continuous
100
AcDbCircle
 10
233.5271833263047
 20
242.3701575753669
 30
0.0
 40
22.0
100
AcDbArc
 50
177.8356240000007
 51
186.7289100000005
  0
ARC
  5
467
330
18
100
AcDbEntity
  8
1
  6
Continuous
100
AcDbCircle
 10
216.1350683263047
 20
243.8536485753668
 30
0.0
 40
3.0
100
AcDbArc
 50
12.50429299999921
 51
53.48428599999868
  0
ARC
  5
468
330
18
100
AcDbEntity
  8
1
  6
Continuous
100
AcDbCircle
 10
239.5657833263047
 20
249.0499545753668
 30
0.0
 40
21.0
100
AcDbArc
 50
192.5042929999992
 51
227.4957069999999
  0
ARC
  5
469
330
18
100
AcDbEntity
  8
1
  6
Continuous
100
AcDbCircle
 10
215.5400253263047
 20
243.0499545753668
 30
0.0
 40
4.0
100
AcDbArc
 50
53.48428599999868
 51
177.8356240000007
  0
ARC
  5
46A
330
18
100
AcDbEntity
  8
1
  6
Continuous
100
AcDbCircle
 10
233.5271833263047
 20
255.7297515753668
 30
0.0
 40
22.0
100
AcDbArc
 50
173.2710899999993
 51
182.164375999999
  0
ARC
  5
46B
330
18
100
AcDbEntity
  8
1
  6
Continuous
100
AcDbCircle
 10
215.5400253263047
 20
255.0499545753668
 30
0.0
 40
4.0
100
AcDbArc
 50
182.164375999999
 51
306.5157140000013
  0
ARC
  5
46C
330
18
100
AcDbEntity
  8
1
  6
Continuous
100
AcDbCircle
 10
216.1350683263047
 20
254.2462605753669
 30
0.0
 40
3.0
100
AcDbArc
 50
306.5157140000013
 51
347.4957070000006
  0
ARC
  5
46D
330
18
100
AcDbEntity
  8
1
  6
Continuous
100
AcDbCircle
 10
239.5657833263047
 20
249.0499545753668
 30
0.0
 40
21.0
100
AcDbArc
 50
158.9905261758174
 51
167.4957070000008
  0
ARC
  5
46E
330
18
100
AcDbEntity
  8
1
  6
Continuous
100
AcDbCircle
 10
226.5754023263045
 20
256.5499545753668
 30
0.0
 40
15.0
100
AcDbArc
 50
128.8861880383382
 51
173.2710899999993
  0
ARC
  5
470
330
18
100
AcDbEntity
  8
1
  6
Continuous
100
AcDbCircle
 10
239.5657833263047
 20
249.0499545753668
 30
0.0
 40
36.0
100
AcDbArc
 50
132.2501342172728
 51
47.74986202305337
  0
ARC
  5
471
330
18
100
AcDbEntity
  8
1
  6
Continuous
100
AcDbCircle
 10
83.21252803678362
 20
240.5499545753668
 30
0.0
 40
0.5
100
AcDbArc
 50
270.0
 51
0.0
  0
ARC
  5
472
330
18
100
AcDbEntity
  8
1
  6
Continuous
100
AcDbCircle
 10
39.21252803678362
 20
240.5499545753668
 30
0.0
 40
0.5
100
AcDbArc
 50
180.0
 51
270.0
  0
LINE
  5
474
330
18
100
AcDbEntity
  8
1
  6
Continuous
100
AcDbLine
 10
39.21252803678362
 20
240.0499545753668
 30
0.0
 11
44.7125280367836
 21
240.0499545753668
 31
0.0
  0
LINE
  5
475
330
18
100
AcDbEntity
  8
1
  6
Continuous
100
AcDbLine
 10
83.21252803678362
 20
240.0499545753668
 30
0.0
 11
77.71252803678362
 21
240.0499545753668
 31
0.0
  0
LINE
  5
477
330
18
100
AcDbEntity
  8
1
  6
Continuous
100
AcDbLine
 10
83.71252803678363
 20
257.5499545753668
 30
0.0
 11
83.71252803678363
 21
240.5499545753668
 31
0.0
  0
ARC
  5
479
330
18
100
AcDbEntity
  8
1
  6
Continuous
100
AcDbCircle
 10
76.21252803678363
 20
211.5499545753668
 30
0.0
 40
1.5
100
AcDbArc
 50
90.0
 51
165.1098469999989
  0
LINE
  5
47A
330
18
100
AcDbEntity
  8
1
  6
Continuous
100
AcDbLine
 10
72.11178903678366
 20
201.9649095753668
 30
0.0
 11
74.76289803678354
 21
211.9354045753668
 31
0.0
  0
ARC
  5
47B
330
18
100
AcDbEntity
  8
1
  6
Continuous
100
AcDbCircle
 10
69.21252803678362
 20
202.7358095753668
 30
0.0
 40
3.0
100
AcDbArc
 50
279.8001900000004
 51
345.109846999999
  0
ARC
  5
47C
330
18
100
AcDbEntity
  8
1
  6
Continuous
100
AcDbCircle
 10
61.21252803678363
 20
249.0499545753668
 30
0.0
 40
50.0
100
AcDbArc
 50
260.1998099999995
 51
279.8001900000004
  0
ARC
  5
47D
330
18
100
AcDbEntity
  8
1
  6
Continuous
100
AcDbCircle
 10
53.21252803678362
 20
202.7358095753668
 30
0.0
 40
3.0
100
AcDbArc
 50
194.8901530000009
 51
260.1998099999995
  0
LINE
  5
47E
330
18
100
AcDbEntity
  8
1
  6
Continuous
100
AcDbLine
 10
50.31326703678359
 20
201.9649095753668
 30
0.0
 11
47.66215803678369
 21
211.9354045753668
 31
0.0
  0
ARC
  5
47F
330
18
100
AcDbEntity
  8
1
  6
Continuous
100
AcDbCircle
 10
46.21252803678362
 20
211.5499545753668
 30
0.0
 40
1.5
100
AcDbArc
 50
14.89015300000103
 51
90.0
  0
LINE
  5
480
330
18
100
AcDbEntity
  8
4
  6
CENTER
 48
0.8
100
AcDbLine
 10
61.21252803678363
 20
194.0499545753668
 30
0.0
 11
61.21252803678363
 21
336.0499545753668
 31
0.0
  0
LINE
  5
481
330
18
100
AcDbEntity
  8
4
  6
CENTER
 48
0.8
100
AcDbLine
 10
96.2125020367837
 20
249.0499545753668
 30
0.0
 11
17.71255903678365
 21
249.0499545753668
 31
0.0
  0
ARC
  5
482
330
18
100
AcDbEntity
  8
1
  6
Continuous
100
AcDbCircle
 10
76.71252803678362
 20
228.5499545753669
 30
0.0
 40
0.5
100
AcDbArc
 50
90.0
 51
180.0
  0
ARC
  5
483
330
18
100
AcDbEntity
  8
1
  6
Continuous
100
AcDbCircle
 10
76.71252803678362
 20
230.0499545753668
 30
0.0
 40
1.0
100
AcDbArc
 50
270.0
 51
0.0
  0
ARC
  5
484
330
18
100
AcDbEntity
  8
1
  6
Continuous
100
AcDbCircle
 10
45.71252803678361
 20
228.5499545753669
 30
0.0
 40
0.5
100
AcDbArc
 50
0.0
 51
90.0
  0
ARC
  5
485
330
18
100
AcDbEntity
  8
1
  6
Continuous
100
AcDbCircle
 10
45.71252803678361
 20
230.0499545753668
 30
0.0
 40
1.0
100
AcDbArc
 50
180.0
 51
270.0
  0
LINE
  5
488
330
18
100
AcDbEntity
  8
1
  6
Continuous
100
AcDbLine
 10
77.71252803678362
 20
230.0499545753668
 30
0.0
 11
77.71252803678362
 21
268.0499545753668
 31
0.0
  0
ARC
  5
48A
330
18
100
AcDbEntity
  8
1
  6
Continuous
100
AcDbCircle
 10
83.21252803678362
 20
257.5499545753668
 30
0.0
 40
0.5
100
AcDbArc
 50
0.0
 51
90.0
  0
ARC
  5
48B
330
18
100
AcDbEntity
  8
1
  6
Continuous
100
AcDbCircle
 10
39.21252803678362
 20
257.5499545753668
 30
0.0
 40
0.5
100
AcDbArc
 50
90.0
 51
180.0
  0
LINE
  5
48C
330
18
100
AcDbEntity
  8
1
  6
Continuous
100
AcDbLine
 10
74.71252803678362
 20
213.0499545753668
 30
0.0
 11
74.71252803678362
 21
285.0499545753669
 31
0.0
  0
LINE
  5
48D
330
18
100
AcDbEntity
  8
1
  6
Continuous
100
AcDbLine
 10
39.21252803678362
 20
258.0499545753669
 30
0.0
 11
44.7125280367836
 21
258.0499545753669
 31
0.0
  0
LINE
  5
48E
330
18
100
AcDbEntity
  8
1
  6
Continuous
100
AcDbLine
 10
83.21252803678362
 20
258.0499545753669
 30
0.0
 11
77.71252803678362
 21
258.0499545753669
 31
0.0
  0
LINE
  5
48F
330
18
100
AcDbEntity
  8
1
  6
Continuous
100
AcDbLine
 10
47.7125280367836
 20
213.0499545753668
 30
0.0
 11
47.7125280367836
 21
285.0499545753669
 31
0.0
  0
LINE
  5
491
330
18
100
AcDbEntity
  8
1
  6
Continuous
100
AcDbLine
 10
38.71252803678361
 20
240.5499545753668
 30
0.0
 11
38.71252803678361
 21
257.5499545753668
 31
0.0
  0
ARC
  5
492
330
18
100
AcDbEntity
  8
1
  6
Continuous
100
AcDbCircle
 10
76.21252803678363
 20
286.5499545753668
 30
0.0
 40
1.5
100
AcDbArc
 50
194.8901530000009
 51
270.0
  0
LINE
  5
493
330
18
100
AcDbEntity
  8
1
  6
Continuous
100
AcDbLine
 10
72.11178903678366
 20
296.1349995753668
 30
0.0
 11
74.76289803678366
 21
286.1645045753668
 31
0.0
  0
ARC
  5
494
330
18
100
AcDbEntity
  8
1
  6
Continuous
100
AcDbCircle
 10
69.21252803678362
 20
295.3640995753668
 30
0.0
 40
3.0
100
AcDbArc
 50
14.89015300000103
 51
80.19980999999964
  0
ARC
  5
495
330
18
100
AcDbEntity
  8
1
  6
Continuous
100
AcDbCircle
 10
61.21252803678363
 20
249.0499545753668
 30
0.0
 40
50.0
100
AcDbArc
 50
80.19980999999964
 51
99.80019000000041
  0
ARC
  5
496
330
18
100
AcDbEntity
  8
1
  6
Continuous
100
AcDbCircle
 10
53.21252803678362
 20
295.3640995753668
 30
0.0
 40
3.0
100
AcDbArc
 50
99.80019000000041
 51
165.1098469999989
  0
LINE
  5
497
330
18
100
AcDbEntity
  8
1
  6
Continuous
100
AcDbLine
 10
50.31326703678359
 20
296.1349995753668
 30
0.0
 11
47.66215803678358
 21
286.1645045753668
 31
0.0
  0
ARC
  5
498
330
18
100
AcDbEntity
  8
1
  6
Continuous
100
AcDbCircle
 10
46.21252803678362
 20
286.5499545753668
 30
0.0
 40
1.5
100
AcDbArc
 50
270.0
 51
345.109846999999
  0
ARC
  5
49B
330
18
100
AcDbEntity
  8
1
  6
Continuous
100
AcDbCircle
 10
76.71252803678362
 20
269.5499545753668
 30
0.0
 40
0.5
100
AcDbArc
 50
180.0
 51
270.0
  0
ARC
  5
49C
330
18
100
AcDbEntity
  8
1
  6
Continuous
100
AcDbCircle
 10
76.71252803678362
 20
268.0499545753668
 30
0.0
 40
1.0
100
AcDbArc
 50
0.0
 51
90.0
  0
ARC
  5
49D
330
18
100
AcDbEntity
  8
1
  6
Continuous
100
AcDbCircle
 10
45.71252803678361
 20
269.5499545753668
 30
0.0
 40
0.5
100
AcDbArc
 50
270.0
 51
0.0
  0
ARC
  5
49E
330
18
100
AcDbEntity
  8
1
  6
Continuous
100
AcDbCircle
 10
45.71252803678361
 20
268.0499545753668
 30
0.0
 40
1.0
100
AcDbArc
 50
90.0
 51
180.0
  0
LINE
  5
49F
330
18
100
AcDbEntity
  8
1
  6
Continuous
100
AcDbLine
 10
76.21252803678363
 20
213.0499545753668
 30
0.0
 11
76.21252803678363
 21
285.0499545753669
 31
0.0
  0
LINE
  5
4A0
330
18
100
AcDbEntity
  8
1
  6
Continuous
100
AcDbLine
 10
46.21252803678362
 20
213.0499545753668
 30
0.0
 11
46.21252803678362
 21
285.0499545753669
 31
0.0
  0
LINE
  5
4A2
330
18
100
AcDbEntity
  8
1
  6
Continuous
100
AcDbLine
 10
44.7125280367836
 20
268.0499545753668
 30
0.0
 11
44.7125280367836
 21
230.0499545753668
 31
0.0
  0
LINE
  5
4A5
330
18
100
AcDbEntity
  8
4
  6
CENTER
 48
0.8
100
AcDbLine
 10
279.5657833263047
 20
478.4210834411206
 30
0.0
 11
279.5657833263047
 21
493.4210834411207
 31
0.0
  0
LINE
  5
4A6
330
18
100
AcDbEntity
  8
4
  6
CENTER
 48
0.8
100
AcDbLine
 10
272.0657833263047
 20
440.9210834411206
 30
0.0
 11
287.0657833263048
 21
440.9210834411206
 31
0.0
  0
LINE
  5
4A7
330
18
100
AcDbEntity
  8
4
  6
CENTER
 48
0.8
100
AcDbLine
 10
277.0657833263047
 20
438.4210834411207
 30
0.0
 11
292.0657833263047
 21
438.4210834411207
 31
0.0
  0
LINE
  5
4A8
330
18
100
AcDbEntity
  8
4
  6
CENTER
 48
0.8
100
AcDbLine
 10
279.5657833263047
 20
448.4210834411206
 30
0.0
 11
279.5657833263047
 21
433.4210834411206
 31
0.0
  0
LINE
  5
4A9
330
18
100
AcDbEntity
  8
4
  6
CENTER
 48
0.8
100
AcDbLine
 10
284.5657833263047
 20
430.9210834411207
 30
0.0
 11
284.5657833263047
 21
445.9210834411207
 31
0.0
  0
LINE
  5
4AA
330
18
100
AcDbEntity
  8
4
  6
CENTER
 48
0.8
100
AcDbLine
 10
194.5657833263048
 20
430.9210834411207
 30
0.0
 11
194.5657833263048
 21
445.9210834411207
 31
0.0
  0
LINE
  5
4AB
330
18
100
AcDbEntity
  8
4
  6
CENTER
 48
0.8
100
AcDbLine
 10
202.0657833263048
 20
438.4210834411207
 30
0.0
 11
187.0657833263048
 21
438.4210834411207
 31
0.0
  0
LINE
  5
4AC
330
18
100
AcDbEntity
  8
4
  6
CENTER
 48
0.8
100
AcDbLine
 10
207.0657833263048
 20
440.9210834411206
 30
0.0
 11
192.0657833263046
 21
440.9210834411206
 31
0.0
  0
LINE
  5
4AD
330
18
100
AcDbEntity
  8
4
  6
CENTER
 48
0.8
100
AcDbLine
 10
199.5657833263047
 20
448.4210834411206
 30
0.0
 11
199.5657833263047
 21
433.4210834411206
 31
0.0
  0
LINE
  5
4AE
330
18
100
AcDbEntity
  8
4
  6
CENTER
 48
0.8
100
AcDbLine
 10
202.0657833263048
 20
488.4210834411207
 30
0.0
 11
187.0657833263048
 21
488.4210834411207
 31
0.0
  0
LINE
  5
4AF
330
18
100
AcDbEntity
  8
4
  6
CENTER
 48
0.8
100
AcDbLine
 10
207.0657833263048
 20
485.9210834411206
 30
0.0
 11
192.0657833263046
 21
485.9210834411206
 31
0.0
  0
LINE
  5
4B0
330
18
100
AcDbEntity
  8
4
  6
CENTER
 48
0.8
100
AcDbLine
 10
199.5657833263047
 20
478.4210834411206
 30
0.0
 11
199.5657833263047
 21
493.4210834411207
 31
0.0
  0
LINE
  5
4B1
330
18
100
AcDbEntity
  8
4
  6
CENTER
 48
0.8
100
AcDbLine
 10
194.5657833263048
 20
495.9210834411207
 30
0.0
 11
194.5657833263048
 21
480.9210834411207
 31
0.0
  0
LINE
  5
4B3
330
18
100
AcDbEntity
  8
2
  6
Continuous
100
AcDbLine
 10
22.71263603678357
 20
253.2379545753668
 30
0.0
 11
26.71256303678365
 21
253.2379545753668
 31
0.0
  0
LINE
  5
4CA
330
18
100
AcDbEntity
  8
1
  6
Continuous
100
AcDbLine
 10
230.5657833263047
 20
435.9211144411205
 30
0.0
 11
248.5657833263047
 21
435.9211144411205
 31
0.0
  0
ARC
  5
4CB
330
18
100
AcDbEntity
  8
1
  6
Continuous
100
AcDbCircle
 10
239.5657833263047
 20
450.8711104411205
 30
0.0
 40
17.450001
100
AcDbArc
 50
238.9517629999999
 51
301.0482639999995
  0
LINE
  5
4CE
330
18
100
AcDbEntity
  8
1
  6
Continuous
100
AcDbLine
 10
230.5657833263047
 20
491.9210524411205
 30
0.0
 11
248.5657833263047
 21
491.9210524411205
 31
0.0
  0
ARC
  5
4CF
330
18
100
AcDbEntity
  8
1
  6
Continuous
100
AcDbCircle
 10
235.3157833263046
 20
488.3898024411198
 30
0.0
 40
9.531250000000687
100
AcDbArc
 50
63.5189601696265
 51
116.4810398303724
  0
LINE
  5
4D1
330
18
100
AcDbEntity
  8
1
  6
Continuous
100
AcDbLine
 10
230.5657833263047
 20
491.9210524411205
 30
0.0
 11
230.5657833263047
 21
489.4210524411206
 31
0.0
  0
LINE
  5
4D2
330
18
100
AcDbEntity
  8
1
  6
Continuous
100
AcDbLine
 10
248.0657833263048
 20
497.9210524411206
 30
0.0
 11
248.0657833263048
 21
491.9210524411205
 31
0.0
  0
LINE
  5
4E0
330
18
100
AcDbEntity
  8
1
  6
Continuous
100
AcDbLine
 10
230.5657833263047
 20
435.9211144411205
 30
0.0
 11
230.5657833263047
 21
437.4211144411206
 31
0.0
  0
LINE
  5
4E6
330
18
100
AcDbEntity
  8
1
  6
Continuous
100
AcDbLine
 10
248.5657833263047
 20
491.9210524411205
 30
0.0
 11
248.5657833263047
 21
489.4210524411206
 31
0.0
  0
LINE
  5
4E9
330
18
100
AcDbEntity
  8
1
  6
Continuous
100
AcDbLine
 10
243.8157833263047
 20
501.9210524411206
 30
0.0
 11
235.3157833263046
 21
501.9210524411206
 31
0.0
  0
LINE
  5
4EA
330
18
100
AcDbEntity
  8
1
  6
Continuous
100
AcDbLine
 10
244.5657833263047
 20
501.1709764411206
 30
0.0
 11
234.5657833263047
 21
501.1709764411206
 31
0.0
  0
LINE
  5
4EB
330
18
100
AcDbEntity
  8
1
  6
Continuous
100
AcDbLine
 10
231.0657833263046
 20
497.9210524411206
 30
0.0
 11
248.0657833263048
 21
497.9210524411206
 31
0.0
  0
LINE
  5
4ED
330
18
100
AcDbEntity
  8
2
  6
Continuous
100
AcDbLine
 10
235.3777833263047
 20
501.9209754411206
 30
0.0
 11
235.3777833263047
 21
497.9210484411206
 31
0.0
  0
LINE
  5
4EE
330
18
100
AcDbEntity
  8
1
  6
Continuous
100
AcDbLine
 10
234.5657833263047
 20
501.1709764411206
 30
0.0
 11
234.5657833263047
 21
497.9210524411206
 31
0.0
  0
LINE
  5
4EF
330
18
100
AcDbEntity
  8
1
  6
Continuous
100
AcDbLine
 10
234.5657833263047
 20
501.1709764411206
 30
0.0
 11
235.3158073263047
 21
501.9210024411206
 31
0.0
  0
LINE
  5
4F1
330
18
100
AcDbEntity
  8
2
  6
Continuous
100
AcDbLine
 10
243.7537833263046
 20
501.9209754411206
 30
0.0
 11
243.7537833263046
 21
497.9210484411206
 31
0.0
  0
LINE
  5
4F2
330
18
100
AcDbEntity
  8
1
  6
Continuous
100
AcDbLine
 10
244.5657833263047
 20
501.1709764411206
 30
0.0
 11
244.5657833263047
 21
497.9210524411206
 31
0.0
  0
LINE
  5
4F3
330
18
100
AcDbEntity
  8
1
  6
Continuous
100
AcDbLine
 10
244.5657833263047
 20
501.1709764411206
 30
0.0
 11
243.8157593263047
 21
501.9210024411206
 31
0.0
  0
LINE
  5
50A
330
18
100
AcDbEntity
  8
1
  6
Continuous
100
AcDbLine
 10
248.5657833263047
 20
435.9211144411205
 30
0.0
 11
248.5657833263047
 21
437.4210834411207
 31
0.0
  0
LINE
  5
58F
330
18
100
AcDbEntity
  8
4
  6
CENTER
 48
0.8
100
AcDbLine
 10
194.5657833263046
 20
324.0499625753668
 30
0.0
 11
194.5657833263048
 21
335.0499625753668
 31
0.0
  0
LINE
  5
590
330
18
100
AcDbEntity
  8
4
  6
CENTER
 48
0.8
100
AcDbLine
 10
284.5657833263047
 20
324.0499625753668
 30
0.0
 11
284.5657833263048
 21
335.0499625753668
 31
0.0
  0
LINE
  5
591
330
18
100
AcDbEntity
  8
4
  6
CENTER
 48
0.8
100
AcDbLine
 10
279.5657833263047
 20
324.0499625753668
 30
0.0
 11
279.5657833263049
 21
335.0499625753668
 31
0.0
  0
LINE
  5
592
330
18
100
AcDbEntity
  8
4
  6
CENTER
 48
0.8
100
AcDbLine
 10
199.5657833263045
 20
324.0499625753668
 30
0.0
 11
199.5657833263048
 21
335.0499625753668
 31
0.0
  0
LINE
  5
593
330
18
100
AcDbEntity
  8
4
  6
CENTER
 48
0.8
100
AcDbLine
 10
36.21252803678351
 20
324.0499545753668
 30
0.0
 11
36.21252803678361
 21
335.0499545753669
 31
0.0
  0
LINE
  5
594
330
18
100
AcDbEntity
  8
4
  6
CENTER
 48
0.8
100
AcDbLine
 10
86.2125280367835
 20
324.0499545753668
 30
0.0
 11
86.21252803678363
 21
335.0499545753669
 31
0.0
  0
LINE
  5
595
330
18
100
AcDbEntity
  8
4
  6
CENTER
 48
0.8
100
AcDbLine
 10
38.71252803678351
 20
324.0499545753668
 30
0.0
 11
38.71252803678361
 21
335.0499545753669
 31
0.0
  0
LINE
  5
596
330
18
100
AcDbEntity
  8
4
  6
CENTER
 48
0.8
100
AcDbLine
 10
83.7125280367835
 20
324.0499545753668
 30
0.0
 11
83.71252803678363
 21
335.0499545753669
 31
0.0
  0
LINE
  5
814
330
18
100
AcDbEntity
  8
4
  6
CENTER
 48
0.8
100
AcDbLine
 10
417.9190386158258
 20
194.0499545753668
 30
0.0
 11
417.9190386158258
 21
336.0499545753668
 31
0.0
  0
LINE
  5
815
330
18
100
AcDbEntity
  8
1
  6
Continuous
100
AcDbLine
 10
440.9190076158258
 20
326.5499545753669
 30
0.0
 11
440.9190076158258
 21
234.0499395753668
 31
0.0
  0
ARC
  5
816
330
18
100
AcDbEntity
  8
1
  6
Continuous
100
AcDbCircle
 10
457.9190076158258
 20
324.1769705753668
 30
0.0
 40
4.0
100
AcDbArc
 50
104.477512
 51
180.0
  0
LINE
  5
817
330
18
100
AcDbEntity
  8
1
  6
Continuous
100
AcDbLine
 10
456.9190076158259
 20
331.0499625753668
 30
0.0
 11
456.9190076158259
 21
323.0499545753668
 31
0.0
  0
LINE
  5
818
330
18
100
AcDbEntity
  8
1
  6
Continuous
100
AcDbLine
 10
453.9190076158256
 20
326.5499545753669
 30
0.0
 11
453.9190076158256
 21
323.0499545753668
 31
0.0
  0
ARC
  5
819
330
18
100
AcDbEntity
  8
1
  6
Continuous
100
AcDbCircle
 10
431.9190386158259
 20
328.0499545753668
 30
0.0
 40
2.0
100
AcDbArc
 50
269.999972
 51
0.0000219999999413
  0
ARC
  5
81A
330
18
100
AcDbEntity
  8
1
  6
Continuous
100
AcDbCircle
 10
403.9190386158256
 20
328.0499545753668
 30
0.0
 40
2.0
100
AcDbArc
 50
180.0
 51
270.0000370000001
  0
LINE
  5
81B
330
18
100
AcDbEntity
  8
1
  6
Continuous
100
AcDbLine
 10
394.9190696158258
 20
326.5499545753669
 30
0.0
 11
394.9190696158258
 21
234.0499395753668
 31
0.0
  0
ARC
  5
81C
330
18
100
AcDbEntity
  8
1
  6
Continuous
100
AcDbCircle
 10
377.9190696158258
 20
324.1769705753668
 30
0.0
 40
4.0
100
AcDbArc
 50
0.0000360000000476
 51
75.52252399999987
  0
LINE
  5
81D
330
18
100
AcDbEntity
  8
1
  6
Continuous
100
AcDbLine
 10
381.9190696158258
 20
326.5499545753669
 30
0.0
 11
381.9190696158258
 21
323.0499545753668
 31
0.0
  0
LINE
  5
81E
330
18
100
AcDbEntity
  8
1
  6
Continuous
100
AcDbLine
 10
378.9190696158259
 20
331.0499625753668
 30
0.0
 11
378.9190696158259
 21
323.0499545753668
 31
0.0
  0
ARC
  5
81F
330
18
100
AcDbEntity
  8
1
  6
Continuous
100
AcDbCircle
 10
423.7044996158259
 20
328.2644895753668
 30
0.0
 40
2.214531
100
AcDbArc
 50
269.999972
 51
354.4406927222488
  0
ARC
  5
820
330
18
100
AcDbEntity
  8
1
  6
Continuous
100
AcDbCircle
 10
412.1335776158257
 20
328.2644895753668
 30
0.0
 40
2.214531
100
AcDbArc
 50
185.559307277751
 51
270.0000370000001
  0
LINE
  5
821
330
18
100
AcDbEntity
  8
4
  6
CENTER
 48
0.8
100
AcDbLine
 10
442.919038615826
 20
324.0499545753668
 30
0.0
 11
442.9190386158258
 21
335.0499545753669
 31
0.0
  0
LINE
  5
822
330
18
100
AcDbEntity
  8
4
  6
CENTER
 48
0.8
100
AcDbLine
 10
392.919038615826
 20
324.0499545753668
 30
0.0
 11
392.9190386158258
 21
335.0499545753669
 31
0.0
  0
LINE
  5
823
330
18
100
AcDbEntity
  8
4
  6
CENTER
 48
0.8
100
AcDbLine
 10
440.419038615826
 20
324.0499545753668
 30
0.0
 11
440.4190386158258
 21
335.0499545753669
 31
0.0
  0
LINE
  5
824
330
18
100
AcDbEntity
  8
4
  6
CENTER
 48
0.8
100
AcDbLine
 10
395.419038615826
 20
324.0499545753668
 30
0.0
 11
395.4190386158258
 21
335.0499545753669
 31
0.0
  0
ARC
  5
828
330
18
100
AcDbEntity
  8
1
  6
Continuous
100
AcDbCircle
 10
448.9085866158259
 20
241.6887405753668
 30
0.0
 40
3.510416999999999
100
AcDbArc
 50
315.6541450000005
 51
44.34585899999965
  0
LINE
  5
829
330
18
100
AcDbEntity
  8
1
  6
Continuous
100
AcDbLine
 10
446.4190076158258
 20
240.0499545753668
 30
0.0
 11
446.4190076158258
 21
258.0499545753669
 31
0.0
  0
LINE
  5
82A
330
18
100
AcDbEntity
  8
1
  6
Continuous
100
AcDbLine
 10
443.9190076158259
 20
256.0499545753669
 30
0.0
 11
443.9190076158259
 21
234.0499395753668
 31
0.0
  0
ARC
  5
82B
330
18
100
AcDbEntity
  8
1
  6
Continuous
100
AcDbCircle
 10
449.9294296158258
 20
241.6887405753668
 30
0.0
 40
3.510416999999999
100
AcDbArc
 50
135.6541430000002
 51
224.3458569999996
  0
ARC
  5
82C
330
18
100
AcDbEntity
  8
1
  6
Continuous
100
AcDbCircle
 10
405.3690656158257
 20
249.0499545753668
 30
0.0
 40
17.450001
100
AcDbArc
 50
148.9517360000004
 51
211.0482370000001
  0
LINE
  5
82D
330
18
100
AcDbEntity
  8
1
  6
Continuous
100
AcDbLine
 10
390.4190696158258
 20
240.0499545753668
 30
0.0
 11
390.4190696158258
 21
258.0499545753669
 31
0.0
  0
LINE
  5
82E
330
18
100
AcDbEntity
  8
1
  6
Continuous
100
AcDbLine
 10
391.9190696158258
 20
256.0499545753669
 30
0.0
 11
391.9190696158258
 21
234.0499395753668
 31
0.0
  0
ARC
  5
82F
330
18
100
AcDbEntity
  8
1
  6
Continuous
100
AcDbCircle
 10
395.9190386158258
 20
240.5499545753668
 30
0.0
 40
0.5
100
AcDbArc
 50
180.0
 51
270.0
  0
ARC
  5
830
330
18
100
AcDbEntity
  8
1
  6
Continuous
100
AcDbCircle
 10
439.9190386158259
 20
240.5499545753668
 30
0.0
 40
0.5
100
AcDbArc
 50
270.0
 51
0.000000000000007
  0
LINE
  5
831
330
18
100
AcDbEntity
  8
1
  6
Continuous
100
AcDbLine
 10
402.9190386158258
 20
213.0499545753668
 30
0.0
 11
402.9190386158258
 21
285.0499545753669
 31
0.0
  0
LINE
  5
832
330
18
100
AcDbEntity
  8
1
  6
Continuous
100
AcDbLine
 10
404.4190386158257
 20
213.0499545753668
 30
0.0
 11
404.4190386158257
 21
285.0499545753669
 31
0.0
  0
LINE
  5
833
330
18
100
AcDbEntity
  8
1
  6
Continuous
100
AcDbLine
 10
431.4190386158258
 20
213.0499545753668
 30
0.0
 11
431.4190386158258
 21
285.0499545753669
 31
0.0
  0
LINE
  5
834
330
18
100
AcDbEntity
  8
1
  6
Continuous
100
AcDbLine
 10
432.9190386158256
 20
213.0499545753668
 30
0.0
 11
432.9190386158256
 21
285.0499545753669
 31
0.0
  0
LINE
  5
835
330
18
100
AcDbEntity
  8
1
  6
Continuous
100
AcDbLine
 10
401.4190386158258
 20
230.0499545753668
 30
0.0
 11
401.4190386158258
 21
268.0499545753668
 31
0.0
  0
LINE
  5
836
330
18
100
AcDbEntity
  8
1
  6
Continuous
100
AcDbLine
 10
434.4190386158258
 20
268.0499545753668
 30
0.0
 11
434.4190386158258
 21
230.0499545753668
 31
0.0
  0
ARC
  5
838
330
18
100
AcDbEntity
  8
1
  6
Continuous
100
AcDbCircle
 10
432.9190386158256
 20
211.5499545753668
 30
0.0
 40
1.5
100
AcDbArc
 50
90.0
 51
165.1098469999989
  0
LINE
  5
83A
330
18
100
AcDbEntity
  8
1
  6
Continuous
100
AcDbLine
 10
451.4190076158258
 20
239.2349975753668
 30
0.0
 11
447.4190076158258
 21
239.2349975753668
 31
0.0
  0
ARC
  5
83B
330
18
100
AcDbEntity
  8
1
  6
Continuous
100
AcDbCircle
 10
433.4190386158257
 20
230.0499545753668
 30
0.0
 40
1.0
100
AcDbArc
 50
270.0
 51
0.000000000000007
  0
ARC
  5
83C
330
18
100
AcDbEntity
  8
1
  6
Continuous
100
AcDbCircle
 10
433.4190386158257
 20
228.5499545753669
 30
0.0
 40
0.5
100
AcDbArc
 50
90.0
 51
180.0
  0
LINE
  5
83D
330
18
100
AcDbEntity
  8
1
  6
Continuous
100
AcDbLine
 10
439.9190386158259
 20
240.0499545753668
 30
0.0
 11
434.4190386158258
 21
240.0499545753668
 31
0.0
  0
LINE
  5
83E
330
18
100
AcDbEntity
  8
1
  6
Continuous
100
AcDbLine
 10
443.9190076158259
 20
234.0499395753668
 30
0.0
 11
440.9190076158258
 21
234.0499395753668
 31
0.0
  0
LINE
  5
83F
330
18
100
AcDbEntity
  8
1
  6
Continuous
100
AcDbLine
 10
446.4190076158258
 20
240.0499545753668
 30
0.0
 11
443.9190076158259
 21
240.0499545753668
 31
0.0
  0
LINE
  5
840
330
18
100
AcDbEntity
  8
1
  6
Continuous
100
AcDbLine
 10
395.9190386158258
 20
240.0499545753668
 30
0.0
 11
401.4190386158258
 21
240.0499545753668
 31
0.0
  0
ARC
  5
841
330
18
100
AcDbEntity
  8
1
  6
Continuous
100
AcDbCircle
 10
417.9190386158258
 20
249.0499545753668
 30
0.0
 40
50.0
100
AcDbArc
 50
260.1998099999995
 51
279.8001900000004
  0
LINE
  5
842
330
18
100
AcDbEntity
  8
1
  6
Continuous
100
AcDbLine
 10
428.8182996158258
 20
201.9649095753668
 30
0.0
 11
431.4694086158256
 21
211.9354045753668
 31
0.0
  0
ARC
  5
843
330
18
100
AcDbEntity
  8
1
  6
Continuous
100
AcDbCircle
 10
425.9190386158257
 20
202.7358095753668
 30
0.0
 40
3.0
100
AcDbArc
 50
279.8001900000004
 51
345.109846999999
  0
LINE
  5
844
330
18
100
AcDbEntity
  8
1
  6
Continuous
100
AcDbLine
 10
407.0197776158257
 20
201.9649095753668
 30
0.0
 11
404.368668615826
 21
211.9354045753668
 31
0.0
  0
ARC
  5
845
330
18
100
AcDbEntity
  8
1
  6
Continuous
100
AcDbCircle
 10
409.9190386158258
 20
202.7358095753668
 30
0.0
 40
3.0
100
AcDbArc
 50
194.8901530000009
 51
260.1998099999995
  0
ARC
  5
846
330
18
100
AcDbEntity
  8
1
  6
Continuous
100
AcDbCircle
 10
402.9190386158258
 20
211.5499545753668
 30
0.0
 40
1.5
100
AcDbArc
 50
14.89015300000103
 51
90.0
  0
ARC
  5
847
330
18
100
AcDbEntity
  8
1
  6
Continuous
100
AcDbCircle
 10
402.4190386158258
 20
230.0499545753668
 30
0.0
 40
1.0
100
AcDbArc
 50
180.0
 51
270.0
  0
ARC
  5
848
330
18
100
AcDbEntity
  8
1
  6
Continuous
100
AcDbCircle
 10
402.4190386158258
 20
228.5499545753669
 30
0.0
 40
0.5
100
AcDbArc
 50
0.000000000000007
 51
90.0
  0
LINE
  5
849
330
18
100
AcDbEntity
  8
1
  6
Continuous
100
AcDbLine
 10
391.9190696158258
 20
234.0499395753668
 30
0.0
 11
394.9190696158258
 21
234.0499395753668
 31
0.0
  0
LINE
  5
84A
330
18
100
AcDbEntity
  8
1
  6
Continuous
100
AcDbLine
 10
390.4190696158258
 20
240.0499545753668
 30
0.0
 11
391.9190696158258
 21
240.0499545753668
 31
0.0
  0
ARC
  5
84B
330
18
100
AcDbEntity
  8
1
  6
Continuous
100
AcDbCircle
 10
432.9190386158256
 20
286.5499545753668
 30
0.0
 40
1.5
100
AcDbArc
 50
194.8901530000009
 51
270.0
  0
LINE
  5
84C
330
18
100
AcDbEntity
  8
4
  6
CENTER
 48
0.8
100
AcDbLine
 10
382.9190646158258
 20
249.0499545753668
 30
0.0
 11
461.4190076158259
 21
249.0499545753668
 31
0.0
  0
ARC
  5
84D
330
18
100
AcDbEntity
  8
1
  6
Continuous
100
AcDbCircle
 10
327.5920886158258
 20
323.0499545753668
 30
0.0
 40
126.32692
100
AcDbArc
 50
338.7216330000008
 51
0.0000219999999413
  0
ARC
  5
84E
330
18
100
AcDbEntity
  8
1
  6
Continuous
100
AcDbCircle
 10
339.1328146158258
 20
323.0499545753668
 30
0.0
 40
117.7861939999999
100
AcDbArc
 50
338.0387239999998
 51
0.0000219999999413
  0
ARC
  5
850
330
18
100
AcDbEntity
  8
1
  6
Continuous
100
AcDbCircle
 10
505.2867146158257
 20
253.8469215753668
 30
0.0
 40
64.36770600000001
100
AcDbArc
 50
158.7216149999997
 51
180.0
  0
ARC
  5
851
330
18
100
AcDbEntity
  8
1
  6
Continuous
100
AcDbCircle
 10
505.2867146158257
 20
256.0499545753669
 30
0.0
 40
61.367702
100
AcDbArc
 50
158.0387029999994
 51
180.0
  0
ARC
  5
852
330
18
100
AcDbEntity
  8
1
  6
Continuous
100
AcDbCircle
 10
449.9294296158258
 20
256.4111685753668
 30
0.0
 40
3.510416999999999
100
AcDbArc
 50
135.6541430000002
 51
224.3458569999996
  0
ARC
  5
853
330
18
100
AcDbEntity
  8
1
  6
Continuous
100
AcDbCircle
 10
458.9606796158259
 20
249.0499545753668
 30
0.0
 40
12.541667
100
AcDbArc
 50
156.964968
 51
203.0350319999997
  0
ARC
  5
854
330
18
100
AcDbEntity
  8
1
  6
Continuous
100
AcDbCircle
 10
439.8773366158258
 20
249.0499545753668
 30
0.0
 40
12.541667
100
AcDbArc
 50
336.9649629999992
 51
23.0350270000008
  0
LINE
  5
855
330
18
100
AcDbEntity
  8
1
  6
Continuous
100
AcDbLine
 10
452.4190076158259
 20
241.6887405753668
 30
0.0
 11
452.4190076158259
 21
256.4111685753668
 31
0.0
  0
LINE
  5
856
330
18
100
AcDbEntity
  8
1
  6
Continuous
100
AcDbLine
 10
455.6689316158258
 20
254.0499545753668
 30
0.0
 11
455.6689316158258
 21
244.0499545753668
 31
0.0
  0
LINE
  5
857
330
18
100
AcDbEntity
  8
1
  6
Continuous
100
AcDbLine
 10
456.4190076158259
 20
253.2999545753668
 30
0.0
 11
456.4190076158259
 21
244.7999545753668
 31
0.0
  0
LINE
  5
858
330
18
100
AcDbEntity
  8
1
  6
Continuous
100
AcDbLine
 10
455.6689316158258
 20
244.0499545753668
 30
0.0
 11
452.4190076158259
 21
244.0499545753668
 31
0.0
  0
LINE
  5
859
330
18
100
AcDbEntity
  8
2
  6
Continuous
100
AcDbLine
 10
456.4189306158259
 20
244.8619545753668
 30
0.0
 11
452.4190036158258
 21
244.8619545753668
 31
0.0
  0
LINE
  5
85A
330
18
100
AcDbEntity
  8
1
  6
Continuous
100
AcDbLine
 10
455.668931615826
 20
244.0499545753668
 30
0.0
 11
456.4189576158258
 21
244.7999785753669
 31
0.0
  0
LINE
  5
85B
330
18
100
AcDbEntity
  8
1
  6
Continuous
100
AcDbLine
 10
451.4190076158258
 20
244.1424765753668
 30
0.0
 11
447.4190076158258
 21
244.1424765753668
 31
0.0
  0
LINE
  5
85C
330
18
100
AcDbEntity
  8
1
  6
Continuous
100
AcDbLine
 10
455.6689316158258
 20
254.0499545753668
 30
0.0
 11
452.4190076158259
 21
254.0499545753668
 31
0.0
  0
LINE
  5
85D
330
18
100
AcDbEntity
  8
2
  6
Continuous
100
AcDbLine
 10
456.4189306158259
 20
253.2379545753668
 30
0.0
 11
452.4190036158258
 21
253.2379545753668
 31
0.0
  0
LINE
  5
85E
330
18
100
AcDbEntity
  8
1
  6
Continuous
100
AcDbLine
 10
455.6689316158258
 20
254.0499545753668
 30
0.0
 11
456.4189576158258
 21
253.2999305753668
 31
0.0
  0
ARC
  5
85F
330
18
100
AcDbEntity
  8
1
  6
Continuous
100
AcDbCircle
 10
448.9085866158259
 20
256.4111685753668
 30
0.0
 40
3.510416999999999
100
AcDbArc
 50
315.6541450000005
 51
44.34585899999965
  0
LINE
  5
860
330
18
100
AcDbEntity
  8
1
  6
Continuous
100
AcDbLine
 10
451.4190076158258
 20
253.9574325753668
 30
0.0
 11
447.4190076158258
 21
253.9574325753668
 31
0.0
  0
LINE
  5
861
330
18
100
AcDbEntity
  8
1
  6
Continuous
100
AcDbLine
 10
451.4190076158258
 20
258.8649115753668
 30
0.0
 11
447.4190076158258
 21
258.8649115753668
 31
0.0
  0
LINE
  5
862
330
18
100
AcDbEntity
  8
1
  6
Continuous
100
AcDbLine
 10
440.4190386158258
 20
240.5499545753668
 30
0.0
 11
440.4190386158258
 21
257.5499545753668
 31
0.0
  0
LINE
  5
863
330
18
100
AcDbEntity
  8
1
  6
Continuous
100
AcDbLine
 10
440.9190076158258
 20
243.0499545753669
 30
0.0
 11
440.4190386158258
 21
243.0499545753669
 31
0.0
  0
LINE
  5
864
330
18
100
AcDbEntity
  8
1
  6
Continuous
100
AcDbLine
 10
439.9190386158259
 20
258.0499545753669
 30
0.0
 11
434.4190386158258
 21
258.0499545753669
 31
0.0
  0
LINE
  5
865
330
18
100
AcDbEntity
  8
1
  6
Continuous
100
AcDbLine
 10
440.9190076158258
 20
255.0499545753669
 30
0.0
 11
440.4190386158258
 21
255.0499545753669
 31
0.0
  0
ARC
  5
866
330
18
100
AcDbEntity
  8
1
  6
Continuous
100
AcDbCircle
 10
439.9190386158259
 20
257.5499545753668
 30
0.0
 40
0.5
100
AcDbArc
 50
0.000000000000007
 51
90.0
  0
LINE
  5
867
330
18
100
AcDbEntity
  8
1
  6
Continuous
100
AcDbLine
 10
446.4190076158258
 20
258.0499545753669
 30
0.0
 11
443.9190076158259
 21
258.0499545753669
 31
0.0
  0
ARC
  5
868
330
18
100
AcDbEntity
  8
1
  6
Continuous
100
AcDbCircle
 10
433.4190386158257
 20
269.5499545753668
 30
0.0
 40
0.5
100
AcDbArc
 50
180.0
 51
270.0
  0
ARC
  5
869
330
18
100
AcDbEntity
  8
1
  6
Continuous
100
AcDbCircle
 10
433.4190386158257
 20
268.0499545753668
 30
0.0
 40
1.0
100
AcDbArc
 50
0.000000000000007
 51
90.0
  0
ARC
  5
86A
330
18
100
AcDbEntity
  8
1
  6
Continuous
100
AcDbCircle
 10
496.7052626158258
 20
323.0499545753668
 30
0.0
 40
117.7861939999999
100
AcDbArc
 50
180.0
 51
201.961298
  0
ARC
  5
86B
330
18
100
AcDbEntity
  8
1
  6
Continuous
100
AcDbCircle
 10
508.2460036158258
 20
323.0499545753668
 30
0.0
 40
126.32692
100
AcDbArc
 50
180.0
 51
201.2783890000004
  0
LINE
  5
86C
330
18
100
AcDbEntity
  8
1
  6
Continuous
100
AcDbLine
 10
395.9190386158258
 20
258.0499545753669
 30
0.0
 11
401.4190386158258
 21
258.0499545753669
 31
0.0
  0
ARC
  5
86D
330
18
100
AcDbEntity
  8
1
  6
Continuous
100
AcDbCircle
 10
402.4190386158258
 20
269.5499545753668
 30
0.0
 40
0.5
100
AcDbArc
 50
270.0
 51
0.000000000000007
  0
ARC
  5
86E
330
18
100
AcDbEntity
  8
1
  6
Continuous
100
AcDbCircle
 10
402.4190386158258
 20
268.0499545753668
 30
0.0
 40
1.0
100
AcDbArc
 50
90.0
 51
180.0
  0
ARC
  5
86F
330
18
100
AcDbEntity
  8
1
  6
Continuous
100
AcDbCircle
 10
330.5513626158258
 20
253.8469215753668
 30
0.0
 40
64.36770600000001
100
AcDbArc
 50
0.0000360000000476
 51
21.27842499999978
  0
ARC
  5
870
330
18
100
AcDbEntity
  8
1
  6
Continuous
100
AcDbCircle
 10
330.5513626158258
 20
256.0499545753669
 30
0.0
 40
61.367702
100
AcDbArc
 50
0.0000360000000476
 51
21.96133400000082
  0
LINE
  5
871
330
18
100
AcDbEntity
  8
1
  6
Continuous
100
AcDbLine
 10
395.4190386158258
 20
257.5499545753668
 30
0.0
 11
395.4190386158258
 21
240.5499545753668
 31
0.0
  0
LINE
  5
872
330
18
100
AcDbEntity
  8
1
  6
Continuous
100
AcDbLine
 10
395.4190386158258
 20
243.0499545753669
 30
0.0
 11
394.9190696158258
 21
243.0499545753669
 31
0.0
  0
LINE
  5
873
330
18
100
AcDbEntity
  8
1
  6
Continuous
100
AcDbLine
 10
395.4190386158258
 20
255.0499545753669
 30
0.0
 11
394.9190696158258
 21
255.0499545753669
 31
0.0
  0
ARC
  5
874
330
18
100
AcDbEntity
  8
1
  6
Continuous
100
AcDbCircle
 10
395.9190386158258
 20
257.5499545753668
 30
0.0
 40
0.5
100
AcDbArc
 50
90.0
 51
180.0
  0
LINE
  5
875
330
18
100
AcDbEntity
  8
1
  6
Continuous
100
AcDbLine
 10
390.4190696158258
 20
258.0499545753669
 30
0.0
 11
391.8864606158256
 21
258.0499545753669
 31
0.0
  0
ARC
  5
876
330
18
100
AcDbEntity
  8
1
  6
Continuous
100
AcDbCircle
 10
417.9190386158258
 20
249.0499545753668
 30
0.0
 40
50.0
100
AcDbArc
 50
80.19980999999964
 51
99.80019000000041
  0
LINE
  5
877
330
18
100
AcDbEntity
  8
1
  6
Continuous
100
AcDbLine
 10
428.8182996158258
 20
296.1349995753668
 30
0.0
 11
431.4694086158259
 21
286.1645045753668
 31
0.0
  0
ARC
  5
878
330
18
100
AcDbEntity
  8
1
  6
Continuous
100
AcDbCircle
 10
425.9190386158257
 20
295.3640995753668
 30
0.0
 40
3.0
100
AcDbArc
 50
14.89015300000103
 51
80.19980999999964
  0
LINE
  5
879
330
18
100
AcDbEntity
  8
1
  6
Continuous
100
AcDbLine
 10
407.0197776158257
 20
296.1349995753668
 30
0.0
 11
404.3686686158258
 21
286.1645045753668
 31
0.0
  0
ARC
  5
87A
330
18
100
AcDbEntity
  8
1
  6
Continuous
100
AcDbCircle
 10
402.9190386158258
 20
286.5499545753668
 30
0.0
 40
1.5
100
AcDbArc
 50
270.0
 51
345.109846999999
  0
ARC
  5
87B
330
18
100
AcDbEntity
  8
1
  6
Continuous
100
AcDbCircle
 10
409.9190386158258
 20
295.3640995753668
 30
0.0
 40
3.0
100
AcDbArc
 50
99.80019000000041
 51
165.1098469999989
  0
LINE
  5
87C
330
18
100
AcDbEntity
  8
1
  6
Continuous
100
AcDbLine
 10
456.9190076158259
 20
328.0499545753668
 30
0.0
 11
378.9190696158259
 21
328.0499545753668
 31
0.0
  0
LINE
  5
87D
330
18
100
AcDbEntity
  8
1
  6
Continuous
100
AcDbLine
 10
456.9190076158259
 20
331.0499545753669
 30
0.0
 11
378.9190696158259
 21
331.0499545753669
 31
0.0
  0
LINE
  5
87E
330
18
100
AcDbEntity
  8
1
  6
Continuous
100
AcDbLine
 10
431.9190386158259
 20
326.0499545753668
 30
0.0
 11
403.9190386158256
 21
326.0499545753668
 31
0.0
  0
ARC
  5
882
330
18
100
AcDbEntity
  8
1
  6
Continuous
100
AcDbCircle
 10
452.4190076158259
 20
326.5499545753669
 30
0.0
 40
1.5
100
AcDbArc
 50
0.0000360000000476
 51
90.00001800000005
  0
ARC
  5
883
330
18
100
AcDbEntity
  8
1
  6
Continuous
100
AcDbCircle
 10
439.4190076158259
 20
326.5499545753669
 30
0.0
 40
1.5
100
AcDbArc
 50
0.0000360000000476
 51
90.00001800000005
  0
ARC
  5
884
330
18
100
AcDbEntity
  8
1
  6
Continuous
100
AcDbCircle
 10
396.4190696158258
 20
326.5499545753669
 30
0.0
 40
1.5
100
AcDbArc
 50
90.00001800000005
 51
180.0
  0
ARC
  5
885
330
18
100
AcDbEntity
  8
1
  6
Continuous
100
AcDbCircle
 10
383.4190696158259
 20
326.5499545753669
 30
0.0
 40
1.5
100
AcDbArc
 50
90.00001800000005
 51
180.0
  0
ARC
  5
94D
330
18
100
AcDbEntity
  8
1
  6
Continuous
100
AcDbCircle
 10
596.2722939053469
 20
249.0499545753668
 30
0.0
 40
36.0
100
AcDbArc
 50
132.2501379769466
 51
47.74986578272713
  0
ARC
  5
94E
330
18
100
AcDbEntity
  8
1
  6
Continuous
100
AcDbCircle
 10
603.4875179053471
 20
226.1602065753669
 30
0.0
 40
3.0
100
AcDbArc
 50
66.5157140000007
 51
107.4957069999995
  0
ARC
  5
94F
330
18
100
AcDbEntity
  8
1
  6
Continuous
100
AcDbCircle
 10
593.5067199053471
 20
240.4804755753668
 30
0.0
 40
22.0
100
AcDbArc
 50
293.2710900000007
 51
302.1643759999999
  0
ARC
  5
950
330
18
100
AcDbEntity
  8
1
  6
Continuous
100
AcDbCircle
 10
596.2722939053469
 20
249.0499545753668
 30
0.0
 40
16.0
100
AcDbArc
 50
217.9216507842909
 51
322.078349215709
  0
ARC
  5
951
330
18
100
AcDbEntity
  8
1
  6
Continuous
100
AcDbCircle
 10
596.2722939053469
 20
249.0499545753668
 30
0.0
 40
17.0
100
AcDbArc
 50
194.7677759465292
 51
345.2322240534706
  0
ARC
  5
954
330
18
100
AcDbEntity
  8
1
  6
Continuous
100
AcDbCircle
 10
596.2722939053469
 20
249.0499545753668
 30
0.0
 40
50.0
100
AcDbArc
 50
123.7724627120922
 51
56.22753964279198
  0
ARC
  5
956
330
18
100
AcDbEntity
  8
1
  6
Continuous
100
AcDbCircle
 10
596.2722939053469
 20
252.0499545753668
 30
0.0
 40
18.0
100
AcDbArc
 50
269.9999819999999
 51
346.4680070000002
  0
LINE
  5
957
330
18
100
AcDbEntity
  8
1
  6
Continuous
100
AcDbLine
 10
651.2722629053471
 20
331.0499625753668
 30
0.0
 11
541.272323905347
 21
331.0499625753668
 31
0.0
  0
LINE
  5
958
330
18
100
AcDbEntity
  8
4
  6
CENTER
 48
0.8
100
AcDbLine
 10
541.2722939053471
 20
249.0499545753668
 30
0.0
 11
651.2722939053469
 21
249.0499545753668
 31
0.0
  0
LINE
  5
959
330
18
100
AcDbEntity
  8
4
  6
CENTER
 48
0.8
100
AcDbLine
 10
636.2722939053472
 20
324.0499625753668
 30
0.0
 11
636.2722939053469
 21
335.0499625753668
 31
0.0
  0
LINE
  5
95A
330
18
100
AcDbEntity
  8
4
  6
CENTER
 48
0.8
100
AcDbLine
 10
641.2722939053471
 20
324.0499625753668
 30
0.0
 11
641.2722939053469
 21
335.0499625753668
 31
0.0
  0
ARC
  5
95B
330
18
100
AcDbEntity
  8
1
  6
Continuous
100
AcDbCircle
 10
635.7722939053469
 20
326.0499625753668
 30
0.0
 40
3.0
100
AcDbArc
 50
299.2775509999999
 51
0.0000219999999413
  0
LINE
  5
95C
330
18
100
AcDbEntity
  8
1
  6
Continuous
100
AcDbLine
 10
615.2722939053469
 20
327.6832935753668
 30
0.0
 11
615.2722939053469
 21
258.7499665753668
 31
0.0
  0
ARC
  5
95D
330
18
100
AcDbEntity
  8
1
  6
Continuous
100
AcDbCircle
 10
596.2722939053469
 20
249.0499545753668
 30
0.0
 40
21.0
100
AcDbArc
 50
312.504293
 51
347.4957070000008
  0
ARC
  5
95E
330
18
100
AcDbEntity
  8
1
  6
Continuous
100
AcDbCircle
 10
602.310893905347
 20
242.3701575753669
 30
0.0
 40
22.0
100
AcDbArc
 50
353.2710899999994
 51
2.164375999999109
  0
ARC
  5
95F
330
18
100
AcDbEntity
  8
1
  6
Continuous
100
AcDbCircle
 10
605.0764679053469
 20
247.1602725753669
 30
0.0
 40
22.0
100
AcDbArc
 50
297.835624
 51
306.7289099999996
  0
ARC
  5
960
330
18
100
AcDbEntity
  8
1
  6
Continuous
100
AcDbCircle
 10
609.2626749053471
 20
241.5499545753668
 30
0.0
 40
15.0
100
AcDbArc
 50
306.7289099999996
 51
353.2710899999994
  0
ARC
  5
961
330
18
100
AcDbEntity
  8
1
  6
Continuous
100
AcDbCircle
 10
613.4813259053471
 20
231.2430375753669
 30
0.0
 40
4.0
100
AcDbArc
 50
173.4842860000012
 51
297.835624
  0
ARC
  5
962
330
18
100
AcDbEntity
  8
1
  6
Continuous
100
AcDbCircle
 10
603.0890209053469
 20
225.2430375753669
 30
0.0
 40
4.0
100
AcDbArc
 50
302.1643759999999
 51
66.5157140000007
  0
ARC
  5
963
330
18
100
AcDbEntity
  8
1
  6
Continuous
100
AcDbCircle
 10
612.4877849053468
 20
231.3565135753668
 30
0.0
 40
3.0
100
AcDbArc
 50
132.5042929999999
 51
173.4842860000012
  0
ARC
  5
964
330
18
100
AcDbEntity
  8
1
  6
Continuous
100
AcDbCircle
 10
896.420051905347
 20
224.3975725753668
 30
0.0
 40
281.3645629999999
100
AcDbArc
 50
161.2999800000002
 51
171.4868099999997
  0
LINE
  5
965
330
18
100
AcDbEntity
  8
1
  6
Continuous
100
AcDbLine
 10
613.7726019053469
 20
247.8381635753668
 30
0.0
 11
629.5082279053469
 21
313.2208165753668
 31
0.0
  0
ARC
  5
966
330
18
100
AcDbEntity
  8
1
  6
Continuous
100
AcDbCircle
 10
609.2626749053471
 20
256.5499545753668
 30
0.0
 40
15.0
100
AcDbArc
 50
6.728910000000544
 51
51.11381196166174
  0
ARC
  5
967
330
18
100
AcDbEntity
  8
1
  6
Continuous
100
AcDbCircle
 10
620.2980519053469
 20
255.0499545753668
 30
0.0
 40
4.0
100
AcDbArc
 50
233.4842859999987
 51
357.8356240000009
  0
ARC
  5
968
330
18
100
AcDbEntity
  8
1
  6
Continuous
100
AcDbCircle
 10
620.2980519053469
 20
243.0499545753668
 30
0.0
 40
4.0
100
AcDbArc
 50
2.164375999999109
 51
126.5157140000013
  0
ARC
  5
969
330
18
100
AcDbEntity
  8
1
  6
Continuous
100
AcDbCircle
 10
602.310893905347
 20
255.7297515753668
 30
0.0
 40
22.0
100
AcDbArc
 50
357.8356240000009
 51
6.728910000000544
  0
ARC
  5
96A
330
18
100
AcDbEntity
  8
1
  6
Continuous
100
AcDbCircle
 10
619.7030089053471
 20
243.8536485753668
 30
0.0
 40
3.0
100
AcDbArc
 50
126.5157140000013
 51
167.4957070000008
  0
ARC
  5
96B
330
18
100
AcDbEntity
  8
1
  6
Continuous
100
AcDbCircle
 10
596.2722939053469
 20
249.0499545753668
 30
0.0
 40
21.0
100
AcDbArc
 50
12.5042929999992
 51
21.00947382418253
  0
ARC
  5
96C
330
18
100
AcDbEntity
  8
1
  6
Continuous
100
AcDbCircle
 10
619.7030089053471
 20
254.2462605753669
 30
0.0
 40
3.0
100
AcDbArc
 50
192.5042929999992
 51
233.4842859999987
  0
ARC
  5
96D
330
18
100
AcDbEntity
  8
1
  6
Continuous
100
AcDbCircle
 10
645.0640589053469
 20
309.4769985753668
 30
0.0
 40
16.0
100
AcDbArc
 50
119.2775209999999
 51
166.4679920000004
  0
LINE
  5
96E
330
18
100
AcDbEntity
  8
1
  6
Continuous
100
AcDbLine
 10
651.2722629053471
 20
328.0499625753668
 30
0.0
 11
638.7722939053469
 21
328.0499625753668
 31
0.0
  0
LINE
  5
96F
330
18
100
AcDbEntity
  8
1
  6
Continuous
100
AcDbLine
 10
651.2722629053471
 20
331.0499815753668
 30
0.0
 11
651.2722629053471
 21
328.0499625753668
 31
0.0
  0
ARC
  5
970
330
18
100
AcDbEntity
  8
1
  6
Continuous
100
AcDbCircle
 10
641.7722939053469
 20
328.0499625753668
 30
0.0
 40
3.0
100
AcDbArc
 50
90.00001800000005
 51
180.0
  0
LINE
  5
971
330
18
100
AcDbEntity
  8
1
  6
Continuous
100
AcDbLine
 10
638.7722939053469
 20
328.0499625753668
 30
0.0
 11
638.7722939053469
 21
326.0499625753668
 31
0.0
  0
LINE
  5
974
330
18
100
AcDbEntity
  8
4
  6
CENTER
 48
0.8
100
AcDbLine
 10
556.2722939053471
 20
324.0499625753668
 30
0.0
 11
556.2722939053469
 21
335.0499625753668
 31
0.0
  0
LINE
  5
975
330
18
100
AcDbEntity
  8
4
  6
CENTER
 48
0.8
100
AcDbLine
 10
551.2722939053471
 20
324.0499625753668
 30
0.0
 11
551.2722939053469
 21
335.0499625753668
 31
0.0
  0
ARC
  5
976
330
18
100
AcDbEntity
  8
1
  6
Continuous
100
AcDbCircle
 10
556.7722939053472
 20
326.0499625753668
 30
0.0
 40
3.0
100
AcDbArc
 50
179.9999859999998
 51
240.7224579999999
  0
LINE
  5
977
330
18
100
AcDbEntity
  8
1
  6
Continuous
100
AcDbLine
 10
577.2722939053472
 20
327.6832935753668
 30
0.0
 11
577.2722939053472
 21
258.7499665753668
 31
0.0
  0
LINE
  5
978
330
18
100
AcDbEntity
  8
4
  6
CENTER
 48
0.8
100
AcDbLine
 10
596.2722939053469
 20
336.0499625753668
 30
0.0
 11
596.2722939053469
 21
194.0499545753668
 31
0.0
  0
ARC
  5
979
330
18
100
AcDbEntity
  8
1
  6
Continuous
100
AcDbCircle
 10
596.2722939053469
 20
249.0499545753668
 30
0.0
 40
21.0
100
AcDbArc
 50
192.5042929999992
 51
227.4957069999999
  0
ARC
  5
97A
330
18
100
AcDbEntity
  8
1
  6
Continuous
100
AcDbCircle
 10
590.2336949053469
 20
242.3701575753669
 30
0.0
 40
22.0
100
AcDbArc
 50
177.8356240000007
 51
186.7289100000005
  0
ARC
  5
97B
330
18
100
AcDbEntity
  8
1
  6
Continuous
100
AcDbCircle
 10
596.2722939053469
 20
252.0499545753668
 30
0.0
 40
18.0
100
AcDbArc
 50
193.5320119999992
 51
270.0000370000001
  0
ARC
  5
97C
330
18
100
AcDbEntity
  8
1
  6
Continuous
100
AcDbCircle
 10
583.2819129053468
 20
241.5499545753668
 30
0.0
 40
15.0
100
AcDbArc
 50
186.7289100000005
 51
233.2710900000002
  0
ARC
  5
97D
330
18
100
AcDbEntity
  8
1
  6
Continuous
100
AcDbCircle
 10
596.2722939053469
 20
234.0499545753668
 30
0.0
 40
15.0
100
AcDbArc
 50
246.7289099999991
 51
293.2710900000007
  0
ARC
  5
97E
330
18
100
AcDbEntity
  8
1
  6
Continuous
100
AcDbCircle
 10
589.455566905347
 20
225.2430375753669
 30
0.0
 40
4.0
100
AcDbArc
 50
113.4842859999993
 51
237.835624
  0
ARC
  5
97F
330
18
100
AcDbEntity
  8
1
  6
Continuous
100
AcDbCircle
 10
596.2722939053469
 20
249.0499545753668
 30
0.0
 40
21.0
100
AcDbArc
 50
252.5042930000004
 51
287.4957069999997
  0
ARC
  5
980
330
18
100
AcDbEntity
  8
1
  6
Continuous
100
AcDbCircle
 10
599.037867905347
 20
240.4804755753668
 30
0.0
 40
22.0
100
AcDbArc
 50
237.835624
 51
246.7289099999991
  0
ARC
  5
981
330
18
100
AcDbEntity
  8
1
  6
Continuous
100
AcDbCircle
 10
589.0570699053471
 20
226.1602065753669
 30
0.0
 40
3.0
100
AcDbArc
 50
72.50429300000042
 51
113.4842859999993
  0
ARC
  5
982
330
18
100
AcDbEntity
  8
1
  6
Continuous
100
AcDbCircle
 10
579.0632629053471
 20
231.2430375753669
 30
0.0
 40
4.0
100
AcDbArc
 50
242.1643760000001
 51
6.515713999998633
  0
ARC
  5
983
330
18
100
AcDbEntity
  8
1
  6
Continuous
100
AcDbCircle
 10
587.4681199053469
 20
247.1602725753669
 30
0.0
 40
22.0
100
AcDbArc
 50
233.2710900000002
 51
242.1643760000001
  0
ARC
  5
984
330
18
100
AcDbEntity
  8
1
  6
Continuous
100
AcDbCircle
 10
580.056802905347
 20
231.3565135753668
 30
0.0
 40
3.0
100
AcDbArc
 50
6.515713999998633
 51
47.49570699999997
  0
ARC
  5
985
330
18
100
AcDbEntity
  8
1
  6
Continuous
100
AcDbCircle
 10
296.1245199053468
 20
224.3975725753668
 30
0.0
 40
281.3645629999999
100
AcDbArc
 50
8.513225000000371
 51
18.70005599999934
  0
LINE
  5
986
330
18
100
AcDbEntity
  8
1
  6
Continuous
100
AcDbLine
 10
578.771985905347
 20
247.8381535753669
 30
0.0
 11
563.0363579053471
 21
313.2208175753668
 31
0.0
  0
ARC
  5
987
330
18
100
AcDbEntity
  8
1
  6
Continuous
100
AcDbCircle
 10
572.2465359053471
 20
243.0499545753668
 30
0.0
 40
4.0
100
AcDbArc
 50
53.48428599999868
 51
177.8356240000007
  0
ARC
  5
988
330
18
100
AcDbEntity
  8
1
  6
Continuous
100
AcDbCircle
 10
572.2465359053471
 20
255.0499545753668
 30
0.0
 40
4.0
100
AcDbArc
 50
182.1643759999991
 51
306.5157140000013
  0
ARC
  5
989
330
18
100
AcDbEntity
  8
1
  6
Continuous
100
AcDbCircle
 10
583.2819129053468
 20
256.5499545753668
 30
0.0
 40
15.0
100
AcDbArc
 50
128.8861970991435
 51
173.2710899999993
  0
ARC
  5
98A
330
18
100
AcDbEntity
  8
1
  6
Continuous
100
AcDbCircle
 10
572.8415789053468
 20
243.8536485753668
 30
0.0
 40
3.0
100
AcDbArc
 50
12.5042929999992
 51
53.48428599999868
  0
ARC
  5
98B
330
18
100
AcDbEntity
  8
1
  6
Continuous
100
AcDbCircle
 10
596.2722939053469
 20
249.0499545753668
 30
0.0
 40
21.0
100
AcDbArc
 50
158.9905370302709
 51
167.4957070000008
  0
ARC
  5
98C
330
18
100
AcDbEntity
  8
1
  6
Continuous
100
AcDbCircle
 10
572.8415789053468
 20
254.2462605753669
 30
0.0
 40
3.0
100
AcDbArc
 50
306.5157140000013
 51
347.4957070000008
  0
ARC
  5
98D
330
18
100
AcDbEntity
  8
1
  6
Continuous
100
AcDbCircle
 10
590.2336949053469
 20
255.7297515753668
 30
0.0
 40
22.0
100
AcDbArc
 50
173.2710899999993
 51
182.1643759999991
  0
ARC
  5
98E
330
18
100
AcDbEntity
  8
1
  6
Continuous
100
AcDbCircle
 10
547.4805309053471
 20
309.4769985753668
 30
0.0
 40
16.0
100
AcDbArc
 50
13.53204799999988
 51
60.72252100000024
  0
LINE
  5
98F
330
18
100
AcDbEntity
  8
1
  6
Continuous
100
AcDbLine
 10
541.272323905347
 20
328.0499625753668
 30
0.0
 11
553.7722939053471
 21
328.0499625753668
 31
0.0
  0
LINE
  5
990
330
18
100
AcDbEntity
  8
1
  6
Continuous
100
AcDbLine
 10
553.7722939053471
 20
328.0499625753668
 30
0.0
 11
553.7722939053471
 21
326.0499625753668
 31
0.0
  0
ARC
  5
991
330
18
100
AcDbEntity
  8
1
  6
Continuous
100
AcDbCircle
 10
550.7722939053471
 20
328.0499625753668
 30
0.0
 40
3.0
100
AcDbArc
 50
0.0000360000000476
 51
90.00001800000005
  0
LINE
  5
992
330
18
100
AcDbEntity
  8
1
  6
Continuous
100
AcDbLine
 10
541.272323905347
 20
331.0499815753668
 30
0.0
 11
541.272323905347
 21
328.0499625753668
 31
0.0
  0
LINE
  5
A14
330
18
100
AcDbEntity
  8
1
  6
Continuous
100
AcDbLine
 10
604.772296004399
 20
244.1424760753668
 30
0.0
 11
596.2722939053471
 21
239.2349975753668
 31
0.0
  0
LINE
  5
A16
330
18
100
AcDbEntity
  8
1
  6
Continuous
100
AcDbLine
 10
604.7722960043991
 20
253.9574330753669
 30
0.0
 11
604.7722960043991
 21
244.1424760753668
 31
0.0
  0
LINE
  5
A17
330
18
100
AcDbEntity
  8
1
  6
Continuous
100
AcDbLine
 10
596.2722939053471
 20
258.8649115753668
 30
0.0
 11
604.772296004399
 21
253.9574330753669
 31
0.0
  0
LINE
  5
A18
330
18
100
AcDbEntity
  8
1
  6
Continuous
100
AcDbLine
 10
587.7722918062951
 20
253.9574330753669
 30
0.0
 11
596.2722939053469
 21
258.8649115753669
 31
0.0
  0
LINE
  5
A19
330
18
100
AcDbEntity
  8
1
  6
Continuous
100
AcDbLine
 10
587.772291806295
 20
244.1424760753668
 30
0.0
 11
587.772291806295
 21
253.9574330753669
 31
0.0
  0
LINE
  5
A1A
330
18
100
AcDbEntity
  8
1
  6
Continuous
100
AcDbLine
 10
596.2722939053469
 20
239.2349975753668
 30
0.0
 11
587.7722918062951
 21
244.1424760753666
 31
0.0
  0
CIRCLE
  5
A1B
330
18
100
AcDbEntity
  8
1
  6
Continuous
100
AcDbCircle
 10
596.2722939053471
 20
249.0499545753668
 30
0.0
 40
5.0
  0
ARC
  5
A1D
330
18
100
AcDbEntity
  8
1
  6
Continuous
100
AcDbCircle
 10
596.2722939053471
 20
249.0499545753668
 30
0.0
 40
9.0
100
AcDbArc
 50
340.8119042039251
 51
19.18809579607486
  0
ARC
  5
A1E
330
18
100
AcDbEntity
  8
1
  6
Continuous
100
AcDbCircle
 10
596.2722939053471
 20
249.0499545753668
 30
0.0
 40
9.0
100
AcDbArc
 50
40.81190420392456
 51
79.18809579607597
  0
ARC
  5
A1F
330
18
100
AcDbEntity
  8
1
  6
Continuous
100
AcDbCircle
 10
596.2722939053471
 20
249.0499545753668
 30
0.0
 40
9.0
100
AcDbArc
 50
100.8119042039284
 51
139.1880957960722
  0
ARC
  5
A20
330
18
100
AcDbEntity
  8
1
  6
Continuous
100
AcDbCircle
 10
596.2722939053471
 20
249.0499545753668
 30
0.0
 40
9.0
100
AcDbArc
 50
160.8119042039288
 51
199.188095796071
  0
ARC
  5
A21
330
18
100
AcDbEntity
  8
1
  6
Continuous
100
AcDbCircle
 10
596.2722939053471
 20
249.0499545753668
 30
0.0
 40
9.0
100
AcDbArc
 50
220.8119042039287
 51
259.1880957960723
  0
ARC
  5
A22
330
18
100
AcDbEntity
  8
1
  6
Continuous
100
AcDbCircle
 10
596.2722939053471
 20
249.0499545753668
 30
0.0
 40
9.0
100
AcDbArc
 50
280.8119042039255
 51
319.1880957960751
  0
CIRCLE
  5
A23
330
18
100
AcDbEntity
  8
2
  6
Continuous
100
AcDbCircle
 10
596.2722939053469
 20
249.0499545753668
 30
0.0
 40
4.187999999999957
  0
LINE
  5
A49
330
18
100
AcDbEntity
  8
1
  6
Continuous
100
AcDbLine
 10
231.0657833263046
 20
497.9210524411206
 30
0.0
 11
231.0657833263046
 21
491.9210524411205
 31
0.0
  0
LINE
  5
A4A
330
18
100
AcDbEntity
  8
1
  6
Continuous
100
AcDbLine
 10
239.5657833263048
 20
496.9210524411206
 30
0.0
 11
239.5657833263048
 21
492.9210524411206
 31
0.0
  0
ARC
  5
A4B
330
18
100
AcDbEntity
  8
1
  6
Continuous
100
AcDbCircle
 10
235.3157833263046
 20
501.4523024411213
 30
0.0
 40
9.531250000000687
100
AcDbArc
 50
243.5189601696275
 51
296.4810398303735
  0
ARC
  5
A4C
330
18
100
AcDbEntity
  8
1
  6
Continuous
100
AcDbCircle
 10
243.8157833263048
 20
501.4523024411213
 30
0.0
 40
9.531250000000687
100
AcDbArc
 50
243.5189601696265
 51
296.4810398303723
  0
ARC
  5
A4D
330
18
100
AcDbEntity
  8
1
  6
Continuous
100
AcDbCircle
 10
243.8157833263048
 20
488.3898024411198
 30
0.0
 40
9.531250000000687
100
AcDbArc
 50
63.5189601696276
 51
116.4810398303735
  0
LINE
  5
A5C
330
18
100
AcDbEntity
  8
1
  6
Continuous
100
AcDbLine
 10
231.0657833263046
 20
42.17885670961311
 30
0.0
 11
248.0657833263048
 21
42.17885670961311
 31
0.0
  0
ARC
  5
A5D
330
18
100
AcDbEntity
  8
1
  6
Continuous
100
AcDbCircle
 10
235.3157833263046
 20
38.64760670961243
 30
0.0
 40
9.531250000000687
100
AcDbArc
 50
63.5189601696265
 51
116.4810398303724
  0
ARC
  5
A5E
330
18
100
AcDbEntity
  8
1
  6
Continuous
100
AcDbCircle
 10
235.3157833263046
 20
51.71010670961379
 30
0.0
 40
9.531250000000687
100
AcDbArc
 50
243.5189601696275
 51
296.4810398303735
  0
LINE
  5
A5F
330
18
100
AcDbEntity
  8
1
  6
Continuous
100
AcDbLine
 10
230.5657833263047
 20
48.17885670961311
 30
0.0
 11
248.5657833263047
 21
48.17885670961311
 31
0.0
  0
ARC
  5
A60
330
18
100
AcDbEntity
  8
1
  6
Continuous
100
AcDbCircle
 10
239.5657833263047
 20
89.22879870961306
 30
0.0
 40
17.450001
100
AcDbArc
 50
58.95173600000052
 51
121.048237
  0
LINE
  5
A61
330
18
100
AcDbEntity
  8
1
  6
Continuous
100
AcDbLine
 10
230.5657833263047
 20
104.1787947096129
 30
0.0
 11
248.5657833263047
 21
104.1787947096129
 31
0.0
  0
LINE
  5
A66
330
18
100
AcDbEntity
  8
1
  6
Continuous
100
AcDbLine
 10
225.5657833263047
 20
50.67882570961303
 30
0.0
 11
253.5657833263047
 21
50.67882570961303
 31
0.0
  0
LINE
  5
A67
330
18
100
AcDbEntity
  8
1
  6
Continuous
100
AcDbLine
 10
225.5657833263047
 20
102.6788257096129
 30
0.0
 11
253.5657833263047
 21
102.6788257096129
 31
0.0
  0
LINE
  5
A69
330
18
100
AcDbEntity
  8
4
  6
CENTER
 48
0.8
100
AcDbLine
 10
299.5657833263047
 20
76.67882570961302
 30
0.0
 11
179.5657833263045
 21
76.67882570961302
 31
0.0
  0
LINE
  5
A6A
330
18
100
AcDbEntity
  8
1
  6
Continuous
100
AcDbLine
 10
231.0657833263046
 20
42.17885670961311
 30
0.0
 11
231.0657833263046
 21
48.17885670961311
 31
0.0
  0
ARC
  5
A6C
330
18
100
AcDbEntity
  8
1
  6
Continuous
100
AcDbCircle
 10
192.5657833263047
 20
45.67882570961303
 30
0.0
 40
8.0
100
AcDbArc
 50
179.9999809999993
 51
270.0000179999999
  0
ARC
  5
A6D
330
18
100
AcDbEntity
  8
1
  6
Continuous
100
AcDbCircle
 10
200.8473693263047
 20
51.67882570961303
 30
0.0
 40
14.0
100
AcDbArc
 50
270.0000179999999
 51
325.4818909999995
  0
LINE
  5
A70
330
18
100
AcDbEntity
  8
1
  6
Continuous
100
AcDbLine
 10
184.5657833263047
 20
107.678825709613
 30
0.0
 11
184.5657833263047
 21
45.67882570961303
 31
0.0
  0
ARC
  5
A71
330
18
100
AcDbEntity
  8
1
  6
Continuous
100
AcDbCircle
 10
199.5657833263047
 20
99.17882570961305
 30
0.0
 40
5.5
100
AcDbArc
 50
243.4349259999998
 51
63.43495200000006
  0
ARC
  5
A72
330
18
100
AcDbEntity
  8
1
  6
Continuous
100
AcDbCircle
 10
200.8473693263047
 20
101.6788257096129
 30
0.0
 40
14.0
100
AcDbArc
 50
34.51810900000048
 51
89.99998199999998
  0
LINE
  5
A73
330
18
100
AcDbEntity
  8
4
  6
CENTER
 48
0.8
100
AcDbLine
 10
207.0657833263048
 20
99.17882570961305
 30
0.0
 11
192.0657833263046
 21
99.17882570961305
 31
0.0
  0
ARC
  5
A74
330
18
100
AcDbEntity
  8
1
  6
Continuous
100
AcDbCircle
 10
194.5657833263047
 20
101.6788257096129
 30
0.0
 40
5.5
100
AcDbArc
 50
63.43496200000011
 51
243.4349259999998
  0
LINE
  5
A75
330
18
100
AcDbEntity
  8
4
  6
CENTER
 48
0.8
100
AcDbLine
 10
194.5657833263048
 20
109.1788257096129
 30
0.0
 11
194.5657833263048
 21
94.178825709613
 31
0.0
  0
ARC
  5
A76
330
18
100
AcDbEntity
  8
1
  6
Continuous
100
AcDbCircle
 10
192.5657833263047
 20
107.678825709613
 30
0.0
 40
8.0
100
AcDbArc
 50
89.99997200000022
 51
180.0000219999999
  0
LINE
  5
A77
330
18
100
AcDbEntity
  8
1
  6
Continuous
100
AcDbLine
 10
200.8473693263047
 20
115.6788257096129
 30
0.0
 11
192.5657833263047
 21
115.6788257096129
 31
0.0
  0
LINE
  5
A78
330
18
100
AcDbEntity
  8
4
  6
CENTER
 48
0.8
100
AcDbLine
 10
199.5657833263047
 20
91.67882570961296
 30
0.0
 11
199.5657833263047
 21
106.678825709613
 31
0.0
  0
LINE
  5
A79
330
18
100
AcDbEntity
  8
4
  6
CENTER
 48
0.8
100
AcDbLine
 10
202.0657833263048
 20
101.6788257096129
 30
0.0
 11
187.0657833263048
 21
101.6788257096129
 31
0.0
  0
LINE
  5
A7A
330
18
100
AcDbEntity
  8
1
  6
Continuous
100
AcDbLine
 10
197.0254573263046
 20
106.5981737096129
 30
0.0
 11
202.0254553263046
 21
104.098174709613
 31
0.0
  0
LINE
  5
A7B
330
18
100
AcDbEntity
  8
1
  6
Continuous
100
AcDbLine
 10
192.1061073263047
 20
96.75947470961302
 30
0.0
 11
197.1061063263047
 21
94.25947570961302
 31
0.0
  0
ARC
  5
A7C
330
18
100
AcDbEntity
  8
1
  6
Continuous
100
AcDbCircle
 10
225.5657833263047
 20
118.6788257096129
 30
0.0
 40
16.0
100
AcDbArc
 50
214.5180909999997
 51
270.0000179999999
  0
LINE
  5
A7D
330
18
100
AcDbEntity
  8
1
  6
Continuous
100
AcDbLine
 10
230.5657833263047
 20
104.1787947096129
 30
0.0
 11
230.5657833263047
 21
102.678794709613
 31
0.0
  0
ARC
  5
A7F
330
18
100
AcDbEntity
  8
1
  6
Continuous
100
AcDbCircle
 10
199.5657833263047
 20
54.17882570961303
 30
0.0
 40
5.5
100
AcDbArc
 50
296.5650480000002
 51
116.565074
  0
LINE
  5
A81
330
18
100
AcDbEntity
  8
4
  6
CENTER
 48
0.8
100
AcDbLine
 10
207.0657833263048
 20
54.17882570961303
 30
0.0
 11
192.0657833263046
 21
54.17882570961303
 31
0.0
  0
ARC
  5
A82
330
18
100
AcDbEntity
  8
1
  6
Continuous
100
AcDbCircle
 10
194.5657833263047
 20
51.67882570961303
 30
0.0
 40
5.5
100
AcDbArc
 50
116.5650640000001
 51
296.5650350000002
  0
LINE
  5
A83
330
18
100
AcDbEntity
  8
4
  6
CENTER
 48
0.8
100
AcDbLine
 10
194.5657833263048
 20
44.17882570961302
 30
0.0
 11
194.5657833263048
 21
59.17882570961303
 31
0.0
  0
LINE
  5
A84
330
18
100
AcDbEntity
  8
4
  6
CENTER
 48
0.8
100
AcDbLine
 10
199.5657833263047
 20
61.67882570961307
 30
0.0
 11
199.5657833263047
 21
46.67882570961295
 31
0.0
  0
LINE
  5
A85
330
18
100
AcDbEntity
  8
1
  6
Continuous
100
AcDbLine
 10
192.1061113263047
 20
56.59817270961304
 30
0.0
 11
197.1061123263045
 21
59.09817370961302
 31
0.0
  0
LINE
  5
A86
330
18
100
AcDbEntity
  8
4
  6
CENTER
 48
0.8
100
AcDbLine
 10
202.0657833263048
 20
51.67882570961303
 30
0.0
 11
187.0657833263048
 21
51.67882570961303
 31
0.0
  0
LINE
  5
A87
330
18
100
AcDbEntity
  8
1
  6
Continuous
100
AcDbLine
 10
197.0254603263047
 20
46.75947370961302
 30
0.0
 11
202.0254623263046
 21
49.259474709613
 31
0.0
  0
ARC
  5
A8B
330
18
100
AcDbEntity
  8
1
  6
Continuous
100
AcDbCircle
 10
225.5657833263047
 20
34.67882570961302
 30
0.0
 40
16.0
100
AcDbArc
 50
89.99998199999998
 51
145.4819090000001
  0
LINE
  5
A8D
330
18
100
AcDbEntity
  8
1
  6
Continuous
100
AcDbLine
 10
230.5657833263047
 20
48.17885670961311
 30
0.0
 11
230.5657833263047
 21
50.67885670961311
 31
0.0
  0
LINE
  5
A8E
330
18
100
AcDbEntity
  8
1
  6
Continuous
100
AcDbLine
 10
200.8473693263047
 20
37.67882570961302
 30
0.0
 11
192.5657833263047
 21
37.67882570961302
 31
0.0
  0
LINE
  5
A8F
330
18
100
AcDbEntity
  8
1
  6
Continuous
100
AcDbLine
 10
248.0657833263048
 20
42.17885670961311
 30
0.0
 11
248.0657833263048
 21
48.17885670961311
 31
0.0
  0
LINE
  5
A90
330
18
100
AcDbEntity
  8
1
  6
Continuous
100
AcDbLine
 10
239.5657833263048
 20
43.17885670961311
 30
0.0
 11
239.5657833263048
 21
47.17885670961311
 31
0.0
  0
LINE
  5
A91
330
18
100
AcDbEntity
  8
4
  6
CENTER
 48
0.8
100
AcDbLine
 10
239.5657833263047
 20
111.678799709613
 30
0.0
 11
239.5657833263047
 21
33.17885670961317
 31
0.0
  0
ARC
  5
A93
330
18
100
AcDbEntity
  8
1
  6
Continuous
100
AcDbCircle
 10
278.2841973263046
 20
51.67882570961303
 30
0.0
 40
14.0
100
AcDbArc
 50
214.5181449999995
 51
270.0000179999999
  0
ARC
  5
A94
330
18
100
AcDbEntity
  8
1
  6
Continuous
100
AcDbCircle
 10
286.5657833263047
 20
45.67882570961303
 30
0.0
 40
8.0
100
AcDbArc
 50
270.0000179999999
 51
0.0000550000006641
  0
ARC
  5
A97
330
18
100
AcDbEntity
  8
1
  6
Continuous
100
AcDbCircle
 10
286.5657833263047
 20
107.678825709613
 30
0.0
 40
8.0
100
AcDbArc
 50
359.9999449999992
 51
89.99998199999998
  0
LINE
  5
A99
330
18
100
AcDbEntity
  8
1
  6
Continuous
100
AcDbLine
 10
294.5657833263047
 20
107.678825709613
 30
0.0
 11
294.5657833263047
 21
45.67882570961303
 31
0.0
  0
ARC
  5
A9A
330
18
100
AcDbEntity
  8
1
  6
Continuous
100
AcDbCircle
 10
253.5657833263047
 20
118.6788257096129
 30
0.0
 40
16.0
100
AcDbArc
 50
269.9999630000001
 51
325.4818909999995
  0
LINE
  5
A9B
330
18
100
AcDbEntity
  8
1
  6
Continuous
100
AcDbLine
 10
248.5657833263047
 20
104.1787947096129
 30
0.0
 11
248.5657833263047
 21
102.6788257096129
 31
0.0
  0
ARC
  5
A9D
330
18
100
AcDbEntity
  8
1
  6
Continuous
100
AcDbCircle
 10
284.5657833263047
 20
101.6788257096129
 30
0.0
 40
5.5
100
AcDbArc
 50
296.5650549999998
 51
116.5650189999998
  0
LINE
  5
A9E
330
18
100
AcDbEntity
  8
4
  6
CENTER
 48
0.8
100
AcDbLine
 10
284.5657833263047
 20
109.1788257096129
 30
0.0
 11
284.5657833263047
 21
94.178825709613
 31
0.0
  0
LINE
  5
A9F
330
18
100
AcDbEntity
  8
1
  6
Continuous
100
AcDbLine
 10
278.2841973263046
 20
115.6788257096129
 30
0.0
 11
286.5657833263047
 21
115.6788257096129
 31
0.0
  0
ARC
  5
AA0
330
18
100
AcDbEntity
  8
1
  6
Continuous
100
AcDbCircle
 10
278.2841973263046
 20
101.6788257096129
 30
0.0
 40
14.0
100
AcDbArc
 50
89.99998199999998
 51
145.4818550000003
  0
LINE
  5
AA1
330
18
100
AcDbEntity
  8
1
  6
Continuous
100
AcDbLine
 10
282.1061113263048
 20
106.598174709613
 30
0.0
 11
277.1061123263046
 21
104.0981757096129
 31
0.0
  0
ARC
  5
AA2
330
18
100
AcDbEntity
  8
1
  6
Continuous
100
AcDbCircle
 10
279.5657833263047
 20
99.17882570961305
 30
0.0
 40
5.5
100
AcDbArc
 50
116.5650369999999
 51
296.5650549999998
  0
LINE
  5
AA3
330
18
100
AcDbEntity
  8
4
  6
CENTER
 48
0.8
100
AcDbLine
 10
277.0657833263047
 20
101.6788257096129
 30
0.0
 11
292.0657833263047
 21
101.6788257096129
 31
0.0
  0
LINE
  5
AA4
330
18
100
AcDbEntity
  8
4
  6
CENTER
 48
0.8
100
AcDbLine
 10
272.0657833263047
 20
99.17882570961305
 30
0.0
 11
287.0657833263048
 21
99.17882570961305
 31
0.0
  0
LINE
  5
AA5
330
18
100
AcDbEntity
  8
4
  6
CENTER
 48
0.8
100
AcDbLine
 10
279.5657833263047
 20
91.67882570961296
 30
0.0
 11
279.5657833263047
 21
106.678825709613
 31
0.0
  0
LINE
  5
AA6
330
18
100
AcDbEntity
  8
1
  6
Continuous
100
AcDbLine
 10
287.0254603263047
 20
96.75947570961296
 30
0.0
 11
282.0254613263049
 21
94.25947670961305
 31
0.0
  0
ARC
  5
AA8
330
18
100
AcDbEntity
  8
1
  6
Continuous
100
AcDbCircle
 10
253.5657833263047
 20
34.67882570961302
 30
0.0
 40
16.0
100
AcDbArc
 50
34.51810900000048
 51
90.00003700000025
  0
ARC
  5
AA9
330
18
100
AcDbEntity
  8
1
  6
Continuous
100
AcDbCircle
 10
243.8157833263048
 20
38.64760670961243
 30
0.0
 40
9.531250000000687
100
AcDbArc
 50
63.51896016962757
 51
116.4810398303734
  0
LINE
  5
AAA
330
18
100
AcDbEntity
  8
1
  6
Continuous
100
AcDbLine
 10
248.5657833263047
 20
48.17885670961311
 30
0.0
 11
248.5657833263047
 21
50.67885670961311
 31
0.0
  0
ARC
  5
AAF
330
18
100
AcDbEntity
  8
1
  6
Continuous
100
AcDbCircle
 10
279.5657833263047
 20
54.17882570961303
 30
0.0
 40
5.5
100
AcDbArc
 50
63.43493500000049
 51
243.4349669999996
  0
LINE
  5
AB0
330
18
100
AcDbEntity
  8
1
  6
Continuous
100
AcDbLine
 10
282.1061063263046
 20
46.75947370961302
 30
0.0
 11
277.1061113263048
 21
49.25947170961303
 31
0.0
  0
LINE
  5
AB1
330
18
100
AcDbEntity
  8
4
  6
CENTER
 48
0.8
100
AcDbLine
 10
277.0657833263047
 20
51.67882570961303
 30
0.0
 11
292.0657833263047
 21
51.67882570961303
 31
0.0
  0
LINE
  5
AB2
330
18
100
AcDbEntity
  8
4
  6
CENTER
 48
0.8
100
AcDbLine
 10
272.0657833263047
 20
54.17882570961303
 30
0.0
 11
287.0657833263048
 21
54.17882570961303
 31
0.0
  0
ARC
  5
AB3
330
18
100
AcDbEntity
  8
1
  6
Continuous
100
AcDbCircle
 10
284.5657833263047
 20
51.67882570961303
 30
0.0
 40
5.5
100
AcDbArc
 50
243.434981
 51
63.43494500000011
  0
LINE
  5
AB4
330
18
100
AcDbEntity
  8
4
  6
CENTER
 48
0.8
100
AcDbLine
 10
279.5657833263047
 20
61.67882570961307
 30
0.0
 11
279.5657833263047
 21
46.67882570961295
 31
0.0
  0
LINE
  5
AB5
330
18
100
AcDbEntity
  8
4
  6
CENTER
 48
0.8
100
AcDbLine
 10
284.5657833263047
 20
44.17882570961302
 30
0.0
 11
284.5657833263047
 21
59.17882570961303
 31
0.0
  0
LINE
  5
AB6
330
18
100
AcDbEntity
  8
1
  6
Continuous
100
AcDbLine
 10
287.0254593263047
 20
56.59817970961302
 30
0.0
 11
282.0254643263048
 21
59.09817770961303
 31
0.0
  0
ARC
  5
AB9
330
18
100
AcDbEntity
  8
1
  6
Continuous
100
AcDbCircle
 10
243.8157833263048
 20
51.71010670961379
 30
0.0
 40
9.531250000000687
100
AcDbArc
 50
243.5189601696265
 51
296.4810398303723
  0
LINE
  5
ABA
330
18
100
AcDbEntity
  8
1
  6
Continuous
100
AcDbLine
 10
244.5657833263047
 20
38.92893270961303
 30
0.0
 11
234.5657833263047
 21
38.92893270961303
 31
0.0
  0
LINE
  5
ABB
330
18
100
AcDbEntity
  8
1
  6
Continuous
100
AcDbLine
 10
243.8157833263047
 20
38.1788567096131
 30
0.0
 11
235.3157833263046
 21
38.1788567096131
 31
0.0
  0
LINE
  5
ABC
330
18
100
AcDbEntity
  8
1
  6
Continuous
100
AcDbLine
 10
234.5657833263047
 20
38.92893270961303
 30
0.0
 11
234.5657833263047
 21
42.17885670961311
 31
0.0
  0
LINE
  5
ABD
330
18
100
AcDbEntity
  8
2
  6
Continuous
100
AcDbLine
 10
235.3777833263047
 20
38.17893370961296
 30
0.0
 11
235.3777833263047
 21
42.17886070961305
 31
0.0
  0
LINE
  5
ABE
330
18
100
AcDbEntity
  8
1
  6
Continuous
100
AcDbLine
 10
234.5657833263047
 20
38.92893270961303
 30
0.0
 11
235.3158073263047
 21
38.1789067096131
 31
0.0
  0
LINE
  5
ABF
330
18
100
AcDbEntity
  8
1
  6
Continuous
100
AcDbLine
 10
244.5657833263047
 20
38.92893270961303
 30
0.0
 11
244.5657833263047
 21
42.17885670961311
 31
0.0
  0
LINE
  5
AC0
330
18
100
AcDbEntity
  8
2
  6
Continuous
100
AcDbLine
 10
243.7537833263046
 20
38.17893370961296
 30
0.0
 11
243.7537833263046
 21
42.17886070961305
 31
0.0
  0
LINE
  5
AC1
330
18
100
AcDbEntity
  8
1
  6
Continuous
100
AcDbLine
 10
244.5657833263047
 20
38.92893270961303
 30
0.0
 11
243.8157593263047
 21
38.1789067096131
 31
0.0
  0
LINE
  5
AC2
330
18
100
AcDbEntity
  8
1
  6
Continuous
100
AcDbLine
 10
278.2841973263046
 20
37.67882570961302
 30
0.0
 11
286.5657833263047
 21
37.67882570961302
 31
0.0
  0
ARC
  5
BC7
330
18
100
AcDbEntity
  8
1
  6
Continuous
100
AcDbCircle
 10
248.0657833263047
 20
98.67882570961306
 30
0.0
 40
0.5
100
AcDbArc
 50
0.0
 51
90.0
  0
ARC
  5
BC8
330
18
100
AcDbEntity
  8
1
  6
Continuous
100
AcDbCircle
 10
248.0657833263047
 20
54.67882570961304
 30
0.0
 40
0.5
100
AcDbArc
 50
270.0
 51
0.0
  0
LINE
  5
BC9
330
18
100
AcDbEntity
  8
1
  6
Continuous
100
AcDbLine
 10
275.5657833263047
 20
91.678825709613
 30
0.0
 11
203.5657833263047
 21
91.678825709613
 31
0.0
  0
LINE
  5
BCA
330
18
100
AcDbEntity
  8
1
  6
Continuous
100
AcDbLine
 10
275.5657833263047
 20
90.17882570961299
 30
0.0
 11
203.5657833263047
 21
90.17882570961305
 31
0.0
  0
LINE
  5
BCB
330
18
100
AcDbEntity
  8
1
  6
Continuous
100
AcDbLine
 10
275.5657833263047
 20
63.17882570961304
 30
0.0
 11
203.5657833263047
 21
63.17882570961303
 31
0.0
  0
LINE
  5
BCC
330
18
100
AcDbEntity
  8
1
  6
Continuous
100
AcDbLine
 10
275.5657833263047
 20
61.67882570961303
 30
0.0
 11
203.5657833263047
 21
61.67882570961303
 31
0.0
  0
LINE
  5
BCD
330
18
100
AcDbEntity
  8
1
  6
Continuous
100
AcDbLine
 10
258.5657833263047
 20
93.17882570961302
 30
0.0
 11
220.5657833263046
 21
93.17882570961302
 31
0.0
  0
LINE
  5
BCE
330
18
100
AcDbEntity
  8
1
  6
Continuous
100
AcDbLine
 10
220.5657833263046
 20
60.17882570961303
 30
0.0
 11
258.5657833263047
 21
60.17882570961303
 31
0.0
  0
ARC
  5
BD0
330
18
100
AcDbEntity
  8
1
  6
Continuous
100
AcDbCircle
 10
277.0657833263047
 20
61.67882570961303
 30
0.0
 40
1.5
100
AcDbArc
 50
104.8901530000009
 51
180.0
  0
ARC
  5
BD3
330
18
100
AcDbEntity
  8
1
  6
Continuous
100
AcDbCircle
 10
258.5657833263047
 20
61.17882570961302
 30
0.0
 40
1.0
100
AcDbArc
 50
270.0
 51
0.0
  0
ARC
  5
BD4
330
18
100
AcDbEntity
  8
1
  6
Continuous
100
AcDbCircle
 10
260.0657833263047
 20
61.17882570961302
 30
0.0
 40
0.5
100
AcDbArc
 50
90.0
 51
180.0
  0
LINE
  5
BD5
330
18
100
AcDbEntity
  8
1
  6
Continuous
100
AcDbLine
 10
248.5657833263047
 20
54.67882570961303
 30
0.0
 11
248.5657833263047
 21
60.17882570961303
 31
0.0
  0
LINE
  5
BD8
330
18
100
AcDbEntity
  8
1
  6
Continuous
100
AcDbLine
 10
248.5657833263047
 20
98.67882570961302
 30
0.0
 11
248.5657833263047
 21
93.17882570961302
 31
0.0
  0
ARC
  5
BD9
330
18
100
AcDbEntity
  8
1
  6
Continuous
100
AcDbCircle
 10
239.5657833263047
 20
76.67882570961302
 30
0.0
 40
50.0
100
AcDbArc
 50
350.1998099999996
 51
9.800190000000386
  0
LINE
  5
BDA
330
18
100
AcDbEntity
  8
1
  6
Continuous
100
AcDbLine
 10
286.6508283263048
 20
65.77956470961304
 30
0.0
 11
276.6803333263047
 21
63.12845570961304
 31
0.0
  0
ARC
  5
BDB
330
18
100
AcDbEntity
  8
1
  6
Continuous
100
AcDbCircle
 10
285.8799283263047
 20
68.67882570961302
 30
0.0
 40
3.0
100
AcDbArc
 50
284.8901530000008
 51
350.1998099999996
  0
LINE
  5
BDC
330
18
100
AcDbEntity
  8
1
  6
Continuous
100
AcDbLine
 10
286.6508283263048
 20
87.57808670961296
 30
0.0
 11
276.6803333263047
 21
90.22919570961299
 31
0.0
  0
ARC
  5
BDD
330
18
100
AcDbEntity
  8
1
  6
Continuous
100
AcDbCircle
 10
285.8799283263047
 20
84.67882570961302
 30
0.0
 40
3.0
100
AcDbArc
 50
9.800190000000386
 51
75.10984699999899
  0
ARC
  5
BDE
330
18
100
AcDbEntity
  8
1
  6
Continuous
100
AcDbCircle
 10
277.0657833263047
 20
91.678825709613
 30
0.0
 40
1.5
100
AcDbArc
 50
180.0
 51
255.1098469999989
  0
ARC
  5
BDF
330
18
100
AcDbEntity
  8
1
  6
Continuous
100
AcDbCircle
 10
258.5657833263047
 20
92.17882570961302
 30
0.0
 40
1.0
100
AcDbArc
 50
0.0
 51
90.0
  0
ARC
  5
BE0
330
18
100
AcDbEntity
  8
1
  6
Continuous
100
AcDbCircle
 10
260.0657833263047
 20
92.17882570961302
 30
0.0
 40
0.5
100
AcDbArc
 50
180.0
 51
270.0
  0
ARC
  5
BE3
330
18
100
AcDbEntity
  8
1
  6
Continuous
100
AcDbCircle
 10
202.0657833263046
 20
61.67882570961303
 30
0.0
 40
1.5
100
AcDbArc
 50
0.0
 51
75.10984699999899
  0
LINE
  5
BFA
330
18
100
AcDbEntity
  8
1
  6
Continuous
100
AcDbLine
 10
248.0657833263047
 20
54.17882570961303
 30
0.0
 11
231.0657833263046
 21
54.17882570961303
 31
0.0
  0
LINE
  5
BFB
330
18
100
AcDbEntity
  8
1
  6
Continuous
100
AcDbLine
 10
245.5657833263046
 20
53.67885670961307
 30
0.0
 11
245.5657833263046
 21
54.17882570961303
 31
0.0
  0
LINE
  5
BFC
330
18
100
AcDbEntity
  8
1
  6
Continuous
100
AcDbLine
 10
230.5657833263047
 20
54.67882570961303
 30
0.0
 11
230.5657833263047
 21
60.17882570961303
 31
0.0
  0
LINE
  5
BFD
330
18
100
AcDbEntity
  8
1
  6
Continuous
100
AcDbLine
 10
233.5657833263047
 20
53.67885670961307
 30
0.0
 11
233.5657833263047
 21
54.17882570961303
 31
0.0
  0
ARC
  5
BFE
330
18
100
AcDbEntity
  8
1
  6
Continuous
100
AcDbCircle
 10
231.0657833263046
 20
54.67882570961304
 30
0.0
 40
0.5
100
AcDbArc
 50
180.0
 51
270.0
  0
ARC
  5
C00
330
18
100
AcDbEntity
  8
1
  6
Continuous
100
AcDbCircle
 10
219.0657833263047
 20
61.17882570961302
 30
0.0
 40
0.5
100
AcDbArc
 50
0.0
 51
90.0
  0
ARC
  5
C01
330
18
100
AcDbEntity
  8
1
  6
Continuous
100
AcDbCircle
 10
220.5657833263046
 20
61.17882570961302
 30
0.0
 40
1.0
100
AcDbArc
 50
180.0
 51
270.0
  0
LINE
  5
C04
330
18
100
AcDbEntity
  8
1
  6
Continuous
100
AcDbLine
 10
230.5657833263047
 20
98.67882570961302
 30
0.0
 11
230.5657833263047
 21
93.17882570961302
 31
0.0
  0
ARC
  5
C05
330
18
100
AcDbEntity
  8
1
  6
Continuous
100
AcDbCircle
 10
219.0657833263047
 20
92.17882570961306
 30
0.0
 40
0.5
100
AcDbArc
 50
270.0
 51
0.0
  0
ARC
  5
C06
330
18
100
AcDbEntity
  8
1
  6
Continuous
100
AcDbCircle
 10
220.5657833263046
 20
92.17882570961306
 30
0.0
 40
1.0
100
AcDbArc
 50
90.0
 51
180.0
  0
LINE
  5
C09
330
18
100
AcDbEntity
  8
1
  6
Continuous
100
AcDbLine
 10
231.0657833263046
 20
99.17882570961305
 30
0.0
 11
248.0657833263047
 21
99.17882570961305
 31
0.0
  0
LINE
  5
C0A
330
18
100
AcDbEntity
  8
1
  6
Continuous
100
AcDbLine
 10
245.5657833263046
 20
99.17882570961305
 30
0.0
 11
245.5657833263046
 21
99.678794709613
 31
0.0
  0
LINE
  5
C0B
330
18
100
AcDbEntity
  8
1
  6
Continuous
100
AcDbLine
 10
233.5657833263047
 20
99.17882570961305
 30
0.0
 11
233.5657833263047
 21
99.678794709613
 31
0.0
  0
ARC
  5
C0C
330
18
100
AcDbEntity
  8
1
  6
Continuous
100
AcDbCircle
 10
231.0657833263046
 20
98.67882570961306
 30
0.0
 40
0.5
100
AcDbArc
 50
90.0
 51
180.0
  0
ARC
  5
C0E
330
18
100
AcDbEntity
  8
1
  6
Continuous
100
AcDbCircle
 10
239.5657833263047
 20
76.67882570961302
 30
0.0
 40
50.0
100
AcDbArc
 50
170.1998099999995
 51
189.8001900000003
  0
LINE
  5
C0F
330
18
100
AcDbEntity
  8
1
  6
Continuous
100
AcDbLine
 10
192.4807383263047
 20
65.779564709613
 30
0.0
 11
202.4512333263047
 21
63.128455709613
 31
0.0
  0
ARC
  5
C10
330
18
100
AcDbEntity
  8
1
  6
Continuous
100
AcDbCircle
 10
193.2516383263047
 20
68.67882570961302
 30
0.0
 40
3.0
100
AcDbArc
 50
189.8001900000003
 51
255.1098469999989
  0
LINE
  5
C11
330
18
100
AcDbEntity
  8
1
  6
Continuous
100
AcDbLine
 10
192.4807383263047
 20
87.57808670961306
 30
0.0
 11
202.4512333263047
 21
90.22919570961304
 31
0.0
  0
ARC
  5
C12
330
18
100
AcDbEntity
  8
1
  6
Continuous
100
AcDbCircle
 10
202.0657833263046
 20
91.67882570961305
 30
0.0
 40
1.5
100
AcDbArc
 50
284.8901530000008
 51
0.0
  0
ARC
  5
C13
330
18
100
AcDbEntity
  8
1
  6
Continuous
100
AcDbCircle
 10
193.2516383263047
 20
84.67882570961306
 30
0.0
 40
3.0
100
AcDbArc
 50
104.8901530000009
 51
170.1998099999995
  0
LINE
  5
D19
330
18
100
AcDbEntity
  8
1
  6
Continuous
100
AcDbLine
 10
225.5657833263047
 20
99.67882570961302
 30
0.0
 11
253.5657833263047
 21
99.67882570961302
 31
0.0
  0
LINE
  5
D1A
330
18
100
AcDbEntity
  8
1
  6
Continuous
100
AcDbLine
 10
225.5657833263047
 20
53.67882570961302
 30
0.0
 11
253.5657833263047
 21
53.67882570961302
 31
0.0
  0
ARC
  5
D1B
330
18
100
AcDbEntity
  8
1
  6
Continuous
100
AcDbCircle
 10
225.5657833263047
 20
118.6788257096129
 30
0.0
 40
19.0
100
AcDbArc
 50
214.5180909999997
 51
270.0000179999999
  0
ARC
  5
D1C
330
18
100
AcDbEntity
  8
1
  6
Continuous
100
AcDbCircle
 10
200.8473693263047
 20
101.6788257096129
 30
0.0
 40
11.0
100
AcDbArc
 50
34.51810900000048
 51
89.99998199999998
  0
ARC
  5
D1D
330
18
100
AcDbEntity
  8
1
  6
Continuous
100
AcDbCircle
 10
253.5657833263047
 20
118.6788257096129
 30
0.0
 40
19.0
100
AcDbArc
 50
269.9999630000001
 51
325.4818909999995
  0
ARC
  5
D1E
330
18
100
AcDbEntity
  8
1
  6
Continuous
100
AcDbCircle
 10
278.2841973263046
 20
101.6788257096129
 30
0.0
 40
11.0
100
AcDbArc
 50
89.99998199999998
 51
145.4818550000003
  0
LINE
  5
D21
330
18
100
AcDbEntity
  8
1
  6
Continuous
100
AcDbLine
 10
278.2841973263046
 20
112.678825709613
 30
0.0
 11
282.0657833263047
 21
112.678825709613
 31
0.0
  0
ARC
  5
D22
330
18
100
AcDbEntity
  8
1
  6
Continuous
100
AcDbCircle
 10
282.0657832067364
 20
115.6788267716592
 30
0.0
 40
3.00000106204622
100
AcDbArc
 50
270.0
 51
0.0
  0
ARC
  5
D23
330
18
100
AcDbEntity
  8
1
  6
Continuous
100
AcDbCircle
 10
197.0657834458729
 20
115.6788267716592
 30
0.0
 40
3.00000106204622
100
AcDbArc
 50
180.0
 51
270.0
  0
LINE
  5
D24
330
18
100
AcDbEntity
  8
1
  6
Continuous
100
AcDbLine
 10
200.8473693263047
 20
112.678825709613
 30
0.0
 11
197.0657833263048
 21
112.678825709613
 31
0.0
  0
ARC
  5
D25
330
18
100
AcDbEntity
  8
1
  6
Continuous
100
AcDbCircle
 10
225.5657833263047
 20
34.67882570961302
 30
0.0
 40
19.0
100
AcDbArc
 50
89.99998199999998
 51
145.4819090000001
  0
ARC
  5
D26
330
18
100
AcDbEntity
  8
1
  6
Continuous
100
AcDbCircle
 10
200.8473693263047
 20
51.67882570961303
 30
0.0
 40
11.0
100
AcDbArc
 50
270.0000179999999
 51
325.4818909999995
  0
LINE
  5
D27
330
18
100
AcDbEntity
  8
1
  6
Continuous
100
AcDbLine
 10
200.8473693263047
 20
40.67882570961302
 30
0.0
 11
197.0657833263048
 21
40.67882570961303
 31
0.0
  0
ARC
  5
D28
330
18
100
AcDbEntity
  8
1
  6
Continuous
100
AcDbCircle
 10
197.0657834458729
 20
37.67882464756679
 30
0.0
 40
3.00000106204622
100
AcDbArc
 50
90.00000000000005
 51
180.0
  0
ARC
  5
D29
330
18
100
AcDbEntity
  8
1
  6
Continuous
100
AcDbCircle
 10
253.5657833263047
 20
34.67882570961302
 30
0.0
 40
19.0
100
AcDbArc
 50
34.51810900000048
 51
90.00003699999981
  0
ARC
  5
D2A
330
18
100
AcDbEntity
  8
1
  6
Continuous
100
AcDbCircle
 10
278.2841973263046
 20
51.67882570961303
 30
0.0
 40
11.0
100
AcDbArc
 50
214.5181449999995
 51
270.0000179999999
  0
LINE
  5
D2B
330
18
100
AcDbEntity
  8
1
  6
Continuous
100
AcDbLine
 10
278.2841973263046
 20
40.67882570961302
 30
0.0
 11
282.0657833263047
 21
40.67882570961303
 31
0.0
  0
ARC
  5
D2C
330
18
100
AcDbEntity
  8
1
  6
Continuous
100
AcDbCircle
 10
282.0657832067364
 20
37.67882464756679
 30
0.0
 40
3.00000106204622
100
AcDbArc
 50
0.0
 51
90.00000000000005
  0
CIRCLE
  5
11EB
330
18
100
AcDbEntity
  8
1
  6
Continuous
100
AcDbCircle
 10
596.2722939053471
 20
249.0499545753668
 30
0.0
 40
8.500002099051926
  0
ENDSEC
  0
SECTION
  2
OBJECTS
  0
DICTIONARY
  5
C
330
0
100
AcDbDictionary
281
     1
  3
ACAD_CIP_PREVIOUS_PRODUCT_INFO
350
126C
  3
ACAD_COLOR
350
124F
  3
ACAD_DETAILVIEWSTYLE
350
1268
  3
ACAD_GROUP
350
D
  3
ACAD_LAYOUT
350
94
  3
ACAD_MATERIAL
350
121D
  3
ACAD_MLEADERSTYLE
350
1264
  3
ACAD_MLINESTYLE
350
1B
  3
ACAD_PLOTSETTINGS
350
95
  3
ACAD_PLOTSTYLENAME
350
121B
  3
ACAD_SCALELIST
350
1252
  3
ACAD_SECTIONVIEWSTYLE
350
1266
  3
ACAD_TABLESTYLE
350
1250
  3
ACAD_VISUALSTYLE
350
1236
  3
ACDB_RECOMPOSE_DATA
350
128A
  3
AcDbVariableDictionary
350
127D
  3
CONTENTDICTIONARY
350
3D
  3
DWGPROPS
350
128B
  0
DICTIONARY
  5
126D
330
E
100
AcDbDictionary
280
     1
281
     1
  3
ADSK_XREC_LAYER_RECONCILED
360
126E
  0
DICTIONARY
  5
126F
330
4E
100
AcDbDictionary
280
     1
281
     1
  3
ADSK_XREC_LAYER_RECONCILED
360
1270
  0
DICTIONARY
  5
1271
330
4F
100
AcDbDictionary
280
     1
281
     1
  3
ADSK_XREC_LAYER_RECONCILED
360
1272
  0
DICTIONARY
  5
1273
330
50
100
AcDbDictionary
280
     1
281
     1
  3
ADSK_XREC_LAYER_RECONCILED
360
1274
  0
DICTIONARY
  5
1275
330
51
100
AcDbDictionary
280
     1
281
     1
  3
ADSK_XREC_LAYER_RECONCILED
360
1276
  0
DICTIONARY
  5
1277
330
52
100
AcDbDictionary
280
     1
281
     1
  3
ADSK_XREC_LAYER_RECONCILED
360
1278
  0
DICTIONARY
  5
1279
330
53
100
AcDbDictionary
280
     1
281
     1
  3
ADSK_XREC_LAYER_RECONCILED
360
127A
  0
DICTIONARY
  5
127B
330
54
100
AcDbDictionary
280
     1
281
     1
  3
ADSK_XREC_LAYER_RECONCILED
360
127C
  0
DICTIONARY
  5
11FB
330
18
100
AcDbDictionary
281
     1
  3
ACAD_LAYOUTSELFREF
350
1217
  0
DICTIONARY
  5
11F9
330
15
100
AcDbDictionary
281
     1
  3
ACAD_LAYOUTSELFREF
350
1216
  0
XRECORD
  5
126C
102
{ACAD_REACTORS
330
C
102
}
330
C
100
AcDbXrecord
280
     1
300
ACDLT
300
2014
300
ACDLT_F_S
  0
DICTIONARY
  5
124F
102
{ACAD_REACTORS
330
C
102
}
330
C
100
AcDbDictionary
281
     1
  0
DICTIONARY
  5
1268
102
{ACAD_REACTORS
330
C
102
}
330
C
100
AcDbDictionary
281
     1
  3
Imperial24
350
1269
  0
DICTIONARY
  5
D
102
{ACAD_REACTORS
330
C
102
}
330
C
100
AcDbDictionary
281
     1
  0
DICTIONARY
  5
94
102
{ACAD_REACTORS
330
C
102
}
330
C
100
AcDbDictionary
281
     1
  3
Model
350
126A
  3
レイアウト1
350
126B
  0
DICTIONARY
  5
121D
102
{ACAD_REACTORS
330
C
102
}
330
C
100
AcDbDictionary
281
     1
  3
ByBlock
350
1226
  3
ByLayer
350
121E
  3
Global
350
122E
  0
DICTIONARY
  5
1264
102
{ACAD_REACTORS
330
C
102
}
330
C
100
AcDbDictionary
281
     1
  3
Standard
350
1265
  0
DICTIONARY
  5
1B
102
{ACAD_REACTORS
330
C
102
}
330
C
100
AcDbDictionary
281
     1
  3
STANDARD
350
1C
  0
DICTIONARY
  5
95
102
{ACAD_REACTORS
330
C
102
}
330
C
100
AcDbDictionary
281
     1
  0
ACDBDICTIONARYWDFLT
  5
121B
102
{ACAD_REACTORS
330
C
102
}
330
C
100
AcDbDictionary
281
     1
  3
Normal
350
121C
100
AcDbDictionaryWithDefault
340
121C
  0
DICTIONARY
  5
1252
102
{ACAD_REACTORS
330
C
102
}
330
C
100
AcDbDictionary
281
     1
  3
A0
350
1253
  3
A1
350
1254
  3
A2
350
1255
  3
A3
350
1256
  3
A4
350
1257
  3
A5
350
1258
  3
A6
350
1259
  3
A7
350
125A
  3
A8
350
125B
  3
A9
350
125C
  3
B0
350
125D
  3
B1
350
125E
  3
B2
350
125F
  3
B3
350
1260
  3
B4
350
1261
  3
B5
350
1262
  3
B6
350
1263
  0
DICTIONARY
  5
1266
102
{ACAD_REACTORS
330
C
102
}
330
C
100
AcDbDictionary
281
     1
  3
Imperial24
350
1267
  0
DICTIONARY
  5
1250
102
{ACAD_REACTORS
330
C
102
}
330
C
100
AcDbDictionary
281
     1
  3
Standard
350
1251
  0
DICTIONARY
  5
1236
102
{ACAD_REACTORS
330
C
102
}
330
C
100
AcDbDictionary
281
     1
  3
2dWireframe
350
123C
  3
Basic
350
123B
  3
Brighten
350
1242
  3
ColorChange
350
1246
  3
Conceptual
350
123F
  3
Dim
350
1241
  3
EdgeColorOff
350
124E
  3
Facepattern
350
1245
  3
Flat
350
1237
  3
FlatWithEdges
350
1238
  3
Gouraud
350
1239
  3
GouraudWithEdges
350
123A
  3
Hidden
350
123E
  3
JitterOff
350
124C
  3
Linepattern
350
1244
  3
OverhangOff
350
124D
  3
Realistic
350
1240
  3
Shaded
350
124B
  3
Shaded with edges
350
124A
  3
Shades of Gray
350
1247
  3
Sketchy
350
1248
  3
Thicken
350
1243
  3
Wireframe
350
123D
  3
X-Ray
350
1249
  0
XRECORD
  5
128A
102
{ACAD_REACTORS
330
C
102
}
330
C
100
AcDbXrecord
280
     1
 90
        1
330
1251
  0
DICTIONARY
  5
127D
102
{ACAD_REACTORS
330
C
102
}
330
C
100
AcDbDictionary
281
     1
  3
CANNOSCALE
350
1282
  3
CMLEADERSTYLE
350
127F
  3
CTABLESTYLE
350
127E
  3
CVIEWDETAILSTYLE
350
1280
  3
CVIEWSECTIONSTYLE
350
1281
  3
DIMASSOC
350
1285
  3
INDEXCTL
350
1284
  3
SORTENTS
350
1283
  3
XCLIPFRAME
350
1286
  0
DICTIONARY
  5
3D
102
{ACAD_REACTORS
330
C
102
}
330
C
100
AcDbDictionary
281
     1
  0
XRECORD
  5
128B
102
{ACAD_REACTORS
330
C
102
}
330
C
100
AcDbXrecord
280
     1
  1
DWGPROPS COOKIE
  2

  3

  4

  6

  7

  8
Yoshitsune
  9

300
=
301
=
302
=
303
=
304
=
305
=
306
=
307
=
308
=
309
=
 40
0.0500644675925926
 41
2453811.402924803
 42
2457192.689442095
  1

 90
        0
  0
XRECORD
  5
126E
102
{ACAD_REACTORS
330
126D
102
}
330
126D
100
AcDbXrecord
280
     1
290
     1
  0
XRECORD
  5
1270
102
{ACAD_REACTORS
330
126F
102
}
330
126F
100
AcDbXrecord
280
     1
290
     1
  0
XRECORD
  5
1272
102
{ACAD_REACTORS
330
1271
102
}
330
1271
100
AcDbXrecord
280
     1
290
     1
  0
XRECORD
  5
1274
102
{ACAD_REACTORS
330
1273
102
}
330
1273
100
AcDbXrecord
280
     1
290
     1
  0
XRECORD
  5
1276
102
{ACAD_REACTORS
330
1275
102
}
330
1275
100
AcDbXrecord
280
     1
290
     1
  0
XRECORD
  5
1278
102
{ACAD_REACTORS
330
1277
102
}
330
1277
100
AcDbXrecord
280
     1
290
     1
  0
XRECORD
  5
127A
102
{ACAD_REACTORS
330
1279
102
}
330
1279
100
AcDbXrecord
280
     1
290
     1
  0
XRECORD
  5
127C
102
{ACAD_REACTORS
330
127B
102
}
330
127B
100
AcDbXrecord
280
     1
290
     1
  0
XRECORD
  5
1217
102
{ACAD_REACTORS
330
11FB
102
}
330
11FB
100
AcDbXrecord
280
     1
340
18
  0
XRECORD
  5
1216
102
{ACAD_REACTORS
330
11F9
102
}
330
11F9
100
AcDbXrecord
280
     1
340
15
  0
ACDBDETAILVIEWSTYLE
  5
1269
102
{ACAD_XDICTIONARY
360
12C3
102
}
102
{ACAD_REACTORS
330
1268
102
}
330
1268
100
AcDbModelDocViewStyle
 70
     0
  3
Imperial24
290
     0
100
AcDbDetailViewStyle
 70
     0
 71
     0
 90
        3
 71
     1
340
F
 40
0.24
340
0
 40
0.24
300

 40
0.36
280
     3
 71
     2
340
14
 90
       25
 71
     3
340
F
 40
0.24
 90
        1
 40
0.75
 90
        1
300
%<\AcVar ViewType \f "%tc1">% %<\AcVar ViewDetailId>%\PSCALE %<\AcVar ViewScale \f "%sn">%
 71
     4
340
14
 90
       25
340
14
 90
       25
280
     0
  0
LAYOUT
  5
126A
102
{ACAD_XDICTIONARY
360
12C5
102
}
102
{ACAD_REACTORS
330
94
102
}
330
94
100
AcDbPlotSettings
  1

  2
Canon LBP9100C
  4

  6

 40
0.0
 41
0.0
 42
0.0
 43
0.0
 44
0.0
 45
0.0
 46
0.0
 47
0.0
 48
0.0
 49
0.0
140
0.0
141
0.0
142
1.0
143
1.0
 70
  1712
 72
     0
 73
     0
 74
     0
  7

 75
     0
147
1.0
148
0.0
149
0.0
100
AcDbLayout
  1
Model
 70
     1
 71
     0
 10
0.0
 20
0.0
 11
12.0
 21
9.0
 12
0.0
 22
0.0
 32
0.0
 14
0.0
 24
0.0
 34
0.0
 15
0.0
 25
0.0
 35
0.0
146
0.0
 13
0.0
 23
0.0
 33
0.0
 16
1.0
 26
0.0
 36
0.0
 17
0.0
 27
1.0
 37
0.0
 76
     0
330
18
331
1215
  0
LAYOUT
  5
126B
102
{ACAD_XDICTIONARY
360
12C7
102
}
102
{ACAD_REACTORS
330
94
102
}
330
94
100
AcDbPlotSettings
  1

  2
Canon LBP9100C
  4

  6

 40
0.0
 41
0.0
 42
0.0
 43
0.0
 44
0.0
 45
0.0
 46
0.0
 47
0.0
 48
0.0
 49
0.0
140
0.0
141
0.0
142
1.0
143
1.0
 70
   688
 72
     0
 73
     0
 74
     5
  7

 75
    16
147
1.0
148
0.0
149
0.0
100
AcDbLayout
  1
レイアウト1
 70
     1
 71
     1
 10
0.0
 20
0.0
 11
420.0
 21
297.0
 12
0.0
 22
0.0
 32
0.0
 14
1.000000000000000E+20
 24
1.000000000000000E+20
 34
1.000000000000000E+20
 15
-1.000000000000000E+20
 25
-1.000000000000000E+20
 35
-1.000000000000000E+20
146
0.0
 13
0.0
 23
0.0
 33
0.0
 16
1.0
 26
0.0
 36
0.0
 17
0.0
 27
1.0
 37
0.0
 76
     0
330
15
  0
MATERIAL
  5
1226
102
{ACAD_XDICTIONARY
360
1227
102
}
102
{ACAD_REACTORS
330
121D
102
}
330
121D
100
AcDbMaterial
  1
ByBlock
 72
     0
 43
0.0208333333333333
 43
0.0
 43
0.0
 43
0.0
 43
0.0
 43
0.0208333333333333
 43
0.0
 43
0.0
 43
0.0
 43
0.0
 43
1.0
 43
0.0
 43
0.0
 43
0.0
 43
0.0
 43
1.0
 77
     0
 47
0.0208333333333333
 47
0.0
 47
0.0
 47
0.0
 47
0.0
 47
0.0208333333333333
 47
0.0
 47
0.0
 47
0.0
 47
0.0
 47
1.0
 47
0.0
 47
0.0
 47
0.0
 47
0.0
 47
1.0
171
     0
 49
0.0208333333333333
 49
0.0
 49
0.0
 49
0.0
 49
0.0
 49
0.0208333333333333
 49
0.0
 49
0.0
 49
0.0
 49
0.0
 49
1.0
 49
0.0
 49
0.0
 49
0.0
 49
0.0
 49
1.0
175
     0
142
0.0208333333333333
142
0.0
142
0.0
142
0.0
142
0.0
142
0.0208333333333333
142
0.0
142
0.0
142
0.0
142
0.0
142
1.0
142
0.0
142
0.0
142
0.0
142
0.0
142
1.0
179
     0
144
0.0208333333333333
144
0.0
144
0.0
144
0.0
144
0.0
144
0.0208333333333333
144
0.0
144
0.0
144
0.0
144
0.0
144
1.0
144
0.0
144
0.0
144
0.0
144
0.0
144
1.0
147
0.0208333333333333
147
0.0
147
0.0
147
0.0
147
0.0
147
0.0208333333333333
147
0.0
147
0.0
147
0.0
147
0.0
147
1.0
147
0.0
147
0.0
147
0.0
147
0.0
147
1.0
  0
MATERIAL
  5
121E
102
{ACAD_XDICTIONARY
360
121F
102
}
102
{ACAD_REACTORS
330
121D
102
}
330
121D
100
AcDbMaterial
  1
ByLayer
 72
     0
 43
0.0208333333333333
 43
0.0
 43
0.0
 43
0.0
 43
0.0
 43
0.0208333333333333
 43
0.0
 43
0.0
 43
0.0
 43
0.0
 43
1.0
 43
0.0
 43
0.0
 43
0.0
 43
0.0
 43
1.0
 77
     0
 47
0.0208333333333333
 47
0.0
 47
0.0
 47
0.0
 47
0.0
 47
0.0208333333333333
 47
0.0
 47
0.0
 47
0.0
 47
0.0
 47
1.0
 47
0.0
 47
0.0
 47
0.0
 47
0.0
 47
1.0
171
     0
 49
0.0208333333333333
 49
0.0
 49
0.0
 49
0.0
 49
0.0
 49
0.0208333333333333
 49
0.0
 49
0.0
 49
0.0
 49
0.0
 49
1.0
 49
0.0
 49
0.0
 49
0.0
 49
0.0
 49
1.0
175
     0
142
0.0208333333333333
142
0.0
142
0.0
142
0.0
142
0.0
142
0.0208333333333333
142
0.0
142
0.0
142
0.0
142
0.0
142
1.0
142
0.0
142
0.0
142
0.0
142
0.0
142
1.0
179
     0
144
0.0208333333333333
144
0.0
144
0.0
144
0.0
144
0.0
144
0.0208333333333333
144
0.0
144
0.0
144
0.0
144
0.0
144
1.0
144
0.0
144
0.0
144
0.0
144
0.0
144
1.0
147
0.0208333333333333
147
0.0
147
0.0
147
0.0
147
0.0
147
0.0208333333333333
147
0.0
147
0.0
147
0.0
147
0.0
147
1.0
147
0.0
147
0.0
147
0.0
147
0.0
147
1.0
  0
MATERIAL
  5
122E
102
{ACAD_XDICTIONARY
360
122F
102
}
102
{ACAD_REACTORS
330
121D
102
}
330
121D
100
AcDbMaterial
  1
Global
 72
     0
 43
0.0208333333333333
 43
0.0
 43
0.0
 43
0.0
 43
0.0
 43
0.0208333333333333
 43
0.0
 43
0.0
 43
0.0
 43
0.0
 43
1.0
 43
0.0
 43
0.0
 43
0.0
 43
0.0
 43
1.0
 77
     0
 47
0.0208333333333333
 47
0.0
 47
0.0
 47
0.0
 47
0.0
 47
0.0208333333333333
 47
0.0
 47
0.0
 47
0.0
 47
0.0
 47
1.0
 47
0.0
 47
0.0
 47
0.0
 47
0.0
 47
1.0
171
     0
 49
0.0208333333333333
 49
0.0
 49
0.0
 49
0.0
 49
0.0
 49
0.0208333333333333
 49
0.0
 49
0.0
 49
0.0
 49
0.0
 49
1.0
 49
0.0
 49
0.0
 49
0.0
 49
0.0
 49
1.0
175
     0
142
0.0208333333333333
142
0.0
142
0.0
142
0.0
142
0.0
142
0.0208333333333333
142
0.0
142
0.0
142
0.0
142
0.0
142
1.0
142
0.0
142
0.0
142
0.0
142
0.0
142
1.0
179
     0
144
0.0208333333333333
144
0.0
144
0.0
144
0.0
144
0.0
144
0.0208333333333333
144
0.0
144
0.0
144
0.0
144
0.0
144
1.0
144
0.0
144
0.0
144
0.0
144
0.0
144
1.0
147
0.0208333333333333
147
0.0
147
0.0
147
0.0
147
0.0
147
0.0208333333333333
147
0.0
147
0.0
147
0.0
147
0.0
147
1.0
147
0.0
147
0.0
147
0.0
147
0.0
147
1.0
  0
MLEADERSTYLE
  5
1265
102
{ACAD_REACTORS
330
1264
102
}
330
1264
100
AcDbMLeaderStyle
170
     2
171
     1
172
     0
 90
        2
 40
0.0
 41
0.0
173
     1
 91
-1056964608
340
12
 92
       -2
290
     1
 42
0.09
291
     1
 43
0.36
  3
Standard
 44
0.18
300

342
F
174
     1
178
     6
175
     1
176
     0
 93
-1056964608
 45
0.18
292
     0
297
     0
 46
0.18
 94
-1056964608
 47
1.0
 49
1.0
140
1.0
293
     1
141
0.0
294
     1
177
     0
142
1.0
295
     0
296
     0
143
0.125
1001
ACAD_MLEADERVER
1070
     2
  0
MLINESTYLE
  5
1C
102
{ACAD_REACTORS
330
1B
102
}
330
1B
100
AcDbMlineStyle
  2
STANDARD
 70
     0
  3

 62
   256
 51
90.0
 52
90.0
 71
     2
 49
0.5
 62
   256
  6
BYLAYER
 49
-0.5
 62
   256
  6
BYLAYER
  0
ACDBPLACEHOLDER
  5
121C
102
{ACAD_REACTORS
330
121B
102
}
330
121B
  0
SCALE
  5
1253
102
{ACAD_REACTORS
330
1252
102
}
330
1252
100
AcDbScale
 70
     0
300
1:1
140
1.0
141
1.0
290
     1
  0
SCALE
  5
1254
102
{ACAD_REACTORS
330
1252
102
}
330
1252
100
AcDbScale
 70
     0
300
1/128" = 1'-0"
140
0.0078125
141
12.0
290
     0
  0
SCALE
  5
1255
102
{ACAD_REACTORS
330
1252
102
}
330
1252
100
AcDbScale
 70
     0
300
1/64" = 1'-0"
140
0.015625
141
12.0
290
     0
  0
SCALE
  5
1256
102
{ACAD_REACTORS
330
1252
102
}
330
1252
100
AcDbScale
 70
     0
300
1/32" = 1'-0"
140
0.03125
141
12.0
290
     0
  0
SCALE
  5
1257
102
{ACAD_REACTORS
330
1252
102
}
330
1252
100
AcDbScale
 70
     0
300
1/16" = 1'-0"
140
0.0625
141
12.0
290
     0
  0
SCALE
  5
1258
102
{ACAD_REACTORS
330
1252
102
}
330
1252
100
AcDbScale
 70
     0
300
3/32" = 1'-0"
140
0.09375
141
12.0
290
     0
  0
SCALE
  5
1259
102
{ACAD_REACTORS
330
1252
102
}
330
1252
100
AcDbScale
 70
     0
300
1/8" = 1'-0"
140
0.125
141
12.0
290
     0
  0
SCALE
  5
125A
102
{ACAD_REACTORS
330
1252
102
}
330
1252
100
AcDbScale
 70
     0
300
3/16" = 1'-0"
140
0.1875
141
12.0
290
     0
  0
SCALE
  5
125B
102
{ACAD_REACTORS
330
1252
102
}
330
1252
100
AcDbScale
 70
     0
300
1/4" = 1'-0"
140
0.25
141
12.0
290
     0
  0
SCALE
  5
125C
102
{ACAD_REACTORS
330
1252
102
}
330
1252
100
AcDbScale
 70
     0
300
3/8" = 1'-0"
140
0.375
141
12.0
290
     0
  0
SCALE
  5
125D
102
{ACAD_REACTORS
330
1252
102
}
330
1252
100
AcDbScale
 70
     0
300
1/2" = 1'-0"
140
0.5
141
12.0
290
     0
  0
SCALE
  5
125E
102
{ACAD_REACTORS
330
1252
102
}
330
1252
100
AcDbScale
 70
     0
300
3/4" = 1'-0"
140
0.75
141
12.0
290
     0
  0
SCALE
  5
125F
102
{ACAD_REACTORS
330
1252
102
}
330
1252
100
AcDbScale
 70
     0
300
1" = 1'-0"
140
1.0
141
12.0
290
     0
  0
SCALE
  5
1260
102
{ACAD_REACTORS
330
1252
102
}
330
1252
100
AcDbScale
 70
     0
300
1-1/2" = 1'-0"
140
1.5
141
12.0
290
     0
  0
SCALE
  5
1261
102
{ACAD_REACTORS
330
1252
102
}
330
1252
100
AcDbScale
 70
     0
300
3" = 1'-0"
140
3.0
141
12.0
290
     0
  0
SCALE
  5
1262
102
{ACAD_REACTORS
330
1252
102
}
330
1252
100
AcDbScale
 70
     0
300
6" = 1'-0"
140
6.0
141
12.0
290
     0
  0
SCALE
  5
1263
102
{ACAD_REACTORS
330
1252
102
}
330
1252
100
AcDbScale
 70
     0
300
1'-0" = 1'-0"
140
12.0
141
12.0
290
     0
  0
ACDBSECTIONVIEWSTYLE
  5
1267
102
{ACAD_XDICTIONARY
360
12C1
102
}
102
{ACAD_REACTORS
330
1266
102
}
330
1266
100
AcDbModelDocViewStyle
 70
     0
  3
Imperial24
290
     0
100
AcDbSectionViewStyle
 70
     0
 71
     0
 90
       78
 71
     1
340
F
 40
0.24
340
0
340
0
 40
0.24
300
I, O, Q, S, X, Z
 40
0.48
 90
        3
 40
0.18
 90
        1
 71
     2
340
14
 90
       25
340
14
 90
       50
 40
0.24
 40
0.0
 40
0.24
 71
     3
340
F
 40
0.24
 90
        1
 40
0.75
 90
        1
300
%<\AcVar ViewType \f "%tc1">% %<\AcVar ViewSectionStartId>%-%<\AcVar ViewSectionEndId>%\PSCALE %<\AcVar ViewScale \f "%sn">%
 71
     4
300
ANSI31
 40
1.0
 90
        0
290
     0
290
     0
 90
        6
 40
0.0
 40
1.570796326794896
 40
0.2617993877991494
 40
1.308996938995747
 40
-0.2617993877991494
 40
1.832595714594046
  0
TABLESTYLE
  5
1251
102
{ACAD_XDICTIONARY
360
1288
102
}
102
{ACAD_REACTORS
330
1250
102
}
330
1250
100
AcDbTableStyle
  3
Standard
 70
     0
 71
     0
 40
0.06
 41
0.06
280
     0
281
     0
  7
STANDARD
140
0.18
170
     2
 62
     0
 63
     7
283
     0
274
    -2
284
     1
 64
     0
275
    -2
285
     1
 65
     0
276
    -2
286
     1
 66
     0
277
    -2
287
     1
 67
     0
278
    -2
288
     1
 68
     0
279
    -2
289
     1
 69
     0
  7
STANDARD
140
0.25
170
     5
 62
     0
 63
     7
283
     0
274
    -2
284
     1
 64
     0
275
    -2
285
     1
 65
     0
276
    -2
286
     1
 66
     0
277
    -2
287
     1
 67
     0
278
    -2
288
     1
 68
     0
279
    -2
289
     1
 69
     0
  7
STANDARD
140
0.18
170
     5
 62
     0
 63
     7
283
     0
274
    -2
284
     1
 64
     0
275
    -2
285
     1
 65
     0
276
    -2
286
     1
 66
     0
277
    -2
287
     1
 67
     0
278
    -2
288
     1
 68
     0
279
    -2
289
     1
 69
     0
  0
VISUALSTYLE
  5
123C
102
{ACAD_XDICTIONARY
360
1299
102
}
102
{ACAD_REACTORS
330
1236
102
}
330
1236
100
AcDbVisualStyle
  2
2dWireframe
 70
     4
 71
     0
 72
     2
 73
     0
 90
        0
 40
-0.6
 41
-30.0
 62
     5
 63
     7
 74
     1
 91
        4
 64
     7
 65
   257
 75
     1
175
     1
 42
1.0
 92
        0
 66
   257
 43
1.0
 76
     1
 77
     6
 78
     2
 67
     7
 79
     5
170
     0
171
     0
290
     0
174
     0
 93
        1
 44
0.0
173
     0
291
     0
 45
0.0
1001
ACAD
1000
AcDbSavedByObjectVersion
1070
     0
  0
VISUALSTYLE
  5
123B
102
{ACAD_XDICTIONARY
360
1297
102
}
102
{ACAD_REACTORS
330
1236
102
}
330
1236
100
AcDbVisualStyle
  2
Basic
 70
     7
 71
     1
 72
     0
 73
     1
 90
        0
 40
-0.6
 41
-30.0
 62
     5
 63
     7
 74
     0
 91
        4
 64
     7
 65
   257
 75
     1
175
     1
 42
1.0
 92
        8
 66
     7
 43
1.0
 76
     1
 77
     6
 78
     2
 67
     7
 79
     5
170
     0
171
     0
290
     0
174
     0
 93
        1
 44
0.0
173
     0
291
     1
 45
0.0
1001
ACAD
1000
AcDbSavedByObjectVersion
1070
     0
  0
VISUALSTYLE
  5
1242
102
{ACAD_XDICTIONARY
360
12A5
102
}
102
{ACAD_REACTORS
330
1236
102
}
330
1236
100
AcDbVisualStyle
  2
Brighten
 70
    12
 71
     2
 72
     2
 73
     0
 90
        0
 40
-0.6
 41
-30.0
 62
     5
 63
     7
 74
     1
 91
        4
 64
     7
 65
   257
 75
     1
175
     1
 42
1.0
 92
        8
 66
     7
 43
1.0
 76
     1
 77
     6
 78
     2
 67
     7
 79
     5
170
     0
171
     0
290
     0
174
     0
 93
        1
 44
50.0
173
     0
291
     1
 45
0.0
1001
ACAD
1000
AcDbSavedByObjectVersion
1070
     0
  0
VISUALSTYLE
  5
1246
102
{ACAD_XDICTIONARY
360
12AD
102
}
102
{ACAD_REACTORS
330
1236
102
}
330
1236
100
AcDbVisualStyle
  2
ColorChange
 70
    16
 71
     2
 72
     2
 73
     3
 90
        0
 40
-0.6
 41
-30.0
 62
     5
 63
     8
 74
     1
 91
        4
 64
     7
 65
   257
 75
     1
175
     1
 42
1.0
 92
        8
 66
     8
 43
1.0
 76
     1
 77
     6
 78
     2
 67
     7
 79
     5
170
     0
171
     0
290
     0
174
     0
 93
        1
 44
0.0
173
     0
291
     1
 45
0.0
1001
ACAD
1000
AcDbSavedByObjectVersion
1070
     0
  0
VISUALSTYLE
  5
123F
102
{ACAD_XDICTIONARY
360
129F
102
}
102
{ACAD_REACTORS
330
1236
102
}
330
1236
100
AcDbVisualStyle
  2
Conceptual
 70
     9
 71
     3
 72
     2
 73
     0
 90
        0
 40
-0.6
 41
-30.0
 62
     5
 63
     7
 74
     2
 91
        2
 64
     7
 65
   257
 75
     1
175
     1
 42
179.0
 92
        8
 66
     7
 43
1.0
 76
     1
 77
     6
 78
     2
 67
     7
 79
     3
170
     0
171
     0
290
     0
174
     0
 93
        1
 44
0.0
173
     0
291
     0
 45
0.0
1001
ACAD
1000
AcDbSavedByObjectVersion
1070
     0
  0
VISUALSTYLE
  5
1241
102
{ACAD_XDICTIONARY
360
12A3
102
}
102
{ACAD_REACTORS
330
1236
102
}
330
1236
100
AcDbVisualStyle
  2
Dim
 70
    11
 71
     2
 72
     2
 73
     0
 90
        0
 40
-0.6
 41
-30.0
 62
     5
 63
     7
 74
     1
 91
        4
 64
     7
 65
   257
 75
     1
175
     1
 42
1.0
 92
        8
 66
     7
 43
1.0
 76
     1
 77
     6
 78
     2
 67
     7
 79
     5
170
     0
171
     0
290
     0
174
     0
 93
        1
 44
-50.0
173
     0
291
     1
 45
0.0
1001
ACAD
1000
AcDbSavedByObjectVersion
1070
     0
  0
VISUALSTYLE
  5
124E
102
{ACAD_XDICTIONARY
360
12BD
102
}
102
{ACAD_REACTORS
330
1236
102
}
330
1236
100
AcDbVisualStyle
  2
EdgeColorOff
 70
    22
 71
     2
 72
     2
 73
     0
 90
        0
 40
-0.6
 41
-30.0
 62
     5
 63
     7
 74
     1
 91
        4
 64
     7
 65
   257
 75
     1
175
     1
 42
1.0
 92
        8
 66
     7
 43
1.0
 76
     1
 77
     6
 78
     2
 67
     7
 79
     5
170
     0
171
     0
290
     0
174
     0
 93
        1
 44
0.0
173
     0
291
     1
 45
0.0
1001
ACAD
1000
AcDbSavedByObjectVersion
1070
     0
  0
VISUALSTYLE
  5
1245
102
{ACAD_XDICTIONARY
360
12AB
102
}
102
{ACAD_REACTORS
330
1236
102
}
330
1236
100
AcDbVisualStyle
  2
Facepattern
 70
    15
 71
     2
 72
     2
 73
     0
 90
        0
 40
-0.6
 41
-30.0
 62
     5
 63
     7
 74
     1
 91
        4
 64
     7
 65
   257
 75
     1
175
     1
 42
1.0
 92
        8
 66
     7
 43
1.0
 76
     1
 77
     6
 78
     2
 67
     7
 79
     5
170
     0
171
     0
290
     0
174
     0
 93
        1
 44
0.0
173
     0
291
     1
 45
0.0
1001
ACAD
1000
AcDbSavedByObjectVersion
1070
     0
  0
VISUALSTYLE
  5
1237
102
{ACAD_XDICTIONARY
360
128F
102
}
102
{ACAD_REACTORS
330
1236
102
}
330
1236
100
AcDbVisualStyle
  2
Flat
 70
     0
 71
     2
 72
     1
 73
     1
 90
        2
 40
-0.6
 41
30.0
 62
     5
 63
     7
 74
     0
 91
        0
 64
     7
 65
   257
 75
     1
175
     1
 42
1.0
 92
        8
 66
     7
 43
1.0
 76
     1
 77
     6
 78
     2
 67
     7
 79
     5
170
     0
171
     0
290
     0
174
     0
 93
       13
 44
0.0
173
     0
291
     1
 45
0.0
1001
ACAD
1000
AcDbSavedByObjectVersion
1070
     0
  0
VISUALSTYLE
  5
1238
102
{ACAD_XDICTIONARY
360
1291
102
}
102
{ACAD_REACTORS
330
1236
102
}
330
1236
100
AcDbVisualStyle
  2
FlatWithEdges
 70
     1
 71
     2
 72
     1
 73
     1
 90
        2
 40
-0.6
 41
30.0
 62
     5
 63
     7
 74
     1
 91
        0
 64
     7
 65
   257
 75
     1
175
     1
 42
1.0
 92
        0
 66
   257
 43
1.0
 76
     1
 77
     6
 78
     2
 67
     7
 79
     5
170
     0
171
     0
290
     0
174
     0
 93
       13
 44
0.0
173
     0
291
     1
 45
0.0
1001
ACAD
1000
AcDbSavedByObjectVersion
1070
     0
  0
VISUALSTYLE
  5
1239
102
{ACAD_XDICTIONARY
360
1293
102
}
102
{ACAD_REACTORS
330
1236
102
}
330
1236
100
AcDbVisualStyle
  2
Gouraud
 70
     2
 71
     2
 72
     2
 73
     1
 90
        2
 40
-0.6
 41
30.0
 62
     5
 63
     7
 74
     0
 91
        0
 64
     7
 65
   257
 75
     1
175
     1
 42
1.0
 92
        0
 66
     7
 43
1.0
 76
     1
 77
     6
 78
     2
 67
     7
 79
     5
170
     0
171
     0
290
     0
174
     0
 93
       13
 44
0.0
173
     0
291
     1
 45
0.0
1001
ACAD
1000
AcDbSavedByObjectVersion
1070
     0
  0
VISUALSTYLE
  5
123A
102
{ACAD_XDICTIONARY
360
1295
102
}
102
{ACAD_REACTORS
330
1236
102
}
330
1236
100
AcDbVisualStyle
  2
GouraudWithEdges
 70
     3
 71
     2
 72
     2
 73
     1
 90
        2
 40
-0.6
 41
30.0
 62
     5
 63
     7
 74
     1
 91
        0
 64
     7
 65
   257
 75
     1
175
     1
 42
1.0
 92
        0
 66
   257
 43
1.0
 76
     1
 77
     6
 78
     2
 67
     7
 79
     5
170
     0
171
     0
290
     0
174
     0
 93
       13
 44
0.0
173
     0
291
     1
 45
0.0
1001
ACAD
1000
AcDbSavedByObjectVersion
1070
     0
  0
VISUALSTYLE
  5
123E
102
{ACAD_XDICTIONARY
360
129D
102
}
102
{ACAD_REACTORS
330
1236
102
}
330
1236
100
AcDbVisualStyle
  2
Hidden
 70
     6
 71
     1
 72
     2
 73
     2
 90
        0
 40
-0.6
 41
-30.0
 62
     5
 63
     7
 74
     2
 91
        2
 64
     7
 65
   257
 75
     2
175
     1
 42
40.0
 92
        0
 66
   257
 43
1.0
 76
     1
 77
     6
 78
     2
 67
     7
 79
     3
170
     0
171
     0
290
     0
174
     0
 93
        1
 44
0.0
173
     0
291
     0
 45
0.0
1001
ACAD
1000
AcDbSavedByObjectVersion
1070
     0
  0
VISUALSTYLE
  5
124C
102
{ACAD_XDICTIONARY
360
12B9
102
}
102
{ACAD_REACTORS
330
1236
102
}
330
1236
100
AcDbVisualStyle
  2
JitterOff
 70
    20
 71
     2
 72
     2
 73
     0
 90
        0
 40
-0.6
 41
-30.0
 62
     5
 63
     7
 74
     1
 91
        4
 64
     7
 65
   257
 75
     1
175
     1
 42
1.0
 92
       10
 66
     7
 43
1.0
 76
     1
 77
     6
 78
     2
 67
     7
 79
     5
170
     0
171
     0
290
     0
174
     0
 93
        1
 44
0.0
173
     0
291
     1
 45
0.0
1001
ACAD
1000
AcDbSavedByObjectVersion
1070
     0
  0
VISUALSTYLE
  5
1244
102
{ACAD_XDICTIONARY
360
12A9
102
}
102
{ACAD_REACTORS
330
1236
102
}
330
1236
100
AcDbVisualStyle
  2
Linepattern
 70
    14
 71
     2
 72
     2
 73
     0
 90
        0
 40
-0.6
 41
-30.0
 62
     5
 63
     7
 74
     1
 91
        4
 64
     7
 65
   257
 75
     7
175
     7
 42
1.0
 92
        8
 66
     7
 43
1.0
 76
     1
 77
     6
 78
     2
 67
     7
 79
     5
170
     0
171
     0
290
     0
174
     0
 93
        1
 44
0.0
173
     0
291
     1
 45
0.0
1001
ACAD
1000
AcDbSavedByObjectVersion
1070
     0
  0
VISUALSTYLE
  5
124D
102
{ACAD_XDICTIONARY
360
12BB
102
}
102
{ACAD_REACTORS
330
1236
102
}
330
1236
100
AcDbVisualStyle
  2
OverhangOff
 70
    21
 71
     2
 72
     2
 73
     0
 90
        0
 40
-0.6
 41
-30.0
 62
     5
 63
     7
 74
     1
 91
        4
 64
     7
 65
   257
 75
     1
175
     1
 42
1.0
 92
        9
 66
     7
 43
1.0
 76
     1
 77
     6
 78
     2
 67
     7
 79
     5
170
     0
171
     0
290
     0
174
     0
 93
        1
 44
0.0
173
     0
291
     1
 45
0.0
1001
ACAD
1000
AcDbSavedByObjectVersion
1070
     0
  0
VISUALSTYLE
  5
1240
102
{ACAD_XDICTIONARY
360
12A1
102
}
102
{ACAD_REACTORS
330
1236
102
}
330
1236
100
AcDbVisualStyle
  2
Realistic
 70
     8
 71
     2
 72
     3
 73
     0
 90
        2
 40
-0.6
 41
30.0
 62
     5
 63
     7
 74
     0
 91
        0
 64
     7
 65
   257
 75
     1
175
     1
 42
1.0
 92
        8
 66
   257
 43
1.0
 76
     1
 77
     6
 78
     2
 67
     7
 79
     3
170
     0
171
     0
290
     0
174
     0
 93
       13
 44
0.0
173
     0
291
     0
 45
0.0
1001
ACAD
1000
AcDbSavedByObjectVersion
1070
     0
  0
VISUALSTYLE
  5
124B
102
{ACAD_XDICTIONARY
360
12B7
102
}
102
{ACAD_REACTORS
330
1236
102
}
330
1236
100
AcDbVisualStyle
  2
Shaded
 70
    27
 71
     2
 72
     2
 73
     1
 90
        2
 40
-0.6
 41
30.0
 62
     5
 63
     7
 74
     0
 91
        4
 64
     7
 65
   257
 75
     1
175
     1
 42
1.0
 92
        8
 66
   257
 43
1.0
 76
     1
 77
     6
 78
     2
 67
     8
 79
     3
170
     0
171
     0
290
     0
174
     0
 93
        5
 44
0.0
173
     0
291
     0
 45
0.0
1001
ACAD
1000
AcDbSavedByObjectVersion
1070
     0
  0
VISUALSTYLE
  5
124A
102
{ACAD_XDICTIONARY
360
12B5
102
}
102
{ACAD_REACTORS
330
1236
102
}
330
1236
100
AcDbVisualStyle
  2
Shaded with edges
 70
    26
 71
     2
 72
     2
 73
     1
 90
        2
 40
-0.6
 41
30.0
 62
     5
 63
     7
 74
     1
 91
       10
 64
     7
 65
   257
 75
     2
175
     1
 42
1.0
 92
        8
 66
   257
 43
1.0
 76
     1
 77
     6
 78
     2
 67
     7
 79
     3
170
     0
171
     0
290
     0
174
     0
 93
        5
 44
0.0
173
     0
291
     0
 45
0.0
1001
ACAD
1000
AcDbSavedByObjectVersion
1070
     0
  0
VISUALSTYLE
  5
1247
102
{ACAD_XDICTIONARY
360
12AF
102
}
102
{ACAD_REACTORS
330
1236
102
}
330
1236
100
AcDbVisualStyle
  2
Shades of Gray
 70
    23
 71
     2
 72
     2
 73
     3
 90
        0
 40
-0.6
 41
-30.0
 62
     5
 63
     7
 74
     2
 91
        2
 64
     7
 65
     7
 75
     1
175
     1
 42
40.0
 92
        8
 66
     7
 43
1.0
 76
     1
 77
     6
 78
     2
 67
     7
 79
     3
170
     0
171
     0
290
     0
174
     0
 93
        1
 44
0.0
173
     0
291
     0
 45
0.0
1001
ACAD
1000
AcDbSavedByObjectVersion
1070
     0
  0
VISUALSTYLE
  5
1248
102
{ACAD_XDICTIONARY
360
12B1
102
}
102
{ACAD_REACTORS
330
1236
102
}
330
1236
100
AcDbVisualStyle
  2
Sketchy
 70
    24
 71
     1
 72
     2
 73
     2
 90
        0
 40
-0.6
 41
-30.0
 62
     5
 63
     7
 74
     2
 91
        2
 64
     7
 65
     7
 75
     1
175
     1
 42
40.0
 92
       11
 66
     7
 43
1.0
 76
     1
 77
     6
 78
     2
 67
     7
 79
     6
170
     0
171
     0
290
     0
174
     0
 93
        1
 44
0.0
173
     0
291
     0
 45
0.0
1001
ACAD
1000
AcDbSavedByObjectVersion
1070
     0
  0
VISUALSTYLE
  5
1243
102
{ACAD_XDICTIONARY
360
12A7
102
}
102
{ACAD_REACTORS
330
1236
102
}
330
1236
100
AcDbVisualStyle
  2
Thicken
 70
    13
 71
     2
 72
     2
 73
     0
 90
        0
 40
-0.6
 41
-30.0
 62
     5
 63
     7
 74
     1
 91
        4
 64
     7
 65
   257
 75
     1
175
     1
 42
1.0
 92
       12
 66
     7
 43
1.0
 76
     1
 77
     6
 78
     2
 67
     7
 79
     5
170
     0
171
     0
290
     0
174
     0
 93
        1
 44
0.0
173
     0
291
     1
 45
0.0
1001
ACAD
1000
AcDbSavedByObjectVersion
1070
     0
  0
VISUALSTYLE
  5
123D
102
{ACAD_XDICTIONARY
360
129B
102
}
102
{ACAD_REACTORS
330
1236
102
}
330
1236
100
AcDbVisualStyle
  2
Wireframe
 70
     5
 71
     0
 72
     2
 73
     0
 90
        0
 40
-0.6
 41
-30.0
 62
     5
 63
     7
 74
     1
 91
        4
 64
     7
 65
   257
 75
     1
175
     1
 42
1.0
 92
        0
 66
   257
 43
1.0
 76
     1
 77
     6
 78
     2
 67
     7
 79
     3
170
     0
171
     0
290
     0
174
     0
 93
        1
 44
0.0
173
     0
291
     0
 45
0.0
1001
ACAD
1000
AcDbSavedByObjectVersion
1070
     0
  0
VISUALSTYLE
  5
1249
102
{ACAD_XDICTIONARY
360
12B3
102
}
102
{ACAD_REACTORS
330
1236
102
}
330
1236
100
AcDbVisualStyle
  2
X-Ray
 70
    25
 71
     2
 72
     2
 73
     1
 90
        1
 40
0.5
 41
-30.0
 62
     5
 63
     7
 74
     1
 91
        0
 64
     7
 65
   257
 75
     1
175
     1
 42
1.0
 92
        8
 66
     7
 43
1.0
 76
     1
 77
     6
 78
     2
 67
     7
 79
     3
170
     0
171
     0
290
     0
174
     0
 93
       13
 44
0.0
173
     0
291
     0
 45
0.0
1001
ACAD
1000
AcDbSavedByObjectVersion
1070
     0
  0
DICTIONARYVAR
  5
1282
102
{ACAD_REACTORS
330
127D
102
}
330
127D
100
DictionaryVariables
280
     0
  1
1:1
  0
DICTIONARYVAR
  5
127F
102
{ACAD_REACTORS
330
127D
102
}
330
127D
100
DictionaryVariables
280
     0
  1
STANDARD
  0
DICTIONARYVAR
  5
127E
102
{ACAD_REACTORS
330
127D
102
}
330
127D
100
DictionaryVariables
280
     0
  1
STANDARD
  0
DICTIONARYVAR
  5
1280
102
{ACAD_REACTORS
330
127D
102
}
330
127D
100
DictionaryVariables
280
     0
  1
Imperial24
  0
DICTIONARYVAR
  5
1281
102
{ACAD_REACTORS
330
127D
102
}
330
127D
100
DictionaryVariables
280
     0
  1
Imperial24
  0
DICTIONARYVAR
  5
1285
102
{ACAD_REACTORS
330
127D
102
}
330
127D
100
DictionaryVariables
280
     0
  1
1
  0
DICTIONARYVAR
  5
1284
102
{ACAD_REACTORS
330
127D
102
}
330
127D
100
DictionaryVariables
280
     0
  1
0
  0
DICTIONARYVAR
  5
1283
102
{ACAD_REACTORS
330
127D
102
}
330
127D
100
DictionaryVariables
280
     0
  1
127
  0
DICTIONARYVAR
  5
1286
102
{ACAD_REACTORS
330
127D
102
}
330
127D
100
DictionaryVariables
280
     0
  1
2
  0
DICTIONARY
  5
12C3
330
1269
100
AcDbDictionary
280
     1
281
     1
  3
ACAD_XREC_ROUNDTRIP
360
12C4
  0
DICTIONARY
  5
12C5
330
126A
100
AcDbDictionary
280
     1
281
     1
  3
ACAD_XREC_ROUNDTRIP
360
12C6
  0
DICTIONARY
  5
12C7
330
126B
100
AcDbDictionary
280
     1
281
     1
  3
ACAD_XREC_ROUNDTRIP
360
12C8
  0
DICTIONARY
  5
1227
330
1226
100
AcDbDictionary
280
     1
281
     1
  3
ACAD_XREC_ROUNDTRIP
360
128D
  3
BUMPTILE
360
1229
  3
DIFFUSETILE
360
1228
  3
OPACITYTILE
360
122C
  3
REFLECTIONTILE
360
122B
  3
REFRACTIONTILE
360
122D
  3
SPECULARTILE
360
122A
  0
DICTIONARY
  5
121F
330
121E
100
AcDbDictionary
280
     1
281
     1
  3
ACAD_XREC_ROUNDTRIP
360
128C
  3
BUMPTILE
360
1221
  3
DIFFUSETILE
360
1220
  3
OPACITYTILE
360
1224
  3
REFLECTIONTILE
360
1223
  3
REFRACTIONTILE
360
1225
  3
SPECULARTILE
360
1222
  0
DICTIONARY
  5
122F
330
122E
100
AcDbDictionary
280
     1
281
     1
  3
ACAD_XREC_ROUNDTRIP
360
128E
  3
BUMPTILE
360
1231
  3
DIFFUSETILE
360
1230
  3
OPACITYTILE
360
1234
  3
REFLECTIONTILE
360
1233
  3
REFRACTIONTILE
360
1235
  3
SPECULARTILE
360
1232
  0
DICTIONARY
  5
12C1
330
1267
100
AcDbDictionary
280
     1
281
     1
  3
ACAD_XREC_ROUNDTRIP
360
12C2
  0
DICTIONARY
  5
1288
330
1251
100
AcDbDictionary
280
     1
281
     1
  3
ACAD_ROUNDTRIP_2008_TABLESTYLE_CELLSTYLEMAP
360
1289
  3
ACAD_XREC_ROUNDTRIP
360
12BF
  0
DICTIONARY
  5
1299
330
123C
100
AcDbDictionary
280
     1
281
     1
  3
ACAD_XREC_ROUNDTRIP
360
129A
  0
DICTIONARY
  5
1297
330
123B
100
AcDbDictionary
280
     1
281
     1
  3
ACAD_XREC_ROUNDTRIP
360
1298
  0
DICTIONARY
  5
12A5
330
1242
100
AcDbDictionary
280
     1
281
     1
  3
ACAD_XREC_ROUNDTRIP
360
12A6
  0
DICTIONARY
  5
12AD
330
1246
100
AcDbDictionary
280
     1
281
     1
  3
ACAD_XREC_ROUNDTRIP
360
12AE
  0
DICTIONARY
  5
129F
330
123F
100
AcDbDictionary
280
     1
281
     1
  3
ACAD_XREC_ROUNDTRIP
360
12A0
  0
DICTIONARY
  5
12A3
330
1241
100
AcDbDictionary
280
     1
281
     1
  3
ACAD_XREC_ROUNDTRIP
360
12A4
  0
DICTIONARY
  5
12BD
330
124E
100
AcDbDictionary
280
     1
281
     1
  3
ACAD_XREC_ROUNDTRIP
360
12BE
  0
DICTIONARY
  5
12AB
330
1245
100
AcDbDictionary
280
     1
281
     1
  3
ACAD_XREC_ROUNDTRIP
360
12AC
  0
DICTIONARY
  5
128F
330
1237
100
AcDbDictionary
280
     1
281
     1
  3
ACAD_XREC_ROUNDTRIP
360
1290
  0
DICTIONARY
  5
1291
330
1238
100
AcDbDictionary
280
     1
281
     1
  3
ACAD_XREC_ROUNDTRIP
360
1292
  0
DICTIONARY
  5
1293
330
1239
100
AcDbDictionary
280
     1
281
     1
  3
ACAD_XREC_ROUNDTRIP
360
1294
  0
DICTIONARY
  5
1295
330
123A
100
AcDbDictionary
280
     1
281
     1
  3
ACAD_XREC_ROUNDTRIP
360
1296
  0
DICTIONARY
  5
129D
330
123E
100
AcDbDictionary
280
     1
281
     1
  3
ACAD_XREC_ROUNDTRIP
360
129E
  0
DICTIONARY
  5
12B9
330
124C
100
AcDbDictionary
280
     1
281
     1
  3
ACAD_XREC_ROUNDTRIP
360
12BA
  0
DICTIONARY
  5
12A9
330
1244
100
AcDbDictionary
280
     1
281
     1
  3
ACAD_XREC_ROUNDTRIP
360
12AA
  0
DICTIONARY
  5
12BB
330
124D
100
AcDbDictionary
280
     1
281
     1
  3
ACAD_XREC_ROUNDTRIP
360
12BC
  0
DICTIONARY
  5
12A1
330
1240
100
AcDbDictionary
280
     1
281
     1
  3
ACAD_XREC_ROUNDTRIP
360
12A2
  0
DICTIONARY
  5
12B7
330
124B
100
AcDbDictionary
280
     1
281
     1
  3
ACAD_XREC_ROUNDTRIP
360
12B8
  0
DICTIONARY
  5
12B5
330
124A
100
AcDbDictionary
280
     1
281
     1
  3
ACAD_XREC_ROUNDTRIP
360
12B6
  0
DICTIONARY
  5
12AF
330
1247
100
AcDbDictionary
280
     1
281
     1
  3
ACAD_XREC_ROUNDTRIP
360
12B0
  0
DICTIONARY
  5
12B1
330
1248
100
AcDbDictionary
280
     1
281
     1
  3
ACAD_XREC_ROUNDTRIP
360
12B2
  0
DICTIONARY
  5
12A7
330
1243
100
AcDbDictionary
280
     1
281
     1
  3
ACAD_XREC_ROUNDTRIP
360
12A8
  0
DICTIONARY
  5
129B
330
123D
100
AcDbDictionary
280
     1
281
     1
  3
ACAD_XREC_ROUNDTRIP
360
129C
  0
DICTIONARY
  5
12B3
330
1249
100
AcDbDictionary
280
     1
281
     1
  3
ACAD_XREC_ROUNDTRIP
360
12B4
  0
XRECORD
  5
12C4
102
{ACAD_REACTORS
330
12C3
102
}
330
12C3
100
AcDbXrecord
280
     1
102
DISPLAYNAME
  1
Imperial24
102
FLAGS
 90
        0
  0
XRECORD
  5
12C6
102
{ACAD_REACTORS
330
12C5
102
}
330
12C5
100
AcDbXrecord
280
     1
102
SHADEPLOT
 70
     0
102
SHADEPLOTRESLEVEL
 70
     2
102
SHADEPLOTCUSTOMDPI
 70
   300
  0
XRECORD
  5
12C8
102
{ACAD_REACTORS
330
12C7
102
}
330
12C7
100
AcDbXrecord
280
     1
102
SHADEPLOT
 70
     0
102
SHADEPLOTRESLEVEL
 70
     2
102
SHADEPLOTCUSTOMDPI
 70
   300
  0
XRECORD
  5
128D
102
{ACAD_REACTORS
330
1227
102
}
330
1227
100
AcDbXrecord
280
     1
102
MATERIAL
148
0.0
149
0.0
149
0.0
 93
        0
 94
      127
282
     0
 72
     0
 77
     0
171
     0
175
     0
179
     0
273
     0
  0
XRECORD
  5
1229
102
{ACAD_REACTORS
330
1227
102
}
330
1227
100
AcDbXrecord
280
     1
270
     1
271
     1
  0
XRECORD
  5
1228
102
{ACAD_REACTORS
330
1227
102
}
330
1227
100
AcDbXrecord
280
     1
270
     1
271
     1
  0
XRECORD
  5
122C
102
{ACAD_REACTORS
330
1227
102
}
330
1227
100
AcDbXrecord
280
     1
270
     1
271
     1
  0
XRECORD
  5
122B
102
{ACAD_REACTORS
330
1227
102
}
330
1227
100
AcDbXrecord
280
     1
270
     1
271
     1
  0
XRECORD
  5
122D
102
{ACAD_REACTORS
330
1227
102
}
330
1227
100
AcDbXrecord
280
     1
270
     1
271
     1
  0
XRECORD
  5
122A
102
{ACAD_REACTORS
330
1227
102
}
330
1227
100
AcDbXrecord
280
     1
270
     1
271
     1
  0
XRECORD
  5
128C
102
{ACAD_REACTORS
330
121F
102
}
330
121F
100
AcDbXrecord
280
     1
102
MATERIAL
148
0.0
149
0.0
149
0.0
 93
        0
 94
      127
282
     0
 72
     0
 77
     0
171
     0
175
     0
179
     0
273
     0
  0
XRECORD
  5
1221
102
{ACAD_REACTORS
330
121F
102
}
330
121F
100
AcDbXrecord
280
     1
270
     1
271
     1
  0
XRECORD
  5
1220
102
{ACAD_REACTORS
330
121F
102
}
330
121F
100
AcDbXrecord
280
     1
270
     1
271
     1
  0
XRECORD
  5
1224
102
{ACAD_REACTORS
330
121F
102
}
330
121F
100
AcDbXrecord
280
     1
270
     1
271
     1
  0
XRECORD
  5
1223
102
{ACAD_REACTORS
330
121F
102
}
330
121F
100
AcDbXrecord
280
     1
270
     1
271
     1
  0
XRECORD
  5
1225
102
{ACAD_REACTORS
330
121F
102
}
330
121F
100
AcDbXrecord
280
     1
270
     1
271
     1
  0
XRECORD
  5
1222
102
{ACAD_REACTORS
330
121F
102
}
330
121F
100
AcDbXrecord
280
     1
270
     1
271
     1
  0
XRECORD
  5
128E
102
{ACAD_REACTORS
330
122F
102
}
330
122F
100
AcDbXrecord
280
     1
102
MATERIAL
148
0.0
149
0.0
149
0.0
 93
        0
 94
      127
282
     0
 72
     0
 77
     0
171
     0
175
     0
179
     0
273
     0
  0
XRECORD
  5
1231
102
{ACAD_REACTORS
330
122F
102
}
330
122F
100
AcDbXrecord
280
     1
270
     1
271
     1
  0
XRECORD
  5
1230
102
{ACAD_REACTORS
330
122F
102
}
330
122F
100
AcDbXrecord
280
     1
270
     1
271
     1
  0
XRECORD
  5
1234
102
{ACAD_REACTORS
330
122F
102
}
330
122F
100
AcDbXrecord
280
     1
270
     1
271
     1
  0
XRECORD
  5
1233
102
{ACAD_REACTORS
330
122F
102
}
330
122F
100
AcDbXrecord
280
     1
270
     1
271
     1
  0
XRECORD
  5
1235
102
{ACAD_REACTORS
330
122F
102
}
330
122F
100
AcDbXrecord
280
     1
270
     1
271
     1
  0
XRECORD
  5
1232
102
{ACAD_REACTORS
330
122F
102
}
330
122F
100
AcDbXrecord
280
     1
270
     1
271
     1
  0
XRECORD
  5
12C2
102
{ACAD_REACTORS
330
12C1
102
}
330
12C1
100
AcDbXrecord
280
     1
102
DISPLAYNAME
  1
Imperial24
102
FLAGS
 90
        0
  0
CELLSTYLEMAP
  5
1289
102
{ACAD_REACTORS
330
1288
102
}
330
1288
100
AcDbCellStyleMap
 90
        3
300
CELLSTYLE
  1
TABLEFORMAT_BEGIN
 90
        5
170
     1
 91
        0
 92
    32768
 62
   257
 93
        1
300
CONTENTFORMAT
  1
CONTENTFORMAT_BEGIN
 90
        0
 91
        0
 92
      512
 93
        0
300

 40
0.0
140
1.0
 94
        5
 62
     0
340
F
144
0.25
309
CONTENTFORMAT_END
171
     0
 94
        0
309
TABLEFORMAT_END
  1
CELLSTYLE_BEGIN
 90
        1
 91
        1
300
_TITLE
309
CELLSTYLE_END
300
CELLSTYLE
  1
TABLEFORMAT_BEGIN
 90
        5
170
     1
 91
        0
 92
        0
 62
   257
 93
        1
300
CONTENTFORMAT
  1
CONTENTFORMAT_BEGIN
 90
        0
 91
        0
 92
      512
 93
        0
300

 40
0.0
140
1.0
 94
        5
 62
     0
340
F
144
0.18
309
CONTENTFORMAT_END
171
     0
 94
        0
309
TABLEFORMAT_END
  1
CELLSTYLE_BEGIN
 90
        2
 91
        1
300
_HEADER
309
CELLSTYLE_END
300
CELLSTYLE
  1
TABLEFORMAT_BEGIN
 90
        5
170
     1
 91
        0
 92
        0
 62
   257
 93
        1
300
CONTENTFORMAT
  1
CONTENTFORMAT_BEGIN
 90
        0
 91
        0
 92
      512
 93
        0
300

 40
0.0
140
1.0
 94
        2
 62
     0
340
F
144
0.18
309
CONTENTFORMAT_END
171
     0
 94
        0
309
TABLEFORMAT_END
  1
CELLSTYLE_BEGIN
 90
        3
 91
        2
300
_DATA
309
CELLSTYLE_END
  0
XRECORD
  5
12BF
102
{ACAD_REACTORS
330
1288
102
}
330
1288
100
AcDbXrecord
280
     1
102
ACAD_ROUNDTRIP_PRE2007_TABLESTYLE
 90
      512
 91
        0
  1

 92
      512
 93
        0
  2

 94
      512
 95
        0
  3

  0
XRECORD
  5
129A
102
{ACAD_REACTORS
330
1299
102
}
330
1299
100
AcDbXrecord
280
     1
102
RTVSPost2010Prop28
280
     1
102
RTVSPost2010PropOp28
 70
     1
102
RTVSPost2010Prop29
280
     1
102
RTVSPost2010PropOp29
 70
     1
102
RTVSPost2010Prop30
280
     0
102
RTVSPost2010PropOp30
 70
     1
102
RTVSPost2010Prop31
280
     0
102
RTVSPost2010PropOp31
 70
     1
102
RTVSPost2010Prop32
280
     0
102
RTVSPost2010PropOp32
 70
     1
102
RTVSPost2010Prop33
280
     0
102
RTVSPost2010PropOp33
 70
     1
102
RTVSPost2010Prop34
280
     0
102
RTVSPost2010PropOp34
 70
     1
102
RTVSPost2010Prop35
280
     0
102
RTVSPost2010PropOp35
 70
     1
102
RTVSPost2010Prop36
280
     0
102
RTVSPost2010PropOp36
 70
     1
102
RTVSPost2010Prop37
 90
       50
102
RTVSPost2010PropOp37
 70
     1
102
RTVSPost2010Prop38
140
0.0
102
RTVSPost2010PropOp38
 70
     1
102
RTVSPost2010Prop39
140
1.0
102
RTVSPost2010PropOp39
 70
     1
102
RTVSPost2010Prop40
 90
        0
102
RTVSPost2010PropOp40
 70
     1
102
RTVSPost2010Prop41ColorIndex
 90
       18
102
RTVSPost2010Prop41ColorRGB
 90
        0
102
RTVSPost2010PropOp41
 70
     1
102
RTVSPost2010Prop42
 90
       50
102
RTVSPost2010PropOp42
 70
     1
102
RTVSPost2010Prop43
 90
        3
102
RTVSPost2010PropOp43
 70
     1
102
RTVSPost2010Prop44ColorIndex
 90
        5
102
RTVSPost2010Prop44ColorRGB
 90
      255
102
RTVSPost2010PropOp44
 70
     1
102
RTVSPost2010Prop45
280
     0
102
RTVSPost2010PropOp45
 70
     1
102
RTVSPost2010Prop46
 90
       50
102
RTVSPost2010PropOp46
 70
     1
102
RTVSPost2010Prop47
 90
       50
102
RTVSPost2010PropOp47
 70
     1
102
RTVSPost2010Prop48
 90
       50
102
RTVSPost2010PropOp48
 70
     1
102
RTVSPost2010Prop49
280
     0
102
RTVSPost2010PropOp49
 70
     1
102
RTVSPost2010Prop50
 90
       50
102
RTVSPost2010PropOp50
 70
     1
102
RTVSPost2010Prop51ColorIndex
 90
      256
102
RTVSPost2010Prop51ColorRGB
 90
-16777216
102
RTVSPost2010PropOp51
 70
     0
102
RTVSPost2010Prop52
140
1.0
102
RTVSPost2010PropOp52
 70
     0
102
RTVSPost2010Prop53
 90
        2
102
RTVSPost2010PropOp53
 70
     1
102
RTVSPost2010Prop54
  1
strokes_ogs.tif
102
RTVSPost2010PropOp54
 70
     1
102
RTVSPost2010Prop55
280
     0
102
RTVSPost2010PropOp55
 70
     1
102
RTVSPost2010Prop56
140
1.0
102
RTVSPost2010PropOp56
 70
     1
102
RTVSPost2010Prop57
140
1.0
102
RTVSPost2010PropOp57
 70
     1
102
RTVSPropertyOp0
 70
     1
102
RTVSPropertyOp1
 70
     1
102
RTVSPropertyOp2
 70
     1
102
RTVSPropertyOp3
 70
     1
102
RTVSPropertyOp4
 70
     1
102
RTVSPropertyOp5
 70
     1
102
RTVSPropertyOp6
 70
     1
102
RTVSPropertyOp7
 70
     1
102
RTVSPropertyOp8
 70
     1
102
RTVSPropertyOp9
 70
     1
102
RTVSPropertyOp10
 70
     1
102
RTVSPropertyOp11
 70
     1
102
RTVSPropertyOp12
 70
     1
102
RTVSPropertyOp13
 70
     1
102
RTVSPropertyOp14
 70
     1
102
RTVSPropertyOp15
 70
     1
102
RTVSPropertyOp16
 70
     1
102
RTVSPropertyOp17
 70
     1
102
RTVSPropertyOp18
 70
     1
102
RTVSPropertyOp19
 70
     1
102
RTVSPropertyOp20
 70
     1
102
RTVSPropertyOp21
 70
     1
102
RTVSPropertyOp22
 70
     1
102
RTVSPropertyOp23
 70
     1
102
RTVSPropertyOp24
 70
     1
102
RTVSPropertyOp25
 70
     1
102
RTVSPropertyOp26
 70
     1
102
RTVSPropertyOp27
 70
     1
102
RTVSPropertyOp28
 70
     1
102
RTVSPropertyOp29
 70
     1
102
RTVSPropertyOp30
 70
     1
102
RTVSPropertyOp31
 70
     1
102
RTVSPropertyOp32
 70
     1
102
RTVSPropertyOp33
 70
     1
102
RTVSPropertyOp34
 70
     1
102
RTVSPropertyOp35
 70
     1
102
RTVSPropertyOp36
 70
     1
102
RTVSPropertyOp37
 70
     1
102
RTVSPropertyOp38
 70
     1
102
RTVSPropertyOp39
 70
     1
102
RTVSPropertyOp40
 70
     1
102
RTVSPropertyOp41
 70
     1
102
RTVSPropertyOp42
 70
     1
102
RTVSPropertyOp43
 70
     1
102
RTVSPropertyOp44
 70
     1
102
RTVSPropertyOp45
 70
     1
102
RTVSPropertyOp46
 70
     1
102
RTVSPropertyOp47
 70
     1
102
RTVSPropertyOp48
 70
     1
102
RTVSPropertyOp49
 70
     1
102
RTVSPropertyOp50
 70
     1
102
RTVSPropertyOp51
 70
     0
102
RTVSPropertyOp52
 70
     0
102
RTVSPropertyOp53
 70
     1
102
RTVSPropertyOp54
 70
     1
102
RTVSPropertyOp55
 70
     1
102
RTVSPropertyOp56
 70
     1
102
RTVSPropertyOp57
 70
     1
102
RTVSPropertyOp58
 70
     1
102
RTVSPropertyOp59
 70
     1
102
RTVSPropertyOp60
 70
     1
102
RTVSPropertyOp61
 70
     1
102
RTVSPropertyOp62
 70
     1
  0
XRECORD
  5
1298
102
{ACAD_REACTORS
330
1297
102
}
330
1297
100
AcDbXrecord
280
     1
102
RTVSPost2010Prop28
280
     0
102
RTVSPost2010PropOp28
 70
     1
102
RTVSPost2010Prop29
280
     1
102
RTVSPost2010PropOp29
 70
     1
102
RTVSPost2010Prop30
280
     1
102
RTVSPost2010PropOp30
 70
     1
102
RTVSPost2010Prop31
280
     0
102
RTVSPost2010PropOp31
 70
     1
102
RTVSPost2010Prop32
280
     0
102
RTVSPost2010PropOp32
 70
     1
102
RTVSPost2010Prop33
280
     0
102
RTVSPost2010PropOp33
 70
     1
102
RTVSPost2010Prop34
280
     0
102
RTVSPost2010PropOp34
 70
     1
102
RTVSPost2010Prop35
280
     0
102
RTVSPost2010PropOp35
 70
     1
102
RTVSPost2010Prop36
280
     0
102
RTVSPost2010PropOp36
 70
     1
102
RTVSPost2010Prop37
 90
       50
102
RTVSPost2010PropOp37
 70
     1
102
RTVSPost2010Prop38
140
0.0
102
RTVSPost2010PropOp38
 70
     1
102
RTVSPost2010Prop39
140
1.0
102
RTVSPost2010PropOp39
 70
     1
102
RTVSPost2010Prop40
 90
        0
102
RTVSPost2010PropOp40
 70
     1
102
RTVSPost2010Prop41ColorIndex
 90
       18
102
RTVSPost2010Prop41ColorRGB
 90
        0
102
RTVSPost2010PropOp41
 70
     1
102
RTVSPost2010Prop42
 90
       50
102
RTVSPost2010PropOp42
 70
     1
102
RTVSPost2010Prop43
 90
        3
102
RTVSPost2010PropOp43
 70
     1
102
RTVSPost2010Prop44ColorIndex
 90
        5
102
RTVSPost2010Prop44ColorRGB
 90
      255
102
RTVSPost2010PropOp44
 70
     1
102
RTVSPost2010Prop45
280
     0
102
RTVSPost2010PropOp45
 70
     1
102
RTVSPost2010Prop46
 90
       50
102
RTVSPost2010PropOp46
 70
     1
102
RTVSPost2010Prop47
 90
       50
102
RTVSPost2010PropOp47
 70
     1
102
RTVSPost2010Prop48
 90
       50
102
RTVSPost2010PropOp48
 70
     1
102
RTVSPost2010Prop49
280
     0
102
RTVSPost2010PropOp49
 70
     1
102
RTVSPost2010Prop50
 90
       50
102
RTVSPost2010PropOp50
 70
     1
102
RTVSPost2010Prop51ColorIndex
 90
      256
102
RTVSPost2010Prop51ColorRGB
 90
-16777216
102
RTVSPost2010PropOp51
 70
     0
102
RTVSPost2010Prop52
140
1.0
102
RTVSPost2010PropOp52
 70
     0
102
RTVSPost2010Prop53
 90
        2
102
RTVSPost2010PropOp53
 70
     1
102
RTVSPost2010Prop54
  1
strokes_ogs.tif
102
RTVSPost2010PropOp54
 70
     1
102
RTVSPost2010Prop55
280
     0
102
RTVSPost2010PropOp55
 70
     1
102
RTVSPost2010Prop56
140
1.0
102
RTVSPost2010PropOp56
 70
     1
102
RTVSPost2010Prop57
140
1.0
102
RTVSPost2010PropOp57
 70
     1
102
RTVSPropertyOp0
 70
     1
102
RTVSPropertyOp1
 70
     1
102
RTVSPropertyOp2
 70
     1
102
RTVSPropertyOp3
 70
     1
102
RTVSPropertyOp4
 70
     1
102
RTVSPropertyOp5
 70
     1
102
RTVSPropertyOp6
 70
     1
102
RTVSPropertyOp7
 70
     1
102
RTVSPropertyOp8
 70
     1
102
RTVSPropertyOp9
 70
     1
102
RTVSPropertyOp10
 70
     1
102
RTVSPropertyOp11
 70
     1
102
RTVSPropertyOp12
 70
     1
102
RTVSPropertyOp13
 70
     1
102
RTVSPropertyOp14
 70
     1
102
RTVSPropertyOp15
 70
     1
102
RTVSPropertyOp16
 70
     1
102
RTVSPropertyOp17
 70
     1
102
RTVSPropertyOp18
 70
     1
102
RTVSPropertyOp19
 70
     1
102
RTVSPropertyOp20
 70
     1
102
RTVSPropertyOp21
 70
     1
102
RTVSPropertyOp22
 70
     1
102
RTVSPropertyOp23
 70
     1
102
RTVSPropertyOp24
 70
     1
102
RTVSPropertyOp25
 70
     1
102
RTVSPropertyOp26
 70
     1
102
RTVSPropertyOp27
 70
     1
102
RTVSPropertyOp28
 70
     1
102
RTVSPropertyOp29
 70
     1
102
RTVSPropertyOp30
 70
     1
102
RTVSPropertyOp31
 70
     1
102
RTVSPropertyOp32
 70
     1
102
RTVSPropertyOp33
 70
     1
102
RTVSPropertyOp34
 70
     1
102
RTVSPropertyOp35
 70
     1
102
RTVSPropertyOp36
 70
     1
102
RTVSPropertyOp37
 70
     1
102
RTVSPropertyOp38
 70
     1
102
RTVSPropertyOp39
 70
     1
102
RTVSPropertyOp40
 70
     1
102
RTVSPropertyOp41
 70
     1
102
RTVSPropertyOp42
 70
     1
102
RTVSPropertyOp43
 70
     1
102
RTVSPropertyOp44
 70
     1
102
RTVSPropertyOp45
 70
     1
102
RTVSPropertyOp46
 70
     1
102
RTVSPropertyOp47
 70
     1
102
RTVSPropertyOp48
 70
     1
102
RTVSPropertyOp49
 70
     1
102
RTVSPropertyOp50
 70
     1
102
RTVSPropertyOp51
 70
     0
102
RTVSPropertyOp52
 70
     0
102
RTVSPropertyOp53
 70
     1
102
RTVSPropertyOp54
 70
     1
102
RTVSPropertyOp55
 70
     1
102
RTVSPropertyOp56
 70
     1
102
RTVSPropertyOp57
 70
     1
102
RTVSPropertyOp58
 70
     1
102
RTVSPropertyOp59
 70
     1
102
RTVSPropertyOp60
 70
     1
102
RTVSPropertyOp61
 70
     1
102
RTVSPropertyOp62
 70
     1
  0
XRECORD
  5
12A6
102
{ACAD_REACTORS
330
12A5
102
}
330
12A5
100
AcDbXrecord
280
     1
102
RTVSPost2010Prop28
280
     0
102
RTVSPost2010PropOp28
 70
     1
102
RTVSPost2010Prop29
280
     1
102
RTVSPost2010PropOp29
 70
     1
102
RTVSPost2010Prop30
280
     1
102
RTVSPost2010PropOp30
 70
     1
102
RTVSPost2010Prop31
280
     0
102
RTVSPost2010PropOp31
 70
     1
102
RTVSPost2010Prop32
280
     0
102
RTVSPost2010PropOp32
 70
     1
102
RTVSPost2010Prop33
280
     0
102
RTVSPost2010PropOp33
 70
     1
102
RTVSPost2010Prop34
280
     0
102
RTVSPost2010PropOp34
 70
     1
102
RTVSPost2010Prop35
280
     0
102
RTVSPost2010PropOp35
 70
     1
102
RTVSPost2010Prop36
280
     0
102
RTVSPost2010PropOp36
 70
     1
102
RTVSPost2010Prop37
 90
       50
102
RTVSPost2010PropOp37
 70
     1
102
RTVSPost2010Prop38
140
0.0
102
RTVSPost2010PropOp38
 70
     1
102
RTVSPost2010Prop39
140
1.0
102
RTVSPost2010PropOp39
 70
     1
102
RTVSPost2010Prop40
 90
        0
102
RTVSPost2010PropOp40
 70
     1
102
RTVSPost2010Prop41ColorIndex
 90
       18
102
RTVSPost2010Prop41ColorRGB
 90
        0
102
RTVSPost2010PropOp41
 70
     1
102
RTVSPost2010Prop42
 90
       50
102
RTVSPost2010PropOp42
 70
     1
102
RTVSPost2010Prop43
 90
        3
102
RTVSPost2010PropOp43
 70
     1
102
RTVSPost2010Prop44ColorIndex
 90
        5
102
RTVSPost2010Prop44ColorRGB
 90
      255
102
RTVSPost2010PropOp44
 70
     1
102
RTVSPost2010Prop45
280
     0
102
RTVSPost2010PropOp45
 70
     1
102
RTVSPost2010Prop46
 90
       50
102
RTVSPost2010PropOp46
 70
     1
102
RTVSPost2010Prop47
 90
       50
102
RTVSPost2010PropOp47
 70
     1
102
RTVSPost2010Prop48
 90
       50
102
RTVSPost2010PropOp48
 70
     1
102
RTVSPost2010Prop49
280
     0
102
RTVSPost2010PropOp49
 70
     1
102
RTVSPost2010Prop50
 90
       50
102
RTVSPost2010PropOp50
 70
     1
102
RTVSPost2010Prop51ColorIndex
 90
      256
102
RTVSPost2010Prop51ColorRGB
 90
-16777216
102
RTVSPost2010PropOp51
 70
     0
102
RTVSPost2010Prop52
140
1.0
102
RTVSPost2010PropOp52
 70
     0
102
RTVSPost2010Prop53
 90
        2
102
RTVSPost2010PropOp53
 70
     1
102
RTVSPost2010Prop54
  1
strokes_ogs.tif
102
RTVSPost2010PropOp54
 70
     1
102
RTVSPost2010Prop55
280
     0
102
RTVSPost2010PropOp55
 70
     1
102
RTVSPost2010Prop56
140
1.0
102
RTVSPost2010PropOp56
 70
     1
102
RTVSPost2010Prop57
140
1.0
102
RTVSPost2010PropOp57
 70
     1
102
RTVSPropertyOp0
 70
     1
102
RTVSPropertyOp1
 70
     1
102
RTVSPropertyOp2
 70
     1
102
RTVSPropertyOp3
 70
     1
102
RTVSPropertyOp4
 70
     1
102
RTVSPropertyOp5
 70
     1
102
RTVSPropertyOp6
 70
     1
102
RTVSPropertyOp7
 70
     1
102
RTVSPropertyOp8
 70
     1
102
RTVSPropertyOp9
 70
     1
102
RTVSPropertyOp10
 70
     1
102
RTVSPropertyOp11
 70
     1
102
RTVSPropertyOp12
 70
     1
102
RTVSPropertyOp13
 70
     1
102
RTVSPropertyOp14
 70
     1
102
RTVSPropertyOp15
 70
     1
102
RTVSPropertyOp16
 70
     1
102
RTVSPropertyOp17
 70
     1
102
RTVSPropertyOp18
 70
     1
102
RTVSPropertyOp19
 70
     1
102
RTVSPropertyOp20
 70
     1
102
RTVSPropertyOp21
 70
     1
102
RTVSPropertyOp22
 70
     1
102
RTVSPropertyOp23
 70
     1
102
RTVSPropertyOp24
 70
     1
102
RTVSPropertyOp25
 70
     1
102
RTVSPropertyOp26
 70
     1
102
RTVSPropertyOp27
 70
     1
102
RTVSPropertyOp28
 70
     1
102
RTVSPropertyOp29
 70
     1
102
RTVSPropertyOp30
 70
     1
102
RTVSPropertyOp31
 70
     1
102
RTVSPropertyOp32
 70
     1
102
RTVSPropertyOp33
 70
     1
102
RTVSPropertyOp34
 70
     1
102
RTVSPropertyOp35
 70
     1
102
RTVSPropertyOp36
 70
     1
102
RTVSPropertyOp37
 70
     1
102
RTVSPropertyOp38
 70
     1
102
RTVSPropertyOp39
 70
     1
102
RTVSPropertyOp40
 70
     1
102
RTVSPropertyOp41
 70
     1
102
RTVSPropertyOp42
 70
     1
102
RTVSPropertyOp43
 70
     1
102
RTVSPropertyOp44
 70
     1
102
RTVSPropertyOp45
 70
     1
102
RTVSPropertyOp46
 70
     1
102
RTVSPropertyOp47
 70
     1
102
RTVSPropertyOp48
 70
     1
102
RTVSPropertyOp49
 70
     1
102
RTVSPropertyOp50
 70
     1
102
RTVSPropertyOp51
 70
     0
102
RTVSPropertyOp52
 70
     0
102
RTVSPropertyOp53
 70
     1
102
RTVSPropertyOp54
 70
     1
102
RTVSPropertyOp55
 70
     1
102
RTVSPropertyOp56
 70
     1
102
RTVSPropertyOp57
 70
     1
102
RTVSPropertyOp58
 70
     1
102
RTVSPropertyOp59
 70
     1
102
RTVSPropertyOp60
 70
     1
102
RTVSPropertyOp61
 70
     1
102
RTVSPropertyOp62
 70
     1
  0
XRECORD
  5
12AE
102
{ACAD_REACTORS
330
12AD
102
}
330
12AD
100
AcDbXrecord
280
     1
102
RTVSPost2010Prop28
280
     0
102
RTVSPost2010PropOp28
 70
     1
102
RTVSPost2010Prop29
280
     1
102
RTVSPost2010PropOp29
 70
     1
102
RTVSPost2010Prop30
280
     1
102
RTVSPost2010PropOp30
 70
     1
102
RTVSPost2010Prop31
280
     0
102
RTVSPost2010PropOp31
 70
     1
102
RTVSPost2010Prop32
280
     0
102
RTVSPost2010PropOp32
 70
     1
102
RTVSPost2010Prop33
280
     0
102
RTVSPost2010PropOp33
 70
     1
102
RTVSPost2010Prop34
280
     0
102
RTVSPost2010PropOp34
 70
     1
102
RTVSPost2010Prop35
280
     0
102
RTVSPost2010PropOp35
 70
     1
102
RTVSPost2010Prop36
280
     0
102
RTVSPost2010PropOp36
 70
     1
102
RTVSPost2010Prop37
 90
       50
102
RTVSPost2010PropOp37
 70
     1
102
RTVSPost2010Prop38
140
0.0
102
RTVSPost2010PropOp38
 70
     1
102
RTVSPost2010Prop39
140
1.0
102
RTVSPost2010PropOp39
 70
     1
102
RTVSPost2010Prop40
 90
        0
102
RTVSPost2010PropOp40
 70
     1
102
RTVSPost2010Prop41ColorIndex
 90
       18
102
RTVSPost2010Prop41ColorRGB
 90
        0
102
RTVSPost2010PropOp41
 70
     1
102
RTVSPost2010Prop42
 90
       50
102
RTVSPost2010PropOp42
 70
     1
102
RTVSPost2010Prop43
 90
        3
102
RTVSPost2010PropOp43
 70
     1
102
RTVSPost2010Prop44ColorIndex
 90
        5
102
RTVSPost2010Prop44ColorRGB
 90
      255
102
RTVSPost2010PropOp44
 70
     1
102
RTVSPost2010Prop45
280
     0
102
RTVSPost2010PropOp45
 70
     1
102
RTVSPost2010Prop46
 90
       50
102
RTVSPost2010PropOp46
 70
     1
102
RTVSPost2010Prop47
 90
       50
102
RTVSPost2010PropOp47
 70
     1
102
RTVSPost2010Prop48
 90
       50
102
RTVSPost2010PropOp48
 70
     1
102
RTVSPost2010Prop49
280
     0
102
RTVSPost2010PropOp49
 70
     1
102
RTVSPost2010Prop50
 90
       50
102
RTVSPost2010PropOp50
 70
     1
102
RTVSPost2010Prop51ColorIndex
 90
      256
102
RTVSPost2010Prop51ColorRGB
 90
-16777216
102
RTVSPost2010PropOp51
 70
     0
102
RTVSPost2010Prop52
140
1.0
102
RTVSPost2010PropOp52
 70
     0
102
RTVSPost2010Prop53
 90
        2
102
RTVSPost2010PropOp53
 70
     1
102
RTVSPost2010Prop54
  1
strokes_ogs.tif
102
RTVSPost2010PropOp54
 70
     1
102
RTVSPost2010Prop55
280
     0
102
RTVSPost2010PropOp55
 70
     1
102
RTVSPost2010Prop56
140
1.0
102
RTVSPost2010PropOp56
 70
     1
102
RTVSPost2010Prop57
140
1.0
102
RTVSPost2010PropOp57
 70
     1
102
RTVSPropertyOp0
 70
     1
102
RTVSPropertyOp1
 70
     1
102
RTVSPropertyOp2
 70
     1
102
RTVSPropertyOp3
 70
     1
102
RTVSPropertyOp4
 70
     1
102
RTVSPropertyOp5
 70
     1
102
RTVSPropertyOp6
 70
     1
102
RTVSPropertyOp7
 70
     1
102
RTVSPropertyOp8
 70
     1
102
RTVSPropertyOp9
 70
     1
102
RTVSPropertyOp10
 70
     1
102
RTVSPropertyOp11
 70
     1
102
RTVSPropertyOp12
 70
     1
102
RTVSPropertyOp13
 70
     1
102
RTVSPropertyOp14
 70
     1
102
RTVSPropertyOp15
 70
     1
102
RTVSPropertyOp16
 70
     1
102
RTVSPropertyOp17
 70
     1
102
RTVSPropertyOp18
 70
     1
102
RTVSPropertyOp19
 70
     1
102
RTVSPropertyOp20
 70
     1
102
RTVSPropertyOp21
 70
     1
102
RTVSPropertyOp22
 70
     1
102
RTVSPropertyOp23
 70
     1
102
RTVSPropertyOp24
 70
     1
102
RTVSPropertyOp25
 70
     1
102
RTVSPropertyOp26
 70
     1
102
RTVSPropertyOp27
 70
     1
102
RTVSPropertyOp28
 70
     1
102
RTVSPropertyOp29
 70
     1
102
RTVSPropertyOp30
 70
     1
102
RTVSPropertyOp31
 70
     1
102
RTVSPropertyOp32
 70
     1
102
RTVSPropertyOp33
 70
     1
102
RTVSPropertyOp34
 70
     1
102
RTVSPropertyOp35
 70
     1
102
RTVSPropertyOp36
 70
     1
102
RTVSPropertyOp37
 70
     1
102
RTVSPropertyOp38
 70
     1
102
RTVSPropertyOp39
 70
     1
102
RTVSPropertyOp40
 70
     1
102
RTVSPropertyOp41
 70
     1
102
RTVSPropertyOp42
 70
     1
102
RTVSPropertyOp43
 70
     1
102
RTVSPropertyOp44
 70
     1
102
RTVSPropertyOp45
 70
     1
102
RTVSPropertyOp46
 70
     1
102
RTVSPropertyOp47
 70
     1
102
RTVSPropertyOp48
 70
     1
102
RTVSPropertyOp49
 70
     1
102
RTVSPropertyOp50
 70
     1
102
RTVSPropertyOp51
 70
     0
102
RTVSPropertyOp52
 70
     0
102
RTVSPropertyOp53
 70
     1
102
RTVSPropertyOp54
 70
     1
102
RTVSPropertyOp55
 70
     1
102
RTVSPropertyOp56
 70
     1
102
RTVSPropertyOp57
 70
     1
102
RTVSPropertyOp58
 70
     1
102
RTVSPropertyOp59
 70
     1
102
RTVSPropertyOp60
 70
     1
102
RTVSPropertyOp61
 70
     1
102
RTVSPropertyOp62
 70
     1
  0
XRECORD
  5
12A0
102
{ACAD_REACTORS
330
129F
102
}
330
129F
100
AcDbXrecord
280
     1
102
RTVSPost2010Prop28
280
     0
102
RTVSPost2010PropOp28
 70
     1
102
RTVSPost2010Prop29
280
     1
102
RTVSPost2010PropOp29
 70
     1
102
RTVSPost2010Prop30
280
     1
102
RTVSPost2010PropOp30
 70
     1
102
RTVSPost2010Prop31
280
     0
102
RTVSPost2010PropOp31
 70
     1
102
RTVSPost2010Prop32
280
     0
102
RTVSPost2010PropOp32
 70
     1
102
RTVSPost2010Prop33
280
     0
102
RTVSPost2010PropOp33
 70
     1
102
RTVSPost2010Prop34
280
     0
102
RTVSPost2010PropOp34
 70
     1
102
RTVSPost2010Prop35
280
     0
102
RTVSPost2010PropOp35
 70
     1
102
RTVSPost2010Prop36
280
     0
102
RTVSPost2010PropOp36
 70
     1
102
RTVSPost2010Prop37
 90
       50
102
RTVSPost2010PropOp37
 70
     1
102
RTVSPost2010Prop38
140
0.0
102
RTVSPost2010PropOp38
 70
     1
102
RTVSPost2010Prop39
140
1.0
102
RTVSPost2010PropOp39
 70
     1
102
RTVSPost2010Prop40
 90
        0
102
RTVSPost2010PropOp40
 70
     1
102
RTVSPost2010Prop41ColorIndex
 90
       18
102
RTVSPost2010Prop41ColorRGB
 90
        0
102
RTVSPost2010PropOp41
 70
     1
102
RTVSPost2010Prop42
 90
       50
102
RTVSPost2010PropOp42
 70
     1
102
RTVSPost2010Prop43
 90
        3
102
RTVSPost2010PropOp43
 70
     1
102
RTVSPost2010Prop44ColorIndex
 90
        5
102
RTVSPost2010Prop44ColorRGB
 90
      255
102
RTVSPost2010PropOp44
 70
     1
102
RTVSPost2010Prop45
280
     0
102
RTVSPost2010PropOp45
 70
     1
102
RTVSPost2010Prop46
 90
       50
102
RTVSPost2010PropOp46
 70
     1
102
RTVSPost2010Prop47
 90
       50
102
RTVSPost2010PropOp47
 70
     1
102
RTVSPost2010Prop48
 90
       50
102
RTVSPost2010PropOp48
 70
     1
102
RTVSPost2010Prop49
280
     0
102
RTVSPost2010PropOp49
 70
     1
102
RTVSPost2010Prop50
 90
       50
102
RTVSPost2010PropOp50
 70
     1
102
RTVSPost2010Prop51ColorIndex
 90
      256
102
RTVSPost2010Prop51ColorRGB
 90
-16777216
102
RTVSPost2010PropOp51
 70
     0
102
RTVSPost2010Prop52
140
1.0
102
RTVSPost2010PropOp52
 70
     0
102
RTVSPost2010Prop53
 90
        2
102
RTVSPost2010PropOp53
 70
     1
102
RTVSPost2010Prop54
  1
strokes_ogs.tif
102
RTVSPost2010PropOp54
 70
     1
102
RTVSPost2010Prop55
280
     0
102
RTVSPost2010PropOp55
 70
     1
102
RTVSPost2010Prop56
140
1.0
102
RTVSPost2010PropOp56
 70
     1
102
RTVSPost2010Prop57
140
1.0
102
RTVSPost2010PropOp57
 70
     1
102
RTVSPropertyOp0
 70
     1
102
RTVSPropertyOp1
 70
     1
102
RTVSPropertyOp2
 70
     1
102
RTVSPropertyOp3
 70
     1
102
RTVSPropertyOp4
 70
     1
102
RTVSPropertyOp5
 70
     1
102
RTVSPropertyOp6
 70
     1
102
RTVSPropertyOp7
 70
     1
102
RTVSPropertyOp8
 70
     1
102
RTVSPropertyOp9
 70
     1
102
RTVSPropertyOp10
 70
     1
102
RTVSPropertyOp11
 70
     1
102
RTVSPropertyOp12
 70
     1
102
RTVSPropertyOp13
 70
     1
102
RTVSPropertyOp14
 70
     1
102
RTVSPropertyOp15
 70
     1
102
RTVSPropertyOp16
 70
     1
102
RTVSPropertyOp17
 70
     1
102
RTVSPropertyOp18
 70
     1
102
RTVSPropertyOp19
 70
     1
102
RTVSPropertyOp20
 70
     1
102
RTVSPropertyOp21
 70
     1
102
RTVSPropertyOp22
 70
     1
102
RTVSPropertyOp23
 70
     1
102
RTVSPropertyOp24
 70
     1
102
RTVSPropertyOp25
 70
     1
102
RTVSPropertyOp26
 70
     1
102
RTVSPropertyOp27
 70
     1
102
RTVSPropertyOp28
 70
     1
102
RTVSPropertyOp29
 70
     1
102
RTVSPropertyOp30
 70
     1
102
RTVSPropertyOp31
 70
     1
102
RTVSPropertyOp32
 70
     1
102
RTVSPropertyOp33
 70
     1
102
RTVSPropertyOp34
 70
     1
102
RTVSPropertyOp35
 70
     1
102
RTVSPropertyOp36
 70
     1
102
RTVSPropertyOp37
 70
     1
102
RTVSPropertyOp38
 70
     1
102
RTVSPropertyOp39
 70
     1
102
RTVSPropertyOp40
 70
     1
102
RTVSPropertyOp41
 70
     1
102
RTVSPropertyOp42
 70
     1
102
RTVSPropertyOp43
 70
     1
102
RTVSPropertyOp44
 70
     1
102
RTVSPropertyOp45
 70
     1
102
RTVSPropertyOp46
 70
     1
102
RTVSPropertyOp47
 70
     1
102
RTVSPropertyOp48
 70
     1
102
RTVSPropertyOp49
 70
     1
102
RTVSPropertyOp50
 70
     1
102
RTVSPropertyOp51
 70
     0
102
RTVSPropertyOp52
 70
     0
102
RTVSPropertyOp53
 70
     1
102
RTVSPropertyOp54
 70
     1
102
RTVSPropertyOp55
 70
     1
102
RTVSPropertyOp56
 70
     1
102
RTVSPropertyOp57
 70
     1
102
RTVSPropertyOp58
 70
     1
102
RTVSPropertyOp59
 70
     1
102
RTVSPropertyOp60
 70
     1
102
RTVSPropertyOp61
 70
     1
102
RTVSPropertyOp62
 70
     1
  0
XRECORD
  5
12A4
102
{ACAD_REACTORS
330
12A3
102
}
330
12A3
100
AcDbXrecord
280
     1
102
RTVSPost2010Prop28
280
     0
102
RTVSPost2010PropOp28
 70
     1
102
RTVSPost2010Prop29
280
     1
102
RTVSPost2010PropOp29
 70
     1
102
RTVSPost2010Prop30
280
     1
102
RTVSPost2010PropOp30
 70
     1
102
RTVSPost2010Prop31
280
     0
102
RTVSPost2010PropOp31
 70
     1
102
RTVSPost2010Prop32
280
     0
102
RTVSPost2010PropOp32
 70
     1
102
RTVSPost2010Prop33
280
     0
102
RTVSPost2010PropOp33
 70
     1
102
RTVSPost2010Prop34
280
     0
102
RTVSPost2010PropOp34
 70
     1
102
RTVSPost2010Prop35
280
     0
102
RTVSPost2010PropOp35
 70
     1
102
RTVSPost2010Prop36
280
     0
102
RTVSPost2010PropOp36
 70
     1
102
RTVSPost2010Prop37
 90
       50
102
RTVSPost2010PropOp37
 70
     1
102
RTVSPost2010Prop38
140
0.0
102
RTVSPost2010PropOp38
 70
     1
102
RTVSPost2010Prop39
140
1.0
102
RTVSPost2010PropOp39
 70
     1
102
RTVSPost2010Prop40
 90
        0
102
RTVSPost2010PropOp40
 70
     1
102
RTVSPost2010Prop41ColorIndex
 90
       18
102
RTVSPost2010Prop41ColorRGB
 90
        0
102
RTVSPost2010PropOp41
 70
     1
102
RTVSPost2010Prop42
 90
       50
102
RTVSPost2010PropOp42
 70
     1
102
RTVSPost2010Prop43
 90
        3
102
RTVSPost2010PropOp43
 70
     1
102
RTVSPost2010Prop44ColorIndex
 90
        5
102
RTVSPost2010Prop44ColorRGB
 90
      255
102
RTVSPost2010PropOp44
 70
     1
102
RTVSPost2010Prop45
280
     0
102
RTVSPost2010PropOp45
 70
     1
102
RTVSPost2010Prop46
 90
       50
102
RTVSPost2010PropOp46
 70
     1
102
RTVSPost2010Prop47
 90
       50
102
RTVSPost2010PropOp47
 70
     1
102
RTVSPost2010Prop48
 90
       50
102
RTVSPost2010PropOp48
 70
     1
102
RTVSPost2010Prop49
280
     0
102
RTVSPost2010PropOp49
 70
     1
102
RTVSPost2010Prop50
 90
       50
102
RTVSPost2010PropOp50
 70
     1
102
RTVSPost2010Prop51ColorIndex
 90
      256
102
RTVSPost2010Prop51ColorRGB
 90
-16777216
102
RTVSPost2010PropOp51
 70
     0
102
RTVSPost2010Prop52
140
1.0
102
RTVSPost2010PropOp52
 70
     0
102
RTVSPost2010Prop53
 90
        2
102
RTVSPost2010PropOp53
 70
     1
102
RTVSPost2010Prop54
  1
strokes_ogs.tif
102
RTVSPost2010PropOp54
 70
     1
102
RTVSPost2010Prop55
280
     0
102
RTVSPost2010PropOp55
 70
     1
102
RTVSPost2010Prop56
140
1.0
102
RTVSPost2010PropOp56
 70
     1
102
RTVSPost2010Prop57
140
1.0
102
RTVSPost2010PropOp57
 70
     1
102
RTVSPropertyOp0
 70
     1
102
RTVSPropertyOp1
 70
     1
102
RTVSPropertyOp2
 70
     1
102
RTVSPropertyOp3
 70
     1
102
RTVSPropertyOp4
 70
     1
102
RTVSPropertyOp5
 70
     1
102
RTVSPropertyOp6
 70
     1
102
RTVSPropertyOp7
 70
     1
102
RTVSPropertyOp8
 70
     1
102
RTVSPropertyOp9
 70
     1
102
RTVSPropertyOp10
 70
     1
102
RTVSPropertyOp11
 70
     1
102
RTVSPropertyOp12
 70
     1
102
RTVSPropertyOp13
 70
     1
102
RTVSPropertyOp14
 70
     1
102
RTVSPropertyOp15
 70
     1
102
RTVSPropertyOp16
 70
     1
102
RTVSPropertyOp17
 70
     1
102
RTVSPropertyOp18
 70
     1
102
RTVSPropertyOp19
 70
     1
102
RTVSPropertyOp20
 70
     1
102
RTVSPropertyOp21
 70
     1
102
RTVSPropertyOp22
 70
     1
102
RTVSPropertyOp23
 70
     1
102
RTVSPropertyOp24
 70
     1
102
RTVSPropertyOp25
 70
     1
102
RTVSPropertyOp26
 70
     1
102
RTVSPropertyOp27
 70
     1
102
RTVSPropertyOp28
 70
     1
102
RTVSPropertyOp29
 70
     1
102
RTVSPropertyOp30
 70
     1
102
RTVSPropertyOp31
 70
     1
102
RTVSPropertyOp32
 70
     1
102
RTVSPropertyOp33
 70
     1
102
RTVSPropertyOp34
 70
     1
102
RTVSPropertyOp35
 70
     1
102
RTVSPropertyOp36
 70
     1
102
RTVSPropertyOp37
 70
     1
102
RTVSPropertyOp38
 70
     1
102
RTVSPropertyOp39
 70
     1
102
RTVSPropertyOp40
 70
     1
102
RTVSPropertyOp41
 70
     1
102
RTVSPropertyOp42
 70
     1
102
RTVSPropertyOp43
 70
     1
102
RTVSPropertyOp44
 70
     1
102
RTVSPropertyOp45
 70
     1
102
RTVSPropertyOp46
 70
     1
102
RTVSPropertyOp47
 70
     1
102
RTVSPropertyOp48
 70
     1
102
RTVSPropertyOp49
 70
     1
102
RTVSPropertyOp50
 70
     1
102
RTVSPropertyOp51
 70
     0
102
RTVSPropertyOp52
 70
     0
102
RTVSPropertyOp53
 70
     1
102
RTVSPropertyOp54
 70
     1
102
RTVSPropertyOp55
 70
     1
102
RTVSPropertyOp56
 70
     1
102
RTVSPropertyOp57
 70
     1
102
RTVSPropertyOp58
 70
     1
102
RTVSPropertyOp59
 70
     1
102
RTVSPropertyOp60
 70
     1
102
RTVSPropertyOp61
 70
     1
102
RTVSPropertyOp62
 70
     1
  0
XRECORD
  5
12BE
102
{ACAD_REACTORS
330
12BD
102
}
330
12BD
100
AcDbXrecord
280
     1
102
RTVSPost2010Prop28
280
     0
102
RTVSPost2010PropOp28
 70
     1
102
RTVSPost2010Prop29
280
     1
102
RTVSPost2010PropOp29
 70
     1
102
RTVSPost2010Prop30
280
     1
102
RTVSPost2010PropOp30
 70
     1
102
RTVSPost2010Prop31
280
     0
102
RTVSPost2010PropOp31
 70
     1
102
RTVSPost2010Prop32
280
     0
102
RTVSPost2010PropOp32
 70
     1
102
RTVSPost2010Prop33
280
     0
102
RTVSPost2010PropOp33
 70
     1
102
RTVSPost2010Prop34
280
     0
102
RTVSPost2010PropOp34
 70
     1
102
RTVSPost2010Prop35
280
     0
102
RTVSPost2010PropOp35
 70
     1
102
RTVSPost2010Prop36
280
     0
102
RTVSPost2010PropOp36
 70
     1
102
RTVSPost2010Prop37
 90
       50
102
RTVSPost2010PropOp37
 70
     0
102
RTVSPost2010Prop38
140
0.0
102
RTVSPost2010PropOp38
 70
     0
102
RTVSPost2010Prop39
140
1.0
102
RTVSPost2010PropOp39
 70
     0
102
RTVSPost2010Prop40
 90
        0
102
RTVSPost2010PropOp40
 70
     0
102
RTVSPost2010Prop41ColorIndex
 90
       18
102
RTVSPost2010Prop41ColorRGB
 90
        0
102
RTVSPost2010PropOp41
 70
     0
102
RTVSPost2010Prop42
 90
       50
102
RTVSPost2010PropOp42
 70
     0
102
RTVSPost2010Prop43
 90
        3
102
RTVSPost2010PropOp43
 70
     0
102
RTVSPost2010Prop44ColorIndex
 90
        5
102
RTVSPost2010Prop44ColorRGB
 90
      255
102
RTVSPost2010PropOp44
 70
     0
102
RTVSPost2010Prop45
280
     0
102
RTVSPost2010PropOp45
 70
     1
102
RTVSPost2010Prop46
 90
       50
102
RTVSPost2010PropOp46
 70
     0
102
RTVSPost2010Prop47
 90
       50
102
RTVSPost2010PropOp47
 70
     0
102
RTVSPost2010Prop48
 90
       50
102
RTVSPost2010PropOp48
 70
     0
102
RTVSPost2010Prop49
280
     0
102
RTVSPost2010PropOp49
 70
     1
102
RTVSPost2010Prop50
 90
       50
102
RTVSPost2010PropOp50
 70
     0
102
RTVSPost2010Prop51ColorIndex
 90
      256
102
RTVSPost2010Prop51ColorRGB
 90
-16777216
102
RTVSPost2010PropOp51
 70
     0
102
RTVSPost2010Prop52
140
1.0
102
RTVSPost2010PropOp52
 70
     0
102
RTVSPost2010Prop53
 90
        2
102
RTVSPost2010PropOp53
 70
     0
102
RTVSPost2010Prop54
  1
strokes_ogs.tif
102
RTVSPost2010PropOp54
 70
     0
102
RTVSPost2010Prop55
280
     0
102
RTVSPost2010PropOp55
 70
     1
102
RTVSPost2010Prop56
140
1.0
102
RTVSPost2010PropOp56
 70
     0
102
RTVSPost2010Prop57
140
1.0
102
RTVSPost2010PropOp57
 70
     0
102
RTVSPropertyOp0
 70
     0
102
RTVSPropertyOp1
 70
     0
102
RTVSPropertyOp2
 70
     0
102
RTVSPropertyOp3
 70
     0
102
RTVSPropertyOp4
 70
     0
102
RTVSPropertyOp5
 70
     0
102
RTVSPropertyOp6
 70
     0
102
RTVSPropertyOp7
 70
     0
102
RTVSPropertyOp8
 70
     0
102
RTVSPropertyOp9
 70
     0
102
RTVSPropertyOp10
 70
     0
102
RTVSPropertyOp11
 70
     0
102
RTVSPropertyOp12
 70
     0
102
RTVSPropertyOp13
 70
     0
102
RTVSPropertyOp14
 70
     2
102
RTVSPropertyOp15
 70
     0
102
RTVSPropertyOp16
 70
     0
102
RTVSPropertyOp17
 70
     0
102
RTVSPropertyOp18
 70
     0
102
RTVSPropertyOp19
 70
     0
102
RTVSPropertyOp20
 70
     0
102
RTVSPropertyOp21
 70
     0
102
RTVSPropertyOp22
 70
     0
102
RTVSPropertyOp23
 70
     0
102
RTVSPropertyOp24
 70
     0
102
RTVSPropertyOp25
 70
     0
102
RTVSPropertyOp26
 70
     0
102
RTVSPropertyOp27
 70
     0
102
RTVSPropertyOp28
 70
     1
102
RTVSPropertyOp29
 70
     1
102
RTVSPropertyOp30
 70
     1
102
RTVSPropertyOp31
 70
     1
102
RTVSPropertyOp32
 70
     1
102
RTVSPropertyOp33
 70
     1
102
RTVSPropertyOp34
 70
     1
102
RTVSPropertyOp35
 70
     1
102
RTVSPropertyOp36
 70
     1
102
RTVSPropertyOp37
 70
     0
102
RTVSPropertyOp38
 70
     0
102
RTVSPropertyOp39
 70
     0
102
RTVSPropertyOp40
 70
     0
102
RTVSPropertyOp41
 70
     0
102
RTVSPropertyOp42
 70
     0
102
RTVSPropertyOp43
 70
     0
102
RTVSPropertyOp44
 70
     0
102
RTVSPropertyOp45
 70
     1
102
RTVSPropertyOp46
 70
     0
102
RTVSPropertyOp47
 70
     0
102
RTVSPropertyOp48
 70
     0
102
RTVSPropertyOp49
 70
     1
102
RTVSPropertyOp50
 70
     0
102
RTVSPropertyOp51
 70
     0
102
RTVSPropertyOp52
 70
     0
102
RTVSPropertyOp53
 70
     0
102
RTVSPropertyOp54
 70
     0
102
RTVSPropertyOp55
 70
     1
102
RTVSPropertyOp56
 70
     0
102
RTVSPropertyOp57
 70
     0
102
RTVSPropertyOp58
 70
     0
102
RTVSPropertyOp59
 70
     0
102
RTVSPropertyOp60
 70
     0
102
RTVSPropertyOp61
 70
     0
102
RTVSPropertyOp62
 70
     0
  0
XRECORD
  5
12AC
102
{ACAD_REACTORS
330
12AB
102
}
330
12AB
100
AcDbXrecord
280
     1
102
RTVSPost2010Prop28
280
     0
102
RTVSPost2010PropOp28
 70
     1
102
RTVSPost2010Prop29
280
     1
102
RTVSPost2010PropOp29
 70
     1
102
RTVSPost2010Prop30
280
     1
102
RTVSPost2010PropOp30
 70
     1
102
RTVSPost2010Prop31
280
     0
102
RTVSPost2010PropOp31
 70
     1
102
RTVSPost2010Prop32
280
     0
102
RTVSPost2010PropOp32
 70
     1
102
RTVSPost2010Prop33
280
     0
102
RTVSPost2010PropOp33
 70
     1
102
RTVSPost2010Prop34
280
     0
102
RTVSPost2010PropOp34
 70
     1
102
RTVSPost2010Prop35
280
     0
102
RTVSPost2010PropOp35
 70
     1
102
RTVSPost2010Prop36
280
     0
102
RTVSPost2010PropOp36
 70
     1
102
RTVSPost2010Prop37
 90
       50
102
RTVSPost2010PropOp37
 70
     1
102
RTVSPost2010Prop38
140
0.0
102
RTVSPost2010PropOp38
 70
     1
102
RTVSPost2010Prop39
140
1.0
102
RTVSPost2010PropOp39
 70
     1
102
RTVSPost2010Prop40
 90
        0
102
RTVSPost2010PropOp40
 70
     1
102
RTVSPost2010Prop41ColorIndex
 90
       18
102
RTVSPost2010Prop41ColorRGB
 90
        0
102
RTVSPost2010PropOp41
 70
     1
102
RTVSPost2010Prop42
 90
       50
102
RTVSPost2010PropOp42
 70
     1
102
RTVSPost2010Prop43
 90
        3
102
RTVSPost2010PropOp43
 70
     1
102
RTVSPost2010Prop44ColorIndex
 90
        5
102
RTVSPost2010Prop44ColorRGB
 90
      255
102
RTVSPost2010PropOp44
 70
     1
102
RTVSPost2010Prop45
280
     0
102
RTVSPost2010PropOp45
 70
     1
102
RTVSPost2010Prop46
 90
       50
102
RTVSPost2010PropOp46
 70
     1
102
RTVSPost2010Prop47
 90
       50
102
RTVSPost2010PropOp47
 70
     1
102
RTVSPost2010Prop48
 90
       50
102
RTVSPost2010PropOp48
 70
     1
102
RTVSPost2010Prop49
280
     0
102
RTVSPost2010PropOp49
 70
     1
102
RTVSPost2010Prop50
 90
       50
102
RTVSPost2010PropOp50
 70
     1
102
RTVSPost2010Prop51ColorIndex
 90
      256
102
RTVSPost2010Prop51ColorRGB
 90
-16777216
102
RTVSPost2010PropOp51
 70
     0
102
RTVSPost2010Prop52
140
1.0
102
RTVSPost2010PropOp52
 70
     0
102
RTVSPost2010Prop53
 90
        2
102
RTVSPost2010PropOp53
 70
     1
102
RTVSPost2010Prop54
  1
strokes_ogs.tif
102
RTVSPost2010PropOp54
 70
     1
102
RTVSPost2010Prop55
280
     0
102
RTVSPost2010PropOp55
 70
     1
102
RTVSPost2010Prop56
140
1.0
102
RTVSPost2010PropOp56
 70
     1
102
RTVSPost2010Prop57
140
1.0
102
RTVSPost2010PropOp57
 70
     1
102
RTVSPropertyOp0
 70
     1
102
RTVSPropertyOp1
 70
     1
102
RTVSPropertyOp2
 70
     1
102
RTVSPropertyOp3
 70
     1
102
RTVSPropertyOp4
 70
     1
102
RTVSPropertyOp5
 70
     1
102
RTVSPropertyOp6
 70
     1
102
RTVSPropertyOp7
 70
     1
102
RTVSPropertyOp8
 70
     1
102
RTVSPropertyOp9
 70
     1
102
RTVSPropertyOp10
 70
     1
102
RTVSPropertyOp11
 70
     1
102
RTVSPropertyOp12
 70
     1
102
RTVSPropertyOp13
 70
     1
102
RTVSPropertyOp14
 70
     1
102
RTVSPropertyOp15
 70
     1
102
RTVSPropertyOp16
 70
     1
102
RTVSPropertyOp17
 70
     1
102
RTVSPropertyOp18
 70
     1
102
RTVSPropertyOp19
 70
     1
102
RTVSPropertyOp20
 70
     1
102
RTVSPropertyOp21
 70
     1
102
RTVSPropertyOp22
 70
     1
102
RTVSPropertyOp23
 70
     1
102
RTVSPropertyOp24
 70
     1
102
RTVSPropertyOp25
 70
     1
102
RTVSPropertyOp26
 70
     1
102
RTVSPropertyOp27
 70
     1
102
RTVSPropertyOp28
 70
     1
102
RTVSPropertyOp29
 70
     1
102
RTVSPropertyOp30
 70
     1
102
RTVSPropertyOp31
 70
     1
102
RTVSPropertyOp32
 70
     1
102
RTVSPropertyOp33
 70
     1
102
RTVSPropertyOp34
 70
     1
102
RTVSPropertyOp35
 70
     1
102
RTVSPropertyOp36
 70
     1
102
RTVSPropertyOp37
 70
     1
102
RTVSPropertyOp38
 70
     1
102
RTVSPropertyOp39
 70
     1
102
RTVSPropertyOp40
 70
     1
102
RTVSPropertyOp41
 70
     1
102
RTVSPropertyOp42
 70
     1
102
RTVSPropertyOp43
 70
     1
102
RTVSPropertyOp44
 70
     1
102
RTVSPropertyOp45
 70
     1
102
RTVSPropertyOp46
 70
     1
102
RTVSPropertyOp47
 70
     1
102
RTVSPropertyOp48
 70
     1
102
RTVSPropertyOp49
 70
     1
102
RTVSPropertyOp50
 70
     1
102
RTVSPropertyOp51
 70
     0
102
RTVSPropertyOp52
 70
     0
102
RTVSPropertyOp53
 70
     1
102
RTVSPropertyOp54
 70
     1
102
RTVSPropertyOp55
 70
     1
102
RTVSPropertyOp56
 70
     1
102
RTVSPropertyOp57
 70
     1
102
RTVSPropertyOp58
 70
     1
102
RTVSPropertyOp59
 70
     1
102
RTVSPropertyOp60
 70
     1
102
RTVSPropertyOp61
 70
     1
102
RTVSPropertyOp62
 70
     1
  0
XRECORD
  5
1290
102
{ACAD_REACTORS
330
128F
102
}
330
128F
100
AcDbXrecord
280
     1
102
RTVSPost2010Prop28
280
     0
102
RTVSPost2010PropOp28
 70
     1
102
RTVSPost2010Prop29
280
     1
102
RTVSPost2010PropOp29
 70
     1
102
RTVSPost2010Prop30
280
     1
102
RTVSPost2010PropOp30
 70
     1
102
RTVSPost2010Prop31
280
     0
102
RTVSPost2010PropOp31
 70
     1
102
RTVSPost2010Prop32
280
     0
102
RTVSPost2010PropOp32
 70
     1
102
RTVSPost2010Prop33
280
     0
102
RTVSPost2010PropOp33
 70
     1
102
RTVSPost2010Prop34
280
     0
102
RTVSPost2010PropOp34
 70
     1
102
RTVSPost2010Prop35
280
     0
102
RTVSPost2010PropOp35
 70
     1
102
RTVSPost2010Prop36
280
     0
102
RTVSPost2010PropOp36
 70
     1
102
RTVSPost2010Prop37
 90
       50
102
RTVSPost2010PropOp37
 70
     1
102
RTVSPost2010Prop38
140
0.0
102
RTVSPost2010PropOp38
 70
     1
102
RTVSPost2010Prop39
140
1.0
102
RTVSPost2010PropOp39
 70
     1
102
RTVSPost2010Prop40
 90
        0
102
RTVSPost2010PropOp40
 70
     1
102
RTVSPost2010Prop41ColorIndex
 90
       18
102
RTVSPost2010Prop41ColorRGB
 90
        0
102
RTVSPost2010PropOp41
 70
     1
102
RTVSPost2010Prop42
 90
       50
102
RTVSPost2010PropOp42
 70
     1
102
RTVSPost2010Prop43
 90
        3
102
RTVSPost2010PropOp43
 70
     1
102
RTVSPost2010Prop44ColorIndex
 90
        5
102
RTVSPost2010Prop44ColorRGB
 90
      255
102
RTVSPost2010PropOp44
 70
     1
102
RTVSPost2010Prop45
280
     0
102
RTVSPost2010PropOp45
 70
     1
102
RTVSPost2010Prop46
 90
       50
102
RTVSPost2010PropOp46
 70
     1
102
RTVSPost2010Prop47
 90
       50
102
RTVSPost2010PropOp47
 70
     1
102
RTVSPost2010Prop48
 90
       50
102
RTVSPost2010PropOp48
 70
     1
102
RTVSPost2010Prop49
280
     0
102
RTVSPost2010PropOp49
 70
     1
102
RTVSPost2010Prop50
 90
       50
102
RTVSPost2010PropOp50
 70
     1
102
RTVSPost2010Prop51ColorIndex
 90
      256
102
RTVSPost2010Prop51ColorRGB
 90
-16777216
102
RTVSPost2010PropOp51
 70
     0
102
RTVSPost2010Prop52
140
1.0
102
RTVSPost2010PropOp52
 70
     0
102
RTVSPost2010Prop53
 90
        2
102
RTVSPost2010PropOp53
 70
     1
102
RTVSPost2010Prop54
  1
strokes_ogs.tif
102
RTVSPost2010PropOp54
 70
     1
102
RTVSPost2010Prop55
280
     0
102
RTVSPost2010PropOp55
 70
     1
102
RTVSPost2010Prop56
140
1.0
102
RTVSPost2010PropOp56
 70
     1
102
RTVSPost2010Prop57
140
1.0
102
RTVSPost2010PropOp57
 70
     1
102
RTVSPropertyOp0
 70
     1
102
RTVSPropertyOp1
 70
     1
102
RTVSPropertyOp2
 70
     1
102
RTVSPropertyOp3
 70
     1
102
RTVSPropertyOp4
 70
     1
102
RTVSPropertyOp5
 70
     1
102
RTVSPropertyOp6
 70
     1
102
RTVSPropertyOp7
 70
     1
102
RTVSPropertyOp8
 70
     1
102
RTVSPropertyOp9
 70
     1
102
RTVSPropertyOp10
 70
     1
102
RTVSPropertyOp11
 70
     1
102
RTVSPropertyOp12
 70
     1
102
RTVSPropertyOp13
 70
     1
102
RTVSPropertyOp14
 70
     1
102
RTVSPropertyOp15
 70
     1
102
RTVSPropertyOp16
 70
     1
102
RTVSPropertyOp17
 70
     1
102
RTVSPropertyOp18
 70
     1
102
RTVSPropertyOp19
 70
     1
102
RTVSPropertyOp20
 70
     1
102
RTVSPropertyOp21
 70
     1
102
RTVSPropertyOp22
 70
     1
102
RTVSPropertyOp23
 70
     1
102
RTVSPropertyOp24
 70
     1
102
RTVSPropertyOp25
 70
     1
102
RTVSPropertyOp26
 70
     1
102
RTVSPropertyOp27
 70
     1
102
RTVSPropertyOp28
 70
     1
102
RTVSPropertyOp29
 70
     1
102
RTVSPropertyOp30
 70
     1
102
RTVSPropertyOp31
 70
     1
102
RTVSPropertyOp32
 70
     1
102
RTVSPropertyOp33
 70
     1
102
RTVSPropertyOp34
 70
     1
102
RTVSPropertyOp35
 70
     1
102
RTVSPropertyOp36
 70
     1
102
RTVSPropertyOp37
 70
     1
102
RTVSPropertyOp38
 70
     1
102
RTVSPropertyOp39
 70
     1
102
RTVSPropertyOp40
 70
     1
102
RTVSPropertyOp41
 70
     1
102
RTVSPropertyOp42
 70
     1
102
RTVSPropertyOp43
 70
     1
102
RTVSPropertyOp44
 70
     1
102
RTVSPropertyOp45
 70
     1
102
RTVSPropertyOp46
 70
     1
102
RTVSPropertyOp47
 70
     1
102
RTVSPropertyOp48
 70
     1
102
RTVSPropertyOp49
 70
     1
102
RTVSPropertyOp50
 70
     1
102
RTVSPropertyOp51
 70
     0
102
RTVSPropertyOp52
 70
     0
102
RTVSPropertyOp53
 70
     1
102
RTVSPropertyOp54
 70
     1
102
RTVSPropertyOp55
 70
     1
102
RTVSPropertyOp56
 70
     1
102
RTVSPropertyOp57
 70
     1
102
RTVSPropertyOp58
 70
     1
102
RTVSPropertyOp59
 70
     1
102
RTVSPropertyOp60
 70
     1
102
RTVSPropertyOp61
 70
     1
102
RTVSPropertyOp62
 70
     1
  0
XRECORD
  5
1292
102
{ACAD_REACTORS
330
1291
102
}
330
1291
100
AcDbXrecord
280
     1
102
RTVSPost2010Prop28
280
     0
102
RTVSPost2010PropOp28
 70
     1
102
RTVSPost2010Prop29
280
     1
102
RTVSPost2010PropOp29
 70
     1
102
RTVSPost2010Prop30
280
     1
102
RTVSPost2010PropOp30
 70
     1
102
RTVSPost2010Prop31
280
     0
102
RTVSPost2010PropOp31
 70
     1
102
RTVSPost2010Prop32
280
     0
102
RTVSPost2010PropOp32
 70
     1
102
RTVSPost2010Prop33
280
     0
102
RTVSPost2010PropOp33
 70
     1
102
RTVSPost2010Prop34
280
     0
102
RTVSPost2010PropOp34
 70
     1
102
RTVSPost2010Prop35
280
     0
102
RTVSPost2010PropOp35
 70
     1
102
RTVSPost2010Prop36
280
     0
102
RTVSPost2010PropOp36
 70
     1
102
RTVSPost2010Prop37
 90
       50
102
RTVSPost2010PropOp37
 70
     1
102
RTVSPost2010Prop38
140
0.0
102
RTVSPost2010PropOp38
 70
     1
102
RTVSPost2010Prop39
140
1.0
102
RTVSPost2010PropOp39
 70
     1
102
RTVSPost2010Prop40
 90
        0
102
RTVSPost2010PropOp40
 70
     1
102
RTVSPost2010Prop41ColorIndex
 90
       18
102
RTVSPost2010Prop41ColorRGB
 90
        0
102
RTVSPost2010PropOp41
 70
     1
102
RTVSPost2010Prop42
 90
       50
102
RTVSPost2010PropOp42
 70
     1
102
RTVSPost2010Prop43
 90
        3
102
RTVSPost2010PropOp43
 70
     1
102
RTVSPost2010Prop44ColorIndex
 90
        5
102
RTVSPost2010Prop44ColorRGB
 90
      255
102
RTVSPost2010PropOp44
 70
     1
102
RTVSPost2010Prop45
280
     0
102
RTVSPost2010PropOp45
 70
     1
102
RTVSPost2010Prop46
 90
       50
102
RTVSPost2010PropOp46
 70
     1
102
RTVSPost2010Prop47
 90
       50
102
RTVSPost2010PropOp47
 70
     1
102
RTVSPost2010Prop48
 90
       50
102
RTVSPost2010PropOp48
 70
     1
102
RTVSPost2010Prop49
280
     0
102
RTVSPost2010PropOp49
 70
     1
102
RTVSPost2010Prop50
 90
       50
102
RTVSPost2010PropOp50
 70
     1
102
RTVSPost2010Prop51ColorIndex
 90
      256
102
RTVSPost2010Prop51ColorRGB
 90
-16777216
102
RTVSPost2010PropOp51
 70
     0
102
RTVSPost2010Prop52
140
1.0
102
RTVSPost2010PropOp52
 70
     0
102
RTVSPost2010Prop53
 90
        2
102
RTVSPost2010PropOp53
 70
     1
102
RTVSPost2010Prop54
  1
strokes_ogs.tif
102
RTVSPost2010PropOp54
 70
     1
102
RTVSPost2010Prop55
280
     0
102
RTVSPost2010PropOp55
 70
     1
102
RTVSPost2010Prop56
140
1.0
102
RTVSPost2010PropOp56
 70
     1
102
RTVSPost2010Prop57
140
1.0
102
RTVSPost2010PropOp57
 70
     1
102
RTVSPropertyOp0
 70
     1
102
RTVSPropertyOp1
 70
     1
102
RTVSPropertyOp2
 70
     1
102
RTVSPropertyOp3
 70
     1
102
RTVSPropertyOp4
 70
     1
102
RTVSPropertyOp5
 70
     1
102
RTVSPropertyOp6
 70
     1
102
RTVSPropertyOp7
 70
     1
102
RTVSPropertyOp8
 70
     1
102
RTVSPropertyOp9
 70
     1
102
RTVSPropertyOp10
 70
     1
102
RTVSPropertyOp11
 70
     1
102
RTVSPropertyOp12
 70
     1
102
RTVSPropertyOp13
 70
     1
102
RTVSPropertyOp14
 70
     1
102
RTVSPropertyOp15
 70
     1
102
RTVSPropertyOp16
 70
     1
102
RTVSPropertyOp17
 70
     1
102
RTVSPropertyOp18
 70
     1
102
RTVSPropertyOp19
 70
     1
102
RTVSPropertyOp20
 70
     1
102
RTVSPropertyOp21
 70
     1
102
RTVSPropertyOp22
 70
     1
102
RTVSPropertyOp23
 70
     1
102
RTVSPropertyOp24
 70
     1
102
RTVSPropertyOp25
 70
     1
102
RTVSPropertyOp26
 70
     1
102
RTVSPropertyOp27
 70
     1
102
RTVSPropertyOp28
 70
     1
102
RTVSPropertyOp29
 70
     1
102
RTVSPropertyOp30
 70
     1
102
RTVSPropertyOp31
 70
     1
102
RTVSPropertyOp32
 70
     1
102
RTVSPropertyOp33
 70
     1
102
RTVSPropertyOp34
 70
     1
102
RTVSPropertyOp35
 70
     1
102
RTVSPropertyOp36
 70
     1
102
RTVSPropertyOp37
 70
     1
102
RTVSPropertyOp38
 70
     1
102
RTVSPropertyOp39
 70
     1
102
RTVSPropertyOp40
 70
     1
102
RTVSPropertyOp41
 70
     1
102
RTVSPropertyOp42
 70
     1
102
RTVSPropertyOp43
 70
     1
102
RTVSPropertyOp44
 70
     1
102
RTVSPropertyOp45
 70
     1
102
RTVSPropertyOp46
 70
     1
102
RTVSPropertyOp47
 70
     1
102
RTVSPropertyOp48
 70
     1
102
RTVSPropertyOp49
 70
     1
102
RTVSPropertyOp50
 70
     1
102
RTVSPropertyOp51
 70
     0
102
RTVSPropertyOp52
 70
     0
102
RTVSPropertyOp53
 70
     1
102
RTVSPropertyOp54
 70
     1
102
RTVSPropertyOp55
 70
     1
102
RTVSPropertyOp56
 70
     1
102
RTVSPropertyOp57
 70
     1
102
RTVSPropertyOp58
 70
     1
102
RTVSPropertyOp59
 70
     1
102
RTVSPropertyOp60
 70
     1
102
RTVSPropertyOp61
 70
     1
102
RTVSPropertyOp62
 70
     1
  0
XRECORD
  5
1294
102
{ACAD_REACTORS
330
1293
102
}
330
1293
100
AcDbXrecord
280
     1
102
RTVSPost2010Prop28
280
     0
102
RTVSPost2010PropOp28
 70
     1
102
RTVSPost2010Prop29
280
     1
102
RTVSPost2010PropOp29
 70
     1
102
RTVSPost2010Prop30
280
     1
102
RTVSPost2010PropOp30
 70
     1
102
RTVSPost2010Prop31
280
     0
102
RTVSPost2010PropOp31
 70
     1
102
RTVSPost2010Prop32
280
     0
102
RTVSPost2010PropOp32
 70
     1
102
RTVSPost2010Prop33
280
     0
102
RTVSPost2010PropOp33
 70
     1
102
RTVSPost2010Prop34
280
     0
102
RTVSPost2010PropOp34
 70
     1
102
RTVSPost2010Prop35
280
     0
102
RTVSPost2010PropOp35
 70
     1
102
RTVSPost2010Prop36
280
     0
102
RTVSPost2010PropOp36
 70
     1
102
RTVSPost2010Prop37
 90
       50
102
RTVSPost2010PropOp37
 70
     1
102
RTVSPost2010Prop38
140
0.0
102
RTVSPost2010PropOp38
 70
     1
102
RTVSPost2010Prop39
140
1.0
102
RTVSPost2010PropOp39
 70
     1
102
RTVSPost2010Prop40
 90
        0
102
RTVSPost2010PropOp40
 70
     1
102
RTVSPost2010Prop41ColorIndex
 90
       18
102
RTVSPost2010Prop41ColorRGB
 90
        0
102
RTVSPost2010PropOp41
 70
     1
102
RTVSPost2010Prop42
 90
       50
102
RTVSPost2010PropOp42
 70
     1
102
RTVSPost2010Prop43
 90
        3
102
RTVSPost2010PropOp43
 70
     1
102
RTVSPost2010Prop44ColorIndex
 90
        5
102
RTVSPost2010Prop44ColorRGB
 90
      255
102
RTVSPost2010PropOp44
 70
     1
102
RTVSPost2010Prop45
280
     0
102
RTVSPost2010PropOp45
 70
     1
102
RTVSPost2010Prop46
 90
       50
102
RTVSPost2010PropOp46
 70
     1
102
RTVSPost2010Prop47
 90
       50
102
RTVSPost2010PropOp47
 70
     1
102
RTVSPost2010Prop48
 90
       50
102
RTVSPost2010PropOp48
 70
     1
102
RTVSPost2010Prop49
280
     0
102
RTVSPost2010PropOp49
 70
     1
102
RTVSPost2010Prop50
 90
       50
102
RTVSPost2010PropOp50
 70
     1
102
RTVSPost2010Prop51ColorIndex
 90
      256
102
RTVSPost2010Prop51ColorRGB
 90
-16777216
102
RTVSPost2010PropOp51
 70
     0
102
RTVSPost2010Prop52
140
1.0
102
RTVSPost2010PropOp52
 70
     0
102
RTVSPost2010Prop53
 90
        2
102
RTVSPost2010PropOp53
 70
     1
102
RTVSPost2010Prop54
  1
strokes_ogs.tif
102
RTVSPost2010PropOp54
 70
     1
102
RTVSPost2010Prop55
280
     0
102
RTVSPost2010PropOp55
 70
     1
102
RTVSPost2010Prop56
140
1.0
102
RTVSPost2010PropOp56
 70
     1
102
RTVSPost2010Prop57
140
1.0
102
RTVSPost2010PropOp57
 70
     1
102
RTVSPropertyOp0
 70
     1
102
RTVSPropertyOp1
 70
     1
102
RTVSPropertyOp2
 70
     1
102
RTVSPropertyOp3
 70
     1
102
RTVSPropertyOp4
 70
     1
102
RTVSPropertyOp5
 70
     1
102
RTVSPropertyOp6
 70
     1
102
RTVSPropertyOp7
 70
     1
102
RTVSPropertyOp8
 70
     1
102
RTVSPropertyOp9
 70
     1
102
RTVSPropertyOp10
 70
     1
102
RTVSPropertyOp11
 70
     1
102
RTVSPropertyOp12
 70
     1
102
RTVSPropertyOp13
 70
     1
102
RTVSPropertyOp14
 70
     1
102
RTVSPropertyOp15
 70
     1
102
RTVSPropertyOp16
 70
     1
102
RTVSPropertyOp17
 70
     1
102
RTVSPropertyOp18
 70
     1
102
RTVSPropertyOp19
 70
     1
102
RTVSPropertyOp20
 70
     1
102
RTVSPropertyOp21
 70
     1
102
RTVSPropertyOp22
 70
     1
102
RTVSPropertyOp23
 70
     1
102
RTVSPropertyOp24
 70
     1
102
RTVSPropertyOp25
 70
     1
102
RTVSPropertyOp26
 70
     1
102
RTVSPropertyOp27
 70
     1
102
RTVSPropertyOp28
 70
     1
102
RTVSPropertyOp29
 70
     1
102
RTVSPropertyOp30
 70
     1
102
RTVSPropertyOp31
 70
     1
102
RTVSPropertyOp32
 70
     1
102
RTVSPropertyOp33
 70
     1
102
RTVSPropertyOp34
 70
     1
102
RTVSPropertyOp35
 70
     1
102
RTVSPropertyOp36
 70
     1
102
RTVSPropertyOp37
 70
     1
102
RTVSPropertyOp38
 70
     1
102
RTVSPropertyOp39
 70
     1
102
RTVSPropertyOp40
 70
     1
102
RTVSPropertyOp41
 70
     1
102
RTVSPropertyOp42
 70
     1
102
RTVSPropertyOp43
 70
     1
102
RTVSPropertyOp44
 70
     1
102
RTVSPropertyOp45
 70
     1
102
RTVSPropertyOp46
 70
     1
102
RTVSPropertyOp47
 70
     1
102
RTVSPropertyOp48
 70
     1
102
RTVSPropertyOp49
 70
     1
102
RTVSPropertyOp50
 70
     1
102
RTVSPropertyOp51
 70
     0
102
RTVSPropertyOp52
 70
     0
102
RTVSPropertyOp53
 70
     1
102
RTVSPropertyOp54
 70
     1
102
RTVSPropertyOp55
 70
     1
102
RTVSPropertyOp56
 70
     1
102
RTVSPropertyOp57
 70
     1
102
RTVSPropertyOp58
 70
     1
102
RTVSPropertyOp59
 70
     1
102
RTVSPropertyOp60
 70
     1
102
RTVSPropertyOp61
 70
     1
102
RTVSPropertyOp62
 70
     1
  0
XRECORD
  5
1296
102
{ACAD_REACTORS
330
1295
102
}
330
1295
100
AcDbXrecord
280
     1
102
RTVSPost2010Prop28
280
     0
102
RTVSPost2010PropOp28
 70
     1
102
RTVSPost2010Prop29
280
     1
102
RTVSPost2010PropOp29
 70
     1
102
RTVSPost2010Prop30
280
     1
102
RTVSPost2010PropOp30
 70
     1
102
RTVSPost2010Prop31
280
     0
102
RTVSPost2010PropOp31
 70
     1
102
RTVSPost2010Prop32
280
     0
102
RTVSPost2010PropOp32
 70
     1
102
RTVSPost2010Prop33
280
     0
102
RTVSPost2010PropOp33
 70
     1
102
RTVSPost2010Prop34
280
     0
102
RTVSPost2010PropOp34
 70
     1
102
RTVSPost2010Prop35
280
     0
102
RTVSPost2010PropOp35
 70
     1
102
RTVSPost2010Prop36
280
     0
102
RTVSPost2010PropOp36
 70
     1
102
RTVSPost2010Prop37
 90
       50
102
RTVSPost2010PropOp37
 70
     1
102
RTVSPost2010Prop38
140
0.0
102
RTVSPost2010PropOp38
 70
     1
102
RTVSPost2010Prop39
140
1.0
102
RTVSPost2010PropOp39
 70
     1
102
RTVSPost2010Prop40
 90
        0
102
RTVSPost2010PropOp40
 70
     1
102
RTVSPost2010Prop41ColorIndex
 90
       18
102
RTVSPost2010Prop41ColorRGB
 90
        0
102
RTVSPost2010PropOp41
 70
     1
102
RTVSPost2010Prop42
 90
       50
102
RTVSPost2010PropOp42
 70
     1
102
RTVSPost2010Prop43
 90
        3
102
RTVSPost2010PropOp43
 70
     1
102
RTVSPost2010Prop44ColorIndex
 90
        5
102
RTVSPost2010Prop44ColorRGB
 90
      255
102
RTVSPost2010PropOp44
 70
     1
102
RTVSPost2010Prop45
280
     0
102
RTVSPost2010PropOp45
 70
     1
102
RTVSPost2010Prop46
 90
       50
102
RTVSPost2010PropOp46
 70
     1
102
RTVSPost2010Prop47
 90
       50
102
RTVSPost2010PropOp47
 70
     1
102
RTVSPost2010Prop48
 90
       50
102
RTVSPost2010PropOp48
 70
     1
102
RTVSPost2010Prop49
280
     0
102
RTVSPost2010PropOp49
 70
     1
102
RTVSPost2010Prop50
 90
       50
102
RTVSPost2010PropOp50
 70
     1
102
RTVSPost2010Prop51ColorIndex
 90
      256
102
RTVSPost2010Prop51ColorRGB
 90
-16777216
102
RTVSPost2010PropOp51
 70
     0
102
RTVSPost2010Prop52
140
1.0
102
RTVSPost2010PropOp52
 70
     0
102
RTVSPost2010Prop53
 90
        2
102
RTVSPost2010PropOp53
 70
     1
102
RTVSPost2010Prop54
  1
strokes_ogs.tif
102
RTVSPost2010PropOp54
 70
     1
102
RTVSPost2010Prop55
280
     0
102
RTVSPost2010PropOp55
 70
     1
102
RTVSPost2010Prop56
140
1.0
102
RTVSPost2010PropOp56
 70
     1
102
RTVSPost2010Prop57
140
1.0
102
RTVSPost2010PropOp57
 70
     1
102
RTVSPropertyOp0
 70
     1
102
RTVSPropertyOp1
 70
     1
102
RTVSPropertyOp2
 70
     1
102
RTVSPropertyOp3
 70
     1
102
RTVSPropertyOp4
 70
     1
102
RTVSPropertyOp5
 70
     1
102
RTVSPropertyOp6
 70
     1
102
RTVSPropertyOp7
 70
     1
102
RTVSPropertyOp8
 70
     1
102
RTVSPropertyOp9
 70
     1
102
RTVSPropertyOp10
 70
     1
102
RTVSPropertyOp11
 70
     1
102
RTVSPropertyOp12
 70
     1
102
RTVSPropertyOp13
 70
     1
102
RTVSPropertyOp14
 70
     1
102
RTVSPropertyOp15
 70
     1
102
RTVSPropertyOp16
 70
     1
102
RTVSPropertyOp17
 70
     1
102
RTVSPropertyOp18
 70
     1
102
RTVSPropertyOp19
 70
     1
102
RTVSPropertyOp20
 70
     1
102
RTVSPropertyOp21
 70
     1
102
RTVSPropertyOp22
 70
     1
102
RTVSPropertyOp23
 70
     1
102
RTVSPropertyOp24
 70
     1
102
RTVSPropertyOp25
 70
     1
102
RTVSPropertyOp26
 70
     1
102
RTVSPropertyOp27
 70
     1
102
RTVSPropertyOp28
 70
     1
102
RTVSPropertyOp29
 70
     1
102
RTVSPropertyOp30
 70
     1
102
RTVSPropertyOp31
 70
     1
102
RTVSPropertyOp32
 70
     1
102
RTVSPropertyOp33
 70
     1
102
RTVSPropertyOp34
 70
     1
102
RTVSPropertyOp35
 70
     1
102
RTVSPropertyOp36
 70
     1
102
RTVSPropertyOp37
 70
     1
102
RTVSPropertyOp38
 70
     1
102
RTVSPropertyOp39
 70
     1
102
RTVSPropertyOp40
 70
     1
102
RTVSPropertyOp41
 70
     1
102
RTVSPropertyOp42
 70
     1
102
RTVSPropertyOp43
 70
     1
102
RTVSPropertyOp44
 70
     1
102
RTVSPropertyOp45
 70
     1
102
RTVSPropertyOp46
 70
     1
102
RTVSPropertyOp47
 70
     1
102
RTVSPropertyOp48
 70
     1
102
RTVSPropertyOp49
 70
     1
102
RTVSPropertyOp50
 70
     1
102
RTVSPropertyOp51
 70
     0
102
RTVSPropertyOp52
 70
     0
102
RTVSPropertyOp53
 70
     1
102
RTVSPropertyOp54
 70
     1
102
RTVSPropertyOp55
 70
     1
102
RTVSPropertyOp56
 70
     1
102
RTVSPropertyOp57
 70
     1
102
RTVSPropertyOp58
 70
     1
102
RTVSPropertyOp59
 70
     1
102
RTVSPropertyOp60
 70
     1
102
RTVSPropertyOp61
 70
     1
102
RTVSPropertyOp62
 70
     1
  0
XRECORD
  5
129E
102
{ACAD_REACTORS
330
129D
102
}
330
129D
100
AcDbXrecord
280
     1
102
RTVSPost2010Prop28
280
     0
102
RTVSPost2010PropOp28
 70
     1
102
RTVSPost2010Prop29
280
     1
102
RTVSPost2010PropOp29
 70
     1
102
RTVSPost2010Prop30
280
     1
102
RTVSPost2010PropOp30
 70
     1
102
RTVSPost2010Prop31
280
     0
102
RTVSPost2010PropOp31
 70
     1
102
RTVSPost2010Prop32
280
     0
102
RTVSPost2010PropOp32
 70
     1
102
RTVSPost2010Prop33
280
     0
102
RTVSPost2010PropOp33
 70
     1
102
RTVSPost2010Prop34
280
     0
102
RTVSPost2010PropOp34
 70
     1
102
RTVSPost2010Prop35
280
     0
102
RTVSPost2010PropOp35
 70
     1
102
RTVSPost2010Prop36
280
     0
102
RTVSPost2010PropOp36
 70
     1
102
RTVSPost2010Prop37
 90
       50
102
RTVSPost2010PropOp37
 70
     1
102
RTVSPost2010Prop38
140
0.0
102
RTVSPost2010PropOp38
 70
     1
102
RTVSPost2010Prop39
140
1.0
102
RTVSPost2010PropOp39
 70
     1
102
RTVSPost2010Prop40
 90
        0
102
RTVSPost2010PropOp40
 70
     1
102
RTVSPost2010Prop41ColorIndex
 90
       18
102
RTVSPost2010Prop41ColorRGB
 90
        0
102
RTVSPost2010PropOp41
 70
     1
102
RTVSPost2010Prop42
 90
       50
102
RTVSPost2010PropOp42
 70
     1
102
RTVSPost2010Prop43
 90
        3
102
RTVSPost2010PropOp43
 70
     1
102
RTVSPost2010Prop44ColorIndex
 90
        5
102
RTVSPost2010Prop44ColorRGB
 90
      255
102
RTVSPost2010PropOp44
 70
     1
102
RTVSPost2010Prop45
280
     0
102
RTVSPost2010PropOp45
 70
     1
102
RTVSPost2010Prop46
 90
       50
102
RTVSPost2010PropOp46
 70
     1
102
RTVSPost2010Prop47
 90
       50
102
RTVSPost2010PropOp47
 70
     1
102
RTVSPost2010Prop48
 90
       50
102
RTVSPost2010PropOp48
 70
     1
102
RTVSPost2010Prop49
280
     0
102
RTVSPost2010PropOp49
 70
     1
102
RTVSPost2010Prop50
 90
       50
102
RTVSPost2010PropOp50
 70
     1
102
RTVSPost2010Prop51ColorIndex
 90
      256
102
RTVSPost2010Prop51ColorRGB
 90
-16777216
102
RTVSPost2010PropOp51
 70
     0
102
RTVSPost2010Prop52
140
1.0
102
RTVSPost2010PropOp52
 70
     0
102
RTVSPost2010Prop53
 90
        2
102
RTVSPost2010PropOp53
 70
     1
102
RTVSPost2010Prop54
  1
strokes_ogs.tif
102
RTVSPost2010PropOp54
 70
     1
102
RTVSPost2010Prop55
280
     0
102
RTVSPost2010PropOp55
 70
     1
102
RTVSPost2010Prop56
140
1.0
102
RTVSPost2010PropOp56
 70
     1
102
RTVSPost2010Prop57
140
1.0
102
RTVSPost2010PropOp57
 70
     1
102
RTVSPropertyOp0
 70
     1
102
RTVSPropertyOp1
 70
     1
102
RTVSPropertyOp2
 70
     1
102
RTVSPropertyOp3
 70
     1
102
RTVSPropertyOp4
 70
     1
102
RTVSPropertyOp5
 70
     1
102
RTVSPropertyOp6
 70
     1
102
RTVSPropertyOp7
 70
     1
102
RTVSPropertyOp8
 70
     1
102
RTVSPropertyOp9
 70
     1
102
RTVSPropertyOp10
 70
     1
102
RTVSPropertyOp11
 70
     1
102
RTVSPropertyOp12
 70
     1
102
RTVSPropertyOp13
 70
     1
102
RTVSPropertyOp14
 70
     1
102
RTVSPropertyOp15
 70
     1
102
RTVSPropertyOp16
 70
     1
102
RTVSPropertyOp17
 70
     1
102
RTVSPropertyOp18
 70
     1
102
RTVSPropertyOp19
 70
     1
102
RTVSPropertyOp20
 70
     1
102
RTVSPropertyOp21
 70
     1
102
RTVSPropertyOp22
 70
     1
102
RTVSPropertyOp23
 70
     1
102
RTVSPropertyOp24
 70
     1
102
RTVSPropertyOp25
 70
     1
102
RTVSPropertyOp26
 70
     1
102
RTVSPropertyOp27
 70
     1
102
RTVSPropertyOp28
 70
     1
102
RTVSPropertyOp29
 70
     1
102
RTVSPropertyOp30
 70
     1
102
RTVSPropertyOp31
 70
     1
102
RTVSPropertyOp32
 70
     1
102
RTVSPropertyOp33
 70
     1
102
RTVSPropertyOp34
 70
     1
102
RTVSPropertyOp35
 70
     1
102
RTVSPropertyOp36
 70
     1
102
RTVSPropertyOp37
 70
     1
102
RTVSPropertyOp38
 70
     1
102
RTVSPropertyOp39
 70
     1
102
RTVSPropertyOp40
 70
     1
102
RTVSPropertyOp41
 70
     1
102
RTVSPropertyOp42
 70
     1
102
RTVSPropertyOp43
 70
     1
102
RTVSPropertyOp44
 70
     1
102
RTVSPropertyOp45
 70
     1
102
RTVSPropertyOp46
 70
     1
102
RTVSPropertyOp47
 70
     1
102
RTVSPropertyOp48
 70
     1
102
RTVSPropertyOp49
 70
     1
102
RTVSPropertyOp50
 70
     1
102
RTVSPropertyOp51
 70
     0
102
RTVSPropertyOp52
 70
     0
102
RTVSPropertyOp53
 70
     1
102
RTVSPropertyOp54
 70
     1
102
RTVSPropertyOp55
 70
     1
102
RTVSPropertyOp56
 70
     1
102
RTVSPropertyOp57
 70
     1
102
RTVSPropertyOp58
 70
     1
102
RTVSPropertyOp59
 70
     1
102
RTVSPropertyOp60
 70
     1
102
RTVSPropertyOp61
 70
     1
102
RTVSPropertyOp62
 70
     1
  0
XRECORD
  5
12BA
102
{ACAD_REACTORS
330
12B9
102
}
330
12B9
100
AcDbXrecord
280
     1
102
RTVSPost2010Prop28
280
     0
102
RTVSPost2010PropOp28
 70
     1
102
RTVSPost2010Prop29
280
     1
102
RTVSPost2010PropOp29
 70
     1
102
RTVSPost2010Prop30
280
     1
102
RTVSPost2010PropOp30
 70
     1
102
RTVSPost2010Prop31
280
     0
102
RTVSPost2010PropOp31
 70
     1
102
RTVSPost2010Prop32
280
     0
102
RTVSPost2010PropOp32
 70
     1
102
RTVSPost2010Prop33
280
     0
102
RTVSPost2010PropOp33
 70
     1
102
RTVSPost2010Prop34
280
     0
102
RTVSPost2010PropOp34
 70
     1
102
RTVSPost2010Prop35
280
     0
102
RTVSPost2010PropOp35
 70
     1
102
RTVSPost2010Prop36
280
     0
102
RTVSPost2010PropOp36
 70
     1
102
RTVSPost2010Prop37
 90
       50
102
RTVSPost2010PropOp37
 70
     0
102
RTVSPost2010Prop38
140
0.0
102
RTVSPost2010PropOp38
 70
     0
102
RTVSPost2010Prop39
140
1.0
102
RTVSPost2010PropOp39
 70
     0
102
RTVSPost2010Prop40
 90
        0
102
RTVSPost2010PropOp40
 70
     0
102
RTVSPost2010Prop41ColorIndex
 90
       18
102
RTVSPost2010Prop41ColorRGB
 90
        0
102
RTVSPost2010PropOp41
 70
     0
102
RTVSPost2010Prop42
 90
       50
102
RTVSPost2010PropOp42
 70
     0
102
RTVSPost2010Prop43
 90
        3
102
RTVSPost2010PropOp43
 70
     0
102
RTVSPost2010Prop44ColorIndex
 90
        5
102
RTVSPost2010Prop44ColorRGB
 90
      255
102
RTVSPost2010PropOp44
 70
     0
102
RTVSPost2010Prop45
280
     0
102
RTVSPost2010PropOp45
 70
     1
102
RTVSPost2010Prop46
 90
       50
102
RTVSPost2010PropOp46
 70
     0
102
RTVSPost2010Prop47
 90
       50
102
RTVSPost2010PropOp47
 70
     0
102
RTVSPost2010Prop48
 90
       50
102
RTVSPost2010PropOp48
 70
     0
102
RTVSPost2010Prop49
280
     0
102
RTVSPost2010PropOp49
 70
     1
102
RTVSPost2010Prop50
 90
       50
102
RTVSPost2010PropOp50
 70
     0
102
RTVSPost2010Prop51ColorIndex
 90
      256
102
RTVSPost2010Prop51ColorRGB
 90
-16777216
102
RTVSPost2010PropOp51
 70
     0
102
RTVSPost2010Prop52
140
1.0
102
RTVSPost2010PropOp52
 70
     0
102
RTVSPost2010Prop53
 90
        2
102
RTVSPost2010PropOp53
 70
     0
102
RTVSPost2010Prop54
  1
strokes_ogs.tif
102
RTVSPost2010PropOp54
 70
     0
102
RTVSPost2010Prop55
280
     0
102
RTVSPost2010PropOp55
 70
     1
102
RTVSPost2010Prop56
140
1.0
102
RTVSPost2010PropOp56
 70
     0
102
RTVSPost2010Prop57
140
1.0
102
RTVSPost2010PropOp57
 70
     0
102
RTVSPropertyOp0
 70
     0
102
RTVSPropertyOp1
 70
     0
102
RTVSPropertyOp2
 70
     0
102
RTVSPropertyOp3
 70
     0
102
RTVSPropertyOp4
 70
     0
102
RTVSPropertyOp5
 70
     0
102
RTVSPropertyOp6
 70
     0
102
RTVSPropertyOp7
 70
     0
102
RTVSPropertyOp8
 70
     0
102
RTVSPropertyOp9
 70
     0
102
RTVSPropertyOp10
 70
     0
102
RTVSPropertyOp11
 70
     0
102
RTVSPropertyOp12
 70
     0
102
RTVSPropertyOp13
 70
     0
102
RTVSPropertyOp14
 70
     2
102
RTVSPropertyOp15
 70
     0
102
RTVSPropertyOp16
 70
     0
102
RTVSPropertyOp17
 70
     0
102
RTVSPropertyOp18
 70
     0
102
RTVSPropertyOp19
 70
     0
102
RTVSPropertyOp20
 70
     0
102
RTVSPropertyOp21
 70
     0
102
RTVSPropertyOp22
 70
     0
102
RTVSPropertyOp23
 70
     0
102
RTVSPropertyOp24
 70
     0
102
RTVSPropertyOp25
 70
     0
102
RTVSPropertyOp26
 70
     0
102
RTVSPropertyOp27
 70
     0
102
RTVSPropertyOp28
 70
     1
102
RTVSPropertyOp29
 70
     1
102
RTVSPropertyOp30
 70
     1
102
RTVSPropertyOp31
 70
     1
102
RTVSPropertyOp32
 70
     1
102
RTVSPropertyOp33
 70
     1
102
RTVSPropertyOp34
 70
     1
102
RTVSPropertyOp35
 70
     1
102
RTVSPropertyOp36
 70
     1
102
RTVSPropertyOp37
 70
     0
102
RTVSPropertyOp38
 70
     0
102
RTVSPropertyOp39
 70
     0
102
RTVSPropertyOp40
 70
     0
102
RTVSPropertyOp41
 70
     0
102
RTVSPropertyOp42
 70
     0
102
RTVSPropertyOp43
 70
     0
102
RTVSPropertyOp44
 70
     0
102
RTVSPropertyOp45
 70
     1
102
RTVSPropertyOp46
 70
     0
102
RTVSPropertyOp47
 70
     0
102
RTVSPropertyOp48
 70
     0
102
RTVSPropertyOp49
 70
     1
102
RTVSPropertyOp50
 70
     0
102
RTVSPropertyOp51
 70
     0
102
RTVSPropertyOp52
 70
     0
102
RTVSPropertyOp53
 70
     0
102
RTVSPropertyOp54
 70
     0
102
RTVSPropertyOp55
 70
     1
102
RTVSPropertyOp56
 70
     0
102
RTVSPropertyOp57
 70
     0
102
RTVSPropertyOp58
 70
     0
102
RTVSPropertyOp59
 70
     0
102
RTVSPropertyOp60
 70
     0
102
RTVSPropertyOp61
 70
     0
102
RTVSPropertyOp62
 70
     0
  0
XRECORD
  5
12AA
102
{ACAD_REACTORS
330
12A9
102
}
330
12A9
100
AcDbXrecord
280
     1
102
RTVSPost2010Prop28
280
     0
102
RTVSPost2010PropOp28
 70
     1
102
RTVSPost2010Prop29
280
     1
102
RTVSPost2010PropOp29
 70
     1
102
RTVSPost2010Prop30
280
     1
102
RTVSPost2010PropOp30
 70
     1
102
RTVSPost2010Prop31
280
     0
102
RTVSPost2010PropOp31
 70
     1
102
RTVSPost2010Prop32
280
     0
102
RTVSPost2010PropOp32
 70
     1
102
RTVSPost2010Prop33
280
     0
102
RTVSPost2010PropOp33
 70
     1
102
RTVSPost2010Prop34
280
     0
102
RTVSPost2010PropOp34
 70
     1
102
RTVSPost2010Prop35
280
     0
102
RTVSPost2010PropOp35
 70
     1
102
RTVSPost2010Prop36
280
     0
102
RTVSPost2010PropOp36
 70
     1
102
RTVSPost2010Prop37
 90
       50
102
RTVSPost2010PropOp37
 70
     1
102
RTVSPost2010Prop38
140
0.0
102
RTVSPost2010PropOp38
 70
     1
102
RTVSPost2010Prop39
140
1.0
102
RTVSPost2010PropOp39
 70
     1
102
RTVSPost2010Prop40
 90
        0
102
RTVSPost2010PropOp40
 70
     1
102
RTVSPost2010Prop41ColorIndex
 90
       18
102
RTVSPost2010Prop41ColorRGB
 90
        0
102
RTVSPost2010PropOp41
 70
     1
102
RTVSPost2010Prop42
 90
       50
102
RTVSPost2010PropOp42
 70
     1
102
RTVSPost2010Prop43
 90
        3
102
RTVSPost2010PropOp43
 70
     1
102
RTVSPost2010Prop44ColorIndex
 90
        5
102
RTVSPost2010Prop44ColorRGB
 90
      255
102
RTVSPost2010PropOp44
 70
     1
102
RTVSPost2010Prop45
280
     0
102
RTVSPost2010PropOp45
 70
     1
102
RTVSPost2010Prop46
 90
       50
102
RTVSPost2010PropOp46
 70
     1
102
RTVSPost2010Prop47
 90
       50
102
RTVSPost2010PropOp47
 70
     1
102
RTVSPost2010Prop48
 90
       50
102
RTVSPost2010PropOp48
 70
     1
102
RTVSPost2010Prop49
280
     0
102
RTVSPost2010PropOp49
 70
     1
102
RTVSPost2010Prop50
 90
       50
102
RTVSPost2010PropOp50
 70
     1
102
RTVSPost2010Prop51ColorIndex
 90
      256
102
RTVSPost2010Prop51ColorRGB
 90
-16777216
102
RTVSPost2010PropOp51
 70
     0
102
RTVSPost2010Prop52
140
1.0
102
RTVSPost2010PropOp52
 70
     0
102
RTVSPost2010Prop53
 90
        2
102
RTVSPost2010PropOp53
 70
     1
102
RTVSPost2010Prop54
  1
strokes_ogs.tif
102
RTVSPost2010PropOp54
 70
     1
102
RTVSPost2010Prop55
280
     0
102
RTVSPost2010PropOp55
 70
     1
102
RTVSPost2010Prop56
140
1.0
102
RTVSPost2010PropOp56
 70
     1
102
RTVSPost2010Prop57
140
1.0
102
RTVSPost2010PropOp57
 70
     1
102
RTVSPropertyOp0
 70
     1
102
RTVSPropertyOp1
 70
     1
102
RTVSPropertyOp2
 70
     1
102
RTVSPropertyOp3
 70
     1
102
RTVSPropertyOp4
 70
     1
102
RTVSPropertyOp5
 70
     1
102
RTVSPropertyOp6
 70
     1
102
RTVSPropertyOp7
 70
     1
102
RTVSPropertyOp8
 70
     1
102
RTVSPropertyOp9
 70
     1
102
RTVSPropertyOp10
 70
     1
102
RTVSPropertyOp11
 70
     1
102
RTVSPropertyOp12
 70
     1
102
RTVSPropertyOp13
 70
     1
102
RTVSPropertyOp14
 70
     1
102
RTVSPropertyOp15
 70
     1
102
RTVSPropertyOp16
 70
     1
102
RTVSPropertyOp17
 70
     1
102
RTVSPropertyOp18
 70
     1
102
RTVSPropertyOp19
 70
     1
102
RTVSPropertyOp20
 70
     1
102
RTVSPropertyOp21
 70
     1
102
RTVSPropertyOp22
 70
     1
102
RTVSPropertyOp23
 70
     1
102
RTVSPropertyOp24
 70
     1
102
RTVSPropertyOp25
 70
     1
102
RTVSPropertyOp26
 70
     1
102
RTVSPropertyOp27
 70
     1
102
RTVSPropertyOp28
 70
     1
102
RTVSPropertyOp29
 70
     1
102
RTVSPropertyOp30
 70
     1
102
RTVSPropertyOp31
 70
     1
102
RTVSPropertyOp32
 70
     1
102
RTVSPropertyOp33
 70
     1
102
RTVSPropertyOp34
 70
     1
102
RTVSPropertyOp35
 70
     1
102
RTVSPropertyOp36
 70
     1
102
RTVSPropertyOp37
 70
     1
102
RTVSPropertyOp38
 70
     1
102
RTVSPropertyOp39
 70
     1
102
RTVSPropertyOp40
 70
     1
102
RTVSPropertyOp41
 70
     1
102
RTVSPropertyOp42
 70
     1
102
RTVSPropertyOp43
 70
     1
102
RTVSPropertyOp44
 70
     1
102
RTVSPropertyOp45
 70
     1
102
RTVSPropertyOp46
 70
     1
102
RTVSPropertyOp47
 70
     1
102
RTVSPropertyOp48
 70
     1
102
RTVSPropertyOp49
 70
     1
102
RTVSPropertyOp50
 70
     1
102
RTVSPropertyOp51
 70
     0
102
RTVSPropertyOp52
 70
     0
102
RTVSPropertyOp53
 70
     1
102
RTVSPropertyOp54
 70
     1
102
RTVSPropertyOp55
 70
     1
102
RTVSPropertyOp56
 70
     1
102
RTVSPropertyOp57
 70
     1
102
RTVSPropertyOp58
 70
     1
102
RTVSPropertyOp59
 70
     1
102
RTVSPropertyOp60
 70
     1
102
RTVSPropertyOp61
 70
     1
102
RTVSPropertyOp62
 70
     1
  0
XRECORD
  5
12BC
102
{ACAD_REACTORS
330
12BB
102
}
330
12BB
100
AcDbXrecord
280
     1
102
RTVSPost2010Prop28
280
     0
102
RTVSPost2010PropOp28
 70
     1
102
RTVSPost2010Prop29
280
     1
102
RTVSPost2010PropOp29
 70
     1
102
RTVSPost2010Prop30
280
     1
102
RTVSPost2010PropOp30
 70
     1
102
RTVSPost2010Prop31
280
     0
102
RTVSPost2010PropOp31
 70
     1
102
RTVSPost2010Prop32
280
     0
102
RTVSPost2010PropOp32
 70
     1
102
RTVSPost2010Prop33
280
     0
102
RTVSPost2010PropOp33
 70
     1
102
RTVSPost2010Prop34
280
     0
102
RTVSPost2010PropOp34
 70
     1
102
RTVSPost2010Prop35
280
     0
102
RTVSPost2010PropOp35
 70
     1
102
RTVSPost2010Prop36
280
     0
102
RTVSPost2010PropOp36
 70
     1
102
RTVSPost2010Prop37
 90
       50
102
RTVSPost2010PropOp37
 70
     0
102
RTVSPost2010Prop38
140
0.0
102
RTVSPost2010PropOp38
 70
     0
102
RTVSPost2010Prop39
140
1.0
102
RTVSPost2010PropOp39
 70
     0
102
RTVSPost2010Prop40
 90
        0
102
RTVSPost2010PropOp40
 70
     0
102
RTVSPost2010Prop41ColorIndex
 90
       18
102
RTVSPost2010Prop41ColorRGB
 90
        0
102
RTVSPost2010PropOp41
 70
     0
102
RTVSPost2010Prop42
 90
       50
102
RTVSPost2010PropOp42
 70
     0
102
RTVSPost2010Prop43
 90
        3
102
RTVSPost2010PropOp43
 70
     0
102
RTVSPost2010Prop44ColorIndex
 90
        5
102
RTVSPost2010Prop44ColorRGB
 90
      255
102
RTVSPost2010PropOp44
 70
     0
102
RTVSPost2010Prop45
280
     0
102
RTVSPost2010PropOp45
 70
     1
102
RTVSPost2010Prop46
 90
       50
102
RTVSPost2010PropOp46
 70
     0
102
RTVSPost2010Prop47
 90
       50
102
RTVSPost2010PropOp47
 70
     0
102
RTVSPost2010Prop48
 90
       50
102
RTVSPost2010PropOp48
 70
     0
102
RTVSPost2010Prop49
280
     0
102
RTVSPost2010PropOp49
 70
     1
102
RTVSPost2010Prop50
 90
       50
102
RTVSPost2010PropOp50
 70
     0
102
RTVSPost2010Prop51ColorIndex
 90
      256
102
RTVSPost2010Prop51ColorRGB
 90
-16777216
102
RTVSPost2010PropOp51
 70
     0
102
RTVSPost2010Prop52
140
1.0
102
RTVSPost2010PropOp52
 70
     0
102
RTVSPost2010Prop53
 90
        2
102
RTVSPost2010PropOp53
 70
     0
102
RTVSPost2010Prop54
  1
strokes_ogs.tif
102
RTVSPost2010PropOp54
 70
     0
102
RTVSPost2010Prop55
280
     0
102
RTVSPost2010PropOp55
 70
     1
102
RTVSPost2010Prop56
140
1.0
102
RTVSPost2010PropOp56
 70
     0
102
RTVSPost2010Prop57
140
1.0
102
RTVSPost2010PropOp57
 70
     0
102
RTVSPropertyOp0
 70
     0
102
RTVSPropertyOp1
 70
     0
102
RTVSPropertyOp2
 70
     0
102
RTVSPropertyOp3
 70
     0
102
RTVSPropertyOp4
 70
     0
102
RTVSPropertyOp5
 70
     0
102
RTVSPropertyOp6
 70
     0
102
RTVSPropertyOp7
 70
     0
102
RTVSPropertyOp8
 70
     0
102
RTVSPropertyOp9
 70
     0
102
RTVSPropertyOp10
 70
     0
102
RTVSPropertyOp11
 70
     0
102
RTVSPropertyOp12
 70
     0
102
RTVSPropertyOp13
 70
     0
102
RTVSPropertyOp14
 70
     2
102
RTVSPropertyOp15
 70
     0
102
RTVSPropertyOp16
 70
     0
102
RTVSPropertyOp17
 70
     0
102
RTVSPropertyOp18
 70
     0
102
RTVSPropertyOp19
 70
     0
102
RTVSPropertyOp20
 70
     0
102
RTVSPropertyOp21
 70
     0
102
RTVSPropertyOp22
 70
     0
102
RTVSPropertyOp23
 70
     0
102
RTVSPropertyOp24
 70
     0
102
RTVSPropertyOp25
 70
     0
102
RTVSPropertyOp26
 70
     0
102
RTVSPropertyOp27
 70
     0
102
RTVSPropertyOp28
 70
     1
102
RTVSPropertyOp29
 70
     1
102
RTVSPropertyOp30
 70
     1
102
RTVSPropertyOp31
 70
     1
102
RTVSPropertyOp32
 70
     1
102
RTVSPropertyOp33
 70
     1
102
RTVSPropertyOp34
 70
     1
102
RTVSPropertyOp35
 70
     1
102
RTVSPropertyOp36
 70
     1
102
RTVSPropertyOp37
 70
     0
102
RTVSPropertyOp38
 70
     0
102
RTVSPropertyOp39
 70
     0
102
RTVSPropertyOp40
 70
     0
102
RTVSPropertyOp41
 70
     0
102
RTVSPropertyOp42
 70
     0
102
RTVSPropertyOp43
 70
     0
102
RTVSPropertyOp44
 70
     0
102
RTVSPropertyOp45
 70
     1
102
RTVSPropertyOp46
 70
     0
102
RTVSPropertyOp47
 70
     0
102
RTVSPropertyOp48
 70
     0
102
RTVSPropertyOp49
 70
     1
102
RTVSPropertyOp50
 70
     0
102
RTVSPropertyOp51
 70
     0
102
RTVSPropertyOp52
 70
     0
102
RTVSPropertyOp53
 70
     0
102
RTVSPropertyOp54
 70
     0
102
RTVSPropertyOp55
 70
     1
102
RTVSPropertyOp56
 70
     0
102
RTVSPropertyOp57
 70
     0
102
RTVSPropertyOp58
 70
     0
102
RTVSPropertyOp59
 70
     0
102
RTVSPropertyOp60
 70
     0
102
RTVSPropertyOp61
 70
     0
102
RTVSPropertyOp62
 70
     0
  0
XRECORD
  5
12A2
102
{ACAD_REACTORS
330
12A1
102
}
330
12A1
100
AcDbXrecord
280
     1
102
RTVSPost2010Prop28
280
     0
102
RTVSPost2010PropOp28
 70
     1
102
RTVSPost2010Prop29
280
     1
102
RTVSPost2010PropOp29
 70
     1
102
RTVSPost2010Prop30
280
     1
102
RTVSPost2010PropOp30
 70
     1
102
RTVSPost2010Prop31
280
     0
102
RTVSPost2010PropOp31
 70
     1
102
RTVSPost2010Prop32
280
     0
102
RTVSPost2010PropOp32
 70
     1
102
RTVSPost2010Prop33
280
     0
102
RTVSPost2010PropOp33
 70
     1
102
RTVSPost2010Prop34
280
     0
102
RTVSPost2010PropOp34
 70
     1
102
RTVSPost2010Prop35
280
     0
102
RTVSPost2010PropOp35
 70
     1
102
RTVSPost2010Prop36
280
     0
102
RTVSPost2010PropOp36
 70
     1
102
RTVSPost2010Prop37
 90
       50
102
RTVSPost2010PropOp37
 70
     1
102
RTVSPost2010Prop38
140
0.0
102
RTVSPost2010PropOp38
 70
     1
102
RTVSPost2010Prop39
140
1.0
102
RTVSPost2010PropOp39
 70
     1
102
RTVSPost2010Prop40
 90
        0
102
RTVSPost2010PropOp40
 70
     1
102
RTVSPost2010Prop41ColorIndex
 90
       18
102
RTVSPost2010Prop41ColorRGB
 90
        0
102
RTVSPost2010PropOp41
 70
     1
102
RTVSPost2010Prop42
 90
       50
102
RTVSPost2010PropOp42
 70
     1
102
RTVSPost2010Prop43
 90
        3
102
RTVSPost2010PropOp43
 70
     1
102
RTVSPost2010Prop44ColorIndex
 90
        5
102
RTVSPost2010Prop44ColorRGB
 90
      255
102
RTVSPost2010PropOp44
 70
     1
102
RTVSPost2010Prop45
280
     0
102
RTVSPost2010PropOp45
 70
     1
102
RTVSPost2010Prop46
 90
       50
102
RTVSPost2010PropOp46
 70
     1
102
RTVSPost2010Prop47
 90
       50
102
RTVSPost2010PropOp47
 70
     1
102
RTVSPost2010Prop48
 90
       50
102
RTVSPost2010PropOp48
 70
     1
102
RTVSPost2010Prop49
280
     0
102
RTVSPost2010PropOp49
 70
     1
102
RTVSPost2010Prop50
 90
       50
102
RTVSPost2010PropOp50
 70
     1
102
RTVSPost2010Prop51ColorIndex
 90
      256
102
RTVSPost2010Prop51ColorRGB
 90
-16777216
102
RTVSPost2010PropOp51
 70
     0
102
RTVSPost2010Prop52
140
1.0
102
RTVSPost2010PropOp52
 70
     0
102
RTVSPost2010Prop53
 90
        2
102
RTVSPost2010PropOp53
 70
     1
102
RTVSPost2010Prop54
  1
strokes_ogs.tif
102
RTVSPost2010PropOp54
 70
     1
102
RTVSPost2010Prop55
280
     0
102
RTVSPost2010PropOp55
 70
     1
102
RTVSPost2010Prop56
140
1.0
102
RTVSPost2010PropOp56
 70
     1
102
RTVSPost2010Prop57
140
1.0
102
RTVSPost2010PropOp57
 70
     1
102
RTVSPropertyOp0
 70
     1
102
RTVSPropertyOp1
 70
     1
102
RTVSPropertyOp2
 70
     1
102
RTVSPropertyOp3
 70
     1
102
RTVSPropertyOp4
 70
     1
102
RTVSPropertyOp5
 70
     1
102
RTVSPropertyOp6
 70
     1
102
RTVSPropertyOp7
 70
     1
102
RTVSPropertyOp8
 70
     1
102
RTVSPropertyOp9
 70
     1
102
RTVSPropertyOp10
 70
     1
102
RTVSPropertyOp11
 70
     1
102
RTVSPropertyOp12
 70
     1
102
RTVSPropertyOp13
 70
     1
102
RTVSPropertyOp14
 70
     1
102
RTVSPropertyOp15
 70
     1
102
RTVSPropertyOp16
 70
     1
102
RTVSPropertyOp17
 70
     1
102
RTVSPropertyOp18
 70
     1
102
RTVSPropertyOp19
 70
     1
102
RTVSPropertyOp20
 70
     1
102
RTVSPropertyOp21
 70
     1
102
RTVSPropertyOp22
 70
     1
102
RTVSPropertyOp23
 70
     1
102
RTVSPropertyOp24
 70
     1
102
RTVSPropertyOp25
 70
     1
102
RTVSPropertyOp26
 70
     1
102
RTVSPropertyOp27
 70
     1
102
RTVSPropertyOp28
 70
     1
102
RTVSPropertyOp29
 70
     1
102
RTVSPropertyOp30
 70
     1
102
RTVSPropertyOp31
 70
     1
102
RTVSPropertyOp32
 70
     1
102
RTVSPropertyOp33
 70
     1
102
RTVSPropertyOp34
 70
     1
102
RTVSPropertyOp35
 70
     1
102
RTVSPropertyOp36
 70
     1
102
RTVSPropertyOp37
 70
     1
102
RTVSPropertyOp38
 70
     1
102
RTVSPropertyOp39
 70
     1
102
RTVSPropertyOp40
 70
     1
102
RTVSPropertyOp41
 70
     1
102
RTVSPropertyOp42
 70
     1
102
RTVSPropertyOp43
 70
     1
102
RTVSPropertyOp44
 70
     1
102
RTVSPropertyOp45
 70
     1
102
RTVSPropertyOp46
 70
     1
102
RTVSPropertyOp47
 70
     1
102
RTVSPropertyOp48
 70
     1
102
RTVSPropertyOp49
 70
     1
102
RTVSPropertyOp50
 70
     1
102
RTVSPropertyOp51
 70
     0
102
RTVSPropertyOp52
 70
     0
102
RTVSPropertyOp53
 70
     1
102
RTVSPropertyOp54
 70
     1
102
RTVSPropertyOp55
 70
     1
102
RTVSPropertyOp56
 70
     1
102
RTVSPropertyOp57
 70
     1
102
RTVSPropertyOp58
 70
     1
102
RTVSPropertyOp59
 70
     1
102
RTVSPropertyOp60
 70
     1
102
RTVSPropertyOp61
 70
     1
102
RTVSPropertyOp62
 70
     1
  0
XRECORD
  5
12B8
102
{ACAD_REACTORS
330
12B7
102
}
330
12B7
100
AcDbXrecord
280
     1
102
RTVSPost2010Prop28
280
     0
102
RTVSPost2010PropOp28
 70
     1
102
RTVSPost2010Prop29
280
     1
102
RTVSPost2010PropOp29
 70
     1
102
RTVSPost2010Prop30
280
     1
102
RTVSPost2010PropOp30
 70
     1
102
RTVSPost2010Prop31
280
     0
102
RTVSPost2010PropOp31
 70
     1
102
RTVSPost2010Prop32
280
     0
102
RTVSPost2010PropOp32
 70
     1
102
RTVSPost2010Prop33
280
     0
102
RTVSPost2010PropOp33
 70
     1
102
RTVSPost2010Prop34
280
     0
102
RTVSPost2010PropOp34
 70
     1
102
RTVSPost2010Prop35
280
     0
102
RTVSPost2010PropOp35
 70
     1
102
RTVSPost2010Prop36
280
     0
102
RTVSPost2010PropOp36
 70
     1
102
RTVSPost2010Prop37
 90
       50
102
RTVSPost2010PropOp37
 70
     1
102
RTVSPost2010Prop38
140
0.0
102
RTVSPost2010PropOp38
 70
     1
102
RTVSPost2010Prop39
140
1.0
102
RTVSPost2010PropOp39
 70
     1
102
RTVSPost2010Prop40
 90
        0
102
RTVSPost2010PropOp40
 70
     1
102
RTVSPost2010Prop41ColorIndex
 90
       18
102
RTVSPost2010Prop41ColorRGB
 90
        0
102
RTVSPost2010PropOp41
 70
     1
102
RTVSPost2010Prop42
 90
       50
102
RTVSPost2010PropOp42
 70
     1
102
RTVSPost2010Prop43
 90
        3
102
RTVSPost2010PropOp43
 70
     1
102
RTVSPost2010Prop44ColorIndex
 90
        5
102
RTVSPost2010Prop44ColorRGB
 90
      255
102
RTVSPost2010PropOp44
 70
     1
102
RTVSPost2010Prop45
280
     0
102
RTVSPost2010PropOp45
 70
     1
102
RTVSPost2010Prop46
 90
       50
102
RTVSPost2010PropOp46
 70
     1
102
RTVSPost2010Prop47
 90
       50
102
RTVSPost2010PropOp47
 70
     1
102
RTVSPost2010Prop48
 90
       50
102
RTVSPost2010PropOp48
 70
     1
102
RTVSPost2010Prop49
280
     0
102
RTVSPost2010PropOp49
 70
     1
102
RTVSPost2010Prop50
 90
       50
102
RTVSPost2010PropOp50
 70
     1
102
RTVSPost2010Prop51ColorIndex
 90
      256
102
RTVSPost2010Prop51ColorRGB
 90
-16777216
102
RTVSPost2010PropOp51
 70
     0
102
RTVSPost2010Prop52
140
1.0
102
RTVSPost2010PropOp52
 70
     0
102
RTVSPost2010Prop53
 90
        2
102
RTVSPost2010PropOp53
 70
     1
102
RTVSPost2010Prop54
  1
strokes_ogs.tif
102
RTVSPost2010PropOp54
 70
     1
102
RTVSPost2010Prop55
280
     0
102
RTVSPost2010PropOp55
 70
     1
102
RTVSPost2010Prop56
140
1.0
102
RTVSPost2010PropOp56
 70
     1
102
RTVSPost2010Prop57
140
1.0
102
RTVSPost2010PropOp57
 70
     1
102
RTVSPropertyOp0
 70
     1
102
RTVSPropertyOp1
 70
     1
102
RTVSPropertyOp2
 70
     1
102
RTVSPropertyOp3
 70
     1
102
RTVSPropertyOp4
 70
     1
102
RTVSPropertyOp5
 70
     1
102
RTVSPropertyOp6
 70
     1
102
RTVSPropertyOp7
 70
     1
102
RTVSPropertyOp8
 70
     1
102
RTVSPropertyOp9
 70
     1
102
RTVSPropertyOp10
 70
     1
102
RTVSPropertyOp11
 70
     1
102
RTVSPropertyOp12
 70
     1
102
RTVSPropertyOp13
 70
     1
102
RTVSPropertyOp14
 70
     1
102
RTVSPropertyOp15
 70
     1
102
RTVSPropertyOp16
 70
     1
102
RTVSPropertyOp17
 70
     1
102
RTVSPropertyOp18
 70
     1
102
RTVSPropertyOp19
 70
     1
102
RTVSPropertyOp20
 70
     1
102
RTVSPropertyOp21
 70
     1
102
RTVSPropertyOp22
 70
     1
102
RTVSPropertyOp23
 70
     1
102
RTVSPropertyOp24
 70
     1
102
RTVSPropertyOp25
 70
     1
102
RTVSPropertyOp26
 70
     1
102
RTVSPropertyOp27
 70
     1
102
RTVSPropertyOp28
 70
     1
102
RTVSPropertyOp29
 70
     1
102
RTVSPropertyOp30
 70
     1
102
RTVSPropertyOp31
 70
     1
102
RTVSPropertyOp32
 70
     1
102
RTVSPropertyOp33
 70
     1
102
RTVSPropertyOp34
 70
     1
102
RTVSPropertyOp35
 70
     1
102
RTVSPropertyOp36
 70
     1
102
RTVSPropertyOp37
 70
     1
102
RTVSPropertyOp38
 70
     1
102
RTVSPropertyOp39
 70
     1
102
RTVSPropertyOp40
 70
     1
102
RTVSPropertyOp41
 70
     1
102
RTVSPropertyOp42
 70
     1
102
RTVSPropertyOp43
 70
     1
102
RTVSPropertyOp44
 70
     1
102
RTVSPropertyOp45
 70
     1
102
RTVSPropertyOp46
 70
     1
102
RTVSPropertyOp47
 70
     1
102
RTVSPropertyOp48
 70
     1
102
RTVSPropertyOp49
 70
     1
102
RTVSPropertyOp50
 70
     1
102
RTVSPropertyOp51
 70
     0
102
RTVSPropertyOp52
 70
     0
102
RTVSPropertyOp53
 70
     1
102
RTVSPropertyOp54
 70
     1
102
RTVSPropertyOp55
 70
     1
102
RTVSPropertyOp56
 70
     1
102
RTVSPropertyOp57
 70
     1
102
RTVSPropertyOp58
 70
     1
102
RTVSPropertyOp59
 70
     1
102
RTVSPropertyOp60
 70
     1
102
RTVSPropertyOp61
 70
     1
102
RTVSPropertyOp62
 70
     1
  0
XRECORD
  5
12B6
102
{ACAD_REACTORS
330
12B5
102
}
330
12B5
100
AcDbXrecord
280
     1
102
RTVSPost2010Prop28
280
     0
102
RTVSPost2010PropOp28
 70
     1
102
RTVSPost2010Prop29
280
     1
102
RTVSPost2010PropOp29
 70
     1
102
RTVSPost2010Prop30
280
     1
102
RTVSPost2010PropOp30
 70
     1
102
RTVSPost2010Prop31
280
     0
102
RTVSPost2010PropOp31
 70
     1
102
RTVSPost2010Prop32
280
     0
102
RTVSPost2010PropOp32
 70
     1
102
RTVSPost2010Prop33
280
     0
102
RTVSPost2010PropOp33
 70
     1
102
RTVSPost2010Prop34
280
     0
102
RTVSPost2010PropOp34
 70
     1
102
RTVSPost2010Prop35
280
     0
102
RTVSPost2010PropOp35
 70
     1
102
RTVSPost2010Prop36
280
     0
102
RTVSPost2010PropOp36
 70
     1
102
RTVSPost2010Prop37
 90
       50
102
RTVSPost2010PropOp37
 70
     1
102
RTVSPost2010Prop38
140
0.0
102
RTVSPost2010PropOp38
 70
     1
102
RTVSPost2010Prop39
140
1.0
102
RTVSPost2010PropOp39
 70
     1
102
RTVSPost2010Prop40
 90
        0
102
RTVSPost2010PropOp40
 70
     1
102
RTVSPost2010Prop41ColorIndex
 90
       18
102
RTVSPost2010Prop41ColorRGB
 90
        0
102
RTVSPost2010PropOp41
 70
     1
102
RTVSPost2010Prop42
 90
       50
102
RTVSPost2010PropOp42
 70
     1
102
RTVSPost2010Prop43
 90
        3
102
RTVSPost2010PropOp43
 70
     1
102
RTVSPost2010Prop44ColorIndex
 90
        5
102
RTVSPost2010Prop44ColorRGB
 90
      255
102
RTVSPost2010PropOp44
 70
     1
102
RTVSPost2010Prop45
280
     0
102
RTVSPost2010PropOp45
 70
     1
102
RTVSPost2010Prop46
 90
       50
102
RTVSPost2010PropOp46
 70
     1
102
RTVSPost2010Prop47
 90
       50
102
RTVSPost2010PropOp47
 70
     1
102
RTVSPost2010Prop48
 90
       50
102
RTVSPost2010PropOp48
 70
     1
102
RTVSPost2010Prop49
280
     0
102
RTVSPost2010PropOp49
 70
     1
102
RTVSPost2010Prop50
 90
       50
102
RTVSPost2010PropOp50
 70
     1
102
RTVSPost2010Prop51ColorIndex
 90
      256
102
RTVSPost2010Prop51ColorRGB
 90
-16777216
102
RTVSPost2010PropOp51
 70
     0
102
RTVSPost2010Prop52
140
1.0
102
RTVSPost2010PropOp52
 70
     0
102
RTVSPost2010Prop53
 90
        2
102
RTVSPost2010PropOp53
 70
     1
102
RTVSPost2010Prop54
  1
strokes_ogs.tif
102
RTVSPost2010PropOp54
 70
     1
102
RTVSPost2010Prop55
280
     0
102
RTVSPost2010PropOp55
 70
     1
102
RTVSPost2010Prop56
140
1.0
102
RTVSPost2010PropOp56
 70
     1
102
RTVSPost2010Prop57
140
1.0
102
RTVSPost2010PropOp57
 70
     1
102
RTVSPropertyOp0
 70
     1
102
RTVSPropertyOp1
 70
     1
102
RTVSPropertyOp2
 70
     1
102
RTVSPropertyOp3
 70
     1
102
RTVSPropertyOp4
 70
     1
102
RTVSPropertyOp5
 70
     1
102
RTVSPropertyOp6
 70
     1
102
RTVSPropertyOp7
 70
     1
102
RTVSPropertyOp8
 70
     1
102
RTVSPropertyOp9
 70
     1
102
RTVSPropertyOp10
 70
     1
102
RTVSPropertyOp11
 70
     1
102
RTVSPropertyOp12
 70
     1
102
RTVSPropertyOp13
 70
     1
102
RTVSPropertyOp14
 70
     1
102
RTVSPropertyOp15
 70
     1
102
RTVSPropertyOp16
 70
     1
102
RTVSPropertyOp17
 70
     1
102
RTVSPropertyOp18
 70
     1
102
RTVSPropertyOp19
 70
     1
102
RTVSPropertyOp20
 70
     1
102
RTVSPropertyOp21
 70
     1
102
RTVSPropertyOp22
 70
     1
102
RTVSPropertyOp23
 70
     1
102
RTVSPropertyOp24
 70
     1
102
RTVSPropertyOp25
 70
     1
102
RTVSPropertyOp26
 70
     1
102
RTVSPropertyOp27
 70
     1
102
RTVSPropertyOp28
 70
     1
102
RTVSPropertyOp29
 70
     1
102
RTVSPropertyOp30
 70
     1
102
RTVSPropertyOp31
 70
     1
102
RTVSPropertyOp32
 70
     1
102
RTVSPropertyOp33
 70
     1
102
RTVSPropertyOp34
 70
     1
102
RTVSPropertyOp35
 70
     1
102
RTVSPropertyOp36
 70
     1
102
RTVSPropertyOp37
 70
     1
102
RTVSPropertyOp38
 70
     1
102
RTVSPropertyOp39
 70
     1
102
RTVSPropertyOp40
 70
     1
102
RTVSPropertyOp41
 70
     1
102
RTVSPropertyOp42
 70
     1
102
RTVSPropertyOp43
 70
     1
102
RTVSPropertyOp44
 70
     1
102
RTVSPropertyOp45
 70
     1
102
RTVSPropertyOp46
 70
     1
102
RTVSPropertyOp47
 70
     1
102
RTVSPropertyOp48
 70
     1
102
RTVSPropertyOp49
 70
     1
102
RTVSPropertyOp50
 70
     1
102
RTVSPropertyOp51
 70
     0
102
RTVSPropertyOp52
 70
     0
102
RTVSPropertyOp53
 70
     1
102
RTVSPropertyOp54
 70
     1
102
RTVSPropertyOp55
 70
     1
102
RTVSPropertyOp56
 70
     1
102
RTVSPropertyOp57
 70
     1
102
RTVSPropertyOp58
 70
     1
102
RTVSPropertyOp59
 70
     1
102
RTVSPropertyOp60
 70
     1
102
RTVSPropertyOp61
 70
     1
102
RTVSPropertyOp62
 70
     1
  0
XRECORD
  5
12B0
102
{ACAD_REACTORS
330
12AF
102
}
330
12AF
100
AcDbXrecord
280
     1
102
RTVSPost2010Prop28
280
     0
102
RTVSPost2010PropOp28
 70
     1
102
RTVSPost2010Prop29
280
     1
102
RTVSPost2010PropOp29
 70
     1
102
RTVSPost2010Prop30
280
     1
102
RTVSPost2010PropOp30
 70
     1
102
RTVSPost2010Prop31
280
     0
102
RTVSPost2010PropOp31
 70
     1
102
RTVSPost2010Prop32
280
     0
102
RTVSPost2010PropOp32
 70
     1
102
RTVSPost2010Prop33
280
     0
102
RTVSPost2010PropOp33
 70
     1
102
RTVSPost2010Prop34
280
     0
102
RTVSPost2010PropOp34
 70
     1
102
RTVSPost2010Prop35
280
     0
102
RTVSPost2010PropOp35
 70
     1
102
RTVSPost2010Prop36
280
     0
102
RTVSPost2010PropOp36
 70
     1
102
RTVSPost2010Prop37
 90
       50
102
RTVSPost2010PropOp37
 70
     1
102
RTVSPost2010Prop38
140
0.0
102
RTVSPost2010PropOp38
 70
     1
102
RTVSPost2010Prop39
140
1.0
102
RTVSPost2010PropOp39
 70
     1
102
RTVSPost2010Prop40
 90
        0
102
RTVSPost2010PropOp40
 70
     1
102
RTVSPost2010Prop41ColorIndex
 90
       18
102
RTVSPost2010Prop41ColorRGB
 90
        0
102
RTVSPost2010PropOp41
 70
     1
102
RTVSPost2010Prop42
 90
       50
102
RTVSPost2010PropOp42
 70
     1
102
RTVSPost2010Prop43
 90
        3
102
RTVSPost2010PropOp43
 70
     1
102
RTVSPost2010Prop44ColorIndex
 90
        5
102
RTVSPost2010Prop44ColorRGB
 90
      255
102
RTVSPost2010PropOp44
 70
     1
102
RTVSPost2010Prop45
280
     0
102
RTVSPost2010PropOp45
 70
     1
102
RTVSPost2010Prop46
 90
       50
102
RTVSPost2010PropOp46
 70
     1
102
RTVSPost2010Prop47
 90
       50
102
RTVSPost2010PropOp47
 70
     1
102
RTVSPost2010Prop48
 90
       50
102
RTVSPost2010PropOp48
 70
     1
102
RTVSPost2010Prop49
280
     0
102
RTVSPost2010PropOp49
 70
     1
102
RTVSPost2010Prop50
 90
       50
102
RTVSPost2010PropOp50
 70
     1
102
RTVSPost2010Prop51ColorIndex
 90
      256
102
RTVSPost2010Prop51ColorRGB
 90
-16777216
102
RTVSPost2010PropOp51
 70
     0
102
RTVSPost2010Prop52
140
1.0
102
RTVSPost2010PropOp52
 70
     0
102
RTVSPost2010Prop53
 90
        2
102
RTVSPost2010PropOp53
 70
     1
102
RTVSPost2010Prop54
  1
strokes_ogs.tif
102
RTVSPost2010PropOp54
 70
     1
102
RTVSPost2010Prop55
280
     0
102
RTVSPost2010PropOp55
 70
     1
102
RTVSPost2010Prop56
140
1.0
102
RTVSPost2010PropOp56
 70
     1
102
RTVSPost2010Prop57
140
1.0
102
RTVSPost2010PropOp57
 70
     1
102
RTVSPropertyOp0
 70
     1
102
RTVSPropertyOp1
 70
     1
102
RTVSPropertyOp2
 70
     1
102
RTVSPropertyOp3
 70
     1
102
RTVSPropertyOp4
 70
     1
102
RTVSPropertyOp5
 70
     1
102
RTVSPropertyOp6
 70
     1
102
RTVSPropertyOp7
 70
     1
102
RTVSPropertyOp8
 70
     1
102
RTVSPropertyOp9
 70
     1
102
RTVSPropertyOp10
 70
     1
102
RTVSPropertyOp11
 70
     1
102
RTVSPropertyOp12
 70
     1
102
RTVSPropertyOp13
 70
     1
102
RTVSPropertyOp14
 70
     1
102
RTVSPropertyOp15
 70
     1
102
RTVSPropertyOp16
 70
     1
102
RTVSPropertyOp17
 70
     1
102
RTVSPropertyOp18
 70
     1
102
RTVSPropertyOp19
 70
     1
102
RTVSPropertyOp20
 70
     1
102
RTVSPropertyOp21
 70
     1
102
RTVSPropertyOp22
 70
     1
102
RTVSPropertyOp23
 70
     1
102
RTVSPropertyOp24
 70
     1
102
RTVSPropertyOp25
 70
     1
102
RTVSPropertyOp26
 70
     1
102
RTVSPropertyOp27
 70
     1
102
RTVSPropertyOp28
 70
     1
102
RTVSPropertyOp29
 70
     1
102
RTVSPropertyOp30
 70
     1
102
RTVSPropertyOp31
 70
     1
102
RTVSPropertyOp32
 70
     1
102
RTVSPropertyOp33
 70
     1
102
RTVSPropertyOp34
 70
     1
102
RTVSPropertyOp35
 70
     1
102
RTVSPropertyOp36
 70
     1
102
RTVSPropertyOp37
 70
     1
102
RTVSPropertyOp38
 70
     1
102
RTVSPropertyOp39
 70
     1
102
RTVSPropertyOp40
 70
     1
102
RTVSPropertyOp41
 70
     1
102
RTVSPropertyOp42
 70
     1
102
RTVSPropertyOp43
 70
     1
102
RTVSPropertyOp44
 70
     1
102
RTVSPropertyOp45
 70
     1
102
RTVSPropertyOp46
 70
     1
102
RTVSPropertyOp47
 70
     1
102
RTVSPropertyOp48
 70
     1
102
RTVSPropertyOp49
 70
     1
102
RTVSPropertyOp50
 70
     1
102
RTVSPropertyOp51
 70
     0
102
RTVSPropertyOp52
 70
     0
102
RTVSPropertyOp53
 70
     1
102
RTVSPropertyOp54
 70
     1
102
RTVSPropertyOp55
 70
     1
102
RTVSPropertyOp56
 70
     1
102
RTVSPropertyOp57
 70
     1
102
RTVSPropertyOp58
 70
     1
102
RTVSPropertyOp59
 70
     1
102
RTVSPropertyOp60
 70
     1
102
RTVSPropertyOp61
 70
     1
102
RTVSPropertyOp62
 70
     1
  0
XRECORD
  5
12B2
102
{ACAD_REACTORS
330
12B1
102
}
330
12B1
100
AcDbXrecord
280
     1
102
RTVSPost2010Prop28
280
     0
102
RTVSPost2010PropOp28
 70
     1
102
RTVSPost2010Prop29
280
     1
102
RTVSPost2010PropOp29
 70
     1
102
RTVSPost2010Prop30
280
     1
102
RTVSPost2010PropOp30
 70
     1
102
RTVSPost2010Prop31
280
     0
102
RTVSPost2010PropOp31
 70
     1
102
RTVSPost2010Prop32
280
     0
102
RTVSPost2010PropOp32
 70
     1
102
RTVSPost2010Prop33
280
     0
102
RTVSPost2010PropOp33
 70
     1
102
RTVSPost2010Prop34
280
     0
102
RTVSPost2010PropOp34
 70
     1
102
RTVSPost2010Prop35
280
     0
102
RTVSPost2010PropOp35
 70
     1
102
RTVSPost2010Prop36
280
     0
102
RTVSPost2010PropOp36
 70
     1
102
RTVSPost2010Prop37
 90
       50
102
RTVSPost2010PropOp37
 70
     1
102
RTVSPost2010Prop38
140
0.0
102
RTVSPost2010PropOp38
 70
     1
102
RTVSPost2010Prop39
140
1.0
102
RTVSPost2010PropOp39
 70
     1
102
RTVSPost2010Prop40
 90
        0
102
RTVSPost2010PropOp40
 70
     1
102
RTVSPost2010Prop41ColorIndex
 90
       18
102
RTVSPost2010Prop41ColorRGB
 90
        0
102
RTVSPost2010PropOp41
 70
     1
102
RTVSPost2010Prop42
 90
       50
102
RTVSPost2010PropOp42
 70
     1
102
RTVSPost2010Prop43
 90
        3
102
RTVSPost2010PropOp43
 70
     1
102
RTVSPost2010Prop44ColorIndex
 90
        5
102
RTVSPost2010Prop44ColorRGB
 90
      255
102
RTVSPost2010PropOp44
 70
     1
102
RTVSPost2010Prop45
280
     0
102
RTVSPost2010PropOp45
 70
     1
102
RTVSPost2010Prop46
 90
       50
102
RTVSPost2010PropOp46
 70
     1
102
RTVSPost2010Prop47
 90
       50
102
RTVSPost2010PropOp47
 70
     1
102
RTVSPost2010Prop48
 90
       50
102
RTVSPost2010PropOp48
 70
     1
102
RTVSPost2010Prop49
280
     0
102
RTVSPost2010PropOp49
 70
     1
102
RTVSPost2010Prop50
 90
       50
102
RTVSPost2010PropOp50
 70
     1
102
RTVSPost2010Prop51ColorIndex
 90
      256
102
RTVSPost2010Prop51ColorRGB
 90
-16777216
102
RTVSPost2010PropOp51
 70
     0
102
RTVSPost2010Prop52
140
1.0
102
RTVSPost2010PropOp52
 70
     0
102
RTVSPost2010Prop53
 90
        2
102
RTVSPost2010PropOp53
 70
     1
102
RTVSPost2010Prop54
  1
strokes_ogs.tif
102
RTVSPost2010PropOp54
 70
     1
102
RTVSPost2010Prop55
280
     0
102
RTVSPost2010PropOp55
 70
     1
102
RTVSPost2010Prop56
140
1.0
102
RTVSPost2010PropOp56
 70
     1
102
RTVSPost2010Prop57
140
1.0
102
RTVSPost2010PropOp57
 70
     1
102
RTVSPropertyOp0
 70
     1
102
RTVSPropertyOp1
 70
     1
102
RTVSPropertyOp2
 70
     1
102
RTVSPropertyOp3
 70
     1
102
RTVSPropertyOp4
 70
     1
102
RTVSPropertyOp5
 70
     1
102
RTVSPropertyOp6
 70
     1
102
RTVSPropertyOp7
 70
     1
102
RTVSPropertyOp8
 70
     1
102
RTVSPropertyOp9
 70
     1
102
RTVSPropertyOp10
 70
     1
102
RTVSPropertyOp11
 70
     1
102
RTVSPropertyOp12
 70
     1
102
RTVSPropertyOp13
 70
     1
102
RTVSPropertyOp14
 70
     1
102
RTVSPropertyOp15
 70
     1
102
RTVSPropertyOp16
 70
     1
102
RTVSPropertyOp17
 70
     1
102
RTVSPropertyOp18
 70
     1
102
RTVSPropertyOp19
 70
     1
102
RTVSPropertyOp20
 70
     1
102
RTVSPropertyOp21
 70
     1
102
RTVSPropertyOp22
 70
     1
102
RTVSPropertyOp23
 70
     1
102
RTVSPropertyOp24
 70
     1
102
RTVSPropertyOp25
 70
     1
102
RTVSPropertyOp26
 70
     1
102
RTVSPropertyOp27
 70
     1
102
RTVSPropertyOp28
 70
     1
102
RTVSPropertyOp29
 70
     1
102
RTVSPropertyOp30
 70
     1
102
RTVSPropertyOp31
 70
     1
102
RTVSPropertyOp32
 70
     1
102
RTVSPropertyOp33
 70
     1
102
RTVSPropertyOp34
 70
     1
102
RTVSPropertyOp35
 70
     1
102
RTVSPropertyOp36
 70
     1
102
RTVSPropertyOp37
 70
     1
102
RTVSPropertyOp38
 70
     1
102
RTVSPropertyOp39
 70
     1
102
RTVSPropertyOp40
 70
     1
102
RTVSPropertyOp41
 70
     1
102
RTVSPropertyOp42
 70
     1
102
RTVSPropertyOp43
 70
     1
102
RTVSPropertyOp44
 70
     1
102
RTVSPropertyOp45
 70
     1
102
RTVSPropertyOp46
 70
     1
102
RTVSPropertyOp47
 70
     1
102
RTVSPropertyOp48
 70
     1
102
RTVSPropertyOp49
 70
     1
102
RTVSPropertyOp50
 70
     1
102
RTVSPropertyOp51
 70
     0
102
RTVSPropertyOp52
 70
     0
102
RTVSPropertyOp53
 70
     1
102
RTVSPropertyOp54
 70
     1
102
RTVSPropertyOp55
 70
     1
102
RTVSPropertyOp56
 70
     1
102
RTVSPropertyOp57
 70
     1
102
RTVSPropertyOp58
 70
     1
102
RTVSPropertyOp59
 70
     1
102
RTVSPropertyOp60
 70
     1
102
RTVSPropertyOp61
 70
     1
102
RTVSPropertyOp62
 70
     1
  0
XRECORD
  5
12A8
102
{ACAD_REACTORS
330
12A7
102
}
330
12A7
100
AcDbXrecord
280
     1
102
RTVSPost2010Prop28
280
     0
102
RTVSPost2010PropOp28
 70
     1
102
RTVSPost2010Prop29
280
     1
102
RTVSPost2010PropOp29
 70
     1
102
RTVSPost2010Prop30
280
     1
102
RTVSPost2010PropOp30
 70
     1
102
RTVSPost2010Prop31
280
     0
102
RTVSPost2010PropOp31
 70
     1
102
RTVSPost2010Prop32
280
     0
102
RTVSPost2010PropOp32
 70
     1
102
RTVSPost2010Prop33
280
     0
102
RTVSPost2010PropOp33
 70
     1
102
RTVSPost2010Prop34
280
     0
102
RTVSPost2010PropOp34
 70
     1
102
RTVSPost2010Prop35
280
     0
102
RTVSPost2010PropOp35
 70
     1
102
RTVSPost2010Prop36
280
     0
102
RTVSPost2010PropOp36
 70
     1
102
RTVSPost2010Prop37
 90
       50
102
RTVSPost2010PropOp37
 70
     1
102
RTVSPost2010Prop38
140
0.0
102
RTVSPost2010PropOp38
 70
     1
102
RTVSPost2010Prop39
140
1.0
102
RTVSPost2010PropOp39
 70
     1
102
RTVSPost2010Prop40
 90
        0
102
RTVSPost2010PropOp40
 70
     1
102
RTVSPost2010Prop41ColorIndex
 90
       18
102
RTVSPost2010Prop41ColorRGB
 90
        0
102
RTVSPost2010PropOp41
 70
     1
102
RTVSPost2010Prop42
 90
       50
102
RTVSPost2010PropOp42
 70
     1
102
RTVSPost2010Prop43
 90
        3
102
RTVSPost2010PropOp43
 70
     1
102
RTVSPost2010Prop44ColorIndex
 90
        5
102
RTVSPost2010Prop44ColorRGB
 90
      255
102
RTVSPost2010PropOp44
 70
     1
102
RTVSPost2010Prop45
280
     0
102
RTVSPost2010PropOp45
 70
     1
102
RTVSPost2010Prop46
 90
       50
102
RTVSPost2010PropOp46
 70
     1
102
RTVSPost2010Prop47
 90
       50
102
RTVSPost2010PropOp47
 70
     1
102
RTVSPost2010Prop48
 90
       50
102
RTVSPost2010PropOp48
 70
     1
102
RTVSPost2010Prop49
280
     0
102
RTVSPost2010PropOp49
 70
     1
102
RTVSPost2010Prop50
 90
       50
102
RTVSPost2010PropOp50
 70
     1
102
RTVSPost2010Prop51ColorIndex
 90
      256
102
RTVSPost2010Prop51ColorRGB
 90
-16777216
102
RTVSPost2010PropOp51
 70
     0
102
RTVSPost2010Prop52
140
1.0
102
RTVSPost2010PropOp52
 70
     0
102
RTVSPost2010Prop53
 90
        2
102
RTVSPost2010PropOp53
 70
     1
102
RTVSPost2010Prop54
  1
strokes_ogs.tif
102
RTVSPost2010PropOp54
 70
     1
102
RTVSPost2010Prop55
280
     0
102
RTVSPost2010PropOp55
 70
     1
102
RTVSPost2010Prop56
140
1.0
102
RTVSPost2010PropOp56
 70
     1
102
RTVSPost2010Prop57
140
1.0
102
RTVSPost2010PropOp57
 70
     1
102
RTVSPropertyOp0
 70
     1
102
RTVSPropertyOp1
 70
     1
102
RTVSPropertyOp2
 70
     1
102
RTVSPropertyOp3
 70
     1
102
RTVSPropertyOp4
 70
     1
102
RTVSPropertyOp5
 70
     1
102
RTVSPropertyOp6
 70
     1
102
RTVSPropertyOp7
 70
     1
102
RTVSPropertyOp8
 70
     1
102
RTVSPropertyOp9
 70
     1
102
RTVSPropertyOp10
 70
     1
102
RTVSPropertyOp11
 70
     1
102
RTVSPropertyOp12
 70
     1
102
RTVSPropertyOp13
 70
     1
102
RTVSPropertyOp14
 70
     1
102
RTVSPropertyOp15
 70
     1
102
RTVSPropertyOp16
 70
     1
102
RTVSPropertyOp17
 70
     1
102
RTVSPropertyOp18
 70
     1
102
RTVSPropertyOp19
 70
     1
102
RTVSPropertyOp20
 70
     1
102
RTVSPropertyOp21
 70
     1
102
RTVSPropertyOp22
 70
     1
102
RTVSPropertyOp23
 70
     1
102
RTVSPropertyOp24
 70
     1
102
RTVSPropertyOp25
 70
     1
102
RTVSPropertyOp26
 70
     1
102
RTVSPropertyOp27
 70
     1
102
RTVSPropertyOp28
 70
     1
102
RTVSPropertyOp29
 70
     1
102
RTVSPropertyOp30
 70
     1
102
RTVSPropertyOp31
 70
     1
102
RTVSPropertyOp32
 70
     1
102
RTVSPropertyOp33
 70
     1
102
RTVSPropertyOp34
 70
     1
102
RTVSPropertyOp35
 70
     1
102
RTVSPropertyOp36
 70
     1
102
RTVSPropertyOp37
 70
     1
102
RTVSPropertyOp38
 70
     1
102
RTVSPropertyOp39
 70
     1
102
RTVSPropertyOp40
 70
     1
102
RTVSPropertyOp41
 70
     1
102
RTVSPropertyOp42
 70
     1
102
RTVSPropertyOp43
 70
     1
102
RTVSPropertyOp44
 70
     1
102
RTVSPropertyOp45
 70
     1
102
RTVSPropertyOp46
 70
     1
102
RTVSPropertyOp47
 70
     1
102
RTVSPropertyOp48
 70
     1
102
RTVSPropertyOp49
 70
     1
102
RTVSPropertyOp50
 70
     1
102
RTVSPropertyOp51
 70
     0
102
RTVSPropertyOp52
 70
     0
102
RTVSPropertyOp53
 70
     1
102
RTVSPropertyOp54
 70
     1
102
RTVSPropertyOp55
 70
     1
102
RTVSPropertyOp56
 70
     1
102
RTVSPropertyOp57
 70
     1
102
RTVSPropertyOp58
 70
     1
102
RTVSPropertyOp59
 70
     1
102
RTVSPropertyOp60
 70
     1
102
RTVSPropertyOp61
 70
     1
102
RTVSPropertyOp62
 70
     1
  0
XRECORD
  5
129C
102
{ACAD_REACTORS
330
129B
102
}
330
129B
100
AcDbXrecord
280
     1
102
RTVSPost2010Prop28
280
     0
102
RTVSPost2010PropOp28
 70
     1
102
RTVSPost2010Prop29
280
     1
102
RTVSPost2010PropOp29
 70
     1
102
RTVSPost2010Prop30
280
     1
102
RTVSPost2010PropOp30
 70
     1
102
RTVSPost2010Prop31
280
     0
102
RTVSPost2010PropOp31
 70
     1
102
RTVSPost2010Prop32
280
     0
102
RTVSPost2010PropOp32
 70
     1
102
RTVSPost2010Prop33
280
     0
102
RTVSPost2010PropOp33
 70
     1
102
RTVSPost2010Prop34
280
     0
102
RTVSPost2010PropOp34
 70
     1
102
RTVSPost2010Prop35
280
     0
102
RTVSPost2010PropOp35
 70
     1
102
RTVSPost2010Prop36
280
     0
102
RTVSPost2010PropOp36
 70
     1
102
RTVSPost2010Prop37
 90
       50
102
RTVSPost2010PropOp37
 70
     1
102
RTVSPost2010Prop38
140
0.0
102
RTVSPost2010PropOp38
 70
     1
102
RTVSPost2010Prop39
140
1.0
102
RTVSPost2010PropOp39
 70
     1
102
RTVSPost2010Prop40
 90
        0
102
RTVSPost2010PropOp40
 70
     1
102
RTVSPost2010Prop41ColorIndex
 90
       18
102
RTVSPost2010Prop41ColorRGB
 90
        0
102
RTVSPost2010PropOp41
 70
     1
102
RTVSPost2010Prop42
 90
       50
102
RTVSPost2010PropOp42
 70
     1
102
RTVSPost2010Prop43
 90
        3
102
RTVSPost2010PropOp43
 70
     1
102
RTVSPost2010Prop44ColorIndex
 90
        5
102
RTVSPost2010Prop44ColorRGB
 90
      255
102
RTVSPost2010PropOp44
 70
     1
102
RTVSPost2010Prop45
280
     0
102
RTVSPost2010PropOp45
 70
     1
102
RTVSPost2010Prop46
 90
       50
102
RTVSPost2010PropOp46
 70
     1
102
RTVSPost2010Prop47
 90
       50
102
RTVSPost2010PropOp47
 70
     1
102
RTVSPost2010Prop48
 90
       50
102
RTVSPost2010PropOp48
 70
     1
102
RTVSPost2010Prop49
280
     0
102
RTVSPost2010PropOp49
 70
     1
102
RTVSPost2010Prop50
 90
       50
102
RTVSPost2010PropOp50
 70
     1
102
RTVSPost2010Prop51ColorIndex
 90
      256
102
RTVSPost2010Prop51ColorRGB
 90
-16777216
102
RTVSPost2010PropOp51
 70
     0
102
RTVSPost2010Prop52
140
1.0
102
RTVSPost2010PropOp52
 70
     0
102
RTVSPost2010Prop53
 90
        2
102
RTVSPost2010PropOp53
 70
     1
102
RTVSPost2010Prop54
  1
strokes_ogs.tif
102
RTVSPost2010PropOp54
 70
     1
102
RTVSPost2010Prop55
280
     0
102
RTVSPost2010PropOp55
 70
     1
102
RTVSPost2010Prop56
140
1.0
102
RTVSPost2010PropOp56
 70
     1
102
RTVSPost2010Prop57
140
1.0
102
RTVSPost2010PropOp57
 70
     1
102
RTVSPropertyOp0
 70
     1
102
RTVSPropertyOp1
 70
     1
102
RTVSPropertyOp2
 70
     1
102
RTVSPropertyOp3
 70
     1
102
RTVSPropertyOp4
 70
     1
102
RTVSPropertyOp5
 70
     1
102
RTVSPropertyOp6
 70
     1
102
RTVSPropertyOp7
 70
     1
102
RTVSPropertyOp8
 70
     1
102
RTVSPropertyOp9
 70
     1
102
RTVSPropertyOp10
 70
     1
102
RTVSPropertyOp11
 70
     1
102
RTVSPropertyOp12
 70
     1
102
RTVSPropertyOp13
 70
     1
102
RTVSPropertyOp14
 70
     1
102
RTVSPropertyOp15
 70
     1
102
RTVSPropertyOp16
 70
     1
102
RTVSPropertyOp17
 70
     1
102
RTVSPropertyOp18
 70
     1
102
RTVSPropertyOp19
 70
     1
102
RTVSPropertyOp20
 70
     1
102
RTVSPropertyOp21
 70
     1
102
RTVSPropertyOp22
 70
     1
102
RTVSPropertyOp23
 70
     1
102
RTVSPropertyOp24
 70
     1
102
RTVSPropertyOp25
 70
     1
102
RTVSPropertyOp26
 70
     1
102
RTVSPropertyOp27
 70
     1
102
RTVSPropertyOp28
 70
     1
102
RTVSPropertyOp29
 70
     1
102
RTVSPropertyOp30
 70
     1
102
RTVSPropertyOp31
 70
     1
102
RTVSPropertyOp32
 70
     1
102
RTVSPropertyOp33
 70
     1
102
RTVSPropertyOp34
 70
     1
102
RTVSPropertyOp35
 70
     1
102
RTVSPropertyOp36
 70
     1
102
RTVSPropertyOp37
 70
     1
102
RTVSPropertyOp38
 70
     1
102
RTVSPropertyOp39
 70
     1
102
RTVSPropertyOp40
 70
     1
102
RTVSPropertyOp41
 70
     1
102
RTVSPropertyOp42
 70
     1
102
RTVSPropertyOp43
 70
     1
102
RTVSPropertyOp44
 70
     1
102
RTVSPropertyOp45
 70
     1
102
RTVSPropertyOp46
 70
     1
102
RTVSPropertyOp47
 70
     1
102
RTVSPropertyOp48
 70
     1
102
RTVSPropertyOp49
 70
     1
102
RTVSPropertyOp50
 70
     1
102
RTVSPropertyOp51
 70
     0
102
RTVSPropertyOp52
 70
     0
102
RTVSPropertyOp53
 70
     1
102
RTVSPropertyOp54
 70
     1
102
RTVSPropertyOp55
 70
     1
102
RTVSPropertyOp56
 70
     1
102
RTVSPropertyOp57
 70
     1
102
RTVSPropertyOp58
 70
     1
102
RTVSPropertyOp59
 70
     1
102
RTVSPropertyOp60
 70
     1
102
RTVSPropertyOp61
 70
     1
102
RTVSPropertyOp62
 70
     1
  0
XRECORD
  5
12B4
102
{ACAD_REACTORS
330
12B3
102
}
330
12B3
100
AcDbXrecord
280
     1
102
RTVSPost2010Prop28
280
     0
102
RTVSPost2010PropOp28
 70
     1
102
RTVSPost2010Prop29
280
     1
102
RTVSPost2010PropOp29
 70
     1
102
RTVSPost2010Prop30
280
     1
102
RTVSPost2010PropOp30
 70
     1
102
RTVSPost2010Prop31
280
     0
102
RTVSPost2010PropOp31
 70
     1
102
RTVSPost2010Prop32
280
     0
102
RTVSPost2010PropOp32
 70
     1
102
RTVSPost2010Prop33
280
     0
102
RTVSPost2010PropOp33
 70
     1
102
RTVSPost2010Prop34
280
     0
102
RTVSPost2010PropOp34
 70
     1
102
RTVSPost2010Prop35
280
     0
102
RTVSPost2010PropOp35
 70
     1
102
RTVSPost2010Prop36
280
     0
102
RTVSPost2010PropOp36
 70
     1
102
RTVSPost2010Prop37
 90
       50
102
RTVSPost2010PropOp37
 70
     1
102
RTVSPost2010Prop38
140
0.0
102
RTVSPost2010PropOp38
 70
     1
102
RTVSPost2010Prop39
140
1.0
102
RTVSPost2010PropOp39
 70
     1
102
RTVSPost2010Prop40
 90
        0
102
RTVSPost2010PropOp40
 70
     1
102
RTVSPost2010Prop41ColorIndex
 90
       18
102
RTVSPost2010Prop41ColorRGB
 90
        0
102
RTVSPost2010PropOp41
 70
     1
102
RTVSPost2010Prop42
 90
       50
102
RTVSPost2010PropOp42
 70
     1
102
RTVSPost2010Prop43
 90
        3
102
RTVSPost2010PropOp43
 70
     1
102
RTVSPost2010Prop44ColorIndex
 90
        5
102
RTVSPost2010Prop44ColorRGB
 90
      255
102
RTVSPost2010PropOp44
 70
     1
102
RTVSPost2010Prop45
280
     0
102
RTVSPost2010PropOp45
 70
     1
102
RTVSPost2010Prop46
 90
       50
102
RTVSPost2010PropOp46
 70
     1
102
RTVSPost2010Prop47
 90
       50
102
RTVSPost2010PropOp47
 70
     1
102
RTVSPost2010Prop48
 90
       50
102
RTVSPost2010PropOp48
 70
     1
102
RTVSPost2010Prop49
280
     0
102
RTVSPost2010PropOp49
 70
     1
102
RTVSPost2010Prop50
 90
       50
102
RTVSPost2010PropOp50
 70
     1
102
RTVSPost2010Prop51ColorIndex
 90
      256
102
RTVSPost2010Prop51ColorRGB
 90
-16777216
102
RTVSPost2010PropOp51
 70
     0
102
RTVSPost2010Prop52
140
1.0
102
RTVSPost2010PropOp52
 70
     0
102
RTVSPost2010Prop53
 90
        2
102
RTVSPost2010PropOp53
 70
     1
102
RTVSPost2010Prop54
  1
strokes_ogs.tif
102
RTVSPost2010PropOp54
 70
     1
102
RTVSPost2010Prop55
280
     0
102
RTVSPost2010PropOp55
 70
     1
102
RTVSPost2010Prop56
140
1.0
102
RTVSPost2010PropOp56
 70
     1
102
RTVSPost2010Prop57
140
1.0
102
RTVSPost2010PropOp57
 70
     1
102
RTVSPropertyOp0
 70
     1
102
RTVSPropertyOp1
 70
     1
102
RTVSPropertyOp2
 70
     1
102
RTVSPropertyOp3
 70
     1
102
RTVSPropertyOp4
 70
     1
102
RTVSPropertyOp5
 70
     1
102
RTVSPropertyOp6
 70
     1
102
RTVSPropertyOp7
 70
     1
102
RTVSPropertyOp8
 70
     1
102
RTVSPropertyOp9
 70
     1
102
RTVSPropertyOp10
 70
     1
102
RTVSPropertyOp11
 70
     1
102
RTVSPropertyOp12
 70
     1
102
RTVSPropertyOp13
 70
     1
102
RTVSPropertyOp14
 70
     1
102
RTVSPropertyOp15
 70
     1
102
RTVSPropertyOp16
 70
     1
102
RTVSPropertyOp17
 70
     1
102
RTVSPropertyOp18
 70
     1
102
RTVSPropertyOp19
 70
     1
102
RTVSPropertyOp20
 70
     1
102
RTVSPropertyOp21
 70
     1
102
RTVSPropertyOp22
 70
     1
102
RTVSPropertyOp23
 70
     1
102
RTVSPropertyOp24
 70
     1
102
RTVSPropertyOp25
 70
     1
102
RTVSPropertyOp26
 70
     1
102
RTVSPropertyOp27
 70
     1
102
RTVSPropertyOp28
 70
     1
102
RTVSPropertyOp29
 70
     1
102
RTVSPropertyOp30
 70
     1
102
RTVSPropertyOp31
 70
     1
102
RTVSPropertyOp32
 70
     1
102
RTVSPropertyOp33
 70
     1
102
RTVSPropertyOp34
 70
     1
102
RTVSPropertyOp35
 70
     1
102
RTVSPropertyOp36
 70
     1
102
RTVSPropertyOp37
 70
     1
102
RTVSPropertyOp38
 70
     1
102
RTVSPropertyOp39
 70
     1
102
RTVSPropertyOp40
 70
     1
102
RTVSPropertyOp41
 70
     1
102
RTVSPropertyOp42
 70
     1
102
RTVSPropertyOp43
 70
     1
102
RTVSPropertyOp44
 70
     1
102
RTVSPropertyOp45
 70
     1
102
RTVSPropertyOp46
 70
     1
102
RTVSPropertyOp47
 70
     1
102
RTVSPropertyOp48
 70
     1
102
RTVSPropertyOp49
 70
     1
102
RTVSPropertyOp50
 70
     1
102
RTVSPropertyOp51
 70
     0
102
RTVSPropertyOp52
 70
     0
102
RTVSPropertyOp53
 70
     1
102
RTVSPropertyOp54
 70
     1
102
RTVSPropertyOp55
 70
     1
102
RTVSPropertyOp56
 70
     1
102
RTVSPropertyOp57
 70
     1
102
RTVSPropertyOp58
 70
     1
102
RTVSPropertyOp59
 70
     1
102
RTVSPropertyOp60
 70
     1
102
RTVSPropertyOp61
 70
     1
102
RTVSPropertyOp62
 70
     1
  0
ENDSEC
  0
EOF
