  0
SECTION
  2
HEADER
  9
$ACADVER
  1
AC1015
  9
$ACADMAINTVER
 70
    20
  9
$DWGCODEPAGE
  3
ANSI_932
  9
$INSBASE
 10
0.0
 20
0.0
 30
0.0
  9
$EXTMIN
 10
9.999999064246818
 20
9.999999806846743
 30
0.0
  9
$EXTMAX
 10
659.0360911825906
 20
495.3706405015937
 30
0.0
  9
$LIMMIN
 10
0.0000015376081137
 20
-0.0000001931532552
  9
$LIMMAX
 10
792.0000015376082
 20
545.9999998068466
  9
$ORTHOMODE
 70
     0
  9
$REGENMODE
 70
     1
  9
$FILLMODE
 70
     1
  9
$QTEXTMODE
 70
     0
  9
$MIRRTEXT
 70
     1
  9
$LTSCALE
 40
1.0
  9
$ATTMODE
 70
     1
  9
$TEXTSIZE
 40
2.5
  9
$TRACEWID
 40
1.0
  9
$TEXTSTYLE
  7
STANDARD
  9
$CLAYER
  8
0
  9
$CELTYPE
  6
BYLAYER
  9
$CECOLOR
 62
   256
  9
$CELTSCALE
 40
1.0
  9
$DISPSILH
 70
     0
  9
$DIMSCALE
 40
1.0
  9
$DIMASZ
 40
3.0
  9
$DIMEXO
 40
1.0
  9
$DIMDLI
 40
10.0
  9
$DIMRND
 40
0.0
  9
$DIMDLE
 40
0.0
  9
$DIMEXE
 40
1.0
  9
$DIMTP
 40
0.0
  9
$DIMTM
 40
0.0
  9
$DIMTXT
 40
3.2
  9
$DIMCEN
 40
0.0
  9
$DIMTSZ
 40
0.0
  9
$DIMTOL
 70
     0
  9
$DIMLIM
 70
     0
  9
$DIMTIH
 70
     0
  9
$DIMTOH
 70
     0
  9
$DIMSE1
 70
     0
  9
$DIMSE2
 70
     0
  9
$DIMTAD
 70
     3
  9
$DIMZIN
 70
     8
  9
$DIMBLK
  1

  9
$DIMASO
 70
     1
  9
$DIMSHO
 70
     1
  9
$DIMPOST
  1

  9
$DIMAPOST
  1

  9
$DIMALT
 70
     0
  9
$DIMALTD
 70
     2
  9
$DIMALTF
 40
25.4
  9
$DIMLFAC
 40
1.0
  9
$DIMTOFL
 70
     1
  9
$DIMTVP
 40
0.0
  9
$DIMTIX
 70
     0
  9
$DIMSOXD
 70
     0
  9
$DIMSAH
 70
     1
  9
$DIMBLK1
  1
OPEN
  9
$DIMBLK2
  1
OPEN
  9
$DIMSTYLE
  2
STANDARD
  9
$DIMCLRD
 70
     0
  9
$DIMCLRE
 70
     0
  9
$DIMCLRT
 70
     0
  9
$DIMTFAC
 40
1.0
  9
$DIMGAP
 40
1.0
  9
$DIMJUST
 70
     0
  9
$DIMSD1
 70
     0
  9
$DIMSD2
 70
     0
  9
$DIMTOLJ
 70
     1
  9
$DIMTZIN
 70
     0
  9
$DIMALTZ
 70
     0
  9
$DIMALTTZ
 70
     0
  9
$DIMUPT
 70
     0
  9
$DIMDEC
 70
     4
  9
$DIMTDEC
 70
     4
  9
$DIMALTU
 70
     2
  9
$DIMALTTD
 70
     2
  9
$DIMTXSTY
  7
STANDARD
  9
$DIMAUNIT
 70
     0
  9
$DIMADEC
 70
     0
  9
$DIMALTRND
 40
0.0
  9
$DIMAZIN
 70
     0
  9
$DIMDSEP
 70
    46
  9
$DIMATFIT
 70
     3
  9
$DIMFRAC
 70
     0
  9
$DIMLDRBLK
  1
OPEN
  9
$DIMLUNIT
 70
     2
  9
$DIMLWD
 70
    -2
  9
$DIMLWE
 70
    -2
  9
$DIMTMOVE
 70
     0
  9
$LUNITS
 70
     2
  9
$LUPREC
 70
     4
  9
$SKETCHINC
 40
1.0
  9
$FILLETRAD
 40
0.0
  9
$AUNITS
 70
     0
  9
$AUPREC
 70
     0
  9
$MENU
  1
.
  9
$ELEVATION
 40
0.0
  9
$PELEVATION
 40
0.0
  9
$THICKNESS
 40
0.0
  9
$LIMCHECK
 70
     0
  9
$CHAMFERA
 40
10.0
  9
$CHAMFERB
 40
10.0
  9
$CHAMFERC
 40
20.0
  9
$CHAMFERD
 40
0.0
  9
$SKPOLY
 70
     0
  9
$TDCREATE
 40
2453235.479719143
  9
$TDUCREATE
 40
2453235.104719143
  9
$TDUPDATE
 40
2457192.689564525
  9
$TDUUPDATE
 40
2457192.314564526
  9
$TDINDWG
 40
0.3718366551
  9
$TDUSRTIMER
 40
0.3718366319
  9
$USRTIMER
 70
     1
  9
$ANGBASE
 50
0.0
  9
$ANGDIR
 70
     0
  9
$PDMODE
 70
     0
  9
$PDSIZE
 40
0.0
  9
$PLINEWID
 40
0.0
  9
$SPLFRAME
 70
     0
  9
$SPLINETYPE
 70
     6
  9
$SPLINESEGS
 70
     8
  9
$HANDSEED
  5
14A7
  9
$SURFTAB1
 70
     6
  9
$SURFTAB2
 70
     6
  9
$SURFTYPE
 70
     6
  9
$SURFU
 70
     6
  9
$SURFV
 70
     6
  9
$UCSBASE
  2

  9
$UCSNAME
  2

  9
$UCSORG
 10
0.0
 20
0.0
 30
0.0
  9
$UCSXDIR
 10
1.0
 20
0.0
 30
0.0
  9
$UCSYDIR
 10
0.0
 20
1.0
 30
0.0
  9
$UCSORTHOREF
  2

  9
$UCSORTHOVIEW
 70
     0
  9
$UCSORGTOP
 10
0.0
 20
0.0
 30
0.0
  9
$UCSORGBOTTOM
 10
0.0
 20
0.0
 30
0.0
  9
$UCSORGLEFT
 10
0.0
 20
0.0
 30
0.0
  9
$UCSORGRIGHT
 10
0.0
 20
0.0
 30
0.0
  9
$UCSORGFRONT
 10
0.0
 20
0.0
 30
0.0
  9
$UCSORGBACK
 10
0.0
 20
0.0
 30
0.0
  9
$PUCSBASE
  2

  9
$PUCSNAME
  2

  9
$PUCSORG
 10
0.0
 20
0.0
 30
0.0
  9
$PUCSXDIR
 10
1.0
 20
0.0
 30
0.0
  9
$PUCSYDIR
 10
0.0
 20
1.0
 30
0.0
  9
$PUCSORTHOREF
  2

  9
$PUCSORTHOVIEW
 70
     0
  9
$PUCSORGTOP
 10
0.0
 20
0.0
 30
0.0
  9
$PUCSORGBOTTOM
 10
0.0
 20
0.0
 30
0.0
  9
$PUCSORGLEFT
 10
0.0
 20
0.0
 30
0.0
  9
$PUCSORGRIGHT
 10
0.0
 20
0.0
 30
0.0
  9
$PUCSORGFRONT
 10
0.0
 20
0.0
 30
0.0
  9
$PUCSORGBACK
 10
0.0
 20
0.0
 30
0.0
  9
$USERI1
 70
     0
  9
$USERI2
 70
     0
  9
$USERI3
 70
     0
  9
$USERI4
 70
     0
  9
$USERI5
 70
     0
  9
$USERR1
 40
0.0
  9
$USERR2
 40
0.0
  9
$USERR3
 40
0.0
  9
$USERR4
 40
0.0
  9
$USERR5
 40
0.0
  9
$WORLDVIEW
 70
     1
  9
$SHADEDGE
 70
     3
  9
$SHADEDIF
 70
    70
  9
$TILEMODE
 70
     1
  9
$MAXACTVP
 70
    48
  9
$PINSBASE
 10
0.0
 20
0.0
 30
0.0
  9
$PLIMCHECK
 70
     0
  9
$PEXTMIN
 10
1.000000000000000E+20
 20
1.000000000000000E+20
 30
1.000000000000000E+20
  9
$PEXTMAX
 10
-1.000000000000000E+20
 20
-1.000000000000000E+20
 30
-1.000000000000000E+20
  9
$PLIMMIN
 10
0.0
 20
0.0
  9
$PLIMMAX
 10
420.0
 20
297.0
  9
$UNITMODE
 70
     0
  9
$VISRETAIN
 70
     1
  9
$PLINEGEN
 70
     0
  9
$PSLTSCALE
 70
     1
  9
$TREEDEPTH
 70
  3020
  9
$CMLSTYLE
  2
STANDARD
  9
$CMLJUST
 70
     0
  9
$CMLSCALE
 40
20.0
  9
$PROXYGRAPHICS
 70
     1
  9
$MEASUREMENT
 70
     0
  9
$CELWEIGHT
370
    -1
  9
$ENDCAPS
280
     0
  9
$JOINSTYLE
280
     0
  9
$LWDISPLAY
290
     0
  9
$INSUNITS
 70
     0
  9
$HYPERLINKBASE
  1

  9
$STYLESHEET
  1

  9
$XEDIT
290
     1
  9
$CEPSNTYPE
380
     0
  9
$PSTYLEMODE
290
     1
  9
$FINGERPRINTGUID
  2
{C99EDFD6-A4EE-40DB-97BD-754AF7269F8C}
  9
$VERSIONGUID
  2
{61F536FB-3136-4C87-BE4D-F69B4D69837C}
  9
$EXTNAMES
290
     1
  9
$PSVPSCALE
 40
0.0
  9
$OLESTARTUP
290
     0
  0
ENDSEC
  0
SECTION
  2
CLASSES
  0
CLASS
  1
ACDBDICTIONARYWDFLT
  2
AcDbDictionaryWithDefault
  3
ObjectDBX Classes
 90
        0
280
     0
281
     0
  0
CLASS
  1
ACDBPLACEHOLDER
  2
AcDbPlaceHolder
  3
ObjectDBX Classes
 90
        0
280
     0
281
     0
  0
CLASS
  1
LAYOUT
  2
AcDbLayout
  3
ObjectDBX Classes
 90
        0
280
     0
281
     0
  0
CLASS
  1
DICTIONARYVAR
  2
AcDbDictionaryVar
  3
ObjectDBX Classes
 90
        0
280
     0
281
     0
  0
CLASS
  1
MATERIAL
  2
AcDbMaterial
  3
ObjectDBX Classes
 90
     1153
280
     0
281
     0
  0
CLASS
  1
VISUALSTYLE
  2
AcDbVisualStyle
  3
ObjectDBX Classes
 90
     4095
280
     0
281
     0
  0
CLASS
  1
TABLESTYLE
  2
AcDbTableStyle
  3
ObjectDBX Classes
 90
     4095
280
     0
281
     0
  0
CLASS
  1
SCALE
  2
AcDbScale
  3
ObjectDBX Classes
 90
     1153
280
     0
281
     0
  0
CLASS
  1
MLEADERSTYLE
  2
AcDbMLeaderStyle
  3
ACDB_MLEADERSTYLE_CLASS
 90
     4095
280
     0
281
     0
  0
CLASS
  1
ACDBSECTIONVIEWSTYLE
  2
AcDbSectionViewStyle
  3
ObjectDBX Classes
 90
     1025
280
     0
281
     0
  0
CLASS
  1
ACDBDETAILVIEWSTYLE
  2
AcDbDetailViewStyle
  3
ObjectDBX Classes
 90
     1025
280
     0
281
     0
  0
CLASS
  1
CELLSTYLEMAP
  2
AcDbCellStyleMap
  3
ObjectDBX Classes
 90
     1152
280
     0
281
     0
  0
ENDSEC
  0
SECTION
  2
TABLES
  0
TABLE
  2
VPORT
  5
8
330
0
100
AcDbSymbolTable
 70
     1
  0
VPORT
  5
13F3
330
8
100
AcDbSymbolTableRecord
100
AcDbViewportTableRecord
  2
*ACTIVE
 70
     0
 10
0.0
 20
0.0
 11
1.0
 21
1.0
 12
521.3566499949343
 22
252.6924601609062
 13
0.0
 23
0.0
 14
10.0
 24
10.0
 15
10.0
 25
10.0
 16
0.0
 26
0.0
 36
1.0
 17
0.0
 27
0.0
 37
0.0
 40
489.2554139882101
 41
2.35006605019815
 42
50.0
 43
0.0
 44
0.0
 50
0.0
 51
0.0
 71
     0
 72
   100
 73
     1
 74
     0
 75
     0
 76
     0
 77
     0
 78
     0
281
     0
 65
     1
110
0.0
120
0.0
130
0.0
111
1.0
121
0.0
131
0.0
112
0.0
122
1.0
132
0.0
 79
     0
146
0.0
1001
ACAD_NAV_VCDISPLAY
1070
     3
  0
ENDTAB
  0
TABLE
  2
LTYPE
  5
5
330
0
100
AcDbSymbolTable
 70
     4
  0
LTYPE
  5
12
330
5
100
AcDbSymbolTableRecord
100
AcDbLinetypeTableRecord
  2
BYBLOCK
 70
     0
  3

 72
    65
 73
     0
 40
0.0
  0
LTYPE
  5
13
330
5
100
AcDbSymbolTableRecord
100
AcDbLinetypeTableRecord
  2
BYLAYER
 70
     0
  3

 72
    65
 73
     0
 40
0.0
  0
LTYPE
  5
14
330
5
100
AcDbSymbolTableRecord
100
AcDbLinetypeTableRecord
  2
CONTINUOUS
 70
     0
  3
Solid line
 72
    65
 73
     0
 40
0.0
  0
LTYPE
  5
62
330
5
100
AcDbSymbolTableRecord
100
AcDbLinetypeTableRecord
  2
DASHED
 70
     0
  3
Dashed __ __ __ __ __ __ __ __ __ __ __ __ __ _
 72
    65
 73
     2
 40
19.04999999999998
 49
12.7
 74
     0
 49
-6.349999999999997
 74
     0
  0
LTYPE
  5
63
330
5
100
AcDbSymbolTableRecord
100
AcDbLinetypeTableRecord
  2
CENTER
 70
     0
  3
Center ____ _ ____ _ ____ _ ____ _ ____ _ ____
 72
    65
 73
     4
 40
50.8
 49
31.75
 74
     0
 49
-6.349999999999997
 74
     0
 49
6.349999999999997
 74
     0
 49
-6.349999999999997
 74
     0
  0
LTYPE
  5
64
330
5
100
AcDbSymbolTableRecord
100
AcDbLinetypeTableRecord
  2
PHANTOM
 70
     0
  3
Phantom ______  __  __  ______  __  __  ______
 72
    65
 73
     6
 40
63.5
 49
31.75
 74
     0
 49
-6.349999999999997
 74
     0
 49
6.349999999999997
 74
     0
 49
-6.349999999999997
 74
     0
 49
6.349999999999997
 74
     0
 49
-6.349999999999997
 74
     0
  0
ENDTAB
  0
TABLE
  2
LAYER
  5
2
330
0
100
AcDbSymbolTable
 70
     8
  0
LAYER
  5
E
102
{ACAD_XDICTIONARY
360
144B
102
}
330
2
100
AcDbSymbolTableRecord
100
AcDbLayerTableRecord
  2
0
 70
     0
 62
     7
  6
CONTINUOUS
370
    -3
390
13FA
  0
LAYER
  5
65
102
{ACAD_XDICTIONARY
360
144D
102
}
330
2
100
AcDbSymbolTableRecord
100
AcDbLayerTableRecord
  2
4
 70
     0
 62
     1
  6
CENTER
370
    -3
390
13FA
  0
LAYER
  5
66
102
{ACAD_XDICTIONARY
360
144F
102
}
330
2
100
AcDbSymbolTableRecord
100
AcDbLayerTableRecord
  2
5
 70
     0
 62
     6
  6
PHANTOM
370
    -3
390
13FA
  0
LAYER
  5
67
102
{ACAD_XDICTIONARY
360
1451
102
}
330
2
100
AcDbSymbolTableRecord
100
AcDbLayerTableRecord
  2
1
 70
     0
 62
     7
  6
CONTINUOUS
370
    -3
390
13FA
  0
LAYER
  5
68
102
{ACAD_XDICTIONARY
360
1453
102
}
330
2
100
AcDbSymbolTableRecord
100
AcDbLayerTableRecord
  2
2
 70
     0
 62
     4
  6
CONTINUOUS
370
    -3
390
13FA
  0
LAYER
  5
69
102
{ACAD_XDICTIONARY
360
1455
102
}
330
2
100
AcDbSymbolTableRecord
100
AcDbLayerTableRecord
  2
3
 70
     0
 62
     2
  6
DASHED
370
    -3
390
13FA
  0
LAYER
  5
6A
102
{ACAD_XDICTIONARY
360
1457
102
}
330
2
100
AcDbSymbolTableRecord
100
AcDbLayerTableRecord
  2
6
 70
     0
 62
     5
  6
CONTINUOUS
370
    -3
390
13FA
  0
LAYER
  5
6B
102
{ACAD_XDICTIONARY
360
1459
102
}
330
2
100
AcDbSymbolTableRecord
100
AcDbLayerTableRecord
  2
7
 70
     0
 62
     3
  6
CONTINUOUS
370
    -3
390
13FA
  0
ENDTAB
  0
TABLE
  2
STYLE
  5
3
330
0
100
AcDbSymbolTable
 70
     1
  0
STYLE
  5
F
330
3
100
AcDbSymbolTableRecord
100
AcDbTextStyleTableRecord
  2
STANDARD
 70
     0
 40
0.0
 41
1.0
 50
0.0
 71
     0
 42
2.5
  3
simplex.shx
  4

  0
ENDTAB
  0
TABLE
  2
VIEW
  5
6
330
0
100
AcDbSymbolTable
 70
     0
  0
ENDTAB
  0
TABLE
  2
UCS
  5
7
330
0
100
AcDbSymbolTable
 70
     0
  0
ENDTAB
  0
TABLE
  2
APPID
  5
9
330
0
100
AcDbSymbolTable
 70
     5
  0
APPID
  5
10
330
9
100
AcDbSymbolTableRecord
100
AcDbRegAppTableRecord
  2
ACAD
 70
     0
  0
APPID
  5
3E
330
9
100
AcDbSymbolTableRecord
100
AcDbRegAppTableRecord
  2
CONTENTTABDATA
 70
     0
  0
APPID
  5
3F
330
9
100
AcDbSymbolTableRecord
100
AcDbRegAppTableRecord
  2
CONTENTCURRENTTAB
 70
     0
  0
APPID
  5
1465
330
9
100
AcDbSymbolTableRecord
100
AcDbRegAppTableRecord
  2
ACAD_NAV_VCDISPLAY
 70
     0
  0
APPID
  5
149E
330
9
100
AcDbSymbolTableRecord
100
AcDbRegAppTableRecord
  2
ACAD_MLEADERVER
 70
     0
  0
ENDTAB
  0
TABLE
  2
DIMSTYLE
  5
A
330
0
100
AcDbSymbolTable
 70
     1
100
AcDbDimStyleTable
 71
     0
  0
DIMSTYLE
105
1D
330
A
100
AcDbSymbolTableRecord
100
AcDbDimStyleTableRecord
  2
STANDARD
 70
     0
 41
3.0
 42
1.0
 43
10.0
 44
1.0
 73
     0
 74
     0
 77
     3
 78
     8
140
3.2
141
0.0
147
1.0
172
     1
173
     1
340
F
341
2E
343
2E
344
2E
  0
ENDTAB
  0
TABLE
  2
BLOCK_RECORD
  5
1
330
0
100
AcDbSymbolTable
 70
     1
  0
BLOCK_RECORD
  5
18
102
{ACAD_XDICTIONARY
360
13DD
102
}
330
1
100
AcDbSymbolTableRecord
100
AcDbBlockTableRecord
  2
*MODEL_SPACE
340
1448
  0
BLOCK_RECORD
  5
15
102
{ACAD_XDICTIONARY
360
13DB
102
}
330
1
100
AcDbSymbolTableRecord
100
AcDbBlockTableRecord
  2
*PAPER_SPACE
340
1449
  0
BLOCK_RECORD
  5
2E
330
1
100
AcDbSymbolTableRecord
100
AcDbBlockTableRecord
  2
_OPEN
340
0
  0
ENDTAB
  0
ENDSEC
  0
SECTION
  2
BLOCKS
  0
BLOCK
  5
19
330
18
100
AcDbEntity
  8
0
100
AcDbBlockBegin
  2
*MODEL_SPACE
 70
     0
 10
0.0
 20
0.0
 30
0.0
  3
*MODEL_SPACE
  1

  0
ENDBLK
  5
1A
330
18
100
AcDbEntity
  8
0
100
AcDbBlockEnd
  0
BLOCK
  5
16
330
15
100
AcDbEntity
 67
     1
  8
0
100
AcDbBlockBegin
  2
*PAPER_SPACE
 70
     0
 10
0.0
 20
0.0
 30
0.0
  3
*PAPER_SPACE
  1

  0
ENDBLK
  5
17
330
15
100
AcDbEntity
 67
     1
  8
0
100
AcDbBlockEnd
  0
BLOCK
  5
2F
330
2E
100
AcDbEntity
  8
0
100
AcDbBlockBegin
  2
_OPEN
 70
     0
 10
0.0
 20
0.0
 30
0.0
  3
_OPEN
  1

  0
LINE
  5
30
330
2E
100
AcDbEntity
  8
0
  6
ByBlock
 62
     0
100
AcDbLine
 10
-1.0
 20
0.1666666666666666
 30
0.0
 11
0.0
 21
0.0
 31
0.0
  0
LINE
  5
31
330
2E
100
AcDbEntity
  8
0
  6
ByBlock
 62
     0
100
AcDbLine
 10
0.0
 20
0.0
 30
0.0
 11
-1.0
 21
-0.1666666666666666
 31
0.0
  0
LINE
  5
32
330
2E
100
AcDbEntity
  8
0
  6
ByBlock
 62
     0
100
AcDbLine
 10
0.0
 20
0.0
 30
0.0
 11
-1.0
 21
0.0
 31
0.0
  0
ENDBLK
  5
33
330
2E
100
AcDbEntity
  8
0
100
AcDbBlockEnd
  0
ENDSEC
  0
SECTION
  2
ENTITIES
  0
LINE
  5
177
330
18
100
AcDbEntity
  8
1
  6
Continuous
100
AcDbLine
 10
253.1027571825906
 20
489.6206695015941
 30
0.0
 11
243.1027571825906
 21
489.6206695015941
 31
0.0
  0
ARC
  5
179
330
18
100
AcDbEntity
  8
1
  6
Continuous
100
AcDbCircle
 10
243.8527540407565
 20
475.8394130309818
 30
0.0
 40
9.531227470612687
100
AcDbArc
 50
63.51887160077009
 51
116.4811283992289
  0
ARC
  5
17A
330
18
100
AcDbEntity
  8
1
  6
Continuous
100
AcDbCircle
 10
243.8527540407565
 20
488.9018676295997
 30
0.0
 40
9.531227470612687
100
AcDbArc
 50
243.5188716007709
 51
296.481128399229
  0
LINE
  5
17B
330
18
100
AcDbEntity
  8
1
  6
Continuous
100
AcDbLine
 10
234.1027571825906
 20
424.8706715015941
 30
0.0
 11
262.1027571825905
 21
424.8706715015941
 31
0.0
  0
LINE
  5
17C
330
18
100
AcDbEntity
  8
1
  6
Continuous
100
AcDbLine
 10
263.6805541825907
 20
434.8706715015942
 30
0.0
 11
232.5249621825906
 21
434.8706715015942
 31
0.0
  0
LINE
  5
17D
330
18
100
AcDbEntity
  8
1
  6
Continuous
100
AcDbLine
 10
263.6805541825907
 20
466.8706715015941
 30
0.0
 11
232.5249621825906
 21
466.8706715015941
 31
0.0
  0
LINE
  5
17E
330
18
100
AcDbEntity
  8
1
  6
Continuous
100
AcDbLine
 10
234.1027571825906
 20
476.8706715015942
 30
0.0
 11
262.1027571825905
 21
476.8706715015942
 31
0.0
  0
LINE
  5
17F
330
18
100
AcDbEntity
  8
4
  6
CENTER
100
AcDbLine
 10
308.1027571825905
 20
450.8706715015941
 30
0.0
 11
188.1027571825906
 21
450.8706715015941
 31
0.0
  0
LINE
  5
180
330
18
100
AcDbEntity
  8
1
  6
Continuous
100
AcDbLine
 10
239.1027571825906
 20
479.3706405015941
 30
0.0
 11
257.1027571825906
 21
479.3706405015941
 31
0.0
  0
LINE
  5
181
330
18
100
AcDbEntity
  8
1
  6
Continuous
100
AcDbLine
 10
239.6027508989229
 20
485.3706405015941
 30
0.0
 11
256.6027592816425
 21
485.3706405015941
 31
0.0
  0
ARC
  5
182
330
18
100
AcDbEntity
  8
1
  6
Continuous
100
AcDbCircle
 10
248.1027571825906
 20
438.3206985015942
 30
0.0
 40
17.450001
100
AcDbArc
 50
238.9517629999999
 51
301.0482640000003
  0
LINE
  5
183
330
18
100
AcDbEntity
  8
1
  6
Continuous
100
AcDbLine
 10
239.1027571825905
 20
423.3707025015942
 30
0.0
 11
257.1027571825904
 21
423.3707025015942
 31
0.0
  0
LINE
  5
185
330
18
100
AcDbEntity
  8
1
  6
Continuous
100
AcDbLine
 10
193.1027571825906
 20
326.2983074680821
 30
0.0
 11
303.1027571825906
 21
326.2983074680821
 31
0.0
  0
ARC
  5
186
330
18
100
AcDbEntity
  8
1
  6
Continuous
100
AcDbCircle
 10
248.1027571825906
 20
247.2982994680819
 30
0.0
 40
18.0
100
AcDbArc
 50
193.532011
 51
346.4679889999999
  0
CIRCLE
  5
187
330
18
100
AcDbEntity
  8
1
  6
Continuous
100
AcDbCircle
 10
248.1027571825906
 20
244.298299468082
 30
0.0
 40
9.000007999999997
  0
LINE
  5
18B
330
18
100
AcDbEntity
  8
4
  6
CENTER
100
AcDbLine
 10
303.1027571825905
 20
244.298299468082
 30
0.0
 11
193.1027571825906
 21
244.298299468082
 31
0.0
  0
LINE
  5
190
330
18
100
AcDbEntity
  8
1
  6
Continuous
100
AcDbLine
 10
31.13609018259069
 20
323.298307468082
 30
0.0
 11
109.1360901825906
 21
323.298307468082
 31
0.0
  0
LINE
  5
191
330
18
100
AcDbEntity
  8
1
  6
Continuous
100
AcDbLine
 10
31.13609018259069
 20
326.2983074680821
 30
0.0
 11
109.1360901825906
 21
326.2983074680821
 31
0.0
  0
LINE
  5
192
330
18
100
AcDbEntity
  8
4
  6
CENTER
100
AcDbLine
 10
25.63612118259083
 20
244.298307468082
 30
0.0
 11
103.8615081825905
 21
244.298307468082
 31
0.0
  0
LINE
  5
19A
330
18
100
AcDbEntity
  8
4
  6
CENTER
100
AcDbLine
 10
70.13609018259067
 20
334.6649724680821
 30
0.0
 11
70.13609018259067
 21
189.1258913712865
 31
0.0
  0
TEXT
  5
19B
330
18
100
AcDbEntity
  8
7
  6
Continuous
 48
0.25
100
AcDbText
 10
9.99999906424682
 20
18.00000056761564
 30
0.0
 40
3.0
  1
TYPE No.TCA-320SR-UB100
100
AcDbText
  0
TEXT
  5
19C
330
18
100
AcDbEntity
  8
7
  6
Continuous
 48
0.25
100
AcDbText
 10
9.99999906424682
 20
26.00000056761564
 30
0.0
 40
3.0
  1
CODE No.19183
100
AcDbText
  0
TEXT
  5
19D
330
18
100
AcDbEntity
  8
1
  6
Continuous
 48
0.25
100
AcDbText
 10
9.99999906424682
 20
10.00000056761564
 30
0.0
 40
1.399999999999999
  1
LAYER
100
AcDbText
  0
TEXT
  5
19E
330
18
100
AcDbEntity
  8
6
  6
Continuous
 48
0.25
100
AcDbText
 10
27.97951006424682
 20
9.999999806846743
 30
0.0
 40
1.399999999999999
  1
6
100
AcDbText
  0
TEXT
  5
19F
330
18
100
AcDbEntity
  8
1
  6
Continuous
 48
0.25
100
AcDbText
 10
17.97951006424682
 20
9.999999806846743
 30
0.0
 40
1.399999999999999
  1
1
100
AcDbText
  0
TEXT
  5
1A0
330
18
100
AcDbEntity
  8
3
  6
DASHED
 48
0.25
100
AcDbText
 10
21.97951006424682
 20
9.999999806846743
 30
0.0
 40
1.399999999999999
  1
3
100
AcDbText
  0
TEXT
  5
1A1
330
18
100
AcDbEntity
  8
2
  6
Continuous
 48
0.25
100
AcDbText
 10
19.97951006424682
 20
9.999999806846743
 30
0.0
 40
1.399999999999999
  1
2
100
AcDbText
  0
TEXT
  5
1A2
330
18
100
AcDbEntity
  8
5
  6
PHANTOM
 48
0.25
100
AcDbText
 10
25.97951006424682
 20
9.999999806846743
 30
0.0
 40
1.399999999999999
  1
5
100
AcDbText
  0
TEXT
  5
1A3
330
18
100
AcDbEntity
  8
4
  6
CENTER
 48
0.25
100
AcDbText
 10
23.97951006424682
 20
9.999999806846743
 30
0.0
 40
1.399999999999999
  1
4
100
AcDbText
  0
TEXT
  5
1A4
330
18
100
AcDbEntity
  8
7
  6
Continuous
 48
0.25
100
AcDbText
 10
29.97951006424682
 20
9.999999806846743
 30
0.0
 40
1.399999999999999
  1
7
100
AcDbText
  0
ARC
  5
1AB
330
18
100
AcDbEntity
  8
1
  6
Continuous
100
AcDbCircle
 10
148.9222831825903
 20
318.2983074680818
 30
0.0
 40
117.7861939999999
100
AcDbArc
 50
179.999978
 51
201.961276
  0
ARC
  5
1AC
330
18
100
AcDbEntity
  8
1
  6
Continuous
100
AcDbCircle
 10
160.4630401825905
 20
318.2983074680818
 30
0.0
 40
126.32692
100
AcDbArc
 50
179.999978
 51
201.2783669999999
  0
LINE
  5
1AD
330
18
100
AcDbEntity
  8
1
  6
Continuous
100
AcDbLine
 10
47.13612118259059
 20
321.798307468082
 30
0.0
 11
47.13612118259059
 21
229.298292468082
 31
0.0
  0
LINE
  5
1AE
330
18
100
AcDbEntity
  8
1
  6
Continuous
100
AcDbLine
 10
41.63612118259083
 20
235.298307468082
 30
0.0
 11
44.13612118259059
 21
235.298307468082
 31
0.0
  0
LINE
  5
1AF
330
18
100
AcDbEntity
  8
1
  6
Continuous
100
AcDbLine
 10
41.63612118259083
 20
253.2983074680819
 30
0.0
 11
44.13612118259059
 21
253.2983074680819
 31
0.0
  0
ARC
  5
1B0
330
18
100
AcDbEntity
  8
1
  6
Continuous
100
AcDbCircle
 10
-17.23161681740953
 20
251.2983074680819
 30
0.0
 40
61.367702
100
AcDbArc
 50
0.0
 51
21.96129700000017
  0
ARC
  5
1B1
330
18
100
AcDbEntity
  8
1
  6
Continuous
100
AcDbCircle
 10
39.14654218259079
 20
251.6595214680819
 30
0.0
 40
3.510416999999999
100
AcDbArc
 50
135.6541409999996
 51
224.3458549999999
  0
ARC
  5
1B2
330
18
100
AcDbEntity
  8
1
  6
Continuous
100
AcDbCircle
 10
38.12569918259065
 20
251.6595214680819
 30
0.0
 40
3.510416999999999
100
AcDbArc
 50
315.6541429999998
 51
44.34585700000002
  0
LINE
  5
1B3
330
18
100
AcDbEntity
  8
1
  6
Continuous
100
AcDbLine
 10
41.63612118259083
 20
235.298307468082
 30
0.0
 11
41.63612118259083
 21
253.2983074680819
 31
0.0
  0
ARC
  5
1B4
330
18
100
AcDbEntity
  8
1
  6
Continuous
100
AcDbCircle
 10
38.12569918259065
 20
236.937093468082
 30
0.0
 40
3.510416999999999
100
AcDbArc
 50
315.6541429999998
 51
44.34585700000002
  0
ARC
  5
1B5
330
18
100
AcDbEntity
  8
1
  6
Continuous
100
AcDbCircle
 10
39.14654218259079
 20
236.937093468082
 30
0.0
 40
3.510416999999999
100
AcDbArc
 50
135.6541409999996
 51
224.3458549999999
  0
LINE
  5
1B6
330
18
100
AcDbEntity
  8
1
  6
Continuous
100
AcDbLine
 10
35.63612118259061
 20
236.937093468082
 30
0.0
 11
35.63612118259061
 21
251.6595214680819
 31
0.0
  0
LINE
  5
1B7
330
18
100
AcDbEntity
  8
1
  6
Continuous
100
AcDbLine
 10
36.63612118259061
 20
234.483350468082
 30
0.0
 11
40.63612118259084
 21
234.483350468082
 31
0.0
  0
LINE
  5
1B8
330
18
100
AcDbEntity
  8
1
  6
Continuous
100
AcDbLine
 10
31.38612318259083
 20
249.298307468082
 30
0.0
 11
35.63612118259061
 21
249.298307468082
 31
0.0
  0
LINE
  5
1B9
330
18
100
AcDbEntity
  8
2
  6
Continuous
100
AcDbLine
 10
30.63612118259061
 20
248.548307468082
 30
0.0
 11
35.63612118259061
 21
248.548307468082
 31
0.0
  0
LINE
  5
1BA
330
18
100
AcDbEntity
  8
1
  6
Continuous
100
AcDbLine
 10
31.38612318259083
 20
239.298307468082
 30
0.0
 11
35.63612118259061
 21
239.298307468082
 31
0.0
  0
LINE
  5
1BB
330
18
100
AcDbEntity
  8
2
  6
Continuous
100
AcDbLine
 10
30.63612118259061
 20
240.048307468082
 30
0.0
 11
35.63612118259061
 21
240.048307468082
 31
0.0
  0
LINE
  5
1BC
330
18
100
AcDbEntity
  8
1
  6
Continuous
100
AcDbLine
 10
30.63612118259061
 20
248.548307468082
 30
0.0
 11
30.63612118259061
 21
240.048307468082
 31
0.0
  0
LINE
  5
1BD
330
18
100
AcDbEntity
  8
1
  6
Continuous
100
AcDbLine
 10
31.38612318259083
 20
249.298307468082
 30
0.0
 11
31.38612318259083
 21
239.298307468082
 31
0.0
  0
LINE
  5
1BE
330
18
100
AcDbEntity
  8
1
  6
Continuous
100
AcDbLine
 10
30.63612118259061
 20
240.048307468082
 30
0.0
 11
31.38612318259083
 21
239.298307468082
 31
0.0
  0
LINE
  5
1BF
330
18
100
AcDbEntity
  8
1
  6
Continuous
100
AcDbLine
 10
30.63612118259061
 20
248.548307468082
 30
0.0
 11
31.38612318259083
 21
249.298307468082
 31
0.0
  0
ARC
  5
1C0
330
18
100
AcDbEntity
  8
1
  6
Continuous
100
AcDbCircle
 10
48.17779218259079
 20
244.298307468082
 30
0.0
 40
12.541667
100
AcDbArc
 50
156.9649729999999
 51
203.035037
  0
ARC
  5
1C1
330
18
100
AcDbEntity
  8
1
  6
Continuous
100
AcDbCircle
 10
29.09444918259066
 20
244.298307468082
 30
0.0
 40
12.541667
100
AcDbArc
 50
336.9649680000001
 51
23.03503199999988
  0
LINE
  5
1C2
330
18
100
AcDbEntity
  8
1
  6
Continuous
100
AcDbLine
 10
36.63612118259061
 20
239.390829468082
 30
0.0
 11
40.63612118259084
 21
239.390829468082
 31
0.0
  0
LINE
  5
1C3
330
18
100
AcDbEntity
  8
1
  6
Continuous
100
AcDbLine
 10
36.63612118259061
 20
249.205785468082
 30
0.0
 11
40.63612118259084
 21
249.205785468082
 31
0.0
  0
LINE
  5
1C4
330
18
100
AcDbEntity
  8
1
  6
Continuous
100
AcDbLine
 10
36.63612118259061
 20
254.113264468082
 30
0.0
 11
40.63612118259084
 21
254.113264468082
 31
0.0
  0
ARC
  5
1C7
330
18
100
AcDbEntity
  8
1
  6
Continuous
100
AcDbCircle
 10
-17.23158581740938
 20
249.0952744680821
 30
0.0
 40
64.36770600000001
100
AcDbArc
 50
0.0
 51
21.27838499999984
  0
LINE
  5
1C8
330
18
100
AcDbEntity
  8
1
  6
Continuous
100
AcDbLine
 10
44.13609018259046
 20
251.2983074680819
 30
0.0
 11
44.13609018259046
 21
229.298292468082
 31
0.0
  0
LINE
  5
1CA
330
18
100
AcDbEntity
  8
1
  6
Continuous
100
AcDbLine
 10
44.13609018259046
 20
229.298292468082
 30
0.0
 11
47.13612118259059
 21
229.298292468082
 31
0.0
  0
ARC
  5
1E2
330
18
100
AcDbEntity
  8
1
  6
Continuous
100
AcDbCircle
 10
30.13609018259069
 20
319.425323468082
 30
0.0
 40
4.0
100
AcDbArc
 50
0.0
 51
75.52248800000025
  0
LINE
  5
1E3
330
18
100
AcDbEntity
  8
1
  6
Continuous
100
AcDbLine
 10
31.13609018259069
 20
326.2983074680821
 30
0.0
 11
31.13609018259069
 21
318.2983074680818
 31
0.0
  0
LINE
  5
1E4
330
18
100
AcDbEntity
  8
1
  6
Continuous
100
AcDbLine
 10
34.13612118259083
 20
321.798307468082
 30
0.0
 11
34.13612118259083
 21
318.2983074680818
 31
0.0
  0
ARC
  5
1E5
330
18
100
AcDbEntity
  8
1
  6
Continuous
100
AcDbCircle
 10
35.63612118259061
 20
321.798307468082
 30
0.0
 40
1.5
100
AcDbArc
 50
89.99998199999998
 51
179.9999639999999
  0
LINE
  5
1EC
330
18
100
AcDbEntity
  8
1
  6
Continuous
100
AcDbLine
 10
56.13609018259079
 20
321.2983074680821
 30
0.0
 11
84.13609018259068
 21
321.2983074680821
 31
0.0
  0
LINE
  5
1ED
330
18
100
AcDbEntity
  8
4
  6
CENTER
100
AcDbLine
 10
45.13609018259081
 20
332.2199797904214
 30
0.0
 11
45.13609018259081
 21
317.2199797904213
 31
0.0
  0
LINE
  5
1EE
330
18
100
AcDbEntity
  8
4
  6
CENTER
100
AcDbLine
 10
47.63609018259081
 20
332.2199797904214
 30
0.0
 11
47.63609018259081
 21
317.2199797904213
 31
0.0
  0
ARC
  5
1EF
330
18
100
AcDbEntity
  8
1
  6
Continuous
100
AcDbCircle
 10
48.63612118259085
 20
321.798307468082
 30
0.0
 40
1.5
100
AcDbArc
 50
89.99998199999998
 51
179.9999639999999
  0
ARC
  5
1F0
330
18
100
AcDbEntity
  8
1
  6
Continuous
100
AcDbCircle
 10
64.35062918259063
 20
323.5128424680818
 30
0.0
 40
2.214531
100
AcDbArc
 50
185.559307277751
 51
270.0000280000002
  0
ARC
  5
1F1
330
18
100
AcDbEntity
  8
1
  6
Continuous
100
AcDbCircle
 10
56.13609018259079
 20
323.298307468082
 30
0.0
 40
2.0
100
AcDbArc
 50
179.999978
 51
270.0000280000002
  0
ARC
  5
1F2
330
18
100
AcDbEntity
  8
1
  6
Continuous
100
AcDbCircle
 10
84.13609018259068
 20
323.298307468082
 30
0.0
 40
2.0
100
AcDbArc
 50
269.9999630000001
 51
0.0
  0
ARC
  5
1F3
330
18
100
AcDbEntity
  8
1
  6
Continuous
100
AcDbCircle
 10
75.92155118259075
 20
323.5128424680818
 30
0.0
 40
2.214531
100
AcDbArc
 50
269.9999630000001
 51
354.4406927222488
  0
ARC
  5
1F4
330
18
100
AcDbEntity
  8
1
  6
Continuous
100
AcDbCircle
 10
-20.19087481740928
 20
318.2983074680818
 30
0.0
 40
126.32692
100
AcDbArc
 50
338.721611
 51
0.0
  0
ARC
  5
1F5
330
18
100
AcDbEntity
  8
1
  6
Continuous
100
AcDbCircle
 10
-8.650102817408992
 20
318.2983074680818
 30
0.0
 40
117.7861939999999
100
AcDbArc
 50
338.0387019999997
 51
0.0
  0
LINE
  5
1F6
330
18
100
AcDbEntity
  8
1
  6
Continuous
100
AcDbLine
 10
93.13605918259055
 20
321.798307468082
 30
0.0
 11
93.13605918259055
 21
229.298292468082
 31
0.0
  0
ARC
  5
1F7
330
18
100
AcDbEntity
  8
1
  6
Continuous
100
AcDbCircle
 10
82.68609418259087
 20
244.298307468082
 30
0.0
 40
17.450001
100
AcDbArc
 50
328.9517630000001
 51
31.04826400000013
  0
LINE
  5
1F8
330
18
100
AcDbEntity
  8
1
  6
Continuous
100
AcDbLine
 10
97.63609018259069
 20
235.298307468082
 30
0.0
 11
97.63609018259069
 21
253.2983074680819
 31
0.0
  0
ARC
  5
1FB
330
18
100
AcDbEntity
  8
1
  6
Continuous
100
AcDbCircle
 10
157.5037971825906
 20
251.2983074680819
 30
0.0
 40
61.367702
100
AcDbArc
 50
158.0386659999999
 51
179.9999639999999
  0
ARC
  5
1FC
330
18
100
AcDbEntity
  8
1
  6
Continuous
100
AcDbCircle
 10
157.5037661825906
 20
249.0952744680821
 30
0.0
 40
64.36770600000001
100
AcDbArc
 50
158.7215749999998
 51
179.9999639999999
  0
LINE
  5
1FD
330
18
100
AcDbEntity
  8
1
  6
Continuous
100
AcDbLine
 10
96.13609018259079
 20
251.2983074680819
 30
0.0
 11
96.13609018259079
 21
229.298292468082
 31
0.0
  0
LINE
  5
1FE
330
18
100
AcDbEntity
  8
1
  6
Continuous
100
AcDbLine
 10
96.13609018259079
 20
229.298292468082
 30
0.0
 11
93.13605918259055
 21
229.298292468082
 31
0.0
  0
LINE
  5
202
330
18
100
AcDbEntity
  8
1
  6
Continuous
100
AcDbLine
 10
97.63609018259069
 20
235.298307468082
 30
0.0
 11
96.13609018259079
 21
235.298307468082
 31
0.0
  0
LINE
  5
207
330
18
100
AcDbEntity
  8
1
  6
Continuous
100
AcDbLine
 10
97.63609018259069
 20
253.2983074680819
 30
0.0
 11
96.16869427438007
 21
253.2983074680819
 31
0.0
  0
ARC
  5
208
330
18
100
AcDbEntity
  8
1
  6
Continuous
100
AcDbCircle
 10
110.1360901825905
 20
319.425323468082
 30
0.0
 40
4.0
100
AcDbArc
 50
104.4774759999999
 51
179.9999639999999
  0
LINE
  5
209
330
18
100
AcDbEntity
  8
4
  6
CENTER
100
AcDbLine
 10
95.1360901825908
 20
332.2199797904214
 30
0.0
 11
95.1360901825908
 21
317.2199797904213
 31
0.0
  0
LINE
  5
20A
330
18
100
AcDbEntity
  8
4
  6
CENTER
100
AcDbLine
 10
92.63609018259069
 20
332.2199797904214
 30
0.0
 11
92.63609018259069
 21
317.2199797904213
 31
0.0
  0
ARC
  5
20B
330
18
100
AcDbEntity
  8
1
  6
Continuous
100
AcDbCircle
 10
91.63605918259063
 20
321.798307468082
 30
0.0
 40
1.5
100
AcDbArc
 50
0.0
 51
89.99998199999998
  0
LINE
  5
20C
330
18
100
AcDbEntity
  8
1
  6
Continuous
100
AcDbLine
 10
106.1360591825905
 20
321.798307468082
 30
0.0
 11
106.1360591825905
 21
318.2983074680818
 31
0.0
  0
ARC
  5
20D
330
18
100
AcDbEntity
  8
1
  6
Continuous
100
AcDbCircle
 10
104.6360591825906
 20
321.798307468082
 30
0.0
 40
1.5
100
AcDbArc
 50
0.0
 51
89.99998199999998
  0
LINE
  5
20E
330
18
100
AcDbEntity
  8
1
  6
Continuous
100
AcDbLine
 10
109.1360901825906
 20
326.2983074680821
 30
0.0
 11
109.1360901825906
 21
318.2983074680818
 31
0.0
  0
LINE
  5
20F
330
18
100
AcDbEntity
  8
1
  6
Continuous
100
AcDbLine
 10
230.6024491825906
 20
243.086508468082
 30
0.0
 11
214.8668231825908
 21
308.4691614680818
 31
0.0
  0
LINE
  5
210
330
18
100
AcDbEntity
  8
1
  6
Continuous
100
AcDbLine
 10
229.1027571825906
 20
322.9316384680818
 30
0.0
 11
229.1027571825906
 21
253.9983124680819
 31
0.0
  0
ARC
  5
211
330
18
100
AcDbEntity
  8
1
  6
Continuous
100
AcDbCircle
 10
-52.04500081740923
 20
219.645917468082
 30
0.0
 40
281.3645629999999
100
AcDbArc
 50
8.513190000000186
 51
18.70002000000019
  0
LINE
  5
214
330
18
100
AcDbEntity
  8
1
  6
Continuous
100
AcDbLine
 10
193.1027571825906
 20
323.298307468082
 30
0.0
 11
205.6027571825906
 21
323.298307468082
 31
0.0
  0
LINE
  5
215
330
18
100
AcDbEntity
  8
1
  6
Continuous
100
AcDbLine
 10
193.1027571825906
 20
326.2983074680821
 30
0.0
 11
193.1027571825906
 21
323.298307468082
 31
0.0
  0
ARC
  5
216
330
18
100
AcDbEntity
  8
1
  6
Continuous
100
AcDbCircle
 10
199.3109921825906
 20
304.7253434680821
 30
0.0
 40
16.0
100
AcDbArc
 50
13.53200799999995
 51
60.722479
  0
LINE
  5
217
330
18
100
AcDbEntity
  8
4
  6
CENTER
100
AcDbLine
 10
203.1027571825906
 20
317.723816247981
 30
0.0
 11
203.1027571825906
 21
332.7238162479809
 31
0.0
  0
LINE
  5
218
330
18
100
AcDbEntity
  8
4
  6
CENTER
100
AcDbLine
 10
208.1027571825905
 20
317.723816247981
 30
0.0
 11
208.1027571825905
 21
332.7238162479809
 31
0.0
  0
LINE
  5
219
330
18
100
AcDbEntity
  8
1
  6
Continuous
100
AcDbLine
 10
205.6027571825906
 20
323.298307468082
 30
0.0
 11
205.6027571825906
 21
321.2983074680821
 31
0.0
  0
ARC
  5
21A
330
18
100
AcDbEntity
  8
1
  6
Continuous
100
AcDbCircle
 10
208.6027571825906
 20
321.2983074680821
 30
0.0
 40
3.0
100
AcDbArc
 50
179.999978
 51
240.722449
  0
ARC
  5
21B
330
18
100
AcDbEntity
  8
1
  6
Continuous
100
AcDbCircle
 10
202.6027571825906
 20
323.298307468082
 30
0.0
 40
3.0
100
AcDbArc
 50
0.0
 51
89.99998199999998
  0
ARC
  5
21C
330
18
100
AcDbEntity
  8
1
  6
Continuous
100
AcDbCircle
 10
211.1027571825906
 20
450.8706715015941
 30
0.0
 40
8.0
100
AcDbArc
 50
90.00000300000015
 51
270.0000009999997
  0
LINE
  5
21D
330
18
100
AcDbEntity
  8
1
  6
Continuous
100
AcDbLine
 10
193.1027571825906
 20
419.8706715015942
 30
0.0
 11
193.1027571825906
 21
481.8706715015942
 31
0.0
  0
LINE
  5
21E
330
18
100
AcDbEntity
  8
4
  6
CENTER
100
AcDbLine
 10
210.6027571825906
 20
425.8706715015941
 30
0.0
 11
195.6027571825906
 21
425.8706715015941
 31
0.0
  0
ARC
  5
21F
330
18
100
AcDbEntity
  8
1
  6
Continuous
100
AcDbCircle
 10
201.1027571825906
 20
419.8706715015942
 30
0.0
 40
8.0
100
AcDbArc
 50
179.999978
 51
270.0000280000002
  0
ARC
  5
220
330
18
100
AcDbEntity
  8
1
  6
Continuous
100
AcDbCircle
 10
203.1027571825906
 20
425.8706715015941
 30
0.0
 40
5.5
100
AcDbArc
 50
116.5650739999994
 51
296.5650380000001
  0
ARC
  5
221
330
18
100
AcDbEntity
  8
1
  6
Continuous
100
AcDbCircle
 10
209.3843431825904
 20
425.8706715015941
 30
0.0
 40
14.0
100
AcDbArc
 50
270.0000179999999
 51
325.4818909999999
  0
LINE
  5
222
330
18
100
AcDbEntity
  8
1
  6
Continuous
100
AcDbLine
 10
209.3843431825904
 20
411.8706715015941
 30
0.0
 11
201.1027571825906
 21
411.8706715015941
 31
0.0
  0
ARC
  5
223
330
18
100
AcDbEntity
  8
1
  6
Continuous
100
AcDbCircle
 10
218.1027571825906
 20
428.8706715015941
 30
0.0
 40
14.0
100
AcDbArc
 50
31.96572199999982
 51
89.99998199999998
  0
ARC
  5
224
330
18
100
AcDbEntity
  8
1
  6
Continuous
100
AcDbCircle
 10
234.1027571825906
 20
408.8706715015941
 30
0.0
 40
16.0
100
AcDbArc
 50
89.99998199999998
 51
145.4819089999999
  0
ARC
  5
225
330
18
100
AcDbEntity
  8
1
  6
Continuous
100
AcDbCircle
 10
208.1027571825905
 20
428.3706715015942
 30
0.0
 40
5.5
100
AcDbArc
 50
296.5650480000002
 51
116.5650739999994
  0
LINE
  5
226
330
18
100
AcDbEntity
  8
4
  6
CENTER
100
AcDbLine
 10
208.1027571825905
 20
420.8706715015941
 30
0.0
 11
208.1027571825905
 21
435.8706715015942
 31
0.0
  0
LINE
  5
227
330
18
100
AcDbEntity
  8
4
  6
CENTER
100
AcDbLine
 10
203.1027571825906
 20
418.3706715015942
 30
0.0
 11
203.1027571825906
 21
433.3706715015941
 31
0.0
  0
LINE
  5
228
330
18
100
AcDbEntity
  8
4
  6
CENTER
100
AcDbLine
 10
215.6027571825906
 20
428.3706715015942
 30
0.0
 11
200.6027571825906
 21
428.3706715015942
 31
0.0
  0
LINE
  5
229
330
18
100
AcDbEntity
  8
1
  6
Continuous
100
AcDbLine
 10
205.5624311825908
 20
420.9513235015942
 30
0.0
 11
210.5624291825908
 21
423.4513225015941
 31
0.0
  0
LINE
  5
22A
330
18
100
AcDbEntity
  8
1
  6
Continuous
100
AcDbLine
 10
200.6430811825905
 20
430.7900225015941
 30
0.0
 11
205.6430801825906
 21
433.290021501594
 31
0.0
  0
LINE
  5
22B
330
18
100
AcDbEntity
  8
1
  6
Continuous
100
AcDbLine
 10
218.1027571825906
 20
442.8706715015941
 30
0.0
 11
211.1027571825906
 21
442.8706715015941
 31
0.0
  0
LINE
  5
22C
330
18
100
AcDbEntity
  8
1
  6
Continuous
100
AcDbLine
 10
239.1027571825905
 20
423.3707025015942
 30
0.0
 11
239.1027571825905
 21
424.8707025015939
 31
0.0
  0
ARC
  5
22D
330
18
100
AcDbEntity
  8
1
  6
Continuous
100
AcDbCircle
 10
232.5249621825906
 20
437.8706715015941
 30
0.0
 40
3.0
100
AcDbArc
 50
211.9656760000002
 51
270.0000179999999
  0
ARC
  5
22E
330
18
100
AcDbEntity
  8
1
  6
Continuous
100
AcDbCircle
 10
203.1027571825906
 20
475.8706715015941
 30
0.0
 40
5.5
100
AcDbArc
 50
63.43496500000044
 51
243.4349359999999
  0
LINE
  5
22F
330
18
100
AcDbEntity
  8
4
  6
CENTER
100
AcDbLine
 10
210.6027571825906
 20
475.8706715015941
 30
0.0
 11
195.6027571825906
 21
475.8706715015941
 31
0.0
  0
ARC
  5
230
330
18
100
AcDbEntity
  8
1
  6
Continuous
100
AcDbCircle
 10
201.1027571825906
 20
481.8706715015942
 30
0.0
 40
8.0
100
AcDbArc
 50
89.99998199999998
 51
180.0000189999998
  0
LINE
  5
231
330
18
100
AcDbEntity
  8
4
  6
CENTER
100
AcDbLine
 10
208.1027571825905
 20
480.8706715015942
 30
0.0
 11
208.1027571825905
 21
465.8706715015942
 31
0.0
  0
LINE
  5
232
330
18
100
AcDbEntity
  8
4
  6
CENTER
100
AcDbLine
 10
203.1027571825906
 20
483.3706715015941
 30
0.0
 11
203.1027571825906
 21
468.3706715015942
 31
0.0
  0
ARC
  5
233
330
18
100
AcDbEntity
  8
1
  6
Continuous
100
AcDbCircle
 10
208.1027571825905
 20
473.3706715015942
 30
0.0
 40
5.5
100
AcDbArc
 50
243.4349260000004
 51
63.43495199999978
  0
ARC
  5
234
330
18
100
AcDbEntity
  8
1
  6
Continuous
100
AcDbCircle
 10
234.1027571825906
 20
492.870671501594
 30
0.0
 40
16.0
100
AcDbArc
 50
214.5180909999999
 51
270.0000179999999
  0
ARC
  5
235
330
18
100
AcDbEntity
  8
1
  6
Continuous
100
AcDbCircle
 10
218.1027571825906
 20
472.8706715015942
 30
0.0
 40
14.0
100
AcDbArc
 50
270.0000179999999
 51
328.0342779999996
  0
LINE
  5
236
330
18
100
AcDbEntity
  8
1
  6
Continuous
100
AcDbLine
 10
218.1027571825906
 20
458.8706715015941
 30
0.0
 11
211.1027571825906
 21
458.8706715015941
 31
0.0
  0
LINE
  5
237
330
18
100
AcDbEntity
  8
4
  6
CENTER
100
AcDbLine
 10
215.6027571825906
 20
473.3706715015942
 30
0.0
 11
200.6027571825906
 21
473.3706715015942
 31
0.0
  0
LINE
  5
238
330
18
100
AcDbEntity
  8
1
  6
Continuous
100
AcDbLine
 10
200.6430851825906
 20
470.9513245015942
 30
0.0
 11
205.6430861825906
 21
468.4513235015941
 31
0.0
  0
ARC
  5
239
330
18
100
AcDbEntity
  8
1
  6
Continuous
100
AcDbCircle
 10
232.5249621825906
 20
463.8706715015941
 30
0.0
 40
3.0
100
AcDbArc
 50
89.99998199999998
 51
148.0343239999998
  0
ARC
  5
23A
330
18
100
AcDbEntity
  8
1
  6
Continuous
100
AcDbCircle
 10
209.3843431825904
 20
475.8706715015941
 30
0.0
 40
14.0
100
AcDbArc
 50
34.51810900000005
 51
89.99998199999998
  0
LINE
  5
23B
330
18
100
AcDbEntity
  8
1
  6
Continuous
100
AcDbLine
 10
205.5624341825904
 20
480.7900235015941
 30
0.0
 11
210.5624361825904
 21
478.2900225015943
 31
0.0
  0
LINE
  5
23C
330
18
100
AcDbEntity
  8
1
  6
Continuous
100
AcDbLine
 10
209.3843431825904
 20
489.8706715015942
 30
0.0
 11
201.1027571825906
 21
489.8706715015942
 31
0.0
  0
LINE
  5
23D
330
18
100
AcDbEntity
  8
1
  6
Continuous
100
AcDbLine
 10
239.6027508989229
 20
485.3706405015941
 30
0.0
 11
239.6027508989229
 21
479.3706405015941
 31
0.0
  0
LINE
  5
23E
330
18
100
AcDbEntity
  8
1
  6
Continuous
100
AcDbLine
 10
239.1027571825906
 20
479.3706405015941
 30
0.0
 11
239.1027571825906
 21
476.8706405015941
 31
0.0
  0
LINE
  5
23F
330
18
100
AcDbEntity
  8
2
  6
Continuous
100
AcDbLine
 10
243.8527571825906
 20
490.3706715015942
 30
0.0
 11
243.8527571825906
 21
485.3706405015941
 31
0.0
  0
LINE
  5
240
330
18
100
AcDbEntity
  8
1
  6
Continuous
100
AcDbLine
 10
243.1027571825906
 20
489.6206695015941
 30
0.0
 11
243.1027571825906
 21
485.3706405015941
 31
0.0
  0
LINE
  5
241
330
18
100
AcDbEntity
  8
1
  6
Continuous
100
AcDbLine
 10
243.8527571825906
 20
490.3706715015942
 30
0.0
 11
243.1027571825906
 21
489.6206695015941
 31
0.0
  0
LINE
  5
242
330
18
100
AcDbEntity
  8
4
  6
CENTER
100
AcDbLine
 10
248.1027571825906
 20
331.498308468082
 30
0.0
 11
248.1027571825906
 21
189.2982994680821
 31
0.0
  0
LINE
  5
243
330
18
100
AcDbEntity
  8
1
  6
Continuous
100
AcDbLine
 10
267.1027571825904
 20
322.9316384680818
 30
0.0
 11
267.1027571825904
 21
253.9983124680819
 31
0.0
  0
LINE
  5
244
330
18
100
AcDbEntity
  8
1
  6
Continuous
100
AcDbLine
 10
265.6030651825906
 20
243.086499468082
 30
0.0
 11
281.3386931825906
 21
308.4691624680818
 31
0.0
  0
ARC
  5
245
330
18
100
AcDbEntity
  8
1
  6
Continuous
100
AcDbCircle
 10
548.2505311825907
 20
219.645917468082
 30
0.0
 40
281.3645629999999
100
AcDbArc
 50
161.2999439999998
 51
171.4867749999999
  0
ARC
  5
24C
330
18
100
AcDbEntity
  8
1
  6
Continuous
100
AcDbCircle
 10
296.8945201825906
 20
304.7253434680821
 30
0.0
 40
16.0
100
AcDbArc
 50
119.2774789999997
 51
166.4679519999995
  0
LINE
  5
24D
330
18
100
AcDbEntity
  8
4
  6
CENTER
100
AcDbLine
 10
288.1027571825904
 20
317.723816247981
 30
0.0
 11
288.1027571825904
 21
332.7238162479809
 31
0.0
  0
LINE
  5
24E
330
18
100
AcDbEntity
  8
4
  6
CENTER
100
AcDbLine
 10
293.1027571825905
 20
317.723816247981
 30
0.0
 11
293.1027571825905
 21
332.7238162479809
 31
0.0
  0
LINE
  5
24F
330
18
100
AcDbEntity
  8
1
  6
Continuous
100
AcDbLine
 10
303.1027571825906
 20
323.2983074680818
 30
0.0
 11
290.6027571825905
 21
323.298307468082
 31
0.0
  0
LINE
  5
250
330
18
100
AcDbEntity
  8
1
  6
Continuous
100
AcDbLine
 10
290.6027571825905
 20
323.298307468082
 30
0.0
 11
290.6027571825905
 21
321.2983074680821
 31
0.0
  0
ARC
  5
251
330
18
100
AcDbEntity
  8
1
  6
Continuous
100
AcDbCircle
 10
287.6027571825907
 20
321.2983074680821
 30
0.0
 40
3.0
100
AcDbArc
 50
299.2775419999995
 51
0.0000140000001062
  0
ARC
  5
252
330
18
100
AcDbEntity
  8
1
  6
Continuous
100
AcDbCircle
 10
293.6027571825905
 20
323.298307468082
 30
0.0
 40
3.0
100
AcDbArc
 50
89.99998199999998
 51
179.9999639999999
  0
LINE
  5
253
330
18
100
AcDbEntity
  8
1
  6
Continuous
100
AcDbLine
 10
303.1027571825906
 20
326.2983074680821
 30
0.0
 11
303.1027571825906
 21
323.2983074680818
 31
0.0
  0
ARC
  5
254
330
18
100
AcDbEntity
  8
1
  6
Continuous
100
AcDbCircle
 10
285.1027571825905
 20
450.8706715015941
 30
0.0
 40
8.0
100
AcDbArc
 50
270.0000179999999
 51
90.00000300000015
  0
LINE
  5
255
330
18
100
AcDbEntity
  8
1
  6
Continuous
100
AcDbLine
 10
303.1027571825905
 20
419.8706715015942
 30
0.0
 11
303.1027571825905
 21
481.8706715015942
 31
0.0
  0
LINE
  5
256
330
18
100
AcDbEntity
  8
4
  6
CENTER
100
AcDbLine
 10
248.1027571825906
 20
495.3706405015937
 30
0.0
 11
248.1027571825906
 21
411.2618656951509
 31
0.0
  0
LINE
  5
257
330
18
100
AcDbEntity
  8
4
  6
CENTER
100
AcDbLine
 10
280.6027571825905
 20
428.3706715015942
 30
0.0
 11
295.6027571825904
 21
428.3706715015942
 31
0.0
  0
LINE
  5
258
330
18
100
AcDbEntity
  8
4
  6
CENTER
100
AcDbLine
 10
285.6027571825907
 20
425.8706715015941
 30
0.0
 11
300.6027571825904
 21
425.8706715015941
 31
0.0
  0
LINE
  5
259
330
18
100
AcDbEntity
  8
1
  6
Continuous
100
AcDbLine
 10
286.8211711825907
 20
411.8706715015941
 30
0.0
 11
295.1027571825905
 21
411.8706715015941
 31
0.0
  0
LINE
  5
25A
330
18
100
AcDbEntity
  8
1
  6
Continuous
100
AcDbLine
 10
290.6430851825906
 20
420.9513225015942
 30
0.0
 11
285.6430861825908
 21
423.4513225015941
 31
0.0
  0
ARC
  5
25B
330
18
100
AcDbEntity
  8
1
  6
Continuous
100
AcDbCircle
 10
288.1027571825904
 20
428.3706715015942
 30
0.0
 40
5.5
100
AcDbArc
 50
63.43494499999994
 51
243.4349630000002
  0
ARC
  5
25C
330
18
100
AcDbEntity
  8
1
  6
Continuous
100
AcDbCircle
 10
286.8211711825907
 20
425.8706715015941
 30
0.0
 40
14.0
100
AcDbArc
 50
214.5181450000003
 51
270.0000179999999
  0
ARC
  5
25D
330
18
100
AcDbEntity
  8
1
  6
Continuous
100
AcDbCircle
 10
278.1027571825905
 20
428.8706715015941
 30
0.0
 40
14.0
100
AcDbArc
 50
90.00003699999981
 51
148.0342959999997
  0
ARC
  5
25E
330
18
100
AcDbEntity
  8
1
  6
Continuous
100
AcDbCircle
 10
262.1027571825905
 20
408.8706715015941
 30
0.0
 40
16.0
100
AcDbArc
 50
34.51810900000005
 51
90.00003699999981
  0
LINE
  5
25F
330
18
100
AcDbEntity
  8
1
  6
Continuous
100
AcDbLine
 10
257.1027571825904
 20
423.3707025015942
 30
0.0
 11
257.1027571825904
 21
424.8380935015942
 31
0.0
  0
ARC
  5
260
330
18
100
AcDbEntity
  8
1
  6
Continuous
100
AcDbCircle
 10
263.6805541825907
 20
437.8706715015941
 30
0.0
 40
3.0
100
AcDbArc
 50
270.0000179999999
 51
328.0343600000001
  0
LINE
  5
261
330
18
100
AcDbEntity
  8
4
  6
CENTER
100
AcDbLine
 10
288.1027571825904
 20
420.8706715015941
 30
0.0
 11
288.1027571825904
 21
435.8706715015942
 31
0.0
  0
LINE
  5
262
330
18
100
AcDbEntity
  8
1
  6
Continuous
100
AcDbLine
 10
278.1027571825905
 20
442.8706715015941
 30
0.0
 11
285.1027571825905
 21
442.8706715015941
 31
0.0
  0
ARC
  5
263
330
18
100
AcDbEntity
  8
1
  6
Continuous
100
AcDbCircle
 10
295.1027571825905
 20
419.8706715015942
 30
0.0
 40
8.0
100
AcDbArc
 50
270.0000179999999
 51
0.0000549999998358
  0
ARC
  5
264
330
18
100
AcDbEntity
  8
1
  6
Continuous
100
AcDbCircle
 10
293.1027571825905
 20
425.8706715015941
 30
0.0
 40
5.5
100
AcDbArc
 50
243.434981
 51
63.43494499999994
  0
LINE
  5
265
330
18
100
AcDbEntity
  8
4
  6
CENTER
100
AcDbLine
 10
293.1027571825905
 20
418.3706715015942
 30
0.0
 11
293.1027571825905
 21
433.3706715015941
 31
0.0
  0
LINE
  5
266
330
18
100
AcDbEntity
  8
1
  6
Continuous
100
AcDbLine
 10
295.5624341825908
 20
430.790021501594
 30
0.0
 11
290.5624351825908
 21
433.290021501594
 31
0.0
  0
LINE
  5
267
330
18
100
AcDbEntity
  8
1
  6
Continuous
100
AcDbLine
 10
286.8211711825907
 20
489.8706715015942
 30
0.0
 11
295.1027571825905
 21
489.8706715015942
 31
0.0
  0
LINE
  5
268
330
18
100
AcDbEntity
  8
1
  6
Continuous
100
AcDbLine
 10
290.6430801825907
 20
480.7900235015941
 30
0.0
 11
285.6430851825905
 21
478.2900265015937
 31
0.0
  0
ARC
  5
269
330
18
100
AcDbEntity
  8
1
  6
Continuous
100
AcDbCircle
 10
288.1027571825904
 20
473.3706715015942
 30
0.0
 40
5.5
100
AcDbArc
 50
116.5650330000004
 51
296.5650649999997
  0
LINE
  5
26A
330
18
100
AcDbEntity
  8
4
  6
CENTER
100
AcDbLine
 10
280.6027571825906
 20
473.3706715015937
 30
0.0
 11
295.6027571825909
 21
473.3706715015937
 31
0.0
  0
LINE
  5
26B
330
18
100
AcDbEntity
  8
4
  6
CENTER
100
AcDbLine
 10
285.6027571825908
 20
475.8706715015939
 30
0.0
 11
300.6027571825908
 21
475.8706715015939
 31
0.0
  0
LINE
  5
26C
330
18
100
AcDbEntity
  8
4
  6
CENTER
100
AcDbLine
 10
288.1027571825908
 20
480.8706715015937
 30
0.0
 11
288.1027571825907
 21
465.8706715015936
 31
0.0
  0
ARC
  5
26D
330
18
100
AcDbEntity
  8
1
  6
Continuous
100
AcDbCircle
 10
262.1027571825905
 20
492.870671501594
 30
0.0
 40
16.0
100
AcDbArc
 50
269.9999630000001
 51
325.4818909999999
  0
ARC
  5
26E
330
18
100
AcDbEntity
  8
1
  6
Continuous
100
AcDbCircle
 10
278.1027571825905
 20
472.8706715015942
 30
0.0
 40
14.0
100
AcDbArc
 50
211.9657040000002
 51
269.9999630000001
  0
ARC
  5
26F
330
18
100
AcDbEntity
  8
1
  6
Continuous
100
AcDbCircle
 10
263.6805541825907
 20
463.8706715015941
 30
0.0
 40
3.0
100
AcDbArc
 50
31.96563999999983
 51
89.99998199999998
  0
LINE
  5
270
330
18
100
AcDbEntity
  8
1
  6
Continuous
100
AcDbLine
 10
278.1027571825905
 20
458.8706715015941
 30
0.0
 11
285.1027571825905
 21
458.8706715015941
 31
0.0
  0
ARC
  5
271
330
18
100
AcDbEntity
  8
1
  6
Continuous
100
AcDbCircle
 10
252.3527582321165
 20
475.8394219232537
 30
0.0
 40
9.531218578340507
100
AcDbArc
 50
63.51885902312875
 51
116.4811409768712
  0
ARC
  5
272
330
18
100
AcDbEntity
  8
1
  6
Continuous
100
AcDbCircle
 10
252.3527582321165
 20
488.9018587373278
 30
0.0
 40
9.531218578340507
100
AcDbArc
 50
243.5188590231287
 51
296.4811409768712
  0
LINE
  5
273
330
18
100
AcDbEntity
  8
1
  6
Continuous
100
AcDbLine
 10
248.1027571825906
 20
484.3706362956118
 30
0.0
 11
248.1027571825906
 21
480.3706443649698
 31
0.0
  0
LINE
  5
274
330
18
100
AcDbEntity
  8
2
  6
Continuous
100
AcDbLine
 10
252.3527571825906
 20
490.3706715015942
 30
0.0
 11
252.3527571825906
 21
485.3706405015941
 31
0.0
  0
LINE
  5
275
330
18
100
AcDbEntity
  8
1
  6
Continuous
100
AcDbLine
 10
252.3527571825906
 20
490.3706715015942
 30
0.0
 11
253.1027571825906
 21
489.6206695015941
 31
0.0
  0
LINE
  5
276
330
18
100
AcDbEntity
  8
1
  6
Continuous
100
AcDbLine
 10
253.1027571825906
 20
489.6206695015941
 30
0.0
 11
253.1027571825906
 21
485.3706405015941
 31
0.0
  0
LINE
  5
277
330
18
100
AcDbEntity
  8
1
  6
Continuous
100
AcDbLine
 10
256.6027592816425
 20
485.3706405015941
 30
0.0
 11
256.6027592816425
 21
479.3706405015941
 31
0.0
  0
LINE
  5
278
330
18
100
AcDbEntity
  8
1
  6
Continuous
100
AcDbLine
 10
257.1027571825906
 20
479.3706405015941
 30
0.0
 11
257.1027571825906
 21
476.8706405015941
 31
0.0
  0
ARC
  5
279
330
18
100
AcDbEntity
  8
1
  6
Continuous
100
AcDbCircle
 10
286.8211711825907
 20
475.8706715015941
 30
0.0
 40
14.0
100
AcDbArc
 50
89.99998199999998
 51
145.4818549999996
  0
ARC
  5
27A
330
18
100
AcDbEntity
  8
1
  6
Continuous
100
AcDbCircle
 10
293.1027571825905
 20
475.8706715015941
 30
0.0
 40
5.5
100
AcDbArc
 50
296.5650549999999
 51
116.5650190000001
  0
LINE
  5
27B
330
18
100
AcDbEntity
  8
4
  6
CENTER
100
AcDbLine
 10
293.1027571825909
 20
483.370671501594
 30
0.0
 11
293.1027571825909
 21
468.3706715015937
 31
0.0
  0
LINE
  5
27C
330
18
100
AcDbEntity
  8
1
  6
Continuous
100
AcDbLine
 10
295.5624331825906
 20
470.9513175015941
 30
0.0
 11
290.5624381825908
 21
468.4513205015941
 31
0.0
  0
ARC
  5
27D
330
18
100
AcDbEntity
  8
1
  6
Continuous
100
AcDbCircle
 10
295.1027571825905
 20
481.8706715015942
 30
0.0
 40
8.0
100
AcDbArc
 50
359.9999450000002
 51
89.99998199999998
  0
LINE
  5
305
330
18
100
AcDbEntity
  8
1
  6
Continuous
100
AcDbLine
 10
585.0360911825906
 20
322.9316384680818
 30
0.0
 11
585.0360911825906
 21
253.9983124680819
 31
0.0
  0
LINE
  5
306
330
18
100
AcDbEntity
  8
4
  6
CENTER
100
AcDbLine
 10
604.0360911825906
 20
331.498308468082
 30
0.0
 11
604.0360911825906
 21
189.2982994680821
 31
0.0
  0
LINE
  5
30A
330
18
100
AcDbEntity
  8
1
  6
Continuous
100
AcDbLine
 10
623.0360911825904
 20
322.9316384680818
 30
0.0
 11
623.0360911825904
 21
253.9983124680819
 31
0.0
  0
LINE
  5
30C
330
18
100
AcDbEntity
  8
4
  6
CENTER
100
AcDbLine
 10
549.0360911825908
 20
244.298299468082
 30
0.0
 11
659.0360911825906
 21
244.298299468082
 31
0.0
  0
ARC
  5
311
330
18
100
AcDbEntity
  8
1
  6
Continuous
100
AcDbCircle
 10
604.0360911825906
 20
247.2982994680819
 30
0.0
 40
18.0
100
AcDbArc
 50
193.532011
 51
346.4679889999999
  0
ARC
  5
319
330
18
100
AcDbEntity
  8
1
  6
Continuous
100
AcDbCircle
 10
904.1838491825901
 20
219.645917468082
 30
0.0
 40
281.3645629999999
100
AcDbArc
 50
161.2999799999998
 51
171.4868099999998
  0
LINE
  5
31A
330
18
100
AcDbEntity
  8
1
  6
Continuous
100
AcDbLine
 10
621.5363991825906
 20
243.086508468082
 30
0.0
 11
637.2720251825905
 21
308.4691614680818
 31
0.0
  0
ARC
  5
31C
330
18
100
AcDbEntity
  8
1
  6
Continuous
100
AcDbCircle
 10
303.8883171825903
 20
219.645917468082
 30
0.0
 40
281.3645629999999
100
AcDbArc
 50
8.513224999999938
 51
18.70005600000017
  0
LINE
  5
31D
330
18
100
AcDbEntity
  8
1
  6
Continuous
100
AcDbLine
 10
586.5357831825904
 20
243.086499468082
 30
0.0
 11
570.8001551825907
 21
308.4691624680818
 31
0.0
  0
CIRCLE
  5
32B
330
18
100
AcDbEntity
  8
2
  6
Continuous
100
AcDbCircle
 10
604.0360911825906
 20
244.298299468082
 30
0.0
 40
4.250007999999922
  0
CIRCLE
  5
32C
330
18
100
AcDbEntity
  8
1
  6
Continuous
100
AcDbCircle
 10
604.0360911825906
 20
244.298299468082
 30
0.0
 40
5.000008000000006
  0
ARC
  5
39A
330
18
100
AcDbEntity
  8
1
  6
Continuous
100
AcDbCircle
 10
604.0360911825906
 20
244.298299468082
 30
0.0
 40
9.000007999999997
100
AcDbArc
 50
280.8118389104781
 51
319.1881610895246
  0
ARC
  5
39B
330
18
100
AcDbEntity
  8
1
  6
Continuous
100
AcDbCircle
 10
604.0360911825906
 20
244.298299468082
 30
0.0
 40
9.000007999999997
100
AcDbArc
 50
40.81183891047412
 51
79.18816108952822
  0
LINE
  5
39C
330
18
100
AcDbEntity
  8
1
  6
Continuous
100
AcDbLine
 10
612.5360974662582
 20
249.2057803840712
 30
0.0
 11
604.0360911825906
 21
254.1132613000601
 31
0.0
  0
LINE
  5
39D
330
18
100
AcDbEntity
  8
1
  6
Continuous
100
AcDbLine
 10
612.5360974662582
 20
239.3908185520928
 30
0.0
 11
604.0360911825906
 21
234.483337636104
 31
0.0
  0
ARC
  5
39F
330
18
100
AcDbEntity
  8
1
  6
Continuous
100
AcDbCircle
 10
604.0360911825906
 20
244.298299468082
 30
0.0
 40
9.000007999999997
100
AcDbArc
 50
160.8117578568634
 51
199.1882421431364
  0
LINE
  5
3A0
330
18
100
AcDbEntity
  8
1
  6
Continuous
100
AcDbLine
 10
595.5360890835385
 20
249.2057779680818
 30
0.0
 11
595.5360890835385
 21
239.390820968082
 31
0.0
  0
LINE
  5
3A6
330
18
100
AcDbEntity
  8
1
  6
Continuous
100
AcDbLine
 10
595.5360848989227
 20
239.3908185520928
 30
0.0
 11
604.0360911825902
 21
234.483337636104
 31
0.0
  0
ARC
  5
3A7
330
18
100
AcDbEntity
  8
1
  6
Continuous
100
AcDbCircle
 10
604.0360911825906
 20
244.298299468082
 30
0.0
 40
9.000007999999997
100
AcDbArc
 50
220.8118389104753
 51
259.1881610895218
  0
ARC
  5
3A9
330
18
100
AcDbEntity
  8
1
  6
Continuous
100
AcDbCircle
 10
604.0360911825906
 20
244.298299468082
 30
0.0
 40
9.000007999999997
100
AcDbArc
 50
100.8118389104717
 51
139.1881610895245
  0
LINE
  5
3AA
330
18
100
AcDbEntity
  8
1
  6
Continuous
100
AcDbLine
 10
595.5360848989227
 20
249.2057803840712
 30
0.0
 11
604.0360911825902
 21
254.1132613000601
 31
0.0
  0
ARC
  5
3AC
330
18
100
AcDbEntity
  8
1
  6
Continuous
100
AcDbCircle
 10
604.0360911825906
 20
244.298299468082
 30
0.0
 40
9.000007999999997
100
AcDbArc
 50
340.8117578568553
 51
19.1882421431447
  0
LINE
  5
3AD
330
18
100
AcDbEntity
  8
1
  6
Continuous
100
AcDbLine
 10
612.5360932816422
 20
249.2057779680818
 30
0.0
 11
612.5360932816422
 21
239.390820968082
 31
0.0
  0
LINE
  5
3AE
330
18
100
AcDbEntity
  8
1
  6
Continuous
100
AcDbLine
 10
252.3527571825906
 20
49.17067050159417
 30
0.0
 11
253.1027571825906
 21
49.92067250159417
 31
0.0
  0
ARC
  5
3AF
330
18
100
AcDbEntity
  8
1
  6
Continuous
100
AcDbCircle
 10
252.3527582321165
 20
50.63948326586038
 30
0.0
 40
9.531218578340507
100
AcDbArc
 50
63.51885902312875
 51
116.4811409768712
  0
ARC
  5
3B0
330
18
100
AcDbEntity
  8
1
  6
Continuous
100
AcDbCircle
 10
252.3527582321165
 20
63.70192007993455
 30
0.0
 40
9.531218578340507
100
AcDbArc
 50
243.5188590231287
 51
296.4811409768712
  0
LINE
  5
3B1
330
18
100
AcDbEntity
  8
1
  6
Continuous
100
AcDbLine
 10
239.1027571825905
 20
116.1706395015942
 30
0.0
 11
257.1027571825904
 21
116.1706395015942
 31
0.0
  0
ARC
  5
3B2
330
18
100
AcDbEntity
  8
1
  6
Continuous
100
AcDbCircle
 10
248.1027571825906
 20
101.220643501594
 30
0.0
 40
17.450001
100
AcDbArc
 50
58.95173599999955
 51
121.048237
  0
LINE
  5
3B3
330
18
100
AcDbEntity
  8
1
  6
Continuous
100
AcDbLine
 10
239.6027508989229
 20
54.17070150159418
 30
0.0
 11
256.6027592816425
 21
54.17070150159418
 31
0.0
  0
LINE
  5
3B4
330
18
100
AcDbEntity
  8
1
  6
Continuous
100
AcDbLine
 10
239.1027571825906
 20
60.17070150159418
 30
0.0
 11
257.1027571825906
 21
60.17070150159418
 31
0.0
  0
LINE
  5
3B5
330
18
100
AcDbEntity
  8
4
  6
CENTER
100
AcDbLine
 10
308.1027571825905
 20
88.6706705015942
 30
0.0
 11
188.1027571825906
 21
88.6706705015942
 31
0.0
  0
LINE
  5
3B6
330
18
100
AcDbEntity
  8
1
  6
Continuous
100
AcDbLine
 10
234.1027571825906
 20
62.6706705015942
 30
0.0
 11
262.1027571825905
 21
62.6706705015942
 31
0.0
  0
LINE
  5
3B9
330
18
100
AcDbEntity
  8
1
  6
Continuous
100
AcDbLine
 10
234.1027571825906
 20
114.6706705015942
 30
0.0
 11
262.1027571825905
 21
114.6706705015942
 31
0.0
  0
LINE
  5
3BA
330
18
100
AcDbEntity
  8
1
  6
Continuous
100
AcDbLine
 10
253.1027571825906
 20
49.92067250159417
 30
0.0
 11
243.1027571825906
 21
49.92067250159417
 31
0.0
  0
LINE
  5
3BB
330
18
100
AcDbEntity
  8
4
  6
CENTER
100
AcDbLine
 10
248.1027571825906
 20
44.17070150159441
 30
0.0
 11
248.1027571825906
 21
128.2794763080372
 31
0.0
  0
ARC
  5
3BC
330
18
100
AcDbEntity
  8
1
  6
Continuous
100
AcDbCircle
 10
209.3843431825904
 20
113.6706705015942
 30
0.0
 40
14.0
100
AcDbArc
 50
34.51810900000007
 51
89.99998199999998
  0
ARC
  5
3BD
330
18
100
AcDbEntity
  8
1
  6
Continuous
100
AcDbCircle
 10
201.1027571825906
 20
119.6706705015942
 30
0.0
 40
8.0
100
AcDbArc
 50
89.99997199999979
 51
180.0000219999999
  0
LINE
  5
3BE
330
18
100
AcDbEntity
  8
1
  6
Continuous
100
AcDbLine
 10
209.3843431825904
 20
127.670670501594
 30
0.0
 11
201.1027571825906
 21
127.670670501594
 31
0.0
  0
LINE
  5
3BF
330
18
100
AcDbEntity
  8
1
  6
Continuous
100
AcDbLine
 10
193.1027571825906
 20
119.6706705015942
 30
0.0
 11
193.1027571825906
 21
57.6706705015942
 31
0.0
  0
ARC
  5
3C1
330
18
100
AcDbEntity
  8
1
  6
Continuous
100
AcDbCircle
 10
234.1027571825906
 20
130.670670501594
 30
0.0
 40
16.0
100
AcDbArc
 50
214.5180909999999
 51
270.0000179999999
  0
LINE
  5
3C3
330
18
100
AcDbEntity
  8
4
  6
CENTER
100
AcDbLine
 10
208.1027571825905
 20
118.6706705015942
 30
0.0
 11
208.1027571825905
 21
103.670670501594
 31
0.0
  0
LINE
  5
3C4
330
18
100
AcDbEntity
  8
1
  6
Continuous
100
AcDbLine
 10
205.5624311825908
 20
118.5900185015942
 30
0.0
 11
210.5624291825908
 21
116.0900195015942
 31
0.0
  0
LINE
  5
3C5
330
18
100
AcDbEntity
  8
4
  6
CENTER
100
AcDbLine
 10
215.6027571825906
 20
111.1706705015942
 30
0.0
 11
200.6027571825906
 21
111.1706705015942
 31
0.0
  0
ARC
  5
3C6
330
18
100
AcDbEntity
  8
1
  6
Continuous
100
AcDbCircle
 10
208.1027571825905
 20
111.1706705015942
 30
0.0
 40
5.5
100
AcDbArc
 50
243.4349260000004
 51
63.43495199999981
  0
LINE
  5
3C7
330
18
100
AcDbEntity
  8
4
  6
CENTER
100
AcDbLine
 10
210.6027571825906
 20
113.6706705015942
 30
0.0
 11
195.6027571825906
 21
113.6706705015942
 31
0.0
  0
LINE
  5
3C8
330
18
100
AcDbEntity
  8
4
  6
CENTER
100
AcDbLine
 10
203.1027571825906
 20
121.1706705015942
 30
0.0
 11
203.1027571825906
 21
106.1706705015942
 31
0.0
  0
ARC
  5
3C9
330
18
100
AcDbEntity
  8
1
  6
Continuous
100
AcDbCircle
 10
203.1027571825906
 20
113.6706705015942
 30
0.0
 40
5.5
100
AcDbArc
 50
63.43496199999986
 51
243.4349260000004
  0
LINE
  5
3CA
330
18
100
AcDbEntity
  8
1
  6
Continuous
100
AcDbLine
 10
200.6430811825905
 20
108.7513195015942
 30
0.0
 11
205.6430801825906
 21
106.2513205015942
 31
0.0
  0
LINE
  5
3CC
330
18
100
AcDbEntity
  8
1
  6
Continuous
100
AcDbLine
 10
239.1027571825905
 20
116.1706395015942
 30
0.0
 11
239.1027571825905
 21
114.6706395015943
 31
0.0
  0
ARC
  5
3CF
330
18
100
AcDbEntity
  8
1
  6
Continuous
100
AcDbCircle
 10
234.1027571825906
 20
46.67067050159431
 30
0.0
 40
16.0
100
AcDbArc
 50
89.99998199999998
 51
145.4819089999999
  0
ARC
  5
3D0
330
18
100
AcDbEntity
  8
1
  6
Continuous
100
AcDbCircle
 10
208.1027571825905
 20
66.1706705015942
 30
0.0
 40
5.5
100
AcDbArc
 50
296.5650480000002
 51
116.5650739999994
  0
LINE
  5
3D1
330
18
100
AcDbEntity
  8
4
  6
CENTER
100
AcDbLine
 10
203.1027571825906
 20
56.1706705015942
 30
0.0
 11
203.1027571825906
 21
71.1706705015942
 31
0.0
  0
LINE
  5
3D2
330
18
100
AcDbEntity
  8
4
  6
CENTER
100
AcDbLine
 10
208.1027571825905
 20
58.6706705015942
 30
0.0
 11
208.1027571825905
 21
73.6706705015942
 31
0.0
  0
ARC
  5
3D3
330
18
100
AcDbEntity
  8
1
  6
Continuous
100
AcDbCircle
 10
203.1027571825906
 20
63.6706705015942
 30
0.0
 40
5.5
100
AcDbArc
 50
116.565064
 51
296.5650349999995
  0
LINE
  5
3D4
330
18
100
AcDbEntity
  8
4
  6
CENTER
100
AcDbLine
 10
215.6027571825906
 20
66.1706705015942
 30
0.0
 11
200.6027571825906
 21
66.1706705015942
 31
0.0
  0
LINE
  5
3D5
330
18
100
AcDbEntity
  8
4
  6
CENTER
100
AcDbLine
 10
210.6027571825906
 20
63.6706705015942
 30
0.0
 11
195.6027571825906
 21
63.6706705015942
 31
0.0
  0
LINE
  5
3D6
330
18
100
AcDbEntity
  8
1
  6
Continuous
100
AcDbLine
 10
200.6430851825906
 20
68.59001750159414
 30
0.0
 11
205.6430861825906
 21
71.09001850159415
 31
0.0
  0
LINE
  5
3D8
330
18
100
AcDbEntity
  8
1
  6
Continuous
100
AcDbLine
 10
209.3843431825904
 20
49.6706705015942
 30
0.0
 11
201.1027571825906
 21
49.6706705015942
 31
0.0
  0
LINE
  5
3D9
330
18
100
AcDbEntity
  8
1
  6
Continuous
100
AcDbLine
 10
205.5624341825904
 20
58.75131850159419
 30
0.0
 11
210.5624361825904
 21
61.25131950159406
 31
0.0
  0
ARC
  5
3DA
330
18
100
AcDbEntity
  8
1
  6
Continuous
100
AcDbCircle
 10
201.1027571825906
 20
57.6706705015942
 30
0.0
 40
8.0
100
AcDbArc
 50
179.999981
 51
270.0000179999999
  0
ARC
  5
3DB
330
18
100
AcDbEntity
  8
1
  6
Continuous
100
AcDbCircle
 10
209.3843431825904
 20
63.6706705015942
 30
0.0
 40
14.0
100
AcDbArc
 50
270.0000179999999
 51
325.4818909999999
  0
LINE
  5
3DC
330
18
100
AcDbEntity
  8
1
  6
Continuous
100
AcDbLine
 10
239.1027571825906
 20
60.17070150159418
 30
0.0
 11
239.1027571825906
 21
62.67070150159418
 31
0.0
  0
LINE
  5
3DE
330
18
100
AcDbEntity
  8
2
  6
Continuous
100
AcDbLine
 10
252.3527571825906
 20
49.1706705015942
 30
0.0
 11
252.3527571825906
 21
54.17070150159418
 31
0.0
  0
LINE
  5
3DF
330
18
100
AcDbEntity
  8
1
  6
Continuous
100
AcDbLine
 10
243.1027571825906
 20
49.92067250159417
 30
0.0
 11
243.1027571825906
 21
54.17070150159418
 31
0.0
  0
LINE
  5
3E0
330
18
100
AcDbEntity
  8
2
  6
Continuous
100
AcDbLine
 10
243.8527571825906
 20
49.1706705015942
 30
0.0
 11
243.8527571825906
 21
54.17070150159418
 31
0.0
  0
ARC
  5
3E1
330
18
100
AcDbEntity
  8
1
  6
Continuous
100
AcDbCircle
 10
243.8527540407565
 20
50.63947437358871
 30
0.0
 40
9.531227470612687
100
AcDbArc
 50
63.51887160077097
 51
116.4811283992288
  0
ARC
  5
3E2
330
18
100
AcDbEntity
  8
1
  6
Continuous
100
AcDbCircle
 10
243.8527540407565
 20
63.70192897220654
 30
0.0
 40
9.531227470612687
100
AcDbArc
 50
243.5188716007709
 51
296.4811283992299
  0
LINE
  5
3E3
330
18
100
AcDbEntity
  8
1
  6
Continuous
100
AcDbLine
 10
239.6027508989229
 20
54.17070150159418
 30
0.0
 11
239.6027508989229
 21
60.17070150159418
 31
0.0
  0
LINE
  5
3E4
330
18
100
AcDbEntity
  8
1
  6
Continuous
100
AcDbLine
 10
248.1027571825906
 20
55.17070570757653
 30
0.0
 11
248.1027571825906
 21
59.17069763821853
 31
0.0
  0
LINE
  5
3E6
330
18
100
AcDbEntity
  8
1
  6
Continuous
100
AcDbLine
 10
243.8527571825906
 20
49.17067050159417
 30
0.0
 11
243.1027571825906
 21
49.92067250159417
 31
0.0
  0
ARC
  5
3E7
330
18
100
AcDbEntity
  8
1
  6
Continuous
100
AcDbCircle
 10
295.1027571825905
 20
119.6706705015942
 30
0.0
 40
8.0
100
AcDbArc
 50
359.9999450000002
 51
89.99998199999998
  0
ARC
  5
3E8
330
18
100
AcDbEntity
  8
1
  6
Continuous
100
AcDbCircle
 10
286.8211711825907
 20
113.6706705015942
 30
0.0
 40
14.0
100
AcDbArc
 50
89.99998199999998
 51
145.4818549999996
  0
LINE
  5
3E9
330
18
100
AcDbEntity
  8
1
  6
Continuous
100
AcDbLine
 10
286.8211711825907
 20
127.670670501594
 30
0.0
 11
295.1027571825905
 21
127.670670501594
 31
0.0
  0
LINE
  5
3EA
330
18
100
AcDbEntity
  8
1
  6
Continuous
100
AcDbLine
 10
303.1027571825905
 20
119.6706705015942
 30
0.0
 11
303.1027571825905
 21
57.6706705015942
 31
0.0
  0
ARC
  5
3ED
330
18
100
AcDbEntity
  8
1
  6
Continuous
100
AcDbCircle
 10
288.1027571825904
 20
111.1706705015942
 30
0.0
 40
5.5
100
AcDbArc
 50
116.5650369999996
 51
296.5650549999999
  0
LINE
  5
3EE
330
18
100
AcDbEntity
  8
4
  6
CENTER
100
AcDbLine
 10
280.6027571825905
 20
111.1706705015942
 30
0.0
 11
295.6027571825904
 21
111.1706705015942
 31
0.0
  0
ARC
  5
3EF
330
18
100
AcDbEntity
  8
1
  6
Continuous
100
AcDbCircle
 10
262.1027571825905
 20
130.670670501594
 30
0.0
 40
16.0
100
AcDbArc
 50
269.9999630000001
 51
325.4818909999999
  0
LINE
  5
3F0
330
18
100
AcDbEntity
  8
1
  6
Continuous
100
AcDbLine
 10
257.1027571825904
 20
116.1706395015942
 30
0.0
 11
257.1027571825904
 21
114.7032485015942
 31
0.0
  0
LINE
  5
3F3
330
18
100
AcDbEntity
  8
4
  6
CENTER
100
AcDbLine
 10
288.1027571825904
 20
118.6706705015942
 30
0.0
 11
288.1027571825904
 21
103.670670501594
 31
0.0
  0
ARC
  5
3F4
330
18
100
AcDbEntity
  8
1
  6
Continuous
100
AcDbCircle
 10
293.1027571825905
 20
113.6706705015942
 30
0.0
 40
5.5
100
AcDbArc
 50
296.5650549999999
 51
116.5650190000001
  0
LINE
  5
3F5
330
18
100
AcDbEntity
  8
4
  6
CENTER
100
AcDbLine
 10
285.6027571825907
 20
113.6706705015942
 30
0.0
 11
300.6027571825904
 21
113.6706705015942
 31
0.0
  0
LINE
  5
3F6
330
18
100
AcDbEntity
  8
4
  6
CENTER
100
AcDbLine
 10
293.1027571825905
 20
121.1706705015942
 30
0.0
 11
293.1027571825905
 21
106.1706705015942
 31
0.0
  0
LINE
  5
3F7
330
18
100
AcDbEntity
  8
1
  6
Continuous
100
AcDbLine
 10
290.6430851825906
 20
118.5900195015942
 30
0.0
 11
285.6430861825908
 21
116.0900195015942
 31
0.0
  0
LINE
  5
3F8
330
18
100
AcDbEntity
  8
1
  6
Continuous
100
AcDbLine
 10
295.5624341825908
 20
108.7513205015943
 30
0.0
 11
290.5624351825908
 21
106.2513205015942
 31
0.0
  0
ARC
  5
3F9
330
18
100
AcDbEntity
  8
1
  6
Continuous
100
AcDbCircle
 10
286.8211711825907
 20
63.6706705015942
 30
0.0
 40
14.0
100
AcDbArc
 50
214.5181450000003
 51
270.0000179999999
  0
LINE
  5
3FB
330
18
100
AcDbEntity
  8
4
  6
CENTER
100
AcDbLine
 10
280.6027571825906
 20
66.17067050159443
 30
0.0
 11
295.6027571825909
 21
66.17067050159443
 31
0.0
  0
ARC
  5
3FC
330
18
100
AcDbEntity
  8
1
  6
Continuous
100
AcDbCircle
 10
288.1027571825904
 20
66.1706705015942
 30
0.0
 40
5.5
100
AcDbArc
 50
63.43493500000029
 51
243.4349669999996
  0
LINE
  5
3FD
330
18
100
AcDbEntity
  8
1
  6
Continuous
100
AcDbLine
 10
257.1027571825906
 20
60.17070150159418
 30
0.0
 11
257.1027571825906
 21
62.67070150159418
 31
0.0
  0
ARC
  5
3FE
330
18
100
AcDbEntity
  8
1
  6
Continuous
100
AcDbCircle
 10
262.1027571825905
 20
46.67067050159431
 30
0.0
 40
16.0
100
AcDbArc
 50
34.51810900000007
 51
90.00003699999981
  0
LINE
  5
401
330
18
100
AcDbEntity
  8
1
  6
Continuous
100
AcDbLine
 10
253.1027571825906
 20
49.92067250159418
 30
0.0
 11
253.1027571825906
 21
54.17070150159418
 31
0.0
  0
LINE
  5
402
330
18
100
AcDbEntity
  8
1
  6
Continuous
100
AcDbLine
 10
256.6027592816425
 20
54.17070150159418
 30
0.0
 11
256.6027592816425
 21
60.17070150159418
 31
0.0
  0
LINE
  5
403
330
18
100
AcDbEntity
  8
4
  6
CENTER
100
AcDbLine
 10
293.1027571825909
 20
56.17067050159443
 30
0.0
 11
293.1027571825909
 21
71.17067050159454
 31
0.0
  0
ARC
  5
404
330
18
100
AcDbEntity
  8
1
  6
Continuous
100
AcDbCircle
 10
293.1027571825905
 20
63.6706705015942
 30
0.0
 40
5.5
100
AcDbArc
 50
243.434981
 51
63.43494499999997
  0
LINE
  5
405
330
18
100
AcDbEntity
  8
4
  6
CENTER
100
AcDbLine
 10
288.1027571825908
 20
58.67067050159454
 30
0.0
 11
288.1027571825907
 21
73.67067050159454
 31
0.0
  0
LINE
  5
406
330
18
100
AcDbEntity
  8
4
  6
CENTER
100
AcDbLine
 10
285.6027571825908
 20
63.67067050159454
 30
0.0
 11
300.6027571825908
 21
63.67067050159454
 31
0.0
  0
LINE
  5
407
330
18
100
AcDbEntity
  8
1
  6
Continuous
100
AcDbLine
 10
295.5624331825906
 20
68.5900245015942
 30
0.0
 11
290.5624381825908
 21
71.09002150159419
 31
0.0
  0
ARC
  5
408
330
18
100
AcDbEntity
  8
1
  6
Continuous
100
AcDbCircle
 10
295.1027571825905
 20
57.6706705015942
 30
0.0
 40
8.0
100
AcDbArc
 50
270.0000179999999
 51
0.0000549999998498
  0
LINE
  5
409
330
18
100
AcDbEntity
  8
1
  6
Continuous
100
AcDbLine
 10
290.6430801825907
 20
58.75131850159419
 30
0.0
 11
285.6430851825905
 21
61.25131550159442
 31
0.0
  0
LINE
  5
40A
330
18
100
AcDbEntity
  8
1
  6
Continuous
100
AcDbLine
 10
286.8211711825907
 20
49.6706705015942
 30
0.0
 11
295.1027571825905
 21
49.6706705015942
 31
0.0
  0
LINE
  5
438
330
18
100
AcDbEntity
  8
1
  6
Continuous
100
AcDbLine
 10
234.1027571825906
 20
111.6706705015942
 30
0.0
 11
262.1027571825905
 21
111.6706705015942
 31
0.0
  0
ARC
  5
439
330
18
100
AcDbEntity
  8
1
  6
Continuous
100
AcDbCircle
 10
262.1027571825905
 20
130.670670501594
 30
0.0
 40
19.0
100
AcDbArc
 50
269.9999630000001
 51
325.4818909999999
  0
ARC
  5
43A
330
18
100
AcDbEntity
  8
1
  6
Continuous
100
AcDbCircle
 10
234.1027571825906
 20
130.670670501594
 30
0.0
 40
19.0
100
AcDbArc
 50
214.5180909999999
 51
270.0000179999999
  0
ARC
  5
43B
330
18
100
AcDbEntity
  8
1
  6
Continuous
100
AcDbCircle
 10
209.3843431825904
 20
113.6706705015942
 30
0.0
 40
11.0
100
AcDbArc
 50
34.51810900000007
 51
89.99998199999998
  0
ARC
  5
43C
330
18
100
AcDbEntity
  8
1
  6
Continuous
100
AcDbCircle
 10
286.8211711825907
 20
113.6706705015942
 30
0.0
 40
11.0
100
AcDbArc
 50
89.99998199999998
 51
145.4818549999996
  0
LINE
  5
43D
330
18
100
AcDbEntity
  8
1
  6
Continuous
100
AcDbLine
 10
234.1027571825906
 20
65.6706705015942
 30
0.0
 11
262.1027571825905
 21
65.6706705015942
 31
0.0
  0
ARC
  5
43E
330
18
100
AcDbEntity
  8
1
  6
Continuous
100
AcDbCircle
 10
262.1027571825905
 20
46.67067050159431
 30
0.0
 40
19.0
100
AcDbArc
 50
34.51810900000007
 51
90.00003699999981
  0
ARC
  5
440
330
18
100
AcDbEntity
  8
1
  6
Continuous
100
AcDbCircle
 10
234.1027571825906
 20
46.67067050159431
 30
0.0
 40
19.0
100
AcDbArc
 50
89.99998199999998
 51
145.4819089999999
  0
LINE
  5
451
330
18
100
AcDbEntity
  8
1
  6
Continuous
100
AcDbLine
 10
286.8211746383427
 20
124.6706705015935
 30
0.0
 11
287.7665703339096
 21
124.6706705015935
 31
0.0
  0
LINE
  5
459
330
18
100
AcDbEntity
  8
1
  6
Continuous
100
AcDbLine
 10
209.3843397268386
 20
124.6706705015935
 30
0.0
 11
208.4389440312715
 21
124.6706705015935
 31
0.0
  0
LINE
  5
45D
330
18
100
AcDbEntity
  8
1
  6
Continuous
100
AcDbLine
 10
209.3843397268386
 20
52.67067050159474
 30
0.0
 11
208.4389440312715
 21
52.67067050159472
 31
0.0
  0
ARC
  5
45E
330
18
100
AcDbEntity
  8
1
  6
Continuous
100
AcDbCircle
 10
209.3843431825904
 20
63.6706705015942
 30
0.0
 40
11.0
100
AcDbArc
 50
270.0000179999999
 51
325.4818909999999
  0
ARC
  5
45F
330
18
100
AcDbEntity
  8
1
  6
Continuous
100
AcDbCircle
 10
286.8211711825907
 20
63.6706705015942
 30
0.0
 40
11.0
100
AcDbArc
 50
214.5181450000003
 51
270.0000179999999
  0
LINE
  5
460
330
18
100
AcDbEntity
  8
1
  6
Continuous
100
AcDbLine
 10
286.8211746383427
 20
52.67067050159474
 30
0.0
 11
287.7665703339096
 21
52.67067050159472
 31
0.0
  0
LINE
  5
58A
330
18
100
AcDbEntity
  8
1
  6
Continuous
100
AcDbLine
 10
243.8527571825906
 20
49.1706705015942
 30
0.0
 11
252.3527571825906
 21
49.1706705015942
 31
0.0
  0
LINE
  5
69E
330
18
100
AcDbEntity
  8
1
  6
Continuous
100
AcDbLine
 10
659.0360911825904
 20
326.2983074680821
 30
0.0
 11
549.0360911825904
 21
326.2983074680821
 31
0.0
  0
ARC
  5
6A1
330
18
100
AcDbEntity
  8
1
  6
Continuous
100
AcDbCircle
 10
652.8278561825905
 20
304.7253434680821
 30
0.0
 40
16.0
100
AcDbArc
 50
119.277521
 51
166.4679919999999
  0
ARC
  5
6A2
330
18
100
AcDbEntity
  8
1
  6
Continuous
100
AcDbCircle
 10
643.5360911825906
 20
321.2983074680821
 30
0.0
 40
3.0
100
AcDbArc
 50
299.2775509999996
 51
0.0000219999999413
  0
LINE
  5
6A3
330
18
100
AcDbEntity
  8
1
  6
Continuous
100
AcDbLine
 10
659.0360911825904
 20
326.2983074680821
 30
0.0
 11
659.0360911825904
 21
323.298307468082
 31
0.0
  0
ARC
  5
6A4
330
18
100
AcDbEntity
  8
1
  6
Continuous
100
AcDbCircle
 10
649.5360911825907
 20
323.298307468082
 30
0.0
 40
3.0
100
AcDbArc
 50
90.00001800000005
 51
180.0
  0
LINE
  5
6A5
330
18
100
AcDbEntity
  8
4
  6
CENTER
100
AcDbLine
 10
649.0360911825907
 20
317.723816247981
 30
0.0
 11
649.0360911825907
 21
332.7238162479809
 31
0.0
  0
LINE
  5
6A6
330
18
100
AcDbEntity
  8
1
  6
Continuous
100
AcDbLine
 10
659.0360911825904
 20
323.298307468082
 30
0.0
 11
646.5360911825906
 21
323.298307468082
 31
0.0
  0
LINE
  5
6A7
330
18
100
AcDbEntity
  8
1
  6
Continuous
100
AcDbLine
 10
646.5360911825906
 20
323.298307468082
 30
0.0
 11
646.5360911825906
 21
321.2983074680821
 31
0.0
  0
LINE
  5
6A8
330
18
100
AcDbEntity
  8
4
  6
CENTER
100
AcDbLine
 10
644.0360911825906
 20
317.723816247981
 30
0.0
 11
644.0360911825906
 21
332.7238162479809
 31
0.0
  0
ARC
  5
6A9
330
18
100
AcDbEntity
  8
1
  6
Continuous
100
AcDbCircle
 10
555.2443281825905
 20
304.7253434680821
 30
0.0
 40
16.0
100
AcDbArc
 50
13.53204800000034
 51
60.72252100000024
  0
LINE
  5
6AA
330
18
100
AcDbEntity
  8
1
  6
Continuous
100
AcDbLine
 10
549.0360911825904
 20
323.2983074680818
 30
0.0
 11
561.5360911825908
 21
323.298307468082
 31
0.0
  0
ARC
  5
6AB
330
18
100
AcDbEntity
  8
1
  6
Continuous
100
AcDbCircle
 10
558.5360911825906
 20
323.298307468082
 30
0.0
 40
3.0
100
AcDbArc
 50
0.0000360000000476
 51
90.00001800000005
  0
LINE
  5
6AC
330
18
100
AcDbEntity
  8
4
  6
CENTER
100
AcDbLine
 10
559.0360911825906
 20
317.723816247981
 30
0.0
 11
559.0360911825906
 21
332.7238162479809
 31
0.0
  0
LINE
  5
6AD
330
18
100
AcDbEntity
  8
4
  6
CENTER
100
AcDbLine
 10
564.0360911825906
 20
317.723816247981
 30
0.0
 11
564.0360911825906
 21
332.7238162479809
 31
0.0
  0
ARC
  5
6AE
330
18
100
AcDbEntity
  8
1
  6
Continuous
100
AcDbCircle
 10
564.5360911825904
 20
321.2983074680821
 30
0.0
 40
3.0
100
AcDbArc
 50
179.9999859999998
 51
240.7224580000005
  0
LINE
  5
6AF
330
18
100
AcDbEntity
  8
1
  6
Continuous
100
AcDbLine
 10
561.5360911825908
 20
323.298307468082
 30
0.0
 11
561.5360911825908
 21
321.2983074680821
 31
0.0
  0
LINE
  5
6B0
330
18
100
AcDbEntity
  8
1
  6
Continuous
100
AcDbLine
 10
549.0360911825904
 20
326.2983074680821
 30
0.0
 11
549.0360911825904
 21
323.2983074680818
 31
0.0
  0
LINE
  5
798
330
18
100
AcDbEntity
  8
1
  6
Continuous
100
AcDbLine
 10
243.8527571825906
 20
490.3706715015942
 30
0.0
 11
252.3527571825906
 21
490.3706715015942
 31
0.0
  0
ARC
  5
902
330
18
100
AcDbEntity
  8
1
  6
Continuous
100
AcDbCircle
 10
338.7017171825903
 20
251.2983074680819
 30
0.0
 40
61.367702
100
AcDbArc
 50
0.0000360000000476
 51
21.96133399999996
  0
LINE
  5
903
330
18
100
AcDbEntity
  8
1
  6
Continuous
100
AcDbLine
 10
449.0693931825907
 20
321.798307468082
 30
0.0
 11
449.0693931825907
 21
229.298292468082
 31
0.0
  0
ARC
  5
904
330
18
100
AcDbEntity
  8
1
  6
Continuous
100
AcDbCircle
 10
513.4371311825908
 20
251.2983074680819
 30
0.0
 40
61.367702
100
AcDbArc
 50
158.0387029999998
 51
180.0
  0
ARC
  5
905
330
18
100
AcDbEntity
  8
1
  6
Continuous
100
AcDbCircle
 10
338.7017481825906
 20
249.0952744680821
 30
0.0
 40
64.36770600000001
100
AcDbArc
 50
0.0000360000000476
 51
21.2784250000002
  0
LINE
  5
906
330
18
100
AcDbEntity
  8
1
  6
Continuous
100
AcDbLine
 10
403.0694551825908
 20
321.798307468082
 30
0.0
 11
403.0694551825908
 21
229.298292468082
 31
0.0
  0
ARC
  5
907
330
18
100
AcDbEntity
  8
1
  6
Continuous
100
AcDbCircle
 10
513.4371001825907
 20
249.0952744680821
 30
0.0
 40
64.36770600000001
100
AcDbArc
 50
158.7216150000001
 51
180.0
  0
LINE
  5
908
330
18
100
AcDbEntity
  8
4
  6
CENTER
100
AcDbLine
 10
426.0694241825906
 20
334.6649724680821
 30
0.0
 11
426.0694241825906
 21
189.1258913712865
 31
0.0
  0
LINE
  5
912
330
18
100
AcDbEntity
  8
4
  6
CENTER
100
AcDbLine
 10
470.5693931825904
 20
244.298307468082
 30
0.0
 11
392.3440061825906
 21
244.298307468082
 31
0.0
  0
ARC
  5
916
330
18
100
AcDbEntity
  8
1
  6
Continuous
100
AcDbCircle
 10
448.0277221825905
 20
244.298307468082
 30
0.0
 40
12.541667
100
AcDbArc
 50
336.964963
 51
23.03502699999993
  0
ARC
  5
917
330
18
100
AcDbEntity
  8
1
  6
Continuous
100
AcDbCircle
 10
457.0589721825903
 20
236.937093468082
 30
0.0
 40
3.510416999999999
100
AcDbArc
 50
315.654145
 51
44.34585900000036
  0
ARC
  5
918
330
18
100
AcDbEntity
  8
1
  6
Continuous
100
AcDbCircle
 10
457.0589721825903
 20
251.6595214680819
 30
0.0
 40
3.510416999999999
100
AcDbArc
 50
315.654145
 51
44.34585900000036
  0
LINE
  5
919
330
18
100
AcDbEntity
  8
1
  6
Continuous
100
AcDbLine
 10
460.5693931825907
 20
236.937093468082
 30
0.0
 11
460.5693931825907
 21
251.6595214680819
 31
0.0
  0
LINE
  5
91A
330
18
100
AcDbEntity
  8
1
  6
Continuous
100
AcDbLine
 10
465.5693931825907
 20
240.048307468082
 30
0.0
 11
464.8193911825905
 21
239.298307468082
 31
0.0
  0
LINE
  5
91B
330
18
100
AcDbEntity
  8
1
  6
Continuous
100
AcDbLine
 10
464.8193911825905
 20
249.298307468082
 30
0.0
 11
464.8193911825905
 21
239.298307468082
 31
0.0
  0
LINE
  5
91C
330
18
100
AcDbEntity
  8
1
  6
Continuous
100
AcDbLine
 10
464.8193911825905
 20
239.298307468082
 30
0.0
 11
460.5693931825907
 21
239.298307468082
 31
0.0
  0
LINE
  5
91D
330
18
100
AcDbEntity
  8
1
  6
Continuous
100
AcDbLine
 10
465.5693931825907
 20
248.548307468082
 30
0.0
 11
464.8193911825905
 21
249.298307468082
 31
0.0
  0
LINE
  5
91E
330
18
100
AcDbEntity
  8
1
  6
Continuous
100
AcDbLine
 10
465.5693931825907
 20
248.548307468082
 30
0.0
 11
465.5693931825907
 21
240.048307468082
 31
0.0
  0
LINE
  5
91F
330
18
100
AcDbEntity
  8
2
  6
Continuous
100
AcDbLine
 10
465.5693931825907
 20
248.548307468082
 30
0.0
 11
460.5693931825907
 21
248.548307468082
 31
0.0
  0
LINE
  5
920
330
18
100
AcDbEntity
  8
2
  6
Continuous
100
AcDbLine
 10
465.5693931825907
 20
240.048307468082
 30
0.0
 11
460.5693931825907
 21
240.048307468082
 31
0.0
  0
LINE
  5
921
330
18
100
AcDbEntity
  8
1
  6
Continuous
100
AcDbLine
 10
464.8193911825905
 20
249.298307468082
 30
0.0
 11
460.5693931825907
 21
249.298307468082
 31
0.0
  0
LINE
  5
922
330
18
100
AcDbEntity
  8
1
  6
Continuous
100
AcDbLine
 10
452.0694241825908
 20
251.2983074680819
 30
0.0
 11
452.0694241825908
 21
229.298292468082
 31
0.0
  0
LINE
  5
925
330
18
100
AcDbEntity
  8
1
  6
Continuous
100
AcDbLine
 10
454.5693931825905
 20
235.298307468082
 30
0.0
 11
454.5693931825905
 21
253.2983074680819
 31
0.0
  0
ARC
  5
926
330
18
100
AcDbEntity
  8
1
  6
Continuous
100
AcDbCircle
 10
458.0798151825907
 20
251.6595214680819
 30
0.0
 40
3.510416999999999
100
AcDbArc
 50
135.6541429999998
 51
224.345857
  0
ARC
  5
928
330
18
100
AcDbEntity
  8
1
  6
Continuous
100
AcDbCircle
 10
467.1110651825906
 20
244.298307468082
 30
0.0
 40
12.541667
100
AcDbArc
 50
156.964968
 51
203.0350319999999
  0
LINE
  5
929
330
18
100
AcDbEntity
  8
1
  6
Continuous
100
AcDbLine
 10
454.5693931825905
 20
235.298307468082
 30
0.0
 11
452.0693931825907
 21
235.298307468082
 31
0.0
  0
LINE
  5
92A
330
18
100
AcDbEntity
  8
1
  6
Continuous
100
AcDbLine
 10
459.5693931825906
 20
239.390829468082
 30
0.0
 11
455.5693931825905
 21
239.390829468082
 31
0.0
  0
LINE
  5
92B
330
18
100
AcDbEntity
  8
1
  6
Continuous
100
AcDbLine
 10
459.5693931825906
 20
234.483350468082
 30
0.0
 11
455.5693931825905
 21
234.483350468082
 31
0.0
  0
ARC
  5
92C
330
18
100
AcDbEntity
  8
1
  6
Continuous
100
AcDbCircle
 10
458.0798151825907
 20
236.937093468082
 30
0.0
 40
3.510416999999999
100
AcDbArc
 50
135.6541429999998
 51
224.345857
  0
LINE
  5
92D
330
18
100
AcDbEntity
  8
1
  6
Continuous
100
AcDbLine
 10
452.0694241825908
 20
229.298292468082
 30
0.0
 11
449.0693931825907
 21
229.298292468082
 31
0.0
  0
LINE
  5
932
330
18
100
AcDbEntity
  8
1
  6
Continuous
100
AcDbLine
 10
459.5693931825906
 20
249.205785468082
 30
0.0
 11
455.5693931825905
 21
249.205785468082
 31
0.0
  0
LINE
  5
939
330
18
100
AcDbEntity
  8
1
  6
Continuous
100
AcDbLine
 10
454.5693931825905
 20
253.2983074680819
 30
0.0
 11
452.0693931825907
 21
253.2983074680819
 31
0.0
  0
LINE
  5
93A
330
18
100
AcDbEntity
  8
1
  6
Continuous
100
AcDbLine
 10
459.5693931825906
 20
254.113264468082
 30
0.0
 11
455.5693931825905
 21
254.113264468082
 31
0.0
  0
ARC
  5
94B
330
18
100
AcDbEntity
  8
1
  6
Continuous
100
AcDbCircle
 10
413.5194201825903
 20
244.298307468082
 30
0.0
 40
17.450001
100
AcDbArc
 50
148.9517359999998
 51
211.0482369999997
  0
LINE
  5
94C
330
18
100
AcDbEntity
  8
1
  6
Continuous
100
AcDbLine
 10
398.5694241825907
 20
235.298307468082
 30
0.0
 11
398.5694241825907
 21
253.2983074680819
 31
0.0
  0
LINE
  5
94D
330
18
100
AcDbEntity
  8
1
  6
Continuous
100
AcDbLine
 10
400.0694241825904
 20
251.2983074680819
 30
0.0
 11
400.0694241825904
 21
229.298292468082
 31
0.0
  0
LINE
  5
953
330
18
100
AcDbEntity
  8
1
  6
Continuous
100
AcDbLine
 10
398.5694241825907
 20
235.298307468082
 30
0.0
 11
400.0694241825904
 21
235.298307468082
 31
0.0
  0
LINE
  5
954
330
18
100
AcDbEntity
  8
1
  6
Continuous
100
AcDbLine
 10
400.0694241825904
 20
229.298292468082
 30
0.0
 11
403.0694551825908
 21
229.298292468082
 31
0.0
  0
LINE
  5
95A
330
18
100
AcDbEntity
  8
1
  6
Continuous
100
AcDbLine
 10
398.5694241825907
 20
253.2983074680819
 30
0.0
 11
400.0368200908011
 21
253.2983074680819
 31
0.0
  0
LINE
  5
95E
330
18
100
AcDbEntity
  8
1
  6
Continuous
100
AcDbLine
 10
465.0694241825906
 20
323.298307468082
 30
0.0
 11
387.0694241825906
 21
323.298307468082
 31
0.0
  0
LINE
  5
95F
330
18
100
AcDbEntity
  8
1
  6
Continuous
100
AcDbLine
 10
465.0694241825906
 20
326.2983074680821
 30
0.0
 11
387.0694241825906
 21
326.2983074680821
 31
0.0
  0
LINE
  5
962
330
18
100
AcDbEntity
  8
1
  6
Continuous
100
AcDbLine
 10
440.0694241825903
 20
321.2983074680821
 30
0.0
 11
412.0694241825906
 21
321.2983074680821
 31
0.0
  0
ARC
  5
964
330
18
100
AcDbEntity
  8
1
  6
Continuous
100
AcDbCircle
 10
347.2832311825907
 20
318.2983074680818
 30
0.0
 40
117.7861939999999
100
AcDbArc
 50
338.0387239999998
 51
0.0000219999999413
  0
ARC
  5
965
330
18
100
AcDbEntity
  8
1
  6
Continuous
100
AcDbCircle
 10
335.7424741825906
 20
318.2983074680818
 30
0.0
 40
126.32692
100
AcDbArc
 50
338.721633
 51
0.0000219999999413
  0
LINE
  5
969
330
18
100
AcDbEntity
  8
1
  6
Continuous
100
AcDbLine
 10
465.0694241825906
 20
326.2983074680821
 30
0.0
 11
465.0694241825906
 21
318.2983074680818
 31
0.0
  0
ARC
  5
96A
330
18
100
AcDbEntity
  8
1
  6
Continuous
100
AcDbCircle
 10
466.0694241825906
 20
319.425323468082
 30
0.0
 40
4.0
100
AcDbArc
 50
104.4775119999996
 51
180.0
  0
ARC
  5
96B
330
18
100
AcDbEntity
  8
1
  6
Continuous
100
AcDbCircle
 10
460.5693931825907
 20
321.798307468082
 30
0.0
 40
1.5
100
AcDbArc
 50
0.0000360000000476
 51
90.00001800000005
  0
LINE
  5
96C
330
18
100
AcDbEntity
  8
1
  6
Continuous
100
AcDbLine
 10
462.0693931825904
 20
321.798307468082
 30
0.0
 11
462.0693931825904
 21
318.2983074680818
 31
0.0
  0
LINE
  5
96D
330
18
100
AcDbEntity
  8
4
  6
CENTER
100
AcDbLine
 10
448.5694241825903
 20
332.2199797904214
 30
0.0
 11
448.5694241825903
 21
317.2199797904213
 31
0.0
  0
LINE
  5
96E
330
18
100
AcDbEntity
  8
4
  6
CENTER
100
AcDbLine
 10
451.0694241825905
 20
332.2199797904214
 30
0.0
 11
451.0694241825905
 21
317.2199797904213
 31
0.0
  0
ARC
  5
96F
330
18
100
AcDbEntity
  8
1
  6
Continuous
100
AcDbCircle
 10
447.5693931825905
 20
321.798307468082
 30
0.0
 40
1.5
100
AcDbArc
 50
0.0000360000000476
 51
90.00001800000005
  0
ARC
  5
970
330
18
100
AcDbEntity
  8
1
  6
Continuous
100
AcDbCircle
 10
440.0694241825903
 20
323.298307468082
 30
0.0
 40
2.0
100
AcDbArc
 50
269.9999719999996
 51
0.0000219999999413
  0
ARC
  5
971
330
18
100
AcDbEntity
  8
1
  6
Continuous
100
AcDbCircle
 10
431.8548851825907
 20
323.5128424680818
 30
0.0
 40
2.214531
100
AcDbArc
 50
269.9999719999996
 51
354.4406927222488
  0
ARC
  5
972
330
18
100
AcDbEntity
  8
1
  6
Continuous
100
AcDbCircle
 10
504.8556171825903
 20
318.2983074680818
 30
0.0
 40
117.7861939999999
100
AcDbArc
 50
180.0
 51
201.9612980000002
  0
ARC
  5
973
330
18
100
AcDbEntity
  8
1
  6
Continuous
100
AcDbCircle
 10
516.3963891825906
 20
318.2983074680818
 30
0.0
 40
126.32692
100
AcDbArc
 50
180.0
 51
201.2783889999999
  0
ARC
  5
977
330
18
100
AcDbEntity
  8
1
  6
Continuous
100
AcDbCircle
 10
420.2839631825906
 20
323.5128424680818
 30
0.0
 40
2.214531
100
AcDbArc
 50
185.559307277751
 51
270.0000369999997
  0
LINE
  5
978
330
18
100
AcDbEntity
  8
4
  6
CENTER
100
AcDbLine
 10
403.5694241825906
 20
332.2199797904214
 30
0.0
 11
403.5694241825906
 21
317.2199797904213
 31
0.0
  0
LINE
  5
979
330
18
100
AcDbEntity
  8
4
  6
CENTER
100
AcDbLine
 10
401.0694241825905
 20
332.2199797904214
 30
0.0
 11
401.0694241825905
 21
317.2199797904213
 31
0.0
  0
ARC
  5
97A
330
18
100
AcDbEntity
  8
1
  6
Continuous
100
AcDbCircle
 10
412.0694241825906
 20
323.298307468082
 30
0.0
 40
2.0
100
AcDbArc
 50
180.0
 51
270.0000369999997
  0
ARC
  5
97B
330
18
100
AcDbEntity
  8
1
  6
Continuous
100
AcDbCircle
 10
404.5694551825905
 20
321.798307468082
 30
0.0
 40
1.5
100
AcDbArc
 50
90.00001800000005
 51
180.0
  0
LINE
  5
97D
330
18
100
AcDbEntity
  8
1
  6
Continuous
100
AcDbLine
 10
387.0694241825906
 20
326.2983074680821
 30
0.0
 11
387.0694241825906
 21
318.2983074680818
 31
0.0
  0
ARC
  5
97E
330
18
100
AcDbEntity
  8
1
  6
Continuous
100
AcDbCircle
 10
386.0694241825907
 20
319.425323468082
 30
0.0
 40
4.0
100
AcDbArc
 50
0.0000360000000476
 51
75.52252400000002
  0
ARC
  5
97F
330
18
100
AcDbEntity
  8
1
  6
Continuous
100
AcDbCircle
 10
391.5694551825906
 20
321.798307468082
 30
0.0
 40
1.5
100
AcDbArc
 50
90.00001800000005
 51
180.0
  0
LINE
  5
980
330
18
100
AcDbEntity
  8
1
  6
Continuous
100
AcDbLine
 10
390.0694551825907
 20
321.798307468082
 30
0.0
 11
390.0694551825907
 21
318.2983074680818
 31
0.0
  0
CIRCLE
  5
1100
330
18
100
AcDbEntity
  8
1
  6
Continuous
100
AcDbCircle
 10
604.0360911825906
 20
244.298299468082
 30
0.0
 40
8.500002099051926
  0
ARC
  5
1104
330
18
100
AcDbEntity
  8
1
  6
Continuous
100
AcDbCircle
 10
208.1623684165183
 20
130.6716867456614
 30
0.0
 40
6.007386289580723
100
AcDbArc
 50
209.9705236141553
 51
272.6387880086639
  0
ARC
  5
1113
330
18
100
AcDbEntity
  8
1
  6
Continuous
100
AcDbCircle
 10
288.0431459486628
 20
130.6716867456614
 30
0.0
 40
6.007386289580723
100
AcDbArc
 50
267.3612119913359
 51
330.0294763858445
  0
ARC
  5
1114
330
18
100
AcDbEntity
  8
1
  6
Continuous
100
AcDbCircle
 10
208.1623684165183
 20
46.66965425752685
 30
0.0
 40
6.007386289580723
100
AcDbArc
 50
87.36121199133595
 51
150.0294763858445
  0
ARC
  5
1115
330
18
100
AcDbEntity
  8
1
  6
Continuous
100
AcDbCircle
 10
288.0431459486628
 20
46.66965425752685
 30
0.0
 40
6.007386289580723
100
AcDbArc
 50
29.97052361415537
 51
92.63878800866407
  0
ARC
  5
12A8
330
18
100
AcDbEntity
  8
1
  6
Continuous
100
AcDbCircle
 10
248.1027571825906
 20
244.298299468082
 30
0.0
 40
34.03985999999999
100
AcDbArc
 50
134.0740173394866
 51
45.92597884821858
  0
ARC
  5
12A9
330
18
100
AcDbEntity
  8
1
  6
Continuous
100
AcDbCircle
 10
248.1027571825906
 20
244.298299468082
 30
0.0
 40
41.00000399999998
100
AcDbArc
 50
128.4868144423615
 51
51.51318262214608
  0
ARC
  5
12AA
330
18
100
AcDbEntity
  8
1
  6
Continuous
100
AcDbCircle
 10
248.1027571825906
 20
244.298299468082
 30
0.0
 40
50.0
100
AcDbArc
 50
123.7724603572071
 51
56.22753738672671
  0
ARC
  5
12AB
330
18
100
AcDbEntity
  8
1
  6
Continuous
100
AcDbCircle
 10
248.1027571825906
 20
244.298299468082
 30
0.0
 40
19.47020499999998
100
AcDbArc
 50
166.209393530979
 51
13.79059319462768
  0
LINE
  5
12B0
330
18
100
AcDbEntity
  8
1
  6
Continuous
100
AcDbLine
 10
267.5729634825905
 20
69.74898250159418
 30
0.0
 11
267.9877764825906
 21
72.67067450159419
 31
0.0
  0
LINE
  5
12B1
330
18
100
AcDbEntity
  8
1
  6
Continuous
100
AcDbLine
 10
228.6325508825906
 20
69.74898250159418
 30
0.0
 11
228.2177378825906
 21
72.67067450159419
 31
0.0
  0
LINE
  5
12B5
330
18
100
AcDbEntity
  8
1
  6
Continuous
100
AcDbLine
 10
207.1027571825906
 20
72.6706705015942
 30
0.0
 11
289.1027471825907
 21
72.6706705015942
 31
0.0
  0
LINE
  5
12B6
330
18
100
AcDbEntity
  8
1
  6
Continuous
100
AcDbLine
 10
207.1027571825906
 20
104.670670501594
 30
0.0
 11
289.1027471825907
 21
104.670670501594
 31
0.0
  0
ARC
  5
12B8
330
18
100
AcDbEntity
  8
1
  6
Continuous
100
AcDbCircle
 10
298.1027571825907
 20
88.67067050159418
 30
0.0
 40
100.0
100
AcDbArc
 50
172.6718299999999
 51
187.3281000000005
  0
LINE
  5
12B9
330
18
100
AcDbEntity
  8
1
  6
Continuous
100
AcDbLine
 10
207.1027671825905
 20
104.670639501594
 30
0.0
 11
200.4488451825905
 21
103.1183405015942
 31
0.0
  0
ARC
  5
12BA
330
18
100
AcDbEntity
  8
1
  6
Continuous
100
AcDbCircle
 10
200.9032181825905
 20
101.1706705015942
 30
0.0
 40
2.0
100
AcDbArc
 50
103.1317299999984
 51
172.6717799999983
  0
LINE
  5
12BB
330
18
100
AcDbEntity
  8
1
  6
Continuous
100
AcDbLine
 10
207.1027671825905
 20
72.67066250159422
 30
0.0
 11
200.4488381825906
 21
74.2229665015942
 31
0.0
  0
ARC
  5
12BC
330
18
100
AcDbEntity
  8
1
  6
Continuous
100
AcDbCircle
 10
200.9032181825905
 20
76.1706705015942
 30
0.0
 40
2.0
100
AcDbArc
 50
187.3281500000008
 51
256.8682000000006
  0
LINE
  5
12D7
330
18
100
AcDbEntity
  8
1
  6
Continuous
100
AcDbLine
 10
238.9687888325906
 20
110.670678501594
 30
0.0
 11
257.2367253580576
 21
110.670678501594
 31
0.0
  0
LINE
  5
12D8
330
18
100
AcDbEntity
  8
1
  6
Continuous
100
AcDbLine
 10
231.6027571825906
 20
110.1706705015942
 30
0.0
 11
264.6027592769856
 21
110.1706705015942
 31
0.0
  0
LINE
  5
12DB
330
18
100
AcDbEntity
  8
1
  6
Continuous
100
AcDbLine
 10
228.6325508825906
 20
107.5923545015942
 30
0.0
 11
228.2177378825906
 21
104.670670501594
 31
0.0
  0
ARC
  5
12DC
330
18
100
AcDbEntity
  8
1
  6
Continuous
100
AcDbCircle
 10
231.6027571825906
 20
107.1706705015942
 30
0.0
 40
3.0
100
AcDbArc
 50
90.00004000000073
 51
171.9193599999992
  0
ARC
  5
12DE
330
18
100
AcDbEntity
  8
1
  6
Continuous
100
AcDbCircle
 10
238.9687888325906
 20
109.670678501594
 30
0.0
 40
1.0
100
AcDbArc
 50
89.99998999999897
 51
150.0004999999988
  0
LINE
  5
12DF
330
18
100
AcDbEntity
  8
1
  6
Continuous
100
AcDbLine
 10
242.1027571825906
 20
110.670678501594
 30
0.0
 11
242.1027571825906
 21
111.6706705015942
 31
0.0
  0
LINE
  5
12E0
330
18
100
AcDbEntity
  8
1
  6
Continuous
100
AcDbLine
 10
254.1027571825906
 20
110.670678501594
 30
0.0
 11
254.1027571825906
 21
111.6706705015942
 31
0.0
  0
LINE
  5
12E1
330
18
100
AcDbEntity
  8
1
  6
Continuous
100
AcDbLine
 10
267.5729634825905
 20
107.5923545015942
 30
0.0
 11
267.9877764825906
 21
104.670670501594
 31
0.0
  0
ARC
  5
12E2
330
18
100
AcDbEntity
  8
1
  6
Continuous
100
AcDbCircle
 10
257.2367255325906
 20
109.670678501594
 30
0.0
 40
1.0
100
AcDbArc
 50
29.99950000000118
 51
90.000010000001
  0
ARC
  5
12E3
330
18
100
AcDbEntity
  8
1
  6
Continuous
100
AcDbCircle
 10
264.6027571825906
 20
107.1706705015942
 30
0.0
 40
3.0
100
AcDbArc
 50
8.080640000000615
 51
89.99995999999923
  0
ARC
  5
12E8
330
18
100
AcDbEntity
  8
1
  6
Continuous
100
AcDbCircle
 10
198.1027571825906
 20
88.6706705015942
 30
0.0
 40
100.0
100
AcDbArc
 50
352.6718999999993
 51
7.328169999999952
  0
LINE
  5
12E9
330
18
100
AcDbEntity
  8
1
  6
Continuous
100
AcDbLine
 10
289.1027471825907
 20
104.670639501594
 30
0.0
 11
295.7566691825907
 21
103.1183405015942
 31
0.0
  0
ARC
  5
12EA
330
18
100
AcDbEntity
  8
1
  6
Continuous
100
AcDbCircle
 10
295.3022961825906
 20
101.170670501594
 30
0.0
 40
2.0
100
AcDbArc
 50
7.328219999998254
 51
76.86827000000151
  0
LINE
  5
12EB
330
18
100
AcDbEntity
  8
1
  6
Continuous
100
AcDbLine
 10
289.1027471825907
 20
72.67066250159422
 30
0.0
 11
295.7566761825906
 21
74.2229665015942
 31
0.0
  0
ARC
  5
12EC
330
18
100
AcDbEntity
  8
1
  6
Continuous
100
AcDbCircle
 10
295.3022961825906
 20
76.1706705015942
 30
0.0
 40
2.0
100
AcDbArc
 50
283.1317999999993
 51
352.671849999999
  0
LINE
  5
12F8
330
18
100
AcDbEntity
  8
1
  6
Continuous
100
AcDbLine
 10
238.9687888325906
 20
66.67066250159422
 30
0.0
 11
257.2367255325906
 21
66.67066250159422
 31
0.0
  0
LINE
  5
12F9
330
18
100
AcDbEntity
  8
1
  6
Continuous
100
AcDbLine
 10
231.6027571825906
 20
67.1706705015942
 30
0.0
 11
264.6027592769856
 21
67.1706705015942
 31
0.0
  0
ARC
  5
12FF
330
18
100
AcDbEntity
  8
1
  6
Continuous
100
AcDbCircle
 10
231.6027571825906
 20
70.1706705015942
 30
0.0
 40
3.0
100
AcDbArc
 50
188.0806400000006
 51
269.9999599999991
  0
ARC
  5
1301
330
18
100
AcDbEntity
  8
1
  6
Continuous
100
AcDbCircle
 10
238.9687888325906
 20
67.67066250159422
 30
0.0
 40
1.0
100
AcDbArc
 50
209.9994899999994
 51
270.0
  0
LINE
  5
1303
330
18
100
AcDbEntity
  8
1
  6
Continuous
100
AcDbLine
 10
242.1027571825906
 20
66.67066250159422
 30
0.0
 11
242.1027571825906
 21
65.6706705015942
 31
0.0
  0
LINE
  5
1304
330
18
100
AcDbEntity
  8
1
  6
Continuous
100
AcDbLine
 10
254.1027571825906
 20
66.67066250159422
 30
0.0
 11
254.1027571825906
 21
65.6706705015942
 31
0.0
  0
ARC
  5
1305
330
18
100
AcDbEntity
  8
1
  6
Continuous
100
AcDbCircle
 10
257.2367255325906
 20
67.67066250159422
 30
0.0
 40
1.0
100
AcDbArc
 50
270.0
 51
330.0005100000003
  0
ARC
  5
1307
330
18
100
AcDbEntity
  8
1
  6
Continuous
100
AcDbCircle
 10
264.6027571825906
 20
70.1706705015942
 30
0.0
 40
3.0
100
AcDbArc
 50
270.0000400000007
 51
351.9193599999993
  0
ARC
  5
1327
330
18
100
AcDbEntity
  8
1
  6
Continuous
100
AcDbCircle
 10
604.0360911825906
 20
244.298299468082
 30
0.0
 40
19.47020499999998
100
AcDbArc
 50
166.209393530979
 51
13.79059319462768
  0
ARC
  5
1328
330
18
100
AcDbEntity
  8
1
  6
Continuous
100
AcDbCircle
 10
604.0360911825906
 20
244.298299468082
 30
0.0
 40
34.03985999999999
100
AcDbArc
 50
134.0740173394866
 51
45.92597884821858
  0
ARC
  5
1329
330
18
100
AcDbEntity
  8
1
  6
Continuous
100
AcDbCircle
 10
604.0360911825906
 20
244.298299468082
 30
0.0
 40
41.00000399999998
100
AcDbArc
 50
128.4868144423615
 51
51.51318262214608
  0
ARC
  5
132A
330
18
100
AcDbEntity
  8
1
  6
Continuous
100
AcDbCircle
 10
604.0360911825906
 20
244.298299468082
 30
0.0
 40
50.0
100
AcDbArc
 50
123.7724603572071
 51
56.22753738672671
  0
ARC
  5
132B
330
18
100
AcDbEntity
  8
1
  6
Continuous
100
AcDbCircle
 10
70.13609018259067
 20
194.298307468082
 30
0.0
 40
100.0
100
AcDbArc
 50
82.67189999999937
 51
97.32816999999997
  0
ARC
  5
132C
330
18
100
AcDbEntity
  8
1
  6
Continuous
100
AcDbCircle
 10
70.13609018259067
 20
294.298307468082
 30
0.0
 40
100.0
100
AcDbArc
 50
262.6718299999999
 51
277.3281000000006
  0
LINE
  5
132D
330
18
100
AcDbEntity
  8
1
  6
Continuous
100
AcDbLine
 10
48.63609018259069
 20
227.798307468082
 30
0.0
 11
48.63609018259069
 21
260.7983095624771
 31
0.0
  0
LINE
  5
132E
330
18
100
AcDbEntity
  8
1
  6
Continuous
100
AcDbLine
 10
54.13609018259069
 20
203.298307468082
 30
0.0
 11
54.13609018259069
 21
285.298297468082
 31
0.0
  0
LINE
  5
132F
330
18
100
AcDbEntity
  8
1
  6
Continuous
100
AcDbLine
 10
54.13612118259072
 20
203.298317468082
 30
0.0
 11
55.68842018259068
 21
196.6443954680818
 31
0.0
  0
ARC
  5
1330
330
18
100
AcDbEntity
  8
1
  6
Continuous
100
AcDbCircle
 10
57.63609018259067
 20
197.0987684680819
 30
0.0
 40
2.0
100
AcDbArc
 50
193.1317299999983
 51
262.6717799999984
  0
LINE
  5
1331
330
18
100
AcDbEntity
  8
1
  6
Continuous
100
AcDbLine
 10
51.21440618259065
 20
224.828101168082
 30
0.0
 11
54.13609018259069
 21
224.4132881680819
 31
0.0
  0
ARC
  5
1332
330
18
100
AcDbEntity
  8
1
  6
Continuous
100
AcDbCircle
 10
51.63609018259069
 20
227.798307468082
 30
0.0
 40
3.0
100
AcDbArc
 50
180.0000400000006
 51
261.9193599999994
  0
LINE
  5
1333
330
18
100
AcDbEntity
  8
1
  6
Continuous
100
AcDbLine
 10
48.13608218259071
 20
235.164339118082
 30
0.0
 11
48.13608218259071
 21
253.432275643549
 31
0.0
  0
LINE
  5
1334
330
18
100
AcDbEntity
  8
1
  6
Continuous
100
AcDbLine
 10
48.13608218259071
 20
238.298307468082
 30
0.0
 11
47.13609018259067
 21
238.298307468082
 31
0.0
  0
ARC
  5
1335
330
18
100
AcDbEntity
  8
1
  6
Continuous
100
AcDbCircle
 10
49.13608218259071
 20
235.164339118082
 30
0.0
 40
1.0
100
AcDbArc
 50
179.9999899999988
 51
240.0004999999988
  0
ARC
  5
1336
330
18
100
AcDbEntity
  8
1
  6
Continuous
100
AcDbCircle
 10
49.13608218259071
 20
253.432275818082
 30
0.0
 40
1.0
100
AcDbArc
 50
119.9995000000011
 51
180.0000100000009
  0
LINE
  5
1337
330
18
100
AcDbEntity
  8
1
  6
Continuous
100
AcDbLine
 10
48.13608218259071
 20
250.298307468082
 30
0.0
 11
47.13609018259067
 21
250.298307468082
 31
0.0
  0
LINE
  5
1338
330
18
100
AcDbEntity
  8
1
  6
Continuous
100
AcDbLine
 10
51.21440618259065
 20
263.768513768082
 30
0.0
 11
54.13609018259069
 21
264.1833267680821
 31
0.0
  0
ARC
  5
1339
330
18
100
AcDbEntity
  8
1
  6
Continuous
100
AcDbCircle
 10
51.63609018259069
 20
260.798307468082
 30
0.0
 40
3.0
100
AcDbArc
 50
98.08064000000065
 51
179.9999599999992
  0
ARC
  5
133A
330
18
100
AcDbEntity
  8
1
  6
Continuous
100
AcDbCircle
 10
57.63609018259067
 20
291.4978464680821
 30
0.0
 40
2.0
100
AcDbArc
 50
97.32821999999828
 51
166.8682700000015
  0
LINE
  5
133B
330
18
100
AcDbEntity
  8
1
  6
Continuous
100
AcDbLine
 10
54.13612118259072
 20
285.298297468082
 30
0.0
 11
55.68842018259068
 21
291.9522194680821
 31
0.0
  0
LINE
  5
133C
330
18
100
AcDbEntity
  8
1
  6
Continuous
100
AcDbLine
 10
91.63609018259069
 20
227.798307468082
 30
0.0
 11
91.63609018259069
 21
260.7983095624771
 31
0.0
  0
LINE
  5
133D
330
18
100
AcDbEntity
  8
1
  6
Continuous
100
AcDbLine
 10
86.13609018259069
 20
203.298307468082
 30
0.0
 11
86.13609018259069
 21
285.298297468082
 31
0.0
  0
ARC
  5
133E
330
18
100
AcDbEntity
  8
1
  6
Continuous
100
AcDbCircle
 10
88.63609018259069
 20
227.798307468082
 30
0.0
 40
3.0
100
AcDbArc
 50
278.0806400000006
 51
359.9999599999991
  0
LINE
  5
133F
330
18
100
AcDbEntity
  8
1
  6
Continuous
100
AcDbLine
 10
86.13609818259067
 20
203.298317468082
 30
0.0
 11
84.58379418259069
 21
196.644388468082
 31
0.0
  0
ARC
  5
1340
330
18
100
AcDbEntity
  8
1
  6
Continuous
100
AcDbCircle
 10
82.63609018259067
 20
197.0987684680819
 30
0.0
 40
2.0
100
AcDbArc
 50
277.3281500000009
 51
346.8682000000006
  0
LINE
  5
1341
330
18
100
AcDbEntity
  8
1
  6
Continuous
100
AcDbLine
 10
89.05777818259069
 20
224.828101168082
 30
0.0
 11
86.13608618259069
 21
224.4132881680819
 31
0.0
  0
ARC
  5
1342
330
18
100
AcDbEntity
  8
1
  6
Continuous
100
AcDbCircle
 10
88.63609018259069
 20
260.798307468082
 30
0.0
 40
3.0
100
AcDbArc
 50
0.0000400000007688
 51
81.91935999999936
  0
ARC
  5
1343
330
18
100
AcDbEntity
  8
1
  6
Continuous
100
AcDbCircle
 10
91.13609818259069
 20
253.432275818082
 30
0.0
 40
1.0
100
AcDbArc
 50
0.0
 51
60.00051000000049
  0
LINE
  5
1344
330
18
100
AcDbEntity
  8
1
  6
Continuous
100
AcDbLine
 10
92.13609818259071
 20
250.298307468082
 30
0.0
 11
93.1360901825907
 21
250.298307468082
 31
0.0
  0
LINE
  5
1345
330
18
100
AcDbEntity
  8
1
  6
Continuous
100
AcDbLine
 10
92.13609818259071
 20
238.298307468082
 30
0.0
 11
93.1360901825907
 21
238.298307468082
 31
0.0
  0
ARC
  5
1346
330
18
100
AcDbEntity
  8
1
  6
Continuous
100
AcDbCircle
 10
91.13609818259069
 20
235.164339118082
 30
0.0
 40
1.0
100
AcDbArc
 50
299.9994899999994
 51
0.0
  0
LINE
  5
1347
330
18
100
AcDbEntity
  8
1
  6
Continuous
100
AcDbLine
 10
92.13609818259071
 20
235.164339118082
 30
0.0
 11
92.13609818259071
 21
253.432275818082
 31
0.0
  0
LINE
  5
1348
330
18
100
AcDbEntity
  8
1
  6
Continuous
100
AcDbLine
 10
89.05777818259069
 20
263.768513768082
 30
0.0
 11
86.13608618259069
 21
264.1833267680821
 31
0.0
  0
ARC
  5
1349
330
18
100
AcDbEntity
  8
1
  6
Continuous
100
AcDbCircle
 10
82.63609018259067
 20
291.4978464680821
 30
0.0
 40
2.0
100
AcDbArc
 50
13.13179999999936
 51
82.6718499999991
  0
LINE
  5
134A
330
18
100
AcDbEntity
  8
1
  6
Continuous
100
AcDbLine
 10
86.13609818259067
 20
285.298297468082
 30
0.0
 11
84.58379418259069
 21
291.952226468082
 31
0.0
  0
ARC
  5
134C
330
18
100
AcDbEntity
  8
1
  6
Continuous
100
AcDbCircle
 10
426.0694241825906
 20
194.298307468082
 30
0.0
 40
100.0
100
AcDbArc
 50
82.67189999999937
 51
97.32816999999997
  0
ARC
  5
134D
330
18
100
AcDbEntity
  8
1
  6
Continuous
100
AcDbCircle
 10
426.0694241825906
 20
294.298307468082
 30
0.0
 40
100.0
100
AcDbArc
 50
262.6718299999999
 51
277.3281000000006
  0
LINE
  5
134E
330
18
100
AcDbEntity
  8
1
  6
Continuous
100
AcDbLine
 10
404.5694241825906
 20
227.798307468082
 30
0.0
 11
404.5694241825906
 21
260.7983095624771
 31
0.0
  0
LINE
  5
134F
330
18
100
AcDbEntity
  8
1
  6
Continuous
100
AcDbLine
 10
410.0694241825906
 20
203.298307468082
 30
0.0
 11
410.0694241825906
 21
285.298297468082
 31
0.0
  0
LINE
  5
1350
330
18
100
AcDbEntity
  8
1
  6
Continuous
100
AcDbLine
 10
410.0694551825906
 20
203.298317468082
 30
0.0
 11
411.6217541825906
 21
196.6443954680818
 31
0.0
  0
ARC
  5
1351
330
18
100
AcDbEntity
  8
1
  6
Continuous
100
AcDbCircle
 10
413.5694241825906
 20
197.0987684680819
 30
0.0
 40
2.0
100
AcDbArc
 50
193.1317299999983
 51
262.6717799999984
  0
LINE
  5
1352
330
18
100
AcDbEntity
  8
1
  6
Continuous
100
AcDbLine
 10
407.1477401825906
 20
224.828101168082
 30
0.0
 11
410.0694241825906
 21
224.4132881680819
 31
0.0
  0
ARC
  5
1353
330
18
100
AcDbEntity
  8
1
  6
Continuous
100
AcDbCircle
 10
407.5694241825906
 20
227.798307468082
 30
0.0
 40
3.0
100
AcDbArc
 50
180.0000400000006
 51
261.9193599999994
  0
LINE
  5
1354
330
18
100
AcDbEntity
  8
1
  6
Continuous
100
AcDbLine
 10
404.0694161825906
 20
235.164339118082
 30
0.0
 11
404.0694161825906
 21
253.432275643549
 31
0.0
  0
LINE
  5
1355
330
18
100
AcDbEntity
  8
1
  6
Continuous
100
AcDbLine
 10
404.0694161825906
 20
238.298307468082
 30
0.0
 11
403.0694241825906
 21
238.298307468082
 31
0.0
  0
ARC
  5
1356
330
18
100
AcDbEntity
  8
1
  6
Continuous
100
AcDbCircle
 10
405.0694161825906
 20
235.164339118082
 30
0.0
 40
1.0
100
AcDbArc
 50
179.9999899999988
 51
240.0004999999988
  0
ARC
  5
1357
330
18
100
AcDbEntity
  8
1
  6
Continuous
100
AcDbCircle
 10
405.0694161825906
 20
253.432275818082
 30
0.0
 40
1.0
100
AcDbArc
 50
119.9995000000011
 51
180.0000100000009
  0
LINE
  5
1358
330
18
100
AcDbEntity
  8
1
  6
Continuous
100
AcDbLine
 10
404.0694161825906
 20
250.298307468082
 30
0.0
 11
403.0694241825906
 21
250.298307468082
 31
0.0
  0
LINE
  5
1359
330
18
100
AcDbEntity
  8
1
  6
Continuous
100
AcDbLine
 10
407.1477401825906
 20
263.768513768082
 30
0.0
 11
410.0694241825906
 21
264.1833267680821
 31
0.0
  0
ARC
  5
135A
330
18
100
AcDbEntity
  8
1
  6
Continuous
100
AcDbCircle
 10
407.5694241825906
 20
260.798307468082
 30
0.0
 40
3.0
100
AcDbArc
 50
98.08064000000065
 51
179.9999599999992
  0
ARC
  5
135B
330
18
100
AcDbEntity
  8
1
  6
Continuous
100
AcDbCircle
 10
413.5694241825906
 20
291.4978464680821
 30
0.0
 40
2.0
100
AcDbArc
 50
97.32821999999828
 51
166.8682700000015
  0
LINE
  5
135C
330
18
100
AcDbEntity
  8
1
  6
Continuous
100
AcDbLine
 10
410.0694551825906
 20
285.298297468082
 30
0.0
 11
411.6217541825906
 21
291.9522194680821
 31
0.0
  0
LINE
  5
135D
330
18
100
AcDbEntity
  8
1
  6
Continuous
100
AcDbLine
 10
447.5694241825906
 20
227.798307468082
 30
0.0
 11
447.5694241825906
 21
260.7983095624771
 31
0.0
  0
LINE
  5
135E
330
18
100
AcDbEntity
  8
1
  6
Continuous
100
AcDbLine
 10
442.0694241825906
 20
203.298307468082
 30
0.0
 11
442.0694241825906
 21
285.298297468082
 31
0.0
  0
ARC
  5
135F
330
18
100
AcDbEntity
  8
1
  6
Continuous
100
AcDbCircle
 10
444.5694241825906
 20
227.798307468082
 30
0.0
 40
3.0
100
AcDbArc
 50
278.0806400000006
 51
359.9999599999991
  0
LINE
  5
1360
330
18
100
AcDbEntity
  8
1
  6
Continuous
100
AcDbLine
 10
442.0694321825906
 20
203.298317468082
 30
0.0
 11
440.5171281825906
 21
196.644388468082
 31
0.0
  0
ARC
  5
1361
330
18
100
AcDbEntity
  8
1
  6
Continuous
100
AcDbCircle
 10
438.5694241825906
 20
197.0987684680819
 30
0.0
 40
2.0
100
AcDbArc
 50
277.3281500000009
 51
346.8682000000006
  0
LINE
  5
1362
330
18
100
AcDbEntity
  8
1
  6
Continuous
100
AcDbLine
 10
444.9911121825906
 20
224.828101168082
 30
0.0
 11
442.0694201825906
 21
224.4132881680819
 31
0.0
  0
ARC
  5
1363
330
18
100
AcDbEntity
  8
1
  6
Continuous
100
AcDbCircle
 10
444.5694241825906
 20
260.798307468082
 30
0.0
 40
3.0
100
AcDbArc
 50
0.0000400000007688
 51
81.91935999999936
  0
ARC
  5
1364
330
18
100
AcDbEntity
  8
1
  6
Continuous
100
AcDbCircle
 10
447.0694321825906
 20
253.432275818082
 30
0.0
 40
1.0
100
AcDbArc
 50
0.0
 51
60.00051000000049
  0
LINE
  5
1365
330
18
100
AcDbEntity
  8
1
  6
Continuous
100
AcDbLine
 10
448.0694321825906
 20
250.298307468082
 30
0.0
 11
449.0694241825906
 21
250.298307468082
 31
0.0
  0
LINE
  5
1366
330
18
100
AcDbEntity
  8
1
  6
Continuous
100
AcDbLine
 10
448.0694321825906
 20
238.298307468082
 30
0.0
 11
449.0694241825906
 21
238.298307468082
 31
0.0
  0
ARC
  5
1367
330
18
100
AcDbEntity
  8
1
  6
Continuous
100
AcDbCircle
 10
447.0694321825906
 20
235.164339118082
 30
0.0
 40
1.0
100
AcDbArc
 50
299.9994899999994
 51
0.0
  0
LINE
  5
1368
330
18
100
AcDbEntity
  8
1
  6
Continuous
100
AcDbLine
 10
448.0694321825906
 20
235.164339118082
 30
0.0
 11
448.0694321825906
 21
253.432275818082
 31
0.0
  0
LINE
  5
1369
330
18
100
AcDbEntity
  8
1
  6
Continuous
100
AcDbLine
 10
444.9911121825906
 20
263.768513768082
 30
0.0
 11
442.0694201825906
 21
264.1833267680821
 31
0.0
  0
ARC
  5
136A
330
18
100
AcDbEntity
  8
1
  6
Continuous
100
AcDbCircle
 10
438.5694241825906
 20
291.4978464680821
 30
0.0
 40
2.0
100
AcDbArc
 50
13.13179999999936
 51
82.6718499999991
  0
LINE
  5
136B
330
18
100
AcDbEntity
  8
1
  6
Continuous
100
AcDbLine
 10
442.0694321825906
 20
285.298297468082
 30
0.0
 11
440.5171281825906
 21
291.952226468082
 31
0.0
  0
ENDSEC
  0
SECTION
  2
OBJECTS
  0
DICTIONARY
  5
C
330
0
100
AcDbDictionary
281
     1
  3
ACAD_CIP_PREVIOUS_PRODUCT_INFO
350
144A
  3
ACAD_COLOR
350
142D
  3
ACAD_DETAILVIEWSTYLE
350
1446
  3
ACAD_GROUP
350
D
  3
ACAD_LAYOUT
350
5D
  3
ACAD_MATERIAL
350
13FB
  3
ACAD_MLEADERSTYLE
350
1442
  3
ACAD_MLINESTYLE
350
1B
  3
ACAD_PLOTSETTINGS
350
5E
  3
ACAD_PLOTSTYLENAME
350
13F9
  3
ACAD_SCALELIST
350
1430
  3
ACAD_SECTIONVIEWSTYLE
350
1444
  3
ACAD_TABLESTYLE
350
142E
  3
ACAD_VISUALSTYLE
350
1414
  3
ACDB_RECOMPOSE_DATA
350
1468
  3
AcDbVariableDictionary
350
145B
  3
CONTENTDICTIONARY
350
3D
  3
DWGPROPS
350
1469
  0
DICTIONARY
  5
144B
330
E
100
AcDbDictionary
280
     1
281
     1
  3
ADSK_XREC_LAYER_RECONCILED
360
144C
  0
DICTIONARY
  5
144D
330
65
100
AcDbDictionary
280
     1
281
     1
  3
ADSK_XREC_LAYER_RECONCILED
360
144E
  0
DICTIONARY
  5
144F
330
66
100
AcDbDictionary
280
     1
281
     1
  3
ADSK_XREC_LAYER_RECONCILED
360
1450
  0
DICTIONARY
  5
1451
330
67
100
AcDbDictionary
280
     1
281
     1
  3
ADSK_XREC_LAYER_RECONCILED
360
1452
  0
DICTIONARY
  5
1453
330
68
100
AcDbDictionary
280
     1
281
     1
  3
ADSK_XREC_LAYER_RECONCILED
360
1454
  0
DICTIONARY
  5
1455
330
69
100
AcDbDictionary
280
     1
281
     1
  3
ADSK_XREC_LAYER_RECONCILED
360
1456
  0
DICTIONARY
  5
1457
330
6A
100
AcDbDictionary
280
     1
281
     1
  3
ADSK_XREC_LAYER_RECONCILED
360
1458
  0
DICTIONARY
  5
1459
330
6B
100
AcDbDictionary
280
     1
281
     1
  3
ADSK_XREC_LAYER_RECONCILED
360
145A
  0
DICTIONARY
  5
13DD
330
18
100
AcDbDictionary
281
     1
  3
ACAD_LAYOUTSELFREF
350
13F5
  0
DICTIONARY
  5
13DB
330
15
100
AcDbDictionary
281
     1
  3
ACAD_LAYOUTSELFREF
350
13F4
  0
XRECORD
  5
144A
102
{ACAD_REACTORS
330
C
102
}
330
C
100
AcDbXrecord
280
     1
300
ACDLT
300
2014
300
ACDLT_F_S
  0
DICTIONARY
  5
142D
102
{ACAD_REACTORS
330
C
102
}
330
C
100
AcDbDictionary
281
     1
  0
DICTIONARY
  5
1446
102
{ACAD_REACTORS
330
C
102
}
330
C
100
AcDbDictionary
281
     1
  3
Imperial24
350
1447
  0
DICTIONARY
  5
D
102
{ACAD_REACTORS
330
C
102
}
330
C
100
AcDbDictionary
281
     1
  0
DICTIONARY
  5
5D
102
{ACAD_REACTORS
330
C
102
}
330
C
100
AcDbDictionary
281
     1
  3
Model
350
1448
  3
レイアウト1
350
1449
  0
DICTIONARY
  5
13FB
102
{ACAD_REACTORS
330
C
102
}
330
C
100
AcDbDictionary
281
     1
  3
ByBlock
350
1404
  3
ByLayer
350
13FC
  3
Global
350
140C
  0
DICTIONARY
  5
1442
102
{ACAD_REACTORS
330
C
102
}
330
C
100
AcDbDictionary
281
     1
  3
Standard
350
1443
  0
DICTIONARY
  5
1B
102
{ACAD_REACTORS
330
C
102
}
330
C
100
AcDbDictionary
281
     1
  3
STANDARD
350
1C
  0
DICTIONARY
  5
5E
102
{ACAD_REACTORS
330
C
102
}
330
C
100
AcDbDictionary
281
     1
  0
ACDBDICTIONARYWDFLT
  5
13F9
102
{ACAD_REACTORS
330
C
102
}
330
C
100
AcDbDictionary
281
     1
  3
Normal
350
13FA
100
AcDbDictionaryWithDefault
340
13FA
  0
DICTIONARY
  5
1430
102
{ACAD_REACTORS
330
C
102
}
330
C
100
AcDbDictionary
281
     1
  3
A0
350
1431
  3
A1
350
1432
  3
A2
350
1433
  3
A3
350
1434
  3
A4
350
1435
  3
A5
350
1436
  3
A6
350
1437
  3
A7
350
1438
  3
A8
350
1439
  3
A9
350
143A
  3
B0
350
143B
  3
B1
350
143C
  3
B2
350
143D
  3
B3
350
143E
  3
B4
350
143F
  3
B5
350
1440
  3
B6
350
1441
  0
DICTIONARY
  5
1444
102
{ACAD_REACTORS
330
C
102
}
330
C
100
AcDbDictionary
281
     1
  3
Imperial24
350
1445
  0
DICTIONARY
  5
142E
102
{ACAD_REACTORS
330
C
102
}
330
C
100
AcDbDictionary
281
     1
  3
Standard
350
142F
  0
DICTIONARY
  5
1414
102
{ACAD_REACTORS
330
C
102
}
330
C
100
AcDbDictionary
281
     1
  3
2dWireframe
350
141A
  3
Basic
350
1419
  3
Brighten
350
1420
  3
ColorChange
350
1424
  3
Conceptual
350
141D
  3
Dim
350
141F
  3
EdgeColorOff
350
142C
  3
Facepattern
350
1423
  3
Flat
350
1415
  3
FlatWithEdges
350
1416
  3
Gouraud
350
1417
  3
GouraudWithEdges
350
1418
  3
Hidden
350
141C
  3
JitterOff
350
142A
  3
Linepattern
350
1422
  3
OverhangOff
350
142B
  3
Realistic
350
141E
  3
Shaded
350
1429
  3
Shaded with edges
350
1428
  3
Shades of Gray
350
1425
  3
Sketchy
350
1426
  3
Thicken
350
1421
  3
Wireframe
350
141B
  3
X-Ray
350
1427
  0
XRECORD
  5
1468
102
{ACAD_REACTORS
330
C
102
}
330
C
100
AcDbXrecord
280
     1
 90
        1
330
142F
  0
DICTIONARY
  5
145B
102
{ACAD_REACTORS
330
C
102
}
330
C
100
AcDbDictionary
281
     1
  3
CANNOSCALE
350
1460
  3
CMLEADERSTYLE
350
145D
  3
CTABLESTYLE
350
145C
  3
CVIEWDETAILSTYLE
350
145E
  3
CVIEWSECTIONSTYLE
350
145F
  3
DIMASSOC
350
1463
  3
INDEXCTL
350
1462
  3
SORTENTS
350
1461
  3
XCLIPFRAME
350
1464
  0
DICTIONARY
  5
3D
102
{ACAD_REACTORS
330
C
102
}
330
C
100
AcDbDictionary
281
     1
  0
XRECORD
  5
1469
102
{ACAD_REACTORS
330
C
102
}
330
C
100
AcDbXrecord
280
     1
  1
DWGPROPS COOKIE
  2

  3

  4

  6

  7

  8
Yoshitsune
  9

300
=
301
=
302
=
303
=
304
=
305
=
306
=
307
=
308
=
309
=
 40
0.3718359837962963
 41
2453235.479719143
 42
2457192.689564525
  1

 90
        0
  0
XRECORD
  5
144C
102
{ACAD_REACTORS
330
144B
102
}
330
144B
100
AcDbXrecord
280
     1
290
     1
  0
XRECORD
  5
144E
102
{ACAD_REACTORS
330
144D
102
}
330
144D
100
AcDbXrecord
280
     1
290
     1
  0
XRECORD
  5
1450
102
{ACAD_REACTORS
330
144F
102
}
330
144F
100
AcDbXrecord
280
     1
290
     1
  0
XRECORD
  5
1452
102
{ACAD_REACTORS
330
1451
102
}
330
1451
100
AcDbXrecord
280
     1
290
     1
  0
XRECORD
  5
1454
102
{ACAD_REACTORS
330
1453
102
}
330
1453
100
AcDbXrecord
280
     1
290
     1
  0
XRECORD
  5
1456
102
{ACAD_REACTORS
330
1455
102
}
330
1455
100
AcDbXrecord
280
     1
290
     1
  0
XRECORD
  5
1458
102
{ACAD_REACTORS
330
1457
102
}
330
1457
100
AcDbXrecord
280
     1
290
     1
  0
XRECORD
  5
145A
102
{ACAD_REACTORS
330
1459
102
}
330
1459
100
AcDbXrecord
280
     1
290
     1
  0
XRECORD
  5
13F5
102
{ACAD_REACTORS
330
13DD
102
}
330
13DD
100
AcDbXrecord
280
     1
340
18
  0
XRECORD
  5
13F4
102
{ACAD_REACTORS
330
13DB
102
}
330
13DB
100
AcDbXrecord
280
     1
340
15
  0
ACDBDETAILVIEWSTYLE
  5
1447
102
{ACAD_XDICTIONARY
360
14A1
102
}
102
{ACAD_REACTORS
330
1446
102
}
330
1446
100
AcDbModelDocViewStyle
 70
     0
  3
Imperial24
290
     0
100
AcDbDetailViewStyle
 70
     0
 71
     0
 90
        3
 71
     1
340
F
 40
0.24
340
0
 40
0.24
300

 40
0.36
280
     3
 71
     2
340
14
 90
       25
 71
     3
340
F
 40
0.24
 90
        1
 40
0.75
 90
        1
300
%<\AcVar ViewType \f "%tc1">% %<\AcVar ViewDetailId>%\PSCALE %<\AcVar ViewScale \f "%sn">%
 71
     4
340
14
 90
       25
340
14
 90
       25
280
     0
  0
LAYOUT
  5
1448
102
{ACAD_XDICTIONARY
360
14A3
102
}
102
{ACAD_REACTORS
330
5D
102
}
330
5D
100
AcDbPlotSettings
  1

  2
Canon LBP9100C
  4

  6

 40
0.0
 41
0.0
 42
0.0
 43
0.0
 44
0.0
 45
0.0
 46
0.0
 47
0.0
 48
0.0
 49
0.0
140
0.0
141
0.0
142
1.0
143
1.0
 70
  1712
 72
     0
 73
     0
 74
     0
  7

 75
     0
147
1.0
148
0.0
149
0.0
100
AcDbLayout
  1
Model
 70
     1
 71
     0
 10
0.0
 20
0.0
 11
12.0
 21
9.0
 12
0.0
 22
0.0
 32
0.0
 14
0.0
 24
0.0
 34
0.0
 15
0.0
 25
0.0
 35
0.0
146
0.0
 13
0.0
 23
0.0
 33
0.0
 16
1.0
 26
0.0
 36
0.0
 17
0.0
 27
1.0
 37
0.0
 76
     0
330
18
331
13F3
  0
LAYOUT
  5
1449
102
{ACAD_XDICTIONARY
360
14A5
102
}
102
{ACAD_REACTORS
330
5D
102
}
330
5D
100
AcDbPlotSettings
  1

  2
Canon LBP9100C
  4

  6

 40
0.0
 41
0.0
 42
0.0
 43
0.0
 44
0.0
 45
0.0
 46
0.0
 47
0.0
 48
0.0
 49
0.0
140
0.0
141
0.0
142
1.0
143
1.0
 70
   688
 72
     0
 73
     0
 74
     5
  7

 75
    16
147
1.0
148
0.0
149
0.0
100
AcDbLayout
  1
レイアウト1
 70
     1
 71
     1
 10
0.0
 20
0.0
 11
420.0
 21
297.0
 12
0.0
 22
0.0
 32
0.0
 14
1.000000000000000E+20
 24
1.000000000000000E+20
 34
1.000000000000000E+20
 15
-1.000000000000000E+20
 25
-1.000000000000000E+20
 35
-1.000000000000000E+20
146
0.0
 13
0.0
 23
0.0
 33
0.0
 16
1.0
 26
0.0
 36
0.0
 17
0.0
 27
1.0
 37
0.0
 76
     0
330
15
  0
MATERIAL
  5
1404
102
{ACAD_XDICTIONARY
360
1405
102
}
102
{ACAD_REACTORS
330
13FB
102
}
330
13FB
100
AcDbMaterial
  1
ByBlock
 72
     0
 43
0.0208333333333333
 43
0.0
 43
0.0
 43
0.0
 43
0.0
 43
0.0208333333333333
 43
0.0
 43
0.0
 43
0.0
 43
0.0
 43
1.0
 43
0.0
 43
0.0
 43
0.0
 43
0.0
 43
1.0
 77
     0
 47
0.0208333333333333
 47
0.0
 47
0.0
 47
0.0
 47
0.0
 47
0.0208333333333333
 47
0.0
 47
0.0
 47
0.0
 47
0.0
 47
1.0
 47
0.0
 47
0.0
 47
0.0
 47
0.0
 47
1.0
171
     0
 49
0.0208333333333333
 49
0.0
 49
0.0
 49
0.0
 49
0.0
 49
0.0208333333333333
 49
0.0
 49
0.0
 49
0.0
 49
0.0
 49
1.0
 49
0.0
 49
0.0
 49
0.0
 49
0.0
 49
1.0
175
     0
142
0.0208333333333333
142
0.0
142
0.0
142
0.0
142
0.0
142
0.0208333333333333
142
0.0
142
0.0
142
0.0
142
0.0
142
1.0
142
0.0
142
0.0
142
0.0
142
0.0
142
1.0
179
     0
144
0.0208333333333333
144
0.0
144
0.0
144
0.0
144
0.0
144
0.0208333333333333
144
0.0
144
0.0
144
0.0
144
0.0
144
1.0
144
0.0
144
0.0
144
0.0
144
0.0
144
1.0
147
0.0208333333333333
147
0.0
147
0.0
147
0.0
147
0.0
147
0.0208333333333333
147
0.0
147
0.0
147
0.0
147
0.0
147
1.0
147
0.0
147
0.0
147
0.0
147
0.0
147
1.0
  0
MATERIAL
  5
13FC
102
{ACAD_XDICTIONARY
360
13FD
102
}
102
{ACAD_REACTORS
330
13FB
102
}
330
13FB
100
AcDbMaterial
  1
ByLayer
 72
     0
 43
0.0208333333333333
 43
0.0
 43
0.0
 43
0.0
 43
0.0
 43
0.0208333333333333
 43
0.0
 43
0.0
 43
0.0
 43
0.0
 43
1.0
 43
0.0
 43
0.0
 43
0.0
 43
0.0
 43
1.0
 77
     0
 47
0.0208333333333333
 47
0.0
 47
0.0
 47
0.0
 47
0.0
 47
0.0208333333333333
 47
0.0
 47
0.0
 47
0.0
 47
0.0
 47
1.0
 47
0.0
 47
0.0
 47
0.0
 47
0.0
 47
1.0
171
     0
 49
0.0208333333333333
 49
0.0
 49
0.0
 49
0.0
 49
0.0
 49
0.0208333333333333
 49
0.0
 49
0.0
 49
0.0
 49
0.0
 49
1.0
 49
0.0
 49
0.0
 49
0.0
 49
0.0
 49
1.0
175
     0
142
0.0208333333333333
142
0.0
142
0.0
142
0.0
142
0.0
142
0.0208333333333333
142
0.0
142
0.0
142
0.0
142
0.0
142
1.0
142
0.0
142
0.0
142
0.0
142
0.0
142
1.0
179
     0
144
0.0208333333333333
144
0.0
144
0.0
144
0.0
144
0.0
144
0.0208333333333333
144
0.0
144
0.0
144
0.0
144
0.0
144
1.0
144
0.0
144
0.0
144
0.0
144
0.0
144
1.0
147
0.0208333333333333
147
0.0
147
0.0
147
0.0
147
0.0
147
0.0208333333333333
147
0.0
147
0.0
147
0.0
147
0.0
147
1.0
147
0.0
147
0.0
147
0.0
147
0.0
147
1.0
  0
MATERIAL
  5
140C
102
{ACAD_XDICTIONARY
360
140D
102
}
102
{ACAD_REACTORS
330
13FB
102
}
330
13FB
100
AcDbMaterial
  1
Global
 72
     0
 43
0.0208333333333333
 43
0.0
 43
0.0
 43
0.0
 43
0.0
 43
0.0208333333333333
 43
0.0
 43
0.0
 43
0.0
 43
0.0
 43
1.0
 43
0.0
 43
0.0
 43
0.0
 43
0.0
 43
1.0
 77
     0
 47
0.0208333333333333
 47
0.0
 47
0.0
 47
0.0
 47
0.0
 47
0.0208333333333333
 47
0.0
 47
0.0
 47
0.0
 47
0.0
 47
1.0
 47
0.0
 47
0.0
 47
0.0
 47
0.0
 47
1.0
171
     0
 49
0.0208333333333333
 49
0.0
 49
0.0
 49
0.0
 49
0.0
 49
0.0208333333333333
 49
0.0
 49
0.0
 49
0.0
 49
0.0
 49
1.0
 49
0.0
 49
0.0
 49
0.0
 49
0.0
 49
1.0
175
     0
142
0.0208333333333333
142
0.0
142
0.0
142
0.0
142
0.0
142
0.0208333333333333
142
0.0
142
0.0
142
0.0
142
0.0
142
1.0
142
0.0
142
0.0
142
0.0
142
0.0
142
1.0
179
     0
144
0.0208333333333333
144
0.0
144
0.0
144
0.0
144
0.0
144
0.0208333333333333
144
0.0
144
0.0
144
0.0
144
0.0
144
1.0
144
0.0
144
0.0
144
0.0
144
0.0
144
1.0
147
0.0208333333333333
147
0.0
147
0.0
147
0.0
147
0.0
147
0.0208333333333333
147
0.0
147
0.0
147
0.0
147
0.0
147
1.0
147
0.0
147
0.0
147
0.0
147
0.0
147
1.0
  0
MLEADERSTYLE
  5
1443
102
{ACAD_REACTORS
330
1442
102
}
330
1442
100
AcDbMLeaderStyle
170
     2
171
     1
172
     0
 90
        2
 40
0.0
 41
0.0
173
     1
 91
-1056964608
340
12
 92
       -2
290
     1
 42
0.09
291
     1
 43
0.36
  3
Standard
 44
0.18
300

342
F
174
     1
178
     6
175
     1
176
     0
 93
-1056964608
 45
0.18
292
     0
297
     0
 46
0.18
 94
-1056964608
 47
1.0
 49
1.0
140
1.0
293
     1
141
0.0
294
     1
177
     0
142
1.0
295
     0
296
     0
143
0.125
1001
ACAD_MLEADERVER
1070
     2
  0
MLINESTYLE
  5
1C
102
{ACAD_REACTORS
330
1B
102
}
330
1B
100
AcDbMlineStyle
  2
STANDARD
 70
     0
  3

 62
   256
 51
90.0
 52
90.0
 71
     2
 49
0.5
 62
   256
  6
BYLAYER
 49
-0.5
 62
   256
  6
BYLAYER
  0
ACDBPLACEHOLDER
  5
13FA
102
{ACAD_REACTORS
330
13F9
102
}
330
13F9
  0
SCALE
  5
1431
102
{ACAD_REACTORS
330
1430
102
}
330
1430
100
AcDbScale
 70
     0
300
1:1
140
1.0
141
1.0
290
     1
  0
SCALE
  5
1432
102
{ACAD_REACTORS
330
1430
102
}
330
1430
100
AcDbScale
 70
     0
300
1/128" = 1'-0"
140
0.0078125
141
12.0
290
     0
  0
SCALE
  5
1433
102
{ACAD_REACTORS
330
1430
102
}
330
1430
100
AcDbScale
 70
     0
300
1/64" = 1'-0"
140
0.015625
141
12.0
290
     0
  0
SCALE
  5
1434
102
{ACAD_REACTORS
330
1430
102
}
330
1430
100
AcDbScale
 70
     0
300
1/32" = 1'-0"
140
0.03125
141
12.0
290
     0
  0
SCALE
  5
1435
102
{ACAD_REACTORS
330
1430
102
}
330
1430
100
AcDbScale
 70
     0
300
1/16" = 1'-0"
140
0.0625
141
12.0
290
     0
  0
SCALE
  5
1436
102
{ACAD_REACTORS
330
1430
102
}
330
1430
100
AcDbScale
 70
     0
300
3/32" = 1'-0"
140
0.09375
141
12.0
290
     0
  0
SCALE
  5
1437
102
{ACAD_REACTORS
330
1430
102
}
330
1430
100
AcDbScale
 70
     0
300
1/8" = 1'-0"
140
0.125
141
12.0
290
     0
  0
SCALE
  5
1438
102
{ACAD_REACTORS
330
1430
102
}
330
1430
100
AcDbScale
 70
     0
300
3/16" = 1'-0"
140
0.1875
141
12.0
290
     0
  0
SCALE
  5
1439
102
{ACAD_REACTORS
330
1430
102
}
330
1430
100
AcDbScale
 70
     0
300
1/4" = 1'-0"
140
0.25
141
12.0
290
     0
  0
SCALE
  5
143A
102
{ACAD_REACTORS
330
1430
102
}
330
1430
100
AcDbScale
 70
     0
300
3/8" = 1'-0"
140
0.375
141
12.0
290
     0
  0
SCALE
  5
143B
102
{ACAD_REACTORS
330
1430
102
}
330
1430
100
AcDbScale
 70
     0
300
1/2" = 1'-0"
140
0.5
141
12.0
290
     0
  0
SCALE
  5
143C
102
{ACAD_REACTORS
330
1430
102
}
330
1430
100
AcDbScale
 70
     0
300
3/4" = 1'-0"
140
0.75
141
12.0
290
     0
  0
SCALE
  5
143D
102
{ACAD_REACTORS
330
1430
102
}
330
1430
100
AcDbScale
 70
     0
300
1" = 1'-0"
140
1.0
141
12.0
290
     0
  0
SCALE
  5
143E
102
{ACAD_REACTORS
330
1430
102
}
330
1430
100
AcDbScale
 70
     0
300
1-1/2" = 1'-0"
140
1.5
141
12.0
290
     0
  0
SCALE
  5
143F
102
{ACAD_REACTORS
330
1430
102
}
330
1430
100
AcDbScale
 70
     0
300
3" = 1'-0"
140
3.0
141
12.0
290
     0
  0
SCALE
  5
1440
102
{ACAD_REACTORS
330
1430
102
}
330
1430
100
AcDbScale
 70
     0
300
6" = 1'-0"
140
6.0
141
12.0
290
     0
  0
SCALE
  5
1441
102
{ACAD_REACTORS
330
1430
102
}
330
1430
100
AcDbScale
 70
     0
300
1'-0" = 1'-0"
140
12.0
141
12.0
290
     0
  0
ACDBSECTIONVIEWSTYLE
  5
1445
102
{ACAD_XDICTIONARY
360
149F
102
}
102
{ACAD_REACTORS
330
1444
102
}
330
1444
100
AcDbModelDocViewStyle
 70
     0
  3
Imperial24
290
     0
100
AcDbSectionViewStyle
 70
     0
 71
     0
 90
       78
 71
     1
340
F
 40
0.24
340
0
340
0
 40
0.24
300
I, O, Q, S, X, Z
 40
0.48
 90
        3
 40
0.18
 90
        1
 71
     2
340
14
 90
       25
340
14
 90
       50
 40
0.24
 40
0.0
 40
0.24
 71
     3
340
F
 40
0.24
 90
        1
 40
0.75
 90
        1
300
%<\AcVar ViewType \f "%tc1">% %<\AcVar ViewSectionStartId>%-%<\AcVar ViewSectionEndId>%\PSCALE %<\AcVar ViewScale \f "%sn">%
 71
     4
300
ANSI31
 40
1.0
 90
        0
290
     0
290
     0
 90
        6
 40
0.0
 40
1.570796326794896
 40
0.2617993877991494
 40
1.308996938995747
 40
-0.2617993877991494
 40
1.832595714594046
  0
TABLESTYLE
  5
142F
102
{ACAD_XDICTIONARY
360
1466
102
}
102
{ACAD_REACTORS
330
142E
102
}
330
142E
100
AcDbTableStyle
  3
Standard
 70
     0
 71
     0
 40
0.06
 41
0.06
280
     0
281
     0
  7
STANDARD
140
0.18
170
     2
 62
     0
 63
     7
283
     0
274
    -2
284
     1
 64
     0
275
    -2
285
     1
 65
     0
276
    -2
286
     1
 66
     0
277
    -2
287
     1
 67
     0
278
    -2
288
     1
 68
     0
279
    -2
289
     1
 69
     0
  7
STANDARD
140
0.25
170
     5
 62
     0
 63
     7
283
     0
274
    -2
284
     1
 64
     0
275
    -2
285
     1
 65
     0
276
    -2
286
     1
 66
     0
277
    -2
287
     1
 67
     0
278
    -2
288
     1
 68
     0
279
    -2
289
     1
 69
     0
  7
STANDARD
140
0.18
170
     5
 62
     0
 63
     7
283
     0
274
    -2
284
     1
 64
     0
275
    -2
285
     1
 65
     0
276
    -2
286
     1
 66
     0
277
    -2
287
     1
 67
     0
278
    -2
288
     1
 68
     0
279
    -2
289
     1
 69
     0
  0
VISUALSTYLE
  5
141A
102
{ACAD_XDICTIONARY
360
1477
102
}
102
{ACAD_REACTORS
330
1414
102
}
330
1414
100
AcDbVisualStyle
  2
2dWireframe
 70
     4
 71
     0
 72
     2
 73
     0
 90
        0
 40
-0.6
 41
-30.0
 62
     5
 63
     7
 74
     1
 91
        4
 64
     7
 65
   257
 75
     1
175
     1
 42
1.0
 92
        0
 66
   257
 43
1.0
 76
     1
 77
     6
 78
     2
 67
     7
 79
     5
170
     0
171
     0
290
     0
174
     0
 93
        1
 44
0.0
173
     0
291
     0
 45
0.0
1001
ACAD
1000
AcDbSavedByObjectVersion
1070
     0
  0
VISUALSTYLE
  5
1419
102
{ACAD_XDICTIONARY
360
1475
102
}
102
{ACAD_REACTORS
330
1414
102
}
330
1414
100
AcDbVisualStyle
  2
Basic
 70
     7
 71
     1
 72
     0
 73
     1
 90
        0
 40
-0.6
 41
-30.0
 62
     5
 63
     7
 74
     0
 91
        4
 64
     7
 65
   257
 75
     1
175
     1
 42
1.0
 92
        8
 66
     7
 43
1.0
 76
     1
 77
     6
 78
     2
 67
     7
 79
     5
170
     0
171
     0
290
     0
174
     0
 93
        1
 44
0.0
173
     0
291
     1
 45
0.0
1001
ACAD
1000
AcDbSavedByObjectVersion
1070
     0
  0
VISUALSTYLE
  5
1420
102
{ACAD_XDICTIONARY
360
1483
102
}
102
{ACAD_REACTORS
330
1414
102
}
330
1414
100
AcDbVisualStyle
  2
Brighten
 70
    12
 71
     2
 72
     2
 73
     0
 90
        0
 40
-0.6
 41
-30.0
 62
     5
 63
     7
 74
     1
 91
        4
 64
     7
 65
   257
 75
     1
175
     1
 42
1.0
 92
        8
 66
     7
 43
1.0
 76
     1
 77
     6
 78
     2
 67
     7
 79
     5
170
     0
171
     0
290
     0
174
     0
 93
        1
 44
50.0
173
     0
291
     1
 45
0.0
1001
ACAD
1000
AcDbSavedByObjectVersion
1070
     0
  0
VISUALSTYLE
  5
1424
102
{ACAD_XDICTIONARY
360
148B
102
}
102
{ACAD_REACTORS
330
1414
102
}
330
1414
100
AcDbVisualStyle
  2
ColorChange
 70
    16
 71
     2
 72
     2
 73
     3
 90
        0
 40
-0.6
 41
-30.0
 62
     5
 63
     8
 74
     1
 91
        4
 64
     7
 65
   257
 75
     1
175
     1
 42
1.0
 92
        8
 66
     8
 43
1.0
 76
     1
 77
     6
 78
     2
 67
     7
 79
     5
170
     0
171
     0
290
     0
174
     0
 93
        1
 44
0.0
173
     0
291
     1
 45
0.0
1001
ACAD
1000
AcDbSavedByObjectVersion
1070
     0
  0
VISUALSTYLE
  5
141D
102
{ACAD_XDICTIONARY
360
147D
102
}
102
{ACAD_REACTORS
330
1414
102
}
330
1414
100
AcDbVisualStyle
  2
Conceptual
 70
     9
 71
     3
 72
     2
 73
     0
 90
        0
 40
-0.6
 41
-30.0
 62
     5
 63
     7
 74
     2
 91
        2
 64
     7
 65
   257
 75
     1
175
     1
 42
179.0
 92
        8
 66
     7
 43
1.0
 76
     1
 77
     6
 78
     2
 67
     7
 79
     3
170
     0
171
     0
290
     0
174
     0
 93
        1
 44
0.0
173
     0
291
     0
 45
0.0
1001
ACAD
1000
AcDbSavedByObjectVersion
1070
     0
  0
VISUALSTYLE
  5
141F
102
{ACAD_XDICTIONARY
360
1481
102
}
102
{ACAD_REACTORS
330
1414
102
}
330
1414
100
AcDbVisualStyle
  2
Dim
 70
    11
 71
     2
 72
     2
 73
     0
 90
        0
 40
-0.6
 41
-30.0
 62
     5
 63
     7
 74
     1
 91
        4
 64
     7
 65
   257
 75
     1
175
     1
 42
1.0
 92
        8
 66
     7
 43
1.0
 76
     1
 77
     6
 78
     2
 67
     7
 79
     5
170
     0
171
     0
290
     0
174
     0
 93
        1
 44
-50.0
173
     0
291
     1
 45
0.0
1001
ACAD
1000
AcDbSavedByObjectVersion
1070
     0
  0
VISUALSTYLE
  5
142C
102
{ACAD_XDICTIONARY
360
149B
102
}
102
{ACAD_REACTORS
330
1414
102
}
330
1414
100
AcDbVisualStyle
  2
EdgeColorOff
 70
    22
 71
     2
 72
     2
 73
     0
 90
        0
 40
-0.6
 41
-30.0
 62
     5
 63
     7
 74
     1
 91
        4
 64
     7
 65
   257
 75
     1
175
     1
 42
1.0
 92
        8
 66
     7
 43
1.0
 76
     1
 77
     6
 78
     2
 67
     7
 79
     5
170
     0
171
     0
290
     0
174
     0
 93
        1
 44
0.0
173
     0
291
     1
 45
0.0
1001
ACAD
1000
AcDbSavedByObjectVersion
1070
     0
  0
VISUALSTYLE
  5
1423
102
{ACAD_XDICTIONARY
360
1489
102
}
102
{ACAD_REACTORS
330
1414
102
}
330
1414
100
AcDbVisualStyle
  2
Facepattern
 70
    15
 71
     2
 72
     2
 73
     0
 90
        0
 40
-0.6
 41
-30.0
 62
     5
 63
     7
 74
     1
 91
        4
 64
     7
 65
   257
 75
     1
175
     1
 42
1.0
 92
        8
 66
     7
 43
1.0
 76
     1
 77
     6
 78
     2
 67
     7
 79
     5
170
     0
171
     0
290
     0
174
     0
 93
        1
 44
0.0
173
     0
291
     1
 45
0.0
1001
ACAD
1000
AcDbSavedByObjectVersion
1070
     0
  0
VISUALSTYLE
  5
1415
102
{ACAD_XDICTIONARY
360
146D
102
}
102
{ACAD_REACTORS
330
1414
102
}
330
1414
100
AcDbVisualStyle
  2
Flat
 70
     0
 71
     2
 72
     1
 73
     1
 90
        2
 40
-0.6
 41
30.0
 62
     5
 63
     7
 74
     0
 91
        0
 64
     7
 65
   257
 75
     1
175
     1
 42
1.0
 92
        8
 66
     7
 43
1.0
 76
     1
 77
     6
 78
     2
 67
     7
 79
     5
170
     0
171
     0
290
     0
174
     0
 93
       13
 44
0.0
173
     0
291
     1
 45
0.0
1001
ACAD
1000
AcDbSavedByObjectVersion
1070
     0
  0
VISUALSTYLE
  5
1416
102
{ACAD_XDICTIONARY
360
146F
102
}
102
{ACAD_REACTORS
330
1414
102
}
330
1414
100
AcDbVisualStyle
  2
FlatWithEdges
 70
     1
 71
     2
 72
     1
 73
     1
 90
        2
 40
-0.6
 41
30.0
 62
     5
 63
     7
 74
     1
 91
        0
 64
     7
 65
   257
 75
     1
175
     1
 42
1.0
 92
        0
 66
   257
 43
1.0
 76
     1
 77
     6
 78
     2
 67
     7
 79
     5
170
     0
171
     0
290
     0
174
     0
 93
       13
 44
0.0
173
     0
291
     1
 45
0.0
1001
ACAD
1000
AcDbSavedByObjectVersion
1070
     0
  0
VISUALSTYLE
  5
1417
102
{ACAD_XDICTIONARY
360
1471
102
}
102
{ACAD_REACTORS
330
1414
102
}
330
1414
100
AcDbVisualStyle
  2
Gouraud
 70
     2
 71
     2
 72
     2
 73
     1
 90
        2
 40
-0.6
 41
30.0
 62
     5
 63
     7
 74
     0
 91
        0
 64
     7
 65
   257
 75
     1
175
     1
 42
1.0
 92
        0
 66
     7
 43
1.0
 76
     1
 77
     6
 78
     2
 67
     7
 79
     5
170
     0
171
     0
290
     0
174
     0
 93
       13
 44
0.0
173
     0
291
     1
 45
0.0
1001
ACAD
1000
AcDbSavedByObjectVersion
1070
     0
  0
VISUALSTYLE
  5
1418
102
{ACAD_XDICTIONARY
360
1473
102
}
102
{ACAD_REACTORS
330
1414
102
}
330
1414
100
AcDbVisualStyle
  2
GouraudWithEdges
 70
     3
 71
     2
 72
     2
 73
     1
 90
        2
 40
-0.6
 41
30.0
 62
     5
 63
     7
 74
     1
 91
        0
 64
     7
 65
   257
 75
     1
175
     1
 42
1.0
 92
        0
 66
   257
 43
1.0
 76
     1
 77
     6
 78
     2
 67
     7
 79
     5
170
     0
171
     0
290
     0
174
     0
 93
       13
 44
0.0
173
     0
291
     1
 45
0.0
1001
ACAD
1000
AcDbSavedByObjectVersion
1070
     0
  0
VISUALSTYLE
  5
141C
102
{ACAD_XDICTIONARY
360
147B
102
}
102
{ACAD_REACTORS
330
1414
102
}
330
1414
100
AcDbVisualStyle
  2
Hidden
 70
     6
 71
     1
 72
     2
 73
     2
 90
        0
 40
-0.6
 41
-30.0
 62
     5
 63
     7
 74
     2
 91
        2
 64
     7
 65
   257
 75
     2
175
     1
 42
40.0
 92
        0
 66
   257
 43
1.0
 76
     1
 77
     6
 78
     2
 67
     7
 79
     3
170
     0
171
     0
290
     0
174
     0
 93
        1
 44
0.0
173
     0
291
     0
 45
0.0
1001
ACAD
1000
AcDbSavedByObjectVersion
1070
     0
  0
VISUALSTYLE
  5
142A
102
{ACAD_XDICTIONARY
360
1497
102
}
102
{ACAD_REACTORS
330
1414
102
}
330
1414
100
AcDbVisualStyle
  2
JitterOff
 70
    20
 71
     2
 72
     2
 73
     0
 90
        0
 40
-0.6
 41
-30.0
 62
     5
 63
     7
 74
     1
 91
        4
 64
     7
 65
   257
 75
     1
175
     1
 42
1.0
 92
       10
 66
     7
 43
1.0
 76
     1
 77
     6
 78
     2
 67
     7
 79
     5
170
     0
171
     0
290
     0
174
     0
 93
        1
 44
0.0
173
     0
291
     1
 45
0.0
1001
ACAD
1000
AcDbSavedByObjectVersion
1070
     0
  0
VISUALSTYLE
  5
1422
102
{ACAD_XDICTIONARY
360
1487
102
}
102
{ACAD_REACTORS
330
1414
102
}
330
1414
100
AcDbVisualStyle
  2
Linepattern
 70
    14
 71
     2
 72
     2
 73
     0
 90
        0
 40
-0.6
 41
-30.0
 62
     5
 63
     7
 74
     1
 91
        4
 64
     7
 65
   257
 75
     7
175
     7
 42
1.0
 92
        8
 66
     7
 43
1.0
 76
     1
 77
     6
 78
     2
 67
     7
 79
     5
170
     0
171
     0
290
     0
174
     0
 93
        1
 44
0.0
173
     0
291
     1
 45
0.0
1001
ACAD
1000
AcDbSavedByObjectVersion
1070
     0
  0
VISUALSTYLE
  5
142B
102
{ACAD_XDICTIONARY
360
1499
102
}
102
{ACAD_REACTORS
330
1414
102
}
330
1414
100
AcDbVisualStyle
  2
OverhangOff
 70
    21
 71
     2
 72
     2
 73
     0
 90
        0
 40
-0.6
 41
-30.0
 62
     5
 63
     7
 74
     1
 91
        4
 64
     7
 65
   257
 75
     1
175
     1
 42
1.0
 92
        9
 66
     7
 43
1.0
 76
     1
 77
     6
 78
     2
 67
     7
 79
     5
170
     0
171
     0
290
     0
174
     0
 93
        1
 44
0.0
173
     0
291
     1
 45
0.0
1001
ACAD
1000
AcDbSavedByObjectVersion
1070
     0
  0
VISUALSTYLE
  5
141E
102
{ACAD_XDICTIONARY
360
147F
102
}
102
{ACAD_REACTORS
330
1414
102
}
330
1414
100
AcDbVisualStyle
  2
Realistic
 70
     8
 71
     2
 72
     3
 73
     0
 90
        2
 40
-0.6
 41
30.0
 62
     5
 63
     7
 74
     0
 91
        0
 64
     7
 65
   257
 75
     1
175
     1
 42
1.0
 92
        8
 66
   257
 43
1.0
 76
     1
 77
     6
 78
     2
 67
     7
 79
     3
170
     0
171
     0
290
     0
174
     0
 93
       13
 44
0.0
173
     0
291
     0
 45
0.0
1001
ACAD
1000
AcDbSavedByObjectVersion
1070
     0
  0
VISUALSTYLE
  5
1429
102
{ACAD_XDICTIONARY
360
1495
102
}
102
{ACAD_REACTORS
330
1414
102
}
330
1414
100
AcDbVisualStyle
  2
Shaded
 70
    27
 71
     2
 72
     2
 73
     1
 90
        2
 40
-0.6
 41
30.0
 62
     5
 63
     7
 74
     0
 91
        4
 64
     7
 65
   257
 75
     1
175
     1
 42
1.0
 92
        8
 66
   257
 43
1.0
 76
     1
 77
     6
 78
     2
 67
     8
 79
     3
170
     0
171
     0
290
     0
174
     0
 93
        5
 44
0.0
173
     0
291
     0
 45
0.0
1001
ACAD
1000
AcDbSavedByObjectVersion
1070
     0
  0
VISUALSTYLE
  5
1428
102
{ACAD_XDICTIONARY
360
1493
102
}
102
{ACAD_REACTORS
330
1414
102
}
330
1414
100
AcDbVisualStyle
  2
Shaded with edges
 70
    26
 71
     2
 72
     2
 73
     1
 90
        2
 40
-0.6
 41
30.0
 62
     5
 63
     7
 74
     1
 91
       10
 64
     7
 65
   257
 75
     2
175
     1
 42
1.0
 92
        8
 66
   257
 43
1.0
 76
     1
 77
     6
 78
     2
 67
     7
 79
     3
170
     0
171
     0
290
     0
174
     0
 93
        5
 44
0.0
173
     0
291
     0
 45
0.0
1001
ACAD
1000
AcDbSavedByObjectVersion
1070
     0
  0
VISUALSTYLE
  5
1425
102
{ACAD_XDICTIONARY
360
148D
102
}
102
{ACAD_REACTORS
330
1414
102
}
330
1414
100
AcDbVisualStyle
  2
Shades of Gray
 70
    23
 71
     2
 72
     2
 73
     3
 90
        0
 40
-0.6
 41
-30.0
 62
     5
 63
     7
 74
     2
 91
        2
 64
     7
 65
     7
 75
     1
175
     1
 42
40.0
 92
        8
 66
     7
 43
1.0
 76
     1
 77
     6
 78
     2
 67
     7
 79
     3
170
     0
171
     0
290
     0
174
     0
 93
        1
 44
0.0
173
     0
291
     0
 45
0.0
1001
ACAD
1000
AcDbSavedByObjectVersion
1070
     0
  0
VISUALSTYLE
  5
1426
102
{ACAD_XDICTIONARY
360
148F
102
}
102
{ACAD_REACTORS
330
1414
102
}
330
1414
100
AcDbVisualStyle
  2
Sketchy
 70
    24
 71
     1
 72
     2
 73
     2
 90
        0
 40
-0.6
 41
-30.0
 62
     5
 63
     7
 74
     2
 91
        2
 64
     7
 65
     7
 75
     1
175
     1
 42
40.0
 92
       11
 66
     7
 43
1.0
 76
     1
 77
     6
 78
     2
 67
     7
 79
     6
170
     0
171
     0
290
     0
174
     0
 93
        1
 44
0.0
173
     0
291
     0
 45
0.0
1001
ACAD
1000
AcDbSavedByObjectVersion
1070
     0
  0
VISUALSTYLE
  5
1421
102
{ACAD_XDICTIONARY
360
1485
102
}
102
{ACAD_REACTORS
330
1414
102
}
330
1414
100
AcDbVisualStyle
  2
Thicken
 70
    13
 71
     2
 72
     2
 73
     0
 90
        0
 40
-0.6
 41
-30.0
 62
     5
 63
     7
 74
     1
 91
        4
 64
     7
 65
   257
 75
     1
175
     1
 42
1.0
 92
       12
 66
     7
 43
1.0
 76
     1
 77
     6
 78
     2
 67
     7
 79
     5
170
     0
171
     0
290
     0
174
     0
 93
        1
 44
0.0
173
     0
291
     1
 45
0.0
1001
ACAD
1000
AcDbSavedByObjectVersion
1070
     0
  0
VISUALSTYLE
  5
141B
102
{ACAD_XDICTIONARY
360
1479
102
}
102
{ACAD_REACTORS
330
1414
102
}
330
1414
100
AcDbVisualStyle
  2
Wireframe
 70
     5
 71
     0
 72
     2
 73
     0
 90
        0
 40
-0.6
 41
-30.0
 62
     5
 63
     7
 74
     1
 91
        4
 64
     7
 65
   257
 75
     1
175
     1
 42
1.0
 92
        0
 66
   257
 43
1.0
 76
     1
 77
     6
 78
     2
 67
     7
 79
     3
170
     0
171
     0
290
     0
174
     0
 93
        1
 44
0.0
173
     0
291
     0
 45
0.0
1001
ACAD
1000
AcDbSavedByObjectVersion
1070
     0
  0
VISUALSTYLE
  5
1427
102
{ACAD_XDICTIONARY
360
1491
102
}
102
{ACAD_REACTORS
330
1414
102
}
330
1414
100
AcDbVisualStyle
  2
X-Ray
 70
    25
 71
     2
 72
     2
 73
     1
 90
        1
 40
0.5
 41
-30.0
 62
     5
 63
     7
 74
     1
 91
        0
 64
     7
 65
   257
 75
     1
175
     1
 42
1.0
 92
        8
 66
     7
 43
1.0
 76
     1
 77
     6
 78
     2
 67
     7
 79
     3
170
     0
171
     0
290
     0
174
     0
 93
       13
 44
0.0
173
     0
291
     0
 45
0.0
1001
ACAD
1000
AcDbSavedByObjectVersion
1070
     0
  0
DICTIONARYVAR
  5
1460
102
{ACAD_REACTORS
330
145B
102
}
330
145B
100
DictionaryVariables
280
     0
  1
1:1
  0
DICTIONARYVAR
  5
145D
102
{ACAD_REACTORS
330
145B
102
}
330
145B
100
DictionaryVariables
280
     0
  1
STANDARD
  0
DICTIONARYVAR
  5
145C
102
{ACAD_REACTORS
330
145B
102
}
330
145B
100
DictionaryVariables
280
     0
  1
STANDARD
  0
DICTIONARYVAR
  5
145E
102
{ACAD_REACTORS
330
145B
102
}
330
145B
100
DictionaryVariables
280
     0
  1
Imperial24
  0
DICTIONARYVAR
  5
145F
102
{ACAD_REACTORS
330
145B
102
}
330
145B
100
DictionaryVariables
280
     0
  1
Imperial24
  0
DICTIONARYVAR
  5
1463
102
{ACAD_REACTORS
330
145B
102
}
330
145B
100
DictionaryVariables
280
     0
  1
1
  0
DICTIONARYVAR
  5
1462
102
{ACAD_REACTORS
330
145B
102
}
330
145B
100
DictionaryVariables
280
     0
  1
0
  0
DICTIONARYVAR
  5
1461
102
{ACAD_REACTORS
330
145B
102
}
330
145B
100
DictionaryVariables
280
     0
  1
127
  0
DICTIONARYVAR
  5
1464
102
{ACAD_REACTORS
330
145B
102
}
330
145B
100
DictionaryVariables
280
     0
  1
2
  0
DICTIONARY
  5
14A1
330
1447
100
AcDbDictionary
280
     1
281
     1
  3
ACAD_XREC_ROUNDTRIP
360
14A2
  0
DICTIONARY
  5
14A3
330
1448
100
AcDbDictionary
280
     1
281
     1
  3
ACAD_XREC_ROUNDTRIP
360
14A4
  0
DICTIONARY
  5
14A5
330
1449
100
AcDbDictionary
280
     1
281
     1
  3
ACAD_XREC_ROUNDTRIP
360
14A6
  0
DICTIONARY
  5
1405
330
1404
100
AcDbDictionary
280
     1
281
     1
  3
ACAD_XREC_ROUNDTRIP
360
146B
  3
BUMPTILE
360
1407
  3
DIFFUSETILE
360
1406
  3
OPACITYTILE
360
140A
  3
REFLECTIONTILE
360
1409
  3
REFRACTIONTILE
360
140B
  3
SPECULARTILE
360
1408
  0
DICTIONARY
  5
13FD
330
13FC
100
AcDbDictionary
280
     1
281
     1
  3
ACAD_XREC_ROUNDTRIP
360
146A
  3
BUMPTILE
360
13FF
  3
DIFFUSETILE
360
13FE
  3
OPACITYTILE
360
1402
  3
REFLECTIONTILE
360
1401
  3
REFRACTIONTILE
360
1403
  3
SPECULARTILE
360
1400
  0
DICTIONARY
  5
140D
330
140C
100
AcDbDictionary
280
     1
281
     1
  3
ACAD_XREC_ROUNDTRIP
360
146C
  3
BUMPTILE
360
140F
  3
DIFFUSETILE
360
140E
  3
OPACITYTILE
360
1412
  3
REFLECTIONTILE
360
1411
  3
REFRACTIONTILE
360
1413
  3
SPECULARTILE
360
1410
  0
DICTIONARY
  5
149F
330
1445
100
AcDbDictionary
280
     1
281
     1
  3
ACAD_XREC_ROUNDTRIP
360
14A0
  0
DICTIONARY
  5
1466
330
142F
100
AcDbDictionary
280
     1
281
     1
  3
ACAD_ROUNDTRIP_2008_TABLESTYLE_CELLSTYLEMAP
360
1467
  3
ACAD_XREC_ROUNDTRIP
360
149D
  0
DICTIONARY
  5
1477
330
141A
100
AcDbDictionary
280
     1
281
     1
  3
ACAD_XREC_ROUNDTRIP
360
1478
  0
DICTIONARY
  5
1475
330
1419
100
AcDbDictionary
280
     1
281
     1
  3
ACAD_XREC_ROUNDTRIP
360
1476
  0
DICTIONARY
  5
1483
330
1420
100
AcDbDictionary
280
     1
281
     1
  3
ACAD_XREC_ROUNDTRIP
360
1484
  0
DICTIONARY
  5
148B
330
1424
100
AcDbDictionary
280
     1
281
     1
  3
ACAD_XREC_ROUNDTRIP
360
148C
  0
DICTIONARY
  5
147D
330
141D
100
AcDbDictionary
280
     1
281
     1
  3
ACAD_XREC_ROUNDTRIP
360
147E
  0
DICTIONARY
  5
1481
330
141F
100
AcDbDictionary
280
     1
281
     1
  3
ACAD_XREC_ROUNDTRIP
360
1482
  0
DICTIONARY
  5
149B
330
142C
100
AcDbDictionary
280
     1
281
     1
  3
ACAD_XREC_ROUNDTRIP
360
149C
  0
DICTIONARY
  5
1489
330
1423
100
AcDbDictionary
280
     1
281
     1
  3
ACAD_XREC_ROUNDTRIP
360
148A
  0
DICTIONARY
  5
146D
330
1415
100
AcDbDictionary
280
     1
281
     1
  3
ACAD_XREC_ROUNDTRIP
360
146E
  0
DICTIONARY
  5
146F
330
1416
100
AcDbDictionary
280
     1
281
     1
  3
ACAD_XREC_ROUNDTRIP
360
1470
  0
DICTIONARY
  5
1471
330
1417
100
AcDbDictionary
280
     1
281
     1
  3
ACAD_XREC_ROUNDTRIP
360
1472
  0
DICTIONARY
  5
1473
330
1418
100
AcDbDictionary
280
     1
281
     1
  3
ACAD_XREC_ROUNDTRIP
360
1474
  0
DICTIONARY
  5
147B
330
141C
100
AcDbDictionary
280
     1
281
     1
  3
ACAD_XREC_ROUNDTRIP
360
147C
  0
DICTIONARY
  5
1497
330
142A
100
AcDbDictionary
280
     1
281
     1
  3
ACAD_XREC_ROUNDTRIP
360
1498
  0
DICTIONARY
  5
1487
330
1422
100
AcDbDictionary
280
     1
281
     1
  3
ACAD_XREC_ROUNDTRIP
360
1488
  0
DICTIONARY
  5
1499
330
142B
100
AcDbDictionary
280
     1
281
     1
  3
ACAD_XREC_ROUNDTRIP
360
149A
  0
DICTIONARY
  5
147F
330
141E
100
AcDbDictionary
280
     1
281
     1
  3
ACAD_XREC_ROUNDTRIP
360
1480
  0
DICTIONARY
  5
1495
330
1429
100
AcDbDictionary
280
     1
281
     1
  3
ACAD_XREC_ROUNDTRIP
360
1496
  0
DICTIONARY
  5
1493
330
1428
100
AcDbDictionary
280
     1
281
     1
  3
ACAD_XREC_ROUNDTRIP
360
1494
  0
DICTIONARY
  5
148D
330
1425
100
AcDbDictionary
280
     1
281
     1
  3
ACAD_XREC_ROUNDTRIP
360
148E
  0
DICTIONARY
  5
148F
330
1426
100
AcDbDictionary
280
     1
281
     1
  3
ACAD_XREC_ROUNDTRIP
360
1490
  0
DICTIONARY
  5
1485
330
1421
100
AcDbDictionary
280
     1
281
     1
  3
ACAD_XREC_ROUNDTRIP
360
1486
  0
DICTIONARY
  5
1479
330
141B
100
AcDbDictionary
280
     1
281
     1
  3
ACAD_XREC_ROUNDTRIP
360
147A
  0
DICTIONARY
  5
1491
330
1427
100
AcDbDictionary
280
     1
281
     1
  3
ACAD_XREC_ROUNDTRIP
360
1492
  0
XRECORD
  5
14A2
102
{ACAD_REACTORS
330
14A1
102
}
330
14A1
100
AcDbXrecord
280
     1
102
DISPLAYNAME
  1
Imperial24
102
FLAGS
 90
        0
  0
XRECORD
  5
14A4
102
{ACAD_REACTORS
330
14A3
102
}
330
14A3
100
AcDbXrecord
280
     1
102
SHADEPLOT
 70
     0
102
SHADEPLOTRESLEVEL
 70
     2
102
SHADEPLOTCUSTOMDPI
 70
   300
  0
XRECORD
  5
14A6
102
{ACAD_REACTORS
330
14A5
102
}
330
14A5
100
AcDbXrecord
280
     1
102
SHADEPLOT
 70
     0
102
SHADEPLOTRESLEVEL
 70
     2
102
SHADEPLOTCUSTOMDPI
 70
   300
  0
XRECORD
  5
146B
102
{ACAD_REACTORS
330
1405
102
}
330
1405
100
AcDbXrecord
280
     1
102
MATERIAL
148
0.0
149
0.0
149
0.0
 93
        0
 94
      127
282
     0
 72
     0
 77
     0
171
     0
175
     0
179
     0
273
     0
  0
XRECORD
  5
1407
102
{ACAD_REACTORS
330
1405
102
}
330
1405
100
AcDbXrecord
280
     1
270
     1
271
     1
  0
XRECORD
  5
1406
102
{ACAD_REACTORS
330
1405
102
}
330
1405
100
AcDbXrecord
280
     1
270
     1
271
     1
  0
XRECORD
  5
140A
102
{ACAD_REACTORS
330
1405
102
}
330
1405
100
AcDbXrecord
280
     1
270
     1
271
     1
  0
XRECORD
  5
1409
102
{ACAD_REACTORS
330
1405
102
}
330
1405
100
AcDbXrecord
280
     1
270
     1
271
     1
  0
XRECORD
  5
140B
102
{ACAD_REACTORS
330
1405
102
}
330
1405
100
AcDbXrecord
280
     1
270
     1
271
     1
  0
XRECORD
  5
1408
102
{ACAD_REACTORS
330
1405
102
}
330
1405
100
AcDbXrecord
280
     1
270
     1
271
     1
  0
XRECORD
  5
146A
102
{ACAD_REACTORS
330
13FD
102
}
330
13FD
100
AcDbXrecord
280
     1
102
MATERIAL
148
0.0
149
0.0
149
0.0
 93
        0
 94
      127
282
     0
 72
     0
 77
     0
171
     0
175
     0
179
     0
273
     0
  0
XRECORD
  5
13FF
102
{ACAD_REACTORS
330
13FD
102
}
330
13FD
100
AcDbXrecord
280
     1
270
     1
271
     1
  0
XRECORD
  5
13FE
102
{ACAD_REACTORS
330
13FD
102
}
330
13FD
100
AcDbXrecord
280
     1
270
     1
271
     1
  0
XRECORD
  5
1402
102
{ACAD_REACTORS
330
13FD
102
}
330
13FD
100
AcDbXrecord
280
     1
270
     1
271
     1
  0
XRECORD
  5
1401
102
{ACAD_REACTORS
330
13FD
102
}
330
13FD
100
AcDbXrecord
280
     1
270
     1
271
     1
  0
XRECORD
  5
1403
102
{ACAD_REACTORS
330
13FD
102
}
330
13FD
100
AcDbXrecord
280
     1
270
     1
271
     1
  0
XRECORD
  5
1400
102
{ACAD_REACTORS
330
13FD
102
}
330
13FD
100
AcDbXrecord
280
     1
270
     1
271
     1
  0
XRECORD
  5
146C
102
{ACAD_REACTORS
330
140D
102
}
330
140D
100
AcDbXrecord
280
     1
102
MATERIAL
148
0.0
149
0.0
149
0.0
 93
        0
 94
      127
282
     0
 72
     0
 77
     0
171
     0
175
     0
179
     0
273
     0
  0
XRECORD
  5
140F
102
{ACAD_REACTORS
330
140D
102
}
330
140D
100
AcDbXrecord
280
     1
270
     1
271
     1
  0
XRECORD
  5
140E
102
{ACAD_REACTORS
330
140D
102
}
330
140D
100
AcDbXrecord
280
     1
270
     1
271
     1
  0
XRECORD
  5
1412
102
{ACAD_REACTORS
330
140D
102
}
330
140D
100
AcDbXrecord
280
     1
270
     1
271
     1
  0
XRECORD
  5
1411
102
{ACAD_REACTORS
330
140D
102
}
330
140D
100
AcDbXrecord
280
     1
270
     1
271
     1
  0
XRECORD
  5
1413
102
{ACAD_REACTORS
330
140D
102
}
330
140D
100
AcDbXrecord
280
     1
270
     1
271
     1
  0
XRECORD
  5
1410
102
{ACAD_REACTORS
330
140D
102
}
330
140D
100
AcDbXrecord
280
     1
270
     1
271
     1
  0
XRECORD
  5
14A0
102
{ACAD_REACTORS
330
149F
102
}
330
149F
100
AcDbXrecord
280
     1
102
DISPLAYNAME
  1
Imperial24
102
FLAGS
 90
        0
  0
CELLSTYLEMAP
  5
1467
102
{ACAD_REACTORS
330
1466
102
}
330
1466
100
AcDbCellStyleMap
 90
        3
300
CELLSTYLE
  1
TABLEFORMAT_BEGIN
 90
        5
170
     1
 91
        0
 92
    32768
 62
   257
 93
        1
300
CONTENTFORMAT
  1
CONTENTFORMAT_BEGIN
 90
        0
 91
        0
 92
      512
 93
        0
300

 40
0.0
140
1.0
 94
        5
 62
     0
340
F
144
0.25
309
CONTENTFORMAT_END
171
     0
 94
        0
309
TABLEFORMAT_END
  1
CELLSTYLE_BEGIN
 90
        1
 91
        1
300
_TITLE
309
CELLSTYLE_END
300
CELLSTYLE
  1
TABLEFORMAT_BEGIN
 90
        5
170
     1
 91
        0
 92
        0
 62
   257
 93
        1
300
CONTENTFORMAT
  1
CONTENTFORMAT_BEGIN
 90
        0
 91
        0
 92
      512
 93
        0
300

 40
0.0
140
1.0
 94
        5
 62
     0
340
F
144
0.18
309
CONTENTFORMAT_END
171
     0
 94
        0
309
TABLEFORMAT_END
  1
CELLSTYLE_BEGIN
 90
        2
 91
        1
300
_HEADER
309
CELLSTYLE_END
300
CELLSTYLE
  1
TABLEFORMAT_BEGIN
 90
        5
170
     1
 91
        0
 92
        0
 62
   257
 93
        1
300
CONTENTFORMAT
  1
CONTENTFORMAT_BEGIN
 90
        0
 91
        0
 92
      512
 93
        0
300

 40
0.0
140
1.0
 94
        2
 62
     0
340
F
144
0.18
309
CONTENTFORMAT_END
171
     0
 94
        0
309
TABLEFORMAT_END
  1
CELLSTYLE_BEGIN
 90
        3
 91
        2
300
_DATA
309
CELLSTYLE_END
  0
XRECORD
  5
149D
102
{ACAD_REACTORS
330
1466
102
}
330
1466
100
AcDbXrecord
280
     1
102
ACAD_ROUNDTRIP_PRE2007_TABLESTYLE
 90
      512
 91
        0
  1

 92
      512
 93
        0
  2

 94
      512
 95
        0
  3

  0
XRECORD
  5
1478
102
{ACAD_REACTORS
330
1477
102
}
330
1477
100
AcDbXrecord
280
     1
102
RTVSPost2010Prop28
280
     1
102
RTVSPost2010PropOp28
 70
     1
102
RTVSPost2010Prop29
280
     1
102
RTVSPost2010PropOp29
 70
     1
102
RTVSPost2010Prop30
280
     0
102
RTVSPost2010PropOp30
 70
     1
102
RTVSPost2010Prop31
280
     0
102
RTVSPost2010PropOp31
 70
     1
102
RTVSPost2010Prop32
280
     0
102
RTVSPost2010PropOp32
 70
     1
102
RTVSPost2010Prop33
280
     0
102
RTVSPost2010PropOp33
 70
     1
102
RTVSPost2010Prop34
280
     0
102
RTVSPost2010PropOp34
 70
     1
102
RTVSPost2010Prop35
280
     0
102
RTVSPost2010PropOp35
 70
     1
102
RTVSPost2010Prop36
280
     0
102
RTVSPost2010PropOp36
 70
     1
102
RTVSPost2010Prop37
 90
       50
102
RTVSPost2010PropOp37
 70
     1
102
RTVSPost2010Prop38
140
0.0
102
RTVSPost2010PropOp38
 70
     1
102
RTVSPost2010Prop39
140
1.0
102
RTVSPost2010PropOp39
 70
     1
102
RTVSPost2010Prop40
 90
        0
102
RTVSPost2010PropOp40
 70
     1
102
RTVSPost2010Prop41ColorIndex
 90
       18
102
RTVSPost2010Prop41ColorRGB
 90
        0
102
RTVSPost2010PropOp41
 70
     1
102
RTVSPost2010Prop42
 90
       50
102
RTVSPost2010PropOp42
 70
     1
102
RTVSPost2010Prop43
 90
        3
102
RTVSPost2010PropOp43
 70
     1
102
RTVSPost2010Prop44ColorIndex
 90
        5
102
RTVSPost2010Prop44ColorRGB
 90
      255
102
RTVSPost2010PropOp44
 70
     1
102
RTVSPost2010Prop45
280
     0
102
RTVSPost2010PropOp45
 70
     1
102
RTVSPost2010Prop46
 90
       50
102
RTVSPost2010PropOp46
 70
     1
102
RTVSPost2010Prop47
 90
       50
102
RTVSPost2010PropOp47
 70
     1
102
RTVSPost2010Prop48
 90
       50
102
RTVSPost2010PropOp48
 70
     1
102
RTVSPost2010Prop49
280
     0
102
RTVSPost2010PropOp49
 70
     1
102
RTVSPost2010Prop50
 90
       50
102
RTVSPost2010PropOp50
 70
     1
102
RTVSPost2010Prop51ColorIndex
 90
      256
102
RTVSPost2010Prop51ColorRGB
 90
-16777216
102
RTVSPost2010PropOp51
 70
     0
102
RTVSPost2010Prop52
140
1.0
102
RTVSPost2010PropOp52
 70
     0
102
RTVSPost2010Prop53
 90
        2
102
RTVSPost2010PropOp53
 70
     1
102
RTVSPost2010Prop54
  1
strokes_ogs.tif
102
RTVSPost2010PropOp54
 70
     1
102
RTVSPost2010Prop55
280
     0
102
RTVSPost2010PropOp55
 70
     1
102
RTVSPost2010Prop56
140
1.0
102
RTVSPost2010PropOp56
 70
     1
102
RTVSPost2010Prop57
140
1.0
102
RTVSPost2010PropOp57
 70
     1
102
RTVSPropertyOp0
 70
     1
102
RTVSPropertyOp1
 70
     1
102
RTVSPropertyOp2
 70
     1
102
RTVSPropertyOp3
 70
     1
102
RTVSPropertyOp4
 70
     1
102
RTVSPropertyOp5
 70
     1
102
RTVSPropertyOp6
 70
     1
102
RTVSPropertyOp7
 70
     1
102
RTVSPropertyOp8
 70
     1
102
RTVSPropertyOp9
 70
     1
102
RTVSPropertyOp10
 70
     1
102
RTVSPropertyOp11
 70
     1
102
RTVSPropertyOp12
 70
     1
102
RTVSPropertyOp13
 70
     1
102
RTVSPropertyOp14
 70
     1
102
RTVSPropertyOp15
 70
     1
102
RTVSPropertyOp16
 70
     1
102
RTVSPropertyOp17
 70
     1
102
RTVSPropertyOp18
 70
     1
102
RTVSPropertyOp19
 70
     1
102
RTVSPropertyOp20
 70
     1
102
RTVSPropertyOp21
 70
     1
102
RTVSPropertyOp22
 70
     1
102
RTVSPropertyOp23
 70
     1
102
RTVSPropertyOp24
 70
     1
102
RTVSPropertyOp25
 70
     1
102
RTVSPropertyOp26
 70
     1
102
RTVSPropertyOp27
 70
     1
102
RTVSPropertyOp28
 70
     1
102
RTVSPropertyOp29
 70
     1
102
RTVSPropertyOp30
 70
     1
102
RTVSPropertyOp31
 70
     1
102
RTVSPropertyOp32
 70
     1
102
RTVSPropertyOp33
 70
     1
102
RTVSPropertyOp34
 70
     1
102
RTVSPropertyOp35
 70
     1
102
RTVSPropertyOp36
 70
     1
102
RTVSPropertyOp37
 70
     1
102
RTVSPropertyOp38
 70
     1
102
RTVSPropertyOp39
 70
     1
102
RTVSPropertyOp40
 70
     1
102
RTVSPropertyOp41
 70
     1
102
RTVSPropertyOp42
 70
     1
102
RTVSPropertyOp43
 70
     1
102
RTVSPropertyOp44
 70
     1
102
RTVSPropertyOp45
 70
     1
102
RTVSPropertyOp46
 70
     1
102
RTVSPropertyOp47
 70
     1
102
RTVSPropertyOp48
 70
     1
102
RTVSPropertyOp49
 70
     1
102
RTVSPropertyOp50
 70
     1
102
RTVSPropertyOp51
 70
     0
102
RTVSPropertyOp52
 70
     0
102
RTVSPropertyOp53
 70
     1
102
RTVSPropertyOp54
 70
     1
102
RTVSPropertyOp55
 70
     1
102
RTVSPropertyOp56
 70
     1
102
RTVSPropertyOp57
 70
     1
102
RTVSPropertyOp58
 70
     1
102
RTVSPropertyOp59
 70
     1
102
RTVSPropertyOp60
 70
     1
102
RTVSPropertyOp61
 70
     1
102
RTVSPropertyOp62
 70
     1
  0
XRECORD
  5
1476
102
{ACAD_REACTORS
330
1475
102
}
330
1475
100
AcDbXrecord
280
     1
102
RTVSPost2010Prop28
280
     0
102
RTVSPost2010PropOp28
 70
     1
102
RTVSPost2010Prop29
280
     1
102
RTVSPost2010PropOp29
 70
     1
102
RTVSPost2010Prop30
280
     1
102
RTVSPost2010PropOp30
 70
     1
102
RTVSPost2010Prop31
280
     0
102
RTVSPost2010PropOp31
 70
     1
102
RTVSPost2010Prop32
280
     0
102
RTVSPost2010PropOp32
 70
     1
102
RTVSPost2010Prop33
280
     0
102
RTVSPost2010PropOp33
 70
     1
102
RTVSPost2010Prop34
280
     0
102
RTVSPost2010PropOp34
 70
     1
102
RTVSPost2010Prop35
280
     0
102
RTVSPost2010PropOp35
 70
     1
102
RTVSPost2010Prop36
280
     0
102
RTVSPost2010PropOp36
 70
     1
102
RTVSPost2010Prop37
 90
       50
102
RTVSPost2010PropOp37
 70
     1
102
RTVSPost2010Prop38
140
0.0
102
RTVSPost2010PropOp38
 70
     1
102
RTVSPost2010Prop39
140
1.0
102
RTVSPost2010PropOp39
 70
     1
102
RTVSPost2010Prop40
 90
        0
102
RTVSPost2010PropOp40
 70
     1
102
RTVSPost2010Prop41ColorIndex
 90
       18
102
RTVSPost2010Prop41ColorRGB
 90
        0
102
RTVSPost2010PropOp41
 70
     1
102
RTVSPost2010Prop42
 90
       50
102
RTVSPost2010PropOp42
 70
     1
102
RTVSPost2010Prop43
 90
        3
102
RTVSPost2010PropOp43
 70
     1
102
RTVSPost2010Prop44ColorIndex
 90
        5
102
RTVSPost2010Prop44ColorRGB
 90
      255
102
RTVSPost2010PropOp44
 70
     1
102
RTVSPost2010Prop45
280
     0
102
RTVSPost2010PropOp45
 70
     1
102
RTVSPost2010Prop46
 90
       50
102
RTVSPost2010PropOp46
 70
     1
102
RTVSPost2010Prop47
 90
       50
102
RTVSPost2010PropOp47
 70
     1
102
RTVSPost2010Prop48
 90
       50
102
RTVSPost2010PropOp48
 70
     1
102
RTVSPost2010Prop49
280
     0
102
RTVSPost2010PropOp49
 70
     1
102
RTVSPost2010Prop50
 90
       50
102
RTVSPost2010PropOp50
 70
     1
102
RTVSPost2010Prop51ColorIndex
 90
      256
102
RTVSPost2010Prop51ColorRGB
 90
-16777216
102
RTVSPost2010PropOp51
 70
     0
102
RTVSPost2010Prop52
140
1.0
102
RTVSPost2010PropOp52
 70
     0
102
RTVSPost2010Prop53
 90
        2
102
RTVSPost2010PropOp53
 70
     1
102
RTVSPost2010Prop54
  1
strokes_ogs.tif
102
RTVSPost2010PropOp54
 70
     1
102
RTVSPost2010Prop55
280
     0
102
RTVSPost2010PropOp55
 70
     1
102
RTVSPost2010Prop56
140
1.0
102
RTVSPost2010PropOp56
 70
     1
102
RTVSPost2010Prop57
140
1.0
102
RTVSPost2010PropOp57
 70
     1
102
RTVSPropertyOp0
 70
     1
102
RTVSPropertyOp1
 70
     1
102
RTVSPropertyOp2
 70
     1
102
RTVSPropertyOp3
 70
     1
102
RTVSPropertyOp4
 70
     1
102
RTVSPropertyOp5
 70
     1
102
RTVSPropertyOp6
 70
     1
102
RTVSPropertyOp7
 70
     1
102
RTVSPropertyOp8
 70
     1
102
RTVSPropertyOp9
 70
     1
102
RTVSPropertyOp10
 70
     1
102
RTVSPropertyOp11
 70
     1
102
RTVSPropertyOp12
 70
     1
102
RTVSPropertyOp13
 70
     1
102
RTVSPropertyOp14
 70
     1
102
RTVSPropertyOp15
 70
     1
102
RTVSPropertyOp16
 70
     1
102
RTVSPropertyOp17
 70
     1
102
RTVSPropertyOp18
 70
     1
102
RTVSPropertyOp19
 70
     1
102
RTVSPropertyOp20
 70
     1
102
RTVSPropertyOp21
 70
     1
102
RTVSPropertyOp22
 70
     1
102
RTVSPropertyOp23
 70
     1
102
RTVSPropertyOp24
 70
     1
102
RTVSPropertyOp25
 70
     1
102
RTVSPropertyOp26
 70
     1
102
RTVSPropertyOp27
 70
     1
102
RTVSPropertyOp28
 70
     1
102
RTVSPropertyOp29
 70
     1
102
RTVSPropertyOp30
 70
     1
102
RTVSPropertyOp31
 70
     1
102
RTVSPropertyOp32
 70
     1
102
RTVSPropertyOp33
 70
     1
102
RTVSPropertyOp34
 70
     1
102
RTVSPropertyOp35
 70
     1
102
RTVSPropertyOp36
 70
     1
102
RTVSPropertyOp37
 70
     1
102
RTVSPropertyOp38
 70
     1
102
RTVSPropertyOp39
 70
     1
102
RTVSPropertyOp40
 70
     1
102
RTVSPropertyOp41
 70
     1
102
RTVSPropertyOp42
 70
     1
102
RTVSPropertyOp43
 70
     1
102
RTVSPropertyOp44
 70
     1
102
RTVSPropertyOp45
 70
     1
102
RTVSPropertyOp46
 70
     1
102
RTVSPropertyOp47
 70
     1
102
RTVSPropertyOp48
 70
     1
102
RTVSPropertyOp49
 70
     1
102
RTVSPropertyOp50
 70
     1
102
RTVSPropertyOp51
 70
     0
102
RTVSPropertyOp52
 70
     0
102
RTVSPropertyOp53
 70
     1
102
RTVSPropertyOp54
 70
     1
102
RTVSPropertyOp55
 70
     1
102
RTVSPropertyOp56
 70
     1
102
RTVSPropertyOp57
 70
     1
102
RTVSPropertyOp58
 70
     1
102
RTVSPropertyOp59
 70
     1
102
RTVSPropertyOp60
 70
     1
102
RTVSPropertyOp61
 70
     1
102
RTVSPropertyOp62
 70
     1
  0
XRECORD
  5
1484
102
{ACAD_REACTORS
330
1483
102
}
330
1483
100
AcDbXrecord
280
     1
102
RTVSPost2010Prop28
280
     0
102
RTVSPost2010PropOp28
 70
     1
102
RTVSPost2010Prop29
280
     1
102
RTVSPost2010PropOp29
 70
     1
102
RTVSPost2010Prop30
280
     1
102
RTVSPost2010PropOp30
 70
     1
102
RTVSPost2010Prop31
280
     0
102
RTVSPost2010PropOp31
 70
     1
102
RTVSPost2010Prop32
280
     0
102
RTVSPost2010PropOp32
 70
     1
102
RTVSPost2010Prop33
280
     0
102
RTVSPost2010PropOp33
 70
     1
102
RTVSPost2010Prop34
280
     0
102
RTVSPost2010PropOp34
 70
     1
102
RTVSPost2010Prop35
280
     0
102
RTVSPost2010PropOp35
 70
     1
102
RTVSPost2010Prop36
280
     0
102
RTVSPost2010PropOp36
 70
     1
102
RTVSPost2010Prop37
 90
       50
102
RTVSPost2010PropOp37
 70
     1
102
RTVSPost2010Prop38
140
0.0
102
RTVSPost2010PropOp38
 70
     1
102
RTVSPost2010Prop39
140
1.0
102
RTVSPost2010PropOp39
 70
     1
102
RTVSPost2010Prop40
 90
        0
102
RTVSPost2010PropOp40
 70
     1
102
RTVSPost2010Prop41ColorIndex
 90
       18
102
RTVSPost2010Prop41ColorRGB
 90
        0
102
RTVSPost2010PropOp41
 70
     1
102
RTVSPost2010Prop42
 90
       50
102
RTVSPost2010PropOp42
 70
     1
102
RTVSPost2010Prop43
 90
        3
102
RTVSPost2010PropOp43
 70
     1
102
RTVSPost2010Prop44ColorIndex
 90
        5
102
RTVSPost2010Prop44ColorRGB
 90
      255
102
RTVSPost2010PropOp44
 70
     1
102
RTVSPost2010Prop45
280
     0
102
RTVSPost2010PropOp45
 70
     1
102
RTVSPost2010Prop46
 90
       50
102
RTVSPost2010PropOp46
 70
     1
102
RTVSPost2010Prop47
 90
       50
102
RTVSPost2010PropOp47
 70
     1
102
RTVSPost2010Prop48
 90
       50
102
RTVSPost2010PropOp48
 70
     1
102
RTVSPost2010Prop49
280
     0
102
RTVSPost2010PropOp49
 70
     1
102
RTVSPost2010Prop50
 90
       50
102
RTVSPost2010PropOp50
 70
     1
102
RTVSPost2010Prop51ColorIndex
 90
      256
102
RTVSPost2010Prop51ColorRGB
 90
-16777216
102
RTVSPost2010PropOp51
 70
     0
102
RTVSPost2010Prop52
140
1.0
102
RTVSPost2010PropOp52
 70
     0
102
RTVSPost2010Prop53
 90
        2
102
RTVSPost2010PropOp53
 70
     1
102
RTVSPost2010Prop54
  1
strokes_ogs.tif
102
RTVSPost2010PropOp54
 70
     1
102
RTVSPost2010Prop55
280
     0
102
RTVSPost2010PropOp55
 70
     1
102
RTVSPost2010Prop56
140
1.0
102
RTVSPost2010PropOp56
 70
     1
102
RTVSPost2010Prop57
140
1.0
102
RTVSPost2010PropOp57
 70
     1
102
RTVSPropertyOp0
 70
     1
102
RTVSPropertyOp1
 70
     1
102
RTVSPropertyOp2
 70
     1
102
RTVSPropertyOp3
 70
     1
102
RTVSPropertyOp4
 70
     1
102
RTVSPropertyOp5
 70
     1
102
RTVSPropertyOp6
 70
     1
102
RTVSPropertyOp7
 70
     1
102
RTVSPropertyOp8
 70
     1
102
RTVSPropertyOp9
 70
     1
102
RTVSPropertyOp10
 70
     1
102
RTVSPropertyOp11
 70
     1
102
RTVSPropertyOp12
 70
     1
102
RTVSPropertyOp13
 70
     1
102
RTVSPropertyOp14
 70
     1
102
RTVSPropertyOp15
 70
     1
102
RTVSPropertyOp16
 70
     1
102
RTVSPropertyOp17
 70
     1
102
RTVSPropertyOp18
 70
     1
102
RTVSPropertyOp19
 70
     1
102
RTVSPropertyOp20
 70
     1
102
RTVSPropertyOp21
 70
     1
102
RTVSPropertyOp22
 70
     1
102
RTVSPropertyOp23
 70
     1
102
RTVSPropertyOp24
 70
     1
102
RTVSPropertyOp25
 70
     1
102
RTVSPropertyOp26
 70
     1
102
RTVSPropertyOp27
 70
     1
102
RTVSPropertyOp28
 70
     1
102
RTVSPropertyOp29
 70
     1
102
RTVSPropertyOp30
 70
     1
102
RTVSPropertyOp31
 70
     1
102
RTVSPropertyOp32
 70
     1
102
RTVSPropertyOp33
 70
     1
102
RTVSPropertyOp34
 70
     1
102
RTVSPropertyOp35
 70
     1
102
RTVSPropertyOp36
 70
     1
102
RTVSPropertyOp37
 70
     1
102
RTVSPropertyOp38
 70
     1
102
RTVSPropertyOp39
 70
     1
102
RTVSPropertyOp40
 70
     1
102
RTVSPropertyOp41
 70
     1
102
RTVSPropertyOp42
 70
     1
102
RTVSPropertyOp43
 70
     1
102
RTVSPropertyOp44
 70
     1
102
RTVSPropertyOp45
 70
     1
102
RTVSPropertyOp46
 70
     1
102
RTVSPropertyOp47
 70
     1
102
RTVSPropertyOp48
 70
     1
102
RTVSPropertyOp49
 70
     1
102
RTVSPropertyOp50
 70
     1
102
RTVSPropertyOp51
 70
     0
102
RTVSPropertyOp52
 70
     0
102
RTVSPropertyOp53
 70
     1
102
RTVSPropertyOp54
 70
     1
102
RTVSPropertyOp55
 70
     1
102
RTVSPropertyOp56
 70
     1
102
RTVSPropertyOp57
 70
     1
102
RTVSPropertyOp58
 70
     1
102
RTVSPropertyOp59
 70
     1
102
RTVSPropertyOp60
 70
     1
102
RTVSPropertyOp61
 70
     1
102
RTVSPropertyOp62
 70
     1
  0
XRECORD
  5
148C
102
{ACAD_REACTORS
330
148B
102
}
330
148B
100
AcDbXrecord
280
     1
102
RTVSPost2010Prop28
280
     0
102
RTVSPost2010PropOp28
 70
     1
102
RTVSPost2010Prop29
280
     1
102
RTVSPost2010PropOp29
 70
     1
102
RTVSPost2010Prop30
280
     1
102
RTVSPost2010PropOp30
 70
     1
102
RTVSPost2010Prop31
280
     0
102
RTVSPost2010PropOp31
 70
     1
102
RTVSPost2010Prop32
280
     0
102
RTVSPost2010PropOp32
 70
     1
102
RTVSPost2010Prop33
280
     0
102
RTVSPost2010PropOp33
 70
     1
102
RTVSPost2010Prop34
280
     0
102
RTVSPost2010PropOp34
 70
     1
102
RTVSPost2010Prop35
280
     0
102
RTVSPost2010PropOp35
 70
     1
102
RTVSPost2010Prop36
280
     0
102
RTVSPost2010PropOp36
 70
     1
102
RTVSPost2010Prop37
 90
       50
102
RTVSPost2010PropOp37
 70
     1
102
RTVSPost2010Prop38
140
0.0
102
RTVSPost2010PropOp38
 70
     1
102
RTVSPost2010Prop39
140
1.0
102
RTVSPost2010PropOp39
 70
     1
102
RTVSPost2010Prop40
 90
        0
102
RTVSPost2010PropOp40
 70
     1
102
RTVSPost2010Prop41ColorIndex
 90
       18
102
RTVSPost2010Prop41ColorRGB
 90
        0
102
RTVSPost2010PropOp41
 70
     1
102
RTVSPost2010Prop42
 90
       50
102
RTVSPost2010PropOp42
 70
     1
102
RTVSPost2010Prop43
 90
        3
102
RTVSPost2010PropOp43
 70
     1
102
RTVSPost2010Prop44ColorIndex
 90
        5
102
RTVSPost2010Prop44ColorRGB
 90
      255
102
RTVSPost2010PropOp44
 70
     1
102
RTVSPost2010Prop45
280
     0
102
RTVSPost2010PropOp45
 70
     1
102
RTVSPost2010Prop46
 90
       50
102
RTVSPost2010PropOp46
 70
     1
102
RTVSPost2010Prop47
 90
       50
102
RTVSPost2010PropOp47
 70
     1
102
RTVSPost2010Prop48
 90
       50
102
RTVSPost2010PropOp48
 70
     1
102
RTVSPost2010Prop49
280
     0
102
RTVSPost2010PropOp49
 70
     1
102
RTVSPost2010Prop50
 90
       50
102
RTVSPost2010PropOp50
 70
     1
102
RTVSPost2010Prop51ColorIndex
 90
      256
102
RTVSPost2010Prop51ColorRGB
 90
-16777216
102
RTVSPost2010PropOp51
 70
     0
102
RTVSPost2010Prop52
140
1.0
102
RTVSPost2010PropOp52
 70
     0
102
RTVSPost2010Prop53
 90
        2
102
RTVSPost2010PropOp53
 70
     1
102
RTVSPost2010Prop54
  1
strokes_ogs.tif
102
RTVSPost2010PropOp54
 70
     1
102
RTVSPost2010Prop55
280
     0
102
RTVSPost2010PropOp55
 70
     1
102
RTVSPost2010Prop56
140
1.0
102
RTVSPost2010PropOp56
 70
     1
102
RTVSPost2010Prop57
140
1.0
102
RTVSPost2010PropOp57
 70
     1
102
RTVSPropertyOp0
 70
     1
102
RTVSPropertyOp1
 70
     1
102
RTVSPropertyOp2
 70
     1
102
RTVSPropertyOp3
 70
     1
102
RTVSPropertyOp4
 70
     1
102
RTVSPropertyOp5
 70
     1
102
RTVSPropertyOp6
 70
     1
102
RTVSPropertyOp7
 70
     1
102
RTVSPropertyOp8
 70
     1
102
RTVSPropertyOp9
 70
     1
102
RTVSPropertyOp10
 70
     1
102
RTVSPropertyOp11
 70
     1
102
RTVSPropertyOp12
 70
     1
102
RTVSPropertyOp13
 70
     1
102
RTVSPropertyOp14
 70
     1
102
RTVSPropertyOp15
 70
     1
102
RTVSPropertyOp16
 70
     1
102
RTVSPropertyOp17
 70
     1
102
RTVSPropertyOp18
 70
     1
102
RTVSPropertyOp19
 70
     1
102
RTVSPropertyOp20
 70
     1
102
RTVSPropertyOp21
 70
     1
102
RTVSPropertyOp22
 70
     1
102
RTVSPropertyOp23
 70
     1
102
RTVSPropertyOp24
 70
     1
102
RTVSPropertyOp25
 70
     1
102
RTVSPropertyOp26
 70
     1
102
RTVSPropertyOp27
 70
     1
102
RTVSPropertyOp28
 70
     1
102
RTVSPropertyOp29
 70
     1
102
RTVSPropertyOp30
 70
     1
102
RTVSPropertyOp31
 70
     1
102
RTVSPropertyOp32
 70
     1
102
RTVSPropertyOp33
 70
     1
102
RTVSPropertyOp34
 70
     1
102
RTVSPropertyOp35
 70
     1
102
RTVSPropertyOp36
 70
     1
102
RTVSPropertyOp37
 70
     1
102
RTVSPropertyOp38
 70
     1
102
RTVSPropertyOp39
 70
     1
102
RTVSPropertyOp40
 70
     1
102
RTVSPropertyOp41
 70
     1
102
RTVSPropertyOp42
 70
     1
102
RTVSPropertyOp43
 70
     1
102
RTVSPropertyOp44
 70
     1
102
RTVSPropertyOp45
 70
     1
102
RTVSPropertyOp46
 70
     1
102
RTVSPropertyOp47
 70
     1
102
RTVSPropertyOp48
 70
     1
102
RTVSPropertyOp49
 70
     1
102
RTVSPropertyOp50
 70
     1
102
RTVSPropertyOp51
 70
     0
102
RTVSPropertyOp52
 70
     0
102
RTVSPropertyOp53
 70
     1
102
RTVSPropertyOp54
 70
     1
102
RTVSPropertyOp55
 70
     1
102
RTVSPropertyOp56
 70
     1
102
RTVSPropertyOp57
 70
     1
102
RTVSPropertyOp58
 70
     1
102
RTVSPropertyOp59
 70
     1
102
RTVSPropertyOp60
 70
     1
102
RTVSPropertyOp61
 70
     1
102
RTVSPropertyOp62
 70
     1
  0
XRECORD
  5
147E
102
{ACAD_REACTORS
330
147D
102
}
330
147D
100
AcDbXrecord
280
     1
102
RTVSPost2010Prop28
280
     0
102
RTVSPost2010PropOp28
 70
     1
102
RTVSPost2010Prop29
280
     1
102
RTVSPost2010PropOp29
 70
     1
102
RTVSPost2010Prop30
280
     1
102
RTVSPost2010PropOp30
 70
     1
102
RTVSPost2010Prop31
280
     0
102
RTVSPost2010PropOp31
 70
     1
102
RTVSPost2010Prop32
280
     0
102
RTVSPost2010PropOp32
 70
     1
102
RTVSPost2010Prop33
280
     0
102
RTVSPost2010PropOp33
 70
     1
102
RTVSPost2010Prop34
280
     0
102
RTVSPost2010PropOp34
 70
     1
102
RTVSPost2010Prop35
280
     0
102
RTVSPost2010PropOp35
 70
     1
102
RTVSPost2010Prop36
280
     0
102
RTVSPost2010PropOp36
 70
     1
102
RTVSPost2010Prop37
 90
       50
102
RTVSPost2010PropOp37
 70
     1
102
RTVSPost2010Prop38
140
0.0
102
RTVSPost2010PropOp38
 70
     1
102
RTVSPost2010Prop39
140
1.0
102
RTVSPost2010PropOp39
 70
     1
102
RTVSPost2010Prop40
 90
        0
102
RTVSPost2010PropOp40
 70
     1
102
RTVSPost2010Prop41ColorIndex
 90
       18
102
RTVSPost2010Prop41ColorRGB
 90
        0
102
RTVSPost2010PropOp41
 70
     1
102
RTVSPost2010Prop42
 90
       50
102
RTVSPost2010PropOp42
 70
     1
102
RTVSPost2010Prop43
 90
        3
102
RTVSPost2010PropOp43
 70
     1
102
RTVSPost2010Prop44ColorIndex
 90
        5
102
RTVSPost2010Prop44ColorRGB
 90
      255
102
RTVSPost2010PropOp44
 70
     1
102
RTVSPost2010Prop45
280
     0
102
RTVSPost2010PropOp45
 70
     1
102
RTVSPost2010Prop46
 90
       50
102
RTVSPost2010PropOp46
 70
     1
102
RTVSPost2010Prop47
 90
       50
102
RTVSPost2010PropOp47
 70
     1
102
RTVSPost2010Prop48
 90
       50
102
RTVSPost2010PropOp48
 70
     1
102
RTVSPost2010Prop49
280
     0
102
RTVSPost2010PropOp49
 70
     1
102
RTVSPost2010Prop50
 90
       50
102
RTVSPost2010PropOp50
 70
     1
102
RTVSPost2010Prop51ColorIndex
 90
      256
102
RTVSPost2010Prop51ColorRGB
 90
-16777216
102
RTVSPost2010PropOp51
 70
     0
102
RTVSPost2010Prop52
140
1.0
102
RTVSPost2010PropOp52
 70
     0
102
RTVSPost2010Prop53
 90
        2
102
RTVSPost2010PropOp53
 70
     1
102
RTVSPost2010Prop54
  1
strokes_ogs.tif
102
RTVSPost2010PropOp54
 70
     1
102
RTVSPost2010Prop55
280
     0
102
RTVSPost2010PropOp55
 70
     1
102
RTVSPost2010Prop56
140
1.0
102
RTVSPost2010PropOp56
 70
     1
102
RTVSPost2010Prop57
140
1.0
102
RTVSPost2010PropOp57
 70
     1
102
RTVSPropertyOp0
 70
     1
102
RTVSPropertyOp1
 70
     1
102
RTVSPropertyOp2
 70
     1
102
RTVSPropertyOp3
 70
     1
102
RTVSPropertyOp4
 70
     1
102
RTVSPropertyOp5
 70
     1
102
RTVSPropertyOp6
 70
     1
102
RTVSPropertyOp7
 70
     1
102
RTVSPropertyOp8
 70
     1
102
RTVSPropertyOp9
 70
     1
102
RTVSPropertyOp10
 70
     1
102
RTVSPropertyOp11
 70
     1
102
RTVSPropertyOp12
 70
     1
102
RTVSPropertyOp13
 70
     1
102
RTVSPropertyOp14
 70
     1
102
RTVSPropertyOp15
 70
     1
102
RTVSPropertyOp16
 70
     1
102
RTVSPropertyOp17
 70
     1
102
RTVSPropertyOp18
 70
     1
102
RTVSPropertyOp19
 70
     1
102
RTVSPropertyOp20
 70
     1
102
RTVSPropertyOp21
 70
     1
102
RTVSPropertyOp22
 70
     1
102
RTVSPropertyOp23
 70
     1
102
RTVSPropertyOp24
 70
     1
102
RTVSPropertyOp25
 70
     1
102
RTVSPropertyOp26
 70
     1
102
RTVSPropertyOp27
 70
     1
102
RTVSPropertyOp28
 70
     1
102
RTVSPropertyOp29
 70
     1
102
RTVSPropertyOp30
 70
     1
102
RTVSPropertyOp31
 70
     1
102
RTVSPropertyOp32
 70
     1
102
RTVSPropertyOp33
 70
     1
102
RTVSPropertyOp34
 70
     1
102
RTVSPropertyOp35
 70
     1
102
RTVSPropertyOp36
 70
     1
102
RTVSPropertyOp37
 70
     1
102
RTVSPropertyOp38
 70
     1
102
RTVSPropertyOp39
 70
     1
102
RTVSPropertyOp40
 70
     1
102
RTVSPropertyOp41
 70
     1
102
RTVSPropertyOp42
 70
     1
102
RTVSPropertyOp43
 70
     1
102
RTVSPropertyOp44
 70
     1
102
RTVSPropertyOp45
 70
     1
102
RTVSPropertyOp46
 70
     1
102
RTVSPropertyOp47
 70
     1
102
RTVSPropertyOp48
 70
     1
102
RTVSPropertyOp49
 70
     1
102
RTVSPropertyOp50
 70
     1
102
RTVSPropertyOp51
 70
     0
102
RTVSPropertyOp52
 70
     0
102
RTVSPropertyOp53
 70
     1
102
RTVSPropertyOp54
 70
     1
102
RTVSPropertyOp55
 70
     1
102
RTVSPropertyOp56
 70
     1
102
RTVSPropertyOp57
 70
     1
102
RTVSPropertyOp58
 70
     1
102
RTVSPropertyOp59
 70
     1
102
RTVSPropertyOp60
 70
     1
102
RTVSPropertyOp61
 70
     1
102
RTVSPropertyOp62
 70
     1
  0
XRECORD
  5
1482
102
{ACAD_REACTORS
330
1481
102
}
330
1481
100
AcDbXrecord
280
     1
102
RTVSPost2010Prop28
280
     0
102
RTVSPost2010PropOp28
 70
     1
102
RTVSPost2010Prop29
280
     1
102
RTVSPost2010PropOp29
 70
     1
102
RTVSPost2010Prop30
280
     1
102
RTVSPost2010PropOp30
 70
     1
102
RTVSPost2010Prop31
280
     0
102
RTVSPost2010PropOp31
 70
     1
102
RTVSPost2010Prop32
280
     0
102
RTVSPost2010PropOp32
 70
     1
102
RTVSPost2010Prop33
280
     0
102
RTVSPost2010PropOp33
 70
     1
102
RTVSPost2010Prop34
280
     0
102
RTVSPost2010PropOp34
 70
     1
102
RTVSPost2010Prop35
280
     0
102
RTVSPost2010PropOp35
 70
     1
102
RTVSPost2010Prop36
280
     0
102
RTVSPost2010PropOp36
 70
     1
102
RTVSPost2010Prop37
 90
       50
102
RTVSPost2010PropOp37
 70
     1
102
RTVSPost2010Prop38
140
0.0
102
RTVSPost2010PropOp38
 70
     1
102
RTVSPost2010Prop39
140
1.0
102
RTVSPost2010PropOp39
 70
     1
102
RTVSPost2010Prop40
 90
        0
102
RTVSPost2010PropOp40
 70
     1
102
RTVSPost2010Prop41ColorIndex
 90
       18
102
RTVSPost2010Prop41ColorRGB
 90
        0
102
RTVSPost2010PropOp41
 70
     1
102
RTVSPost2010Prop42
 90
       50
102
RTVSPost2010PropOp42
 70
     1
102
RTVSPost2010Prop43
 90
        3
102
RTVSPost2010PropOp43
 70
     1
102
RTVSPost2010Prop44ColorIndex
 90
        5
102
RTVSPost2010Prop44ColorRGB
 90
      255
102
RTVSPost2010PropOp44
 70
     1
102
RTVSPost2010Prop45
280
     0
102
RTVSPost2010PropOp45
 70
     1
102
RTVSPost2010Prop46
 90
       50
102
RTVSPost2010PropOp46
 70
     1
102
RTVSPost2010Prop47
 90
       50
102
RTVSPost2010PropOp47
 70
     1
102
RTVSPost2010Prop48
 90
       50
102
RTVSPost2010PropOp48
 70
     1
102
RTVSPost2010Prop49
280
     0
102
RTVSPost2010PropOp49
 70
     1
102
RTVSPost2010Prop50
 90
       50
102
RTVSPost2010PropOp50
 70
     1
102
RTVSPost2010Prop51ColorIndex
 90
      256
102
RTVSPost2010Prop51ColorRGB
 90
-16777216
102
RTVSPost2010PropOp51
 70
     0
102
RTVSPost2010Prop52
140
1.0
102
RTVSPost2010PropOp52
 70
     0
102
RTVSPost2010Prop53
 90
        2
102
RTVSPost2010PropOp53
 70
     1
102
RTVSPost2010Prop54
  1
strokes_ogs.tif
102
RTVSPost2010PropOp54
 70
     1
102
RTVSPost2010Prop55
280
     0
102
RTVSPost2010PropOp55
 70
     1
102
RTVSPost2010Prop56
140
1.0
102
RTVSPost2010PropOp56
 70
     1
102
RTVSPost2010Prop57
140
1.0
102
RTVSPost2010PropOp57
 70
     1
102
RTVSPropertyOp0
 70
     1
102
RTVSPropertyOp1
 70
     1
102
RTVSPropertyOp2
 70
     1
102
RTVSPropertyOp3
 70
     1
102
RTVSPropertyOp4
 70
     1
102
RTVSPropertyOp5
 70
     1
102
RTVSPropertyOp6
 70
     1
102
RTVSPropertyOp7
 70
     1
102
RTVSPropertyOp8
 70
     1
102
RTVSPropertyOp9
 70
     1
102
RTVSPropertyOp10
 70
     1
102
RTVSPropertyOp11
 70
     1
102
RTVSPropertyOp12
 70
     1
102
RTVSPropertyOp13
 70
     1
102
RTVSPropertyOp14
 70
     1
102
RTVSPropertyOp15
 70
     1
102
RTVSPropertyOp16
 70
     1
102
RTVSPropertyOp17
 70
     1
102
RTVSPropertyOp18
 70
     1
102
RTVSPropertyOp19
 70
     1
102
RTVSPropertyOp20
 70
     1
102
RTVSPropertyOp21
 70
     1
102
RTVSPropertyOp22
 70
     1
102
RTVSPropertyOp23
 70
     1
102
RTVSPropertyOp24
 70
     1
102
RTVSPropertyOp25
 70
     1
102
RTVSPropertyOp26
 70
     1
102
RTVSPropertyOp27
 70
     1
102
RTVSPropertyOp28
 70
     1
102
RTVSPropertyOp29
 70
     1
102
RTVSPropertyOp30
 70
     1
102
RTVSPropertyOp31
 70
     1
102
RTVSPropertyOp32
 70
     1
102
RTVSPropertyOp33
 70
     1
102
RTVSPropertyOp34
 70
     1
102
RTVSPropertyOp35
 70
     1
102
RTVSPropertyOp36
 70
     1
102
RTVSPropertyOp37
 70
     1
102
RTVSPropertyOp38
 70
     1
102
RTVSPropertyOp39
 70
     1
102
RTVSPropertyOp40
 70
     1
102
RTVSPropertyOp41
 70
     1
102
RTVSPropertyOp42
 70
     1
102
RTVSPropertyOp43
 70
     1
102
RTVSPropertyOp44
 70
     1
102
RTVSPropertyOp45
 70
     1
102
RTVSPropertyOp46
 70
     1
102
RTVSPropertyOp47
 70
     1
102
RTVSPropertyOp48
 70
     1
102
RTVSPropertyOp49
 70
     1
102
RTVSPropertyOp50
 70
     1
102
RTVSPropertyOp51
 70
     0
102
RTVSPropertyOp52
 70
     0
102
RTVSPropertyOp53
 70
     1
102
RTVSPropertyOp54
 70
     1
102
RTVSPropertyOp55
 70
     1
102
RTVSPropertyOp56
 70
     1
102
RTVSPropertyOp57
 70
     1
102
RTVSPropertyOp58
 70
     1
102
RTVSPropertyOp59
 70
     1
102
RTVSPropertyOp60
 70
     1
102
RTVSPropertyOp61
 70
     1
102
RTVSPropertyOp62
 70
     1
  0
XRECORD
  5
149C
102
{ACAD_REACTORS
330
149B
102
}
330
149B
100
AcDbXrecord
280
     1
102
RTVSPost2010Prop28
280
     0
102
RTVSPost2010PropOp28
 70
     1
102
RTVSPost2010Prop29
280
     1
102
RTVSPost2010PropOp29
 70
     1
102
RTVSPost2010Prop30
280
     1
102
RTVSPost2010PropOp30
 70
     1
102
RTVSPost2010Prop31
280
     0
102
RTVSPost2010PropOp31
 70
     1
102
RTVSPost2010Prop32
280
     0
102
RTVSPost2010PropOp32
 70
     1
102
RTVSPost2010Prop33
280
     0
102
RTVSPost2010PropOp33
 70
     1
102
RTVSPost2010Prop34
280
     0
102
RTVSPost2010PropOp34
 70
     1
102
RTVSPost2010Prop35
280
     0
102
RTVSPost2010PropOp35
 70
     1
102
RTVSPost2010Prop36
280
     0
102
RTVSPost2010PropOp36
 70
     1
102
RTVSPost2010Prop37
 90
       50
102
RTVSPost2010PropOp37
 70
     0
102
RTVSPost2010Prop38
140
0.0
102
RTVSPost2010PropOp38
 70
     0
102
RTVSPost2010Prop39
140
1.0
102
RTVSPost2010PropOp39
 70
     0
102
RTVSPost2010Prop40
 90
        0
102
RTVSPost2010PropOp40
 70
     0
102
RTVSPost2010Prop41ColorIndex
 90
       18
102
RTVSPost2010Prop41ColorRGB
 90
        0
102
RTVSPost2010PropOp41
 70
     0
102
RTVSPost2010Prop42
 90
       50
102
RTVSPost2010PropOp42
 70
     0
102
RTVSPost2010Prop43
 90
        3
102
RTVSPost2010PropOp43
 70
     0
102
RTVSPost2010Prop44ColorIndex
 90
        5
102
RTVSPost2010Prop44ColorRGB
 90
      255
102
RTVSPost2010PropOp44
 70
     0
102
RTVSPost2010Prop45
280
     0
102
RTVSPost2010PropOp45
 70
     1
102
RTVSPost2010Prop46
 90
       50
102
RTVSPost2010PropOp46
 70
     0
102
RTVSPost2010Prop47
 90
       50
102
RTVSPost2010PropOp47
 70
     0
102
RTVSPost2010Prop48
 90
       50
102
RTVSPost2010PropOp48
 70
     0
102
RTVSPost2010Prop49
280
     0
102
RTVSPost2010PropOp49
 70
     1
102
RTVSPost2010Prop50
 90
       50
102
RTVSPost2010PropOp50
 70
     0
102
RTVSPost2010Prop51ColorIndex
 90
      256
102
RTVSPost2010Prop51ColorRGB
 90
-16777216
102
RTVSPost2010PropOp51
 70
     0
102
RTVSPost2010Prop52
140
1.0
102
RTVSPost2010PropOp52
 70
     0
102
RTVSPost2010Prop53
 90
        2
102
RTVSPost2010PropOp53
 70
     0
102
RTVSPost2010Prop54
  1
strokes_ogs.tif
102
RTVSPost2010PropOp54
 70
     0
102
RTVSPost2010Prop55
280
     0
102
RTVSPost2010PropOp55
 70
     1
102
RTVSPost2010Prop56
140
1.0
102
RTVSPost2010PropOp56
 70
     0
102
RTVSPost2010Prop57
140
1.0
102
RTVSPost2010PropOp57
 70
     0
102
RTVSPropertyOp0
 70
     0
102
RTVSPropertyOp1
 70
     0
102
RTVSPropertyOp2
 70
     0
102
RTVSPropertyOp3
 70
     0
102
RTVSPropertyOp4
 70
     0
102
RTVSPropertyOp5
 70
     0
102
RTVSPropertyOp6
 70
     0
102
RTVSPropertyOp7
 70
     0
102
RTVSPropertyOp8
 70
     0
102
RTVSPropertyOp9
 70
     0
102
RTVSPropertyOp10
 70
     0
102
RTVSPropertyOp11
 70
     0
102
RTVSPropertyOp12
 70
     0
102
RTVSPropertyOp13
 70
     0
102
RTVSPropertyOp14
 70
     2
102
RTVSPropertyOp15
 70
     0
102
RTVSPropertyOp16
 70
     0
102
RTVSPropertyOp17
 70
     0
102
RTVSPropertyOp18
 70
     0
102
RTVSPropertyOp19
 70
     0
102
RTVSPropertyOp20
 70
     0
102
RTVSPropertyOp21
 70
     0
102
RTVSPropertyOp22
 70
     0
102
RTVSPropertyOp23
 70
     0
102
RTVSPropertyOp24
 70
     0
102
RTVSPropertyOp25
 70
     0
102
RTVSPropertyOp26
 70
     0
102
RTVSPropertyOp27
 70
     0
102
RTVSPropertyOp28
 70
     1
102
RTVSPropertyOp29
 70
     1
102
RTVSPropertyOp30
 70
     1
102
RTVSPropertyOp31
 70
     1
102
RTVSPropertyOp32
 70
     1
102
RTVSPropertyOp33
 70
     1
102
RTVSPropertyOp34
 70
     1
102
RTVSPropertyOp35
 70
     1
102
RTVSPropertyOp36
 70
     1
102
RTVSPropertyOp37
 70
     0
102
RTVSPropertyOp38
 70
     0
102
RTVSPropertyOp39
 70
     0
102
RTVSPropertyOp40
 70
     0
102
RTVSPropertyOp41
 70
     0
102
RTVSPropertyOp42
 70
     0
102
RTVSPropertyOp43
 70
     0
102
RTVSPropertyOp44
 70
     0
102
RTVSPropertyOp45
 70
     1
102
RTVSPropertyOp46
 70
     0
102
RTVSPropertyOp47
 70
     0
102
RTVSPropertyOp48
 70
     0
102
RTVSPropertyOp49
 70
     1
102
RTVSPropertyOp50
 70
     0
102
RTVSPropertyOp51
 70
     0
102
RTVSPropertyOp52
 70
     0
102
RTVSPropertyOp53
 70
     0
102
RTVSPropertyOp54
 70
     0
102
RTVSPropertyOp55
 70
     1
102
RTVSPropertyOp56
 70
     0
102
RTVSPropertyOp57
 70
     0
102
RTVSPropertyOp58
 70
     0
102
RTVSPropertyOp59
 70
     0
102
RTVSPropertyOp60
 70
     0
102
RTVSPropertyOp61
 70
     0
102
RTVSPropertyOp62
 70
     0
  0
XRECORD
  5
148A
102
{ACAD_REACTORS
330
1489
102
}
330
1489
100
AcDbXrecord
280
     1
102
RTVSPost2010Prop28
280
     0
102
RTVSPost2010PropOp28
 70
     1
102
RTVSPost2010Prop29
280
     1
102
RTVSPost2010PropOp29
 70
     1
102
RTVSPost2010Prop30
280
     1
102
RTVSPost2010PropOp30
 70
     1
102
RTVSPost2010Prop31
280
     0
102
RTVSPost2010PropOp31
 70
     1
102
RTVSPost2010Prop32
280
     0
102
RTVSPost2010PropOp32
 70
     1
102
RTVSPost2010Prop33
280
     0
102
RTVSPost2010PropOp33
 70
     1
102
RTVSPost2010Prop34
280
     0
102
RTVSPost2010PropOp34
 70
     1
102
RTVSPost2010Prop35
280
     0
102
RTVSPost2010PropOp35
 70
     1
102
RTVSPost2010Prop36
280
     0
102
RTVSPost2010PropOp36
 70
     1
102
RTVSPost2010Prop37
 90
       50
102
RTVSPost2010PropOp37
 70
     1
102
RTVSPost2010Prop38
140
0.0
102
RTVSPost2010PropOp38
 70
     1
102
RTVSPost2010Prop39
140
1.0
102
RTVSPost2010PropOp39
 70
     1
102
RTVSPost2010Prop40
 90
        0
102
RTVSPost2010PropOp40
 70
     1
102
RTVSPost2010Prop41ColorIndex
 90
       18
102
RTVSPost2010Prop41ColorRGB
 90
        0
102
RTVSPost2010PropOp41
 70
     1
102
RTVSPost2010Prop42
 90
       50
102
RTVSPost2010PropOp42
 70
     1
102
RTVSPost2010Prop43
 90
        3
102
RTVSPost2010PropOp43
 70
     1
102
RTVSPost2010Prop44ColorIndex
 90
        5
102
RTVSPost2010Prop44ColorRGB
 90
      255
102
RTVSPost2010PropOp44
 70
     1
102
RTVSPost2010Prop45
280
     0
102
RTVSPost2010PropOp45
 70
     1
102
RTVSPost2010Prop46
 90
       50
102
RTVSPost2010PropOp46
 70
     1
102
RTVSPost2010Prop47
 90
       50
102
RTVSPost2010PropOp47
 70
     1
102
RTVSPost2010Prop48
 90
       50
102
RTVSPost2010PropOp48
 70
     1
102
RTVSPost2010Prop49
280
     0
102
RTVSPost2010PropOp49
 70
     1
102
RTVSPost2010Prop50
 90
       50
102
RTVSPost2010PropOp50
 70
     1
102
RTVSPost2010Prop51ColorIndex
 90
      256
102
RTVSPost2010Prop51ColorRGB
 90
-16777216
102
RTVSPost2010PropOp51
 70
     0
102
RTVSPost2010Prop52
140
1.0
102
RTVSPost2010PropOp52
 70
     0
102
RTVSPost2010Prop53
 90
        2
102
RTVSPost2010PropOp53
 70
     1
102
RTVSPost2010Prop54
  1
strokes_ogs.tif
102
RTVSPost2010PropOp54
 70
     1
102
RTVSPost2010Prop55
280
     0
102
RTVSPost2010PropOp55
 70
     1
102
RTVSPost2010Prop56
140
1.0
102
RTVSPost2010PropOp56
 70
     1
102
RTVSPost2010Prop57
140
1.0
102
RTVSPost2010PropOp57
 70
     1
102
RTVSPropertyOp0
 70
     1
102
RTVSPropertyOp1
 70
     1
102
RTVSPropertyOp2
 70
     1
102
RTVSPropertyOp3
 70
     1
102
RTVSPropertyOp4
 70
     1
102
RTVSPropertyOp5
 70
     1
102
RTVSPropertyOp6
 70
     1
102
RTVSPropertyOp7
 70
     1
102
RTVSPropertyOp8
 70
     1
102
RTVSPropertyOp9
 70
     1
102
RTVSPropertyOp10
 70
     1
102
RTVSPropertyOp11
 70
     1
102
RTVSPropertyOp12
 70
     1
102
RTVSPropertyOp13
 70
     1
102
RTVSPropertyOp14
 70
     1
102
RTVSPropertyOp15
 70
     1
102
RTVSPropertyOp16
 70
     1
102
RTVSPropertyOp17
 70
     1
102
RTVSPropertyOp18
 70
     1
102
RTVSPropertyOp19
 70
     1
102
RTVSPropertyOp20
 70
     1
102
RTVSPropertyOp21
 70
     1
102
RTVSPropertyOp22
 70
     1
102
RTVSPropertyOp23
 70
     1
102
RTVSPropertyOp24
 70
     1
102
RTVSPropertyOp25
 70
     1
102
RTVSPropertyOp26
 70
     1
102
RTVSPropertyOp27
 70
     1
102
RTVSPropertyOp28
 70
     1
102
RTVSPropertyOp29
 70
     1
102
RTVSPropertyOp30
 70
     1
102
RTVSPropertyOp31
 70
     1
102
RTVSPropertyOp32
 70
     1
102
RTVSPropertyOp33
 70
     1
102
RTVSPropertyOp34
 70
     1
102
RTVSPropertyOp35
 70
     1
102
RTVSPropertyOp36
 70
     1
102
RTVSPropertyOp37
 70
     1
102
RTVSPropertyOp38
 70
     1
102
RTVSPropertyOp39
 70
     1
102
RTVSPropertyOp40
 70
     1
102
RTVSPropertyOp41
 70
     1
102
RTVSPropertyOp42
 70
     1
102
RTVSPropertyOp43
 70
     1
102
RTVSPropertyOp44
 70
     1
102
RTVSPropertyOp45
 70
     1
102
RTVSPropertyOp46
 70
     1
102
RTVSPropertyOp47
 70
     1
102
RTVSPropertyOp48
 70
     1
102
RTVSPropertyOp49
 70
     1
102
RTVSPropertyOp50
 70
     1
102
RTVSPropertyOp51
 70
     0
102
RTVSPropertyOp52
 70
     0
102
RTVSPropertyOp53
 70
     1
102
RTVSPropertyOp54
 70
     1
102
RTVSPropertyOp55
 70
     1
102
RTVSPropertyOp56
 70
     1
102
RTVSPropertyOp57
 70
     1
102
RTVSPropertyOp58
 70
     1
102
RTVSPropertyOp59
 70
     1
102
RTVSPropertyOp60
 70
     1
102
RTVSPropertyOp61
 70
     1
102
RTVSPropertyOp62
 70
     1
  0
XRECORD
  5
146E
102
{ACAD_REACTORS
330
146D
102
}
330
146D
100
AcDbXrecord
280
     1
102
RTVSPost2010Prop28
280
     0
102
RTVSPost2010PropOp28
 70
     1
102
RTVSPost2010Prop29
280
     1
102
RTVSPost2010PropOp29
 70
     1
102
RTVSPost2010Prop30
280
     1
102
RTVSPost2010PropOp30
 70
     1
102
RTVSPost2010Prop31
280
     0
102
RTVSPost2010PropOp31
 70
     1
102
RTVSPost2010Prop32
280
     0
102
RTVSPost2010PropOp32
 70
     1
102
RTVSPost2010Prop33
280
     0
102
RTVSPost2010PropOp33
 70
     1
102
RTVSPost2010Prop34
280
     0
102
RTVSPost2010PropOp34
 70
     1
102
RTVSPost2010Prop35
280
     0
102
RTVSPost2010PropOp35
 70
     1
102
RTVSPost2010Prop36
280
     0
102
RTVSPost2010PropOp36
 70
     1
102
RTVSPost2010Prop37
 90
       50
102
RTVSPost2010PropOp37
 70
     1
102
RTVSPost2010Prop38
140
0.0
102
RTVSPost2010PropOp38
 70
     1
102
RTVSPost2010Prop39
140
1.0
102
RTVSPost2010PropOp39
 70
     1
102
RTVSPost2010Prop40
 90
        0
102
RTVSPost2010PropOp40
 70
     1
102
RTVSPost2010Prop41ColorIndex
 90
       18
102
RTVSPost2010Prop41ColorRGB
 90
        0
102
RTVSPost2010PropOp41
 70
     1
102
RTVSPost2010Prop42
 90
       50
102
RTVSPost2010PropOp42
 70
     1
102
RTVSPost2010Prop43
 90
        3
102
RTVSPost2010PropOp43
 70
     1
102
RTVSPost2010Prop44ColorIndex
 90
        5
102
RTVSPost2010Prop44ColorRGB
 90
      255
102
RTVSPost2010PropOp44
 70
     1
102
RTVSPost2010Prop45
280
     0
102
RTVSPost2010PropOp45
 70
     1
102
RTVSPost2010Prop46
 90
       50
102
RTVSPost2010PropOp46
 70
     1
102
RTVSPost2010Prop47
 90
       50
102
RTVSPost2010PropOp47
 70
     1
102
RTVSPost2010Prop48
 90
       50
102
RTVSPost2010PropOp48
 70
     1
102
RTVSPost2010Prop49
280
     0
102
RTVSPost2010PropOp49
 70
     1
102
RTVSPost2010Prop50
 90
       50
102
RTVSPost2010PropOp50
 70
     1
102
RTVSPost2010Prop51ColorIndex
 90
      256
102
RTVSPost2010Prop51ColorRGB
 90
-16777216
102
RTVSPost2010PropOp51
 70
     0
102
RTVSPost2010Prop52
140
1.0
102
RTVSPost2010PropOp52
 70
     0
102
RTVSPost2010Prop53
 90
        2
102
RTVSPost2010PropOp53
 70
     1
102
RTVSPost2010Prop54
  1
strokes_ogs.tif
102
RTVSPost2010PropOp54
 70
     1
102
RTVSPost2010Prop55
280
     0
102
RTVSPost2010PropOp55
 70
     1
102
RTVSPost2010Prop56
140
1.0
102
RTVSPost2010PropOp56
 70
     1
102
RTVSPost2010Prop57
140
1.0
102
RTVSPost2010PropOp57
 70
     1
102
RTVSPropertyOp0
 70
     1
102
RTVSPropertyOp1
 70
     1
102
RTVSPropertyOp2
 70
     1
102
RTVSPropertyOp3
 70
     1
102
RTVSPropertyOp4
 70
     1
102
RTVSPropertyOp5
 70
     1
102
RTVSPropertyOp6
 70
     1
102
RTVSPropertyOp7
 70
     1
102
RTVSPropertyOp8
 70
     1
102
RTVSPropertyOp9
 70
     1
102
RTVSPropertyOp10
 70
     1
102
RTVSPropertyOp11
 70
     1
102
RTVSPropertyOp12
 70
     1
102
RTVSPropertyOp13
 70
     1
102
RTVSPropertyOp14
 70
     1
102
RTVSPropertyOp15
 70
     1
102
RTVSPropertyOp16
 70
     1
102
RTVSPropertyOp17
 70
     1
102
RTVSPropertyOp18
 70
     1
102
RTVSPropertyOp19
 70
     1
102
RTVSPropertyOp20
 70
     1
102
RTVSPropertyOp21
 70
     1
102
RTVSPropertyOp22
 70
     1
102
RTVSPropertyOp23
 70
     1
102
RTVSPropertyOp24
 70
     1
102
RTVSPropertyOp25
 70
     1
102
RTVSPropertyOp26
 70
     1
102
RTVSPropertyOp27
 70
     1
102
RTVSPropertyOp28
 70
     1
102
RTVSPropertyOp29
 70
     1
102
RTVSPropertyOp30
 70
     1
102
RTVSPropertyOp31
 70
     1
102
RTVSPropertyOp32
 70
     1
102
RTVSPropertyOp33
 70
     1
102
RTVSPropertyOp34
 70
     1
102
RTVSPropertyOp35
 70
     1
102
RTVSPropertyOp36
 70
     1
102
RTVSPropertyOp37
 70
     1
102
RTVSPropertyOp38
 70
     1
102
RTVSPropertyOp39
 70
     1
102
RTVSPropertyOp40
 70
     1
102
RTVSPropertyOp41
 70
     1
102
RTVSPropertyOp42
 70
     1
102
RTVSPropertyOp43
 70
     1
102
RTVSPropertyOp44
 70
     1
102
RTVSPropertyOp45
 70
     1
102
RTVSPropertyOp46
 70
     1
102
RTVSPropertyOp47
 70
     1
102
RTVSPropertyOp48
 70
     1
102
RTVSPropertyOp49
 70
     1
102
RTVSPropertyOp50
 70
     1
102
RTVSPropertyOp51
 70
     0
102
RTVSPropertyOp52
 70
     0
102
RTVSPropertyOp53
 70
     1
102
RTVSPropertyOp54
 70
     1
102
RTVSPropertyOp55
 70
     1
102
RTVSPropertyOp56
 70
     1
102
RTVSPropertyOp57
 70
     1
102
RTVSPropertyOp58
 70
     1
102
RTVSPropertyOp59
 70
     1
102
RTVSPropertyOp60
 70
     1
102
RTVSPropertyOp61
 70
     1
102
RTVSPropertyOp62
 70
     1
  0
XRECORD
  5
1470
102
{ACAD_REACTORS
330
146F
102
}
330
146F
100
AcDbXrecord
280
     1
102
RTVSPost2010Prop28
280
     0
102
RTVSPost2010PropOp28
 70
     1
102
RTVSPost2010Prop29
280
     1
102
RTVSPost2010PropOp29
 70
     1
102
RTVSPost2010Prop30
280
     1
102
RTVSPost2010PropOp30
 70
     1
102
RTVSPost2010Prop31
280
     0
102
RTVSPost2010PropOp31
 70
     1
102
RTVSPost2010Prop32
280
     0
102
RTVSPost2010PropOp32
 70
     1
102
RTVSPost2010Prop33
280
     0
102
RTVSPost2010PropOp33
 70
     1
102
RTVSPost2010Prop34
280
     0
102
RTVSPost2010PropOp34
 70
     1
102
RTVSPost2010Prop35
280
     0
102
RTVSPost2010PropOp35
 70
     1
102
RTVSPost2010Prop36
280
     0
102
RTVSPost2010PropOp36
 70
     1
102
RTVSPost2010Prop37
 90
       50
102
RTVSPost2010PropOp37
 70
     1
102
RTVSPost2010Prop38
140
0.0
102
RTVSPost2010PropOp38
 70
     1
102
RTVSPost2010Prop39
140
1.0
102
RTVSPost2010PropOp39
 70
     1
102
RTVSPost2010Prop40
 90
        0
102
RTVSPost2010PropOp40
 70
     1
102
RTVSPost2010Prop41ColorIndex
 90
       18
102
RTVSPost2010Prop41ColorRGB
 90
        0
102
RTVSPost2010PropOp41
 70
     1
102
RTVSPost2010Prop42
 90
       50
102
RTVSPost2010PropOp42
 70
     1
102
RTVSPost2010Prop43
 90
        3
102
RTVSPost2010PropOp43
 70
     1
102
RTVSPost2010Prop44ColorIndex
 90
        5
102
RTVSPost2010Prop44ColorRGB
 90
      255
102
RTVSPost2010PropOp44
 70
     1
102
RTVSPost2010Prop45
280
     0
102
RTVSPost2010PropOp45
 70
     1
102
RTVSPost2010Prop46
 90
       50
102
RTVSPost2010PropOp46
 70
     1
102
RTVSPost2010Prop47
 90
       50
102
RTVSPost2010PropOp47
 70
     1
102
RTVSPost2010Prop48
 90
       50
102
RTVSPost2010PropOp48
 70
     1
102
RTVSPost2010Prop49
280
     0
102
RTVSPost2010PropOp49
 70
     1
102
RTVSPost2010Prop50
 90
       50
102
RTVSPost2010PropOp50
 70
     1
102
RTVSPost2010Prop51ColorIndex
 90
      256
102
RTVSPost2010Prop51ColorRGB
 90
-16777216
102
RTVSPost2010PropOp51
 70
     0
102
RTVSPost2010Prop52
140
1.0
102
RTVSPost2010PropOp52
 70
     0
102
RTVSPost2010Prop53
 90
        2
102
RTVSPost2010PropOp53
 70
     1
102
RTVSPost2010Prop54
  1
strokes_ogs.tif
102
RTVSPost2010PropOp54
 70
     1
102
RTVSPost2010Prop55
280
     0
102
RTVSPost2010PropOp55
 70
     1
102
RTVSPost2010Prop56
140
1.0
102
RTVSPost2010PropOp56
 70
     1
102
RTVSPost2010Prop57
140
1.0
102
RTVSPost2010PropOp57
 70
     1
102
RTVSPropertyOp0
 70
     1
102
RTVSPropertyOp1
 70
     1
102
RTVSPropertyOp2
 70
     1
102
RTVSPropertyOp3
 70
     1
102
RTVSPropertyOp4
 70
     1
102
RTVSPropertyOp5
 70
     1
102
RTVSPropertyOp6
 70
     1
102
RTVSPropertyOp7
 70
     1
102
RTVSPropertyOp8
 70
     1
102
RTVSPropertyOp9
 70
     1
102
RTVSPropertyOp10
 70
     1
102
RTVSPropertyOp11
 70
     1
102
RTVSPropertyOp12
 70
     1
102
RTVSPropertyOp13
 70
     1
102
RTVSPropertyOp14
 70
     1
102
RTVSPropertyOp15
 70
     1
102
RTVSPropertyOp16
 70
     1
102
RTVSPropertyOp17
 70
     1
102
RTVSPropertyOp18
 70
     1
102
RTVSPropertyOp19
 70
     1
102
RTVSPropertyOp20
 70
     1
102
RTVSPropertyOp21
 70
     1
102
RTVSPropertyOp22
 70
     1
102
RTVSPropertyOp23
 70
     1
102
RTVSPropertyOp24
 70
     1
102
RTVSPropertyOp25
 70
     1
102
RTVSPropertyOp26
 70
     1
102
RTVSPropertyOp27
 70
     1
102
RTVSPropertyOp28
 70
     1
102
RTVSPropertyOp29
 70
     1
102
RTVSPropertyOp30
 70
     1
102
RTVSPropertyOp31
 70
     1
102
RTVSPropertyOp32
 70
     1
102
RTVSPropertyOp33
 70
     1
102
RTVSPropertyOp34
 70
     1
102
RTVSPropertyOp35
 70
     1
102
RTVSPropertyOp36
 70
     1
102
RTVSPropertyOp37
 70
     1
102
RTVSPropertyOp38
 70
     1
102
RTVSPropertyOp39
 70
     1
102
RTVSPropertyOp40
 70
     1
102
RTVSPropertyOp41
 70
     1
102
RTVSPropertyOp42
 70
     1
102
RTVSPropertyOp43
 70
     1
102
RTVSPropertyOp44
 70
     1
102
RTVSPropertyOp45
 70
     1
102
RTVSPropertyOp46
 70
     1
102
RTVSPropertyOp47
 70
     1
102
RTVSPropertyOp48
 70
     1
102
RTVSPropertyOp49
 70
     1
102
RTVSPropertyOp50
 70
     1
102
RTVSPropertyOp51
 70
     0
102
RTVSPropertyOp52
 70
     0
102
RTVSPropertyOp53
 70
     1
102
RTVSPropertyOp54
 70
     1
102
RTVSPropertyOp55
 70
     1
102
RTVSPropertyOp56
 70
     1
102
RTVSPropertyOp57
 70
     1
102
RTVSPropertyOp58
 70
     1
102
RTVSPropertyOp59
 70
     1
102
RTVSPropertyOp60
 70
     1
102
RTVSPropertyOp61
 70
     1
102
RTVSPropertyOp62
 70
     1
  0
XRECORD
  5
1472
102
{ACAD_REACTORS
330
1471
102
}
330
1471
100
AcDbXrecord
280
     1
102
RTVSPost2010Prop28
280
     0
102
RTVSPost2010PropOp28
 70
     1
102
RTVSPost2010Prop29
280
     1
102
RTVSPost2010PropOp29
 70
     1
102
RTVSPost2010Prop30
280
     1
102
RTVSPost2010PropOp30
 70
     1
102
RTVSPost2010Prop31
280
     0
102
RTVSPost2010PropOp31
 70
     1
102
RTVSPost2010Prop32
280
     0
102
RTVSPost2010PropOp32
 70
     1
102
RTVSPost2010Prop33
280
     0
102
RTVSPost2010PropOp33
 70
     1
102
RTVSPost2010Prop34
280
     0
102
RTVSPost2010PropOp34
 70
     1
102
RTVSPost2010Prop35
280
     0
102
RTVSPost2010PropOp35
 70
     1
102
RTVSPost2010Prop36
280
     0
102
RTVSPost2010PropOp36
 70
     1
102
RTVSPost2010Prop37
 90
       50
102
RTVSPost2010PropOp37
 70
     1
102
RTVSPost2010Prop38
140
0.0
102
RTVSPost2010PropOp38
 70
     1
102
RTVSPost2010Prop39
140
1.0
102
RTVSPost2010PropOp39
 70
     1
102
RTVSPost2010Prop40
 90
        0
102
RTVSPost2010PropOp40
 70
     1
102
RTVSPost2010Prop41ColorIndex
 90
       18
102
RTVSPost2010Prop41ColorRGB
 90
        0
102
RTVSPost2010PropOp41
 70
     1
102
RTVSPost2010Prop42
 90
       50
102
RTVSPost2010PropOp42
 70
     1
102
RTVSPost2010Prop43
 90
        3
102
RTVSPost2010PropOp43
 70
     1
102
RTVSPost2010Prop44ColorIndex
 90
        5
102
RTVSPost2010Prop44ColorRGB
 90
      255
102
RTVSPost2010PropOp44
 70
     1
102
RTVSPost2010Prop45
280
     0
102
RTVSPost2010PropOp45
 70
     1
102
RTVSPost2010Prop46
 90
       50
102
RTVSPost2010PropOp46
 70
     1
102
RTVSPost2010Prop47
 90
       50
102
RTVSPost2010PropOp47
 70
     1
102
RTVSPost2010Prop48
 90
       50
102
RTVSPost2010PropOp48
 70
     1
102
RTVSPost2010Prop49
280
     0
102
RTVSPost2010PropOp49
 70
     1
102
RTVSPost2010Prop50
 90
       50
102
RTVSPost2010PropOp50
 70
     1
102
RTVSPost2010Prop51ColorIndex
 90
      256
102
RTVSPost2010Prop51ColorRGB
 90
-16777216
102
RTVSPost2010PropOp51
 70
     0
102
RTVSPost2010Prop52
140
1.0
102
RTVSPost2010PropOp52
 70
     0
102
RTVSPost2010Prop53
 90
        2
102
RTVSPost2010PropOp53
 70
     1
102
RTVSPost2010Prop54
  1
strokes_ogs.tif
102
RTVSPost2010PropOp54
 70
     1
102
RTVSPost2010Prop55
280
     0
102
RTVSPost2010PropOp55
 70
     1
102
RTVSPost2010Prop56
140
1.0
102
RTVSPost2010PropOp56
 70
     1
102
RTVSPost2010Prop57
140
1.0
102
RTVSPost2010PropOp57
 70
     1
102
RTVSPropertyOp0
 70
     1
102
RTVSPropertyOp1
 70
     1
102
RTVSPropertyOp2
 70
     1
102
RTVSPropertyOp3
 70
     1
102
RTVSPropertyOp4
 70
     1
102
RTVSPropertyOp5
 70
     1
102
RTVSPropertyOp6
 70
     1
102
RTVSPropertyOp7
 70
     1
102
RTVSPropertyOp8
 70
     1
102
RTVSPropertyOp9
 70
     1
102
RTVSPropertyOp10
 70
     1
102
RTVSPropertyOp11
 70
     1
102
RTVSPropertyOp12
 70
     1
102
RTVSPropertyOp13
 70
     1
102
RTVSPropertyOp14
 70
     1
102
RTVSPropertyOp15
 70
     1
102
RTVSPropertyOp16
 70
     1
102
RTVSPropertyOp17
 70
     1
102
RTVSPropertyOp18
 70
     1
102
RTVSPropertyOp19
 70
     1
102
RTVSPropertyOp20
 70
     1
102
RTVSPropertyOp21
 70
     1
102
RTVSPropertyOp22
 70
     1
102
RTVSPropertyOp23
 70
     1
102
RTVSPropertyOp24
 70
     1
102
RTVSPropertyOp25
 70
     1
102
RTVSPropertyOp26
 70
     1
102
RTVSPropertyOp27
 70
     1
102
RTVSPropertyOp28
 70
     1
102
RTVSPropertyOp29
 70
     1
102
RTVSPropertyOp30
 70
     1
102
RTVSPropertyOp31
 70
     1
102
RTVSPropertyOp32
 70
     1
102
RTVSPropertyOp33
 70
     1
102
RTVSPropertyOp34
 70
     1
102
RTVSPropertyOp35
 70
     1
102
RTVSPropertyOp36
 70
     1
102
RTVSPropertyOp37
 70
     1
102
RTVSPropertyOp38
 70
     1
102
RTVSPropertyOp39
 70
     1
102
RTVSPropertyOp40
 70
     1
102
RTVSPropertyOp41
 70
     1
102
RTVSPropertyOp42
 70
     1
102
RTVSPropertyOp43
 70
     1
102
RTVSPropertyOp44
 70
     1
102
RTVSPropertyOp45
 70
     1
102
RTVSPropertyOp46
 70
     1
102
RTVSPropertyOp47
 70
     1
102
RTVSPropertyOp48
 70
     1
102
RTVSPropertyOp49
 70
     1
102
RTVSPropertyOp50
 70
     1
102
RTVSPropertyOp51
 70
     0
102
RTVSPropertyOp52
 70
     0
102
RTVSPropertyOp53
 70
     1
102
RTVSPropertyOp54
 70
     1
102
RTVSPropertyOp55
 70
     1
102
RTVSPropertyOp56
 70
     1
102
RTVSPropertyOp57
 70
     1
102
RTVSPropertyOp58
 70
     1
102
RTVSPropertyOp59
 70
     1
102
RTVSPropertyOp60
 70
     1
102
RTVSPropertyOp61
 70
     1
102
RTVSPropertyOp62
 70
     1
  0
XRECORD
  5
1474
102
{ACAD_REACTORS
330
1473
102
}
330
1473
100
AcDbXrecord
280
     1
102
RTVSPost2010Prop28
280
     0
102
RTVSPost2010PropOp28
 70
     1
102
RTVSPost2010Prop29
280
     1
102
RTVSPost2010PropOp29
 70
     1
102
RTVSPost2010Prop30
280
     1
102
RTVSPost2010PropOp30
 70
     1
102
RTVSPost2010Prop31
280
     0
102
RTVSPost2010PropOp31
 70
     1
102
RTVSPost2010Prop32
280
     0
102
RTVSPost2010PropOp32
 70
     1
102
RTVSPost2010Prop33
280
     0
102
RTVSPost2010PropOp33
 70
     1
102
RTVSPost2010Prop34
280
     0
102
RTVSPost2010PropOp34
 70
     1
102
RTVSPost2010Prop35
280
     0
102
RTVSPost2010PropOp35
 70
     1
102
RTVSPost2010Prop36
280
     0
102
RTVSPost2010PropOp36
 70
     1
102
RTVSPost2010Prop37
 90
       50
102
RTVSPost2010PropOp37
 70
     1
102
RTVSPost2010Prop38
140
0.0
102
RTVSPost2010PropOp38
 70
     1
102
RTVSPost2010Prop39
140
1.0
102
RTVSPost2010PropOp39
 70
     1
102
RTVSPost2010Prop40
 90
        0
102
RTVSPost2010PropOp40
 70
     1
102
RTVSPost2010Prop41ColorIndex
 90
       18
102
RTVSPost2010Prop41ColorRGB
 90
        0
102
RTVSPost2010PropOp41
 70
     1
102
RTVSPost2010Prop42
 90
       50
102
RTVSPost2010PropOp42
 70
     1
102
RTVSPost2010Prop43
 90
        3
102
RTVSPost2010PropOp43
 70
     1
102
RTVSPost2010Prop44ColorIndex
 90
        5
102
RTVSPost2010Prop44ColorRGB
 90
      255
102
RTVSPost2010PropOp44
 70
     1
102
RTVSPost2010Prop45
280
     0
102
RTVSPost2010PropOp45
 70
     1
102
RTVSPost2010Prop46
 90
       50
102
RTVSPost2010PropOp46
 70
     1
102
RTVSPost2010Prop47
 90
       50
102
RTVSPost2010PropOp47
 70
     1
102
RTVSPost2010Prop48
 90
       50
102
RTVSPost2010PropOp48
 70
     1
102
RTVSPost2010Prop49
280
     0
102
RTVSPost2010PropOp49
 70
     1
102
RTVSPost2010Prop50
 90
       50
102
RTVSPost2010PropOp50
 70
     1
102
RTVSPost2010Prop51ColorIndex
 90
      256
102
RTVSPost2010Prop51ColorRGB
 90
-16777216
102
RTVSPost2010PropOp51
 70
     0
102
RTVSPost2010Prop52
140
1.0
102
RTVSPost2010PropOp52
 70
     0
102
RTVSPost2010Prop53
 90
        2
102
RTVSPost2010PropOp53
 70
     1
102
RTVSPost2010Prop54
  1
strokes_ogs.tif
102
RTVSPost2010PropOp54
 70
     1
102
RTVSPost2010Prop55
280
     0
102
RTVSPost2010PropOp55
 70
     1
102
RTVSPost2010Prop56
140
1.0
102
RTVSPost2010PropOp56
 70
     1
102
RTVSPost2010Prop57
140
1.0
102
RTVSPost2010PropOp57
 70
     1
102
RTVSPropertyOp0
 70
     1
102
RTVSPropertyOp1
 70
     1
102
RTVSPropertyOp2
 70
     1
102
RTVSPropertyOp3
 70
     1
102
RTVSPropertyOp4
 70
     1
102
RTVSPropertyOp5
 70
     1
102
RTVSPropertyOp6
 70
     1
102
RTVSPropertyOp7
 70
     1
102
RTVSPropertyOp8
 70
     1
102
RTVSPropertyOp9
 70
     1
102
RTVSPropertyOp10
 70
     1
102
RTVSPropertyOp11
 70
     1
102
RTVSPropertyOp12
 70
     1
102
RTVSPropertyOp13
 70
     1
102
RTVSPropertyOp14
 70
     1
102
RTVSPropertyOp15
 70
     1
102
RTVSPropertyOp16
 70
     1
102
RTVSPropertyOp17
 70
     1
102
RTVSPropertyOp18
 70
     1
102
RTVSPropertyOp19
 70
     1
102
RTVSPropertyOp20
 70
     1
102
RTVSPropertyOp21
 70
     1
102
RTVSPropertyOp22
 70
     1
102
RTVSPropertyOp23
 70
     1
102
RTVSPropertyOp24
 70
     1
102
RTVSPropertyOp25
 70
     1
102
RTVSPropertyOp26
 70
     1
102
RTVSPropertyOp27
 70
     1
102
RTVSPropertyOp28
 70
     1
102
RTVSPropertyOp29
 70
     1
102
RTVSPropertyOp30
 70
     1
102
RTVSPropertyOp31
 70
     1
102
RTVSPropertyOp32
 70
     1
102
RTVSPropertyOp33
 70
     1
102
RTVSPropertyOp34
 70
     1
102
RTVSPropertyOp35
 70
     1
102
RTVSPropertyOp36
 70
     1
102
RTVSPropertyOp37
 70
     1
102
RTVSPropertyOp38
 70
     1
102
RTVSPropertyOp39
 70
     1
102
RTVSPropertyOp40
 70
     1
102
RTVSPropertyOp41
 70
     1
102
RTVSPropertyOp42
 70
     1
102
RTVSPropertyOp43
 70
     1
102
RTVSPropertyOp44
 70
     1
102
RTVSPropertyOp45
 70
     1
102
RTVSPropertyOp46
 70
     1
102
RTVSPropertyOp47
 70
     1
102
RTVSPropertyOp48
 70
     1
102
RTVSPropertyOp49
 70
     1
102
RTVSPropertyOp50
 70
     1
102
RTVSPropertyOp51
 70
     0
102
RTVSPropertyOp52
 70
     0
102
RTVSPropertyOp53
 70
     1
102
RTVSPropertyOp54
 70
     1
102
RTVSPropertyOp55
 70
     1
102
RTVSPropertyOp56
 70
     1
102
RTVSPropertyOp57
 70
     1
102
RTVSPropertyOp58
 70
     1
102
RTVSPropertyOp59
 70
     1
102
RTVSPropertyOp60
 70
     1
102
RTVSPropertyOp61
 70
     1
102
RTVSPropertyOp62
 70
     1
  0
XRECORD
  5
147C
102
{ACAD_REACTORS
330
147B
102
}
330
147B
100
AcDbXrecord
280
     1
102
RTVSPost2010Prop28
280
     0
102
RTVSPost2010PropOp28
 70
     1
102
RTVSPost2010Prop29
280
     1
102
RTVSPost2010PropOp29
 70
     1
102
RTVSPost2010Prop30
280
     1
102
RTVSPost2010PropOp30
 70
     1
102
RTVSPost2010Prop31
280
     0
102
RTVSPost2010PropOp31
 70
     1
102
RTVSPost2010Prop32
280
     0
102
RTVSPost2010PropOp32
 70
     1
102
RTVSPost2010Prop33
280
     0
102
RTVSPost2010PropOp33
 70
     1
102
RTVSPost2010Prop34
280
     0
102
RTVSPost2010PropOp34
 70
     1
102
RTVSPost2010Prop35
280
     0
102
RTVSPost2010PropOp35
 70
     1
102
RTVSPost2010Prop36
280
     0
102
RTVSPost2010PropOp36
 70
     1
102
RTVSPost2010Prop37
 90
       50
102
RTVSPost2010PropOp37
 70
     1
102
RTVSPost2010Prop38
140
0.0
102
RTVSPost2010PropOp38
 70
     1
102
RTVSPost2010Prop39
140
1.0
102
RTVSPost2010PropOp39
 70
     1
102
RTVSPost2010Prop40
 90
        0
102
RTVSPost2010PropOp40
 70
     1
102
RTVSPost2010Prop41ColorIndex
 90
       18
102
RTVSPost2010Prop41ColorRGB
 90
        0
102
RTVSPost2010PropOp41
 70
     1
102
RTVSPost2010Prop42
 90
       50
102
RTVSPost2010PropOp42
 70
     1
102
RTVSPost2010Prop43
 90
        3
102
RTVSPost2010PropOp43
 70
     1
102
RTVSPost2010Prop44ColorIndex
 90
        5
102
RTVSPost2010Prop44ColorRGB
 90
      255
102
RTVSPost2010PropOp44
 70
     1
102
RTVSPost2010Prop45
280
     0
102
RTVSPost2010PropOp45
 70
     1
102
RTVSPost2010Prop46
 90
       50
102
RTVSPost2010PropOp46
 70
     1
102
RTVSPost2010Prop47
 90
       50
102
RTVSPost2010PropOp47
 70
     1
102
RTVSPost2010Prop48
 90
       50
102
RTVSPost2010PropOp48
 70
     1
102
RTVSPost2010Prop49
280
     0
102
RTVSPost2010PropOp49
 70
     1
102
RTVSPost2010Prop50
 90
       50
102
RTVSPost2010PropOp50
 70
     1
102
RTVSPost2010Prop51ColorIndex
 90
      256
102
RTVSPost2010Prop51ColorRGB
 90
-16777216
102
RTVSPost2010PropOp51
 70
     0
102
RTVSPost2010Prop52
140
1.0
102
RTVSPost2010PropOp52
 70
     0
102
RTVSPost2010Prop53
 90
        2
102
RTVSPost2010PropOp53
 70
     1
102
RTVSPost2010Prop54
  1
strokes_ogs.tif
102
RTVSPost2010PropOp54
 70
     1
102
RTVSPost2010Prop55
280
     0
102
RTVSPost2010PropOp55
 70
     1
102
RTVSPost2010Prop56
140
1.0
102
RTVSPost2010PropOp56
 70
     1
102
RTVSPost2010Prop57
140
1.0
102
RTVSPost2010PropOp57
 70
     1
102
RTVSPropertyOp0
 70
     1
102
RTVSPropertyOp1
 70
     1
102
RTVSPropertyOp2
 70
     1
102
RTVSPropertyOp3
 70
     1
102
RTVSPropertyOp4
 70
     1
102
RTVSPropertyOp5
 70
     1
102
RTVSPropertyOp6
 70
     1
102
RTVSPropertyOp7
 70
     1
102
RTVSPropertyOp8
 70
     1
102
RTVSPropertyOp9
 70
     1
102
RTVSPropertyOp10
 70
     1
102
RTVSPropertyOp11
 70
     1
102
RTVSPropertyOp12
 70
     1
102
RTVSPropertyOp13
 70
     1
102
RTVSPropertyOp14
 70
     1
102
RTVSPropertyOp15
 70
     1
102
RTVSPropertyOp16
 70
     1
102
RTVSPropertyOp17
 70
     1
102
RTVSPropertyOp18
 70
     1
102
RTVSPropertyOp19
 70
     1
102
RTVSPropertyOp20
 70
     1
102
RTVSPropertyOp21
 70
     1
102
RTVSPropertyOp22
 70
     1
102
RTVSPropertyOp23
 70
     1
102
RTVSPropertyOp24
 70
     1
102
RTVSPropertyOp25
 70
     1
102
RTVSPropertyOp26
 70
     1
102
RTVSPropertyOp27
 70
     1
102
RTVSPropertyOp28
 70
     1
102
RTVSPropertyOp29
 70
     1
102
RTVSPropertyOp30
 70
     1
102
RTVSPropertyOp31
 70
     1
102
RTVSPropertyOp32
 70
     1
102
RTVSPropertyOp33
 70
     1
102
RTVSPropertyOp34
 70
     1
102
RTVSPropertyOp35
 70
     1
102
RTVSPropertyOp36
 70
     1
102
RTVSPropertyOp37
 70
     1
102
RTVSPropertyOp38
 70
     1
102
RTVSPropertyOp39
 70
     1
102
RTVSPropertyOp40
 70
     1
102
RTVSPropertyOp41
 70
     1
102
RTVSPropertyOp42
 70
     1
102
RTVSPropertyOp43
 70
     1
102
RTVSPropertyOp44
 70
     1
102
RTVSPropertyOp45
 70
     1
102
RTVSPropertyOp46
 70
     1
102
RTVSPropertyOp47
 70
     1
102
RTVSPropertyOp48
 70
     1
102
RTVSPropertyOp49
 70
     1
102
RTVSPropertyOp50
 70
     1
102
RTVSPropertyOp51
 70
     0
102
RTVSPropertyOp52
 70
     0
102
RTVSPropertyOp53
 70
     1
102
RTVSPropertyOp54
 70
     1
102
RTVSPropertyOp55
 70
     1
102
RTVSPropertyOp56
 70
     1
102
RTVSPropertyOp57
 70
     1
102
RTVSPropertyOp58
 70
     1
102
RTVSPropertyOp59
 70
     1
102
RTVSPropertyOp60
 70
     1
102
RTVSPropertyOp61
 70
     1
102
RTVSPropertyOp62
 70
     1
  0
XRECORD
  5
1498
102
{ACAD_REACTORS
330
1497
102
}
330
1497
100
AcDbXrecord
280
     1
102
RTVSPost2010Prop28
280
     0
102
RTVSPost2010PropOp28
 70
     1
102
RTVSPost2010Prop29
280
     1
102
RTVSPost2010PropOp29
 70
     1
102
RTVSPost2010Prop30
280
     1
102
RTVSPost2010PropOp30
 70
     1
102
RTVSPost2010Prop31
280
     0
102
RTVSPost2010PropOp31
 70
     1
102
RTVSPost2010Prop32
280
     0
102
RTVSPost2010PropOp32
 70
     1
102
RTVSPost2010Prop33
280
     0
102
RTVSPost2010PropOp33
 70
     1
102
RTVSPost2010Prop34
280
     0
102
RTVSPost2010PropOp34
 70
     1
102
RTVSPost2010Prop35
280
     0
102
RTVSPost2010PropOp35
 70
     1
102
RTVSPost2010Prop36
280
     0
102
RTVSPost2010PropOp36
 70
     1
102
RTVSPost2010Prop37
 90
       50
102
RTVSPost2010PropOp37
 70
     0
102
RTVSPost2010Prop38
140
0.0
102
RTVSPost2010PropOp38
 70
     0
102
RTVSPost2010Prop39
140
1.0
102
RTVSPost2010PropOp39
 70
     0
102
RTVSPost2010Prop40
 90
        0
102
RTVSPost2010PropOp40
 70
     0
102
RTVSPost2010Prop41ColorIndex
 90
       18
102
RTVSPost2010Prop41ColorRGB
 90
        0
102
RTVSPost2010PropOp41
 70
     0
102
RTVSPost2010Prop42
 90
       50
102
RTVSPost2010PropOp42
 70
     0
102
RTVSPost2010Prop43
 90
        3
102
RTVSPost2010PropOp43
 70
     0
102
RTVSPost2010Prop44ColorIndex
 90
        5
102
RTVSPost2010Prop44ColorRGB
 90
      255
102
RTVSPost2010PropOp44
 70
     0
102
RTVSPost2010Prop45
280
     0
102
RTVSPost2010PropOp45
 70
     1
102
RTVSPost2010Prop46
 90
       50
102
RTVSPost2010PropOp46
 70
     0
102
RTVSPost2010Prop47
 90
       50
102
RTVSPost2010PropOp47
 70
     0
102
RTVSPost2010Prop48
 90
       50
102
RTVSPost2010PropOp48
 70
     0
102
RTVSPost2010Prop49
280
     0
102
RTVSPost2010PropOp49
 70
     1
102
RTVSPost2010Prop50
 90
       50
102
RTVSPost2010PropOp50
 70
     0
102
RTVSPost2010Prop51ColorIndex
 90
      256
102
RTVSPost2010Prop51ColorRGB
 90
-16777216
102
RTVSPost2010PropOp51
 70
     0
102
RTVSPost2010Prop52
140
1.0
102
RTVSPost2010PropOp52
 70
     0
102
RTVSPost2010Prop53
 90
        2
102
RTVSPost2010PropOp53
 70
     0
102
RTVSPost2010Prop54
  1
strokes_ogs.tif
102
RTVSPost2010PropOp54
 70
     0
102
RTVSPost2010Prop55
280
     0
102
RTVSPost2010PropOp55
 70
     1
102
RTVSPost2010Prop56
140
1.0
102
RTVSPost2010PropOp56
 70
     0
102
RTVSPost2010Prop57
140
1.0
102
RTVSPost2010PropOp57
 70
     0
102
RTVSPropertyOp0
 70
     0
102
RTVSPropertyOp1
 70
     0
102
RTVSPropertyOp2
 70
     0
102
RTVSPropertyOp3
 70
     0
102
RTVSPropertyOp4
 70
     0
102
RTVSPropertyOp5
 70
     0
102
RTVSPropertyOp6
 70
     0
102
RTVSPropertyOp7
 70
     0
102
RTVSPropertyOp8
 70
     0
102
RTVSPropertyOp9
 70
     0
102
RTVSPropertyOp10
 70
     0
102
RTVSPropertyOp11
 70
     0
102
RTVSPropertyOp12
 70
     0
102
RTVSPropertyOp13
 70
     0
102
RTVSPropertyOp14
 70
     2
102
RTVSPropertyOp15
 70
     0
102
RTVSPropertyOp16
 70
     0
102
RTVSPropertyOp17
 70
     0
102
RTVSPropertyOp18
 70
     0
102
RTVSPropertyOp19
 70
     0
102
RTVSPropertyOp20
 70
     0
102
RTVSPropertyOp21
 70
     0
102
RTVSPropertyOp22
 70
     0
102
RTVSPropertyOp23
 70
     0
102
RTVSPropertyOp24
 70
     0
102
RTVSPropertyOp25
 70
     0
102
RTVSPropertyOp26
 70
     0
102
RTVSPropertyOp27
 70
     0
102
RTVSPropertyOp28
 70
     1
102
RTVSPropertyOp29
 70
     1
102
RTVSPropertyOp30
 70
     1
102
RTVSPropertyOp31
 70
     1
102
RTVSPropertyOp32
 70
     1
102
RTVSPropertyOp33
 70
     1
102
RTVSPropertyOp34
 70
     1
102
RTVSPropertyOp35
 70
     1
102
RTVSPropertyOp36
 70
     1
102
RTVSPropertyOp37
 70
     0
102
RTVSPropertyOp38
 70
     0
102
RTVSPropertyOp39
 70
     0
102
RTVSPropertyOp40
 70
     0
102
RTVSPropertyOp41
 70
     0
102
RTVSPropertyOp42
 70
     0
102
RTVSPropertyOp43
 70
     0
102
RTVSPropertyOp44
 70
     0
102
RTVSPropertyOp45
 70
     1
102
RTVSPropertyOp46
 70
     0
102
RTVSPropertyOp47
 70
     0
102
RTVSPropertyOp48
 70
     0
102
RTVSPropertyOp49
 70
     1
102
RTVSPropertyOp50
 70
     0
102
RTVSPropertyOp51
 70
     0
102
RTVSPropertyOp52
 70
     0
102
RTVSPropertyOp53
 70
     0
102
RTVSPropertyOp54
 70
     0
102
RTVSPropertyOp55
 70
     1
102
RTVSPropertyOp56
 70
     0
102
RTVSPropertyOp57
 70
     0
102
RTVSPropertyOp58
 70
     0
102
RTVSPropertyOp59
 70
     0
102
RTVSPropertyOp60
 70
     0
102
RTVSPropertyOp61
 70
     0
102
RTVSPropertyOp62
 70
     0
  0
XRECORD
  5
1488
102
{ACAD_REACTORS
330
1487
102
}
330
1487
100
AcDbXrecord
280
     1
102
RTVSPost2010Prop28
280
     0
102
RTVSPost2010PropOp28
 70
     1
102
RTVSPost2010Prop29
280
     1
102
RTVSPost2010PropOp29
 70
     1
102
RTVSPost2010Prop30
280
     1
102
RTVSPost2010PropOp30
 70
     1
102
RTVSPost2010Prop31
280
     0
102
RTVSPost2010PropOp31
 70
     1
102
RTVSPost2010Prop32
280
     0
102
RTVSPost2010PropOp32
 70
     1
102
RTVSPost2010Prop33
280
     0
102
RTVSPost2010PropOp33
 70
     1
102
RTVSPost2010Prop34
280
     0
102
RTVSPost2010PropOp34
 70
     1
102
RTVSPost2010Prop35
280
     0
102
RTVSPost2010PropOp35
 70
     1
102
RTVSPost2010Prop36
280
     0
102
RTVSPost2010PropOp36
 70
     1
102
RTVSPost2010Prop37
 90
       50
102
RTVSPost2010PropOp37
 70
     1
102
RTVSPost2010Prop38
140
0.0
102
RTVSPost2010PropOp38
 70
     1
102
RTVSPost2010Prop39
140
1.0
102
RTVSPost2010PropOp39
 70
     1
102
RTVSPost2010Prop40
 90
        0
102
RTVSPost2010PropOp40
 70
     1
102
RTVSPost2010Prop41ColorIndex
 90
       18
102
RTVSPost2010Prop41ColorRGB
 90
        0
102
RTVSPost2010PropOp41
 70
     1
102
RTVSPost2010Prop42
 90
       50
102
RTVSPost2010PropOp42
 70
     1
102
RTVSPost2010Prop43
 90
        3
102
RTVSPost2010PropOp43
 70
     1
102
RTVSPost2010Prop44ColorIndex
 90
        5
102
RTVSPost2010Prop44ColorRGB
 90
      255
102
RTVSPost2010PropOp44
 70
     1
102
RTVSPost2010Prop45
280
     0
102
RTVSPost2010PropOp45
 70
     1
102
RTVSPost2010Prop46
 90
       50
102
RTVSPost2010PropOp46
 70
     1
102
RTVSPost2010Prop47
 90
       50
102
RTVSPost2010PropOp47
 70
     1
102
RTVSPost2010Prop48
 90
       50
102
RTVSPost2010PropOp48
 70
     1
102
RTVSPost2010Prop49
280
     0
102
RTVSPost2010PropOp49
 70
     1
102
RTVSPost2010Prop50
 90
       50
102
RTVSPost2010PropOp50
 70
     1
102
RTVSPost2010Prop51ColorIndex
 90
      256
102
RTVSPost2010Prop51ColorRGB
 90
-16777216
102
RTVSPost2010PropOp51
 70
     0
102
RTVSPost2010Prop52
140
1.0
102
RTVSPost2010PropOp52
 70
     0
102
RTVSPost2010Prop53
 90
        2
102
RTVSPost2010PropOp53
 70
     1
102
RTVSPost2010Prop54
  1
strokes_ogs.tif
102
RTVSPost2010PropOp54
 70
     1
102
RTVSPost2010Prop55
280
     0
102
RTVSPost2010PropOp55
 70
     1
102
RTVSPost2010Prop56
140
1.0
102
RTVSPost2010PropOp56
 70
     1
102
RTVSPost2010Prop57
140
1.0
102
RTVSPost2010PropOp57
 70
     1
102
RTVSPropertyOp0
 70
     1
102
RTVSPropertyOp1
 70
     1
102
RTVSPropertyOp2
 70
     1
102
RTVSPropertyOp3
 70
     1
102
RTVSPropertyOp4
 70
     1
102
RTVSPropertyOp5
 70
     1
102
RTVSPropertyOp6
 70
     1
102
RTVSPropertyOp7
 70
     1
102
RTVSPropertyOp8
 70
     1
102
RTVSPropertyOp9
 70
     1
102
RTVSPropertyOp10
 70
     1
102
RTVSPropertyOp11
 70
     1
102
RTVSPropertyOp12
 70
     1
102
RTVSPropertyOp13
 70
     1
102
RTVSPropertyOp14
 70
     1
102
RTVSPropertyOp15
 70
     1
102
RTVSPropertyOp16
 70
     1
102
RTVSPropertyOp17
 70
     1
102
RTVSPropertyOp18
 70
     1
102
RTVSPropertyOp19
 70
     1
102
RTVSPropertyOp20
 70
     1
102
RTVSPropertyOp21
 70
     1
102
RTVSPropertyOp22
 70
     1
102
RTVSPropertyOp23
 70
     1
102
RTVSPropertyOp24
 70
     1
102
RTVSPropertyOp25
 70
     1
102
RTVSPropertyOp26
 70
     1
102
RTVSPropertyOp27
 70
     1
102
RTVSPropertyOp28
 70
     1
102
RTVSPropertyOp29
 70
     1
102
RTVSPropertyOp30
 70
     1
102
RTVSPropertyOp31
 70
     1
102
RTVSPropertyOp32
 70
     1
102
RTVSPropertyOp33
 70
     1
102
RTVSPropertyOp34
 70
     1
102
RTVSPropertyOp35
 70
     1
102
RTVSPropertyOp36
 70
     1
102
RTVSPropertyOp37
 70
     1
102
RTVSPropertyOp38
 70
     1
102
RTVSPropertyOp39
 70
     1
102
RTVSPropertyOp40
 70
     1
102
RTVSPropertyOp41
 70
     1
102
RTVSPropertyOp42
 70
     1
102
RTVSPropertyOp43
 70
     1
102
RTVSPropertyOp44
 70
     1
102
RTVSPropertyOp45
 70
     1
102
RTVSPropertyOp46
 70
     1
102
RTVSPropertyOp47
 70
     1
102
RTVSPropertyOp48
 70
     1
102
RTVSPropertyOp49
 70
     1
102
RTVSPropertyOp50
 70
     1
102
RTVSPropertyOp51
 70
     0
102
RTVSPropertyOp52
 70
     0
102
RTVSPropertyOp53
 70
     1
102
RTVSPropertyOp54
 70
     1
102
RTVSPropertyOp55
 70
     1
102
RTVSPropertyOp56
 70
     1
102
RTVSPropertyOp57
 70
     1
102
RTVSPropertyOp58
 70
     1
102
RTVSPropertyOp59
 70
     1
102
RTVSPropertyOp60
 70
     1
102
RTVSPropertyOp61
 70
     1
102
RTVSPropertyOp62
 70
     1
  0
XRECORD
  5
149A
102
{ACAD_REACTORS
330
1499
102
}
330
1499
100
AcDbXrecord
280
     1
102
RTVSPost2010Prop28
280
     0
102
RTVSPost2010PropOp28
 70
     1
102
RTVSPost2010Prop29
280
     1
102
RTVSPost2010PropOp29
 70
     1
102
RTVSPost2010Prop30
280
     1
102
RTVSPost2010PropOp30
 70
     1
102
RTVSPost2010Prop31
280
     0
102
RTVSPost2010PropOp31
 70
     1
102
RTVSPost2010Prop32
280
     0
102
RTVSPost2010PropOp32
 70
     1
102
RTVSPost2010Prop33
280
     0
102
RTVSPost2010PropOp33
 70
     1
102
RTVSPost2010Prop34
280
     0
102
RTVSPost2010PropOp34
 70
     1
102
RTVSPost2010Prop35
280
     0
102
RTVSPost2010PropOp35
 70
     1
102
RTVSPost2010Prop36
280
     0
102
RTVSPost2010PropOp36
 70
     1
102
RTVSPost2010Prop37
 90
       50
102
RTVSPost2010PropOp37
 70
     0
102
RTVSPost2010Prop38
140
0.0
102
RTVSPost2010PropOp38
 70
     0
102
RTVSPost2010Prop39
140
1.0
102
RTVSPost2010PropOp39
 70
     0
102
RTVSPost2010Prop40
 90
        0
102
RTVSPost2010PropOp40
 70
     0
102
RTVSPost2010Prop41ColorIndex
 90
       18
102
RTVSPost2010Prop41ColorRGB
 90
        0
102
RTVSPost2010PropOp41
 70
     0
102
RTVSPost2010Prop42
 90
       50
102
RTVSPost2010PropOp42
 70
     0
102
RTVSPost2010Prop43
 90
        3
102
RTVSPost2010PropOp43
 70
     0
102
RTVSPost2010Prop44ColorIndex
 90
        5
102
RTVSPost2010Prop44ColorRGB
 90
      255
102
RTVSPost2010PropOp44
 70
     0
102
RTVSPost2010Prop45
280
     0
102
RTVSPost2010PropOp45
 70
     1
102
RTVSPost2010Prop46
 90
       50
102
RTVSPost2010PropOp46
 70
     0
102
RTVSPost2010Prop47
 90
       50
102
RTVSPost2010PropOp47
 70
     0
102
RTVSPost2010Prop48
 90
       50
102
RTVSPost2010PropOp48
 70
     0
102
RTVSPost2010Prop49
280
     0
102
RTVSPost2010PropOp49
 70
     1
102
RTVSPost2010Prop50
 90
       50
102
RTVSPost2010PropOp50
 70
     0
102
RTVSPost2010Prop51ColorIndex
 90
      256
102
RTVSPost2010Prop51ColorRGB
 90
-16777216
102
RTVSPost2010PropOp51
 70
     0
102
RTVSPost2010Prop52
140
1.0
102
RTVSPost2010PropOp52
 70
     0
102
RTVSPost2010Prop53
 90
        2
102
RTVSPost2010PropOp53
 70
     0
102
RTVSPost2010Prop54
  1
strokes_ogs.tif
102
RTVSPost2010PropOp54
 70
     0
102
RTVSPost2010Prop55
280
     0
102
RTVSPost2010PropOp55
 70
     1
102
RTVSPost2010Prop56
140
1.0
102
RTVSPost2010PropOp56
 70
     0
102
RTVSPost2010Prop57
140
1.0
102
RTVSPost2010PropOp57
 70
     0
102
RTVSPropertyOp0
 70
     0
102
RTVSPropertyOp1
 70
     0
102
RTVSPropertyOp2
 70
     0
102
RTVSPropertyOp3
 70
     0
102
RTVSPropertyOp4
 70
     0
102
RTVSPropertyOp5
 70
     0
102
RTVSPropertyOp6
 70
     0
102
RTVSPropertyOp7
 70
     0
102
RTVSPropertyOp8
 70
     0
102
RTVSPropertyOp9
 70
     0
102
RTVSPropertyOp10
 70
     0
102
RTVSPropertyOp11
 70
     0
102
RTVSPropertyOp12
 70
     0
102
RTVSPropertyOp13
 70
     0
102
RTVSPropertyOp14
 70
     2
102
RTVSPropertyOp15
 70
     0
102
RTVSPropertyOp16
 70
     0
102
RTVSPropertyOp17
 70
     0
102
RTVSPropertyOp18
 70
     0
102
RTVSPropertyOp19
 70
     0
102
RTVSPropertyOp20
 70
     0
102
RTVSPropertyOp21
 70
     0
102
RTVSPropertyOp22
 70
     0
102
RTVSPropertyOp23
 70
     0
102
RTVSPropertyOp24
 70
     0
102
RTVSPropertyOp25
 70
     0
102
RTVSPropertyOp26
 70
     0
102
RTVSPropertyOp27
 70
     0
102
RTVSPropertyOp28
 70
     1
102
RTVSPropertyOp29
 70
     1
102
RTVSPropertyOp30
 70
     1
102
RTVSPropertyOp31
 70
     1
102
RTVSPropertyOp32
 70
     1
102
RTVSPropertyOp33
 70
     1
102
RTVSPropertyOp34
 70
     1
102
RTVSPropertyOp35
 70
     1
102
RTVSPropertyOp36
 70
     1
102
RTVSPropertyOp37
 70
     0
102
RTVSPropertyOp38
 70
     0
102
RTVSPropertyOp39
 70
     0
102
RTVSPropertyOp40
 70
     0
102
RTVSPropertyOp41
 70
     0
102
RTVSPropertyOp42
 70
     0
102
RTVSPropertyOp43
 70
     0
102
RTVSPropertyOp44
 70
     0
102
RTVSPropertyOp45
 70
     1
102
RTVSPropertyOp46
 70
     0
102
RTVSPropertyOp47
 70
     0
102
RTVSPropertyOp48
 70
     0
102
RTVSPropertyOp49
 70
     1
102
RTVSPropertyOp50
 70
     0
102
RTVSPropertyOp51
 70
     0
102
RTVSPropertyOp52
 70
     0
102
RTVSPropertyOp53
 70
     0
102
RTVSPropertyOp54
 70
     0
102
RTVSPropertyOp55
 70
     1
102
RTVSPropertyOp56
 70
     0
102
RTVSPropertyOp57
 70
     0
102
RTVSPropertyOp58
 70
     0
102
RTVSPropertyOp59
 70
     0
102
RTVSPropertyOp60
 70
     0
102
RTVSPropertyOp61
 70
     0
102
RTVSPropertyOp62
 70
     0
  0
XRECORD
  5
1480
102
{ACAD_REACTORS
330
147F
102
}
330
147F
100
AcDbXrecord
280
     1
102
RTVSPost2010Prop28
280
     0
102
RTVSPost2010PropOp28
 70
     1
102
RTVSPost2010Prop29
280
     1
102
RTVSPost2010PropOp29
 70
     1
102
RTVSPost2010Prop30
280
     1
102
RTVSPost2010PropOp30
 70
     1
102
RTVSPost2010Prop31
280
     0
102
RTVSPost2010PropOp31
 70
     1
102
RTVSPost2010Prop32
280
     0
102
RTVSPost2010PropOp32
 70
     1
102
RTVSPost2010Prop33
280
     0
102
RTVSPost2010PropOp33
 70
     1
102
RTVSPost2010Prop34
280
     0
102
RTVSPost2010PropOp34
 70
     1
102
RTVSPost2010Prop35
280
     0
102
RTVSPost2010PropOp35
 70
     1
102
RTVSPost2010Prop36
280
     0
102
RTVSPost2010PropOp36
 70
     1
102
RTVSPost2010Prop37
 90
       50
102
RTVSPost2010PropOp37
 70
     1
102
RTVSPost2010Prop38
140
0.0
102
RTVSPost2010PropOp38
 70
     1
102
RTVSPost2010Prop39
140
1.0
102
RTVSPost2010PropOp39
 70
     1
102
RTVSPost2010Prop40
 90
        0
102
RTVSPost2010PropOp40
 70
     1
102
RTVSPost2010Prop41ColorIndex
 90
       18
102
RTVSPost2010Prop41ColorRGB
 90
        0
102
RTVSPost2010PropOp41
 70
     1
102
RTVSPost2010Prop42
 90
       50
102
RTVSPost2010PropOp42
 70
     1
102
RTVSPost2010Prop43
 90
        3
102
RTVSPost2010PropOp43
 70
     1
102
RTVSPost2010Prop44ColorIndex
 90
        5
102
RTVSPost2010Prop44ColorRGB
 90
      255
102
RTVSPost2010PropOp44
 70
     1
102
RTVSPost2010Prop45
280
     0
102
RTVSPost2010PropOp45
 70
     1
102
RTVSPost2010Prop46
 90
       50
102
RTVSPost2010PropOp46
 70
     1
102
RTVSPost2010Prop47
 90
       50
102
RTVSPost2010PropOp47
 70
     1
102
RTVSPost2010Prop48
 90
       50
102
RTVSPost2010PropOp48
 70
     1
102
RTVSPost2010Prop49
280
     0
102
RTVSPost2010PropOp49
 70
     1
102
RTVSPost2010Prop50
 90
       50
102
RTVSPost2010PropOp50
 70
     1
102
RTVSPost2010Prop51ColorIndex
 90
      256
102
RTVSPost2010Prop51ColorRGB
 90
-16777216
102
RTVSPost2010PropOp51
 70
     0
102
RTVSPost2010Prop52
140
1.0
102
RTVSPost2010PropOp52
 70
     0
102
RTVSPost2010Prop53
 90
        2
102
RTVSPost2010PropOp53
 70
     1
102
RTVSPost2010Prop54
  1
strokes_ogs.tif
102
RTVSPost2010PropOp54
 70
     1
102
RTVSPost2010Prop55
280
     0
102
RTVSPost2010PropOp55
 70
     1
102
RTVSPost2010Prop56
140
1.0
102
RTVSPost2010PropOp56
 70
     1
102
RTVSPost2010Prop57
140
1.0
102
RTVSPost2010PropOp57
 70
     1
102
RTVSPropertyOp0
 70
     1
102
RTVSPropertyOp1
 70
     1
102
RTVSPropertyOp2
 70
     1
102
RTVSPropertyOp3
 70
     1
102
RTVSPropertyOp4
 70
     1
102
RTVSPropertyOp5
 70
     1
102
RTVSPropertyOp6
 70
     1
102
RTVSPropertyOp7
 70
     1
102
RTVSPropertyOp8
 70
     1
102
RTVSPropertyOp9
 70
     1
102
RTVSPropertyOp10
 70
     1
102
RTVSPropertyOp11
 70
     1
102
RTVSPropertyOp12
 70
     1
102
RTVSPropertyOp13
 70
     1
102
RTVSPropertyOp14
 70
     1
102
RTVSPropertyOp15
 70
     1
102
RTVSPropertyOp16
 70
     1
102
RTVSPropertyOp17
 70
     1
102
RTVSPropertyOp18
 70
     1
102
RTVSPropertyOp19
 70
     1
102
RTVSPropertyOp20
 70
     1
102
RTVSPropertyOp21
 70
     1
102
RTVSPropertyOp22
 70
     1
102
RTVSPropertyOp23
 70
     1
102
RTVSPropertyOp24
 70
     1
102
RTVSPropertyOp25
 70
     1
102
RTVSPropertyOp26
 70
     1
102
RTVSPropertyOp27
 70
     1
102
RTVSPropertyOp28
 70
     1
102
RTVSPropertyOp29
 70
     1
102
RTVSPropertyOp30
 70
     1
102
RTVSPropertyOp31
 70
     1
102
RTVSPropertyOp32
 70
     1
102
RTVSPropertyOp33
 70
     1
102
RTVSPropertyOp34
 70
     1
102
RTVSPropertyOp35
 70
     1
102
RTVSPropertyOp36
 70
     1
102
RTVSPropertyOp37
 70
     1
102
RTVSPropertyOp38
 70
     1
102
RTVSPropertyOp39
 70
     1
102
RTVSPropertyOp40
 70
     1
102
RTVSPropertyOp41
 70
     1
102
RTVSPropertyOp42
 70
     1
102
RTVSPropertyOp43
 70
     1
102
RTVSPropertyOp44
 70
     1
102
RTVSPropertyOp45
 70
     1
102
RTVSPropertyOp46
 70
     1
102
RTVSPropertyOp47
 70
     1
102
RTVSPropertyOp48
 70
     1
102
RTVSPropertyOp49
 70
     1
102
RTVSPropertyOp50
 70
     1
102
RTVSPropertyOp51
 70
     0
102
RTVSPropertyOp52
 70
     0
102
RTVSPropertyOp53
 70
     1
102
RTVSPropertyOp54
 70
     1
102
RTVSPropertyOp55
 70
     1
102
RTVSPropertyOp56
 70
     1
102
RTVSPropertyOp57
 70
     1
102
RTVSPropertyOp58
 70
     1
102
RTVSPropertyOp59
 70
     1
102
RTVSPropertyOp60
 70
     1
102
RTVSPropertyOp61
 70
     1
102
RTVSPropertyOp62
 70
     1
  0
XRECORD
  5
1496
102
{ACAD_REACTORS
330
1495
102
}
330
1495
100
AcDbXrecord
280
     1
102
RTVSPost2010Prop28
280
     0
102
RTVSPost2010PropOp28
 70
     1
102
RTVSPost2010Prop29
280
     1
102
RTVSPost2010PropOp29
 70
     1
102
RTVSPost2010Prop30
280
     1
102
RTVSPost2010PropOp30
 70
     1
102
RTVSPost2010Prop31
280
     0
102
RTVSPost2010PropOp31
 70
     1
102
RTVSPost2010Prop32
280
     0
102
RTVSPost2010PropOp32
 70
     1
102
RTVSPost2010Prop33
280
     0
102
RTVSPost2010PropOp33
 70
     1
102
RTVSPost2010Prop34
280
     0
102
RTVSPost2010PropOp34
 70
     1
102
RTVSPost2010Prop35
280
     0
102
RTVSPost2010PropOp35
 70
     1
102
RTVSPost2010Prop36
280
     0
102
RTVSPost2010PropOp36
 70
     1
102
RTVSPost2010Prop37
 90
       50
102
RTVSPost2010PropOp37
 70
     1
102
RTVSPost2010Prop38
140
0.0
102
RTVSPost2010PropOp38
 70
     1
102
RTVSPost2010Prop39
140
1.0
102
RTVSPost2010PropOp39
 70
     1
102
RTVSPost2010Prop40
 90
        0
102
RTVSPost2010PropOp40
 70
     1
102
RTVSPost2010Prop41ColorIndex
 90
       18
102
RTVSPost2010Prop41ColorRGB
 90
        0
102
RTVSPost2010PropOp41
 70
     1
102
RTVSPost2010Prop42
 90
       50
102
RTVSPost2010PropOp42
 70
     1
102
RTVSPost2010Prop43
 90
        3
102
RTVSPost2010PropOp43
 70
     1
102
RTVSPost2010Prop44ColorIndex
 90
        5
102
RTVSPost2010Prop44ColorRGB
 90
      255
102
RTVSPost2010PropOp44
 70
     1
102
RTVSPost2010Prop45
280
     0
102
RTVSPost2010PropOp45
 70
     1
102
RTVSPost2010Prop46
 90
       50
102
RTVSPost2010PropOp46
 70
     1
102
RTVSPost2010Prop47
 90
       50
102
RTVSPost2010PropOp47
 70
     1
102
RTVSPost2010Prop48
 90
       50
102
RTVSPost2010PropOp48
 70
     1
102
RTVSPost2010Prop49
280
     0
102
RTVSPost2010PropOp49
 70
     1
102
RTVSPost2010Prop50
 90
       50
102
RTVSPost2010PropOp50
 70
     1
102
RTVSPost2010Prop51ColorIndex
 90
      256
102
RTVSPost2010Prop51ColorRGB
 90
-16777216
102
RTVSPost2010PropOp51
 70
     0
102
RTVSPost2010Prop52
140
1.0
102
RTVSPost2010PropOp52
 70
     0
102
RTVSPost2010Prop53
 90
        2
102
RTVSPost2010PropOp53
 70
     1
102
RTVSPost2010Prop54
  1
strokes_ogs.tif
102
RTVSPost2010PropOp54
 70
     1
102
RTVSPost2010Prop55
280
     0
102
RTVSPost2010PropOp55
 70
     1
102
RTVSPost2010Prop56
140
1.0
102
RTVSPost2010PropOp56
 70
     1
102
RTVSPost2010Prop57
140
1.0
102
RTVSPost2010PropOp57
 70
     1
102
RTVSPropertyOp0
 70
     1
102
RTVSPropertyOp1
 70
     1
102
RTVSPropertyOp2
 70
     1
102
RTVSPropertyOp3
 70
     1
102
RTVSPropertyOp4
 70
     1
102
RTVSPropertyOp5
 70
     1
102
RTVSPropertyOp6
 70
     1
102
RTVSPropertyOp7
 70
     1
102
RTVSPropertyOp8
 70
     1
102
RTVSPropertyOp9
 70
     1
102
RTVSPropertyOp10
 70
     1
102
RTVSPropertyOp11
 70
     1
102
RTVSPropertyOp12
 70
     1
102
RTVSPropertyOp13
 70
     1
102
RTVSPropertyOp14
 70
     1
102
RTVSPropertyOp15
 70
     1
102
RTVSPropertyOp16
 70
     1
102
RTVSPropertyOp17
 70
     1
102
RTVSPropertyOp18
 70
     1
102
RTVSPropertyOp19
 70
     1
102
RTVSPropertyOp20
 70
     1
102
RTVSPropertyOp21
 70
     1
102
RTVSPropertyOp22
 70
     1
102
RTVSPropertyOp23
 70
     1
102
RTVSPropertyOp24
 70
     1
102
RTVSPropertyOp25
 70
     1
102
RTVSPropertyOp26
 70
     1
102
RTVSPropertyOp27
 70
     1
102
RTVSPropertyOp28
 70
     1
102
RTVSPropertyOp29
 70
     1
102
RTVSPropertyOp30
 70
     1
102
RTVSPropertyOp31
 70
     1
102
RTVSPropertyOp32
 70
     1
102
RTVSPropertyOp33
 70
     1
102
RTVSPropertyOp34
 70
     1
102
RTVSPropertyOp35
 70
     1
102
RTVSPropertyOp36
 70
     1
102
RTVSPropertyOp37
 70
     1
102
RTVSPropertyOp38
 70
     1
102
RTVSPropertyOp39
 70
     1
102
RTVSPropertyOp40
 70
     1
102
RTVSPropertyOp41
 70
     1
102
RTVSPropertyOp42
 70
     1
102
RTVSPropertyOp43
 70
     1
102
RTVSPropertyOp44
 70
     1
102
RTVSPropertyOp45
 70
     1
102
RTVSPropertyOp46
 70
     1
102
RTVSPropertyOp47
 70
     1
102
RTVSPropertyOp48
 70
     1
102
RTVSPropertyOp49
 70
     1
102
RTVSPropertyOp50
 70
     1
102
RTVSPropertyOp51
 70
     0
102
RTVSPropertyOp52
 70
     0
102
RTVSPropertyOp53
 70
     1
102
RTVSPropertyOp54
 70
     1
102
RTVSPropertyOp55
 70
     1
102
RTVSPropertyOp56
 70
     1
102
RTVSPropertyOp57
 70
     1
102
RTVSPropertyOp58
 70
     1
102
RTVSPropertyOp59
 70
     1
102
RTVSPropertyOp60
 70
     1
102
RTVSPropertyOp61
 70
     1
102
RTVSPropertyOp62
 70
     1
  0
XRECORD
  5
1494
102
{ACAD_REACTORS
330
1493
102
}
330
1493
100
AcDbXrecord
280
     1
102
RTVSPost2010Prop28
280
     0
102
RTVSPost2010PropOp28
 70
     1
102
RTVSPost2010Prop29
280
     1
102
RTVSPost2010PropOp29
 70
     1
102
RTVSPost2010Prop30
280
     1
102
RTVSPost2010PropOp30
 70
     1
102
RTVSPost2010Prop31
280
     0
102
RTVSPost2010PropOp31
 70
     1
102
RTVSPost2010Prop32
280
     0
102
RTVSPost2010PropOp32
 70
     1
102
RTVSPost2010Prop33
280
     0
102
RTVSPost2010PropOp33
 70
     1
102
RTVSPost2010Prop34
280
     0
102
RTVSPost2010PropOp34
 70
     1
102
RTVSPost2010Prop35
280
     0
102
RTVSPost2010PropOp35
 70
     1
102
RTVSPost2010Prop36
280
     0
102
RTVSPost2010PropOp36
 70
     1
102
RTVSPost2010Prop37
 90
       50
102
RTVSPost2010PropOp37
 70
     1
102
RTVSPost2010Prop38
140
0.0
102
RTVSPost2010PropOp38
 70
     1
102
RTVSPost2010Prop39
140
1.0
102
RTVSPost2010PropOp39
 70
     1
102
RTVSPost2010Prop40
 90
        0
102
RTVSPost2010PropOp40
 70
     1
102
RTVSPost2010Prop41ColorIndex
 90
       18
102
RTVSPost2010Prop41ColorRGB
 90
        0
102
RTVSPost2010PropOp41
 70
     1
102
RTVSPost2010Prop42
 90
       50
102
RTVSPost2010PropOp42
 70
     1
102
RTVSPost2010Prop43
 90
        3
102
RTVSPost2010PropOp43
 70
     1
102
RTVSPost2010Prop44ColorIndex
 90
        5
102
RTVSPost2010Prop44ColorRGB
 90
      255
102
RTVSPost2010PropOp44
 70
     1
102
RTVSPost2010Prop45
280
     0
102
RTVSPost2010PropOp45
 70
     1
102
RTVSPost2010Prop46
 90
       50
102
RTVSPost2010PropOp46
 70
     1
102
RTVSPost2010Prop47
 90
       50
102
RTVSPost2010PropOp47
 70
     1
102
RTVSPost2010Prop48
 90
       50
102
RTVSPost2010PropOp48
 70
     1
102
RTVSPost2010Prop49
280
     0
102
RTVSPost2010PropOp49
 70
     1
102
RTVSPost2010Prop50
 90
       50
102
RTVSPost2010PropOp50
 70
     1
102
RTVSPost2010Prop51ColorIndex
 90
      256
102
RTVSPost2010Prop51ColorRGB
 90
-16777216
102
RTVSPost2010PropOp51
 70
     0
102
RTVSPost2010Prop52
140
1.0
102
RTVSPost2010PropOp52
 70
     0
102
RTVSPost2010Prop53
 90
        2
102
RTVSPost2010PropOp53
 70
     1
102
RTVSPost2010Prop54
  1
strokes_ogs.tif
102
RTVSPost2010PropOp54
 70
     1
102
RTVSPost2010Prop55
280
     0
102
RTVSPost2010PropOp55
 70
     1
102
RTVSPost2010Prop56
140
1.0
102
RTVSPost2010PropOp56
 70
     1
102
RTVSPost2010Prop57
140
1.0
102
RTVSPost2010PropOp57
 70
     1
102
RTVSPropertyOp0
 70
     1
102
RTVSPropertyOp1
 70
     1
102
RTVSPropertyOp2
 70
     1
102
RTVSPropertyOp3
 70
     1
102
RTVSPropertyOp4
 70
     1
102
RTVSPropertyOp5
 70
     1
102
RTVSPropertyOp6
 70
     1
102
RTVSPropertyOp7
 70
     1
102
RTVSPropertyOp8
 70
     1
102
RTVSPropertyOp9
 70
     1
102
RTVSPropertyOp10
 70
     1
102
RTVSPropertyOp11
 70
     1
102
RTVSPropertyOp12
 70
     1
102
RTVSPropertyOp13
 70
     1
102
RTVSPropertyOp14
 70
     1
102
RTVSPropertyOp15
 70
     1
102
RTVSPropertyOp16
 70
     1
102
RTVSPropertyOp17
 70
     1
102
RTVSPropertyOp18
 70
     1
102
RTVSPropertyOp19
 70
     1
102
RTVSPropertyOp20
 70
     1
102
RTVSPropertyOp21
 70
     1
102
RTVSPropertyOp22
 70
     1
102
RTVSPropertyOp23
 70
     1
102
RTVSPropertyOp24
 70
     1
102
RTVSPropertyOp25
 70
     1
102
RTVSPropertyOp26
 70
     1
102
RTVSPropertyOp27
 70
     1
102
RTVSPropertyOp28
 70
     1
102
RTVSPropertyOp29
 70
     1
102
RTVSPropertyOp30
 70
     1
102
RTVSPropertyOp31
 70
     1
102
RTVSPropertyOp32
 70
     1
102
RTVSPropertyOp33
 70
     1
102
RTVSPropertyOp34
 70
     1
102
RTVSPropertyOp35
 70
     1
102
RTVSPropertyOp36
 70
     1
102
RTVSPropertyOp37
 70
     1
102
RTVSPropertyOp38
 70
     1
102
RTVSPropertyOp39
 70
     1
102
RTVSPropertyOp40
 70
     1
102
RTVSPropertyOp41
 70
     1
102
RTVSPropertyOp42
 70
     1
102
RTVSPropertyOp43
 70
     1
102
RTVSPropertyOp44
 70
     1
102
RTVSPropertyOp45
 70
     1
102
RTVSPropertyOp46
 70
     1
102
RTVSPropertyOp47
 70
     1
102
RTVSPropertyOp48
 70
     1
102
RTVSPropertyOp49
 70
     1
102
RTVSPropertyOp50
 70
     1
102
RTVSPropertyOp51
 70
     0
102
RTVSPropertyOp52
 70
     0
102
RTVSPropertyOp53
 70
     1
102
RTVSPropertyOp54
 70
     1
102
RTVSPropertyOp55
 70
     1
102
RTVSPropertyOp56
 70
     1
102
RTVSPropertyOp57
 70
     1
102
RTVSPropertyOp58
 70
     1
102
RTVSPropertyOp59
 70
     1
102
RTVSPropertyOp60
 70
     1
102
RTVSPropertyOp61
 70
     1
102
RTVSPropertyOp62
 70
     1
  0
XRECORD
  5
148E
102
{ACAD_REACTORS
330
148D
102
}
330
148D
100
AcDbXrecord
280
     1
102
RTVSPost2010Prop28
280
     0
102
RTVSPost2010PropOp28
 70
     1
102
RTVSPost2010Prop29
280
     1
102
RTVSPost2010PropOp29
 70
     1
102
RTVSPost2010Prop30
280
     1
102
RTVSPost2010PropOp30
 70
     1
102
RTVSPost2010Prop31
280
     0
102
RTVSPost2010PropOp31
 70
     1
102
RTVSPost2010Prop32
280
     0
102
RTVSPost2010PropOp32
 70
     1
102
RTVSPost2010Prop33
280
     0
102
RTVSPost2010PropOp33
 70
     1
102
RTVSPost2010Prop34
280
     0
102
RTVSPost2010PropOp34
 70
     1
102
RTVSPost2010Prop35
280
     0
102
RTVSPost2010PropOp35
 70
     1
102
RTVSPost2010Prop36
280
     0
102
RTVSPost2010PropOp36
 70
     1
102
RTVSPost2010Prop37
 90
       50
102
RTVSPost2010PropOp37
 70
     1
102
RTVSPost2010Prop38
140
0.0
102
RTVSPost2010PropOp38
 70
     1
102
RTVSPost2010Prop39
140
1.0
102
RTVSPost2010PropOp39
 70
     1
102
RTVSPost2010Prop40
 90
        0
102
RTVSPost2010PropOp40
 70
     1
102
RTVSPost2010Prop41ColorIndex
 90
       18
102
RTVSPost2010Prop41ColorRGB
 90
        0
102
RTVSPost2010PropOp41
 70
     1
102
RTVSPost2010Prop42
 90
       50
102
RTVSPost2010PropOp42
 70
     1
102
RTVSPost2010Prop43
 90
        3
102
RTVSPost2010PropOp43
 70
     1
102
RTVSPost2010Prop44ColorIndex
 90
        5
102
RTVSPost2010Prop44ColorRGB
 90
      255
102
RTVSPost2010PropOp44
 70
     1
102
RTVSPost2010Prop45
280
     0
102
RTVSPost2010PropOp45
 70
     1
102
RTVSPost2010Prop46
 90
       50
102
RTVSPost2010PropOp46
 70
     1
102
RTVSPost2010Prop47
 90
       50
102
RTVSPost2010PropOp47
 70
     1
102
RTVSPost2010Prop48
 90
       50
102
RTVSPost2010PropOp48
 70
     1
102
RTVSPost2010Prop49
280
     0
102
RTVSPost2010PropOp49
 70
     1
102
RTVSPost2010Prop50
 90
       50
102
RTVSPost2010PropOp50
 70
     1
102
RTVSPost2010Prop51ColorIndex
 90
      256
102
RTVSPost2010Prop51ColorRGB
 90
-16777216
102
RTVSPost2010PropOp51
 70
     0
102
RTVSPost2010Prop52
140
1.0
102
RTVSPost2010PropOp52
 70
     0
102
RTVSPost2010Prop53
 90
        2
102
RTVSPost2010PropOp53
 70
     1
102
RTVSPost2010Prop54
  1
strokes_ogs.tif
102
RTVSPost2010PropOp54
 70
     1
102
RTVSPost2010Prop55
280
     0
102
RTVSPost2010PropOp55
 70
     1
102
RTVSPost2010Prop56
140
1.0
102
RTVSPost2010PropOp56
 70
     1
102
RTVSPost2010Prop57
140
1.0
102
RTVSPost2010PropOp57
 70
     1
102
RTVSPropertyOp0
 70
     1
102
RTVSPropertyOp1
 70
     1
102
RTVSPropertyOp2
 70
     1
102
RTVSPropertyOp3
 70
     1
102
RTVSPropertyOp4
 70
     1
102
RTVSPropertyOp5
 70
     1
102
RTVSPropertyOp6
 70
     1
102
RTVSPropertyOp7
 70
     1
102
RTVSPropertyOp8
 70
     1
102
RTVSPropertyOp9
 70
     1
102
RTVSPropertyOp10
 70
     1
102
RTVSPropertyOp11
 70
     1
102
RTVSPropertyOp12
 70
     1
102
RTVSPropertyOp13
 70
     1
102
RTVSPropertyOp14
 70
     1
102
RTVSPropertyOp15
 70
     1
102
RTVSPropertyOp16
 70
     1
102
RTVSPropertyOp17
 70
     1
102
RTVSPropertyOp18
 70
     1
102
RTVSPropertyOp19
 70
     1
102
RTVSPropertyOp20
 70
     1
102
RTVSPropertyOp21
 70
     1
102
RTVSPropertyOp22
 70
     1
102
RTVSPropertyOp23
 70
     1
102
RTVSPropertyOp24
 70
     1
102
RTVSPropertyOp25
 70
     1
102
RTVSPropertyOp26
 70
     1
102
RTVSPropertyOp27
 70
     1
102
RTVSPropertyOp28
 70
     1
102
RTVSPropertyOp29
 70
     1
102
RTVSPropertyOp30
 70
     1
102
RTVSPropertyOp31
 70
     1
102
RTVSPropertyOp32
 70
     1
102
RTVSPropertyOp33
 70
     1
102
RTVSPropertyOp34
 70
     1
102
RTVSPropertyOp35
 70
     1
102
RTVSPropertyOp36
 70
     1
102
RTVSPropertyOp37
 70
     1
102
RTVSPropertyOp38
 70
     1
102
RTVSPropertyOp39
 70
     1
102
RTVSPropertyOp40
 70
     1
102
RTVSPropertyOp41
 70
     1
102
RTVSPropertyOp42
 70
     1
102
RTVSPropertyOp43
 70
     1
102
RTVSPropertyOp44
 70
     1
102
RTVSPropertyOp45
 70
     1
102
RTVSPropertyOp46
 70
     1
102
RTVSPropertyOp47
 70
     1
102
RTVSPropertyOp48
 70
     1
102
RTVSPropertyOp49
 70
     1
102
RTVSPropertyOp50
 70
     1
102
RTVSPropertyOp51
 70
     0
102
RTVSPropertyOp52
 70
     0
102
RTVSPropertyOp53
 70
     1
102
RTVSPropertyOp54
 70
     1
102
RTVSPropertyOp55
 70
     1
102
RTVSPropertyOp56
 70
     1
102
RTVSPropertyOp57
 70
     1
102
RTVSPropertyOp58
 70
     1
102
RTVSPropertyOp59
 70
     1
102
RTVSPropertyOp60
 70
     1
102
RTVSPropertyOp61
 70
     1
102
RTVSPropertyOp62
 70
     1
  0
XRECORD
  5
1490
102
{ACAD_REACTORS
330
148F
102
}
330
148F
100
AcDbXrecord
280
     1
102
RTVSPost2010Prop28
280
     0
102
RTVSPost2010PropOp28
 70
     1
102
RTVSPost2010Prop29
280
     1
102
RTVSPost2010PropOp29
 70
     1
102
RTVSPost2010Prop30
280
     1
102
RTVSPost2010PropOp30
 70
     1
102
RTVSPost2010Prop31
280
     0
102
RTVSPost2010PropOp31
 70
     1
102
RTVSPost2010Prop32
280
     0
102
RTVSPost2010PropOp32
 70
     1
102
RTVSPost2010Prop33
280
     0
102
RTVSPost2010PropOp33
 70
     1
102
RTVSPost2010Prop34
280
     0
102
RTVSPost2010PropOp34
 70
     1
102
RTVSPost2010Prop35
280
     0
102
RTVSPost2010PropOp35
 70
     1
102
RTVSPost2010Prop36
280
     0
102
RTVSPost2010PropOp36
 70
     1
102
RTVSPost2010Prop37
 90
       50
102
RTVSPost2010PropOp37
 70
     1
102
RTVSPost2010Prop38
140
0.0
102
RTVSPost2010PropOp38
 70
     1
102
RTVSPost2010Prop39
140
1.0
102
RTVSPost2010PropOp39
 70
     1
102
RTVSPost2010Prop40
 90
        0
102
RTVSPost2010PropOp40
 70
     1
102
RTVSPost2010Prop41ColorIndex
 90
       18
102
RTVSPost2010Prop41ColorRGB
 90
        0
102
RTVSPost2010PropOp41
 70
     1
102
RTVSPost2010Prop42
 90
       50
102
RTVSPost2010PropOp42
 70
     1
102
RTVSPost2010Prop43
 90
        3
102
RTVSPost2010PropOp43
 70
     1
102
RTVSPost2010Prop44ColorIndex
 90
        5
102
RTVSPost2010Prop44ColorRGB
 90
      255
102
RTVSPost2010PropOp44
 70
     1
102
RTVSPost2010Prop45
280
     0
102
RTVSPost2010PropOp45
 70
     1
102
RTVSPost2010Prop46
 90
       50
102
RTVSPost2010PropOp46
 70
     1
102
RTVSPost2010Prop47
 90
       50
102
RTVSPost2010PropOp47
 70
     1
102
RTVSPost2010Prop48
 90
       50
102
RTVSPost2010PropOp48
 70
     1
102
RTVSPost2010Prop49
280
     0
102
RTVSPost2010PropOp49
 70
     1
102
RTVSPost2010Prop50
 90
       50
102
RTVSPost2010PropOp50
 70
     1
102
RTVSPost2010Prop51ColorIndex
 90
      256
102
RTVSPost2010Prop51ColorRGB
 90
-16777216
102
RTVSPost2010PropOp51
 70
     0
102
RTVSPost2010Prop52
140
1.0
102
RTVSPost2010PropOp52
 70
     0
102
RTVSPost2010Prop53
 90
        2
102
RTVSPost2010PropOp53
 70
     1
102
RTVSPost2010Prop54
  1
strokes_ogs.tif
102
RTVSPost2010PropOp54
 70
     1
102
RTVSPost2010Prop55
280
     0
102
RTVSPost2010PropOp55
 70
     1
102
RTVSPost2010Prop56
140
1.0
102
RTVSPost2010PropOp56
 70
     1
102
RTVSPost2010Prop57
140
1.0
102
RTVSPost2010PropOp57
 70
     1
102
RTVSPropertyOp0
 70
     1
102
RTVSPropertyOp1
 70
     1
102
RTVSPropertyOp2
 70
     1
102
RTVSPropertyOp3
 70
     1
102
RTVSPropertyOp4
 70
     1
102
RTVSPropertyOp5
 70
     1
102
RTVSPropertyOp6
 70
     1
102
RTVSPropertyOp7
 70
     1
102
RTVSPropertyOp8
 70
     1
102
RTVSPropertyOp9
 70
     1
102
RTVSPropertyOp10
 70
     1
102
RTVSPropertyOp11
 70
     1
102
RTVSPropertyOp12
 70
     1
102
RTVSPropertyOp13
 70
     1
102
RTVSPropertyOp14
 70
     1
102
RTVSPropertyOp15
 70
     1
102
RTVSPropertyOp16
 70
     1
102
RTVSPropertyOp17
 70
     1
102
RTVSPropertyOp18
 70
     1
102
RTVSPropertyOp19
 70
     1
102
RTVSPropertyOp20
 70
     1
102
RTVSPropertyOp21
 70
     1
102
RTVSPropertyOp22
 70
     1
102
RTVSPropertyOp23
 70
     1
102
RTVSPropertyOp24
 70
     1
102
RTVSPropertyOp25
 70
     1
102
RTVSPropertyOp26
 70
     1
102
RTVSPropertyOp27
 70
     1
102
RTVSPropertyOp28
 70
     1
102
RTVSPropertyOp29
 70
     1
102
RTVSPropertyOp30
 70
     1
102
RTVSPropertyOp31
 70
     1
102
RTVSPropertyOp32
 70
     1
102
RTVSPropertyOp33
 70
     1
102
RTVSPropertyOp34
 70
     1
102
RTVSPropertyOp35
 70
     1
102
RTVSPropertyOp36
 70
     1
102
RTVSPropertyOp37
 70
     1
102
RTVSPropertyOp38
 70
     1
102
RTVSPropertyOp39
 70
     1
102
RTVSPropertyOp40
 70
     1
102
RTVSPropertyOp41
 70
     1
102
RTVSPropertyOp42
 70
     1
102
RTVSPropertyOp43
 70
     1
102
RTVSPropertyOp44
 70
     1
102
RTVSPropertyOp45
 70
     1
102
RTVSPropertyOp46
 70
     1
102
RTVSPropertyOp47
 70
     1
102
RTVSPropertyOp48
 70
     1
102
RTVSPropertyOp49
 70
     1
102
RTVSPropertyOp50
 70
     1
102
RTVSPropertyOp51
 70
     0
102
RTVSPropertyOp52
 70
     0
102
RTVSPropertyOp53
 70
     1
102
RTVSPropertyOp54
 70
     1
102
RTVSPropertyOp55
 70
     1
102
RTVSPropertyOp56
 70
     1
102
RTVSPropertyOp57
 70
     1
102
RTVSPropertyOp58
 70
     1
102
RTVSPropertyOp59
 70
     1
102
RTVSPropertyOp60
 70
     1
102
RTVSPropertyOp61
 70
     1
102
RTVSPropertyOp62
 70
     1
  0
XRECORD
  5
1486
102
{ACAD_REACTORS
330
1485
102
}
330
1485
100
AcDbXrecord
280
     1
102
RTVSPost2010Prop28
280
     0
102
RTVSPost2010PropOp28
 70
     1
102
RTVSPost2010Prop29
280
     1
102
RTVSPost2010PropOp29
 70
     1
102
RTVSPost2010Prop30
280
     1
102
RTVSPost2010PropOp30
 70
     1
102
RTVSPost2010Prop31
280
     0
102
RTVSPost2010PropOp31
 70
     1
102
RTVSPost2010Prop32
280
     0
102
RTVSPost2010PropOp32
 70
     1
102
RTVSPost2010Prop33
280
     0
102
RTVSPost2010PropOp33
 70
     1
102
RTVSPost2010Prop34
280
     0
102
RTVSPost2010PropOp34
 70
     1
102
RTVSPost2010Prop35
280
     0
102
RTVSPost2010PropOp35
 70
     1
102
RTVSPost2010Prop36
280
     0
102
RTVSPost2010PropOp36
 70
     1
102
RTVSPost2010Prop37
 90
       50
102
RTVSPost2010PropOp37
 70
     1
102
RTVSPost2010Prop38
140
0.0
102
RTVSPost2010PropOp38
 70
     1
102
RTVSPost2010Prop39
140
1.0
102
RTVSPost2010PropOp39
 70
     1
102
RTVSPost2010Prop40
 90
        0
102
RTVSPost2010PropOp40
 70
     1
102
RTVSPost2010Prop41ColorIndex
 90
       18
102
RTVSPost2010Prop41ColorRGB
 90
        0
102
RTVSPost2010PropOp41
 70
     1
102
RTVSPost2010Prop42
 90
       50
102
RTVSPost2010PropOp42
 70
     1
102
RTVSPost2010Prop43
 90
        3
102
RTVSPost2010PropOp43
 70
     1
102
RTVSPost2010Prop44ColorIndex
 90
        5
102
RTVSPost2010Prop44ColorRGB
 90
      255
102
RTVSPost2010PropOp44
 70
     1
102
RTVSPost2010Prop45
280
     0
102
RTVSPost2010PropOp45
 70
     1
102
RTVSPost2010Prop46
 90
       50
102
RTVSPost2010PropOp46
 70
     1
102
RTVSPost2010Prop47
 90
       50
102
RTVSPost2010PropOp47
 70
     1
102
RTVSPost2010Prop48
 90
       50
102
RTVSPost2010PropOp48
 70
     1
102
RTVSPost2010Prop49
280
     0
102
RTVSPost2010PropOp49
 70
     1
102
RTVSPost2010Prop50
 90
       50
102
RTVSPost2010PropOp50
 70
     1
102
RTVSPost2010Prop51ColorIndex
 90
      256
102
RTVSPost2010Prop51ColorRGB
 90
-16777216
102
RTVSPost2010PropOp51
 70
     0
102
RTVSPost2010Prop52
140
1.0
102
RTVSPost2010PropOp52
 70
     0
102
RTVSPost2010Prop53
 90
        2
102
RTVSPost2010PropOp53
 70
     1
102
RTVSPost2010Prop54
  1
strokes_ogs.tif
102
RTVSPost2010PropOp54
 70
     1
102
RTVSPost2010Prop55
280
     0
102
RTVSPost2010PropOp55
 70
     1
102
RTVSPost2010Prop56
140
1.0
102
RTVSPost2010PropOp56
 70
     1
102
RTVSPost2010Prop57
140
1.0
102
RTVSPost2010PropOp57
 70
     1
102
RTVSPropertyOp0
 70
     1
102
RTVSPropertyOp1
 70
     1
102
RTVSPropertyOp2
 70
     1
102
RTVSPropertyOp3
 70
     1
102
RTVSPropertyOp4
 70
     1
102
RTVSPropertyOp5
 70
     1
102
RTVSPropertyOp6
 70
     1
102
RTVSPropertyOp7
 70
     1
102
RTVSPropertyOp8
 70
     1
102
RTVSPropertyOp9
 70
     1
102
RTVSPropertyOp10
 70
     1
102
RTVSPropertyOp11
 70
     1
102
RTVSPropertyOp12
 70
     1
102
RTVSPropertyOp13
 70
     1
102
RTVSPropertyOp14
 70
     1
102
RTVSPropertyOp15
 70
     1
102
RTVSPropertyOp16
 70
     1
102
RTVSPropertyOp17
 70
     1
102
RTVSPropertyOp18
 70
     1
102
RTVSPropertyOp19
 70
     1
102
RTVSPropertyOp20
 70
     1
102
RTVSPropertyOp21
 70
     1
102
RTVSPropertyOp22
 70
     1
102
RTVSPropertyOp23
 70
     1
102
RTVSPropertyOp24
 70
     1
102
RTVSPropertyOp25
 70
     1
102
RTVSPropertyOp26
 70
     1
102
RTVSPropertyOp27
 70
     1
102
RTVSPropertyOp28
 70
     1
102
RTVSPropertyOp29
 70
     1
102
RTVSPropertyOp30
 70
     1
102
RTVSPropertyOp31
 70
     1
102
RTVSPropertyOp32
 70
     1
102
RTVSPropertyOp33
 70
     1
102
RTVSPropertyOp34
 70
     1
102
RTVSPropertyOp35
 70
     1
102
RTVSPropertyOp36
 70
     1
102
RTVSPropertyOp37
 70
     1
102
RTVSPropertyOp38
 70
     1
102
RTVSPropertyOp39
 70
     1
102
RTVSPropertyOp40
 70
     1
102
RTVSPropertyOp41
 70
     1
102
RTVSPropertyOp42
 70
     1
102
RTVSPropertyOp43
 70
     1
102
RTVSPropertyOp44
 70
     1
102
RTVSPropertyOp45
 70
     1
102
RTVSPropertyOp46
 70
     1
102
RTVSPropertyOp47
 70
     1
102
RTVSPropertyOp48
 70
     1
102
RTVSPropertyOp49
 70
     1
102
RTVSPropertyOp50
 70
     1
102
RTVSPropertyOp51
 70
     0
102
RTVSPropertyOp52
 70
     0
102
RTVSPropertyOp53
 70
     1
102
RTVSPropertyOp54
 70
     1
102
RTVSPropertyOp55
 70
     1
102
RTVSPropertyOp56
 70
     1
102
RTVSPropertyOp57
 70
     1
102
RTVSPropertyOp58
 70
     1
102
RTVSPropertyOp59
 70
     1
102
RTVSPropertyOp60
 70
     1
102
RTVSPropertyOp61
 70
     1
102
RTVSPropertyOp62
 70
     1
  0
XRECORD
  5
147A
102
{ACAD_REACTORS
330
1479
102
}
330
1479
100
AcDbXrecord
280
     1
102
RTVSPost2010Prop28
280
     0
102
RTVSPost2010PropOp28
 70
     1
102
RTVSPost2010Prop29
280
     1
102
RTVSPost2010PropOp29
 70
     1
102
RTVSPost2010Prop30
280
     1
102
RTVSPost2010PropOp30
 70
     1
102
RTVSPost2010Prop31
280
     0
102
RTVSPost2010PropOp31
 70
     1
102
RTVSPost2010Prop32
280
     0
102
RTVSPost2010PropOp32
 70
     1
102
RTVSPost2010Prop33
280
     0
102
RTVSPost2010PropOp33
 70
     1
102
RTVSPost2010Prop34
280
     0
102
RTVSPost2010PropOp34
 70
     1
102
RTVSPost2010Prop35
280
     0
102
RTVSPost2010PropOp35
 70
     1
102
RTVSPost2010Prop36
280
     0
102
RTVSPost2010PropOp36
 70
     1
102
RTVSPost2010Prop37
 90
       50
102
RTVSPost2010PropOp37
 70
     1
102
RTVSPost2010Prop38
140
0.0
102
RTVSPost2010PropOp38
 70
     1
102
RTVSPost2010Prop39
140
1.0
102
RTVSPost2010PropOp39
 70
     1
102
RTVSPost2010Prop40
 90
        0
102
RTVSPost2010PropOp40
 70
     1
102
RTVSPost2010Prop41ColorIndex
 90
       18
102
RTVSPost2010Prop41ColorRGB
 90
        0
102
RTVSPost2010PropOp41
 70
     1
102
RTVSPost2010Prop42
 90
       50
102
RTVSPost2010PropOp42
 70
     1
102
RTVSPost2010Prop43
 90
        3
102
RTVSPost2010PropOp43
 70
     1
102
RTVSPost2010Prop44ColorIndex
 90
        5
102
RTVSPost2010Prop44ColorRGB
 90
      255
102
RTVSPost2010PropOp44
 70
     1
102
RTVSPost2010Prop45
280
     0
102
RTVSPost2010PropOp45
 70
     1
102
RTVSPost2010Prop46
 90
       50
102
RTVSPost2010PropOp46
 70
     1
102
RTVSPost2010Prop47
 90
       50
102
RTVSPost2010PropOp47
 70
     1
102
RTVSPost2010Prop48
 90
       50
102
RTVSPost2010PropOp48
 70
     1
102
RTVSPost2010Prop49
280
     0
102
RTVSPost2010PropOp49
 70
     1
102
RTVSPost2010Prop50
 90
       50
102
RTVSPost2010PropOp50
 70
     1
102
RTVSPost2010Prop51ColorIndex
 90
      256
102
RTVSPost2010Prop51ColorRGB
 90
-16777216
102
RTVSPost2010PropOp51
 70
     0
102
RTVSPost2010Prop52
140
1.0
102
RTVSPost2010PropOp52
 70
     0
102
RTVSPost2010Prop53
 90
        2
102
RTVSPost2010PropOp53
 70
     1
102
RTVSPost2010Prop54
  1
strokes_ogs.tif
102
RTVSPost2010PropOp54
 70
     1
102
RTVSPost2010Prop55
280
     0
102
RTVSPost2010PropOp55
 70
     1
102
RTVSPost2010Prop56
140
1.0
102
RTVSPost2010PropOp56
 70
     1
102
RTVSPost2010Prop57
140
1.0
102
RTVSPost2010PropOp57
 70
     1
102
RTVSPropertyOp0
 70
     1
102
RTVSPropertyOp1
 70
     1
102
RTVSPropertyOp2
 70
     1
102
RTVSPropertyOp3
 70
     1
102
RTVSPropertyOp4
 70
     1
102
RTVSPropertyOp5
 70
     1
102
RTVSPropertyOp6
 70
     1
102
RTVSPropertyOp7
 70
     1
102
RTVSPropertyOp8
 70
     1
102
RTVSPropertyOp9
 70
     1
102
RTVSPropertyOp10
 70
     1
102
RTVSPropertyOp11
 70
     1
102
RTVSPropertyOp12
 70
     1
102
RTVSPropertyOp13
 70
     1
102
RTVSPropertyOp14
 70
     1
102
RTVSPropertyOp15
 70
     1
102
RTVSPropertyOp16
 70
     1
102
RTVSPropertyOp17
 70
     1
102
RTVSPropertyOp18
 70
     1
102
RTVSPropertyOp19
 70
     1
102
RTVSPropertyOp20
 70
     1
102
RTVSPropertyOp21
 70
     1
102
RTVSPropertyOp22
 70
     1
102
RTVSPropertyOp23
 70
     1
102
RTVSPropertyOp24
 70
     1
102
RTVSPropertyOp25
 70
     1
102
RTVSPropertyOp26
 70
     1
102
RTVSPropertyOp27
 70
     1
102
RTVSPropertyOp28
 70
     1
102
RTVSPropertyOp29
 70
     1
102
RTVSPropertyOp30
 70
     1
102
RTVSPropertyOp31
 70
     1
102
RTVSPropertyOp32
 70
     1
102
RTVSPropertyOp33
 70
     1
102
RTVSPropertyOp34
 70
     1
102
RTVSPropertyOp35
 70
     1
102
RTVSPropertyOp36
 70
     1
102
RTVSPropertyOp37
 70
     1
102
RTVSPropertyOp38
 70
     1
102
RTVSPropertyOp39
 70
     1
102
RTVSPropertyOp40
 70
     1
102
RTVSPropertyOp41
 70
     1
102
RTVSPropertyOp42
 70
     1
102
RTVSPropertyOp43
 70
     1
102
RTVSPropertyOp44
 70
     1
102
RTVSPropertyOp45
 70
     1
102
RTVSPropertyOp46
 70
     1
102
RTVSPropertyOp47
 70
     1
102
RTVSPropertyOp48
 70
     1
102
RTVSPropertyOp49
 70
     1
102
RTVSPropertyOp50
 70
     1
102
RTVSPropertyOp51
 70
     0
102
RTVSPropertyOp52
 70
     0
102
RTVSPropertyOp53
 70
     1
102
RTVSPropertyOp54
 70
     1
102
RTVSPropertyOp55
 70
     1
102
RTVSPropertyOp56
 70
     1
102
RTVSPropertyOp57
 70
     1
102
RTVSPropertyOp58
 70
     1
102
RTVSPropertyOp59
 70
     1
102
RTVSPropertyOp60
 70
     1
102
RTVSPropertyOp61
 70
     1
102
RTVSPropertyOp62
 70
     1
  0
XRECORD
  5
1492
102
{ACAD_REACTORS
330
1491
102
}
330
1491
100
AcDbXrecord
280
     1
102
RTVSPost2010Prop28
280
     0
102
RTVSPost2010PropOp28
 70
     1
102
RTVSPost2010Prop29
280
     1
102
RTVSPost2010PropOp29
 70
     1
102
RTVSPost2010Prop30
280
     1
102
RTVSPost2010PropOp30
 70
     1
102
RTVSPost2010Prop31
280
     0
102
RTVSPost2010PropOp31
 70
     1
102
RTVSPost2010Prop32
280
     0
102
RTVSPost2010PropOp32
 70
     1
102
RTVSPost2010Prop33
280
     0
102
RTVSPost2010PropOp33
 70
     1
102
RTVSPost2010Prop34
280
     0
102
RTVSPost2010PropOp34
 70
     1
102
RTVSPost2010Prop35
280
     0
102
RTVSPost2010PropOp35
 70
     1
102
RTVSPost2010Prop36
280
     0
102
RTVSPost2010PropOp36
 70
     1
102
RTVSPost2010Prop37
 90
       50
102
RTVSPost2010PropOp37
 70
     1
102
RTVSPost2010Prop38
140
0.0
102
RTVSPost2010PropOp38
 70
     1
102
RTVSPost2010Prop39
140
1.0
102
RTVSPost2010PropOp39
 70
     1
102
RTVSPost2010Prop40
 90
        0
102
RTVSPost2010PropOp40
 70
     1
102
RTVSPost2010Prop41ColorIndex
 90
       18
102
RTVSPost2010Prop41ColorRGB
 90
        0
102
RTVSPost2010PropOp41
 70
     1
102
RTVSPost2010Prop42
 90
       50
102
RTVSPost2010PropOp42
 70
     1
102
RTVSPost2010Prop43
 90
        3
102
RTVSPost2010PropOp43
 70
     1
102
RTVSPost2010Prop44ColorIndex
 90
        5
102
RTVSPost2010Prop44ColorRGB
 90
      255
102
RTVSPost2010PropOp44
 70
     1
102
RTVSPost2010Prop45
280
     0
102
RTVSPost2010PropOp45
 70
     1
102
RTVSPost2010Prop46
 90
       50
102
RTVSPost2010PropOp46
 70
     1
102
RTVSPost2010Prop47
 90
       50
102
RTVSPost2010PropOp47
 70
     1
102
RTVSPost2010Prop48
 90
       50
102
RTVSPost2010PropOp48
 70
     1
102
RTVSPost2010Prop49
280
     0
102
RTVSPost2010PropOp49
 70
     1
102
RTVSPost2010Prop50
 90
       50
102
RTVSPost2010PropOp50
 70
     1
102
RTVSPost2010Prop51ColorIndex
 90
      256
102
RTVSPost2010Prop51ColorRGB
 90
-16777216
102
RTVSPost2010PropOp51
 70
     0
102
RTVSPost2010Prop52
140
1.0
102
RTVSPost2010PropOp52
 70
     0
102
RTVSPost2010Prop53
 90
        2
102
RTVSPost2010PropOp53
 70
     1
102
RTVSPost2010Prop54
  1
strokes_ogs.tif
102
RTVSPost2010PropOp54
 70
     1
102
RTVSPost2010Prop55
280
     0
102
RTVSPost2010PropOp55
 70
     1
102
RTVSPost2010Prop56
140
1.0
102
RTVSPost2010PropOp56
 70
     1
102
RTVSPost2010Prop57
140
1.0
102
RTVSPost2010PropOp57
 70
     1
102
RTVSPropertyOp0
 70
     1
102
RTVSPropertyOp1
 70
     1
102
RTVSPropertyOp2
 70
     1
102
RTVSPropertyOp3
 70
     1
102
RTVSPropertyOp4
 70
     1
102
RTVSPropertyOp5
 70
     1
102
RTVSPropertyOp6
 70
     1
102
RTVSPropertyOp7
 70
     1
102
RTVSPropertyOp8
 70
     1
102
RTVSPropertyOp9
 70
     1
102
RTVSPropertyOp10
 70
     1
102
RTVSPropertyOp11
 70
     1
102
RTVSPropertyOp12
 70
     1
102
RTVSPropertyOp13
 70
     1
102
RTVSPropertyOp14
 70
     1
102
RTVSPropertyOp15
 70
     1
102
RTVSPropertyOp16
 70
     1
102
RTVSPropertyOp17
 70
     1
102
RTVSPropertyOp18
 70
     1
102
RTVSPropertyOp19
 70
     1
102
RTVSPropertyOp20
 70
     1
102
RTVSPropertyOp21
 70
     1
102
RTVSPropertyOp22
 70
     1
102
RTVSPropertyOp23
 70
     1
102
RTVSPropertyOp24
 70
     1
102
RTVSPropertyOp25
 70
     1
102
RTVSPropertyOp26
 70
     1
102
RTVSPropertyOp27
 70
     1
102
RTVSPropertyOp28
 70
     1
102
RTVSPropertyOp29
 70
     1
102
RTVSPropertyOp30
 70
     1
102
RTVSPropertyOp31
 70
     1
102
RTVSPropertyOp32
 70
     1
102
RTVSPropertyOp33
 70
     1
102
RTVSPropertyOp34
 70
     1
102
RTVSPropertyOp35
 70
     1
102
RTVSPropertyOp36
 70
     1
102
RTVSPropertyOp37
 70
     1
102
RTVSPropertyOp38
 70
     1
102
RTVSPropertyOp39
 70
     1
102
RTVSPropertyOp40
 70
     1
102
RTVSPropertyOp41
 70
     1
102
RTVSPropertyOp42
 70
     1
102
RTVSPropertyOp43
 70
     1
102
RTVSPropertyOp44
 70
     1
102
RTVSPropertyOp45
 70
     1
102
RTVSPropertyOp46
 70
     1
102
RTVSPropertyOp47
 70
     1
102
RTVSPropertyOp48
 70
     1
102
RTVSPropertyOp49
 70
     1
102
RTVSPropertyOp50
 70
     1
102
RTVSPropertyOp51
 70
     0
102
RTVSPropertyOp52
 70
     0
102
RTVSPropertyOp53
 70
     1
102
RTVSPropertyOp54
 70
     1
102
RTVSPropertyOp55
 70
     1
102
RTVSPropertyOp56
 70
     1
102
RTVSPropertyOp57
 70
     1
102
RTVSPropertyOp58
 70
     1
102
RTVSPropertyOp59
 70
     1
102
RTVSPropertyOp60
 70
     1
102
RTVSPropertyOp61
 70
     1
102
RTVSPropertyOp62
 70
     1
  0
ENDSEC
  0
EOF
