  0
SECTION
  2
HEADER
  9
$ACADVER
  1
AC1015
  9
$ACADMAINTVER
 70
    20
  9
$DWGCODEPAGE
  3
ANSI_932
  9
$INSBASE
 10
0.0
 20
0.0
 30
0.0
  9
$EXTMIN
 10
9.999999064246615
 20
9.999999806846602
 30
0.0
  9
$EXTMAX
 10
839.4258065633414
 20
578.0695501545417
 30
0.0
  9
$LIMMIN
 10
0.0000015376081137
 20
-0.0000001931532552
  9
$LIMMAX
 10
892.000001537608
 20
614.9393937462405
  9
$ORTHOMODE
 70
     0
  9
$REGENMODE
 70
     1
  9
$FILLMODE
 70
     1
  9
$QTEXTMODE
 70
     0
  9
$MIRRTEXT
 70
     1
  9
$LTSCALE
 40
1.0
  9
$ATTMODE
 70
     1
  9
$TEXTSIZE
 40
2.5
  9
$TRACEWID
 40
1.0
  9
$TEXTSTYLE
  7
STANDARD
  9
$CLAYER
  8
0
  9
$CELTYPE
  6
BYLAYER
  9
$CECOLOR
 62
   256
  9
$CELTSCALE
 40
1.0
  9
$DISPSILH
 70
     0
  9
$DIMSCALE
 40
1.0
  9
$DIMASZ
 40
3.0
  9
$DIMEXO
 40
1.0
  9
$DIMDLI
 40
10.0
  9
$DIMRND
 40
0.0
  9
$DIMDLE
 40
0.0
  9
$DIMEXE
 40
1.0
  9
$DIMTP
 40
0.0
  9
$DIMTM
 40
0.0
  9
$DIMTXT
 40
3.2
  9
$DIMCEN
 40
0.0
  9
$DIMTSZ
 40
0.0
  9
$DIMTOL
 70
     0
  9
$DIMLIM
 70
     0
  9
$DIMTIH
 70
     0
  9
$DIMTOH
 70
     0
  9
$DIMSE1
 70
     0
  9
$DIMSE2
 70
     0
  9
$DIMTAD
 70
     3
  9
$DIMZIN
 70
     8
  9
$DIMBLK
  1

  9
$DIMASO
 70
     1
  9
$DIMSHO
 70
     1
  9
$DIMPOST
  1

  9
$DIMAPOST
  1

  9
$DIMALT
 70
     0
  9
$DIMALTD
 70
     2
  9
$DIMALTF
 40
25.4
  9
$DIMLFAC
 40
1.0
  9
$DIMTOFL
 70
     1
  9
$DIMTVP
 40
0.0
  9
$DIMTIX
 70
     0
  9
$DIMSOXD
 70
     0
  9
$DIMSAH
 70
     1
  9
$DIMBLK1
  1
OPEN
  9
$DIMBLK2
  1
OPEN
  9
$DIMSTYLE
  2
STANDARD
  9
$DIMCLRD
 70
     0
  9
$DIMCLRE
 70
     0
  9
$DIMCLRT
 70
     0
  9
$DIMTFAC
 40
1.0
  9
$DIMGAP
 40
1.0
  9
$DIMJUST
 70
     0
  9
$DIMSD1
 70
     0
  9
$DIMSD2
 70
     0
  9
$DIMTOLJ
 70
     1
  9
$DIMTZIN
 70
     0
  9
$DIMALTZ
 70
     0
  9
$DIMALTTZ
 70
     0
  9
$DIMUPT
 70
     0
  9
$DIMDEC
 70
     4
  9
$DIMTDEC
 70
     4
  9
$DIMALTU
 70
     2
  9
$DIMALTTD
 70
     2
  9
$DIMTXSTY
  7
STANDARD
  9
$DIMAUNIT
 70
     0
  9
$DIMADEC
 70
     0
  9
$DIMALTRND
 40
0.0
  9
$DIMAZIN
 70
     0
  9
$DIMDSEP
 70
    46
  9
$DIMATFIT
 70
     3
  9
$DIMFRAC
 70
     0
  9
$DIMLDRBLK
  1
OPEN
  9
$DIMLUNIT
 70
     2
  9
$DIMLWD
 70
    -2
  9
$DIMLWE
 70
    -2
  9
$DIMTMOVE
 70
     0
  9
$LUNITS
 70
     2
  9
$LUPREC
 70
     4
  9
$SKETCHINC
 40
1.0
  9
$FILLETRAD
 40
5.0
  9
$AUNITS
 70
     0
  9
$AUPREC
 70
     0
  9
$MENU
  1
.
  9
$ELEVATION
 40
0.0
  9
$PELEVATION
 40
0.0
  9
$THICKNESS
 40
0.0
  9
$LIMCHECK
 70
     0
  9
$CHAMFERA
 40
10.0
  9
$CHAMFERB
 40
10.0
  9
$CHAMFERC
 40
20.0
  9
$CHAMFERD
 40
0.0
  9
$SKPOLY
 70
     0
  9
$TDCREATE
 40
2453249.453714549
  9
$TDUCREATE
 40
2453249.078714549
  9
$TDUPDATE
 40
2457192.689572686
  9
$TDUUPDATE
 40
2457192.314572686
  9
$TDINDWG
 40
0.3377545602
  9
$TDUSRTIMER
 40
0.3377543750
  9
$USRTIMER
 70
     1
  9
$ANGBASE
 50
0.0
  9
$ANGDIR
 70
     0
  9
$PDMODE
 70
     0
  9
$PDSIZE
 40
0.0
  9
$PLINEWID
 40
0.0
  9
$SPLFRAME
 70
     0
  9
$SPLINETYPE
 70
     6
  9
$SPLINESEGS
 70
     8
  9
$HANDSEED
  5
EA9
  9
$SURFTAB1
 70
     6
  9
$SURFTAB2
 70
     6
  9
$SURFTYPE
 70
     6
  9
$SURFU
 70
     6
  9
$SURFV
 70
     6
  9
$UCSBASE
  2

  9
$UCSNAME
  2

  9
$UCSORG
 10
0.0
 20
0.0
 30
0.0
  9
$UCSXDIR
 10
1.0
 20
0.0
 30
0.0
  9
$UCSYDIR
 10
0.0
 20
1.0
 30
0.0
  9
$UCSORTHOREF
  2

  9
$UCSORTHOVIEW
 70
     0
  9
$UCSORGTOP
 10
0.0
 20
0.0
 30
0.0
  9
$UCSORGBOTTOM
 10
0.0
 20
0.0
 30
0.0
  9
$UCSORGLEFT
 10
0.0
 20
0.0
 30
0.0
  9
$UCSORGRIGHT
 10
0.0
 20
0.0
 30
0.0
  9
$UCSORGFRONT
 10
0.0
 20
0.0
 30
0.0
  9
$UCSORGBACK
 10
0.0
 20
0.0
 30
0.0
  9
$PUCSBASE
  2

  9
$PUCSNAME
  2

  9
$PUCSORG
 10
0.0
 20
0.0
 30
0.0
  9
$PUCSXDIR
 10
1.0
 20
0.0
 30
0.0
  9
$PUCSYDIR
 10
0.0
 20
1.0
 30
0.0
  9
$PUCSORTHOREF
  2

  9
$PUCSORTHOVIEW
 70
     0
  9
$PUCSORGTOP
 10
0.0
 20
0.0
 30
0.0
  9
$PUCSORGBOTTOM
 10
0.0
 20
0.0
 30
0.0
  9
$PUCSORGLEFT
 10
0.0
 20
0.0
 30
0.0
  9
$PUCSORGRIGHT
 10
0.0
 20
0.0
 30
0.0
  9
$PUCSORGFRONT
 10
0.0
 20
0.0
 30
0.0
  9
$PUCSORGBACK
 10
0.0
 20
0.0
 30
0.0
  9
$USERI1
 70
     0
  9
$USERI2
 70
     0
  9
$USERI3
 70
     0
  9
$USERI4
 70
     0
  9
$USERI5
 70
     0
  9
$USERR1
 40
0.0
  9
$USERR2
 40
0.0
  9
$USERR3
 40
0.0
  9
$USERR4
 40
0.0
  9
$USERR5
 40
0.0
  9
$WORLDVIEW
 70
     1
  9
$SHADEDGE
 70
     3
  9
$SHADEDIF
 70
    70
  9
$TILEMODE
 70
     1
  9
$MAXACTVP
 70
    48
  9
$PINSBASE
 10
0.0
 20
0.0
 30
0.0
  9
$PLIMCHECK
 70
     0
  9
$PEXTMIN
 10
1.000000000000000E+20
 20
1.000000000000000E+20
 30
1.000000000000000E+20
  9
$PEXTMAX
 10
-1.000000000000000E+20
 20
-1.000000000000000E+20
 30
-1.000000000000000E+20
  9
$PLIMMIN
 10
0.0
 20
0.0
  9
$PLIMMAX
 10
420.0
 20
297.0
  9
$UNITMODE
 70
     0
  9
$VISRETAIN
 70
     1
  9
$PLINEGEN
 70
     0
  9
$PSLTSCALE
 70
     1
  9
$TREEDEPTH
 70
  3020
  9
$CMLSTYLE
  2
STANDARD
  9
$CMLJUST
 70
     0
  9
$CMLSCALE
 40
20.0
  9
$PROXYGRAPHICS
 70
     1
  9
$MEASUREMENT
 70
     0
  9
$CELWEIGHT
370
    -1
  9
$ENDCAPS
280
     0
  9
$JOINSTYLE
280
     0
  9
$LWDISPLAY
290
     0
  9
$INSUNITS
 70
     0
  9
$HYPERLINKBASE
  1

  9
$STYLESHEET
  1

  9
$XEDIT
290
     1
  9
$CEPSNTYPE
380
     0
  9
$PSTYLEMODE
290
     1
  9
$FINGERPRINTGUID
  2
{560A6EA2-BFA0-42AE-8764-C3C4E8812174}
  9
$VERSIONGUID
  2
{74A69B98-3105-4E49-B146-D3A258BE3567}
  9
$EXTNAMES
290
     1
  9
$PSVPSCALE
 40
0.0
  9
$OLESTARTUP
290
     0
  0
ENDSEC
  0
SECTION
  2
CLASSES
  0
CLASS
  1
ACDBDICTIONARYWDFLT
  2
AcDbDictionaryWithDefault
  3
ObjectDBX Classes
 90
        0
280
     0
281
     0
  0
CLASS
  1
ACDBPLACEHOLDER
  2
AcDbPlaceHolder
  3
ObjectDBX Classes
 90
        0
280
     0
281
     0
  0
CLASS
  1
LAYOUT
  2
AcDbLayout
  3
ObjectDBX Classes
 90
        0
280
     0
281
     0
  0
CLASS
  1
DICTIONARYVAR
  2
AcDbDictionaryVar
  3
ObjectDBX Classes
 90
        0
280
     0
281
     0
  0
CLASS
  1
MATERIAL
  2
AcDbMaterial
  3
ObjectDBX Classes
 90
     1153
280
     0
281
     0
  0
CLASS
  1
VISUALSTYLE
  2
AcDbVisualStyle
  3
ObjectDBX Classes
 90
     4095
280
     0
281
     0
  0
CLASS
  1
TABLESTYLE
  2
AcDbTableStyle
  3
ObjectDBX Classes
 90
     4095
280
     0
281
     0
  0
CLASS
  1
SCALE
  2
AcDbScale
  3
ObjectDBX Classes
 90
     1153
280
     0
281
     0
  0
CLASS
  1
MLEADERSTYLE
  2
AcDbMLeaderStyle
  3
ACDB_MLEADERSTYLE_CLASS
 90
     4095
280
     0
281
     0
  0
CLASS
  1
ACDBSECTIONVIEWSTYLE
  2
AcDbSectionViewStyle
  3
ObjectDBX Classes
 90
     1025
280
     0
281
     0
  0
CLASS
  1
ACDBDETAILVIEWSTYLE
  2
AcDbDetailViewStyle
  3
ObjectDBX Classes
 90
     1025
280
     0
281
     0
  0
CLASS
  1
CELLSTYLEMAP
  2
AcDbCellStyleMap
  3
ObjectDBX Classes
 90
     1152
280
     0
281
     0
  0
ENDSEC
  0
SECTION
  2
TABLES
  0
TABLE
  2
VPORT
  5
8
330
0
100
AcDbSymbolTable
 70
     1
  0
VPORT
  5
DF5
330
8
100
AcDbSymbolTableRecord
100
AcDbViewportTableRecord
  2
*ACTIVE
 70
     0
 10
0.0
 20
0.0
 11
1.0
 21
1.0
 12
643.3971595485013
 22
294.028220503787
 13
0.0
 23
0.0
 14
10.0
 24
10.0
 15
10.0
 25
10.0
 16
0.0
 26
0.0
 36
1.0
 17
0.0
 27
0.0
 37
0.0
 40
572.5927511818638
 41
2.35006605019815
 42
50.0
 43
0.0
 44
0.0
 50
0.0
 51
0.0
 71
     0
 72
   100
 73
     1
 74
     0
 75
     0
 76
     0
 77
     0
 78
     0
281
     0
 65
     1
110
0.0
120
0.0
130
0.0
111
1.0
121
0.0
131
0.0
112
0.0
122
1.0
132
0.0
 79
     0
146
0.0
1001
ACAD_NAV_VCDISPLAY
1070
     3
  0
ENDTAB
  0
TABLE
  2
LTYPE
  5
5
330
0
100
AcDbSymbolTable
 70
     4
  0
LTYPE
  5
12
330
5
100
AcDbSymbolTableRecord
100
AcDbLinetypeTableRecord
  2
BYBLOCK
 70
     0
  3

 72
    65
 73
     0
 40
0.0
  0
LTYPE
  5
13
330
5
100
AcDbSymbolTableRecord
100
AcDbLinetypeTableRecord
  2
BYLAYER
 70
     0
  3

 72
    65
 73
     0
 40
0.0
  0
LTYPE
  5
14
330
5
100
AcDbSymbolTableRecord
100
AcDbLinetypeTableRecord
  2
CONTINUOUS
 70
     0
  3
Solid line
 72
    65
 73
     0
 40
0.0
  0
LTYPE
  5
62
330
5
100
AcDbSymbolTableRecord
100
AcDbLinetypeTableRecord
  2
DASHED
 70
     0
  3
Dashed __ __ __ __ __ __ __ __ __ __ __ __ __ _
 72
    65
 73
     2
 40
19.04999999999998
 49
12.7
 74
     0
 49
-6.349999999999997
 74
     0
  0
LTYPE
  5
63
330
5
100
AcDbSymbolTableRecord
100
AcDbLinetypeTableRecord
  2
CENTER
 70
     0
  3
Center ____ _ ____ _ ____ _ ____ _ ____ _ ____
 72
    65
 73
     4
 40
50.8
 49
31.75
 74
     0
 49
-6.349999999999997
 74
     0
 49
6.349999999999997
 74
     0
 49
-6.349999999999997
 74
     0
  0
LTYPE
  5
64
330
5
100
AcDbSymbolTableRecord
100
AcDbLinetypeTableRecord
  2
PHANTOM
 70
     0
  3
Phantom ______  __  __  ______  __  __  ______
 72
    65
 73
     6
 40
63.5
 49
31.75
 74
     0
 49
-6.349999999999997
 74
     0
 49
6.349999999999997
 74
     0
 49
-6.349999999999997
 74
     0
 49
6.349999999999997
 74
     0
 49
-6.349999999999997
 74
     0
  0
ENDTAB
  0
TABLE
  2
LAYER
  5
2
330
0
100
AcDbSymbolTable
 70
     8
  0
LAYER
  5
E
102
{ACAD_XDICTIONARY
360
E4D
102
}
330
2
100
AcDbSymbolTableRecord
100
AcDbLayerTableRecord
  2
0
 70
     0
 62
     7
  6
CONTINUOUS
370
    -3
390
DFC
  0
LAYER
  5
65
102
{ACAD_XDICTIONARY
360
E4F
102
}
330
2
100
AcDbSymbolTableRecord
100
AcDbLayerTableRecord
  2
4
 70
     0
 62
     1
  6
CENTER
370
    -3
390
DFC
  0
LAYER
  5
66
102
{ACAD_XDICTIONARY
360
E51
102
}
330
2
100
AcDbSymbolTableRecord
100
AcDbLayerTableRecord
  2
5
 70
     0
 62
     6
  6
PHANTOM
370
    -3
390
DFC
  0
LAYER
  5
67
102
{ACAD_XDICTIONARY
360
E53
102
}
330
2
100
AcDbSymbolTableRecord
100
AcDbLayerTableRecord
  2
1
 70
     0
 62
     7
  6
CONTINUOUS
370
    -3
390
DFC
  0
LAYER
  5
68
102
{ACAD_XDICTIONARY
360
E55
102
}
330
2
100
AcDbSymbolTableRecord
100
AcDbLayerTableRecord
  2
2
 70
     0
 62
     4
  6
CONTINUOUS
370
    -3
390
DFC
  0
LAYER
  5
69
102
{ACAD_XDICTIONARY
360
E57
102
}
330
2
100
AcDbSymbolTableRecord
100
AcDbLayerTableRecord
  2
3
 70
     0
 62
     2
  6
DASHED
370
    -3
390
DFC
  0
LAYER
  5
6A
102
{ACAD_XDICTIONARY
360
E59
102
}
330
2
100
AcDbSymbolTableRecord
100
AcDbLayerTableRecord
  2
6
 70
     0
 62
     5
  6
CONTINUOUS
370
    -3
390
DFC
  0
LAYER
  5
6B
102
{ACAD_XDICTIONARY
360
E5B
102
}
330
2
100
AcDbSymbolTableRecord
100
AcDbLayerTableRecord
  2
7
 70
     0
 62
     3
  6
CONTINUOUS
370
    -3
390
DFC
  0
ENDTAB
  0
TABLE
  2
STYLE
  5
3
330
0
100
AcDbSymbolTable
 70
     1
  0
STYLE
  5
F
330
3
100
AcDbSymbolTableRecord
100
AcDbTextStyleTableRecord
  2
STANDARD
 70
     0
 40
0.0
 41
1.0
 50
0.0
 71
     0
 42
2.5
  3
simplex.shx
  4

  0
ENDTAB
  0
TABLE
  2
VIEW
  5
6
330
0
100
AcDbSymbolTable
 70
     0
  0
ENDTAB
  0
TABLE
  2
UCS
  5
7
330
0
100
AcDbSymbolTable
 70
     0
  0
ENDTAB
  0
TABLE
  2
APPID
  5
9
330
0
100
AcDbSymbolTable
 70
     5
  0
APPID
  5
10
330
9
100
AcDbSymbolTableRecord
100
AcDbRegAppTableRecord
  2
ACAD
 70
     0
  0
APPID
  5
3E
330
9
100
AcDbSymbolTableRecord
100
AcDbRegAppTableRecord
  2
CONTENTTABDATA
 70
     0
  0
APPID
  5
3F
330
9
100
AcDbSymbolTableRecord
100
AcDbRegAppTableRecord
  2
CONTENTCURRENTTAB
 70
     0
  0
APPID
  5
E67
330
9
100
AcDbSymbolTableRecord
100
AcDbRegAppTableRecord
  2
ACAD_NAV_VCDISPLAY
 70
     0
  0
APPID
  5
EA0
330
9
100
AcDbSymbolTableRecord
100
AcDbRegAppTableRecord
  2
ACAD_MLEADERVER
 70
     0
  0
ENDTAB
  0
TABLE
  2
DIMSTYLE
  5
A
330
0
100
AcDbSymbolTable
 70
     1
100
AcDbDimStyleTable
 71
     0
  0
DIMSTYLE
105
1D
330
A
100
AcDbSymbolTableRecord
100
AcDbDimStyleTableRecord
  2
STANDARD
 70
     0
 41
3.0
 42
1.0
 43
10.0
 44
1.0
 73
     0
 74
     0
 77
     3
 78
     8
140
3.2
141
0.0
147
1.0
172
     1
173
     1
340
F
341
2E
343
2E
344
2E
  0
ENDTAB
  0
TABLE
  2
BLOCK_RECORD
  5
1
330
0
100
AcDbSymbolTable
 70
     1
  0
BLOCK_RECORD
  5
18
102
{ACAD_XDICTIONARY
360
DDF
102
}
330
1
100
AcDbSymbolTableRecord
100
AcDbBlockTableRecord
  2
*MODEL_SPACE
340
E4A
  0
BLOCK_RECORD
  5
15
102
{ACAD_XDICTIONARY
360
DDD
102
}
330
1
100
AcDbSymbolTableRecord
100
AcDbBlockTableRecord
  2
*PAPER_SPACE
340
E4B
  0
BLOCK_RECORD
  5
2E
330
1
100
AcDbSymbolTableRecord
100
AcDbBlockTableRecord
  2
_OPEN
340
0
  0
ENDTAB
  0
ENDSEC
  0
SECTION
  2
BLOCKS
  0
BLOCK
  5
19
330
18
100
AcDbEntity
  8
0
100
AcDbBlockBegin
  2
*MODEL_SPACE
 70
     0
 10
0.0
 20
0.0
 30
0.0
  3
*MODEL_SPACE
  1

  0
ENDBLK
  5
1A
330
18
100
AcDbEntity
  8
0
100
AcDbBlockEnd
  0
BLOCK
  5
16
330
15
100
AcDbEntity
 67
     1
  8
0
100
AcDbBlockBegin
  2
*PAPER_SPACE
 70
     0
 10
0.0
 20
0.0
 30
0.0
  3
*PAPER_SPACE
  1

  0
ENDBLK
  5
17
330
15
100
AcDbEntity
 67
     1
  8
0
100
AcDbBlockEnd
  0
BLOCK
  5
2F
330
2E
100
AcDbEntity
  8
0
100
AcDbBlockBegin
  2
_OPEN
 70
     0
 10
0.0
 20
0.0
 30
0.0
  3
_OPEN
  1

  0
LINE
  5
30
330
2E
100
AcDbEntity
  8
0
  6
ByBlock
 62
     0
100
AcDbLine
 10
-1.0
 20
0.1666666666666666
 30
0.0
 11
0.0
 21
0.0
 31
0.0
  0
LINE
  5
31
330
2E
100
AcDbEntity
  8
0
  6
ByBlock
 62
     0
100
AcDbLine
 10
0.0
 20
0.0
 30
0.0
 11
-1.0
 21
-0.1666666666666666
 31
0.0
  0
LINE
  5
32
330
2E
100
AcDbEntity
  8
0
  6
ByBlock
 62
     0
100
AcDbLine
 10
0.0
 20
0.0
 30
0.0
 11
-1.0
 21
0.0
 31
0.0
  0
ENDBLK
  5
33
330
2E
100
AcDbEntity
  8
0
100
AcDbBlockEnd
  0
ENDSEC
  0
SECTION
  2
ENTITIES
  0
LINE
  5
187
330
18
100
AcDbEntity
  8
4
  6
CENTER
100
AcDbLine
 10
87.83954356334124
 20
385.2469731545417
 30
0.0
 11
87.83954356334124
 21
196.818079154542
 31
0.0
  0
TEXT
  5
192
330
18
100
AcDbEntity
  8
2
  6
Continuous
 48
0.25
100
AcDbText
 10
19.9795100642466
 20
9.999999806846602
 30
0.0
 40
1.399999999999999
  1
2
100
AcDbText
  0
TEXT
  5
193
330
18
100
AcDbEntity
  8
7
  6
Continuous
 48
0.25
100
AcDbText
 10
9.999999064246617
 20
18.0000005676155
 30
0.0
 40
3.0
  1
TYPE No.TCA-320SR-UB125
100
AcDbText
  0
TEXT
  5
194
330
18
100
AcDbEntity
  8
7
  6
Continuous
 48
0.25
100
AcDbText
 10
9.999999064246617
 20
26.0000005676155
 30
0.0
 40
3.0
  1
CODE No.19184
100
AcDbText
  0
TEXT
  5
195
330
18
100
AcDbEntity
  8
1
  6
Continuous
 48
0.25
100
AcDbText
 10
9.999999064246617
 20
10.00000056761549
 30
0.0
 40
1.399999999999999
  1
LAYER
100
AcDbText
  0
TEXT
  5
196
330
18
100
AcDbEntity
  8
1
  6
Continuous
 48
0.25
100
AcDbText
 10
17.9795100642466
 20
9.999999806846602
 30
0.0
 40
1.399999999999999
  1
1
100
AcDbText
  0
TEXT
  5
197
330
18
100
AcDbEntity
  8
5
  6
PHANTOM
 48
0.25
100
AcDbText
 10
25.97951006424661
 20
9.999999806846602
 30
0.0
 40
1.399999999999999
  1
5
100
AcDbText
  0
TEXT
  5
198
330
18
100
AcDbEntity
  8
3
  6
DASHED
 48
0.25
100
AcDbText
 10
21.97951006424661
 20
9.999999806846602
 30
0.0
 40
1.399999999999999
  1
3
100
AcDbText
  0
TEXT
  5
199
330
18
100
AcDbEntity
  8
4
  6
CENTER
 48
0.25
100
AcDbText
 10
23.97951006424661
 20
9.999999806846602
 30
0.0
 40
1.399999999999999
  1
4
100
AcDbText
  0
TEXT
  5
19A
330
18
100
AcDbEntity
  8
7
  6
Continuous
 48
0.25
100
AcDbText
 10
29.97951006424661
 20
9.999999806846602
 30
0.0
 40
1.399999999999999
  1
7
100
AcDbText
  0
TEXT
  5
19B
330
18
100
AcDbEntity
  8
6
  6
Continuous
 48
0.25
100
AcDbText
 10
27.97951006424661
 20
9.999999806846602
 30
0.0
 40
1.399999999999999
  1
6
100
AcDbText
  0
LINE
  5
1A7
330
18
100
AcDbEntity
  8
4
  6
CENTER
100
AcDbLine
 10
36.83954356334128
 20
269.7469661545418
 30
0.0
 11
130.3395435633412
 21
269.7469661545418
 31
0.0
  0
ARC
  5
1A8
330
18
100
AcDbEntity
  8
1
  6
Continuous
100
AcDbCircle
 10
317.9553865633414
 20
256.597536154542
 30
0.0
 40
200.0
100
AcDbArc
 50
162.130809
 51
172.683534
  0
ARC
  5
1A9
330
18
100
AcDbEntity
  8
1
  6
Continuous
100
AcDbCircle
 10
314.8303505633411
 20
258.1807271545419
 30
0.0
 40
200.0
100
AcDbArc
 50
160.7901389999996
 51
173.929961
  0
LINE
  5
1AA
330
18
100
AcDbEntity
  8
1
  6
Continuous
100
AcDbLine
 10
119.3395435633411
 20
258.2469661545419
 30
0.0
 11
120.3395435633412
 21
258.2469661545419
 31
0.0
  0
LINE
  5
1AB
330
18
100
AcDbEntity
  8
1
  6
Continuous
100
AcDbLine
 10
119.4899185633411
 20
281.2469661545419
 30
0.0
 11
120.3395435633412
 21
281.2469661545419
 31
0.0
  0
LINE
  5
1AC
330
18
100
AcDbEntity
  8
1
  6
Continuous
100
AcDbLine
 10
40.83954356334118
 20
375.2469731545417
 30
0.0
 11
134.8395435633412
 21
375.2469731545417
 31
0.0
  0
LINE
  5
1AD
330
18
100
AcDbEntity
  8
1
  6
Continuous
100
AcDbLine
 10
40.83954356334118
 20
371.7469721545417
 30
0.0
 11
134.8395435633412
 21
371.7469721545417
 31
0.0
  0
LINE
  5
1AE
330
18
100
AcDbEntity
  8
4
  6
CENTER
100
AcDbLine
 10
114.3395435633413
 20
381.0576520912363
 30
0.0
 11
114.3395435633413
 21
366.0576593386343
 31
0.0
  0
LINE
  5
1AF
330
18
100
AcDbEntity
  8
4
  6
CENTER
100
AcDbLine
 10
115.8395435633412
 20
381.0576520912363
 30
0.0
 11
115.8395435633412
 21
366.0576593386343
 31
0.0
  0
LINE
  5
1B0
330
18
100
AcDbEntity
  8
4
  6
CENTER
100
AcDbLine
 10
59.83954356334106
 20
381.0576520912363
 30
0.0
 11
59.83954356334106
 21
366.0576593386343
 31
0.0
  0
LINE
  5
1B1
330
18
100
AcDbEntity
  8
4
  6
CENTER
100
AcDbLine
 10
61.33954356334108
 20
381.0576520912363
 30
0.0
 11
61.33954356334108
 21
366.0576593386343
 31
0.0
  0
LINE
  5
1B2
330
18
100
AcDbEntity
  8
1
  6
Continuous
100
AcDbLine
 10
40.83954356334118
 20
375.2469731545417
 30
0.0
 11
40.83954356334118
 21
363.9932351545418
 31
0.0
  0
LINE
  5
1B3
330
18
100
AcDbEntity
  8
1
  6
Continuous
100
AcDbLine
 10
44.33954356334118
 20
370.7469721545417
 30
0.0
 11
44.33954356334118
 21
355.7378871545418
 31
0.0
  0
ARC
  5
1B4
330
18
100
AcDbEntity
  8
1
  6
Continuous
100
AcDbCircle
 10
38.33954356334128
 20
366.292615154542
 30
0.0
 40
6.0
100
AcDbArc
 50
0.0
 51
65.3756819999999
  0
LINE
  5
1B5
330
18
100
AcDbEntity
  8
1
  6
Continuous
100
AcDbLine
 10
59.83954356334106
 20
370.7469721545417
 30
0.0
 11
59.83954356334106
 21
250.746966154542
 31
0.0
  0
LINE
  5
1B6
330
18
100
AcDbEntity
  8
1
  6
Continuous
100
AcDbLine
 10
115.8395435633412
 20
370.7469721545417
 30
0.0
 11
115.8395435633412
 21
250.746966154542
 31
0.0
  0
ARC
  5
1B9
330
18
100
AcDbEntity
  8
1
  6
Continuous
100
AcDbCircle
 10
-142.2763014366586
 20
256.597536154542
 30
0.0
 40
200.0
100
AcDbArc
 50
7.31646100000004
 51
17.8691889999999
  0
ARC
  5
1BA
330
18
100
AcDbEntity
  8
1
  6
Continuous
100
AcDbCircle
 10
-139.1512704366587
 20
258.1807271545419
 30
0.0
 40
200.0
100
AcDbArc
 50
6.070044999999875
 51
19.20986300000001
  0
LINE
  5
1BB
330
18
100
AcDbEntity
  8
1
  6
Continuous
100
AcDbLine
 10
56.33954356334118
 20
278.2469661545419
 30
0.0
 11
56.33954356334118
 21
250.746966154542
 31
0.0
  0
LINE
  5
1BC
330
18
100
AcDbEntity
  8
1
  6
Continuous
100
AcDbLine
 10
46.33954356334117
 20
277.9742071545419
 30
0.0
 11
46.33954356334117
 21
261.5197241545418
 31
0.0
  0
ARC
  5
1BD
330
18
100
AcDbEntity
  8
1
  6
Continuous
100
AcDbCircle
 10
49.97287456334118
 20
261.5197241545418
 30
0.0
 40
3.633333
100
AcDbArc
 50
130.9927280000001
 51
229.0072679999999
  0
ARC
  5
1BE
330
18
100
AcDbEntity
  8
1
  6
Continuous
100
AcDbCircle
 10
49.70621256334108
 20
261.5197241545418
 30
0.0
 40
3.633333
100
AcDbArc
 50
310.992734
 51
49.00726599999998
  0
LINE
  5
1BF
330
18
100
AcDbEntity
  8
1
  6
Continuous
100
AcDbLine
 10
42.33954356334118
 20
264.4969661545419
 30
0.0
 11
43.08954356334118
 21
263.7469661545419
 31
0.0
  0
LINE
  5
1C0
330
18
100
AcDbEntity
  8
1
  6
Continuous
100
AcDbLine
 10
43.08954356334118
 20
275.7469661545418
 30
0.0
 11
43.08954356334118
 21
263.7469661545419
 31
0.0
  0
LINE
  5
1C3
330
18
100
AcDbEntity
  8
1
  6
Continuous
100
AcDbLine
 10
53.33954356334118
 20
280.2469661545419
 30
0.0
 11
53.33954356334118
 21
259.2469661545418
 31
0.0
  0
LINE
  5
1C4
330
18
100
AcDbEntity
  8
1
  6
Continuous
100
AcDbLine
 10
43.08954356334118
 20
263.7469661545419
 30
0.0
 11
46.33954356334117
 21
263.7469661545419
 31
0.0
  0
LINE
  5
1C5
330
18
100
AcDbEntity
  8
1
  6
Continuous
100
AcDbLine
 10
56.33954356334118
 20
250.746966154542
 30
0.0
 11
59.83954356334106
 21
250.746966154542
 31
0.0
  0
LINE
  5
1C6
330
18
100
AcDbEntity
  8
1
  6
Continuous
100
AcDbLine
 10
47.58954356334117
 20
258.7773081545419
 30
0.0
 11
52.08954356334118
 21
258.7773081545419
 31
0.0
  0
LINE
  5
1C7
330
18
100
AcDbEntity
  8
1
  6
Continuous
100
AcDbLine
 10
56.33954356334118
 20
259.2469661545418
 30
0.0
 11
53.33954356334118
 21
259.2469661545418
 31
0.0
  0
LINE
  5
1CC
330
18
100
AcDbEntity
  8
2
  6
Continuous
100
AcDbLine
 10
42.33954356334118
 20
264.4969661545419
 30
0.0
 11
46.33954356334117
 21
264.4969661545419
 31
0.0
  0
LINE
  5
1CD
330
18
100
AcDbEntity
  8
2
  6
Continuous
100
AcDbLine
 10
42.33954356334118
 20
274.9969661545418
 30
0.0
 11
46.33954356334117
 21
274.9969661545418
 31
0.0
  0
LINE
  5
1CE
330
18
100
AcDbEntity
  8
1
  6
Continuous
100
AcDbLine
 10
43.08954356334118
 20
275.7469661545418
 30
0.0
 11
46.33954356334117
 21
275.7469661545418
 31
0.0
  0
LINE
  5
1CF
330
18
100
AcDbEntity
  8
1
  6
Continuous
100
AcDbLine
 10
42.33954356334118
 20
274.9969661545418
 30
0.0
 11
42.33954356334118
 21
264.4969661545419
 31
0.0
  0
LINE
  5
1D0
330
18
100
AcDbEntity
  8
1
  6
Continuous
100
AcDbLine
 10
42.33954356334118
 20
274.9969661545418
 30
0.0
 11
43.08954356334118
 21
275.7469661545418
 31
0.0
  0
ARC
  5
1D1
330
18
100
AcDbEntity
  8
1
  6
Continuous
100
AcDbCircle
 10
26.33954356334128
 20
278.2469661545419
 30
0.0
 40
30.0
100
AcDbArc
 50
0.0
 51
7.31646100000004
  0
ARC
  5
1D2
330
18
100
AcDbEntity
  8
1
  6
Continuous
100
AcDbCircle
 10
58.99788356334124
 20
269.7469661545418
 30
0.0
 40
12.65833399999999
100
AcDbArc
 50
154.3229739999998
 51
205.6770219999995
  0
ARC
  5
1D3
330
18
100
AcDbEntity
  8
1
  6
Continuous
100
AcDbCircle
 10
40.68121856334117
 20
269.7469661545418
 30
0.0
 40
12.65833399999999
100
AcDbArc
 50
334.3229729999997
 51
25.67702700000014
  0
LINE
  5
1D4
330
18
100
AcDbEntity
  8
1
  6
Continuous
100
AcDbLine
 10
47.58954356334117
 20
264.2621411545419
 30
0.0
 11
52.08954356334118
 21
264.2621411545419
 31
0.0
  0
LINE
  5
1D5
330
18
100
AcDbEntity
  8
1
  6
Continuous
100
AcDbLine
 10
47.58954356334117
 20
280.7166241545418
 30
0.0
 11
52.08954356334118
 21
280.7166241545418
 31
0.0
  0
LINE
  5
1D6
330
18
100
AcDbEntity
  8
1
  6
Continuous
100
AcDbLine
 10
47.58954356334117
 20
275.2317911545418
 30
0.0
 11
52.08954356334118
 21
275.2317911545418
 31
0.0
  0
ARC
  5
1D7
330
18
100
AcDbEntity
  8
1
  6
Continuous
100
AcDbCircle
 10
49.97287456334118
 20
277.9742071545419
 30
0.0
 40
3.633333
100
AcDbArc
 50
130.9927280000001
 51
229.0072679999999
  0
LINE
  5
1D8
330
18
100
AcDbEntity
  8
1
  6
Continuous
100
AcDbLine
 10
56.2728015633412
 20
280.2469661545419
 30
0.0
 11
53.33954356334118
 21
280.2469661545419
 31
0.0
  0
ARC
  5
1D9
330
18
100
AcDbEntity
  8
1
  6
Continuous
100
AcDbCircle
 10
49.70621256334108
 20
277.9742071545419
 30
0.0
 40
3.633333
100
AcDbArc
 50
310.992734
 51
49.00726599999998
  0
ARC
  5
1DB
330
18
100
AcDbEntity
  8
1
  6
Continuous
100
AcDbCircle
 10
39.83954356334118
 20
277.2146861545418
 30
0.0
 40
20.0
100
AcDbArc
 50
0.0
 51
6.070044999999875
  0
LINE
  5
1EB
330
18
100
AcDbEntity
  8
1
  6
Continuous
100
AcDbLine
 10
119.3395435633411
 20
278.2469661545419
 30
0.0
 11
119.3395435633411
 21
250.746966154542
 31
0.0
  0
LINE
  5
1F2
330
18
100
AcDbEntity
  8
1
  6
Continuous
100
AcDbLine
 10
119.3395435633411
 20
250.746966154542
 30
0.0
 11
115.8395435633412
 21
250.746966154542
 31
0.0
  0
ARC
  5
1F5
330
18
100
AcDbEntity
  8
1
  6
Continuous
100
AcDbCircle
 10
149.339543563341
 20
278.2469661545419
 30
0.0
 40
30.0
100
AcDbArc
 50
172.683534
 51
180.000005
  0
ARC
  5
1F7
330
18
100
AcDbEntity
  8
1
  6
Continuous
100
AcDbCircle
 10
135.8395435633412
 20
277.2146861545418
 30
0.0
 40
20.0
100
AcDbArc
 50
173.929961
 51
180.000005
  0
ARC
  5
1FC
330
18
100
AcDbEntity
  8
1
  6
Continuous
100
AcDbCircle
 10
140.839543563341
 20
355.7378871545418
 30
0.0
 40
96.5
100
AcDbArc
 50
179.999978
 51
199.2098569999999
  0
ARC
  5
1FD
330
18
100
AcDbEntity
  8
1
  6
Continuous
100
AcDbCircle
 10
190.839543563341
 20
363.9932351545418
 30
0.0
 40
150.0
100
AcDbArc
 50
179.999978
 51
197.8691869999998
  0
LINE
  5
209
330
18
100
AcDbEntity
  8
1
  6
Continuous
100
AcDbLine
 10
67.83954356334129
 20
369.7469721545417
 30
0.0
 11
107.8395435633412
 21
369.7469721545417
 31
0.0
  0
ARC
  5
20A
330
18
100
AcDbEntity
  8
1
  6
Continuous
100
AcDbCircle
 10
45.33954356334118
 20
370.7469721545417
 30
0.0
 40
1.0
100
AcDbArc
 50
89.99998199999998
 51
179.9999639999999
  0
ARC
  5
20B
330
18
100
AcDbEntity
  8
1
  6
Continuous
100
AcDbCircle
 10
60.83954356334107
 20
370.7469721545417
 30
0.0
 40
1.0
100
AcDbArc
 50
89.99998199999998
 51
179.9999639999999
  0
ARC
  5
20C
330
18
100
AcDbEntity
  8
1
  6
Continuous
100
AcDbCircle
 10
67.83954356334129
 20
371.7469721545417
 30
0.0
 40
2.0
100
AcDbArc
 50
179.999981
 51
270.0000179999999
  0
ARC
  5
20D
330
18
100
AcDbEntity
  8
1
  6
Continuous
100
AcDbCircle
 10
77.83954356334124
 20
371.7469721545417
 30
0.0
 40
2.0
100
AcDbArc
 50
179.999981
 51
270.0000179999999
  0
ARC
  5
20E
330
18
100
AcDbEntity
  8
1
  6
Continuous
100
AcDbCircle
 10
97.83954356334113
 20
371.7469721545417
 30
0.0
 40
2.0
100
AcDbArc
 50
269.9999630000001
 51
0.0
  0
ARC
  5
20F
330
18
100
AcDbEntity
  8
1
  6
Continuous
100
AcDbCircle
 10
107.8395435633412
 20
371.7469721545417
 30
0.0
 40
2.0
100
AcDbArc
 50
269.9999630000001
 51
0.0
  0
ARC
  5
210
330
18
100
AcDbEntity
  8
1
  6
Continuous
100
AcDbCircle
 10
114.8395435633412
 20
370.7469721545417
 30
0.0
 40
1.0
100
AcDbArc
 50
0.0000360000000406
 51
90.00001599999967
  0
ARC
  5
211
330
18
100
AcDbEntity
  8
1
  6
Continuous
100
AcDbCircle
 10
137.3395435633412
 20
366.292615154542
 30
0.0
 40
6.0
100
AcDbArc
 50
114.6242889999998
 51
179.9999639999999
  0
LINE
  5
212
330
18
100
AcDbEntity
  8
1
  6
Continuous
100
AcDbLine
 10
134.8395435633412
 20
375.2469731545417
 30
0.0
 11
134.8395435633412
 21
363.9932351545418
 31
0.0
  0
LINE
  5
213
330
18
100
AcDbEntity
  8
1
  6
Continuous
100
AcDbLine
 10
131.3395435633412
 20
370.7469721545417
 30
0.0
 11
131.3395435633412
 21
355.7378871545418
 31
0.0
  0
LINE
  5
214
330
18
100
AcDbEntity
  8
1
  6
Continuous
100
AcDbLine
 10
120.3395435633412
 20
281.2469661545419
 30
0.0
 11
120.3395435633412
 21
258.2469661545419
 31
0.0
  0
ARC
  5
215
330
18
100
AcDbEntity
  8
1
  6
Continuous
100
AcDbCircle
 10
99.79787156334101
 20
269.7469661545418
 30
0.0
 40
23.541666
100
AcDbArc
 50
330.7582049999997
 51
29.24172
  0
ARC
  5
216
330
18
100
AcDbEntity
  8
1
  6
Continuous
100
AcDbCircle
 10
34.83954356334129
 20
355.7378871545418
 30
0.0
 40
96.5
100
AcDbArc
 50
340.7901369999998
 51
0.0000219999999343
  0
ARC
  5
217
330
18
100
AcDbEntity
  8
1
  6
Continuous
100
AcDbCircle
 10
-15.1604564366587
 20
363.9932351545418
 30
0.0
 40
150.0
100
AcDbArc
 50
342.1308110000001
 51
0.0000219999999343
  0
ARC
  5
218
330
18
100
AcDbEntity
  8
1
  6
Continuous
100
AcDbCircle
 10
130.3395435633412
 20
370.7469721545417
 30
0.0
 40
1.0
100
AcDbArc
 50
0.0
 51
89.99998199999998
  0
LINE
  5
219
330
18
100
AcDbEntity
  8
1
  6
Continuous
100
AcDbLine
 10
335.4161370558164
 20
495.5695501545417
 30
0.0
 11
294.6537880708658
 21
495.5695501545418
 31
0.0
  0
LINE
  5
21A
330
18
100
AcDbEntity
  8
1
  6
Continuous
100
AcDbLine
 10
335.4161370558163
 20
558.5695501545417
 30
0.0
 11
294.653788070866
 21
558.5695501545417
 31
0.0
  0
LINE
  5
21B
330
18
100
AcDbEntity
  8
4
  6
CENTER
100
AcDbLine
 10
240.0349645633411
 20
527.0695501545421
 30
0.0
 11
390.0349605633412
 21
527.0695501545421
 31
0.0
  0
LINE
  5
21C
330
18
100
AcDbEntity
  8
1
  6
Continuous
100
AcDbLine
 10
287.923510563341
 20
547.0695501545418
 30
0.0
 11
342.146418563341
 21
547.0695501545418
 31
0.0
  0
LINE
  5
21D
330
18
100
AcDbEntity
  8
1
  6
Continuous
100
AcDbLine
 10
287.923510563341
 20
507.069550154542
 30
0.0
 11
342.146418563341
 21
507.069550154542
 31
0.0
  0
ARC
  5
21E
330
18
100
AcDbEntity
  8
1
  6
Continuous
100
AcDbCircle
 10
315.0349645633411
 20
515.111222154542
 30
0.0
 40
23.541666
100
AcDbArc
 50
240.7582050000005
 51
299.2417199999997
  0
LINE
  5
21F
330
18
100
AcDbEntity
  8
1
  6
Continuous
100
AcDbLine
 10
326.5349645633412
 20
494.5695501545418
 30
0.0
 11
303.5349645633412
 21
494.5695501545418
 31
0.0
  0
LINE
  5
220
330
18
100
AcDbEntity
  8
1
  6
Continuous
100
AcDbLine
 10
325.5349645633413
 20
561.5695501545417
 30
0.0
 11
304.5349645633413
 21
561.5695501545417
 31
0.0
  0
ARC
  5
221
330
18
100
AcDbEntity
  8
1
  6
Continuous
100
AcDbCircle
 10
319.7867855697036
 20
571.2264713051426
 30
0.0
 40
9.656921150600984
100
AcDbArc
 50
240.5236824704204
 51
299.4763843585407
  0
LINE
  5
222
330
18
100
AcDbEntity
  8
1
  6
Continuous
100
AcDbLine
 10
320.2849645633413
 20
572.5695501545422
 30
0.0
 11
309.7849645633413
 21
572.5695501545422
 31
0.0
  0
LINE
  5
223
330
18
100
AcDbEntity
  8
1
  6
Continuous
100
AcDbLine
 10
324.5349670621795
 20
568.5695501545422
 30
0.0
 11
305.5313127449098
 21
568.5695501545422
 31
0.0
  0
LINE
  5
224
330
18
100
AcDbEntity
  8
1
  6
Continuous
100
AcDbLine
 10
321.0349645633413
 20
571.8195501545417
 30
0.0
 11
309.0349645633413
 21
571.8195501545417
 31
0.0
  0
ARC
  5
225
330
18
100
AcDbEntity
  8
1
  6
Continuous
100
AcDbCircle
 10
319.7867855697036
 20
558.9126290039411
 30
0.0
 40
9.656921150600984
100
AcDbArc
 50
60.52361564145925
 51
119.4763175295785
  0
LINE
  5
226
330
18
100
AcDbEntity
  8
4
  6
CENTER
100
AcDbLine
 10
247.5349645633412
 20
269.7469731545418
 30
0.0
 11
382.5349645633412
 21
269.7469731545418
 31
0.0
  0
ARC
  5
22A
330
18
100
AcDbEntity
  8
1
  6
Continuous
100
AcDbCircle
 10
315.0349645633411
 20
269.7469731545418
 30
0.0
 40
19.0
100
AcDbArc
 50
269.9999630000001
 51
343.6876229999997
  0
CIRCLE
  5
22B
330
18
100
AcDbEntity
  8
1
  6
Continuous
100
AcDbCircle
 10
315.0349645633411
 20
269.7469731545418
 30
0.0
 40
11.499977
  0
LINE
  5
22D
330
18
100
AcDbEntity
  8
1
  6
Continuous
100
AcDbLine
 10
245.0349645633412
 20
375.2469731545417
 30
0.0
 11
385.0349605633413
 21
375.2469731545417
 31
0.0
  0
LINE
  5
22E
330
18
100
AcDbEntity
  8
4
  6
CENTER
100
AcDbLine
 10
315.0349645633411
 20
385.2469731545417
 30
0.0
 11
315.0349645633411
 21
196.818079154542
 31
0.0
  0
LINE
  5
22F
330
18
100
AcDbEntity
  8
1
  6
Continuous
100
AcDbLine
 10
260.3689135633411
 20
505.9053341545418
 30
0.0
 11
266.3689145633409
 21
504.405334154542
 31
0.0
  0
LINE
  5
230
330
18
100
AcDbEntity
  8
4
  6
CENTER
100
AcDbLine
 10
259.0349645633411
 20
508.0695465308425
 30
0.0
 11
259.0349645633411
 21
493.0695537782407
 31
0.0
  0
LINE
  5
231
330
18
100
AcDbEntity
  8
4
  6
CENTER
100
AcDbLine
 10
265.0349645633411
 20
506.5695465308427
 30
0.0
 11
265.0349645633411
 21
491.5695537782406
 31
0.0
  0
ARC
  5
232
330
18
100
AcDbEntity
  8
1
  6
Continuous
100
AcDbCircle
 10
259.0349645633411
 20
500.5695501545417
 30
0.0
 40
5.5
100
AcDbArc
 50
75.96366999999976
 51
255.9636339999999
  0
LINE
  5
233
330
18
100
AcDbEntity
  8
4
  6
CENTER
100
AcDbLine
 10
315.0349645633413
 20
578.0695501545417
 30
0.0
 11
315.0349645633411
 21
484.5695501545417
 31
0.0
  0
LINE
  5
234
330
18
100
AcDbEntity
  8
1
  6
Continuous
100
AcDbLine
 10
245.0349645633412
 20
492.0695501545417
 30
0.0
 11
245.0349645633412
 21
562.0695501545418
 31
0.0
  0
LINE
  5
235
330
18
100
AcDbEntity
  8
4
  6
CENTER
100
AcDbLine
 10
259.0349645633411
 20
381.0576520912363
 30
0.0
 11
259.0349645633411
 21
366.0576593386343
 31
0.0
  0
LINE
  5
236
330
18
100
AcDbEntity
  8
4
  6
CENTER
100
AcDbLine
 10
265.0349645633411
 20
381.0576520912363
 30
0.0
 11
265.0349645633411
 21
366.0576593386343
 31
0.0
  0
ARC
  5
237
330
18
100
AcDbEntity
  8
1
  6
Continuous
100
AcDbCircle
 10
261.0349875633413
 20
369.7469731545417
 30
0.0
 40
4.0
100
AcDbArc
 50
179.999981
 51
243.4295710000005
  0
LINE
  5
238
330
18
100
AcDbEntity
  8
1
  6
Continuous
100
AcDbLine
 10
285.9682985633412
 20
301.4367471545418
 30
0.0
 11
285.9682985633412
 21
368.1803071545417
 31
0.0
  0
ARC
  5
239
330
18
100
AcDbEntity
  8
1
  6
Continuous
100
AcDbCircle
 10
-55.46040043665868
 20
220.984873154542
 30
0.0
 40
350.0
100
AcDbArc
 50
12.70624700000002
 51
23.16246100000006
  0
LINE
  5
23A
330
18
100
AcDbEntity
  8
1
  6
Continuous
100
AcDbLine
 10
296.7998146312469
 20
264.4103724617746
 30
0.0
 11
266.8120995633411
 21
357.3582881545417
 31
0.0
  0
ARC
  5
23B
330
18
100
AcDbEntity
  8
1
  6
Continuous
100
AcDbCircle
 10
315.0349645633411
 20
269.7469731545418
 30
0.0
 40
19.0
100
AcDbArc
 50
196.3123579999999
 51
270.0000179999999
  0
ARC
  5
243
330
18
100
AcDbEntity
  8
1
  6
Continuous
100
AcDbCircle
 10
252.5363365633411
 20
352.7536531545417
 30
0.0
 40
15.0
100
AcDbArc
 50
17.87706199999998
 51
63.42957599999968
  0
ARC
  5
244
330
18
100
AcDbEntity
  8
1
  6
Continuous
100
AcDbCircle
 10
253.5349875633412
 20
371.7469731545417
 30
0.0
 40
3.5
100
AcDbArc
 50
0.0
 51
89.99998199999998
  0
LINE
  5
245
330
18
100
AcDbEntity
  8
1
  6
Continuous
100
AcDbLine
 10
245.0349645633412
 20
371.7469731545417
 30
0.0
 11
257.0349875633411
 21
371.7469731545417
 31
0.0
  0
LINE
  5
246
330
18
100
AcDbEntity
  8
1
  6
Continuous
100
AcDbLine
 10
245.0349645633412
 20
375.2469911545417
 30
0.0
 11
245.0349645633412
 21
371.7469731545417
 31
0.0
  0
LINE
  5
247
330
18
100
AcDbEntity
  8
1
  6
Continuous
100
AcDbLine
 10
257.0349875633411
 20
369.7469731545417
 30
0.0
 11
257.0349875633411
 21
371.7469731545417
 31
0.0
  0
ARC
  5
248
330
18
100
AcDbEntity
  8
1
  6
Continuous
100
AcDbCircle
 10
265.0349645633411
 20
499.0695501545418
 30
0.0
 40
5.5
100
AcDbArc
 50
255.9636649999998
 51
75.96366999999976
  0
ARC
  5
249
330
18
100
AcDbEntity
  8
1
  6
Continuous
100
AcDbCircle
 10
263.0349645633411
 20
502.0695501545417
 30
0.0
 40
22.0
100
AcDbArc
 50
269.9999630000001
 51
322.229510411364
  0
LINE
  5
24A
330
18
100
AcDbEntity
  8
4
  6
CENTER
100
AcDbLine
 10
272.5349609396421
 20
499.0695501545417
 30
0.0
 11
257.5349681870402
 21
499.0695501545417
 31
0.0
  0
ARC
  5
24B
330
18
100
AcDbEntity
  8
1
  6
Continuous
100
AcDbCircle
 10
257.0349645633411
 20
492.0695501545417
 30
0.0
 40
12.0
100
AcDbArc
 50
179.999981
 51
269.9999630000001
  0
LINE
  5
24C
330
18
100
AcDbEntity
  8
1
  6
Continuous
100
AcDbLine
 10
257.0349645633411
 20
480.0695501545417
 30
0.0
 11
263.0349645633411
 21
480.0695501545417
 31
0.0
  0
LINE
  5
24D
330
18
100
AcDbEntity
  8
4
  6
CENTER
100
AcDbLine
 10
266.5349609396421
 20
500.5695501545416
 30
0.0
 11
251.5349681870401
 21
500.5695501545416
 31
0.0
  0
LINE
  5
24E
330
18
100
AcDbEntity
  8
1
  6
Continuous
100
AcDbLine
 10
257.7010235633411
 20
495.2337661545418
 30
0.0
 11
263.7010225633413
 21
493.7337661545416
 31
0.0
  0
ARC
  5
24F
330
18
100
AcDbEntity
  8
1
  6
Continuous
100
AcDbCircle
 10
294.6537880708658
 20
477.5695501545417
 30
0.0
 40
18.0
100
AcDbArc
 50
90.0
 51
142.229510411364
  0
LINE
  5
250
330
18
100
AcDbEntity
  8
1
  6
Continuous
100
AcDbLine
 10
303.5349645633412
 20
495.5695501545418
 30
0.0
 11
303.5349645633412
 21
494.5695501545418
 31
0.0
  0
ARC
  5
251
330
18
100
AcDbEntity
  8
1
  6
Continuous
100
AcDbCircle
 10
257.0349645633411
 20
562.0695501545418
 30
0.0
 40
12.0
100
AcDbArc
 50
89.99998199999998
 51
179.9999639999999
  0
ARC
  5
252
330
18
100
AcDbEntity
  8
1
  6
Continuous
100
AcDbCircle
 10
263.0349645633411
 20
552.0695501545421
 30
0.0
 40
22.0
100
AcDbArc
 50
37.77048958863562
 51
89.99998199999998
  0
LINE
  5
253
330
18
100
AcDbEntity
  8
1
  6
Continuous
100
AcDbLine
 10
270.0349645633412
 20
537.0695501545418
 30
0.0
 11
266.0349645633412
 21
537.0695501545418
 31
0.0
  0
LINE
  5
254
330
18
100
AcDbEntity
  8
4
  6
CENTER
100
AcDbLine
 10
272.5349609396421
 20
555.0695501545418
 30
0.0
 11
257.5349681870402
 21
555.0695501545418
 31
0.0
  0
ARC
  5
255
330
18
100
AcDbEntity
  8
1
  6
Continuous
100
AcDbCircle
 10
265.0349645633411
 20
555.0695501545418
 30
0.0
 40
5.5
100
AcDbArc
 50
284.036275
 51
104.0362800000003
  0
LINE
  5
256
330
18
100
AcDbEntity
  8
1
  6
Continuous
100
AcDbLine
 10
270.0349645633412
 20
517.0695501545417
 30
0.0
 11
266.0349645633412
 21
517.0695501545417
 31
0.0
  0
ARC
  5
257
330
18
100
AcDbEntity
  8
1
  6
Continuous
100
AcDbCircle
 10
266.0349645633412
 20
527.0695501545421
 30
0.0
 40
10.0
100
AcDbArc
 50
89.99998199999998
 51
270.0000009999997
  0
ARC
  5
258
330
18
100
AcDbEntity
  8
1
  6
Continuous
100
AcDbCircle
 10
259.0349645633411
 20
553.5695501545418
 30
0.0
 40
5.5
100
AcDbArc
 50
104.0362800000003
 51
284.036258
  0
LINE
  5
259
330
18
100
AcDbEntity
  8
4
  6
CENTER
100
AcDbLine
 10
265.0349645633411
 20
547.5695537782407
 30
0.0
 11
265.0349645633411
 21
562.5695465308431
 31
0.0
  0
LINE
  5
25A
330
18
100
AcDbEntity
  8
4
  6
CENTER
100
AcDbLine
 10
259.0349645633411
 20
546.0695537782411
 30
0.0
 11
259.0349645633411
 21
561.0695465308431
 31
0.0
  0
LINE
  5
25B
330
18
100
AcDbEntity
  8
4
  6
CENTER
100
AcDbLine
 10
266.5349609396421
 20
553.5695501545418
 30
0.0
 11
251.5349681870401
 21
553.5695501545418
 31
0.0
  0
LINE
  5
25C
330
18
100
AcDbEntity
  8
1
  6
Continuous
100
AcDbLine
 10
260.3689135633411
 20
548.2337641545417
 30
0.0
 11
266.3689135633413
 21
549.733764154542
 31
0.0
  0
LINE
  5
25D
330
18
100
AcDbEntity
  8
1
  6
Continuous
100
AcDbLine
 10
257.0349645633411
 20
574.0695501545418
 30
0.0
 11
263.0349645633411
 21
574.0695501545418
 31
0.0
  0
LINE
  5
25E
330
18
100
AcDbEntity
  8
1
  6
Continuous
100
AcDbLine
 10
257.7010225633413
 20
558.9053311545418
 30
0.0
 11
263.7010215633411
 21
560.405331154542
 31
0.0
  0
ARC
  5
25F
330
18
100
AcDbEntity
  8
1
  6
Continuous
100
AcDbCircle
 10
270.0349645633412
 20
555.0695501545418
 30
0.0
 40
18.0
100
AcDbArc
 50
270.0000179999999
 51
328.4118499999999
  0
ARC
  5
260
330
18
100
AcDbEntity
  8
1
  6
Continuous
100
AcDbCircle
 10
270.0349645633412
 20
499.0695501545418
 30
0.0
 40
18.0
100
AcDbArc
 50
31.58809499999984
 51
89.99992700000012
  0
ARC
  5
261
330
18
100
AcDbEntity
  8
1
  6
Continuous
100
AcDbCircle
 10
287.923510563341
 20
510.0695501545417
 30
0.0
 40
3.0
100
AcDbArc
 50
211.5880080000001
 51
269.9999630000001
  0
ARC
  5
262
330
18
100
AcDbEntity
  8
1
  6
Continuous
100
AcDbCircle
 10
294.653788070866
 20
576.5695501545417
 30
0.0
 40
18.0
100
AcDbArc
 50
217.7704895886356
 51
270.0
  0
ARC
  5
263
330
18
100
AcDbEntity
  8
1
  6
Continuous
100
AcDbCircle
 10
287.923510563341
 20
544.0695501545421
 30
0.0
 40
3.0
100
AcDbArc
 50
89.99998199999998
 51
148.4119370000001
  0
ARC
  5
264
330
18
100
AcDbEntity
  8
1
  6
Continuous
100
AcDbCircle
 10
310.2831435569791
 20
571.2264713051426
 30
0.0
 40
9.656921150600984
100
AcDbArc
 50
240.5236156414583
 51
299.4763175295785
  0
ARC
  5
265
330
18
100
AcDbEntity
  8
1
  6
Continuous
100
AcDbCircle
 10
310.2831435569791
 20
558.9126290039411
 30
0.0
 40
9.656921150600984
100
AcDbArc
 50
60.52368247042146
 51
119.4763843585407
  0
LINE
  5
266
330
18
100
AcDbEntity
  8
1
  6
Continuous
100
AcDbLine
 10
305.5313127449098
 20
568.5695501545422
 30
0.0
 11
305.5313127449098
 21
561.5695501545418
 31
0.0
  0
LINE
  5
267
330
18
100
AcDbEntity
  8
1
  6
Continuous
100
AcDbLine
 10
304.5349645633413
 20
558.5695501545417
 30
0.0
 11
304.5349645633413
 21
561.5695501545417
 31
0.0
  0
LINE
  5
268
330
18
100
AcDbEntity
  8
1
  6
Continuous
100
AcDbLine
 10
315.0349645633413
 20
567.3195501545417
 30
0.0
 11
315.0349645633413
 21
562.8195501545421
 31
0.0
  0
LINE
  5
269
330
18
100
AcDbEntity
  8
1
  6
Continuous
100
AcDbLine
 10
309.7849645633413
 20
572.5695501545422
 30
0.0
 11
309.0349645633413
 21
571.8195501545417
 31
0.0
  0
LINE
  5
26A
330
18
100
AcDbEntity
  8
1
  6
Continuous
100
AcDbLine
 10
309.0349645633413
 20
571.8195501545417
 30
0.0
 11
309.0349645633413
 21
568.5695501545422
 31
0.0
  0
LINE
  5
26B
330
18
100
AcDbEntity
  8
2
  6
Continuous
100
AcDbLine
 10
309.7849645633413
 20
572.5695501545422
 30
0.0
 11
309.7849645633413
 21
568.5695501545422
 31
0.0
  0
LINE
  5
26C
330
18
100
AcDbEntity
  8
4
  6
CENTER
100
AcDbLine
 10
371.0349645633413
 20
508.0695465308425
 30
0.0
 11
371.0349645633413
 21
493.0695537782407
 31
0.0
  0
LINE
  5
26D
330
18
100
AcDbEntity
  8
1
  6
Continuous
100
AcDbLine
 10
369.7010265633409
 20
505.9053181545419
 30
0.0
 11
363.7010385633412
 21
504.4053201545417
 31
0.0
  0
LINE
  5
26E
330
18
100
AcDbEntity
  8
4
  6
CENTER
100
AcDbLine
 10
365.0349645633411
 20
506.5695465308427
 30
0.0
 11
365.0349645633411
 21
491.5695537782406
 31
0.0
  0
ARC
  5
26F
330
18
100
AcDbEntity
  8
1
  6
Continuous
100
AcDbCircle
 10
371.0349605633409
 20
500.5695501545417
 30
0.0
 40
5.5
100
AcDbArc
 50
284.0362620000001
 51
104.0362390000002
  0
LINE
  5
270
330
18
100
AcDbEntity
  8
1
  6
Continuous
100
AcDbLine
 10
385.0349605633413
 20
562.0695501545418
 30
0.0
 11
385.0349605633413
 21
492.0695501545417
 31
0.0
  0
ARC
  5
271
330
18
100
AcDbEntity
  8
1
  6
Continuous
100
AcDbCircle
 10
369.0349455633413
 20
369.7469731545417
 30
0.0
 40
4.0
100
AcDbArc
 50
296.5704099999996
 51
0.0
  0
LINE
  5
272
330
18
100
AcDbEntity
  8
4
  6
CENTER
100
AcDbLine
 10
371.0349645633413
 20
381.0576520912363
 30
0.0
 11
371.0349645633413
 21
366.0576593386343
 31
0.0
  0
LINE
  5
273
330
18
100
AcDbEntity
  8
4
  6
CENTER
100
AcDbLine
 10
365.0349645633411
 20
381.0576520912363
 30
0.0
 11
365.0349645633411
 21
366.0576593386343
 31
0.0
  0
LINE
  5
274
330
18
100
AcDbEntity
  8
1
  6
Continuous
100
AcDbLine
 10
344.1016265633413
 20
301.4367471545418
 30
0.0
 11
344.1016265633413
 21
368.1803071545417
 31
0.0
  0
ARC
  5
275
330
18
100
AcDbEntity
  8
1
  6
Continuous
100
AcDbCircle
 10
685.5303215633415
 20
220.984873154542
 30
0.0
 40
350.0
100
AcDbArc
 50
156.8375079999999
 51
167.2937219999998
  0
LINE
  5
276
330
18
100
AcDbEntity
  8
1
  6
Continuous
100
AcDbLine
 10
333.2701127257506
 20
264.41036641477
 30
0.0
 11
363.2578315633411
 21
357.3582881545417
 31
0.0
  0
ARC
  5
278
330
18
100
AcDbEntity
  8
1
  6
Continuous
100
AcDbCircle
 10
377.5335875633409
 20
352.7536531545417
 30
0.0
 40
15.0
100
AcDbArc
 50
116.5703880000003
 51
162.1228999999998
  0
LINE
  5
279
330
18
100
AcDbEntity
  8
1
  6
Continuous
100
AcDbLine
 10
385.0349605633413
 20
371.7469731545417
 30
0.0
 11
373.0349455633412
 21
371.7469731545417
 31
0.0
  0
ARC
  5
27A
330
18
100
AcDbEntity
  8
1
  6
Continuous
100
AcDbCircle
 10
376.5349455633412
 20
371.7469731545417
 30
0.0
 40
3.5
100
AcDbArc
 50
89.99998199999998
 51
179.9999639999999
  0
LINE
  5
27B
330
18
100
AcDbEntity
  8
1
  6
Continuous
100
AcDbLine
 10
373.0349455633412
 20
369.7469731545417
 30
0.0
 11
373.0349455633412
 21
371.7469731545417
 31
0.0
  0
LINE
  5
27C
330
18
100
AcDbEntity
  8
1
  6
Continuous
100
AcDbLine
 10
385.0349605633413
 20
375.2469911545417
 30
0.0
 11
385.0349605633413
 21
371.7469731545417
 31
0.0
  0
ARC
  5
27D
330
18
100
AcDbEntity
  8
1
  6
Continuous
100
AcDbCircle
 10
365.0349605633412
 20
499.0695501545418
 30
0.0
 40
5.5
100
AcDbArc
 50
104.0362390000002
 51
284.036258
  0
LINE
  5
27E
330
18
100
AcDbEntity
  8
1
  6
Continuous
100
AcDbLine
 10
372.3689185633412
 20
495.2337501545417
 30
0.0
 11
366.3689305633412
 21
493.7337531545415
 31
0.0
  0
LINE
  5
27F
330
18
100
AcDbEntity
  8
1
  6
Continuous
100
AcDbLine
 10
373.0349605633412
 20
480.0695501545417
 30
0.0
 11
367.0349605633413
 21
480.0695501545417
 31
0.0
  0
LINE
  5
280
330
18
100
AcDbEntity
  8
4
  6
CENTER
100
AcDbLine
 10
357.53496818704
 20
499.0695501545417
 30
0.0
 11
372.5349609396421
 21
499.0695501545417
 31
0.0
  0
LINE
  5
281
330
18
100
AcDbEntity
  8
4
  6
CENTER
100
AcDbLine
 10
363.5349681870402
 20
500.5695501545416
 30
0.0
 11
378.5349609396424
 21
500.5695501545416
 31
0.0
  0
ARC
  5
282
330
18
100
AcDbEntity
  8
1
  6
Continuous
100
AcDbCircle
 10
335.4161370558164
 20
477.5695501545417
 30
0.0
 40
18.0
100
AcDbArc
 50
37.77048958863594
 51
90.0
  0
LINE
  5
283
330
18
100
AcDbEntity
  8
1
  6
Continuous
100
AcDbLine
 10
326.5349645633412
 20
495.5695501545417
 30
0.0
 11
326.5349645633412
 21
494.5695501545418
 31
0.0
  0
ARC
  5
284
330
18
100
AcDbEntity
  8
1
  6
Continuous
100
AcDbCircle
 10
367.0349605633413
 20
502.0695501545417
 30
0.0
 40
22.0
100
AcDbArc
 50
217.7704895886359
 51
269.9999630000001
  0
ARC
  5
285
330
18
100
AcDbEntity
  8
1
  6
Continuous
100
AcDbCircle
 10
373.0349605633412
 20
492.0695501545417
 30
0.0
 40
12.0
100
AcDbArc
 50
269.9999630000001
 51
359.9999450000002
  0
ARC
  5
286
330
18
100
AcDbEntity
  8
1
  6
Continuous
100
AcDbCircle
 10
373.0349605633412
 20
562.0695501545418
 30
0.0
 40
12.0
100
AcDbArc
 50
0.0
 51
89.99998199999998
  0
ARC
  5
287
330
18
100
AcDbEntity
  8
1
  6
Continuous
100
AcDbCircle
 10
367.0349605633413
 20
552.0695501545421
 30
0.0
 40
22.0
100
AcDbArc
 50
89.99998199999998
 51
142.2295104113643
  0
LINE
  5
288
330
18
100
AcDbEntity
  8
4
  6
CENTER
100
AcDbLine
 10
357.53496818704
 20
555.0695501545418
 30
0.0
 11
372.5349609396421
 21
555.0695501545418
 31
0.0
  0
LINE
  5
289
330
18
100
AcDbEntity
  8
4
  6
CENTER
100
AcDbLine
 10
363.5349681870402
 20
553.5695501545418
 30
0.0
 11
378.5349609396424
 21
553.5695501545418
 31
0.0
  0
ARC
  5
28A
330
18
100
AcDbEntity
  8
1
  6
Continuous
100
AcDbCircle
 10
365.0349605633412
 20
555.0695501545418
 30
0.0
 40
5.5
100
AcDbArc
 50
75.96368400000017
 51
255.9636889999996
  0
LINE
  5
28B
330
18
100
AcDbEntity
  8
1
  6
Continuous
100
AcDbLine
 10
372.368907563341
 20
558.9053421545417
 30
0.0
 11
366.3689115633411
 21
560.405341154542
 31
0.0
  0
ARC
  5
28C
330
18
100
AcDbEntity
  8
1
  6
Continuous
100
AcDbCircle
 10
371.0349605633409
 20
553.5695501545418
 30
0.0
 40
5.5
100
AcDbArc
 50
255.9637059999996
 51
75.96368400000017
  0
LINE
  5
28D
330
18
100
AcDbEntity
  8
1
  6
Continuous
100
AcDbLine
 10
373.0349605633412
 20
574.0695501545418
 30
0.0
 11
367.0349605633413
 21
574.0695501545418
 31
0.0
  0
ARC
  5
28E
330
18
100
AcDbEntity
  8
1
  6
Continuous
100
AcDbCircle
 10
364.0349605633413
 20
527.0695501545421
 30
0.0
 40
10.0
100
AcDbArc
 50
269.9999630000001
 51
89.99998199999998
  0
ARC
  5
28F
330
18
100
AcDbEntity
  8
1
  6
Continuous
100
AcDbCircle
 10
360.0349605633413
 20
555.0695501545418
 30
0.0
 40
18.0
100
AcDbArc
 50
211.5881310000001
 51
269.9999630000001
  0
ARC
  5
290
330
18
100
AcDbEntity
  8
1
  6
Continuous
100
AcDbCircle
 10
360.0349605633413
 20
499.0695501545418
 30
0.0
 40
18.0
100
AcDbArc
 50
90.00003699999981
 51
148.4118689999999
  0
ARC
  5
291
330
18
100
AcDbEntity
  8
1
  6
Continuous
100
AcDbCircle
 10
342.146418563341
 20
510.0695501545417
 30
0.0
 40
3.0
100
AcDbArc
 50
270.0000179999999
 51
328.4119730000002
  0
LINE
  5
292
330
18
100
AcDbEntity
  8
1
  6
Continuous
100
AcDbLine
 10
360.0349495633409
 20
517.0695501545417
 30
0.0
 11
364.0349545633414
 21
517.0695501545417
 31
0.0
  0
LINE
  5
293
330
18
100
AcDbEntity
  8
1
  6
Continuous
100
AcDbLine
 10
360.0349605633413
 20
537.0695501545418
 30
0.0
 11
364.0349605633413
 21
537.0695501545418
 31
0.0
  0
ARC
  5
294
330
18
100
AcDbEntity
  8
1
  6
Continuous
100
AcDbCircle
 10
335.4161370558163
 20
576.5695501545417
 30
0.0
 40
18.0
100
AcDbArc
 50
270.0
 51
322.2295104113643
  0
ARC
  5
295
330
18
100
AcDbEntity
  8
1
  6
Continuous
100
AcDbCircle
 10
342.146418563341
 20
544.0695501545421
 30
0.0
 40
3.0
100
AcDbArc
 50
31.58802699999976
 51
89.99998199999998
  0
LINE
  5
296
330
18
100
AcDbEntity
  8
1
  6
Continuous
100
AcDbLine
 10
324.5349670621795
 20
568.5695501545422
 30
0.0
 11
324.5349670621795
 21
561.5695501545418
 31
0.0
  0
LINE
  5
297
330
18
100
AcDbEntity
  8
1
  6
Continuous
100
AcDbLine
 10
325.5349645633411
 20
558.5695501545417
 30
0.0
 11
325.5349645633413
 21
561.5695501545417
 31
0.0
  0
LINE
  5
298
330
18
100
AcDbEntity
  8
1
  6
Continuous
100
AcDbLine
 10
320.2849645633413
 20
572.5695501545422
 30
0.0
 11
321.0349645633413
 21
571.8195501545417
 31
0.0
  0
LINE
  5
299
330
18
100
AcDbEntity
  8
1
  6
Continuous
100
AcDbLine
 10
321.0349645633413
 20
571.8195501545417
 30
0.0
 11
321.0349645633413
 21
568.5695501545422
 31
0.0
  0
LINE
  5
29A
330
18
100
AcDbEntity
  8
2
  6
Continuous
100
AcDbLine
 10
320.2849645633413
 20
572.5695501545422
 30
0.0
 11
320.2849645633413
 21
568.5695501545422
 31
0.0
  0
LINE
  5
29B
330
18
100
AcDbEntity
  8
4
  6
CENTER
100
AcDbLine
 10
365.0349645633411
 20
547.5695537782407
 30
0.0
 11
365.0349645633411
 21
562.5695465308431
 31
0.0
  0
LINE
  5
29C
330
18
100
AcDbEntity
  8
1
  6
Continuous
100
AcDbLine
 10
369.7010155633412
 20
548.233775154542
 30
0.0
 11
363.7010195633409
 21
549.7337741545418
 31
0.0
  0
LINE
  5
29D
330
18
100
AcDbEntity
  8
4
  6
CENTER
100
AcDbLine
 10
371.0349645633413
 20
546.0695537782411
 30
0.0
 11
371.0349645633413
 21
561.0695465308431
 31
0.0
  0
ARC
  5
3DA
330
18
100
AcDbEntity
  8
1
  6
Continuous
100
AcDbCircle
 10
480.7303855633413
 20
278.2469661545419
 30
0.0
 40
30.0
100
AcDbArc
 50
359.9999949999999
 51
7.316466000000006
  0
ARC
  5
3DD
330
18
100
AcDbEntity
  8
1
  6
Continuous
100
AcDbCircle
 10
603.7303855633409
 20
278.2469661545419
 30
0.0
 40
30.0
100
AcDbArc
 50
172.6835389999999
 51
180.0
  0
ARC
  5
3E0
330
18
100
AcDbEntity
  8
1
  6
Continuous
100
AcDbCircle
 10
769.2211995633412
 20
258.1807271545419
 30
0.0
 40
200.0
100
AcDbArc
 50
160.7901369999999
 51
173.929955
  0
LINE
  5
3E1
330
18
100
AcDbEntity
  8
1
  6
Continuous
100
AcDbLine
 10
514.2303855633413
 20
370.7469721545417
 30
0.0
 11
514.2303855633413
 21
250.746966154542
 31
0.0
  0
LINE
  5
3E2
330
18
100
AcDbEntity
  8
1
  6
Continuous
100
AcDbLine
 10
570.230385563341
 20
370.7469721545417
 30
0.0
 11
570.230385563341
 21
250.746966154542
 31
0.0
  0
ARC
  5
3E3
330
18
100
AcDbEntity
  8
1
  6
Continuous
100
AcDbCircle
 10
315.2395785633411
 20
258.1807271545419
 30
0.0
 40
200.0
100
AcDbArc
 50
6.070038999999856
 51
19.20986100000032
  0
LINE
  5
3EE
330
18
100
AcDbEntity
  8
4
  6
CENTER
100
AcDbLine
 10
542.2303855633413
 20
385.2469731545417
 30
0.0
 11
542.2303855633413
 21
196.818079154542
 31
0.0
  0
LINE
  5
3F1
330
18
100
AcDbEntity
  8
4
  6
CENTER
100
AcDbLine
 10
593.2303855633412
 20
269.7469661545418
 30
0.0
 11
499.7303855633411
 21
269.7469661545418
 31
0.0
  0
LINE
  5
3F8
330
18
100
AcDbEntity
  8
1
  6
Continuous
100
AcDbLine
 10
573.7971275633412
 20
280.2469661545419
 30
0.0
 11
576.7303855633412
 21
280.2469661545419
 31
0.0
  0
LINE
  5
3F9
330
18
100
AcDbEntity
  8
1
  6
Continuous
100
AcDbLine
 10
573.7303855633411
 20
259.2469661545418
 30
0.0
 11
576.7303855633412
 21
259.2469661545418
 31
0.0
  0
LINE
  5
3FA
330
18
100
AcDbEntity
  8
1
  6
Continuous
100
AcDbLine
 10
576.7303855633412
 20
280.2469661545419
 30
0.0
 11
576.7303855633412
 21
259.2469661545418
 31
0.0
  0
ARC
  5
3FB
330
18
100
AcDbEntity
  8
1
  6
Continuous
100
AcDbCircle
 10
580.3637165633412
 20
261.5197241545418
 30
0.0
 40
3.633333
100
AcDbArc
 50
130.992734
 51
229.007266
  0
ARC
  5
3FC
330
18
100
AcDbEntity
  8
1
  6
Continuous
100
AcDbCircle
 10
580.097054563341
 20
261.5197241545418
 30
0.0
 40
3.633333
100
AcDbArc
 50
310.9927320000001
 51
49.00727199999979
  0
LINE
  5
3FD
330
18
100
AcDbEntity
  8
1
  6
Continuous
100
AcDbLine
 10
582.4803855633412
 20
258.7773081545419
 30
0.0
 11
577.9803855633412
 21
258.7773081545419
 31
0.0
  0
ARC
  5
3FE
330
18
100
AcDbEntity
  8
1
  6
Continuous
100
AcDbCircle
 10
589.3887105633411
 20
269.7469661545418
 30
0.0
 40
12.65833399999999
100
AcDbArc
 50
154.3229729999998
 51
205.6770270000003
  0
ARC
  5
3FF
330
18
100
AcDbEntity
  8
1
  6
Continuous
100
AcDbCircle
 10
571.0720455633413
 20
269.7469661545418
 30
0.0
 40
12.65833399999999
100
AcDbArc
 50
334.3229780000003
 51
25.67702600000014
  0
LINE
  5
400
330
18
100
AcDbEntity
  8
1
  6
Continuous
100
AcDbLine
 10
587.7303855633412
 20
274.9969661545418
 30
0.0
 11
587.7303855633412
 21
264.4969661545419
 31
0.0
  0
LINE
  5
401
330
18
100
AcDbEntity
  8
1
  6
Continuous
100
AcDbLine
 10
586.9803855633412
 20
275.7469661545418
 30
0.0
 11
586.9803855633412
 21
263.7469661545419
 31
0.0
  0
LINE
  5
402
330
18
100
AcDbEntity
  8
1
  6
Continuous
100
AcDbLine
 10
583.7303855633412
 20
277.9742071545419
 30
0.0
 11
583.7303855633412
 21
261.5197241545418
 31
0.0
  0
LINE
  5
403
330
18
100
AcDbEntity
  8
1
  6
Continuous
100
AcDbLine
 10
582.4803855633412
 20
264.2621411545419
 30
0.0
 11
577.9803855633412
 21
264.2621411545419
 31
0.0
  0
LINE
  5
404
330
18
100
AcDbEntity
  8
2
  6
Continuous
100
AcDbLine
 10
587.7303855633412
 20
264.4969661545419
 30
0.0
 11
583.7303855633412
 21
264.4969661545419
 31
0.0
  0
LINE
  5
405
330
18
100
AcDbEntity
  8
1
  6
Continuous
100
AcDbLine
 10
586.9803855633412
 20
263.7469661545419
 30
0.0
 11
583.7303855633412
 21
263.7469661545419
 31
0.0
  0
LINE
  5
406
330
18
100
AcDbEntity
  8
1
  6
Continuous
100
AcDbLine
 10
587.7303855633412
 20
264.4969661545419
 30
0.0
 11
586.9803855633412
 21
263.7469661545419
 31
0.0
  0
LINE
  5
407
330
18
100
AcDbEntity
  8
1
  6
Continuous
100
AcDbLine
 10
582.4803855633412
 20
275.2317911545418
 30
0.0
 11
577.9803855633412
 21
275.2317911545418
 31
0.0
  0
LINE
  5
408
330
18
100
AcDbEntity
  8
1
  6
Continuous
100
AcDbLine
 10
582.4803855633412
 20
280.7166241545418
 30
0.0
 11
577.9803855633412
 21
280.7166241545418
 31
0.0
  0
ARC
  5
409
330
18
100
AcDbEntity
  8
1
  6
Continuous
100
AcDbCircle
 10
580.097054563341
 20
277.9742071545419
 30
0.0
 40
3.633333
100
AcDbArc
 50
310.9927320000001
 51
49.00727199999979
  0
LINE
  5
40A
330
18
100
AcDbEntity
  8
1
  6
Continuous
100
AcDbLine
 10
587.7303855633412
 20
274.9969661545418
 30
0.0
 11
586.9803855633412
 21
275.7469661545418
 31
0.0
  0
LINE
  5
40B
330
18
100
AcDbEntity
  8
1
  6
Continuous
100
AcDbLine
 10
586.9803855633412
 20
275.7469661545418
 30
0.0
 11
583.7303855633412
 21
275.7469661545418
 31
0.0
  0
LINE
  5
40C
330
18
100
AcDbEntity
  8
2
  6
Continuous
100
AcDbLine
 10
587.7303855633412
 20
274.9969661545418
 30
0.0
 11
583.7303855633412
 21
274.9969661545418
 31
0.0
  0
ARC
  5
40D
330
18
100
AcDbEntity
  8
1
  6
Continuous
100
AcDbCircle
 10
580.3637165633412
 20
277.9742071545419
 30
0.0
 40
3.633333
100
AcDbArc
 50
130.992734
 51
229.007266
  0
LINE
  5
40E
330
18
100
AcDbEntity
  8
1
  6
Continuous
100
AcDbLine
 10
573.7303855633411
 20
278.2469661545419
 30
0.0
 11
573.7303855633411
 21
250.746966154542
 31
0.0
  0
LINE
  5
412
330
18
100
AcDbEntity
  8
1
  6
Continuous
100
AcDbLine
 10
573.7303855633411
 20
250.746966154542
 30
0.0
 11
570.230385563341
 21
250.746966154542
 31
0.0
  0
ARC
  5
414
330
18
100
AcDbEntity
  8
1
  6
Continuous
100
AcDbCircle
 10
590.2303855633411
 20
277.2146861545418
 30
0.0
 40
20.0
100
AcDbArc
 50
173.929955
 51
180.0
  0
LINE
  5
41B
330
18
100
AcDbEntity
  8
1
  6
Continuous
100
AcDbLine
 10
510.7303855633412
 20
250.746966154542
 30
0.0
 11
514.2303855633413
 21
250.746966154542
 31
0.0
  0
ARC
  5
422
330
18
100
AcDbEntity
  8
1
  6
Continuous
100
AcDbCircle
 10
494.2303855633412
 20
277.2146861545418
 30
0.0
 40
20.0
100
AcDbArc
 50
359.9999949999999
 51
6.070038999999856
  0
ARC
  5
424
330
18
100
AcDbEntity
  8
1
  6
Continuous
100
AcDbCircle
 10
530.2720575633412
 20
269.7469661545418
 30
0.0
 40
23.541666
100
AcDbArc
 50
150.7582799999999
 51
209.2417950000001
  0
LINE
  5
425
330
18
100
AcDbEntity
  8
1
  6
Continuous
100
AcDbLine
 10
509.7303855633412
 20
281.2469661545419
 30
0.0
 11
509.7303855633412
 21
258.2469661545419
 31
0.0
  0
LINE
  5
426
330
18
100
AcDbEntity
  8
1
  6
Continuous
100
AcDbLine
 10
510.7303855633412
 20
278.2469661545419
 30
0.0
 11
510.7303855633412
 21
250.746966154542
 31
0.0
  0
LINE
  5
427
330
18
100
AcDbEntity
  8
1
  6
Continuous
100
AcDbLine
 10
510.7303855633412
 20
258.2469661545419
 30
0.0
 11
509.7303855633412
 21
258.2469661545419
 31
0.0
  0
LINE
  5
428
330
18
100
AcDbEntity
  8
1
  6
Continuous
100
AcDbLine
 10
510.5800105633413
 20
281.2469661545419
 30
0.0
 11
509.7303855633412
 21
281.2469661545419
 31
0.0
  0
LINE
  5
42A
330
18
100
AcDbEntity
  8
1
  6
Continuous
100
AcDbLine
 10
498.7303855633411
 20
370.7469721545417
 30
0.0
 11
498.7303855633411
 21
355.7378871545418
 31
0.0
  0
LINE
  5
42B
330
18
100
AcDbEntity
  8
1
  6
Continuous
100
AcDbLine
 10
495.2303855633411
 20
375.2469731545417
 30
0.0
 11
495.2303855633411
 21
363.9932351545418
 31
0.0
  0
ARC
  5
42C
330
18
100
AcDbEntity
  8
1
  6
Continuous
100
AcDbCircle
 10
492.7303855633412
 20
366.292615154542
 30
0.0
 40
6.0
100
AcDbArc
 50
0.0000360000000476
 51
65.37571100000011
  0
ARC
  5
42D
330
18
100
AcDbEntity
  8
1
  6
Continuous
100
AcDbCircle
 10
591.7303855633412
 20
366.292615154542
 30
0.0
 40
6.0
100
AcDbArc
 50
114.6243180000001
 51
180.0
  0
LINE
  5
42E
330
18
100
AcDbEntity
  8
1
  6
Continuous
100
AcDbLine
 10
585.7303855633412
 20
370.7469721545417
 30
0.0
 11
585.7303855633412
 21
355.7378871545418
 31
0.0
  0
LINE
  5
42F
330
18
100
AcDbEntity
  8
1
  6
Continuous
100
AcDbLine
 10
589.2303855633412
 20
375.2469731545417
 30
0.0
 11
589.2303855633412
 21
363.9932351545418
 31
0.0
  0
LINE
  5
430
330
18
100
AcDbEntity
  8
4
  6
CENTER
100
AcDbLine
 10
568.7303855633412
 20
381.0576520912363
 30
0.0
 11
568.7303855633412
 21
366.0576593386343
 31
0.0
  0
LINE
  5
431
330
18
100
AcDbEntity
  8
4
  6
CENTER
100
AcDbLine
 10
570.2303855633411
 20
381.0576520912363
 30
0.0
 11
570.2303855633411
 21
366.0576593386343
 31
0.0
  0
LINE
  5
432
330
18
100
AcDbEntity
  8
4
  6
CENTER
100
AcDbLine
 10
514.2303855633411
 20
381.0576520912363
 30
0.0
 11
514.2303855633411
 21
366.0576593386343
 31
0.0
  0
LINE
  5
433
330
18
100
AcDbEntity
  8
4
  6
CENTER
100
AcDbLine
 10
515.730385563341
 20
381.0576520912363
 30
0.0
 11
515.730385563341
 21
366.0576593386343
 31
0.0
  0
ARC
  5
435
330
18
100
AcDbEntity
  8
1
  6
Continuous
100
AcDbCircle
 10
439.2303855633413
 20
363.9932351545418
 30
0.0
 40
150.0
100
AcDbArc
 50
342.1308130000001
 51
0.0000219999999413
  0
ARC
  5
436
330
18
100
AcDbEntity
  8
1
  6
Continuous
100
AcDbCircle
 10
489.2303855633413
 20
355.7378871545418
 30
0.0
 40
96.5
100
AcDbArc
 50
340.7901429999999
 51
0.0000219999999413
  0
ARC
  5
437
330
18
100
AcDbEntity
  8
1
  6
Continuous
100
AcDbCircle
 10
772.3462305633412
 20
256.597536154542
 30
0.0
 40
200.0
100
AcDbArc
 50
162.130811
 51
172.6835389999999
  0
ARC
  5
44F
330
18
100
AcDbEntity
  8
1
  6
Continuous
100
AcDbCircle
 10
645.230385563341
 20
363.9932351545418
 30
0.0
 40
150.0
100
AcDbArc
 50
179.999978
 51
197.8691889999998
  0
ARC
  5
450
330
18
100
AcDbEntity
  8
1
  6
Continuous
100
AcDbCircle
 10
595.230385563341
 20
355.7378871545418
 30
0.0
 40
96.5
100
AcDbArc
 50
179.999978
 51
199.2098629999999
  0
ARC
  5
454
330
18
100
AcDbEntity
  8
1
  6
Continuous
100
AcDbCircle
 10
312.1145425633411
 20
256.597536154542
 30
0.0
 40
200.0
100
AcDbArc
 50
7.316466000000006
 51
17.86919099999994
  0
LINE
  5
45D
330
18
100
AcDbEntity
  8
1
  6
Continuous
100
AcDbLine
 10
562.2303855633413
 20
369.7469721545417
 30
0.0
 11
522.2303855633413
 21
369.7469721545417
 31
0.0
  0
LINE
  5
45E
330
18
100
AcDbEntity
  8
1
  6
Continuous
100
AcDbLine
 10
589.2303855633412
 20
371.7469721545417
 30
0.0
 11
495.2303855633411
 21
371.7469721545417
 31
0.0
  0
LINE
  5
45F
330
18
100
AcDbEntity
  8
1
  6
Continuous
100
AcDbLine
 10
589.2303855633412
 20
375.2469731545417
 30
0.0
 11
495.2303855633411
 21
375.2469731545417
 31
0.0
  0
ARC
  5
460
330
18
100
AcDbEntity
  8
1
  6
Continuous
100
AcDbCircle
 10
584.7303855633412
 20
370.7469721545417
 30
0.0
 40
1.0
100
AcDbArc
 50
0.0000360000000476
 51
90.00001800000005
  0
ARC
  5
461
330
18
100
AcDbEntity
  8
1
  6
Continuous
100
AcDbCircle
 10
569.2303855633412
 20
370.7469721545417
 30
0.0
 40
1.0
100
AcDbArc
 50
0.0000360000000476
 51
90.00001800000005
  0
ARC
  5
462
330
18
100
AcDbEntity
  8
1
  6
Continuous
100
AcDbCircle
 10
562.2303855633413
 20
371.7469721545417
 30
0.0
 40
2.0
100
AcDbArc
 50
269.9999819999999
 51
0.0000189999998023
  0
ARC
  5
463
330
18
100
AcDbEntity
  8
1
  6
Continuous
100
AcDbCircle
 10
552.2303855633412
 20
371.7469721545417
 30
0.0
 40
2.0
100
AcDbArc
 50
269.9999819999999
 51
0.0000189999998023
  0
ARC
  5
464
330
18
100
AcDbEntity
  8
1
  6
Continuous
100
AcDbCircle
 10
532.2303855633413
 20
371.7469721545417
 30
0.0
 40
2.0
100
AcDbArc
 50
180.0
 51
270.0000369999997
  0
ARC
  5
465
330
18
100
AcDbEntity
  8
1
  6
Continuous
100
AcDbCircle
 10
522.2303855633413
 20
371.7469721545417
 30
0.0
 40
2.0
100
AcDbArc
 50
180.0
 51
270.0000369999997
  0
ARC
  5
466
330
18
100
AcDbEntity
  8
1
  6
Continuous
100
AcDbCircle
 10
515.2303855633411
 20
370.7469721545417
 30
0.0
 40
1.0
100
AcDbArc
 50
89.99998400000034
 51
179.9999639999999
  0
ARC
  5
467
330
18
100
AcDbEntity
  8
1
  6
Continuous
100
AcDbCircle
 10
499.7303855633411
 20
370.7469721545417
 30
0.0
 40
1.0
100
AcDbArc
 50
90.00001800000005
 51
180.0
  0
LINE
  5
517
330
18
100
AcDbEntity
  8
4
  6
CENTER
100
AcDbLine
 10
769.4258065633412
 20
385.2469731545417
 30
0.0
 11
769.4258065633412
 21
196.818079154542
 31
0.0
  0
LINE
  5
518
330
18
100
AcDbEntity
  8
1
  6
Continuous
100
AcDbLine
 10
751.1906584009318
 20
264.41036641477
 30
0.0
 11
721.2029395633414
 21
357.3582881545417
 31
0.0
  0
LINE
  5
519
330
18
100
AcDbEntity
  8
1
  6
Continuous
100
AcDbLine
 10
787.6609564954358
 20
264.4103724617746
 30
0.0
 11
817.6486715633414
 21
357.3582881545417
 31
0.0
  0
LINE
  5
51D
330
18
100
AcDbEntity
  8
4
  6
CENTER
100
AcDbLine
 10
836.9258065633411
 20
269.7469731545418
 30
0.0
 11
701.9258065633412
 21
269.7469731545418
 31
0.0
  0
ARC
  5
51E
330
18
100
AcDbEntity
  8
1
  6
Continuous
100
AcDbCircle
 10
769.4258065633412
 20
269.7469731545418
 30
0.0
 40
19.0
100
AcDbArc
 50
196.3123770000001
 51
270.0000369999997
  0
ARC
  5
51F
330
18
100
AcDbEntity
  8
1
  6
Continuous
100
AcDbCircle
 10
769.4258065633412
 20
269.7469731545418
 30
0.0
 40
19.0
100
AcDbArc
 50
269.9999819999999
 51
343.6876419999999
  0
ARC
  5
52D
330
18
100
AcDbEntity
  8
1
  6
Continuous
100
AcDbCircle
 10
1139.921171563341
 20
220.984873154542
 30
0.0
 40
350.0
100
AcDbArc
 50
156.8375389999999
 51
167.2937529999998
  0
LINE
  5
52E
330
18
100
AcDbEntity
  8
1
  6
Continuous
100
AcDbLine
 10
839.4258065633414
 20
375.2469731545417
 30
0.0
 11
699.4258105633412
 21
375.2469731545417
 31
0.0
  0
ARC
  5
52F
330
18
100
AcDbEntity
  8
1
  6
Continuous
100
AcDbCircle
 10
823.4257835633412
 20
369.7469731545417
 30
0.0
 40
4.0
100
AcDbArc
 50
296.5704289999994
 51
0.0000189999998023
  0
LINE
  5
530
330
18
100
AcDbEntity
  8
4
  6
CENTER
100
AcDbLine
 10
819.4258065633412
 20
381.0576520912363
 30
0.0
 11
819.4258065633412
 21
366.0576593386343
 31
0.0
  0
LINE
  5
531
330
18
100
AcDbEntity
  8
4
  6
CENTER
100
AcDbLine
 10
825.4258065633415
 20
381.0576520912363
 30
0.0
 11
825.4258065633415
 21
366.0576593386343
 31
0.0
  0
ARC
  5
532
330
18
100
AcDbEntity
  8
1
  6
Continuous
100
AcDbCircle
 10
831.9244345633414
 20
352.7536531545417
 30
0.0
 40
15.0
100
AcDbArc
 50
116.5704240000003
 51
162.1229379999999
  0
LINE
  5
533
330
18
100
AcDbEntity
  8
1
  6
Continuous
100
AcDbLine
 10
839.4258065633414
 20
371.7469731545417
 30
0.0
 11
827.4257835633413
 21
371.7469731545417
 31
0.0
  0
ARC
  5
534
330
18
100
AcDbEntity
  8
1
  6
Continuous
100
AcDbCircle
 10
830.9257835633413
 20
371.7469731545417
 30
0.0
 40
3.5
100
AcDbArc
 50
90.00001800000005
 51
180.0
  0
LINE
  5
535
330
18
100
AcDbEntity
  8
1
  6
Continuous
100
AcDbLine
 10
839.4258065633414
 20
375.2469911545417
 30
0.0
 11
839.4258065633414
 21
371.7469731545417
 31
0.0
  0
LINE
  5
536
330
18
100
AcDbEntity
  8
1
  6
Continuous
100
AcDbLine
 10
827.4257835633413
 20
369.7469731545417
 30
0.0
 11
827.4257835633413
 21
371.7469731545417
 31
0.0
  0
LINE
  5
537
330
18
100
AcDbEntity
  8
1
  6
Continuous
100
AcDbLine
 10
740.3591445633412
 20
301.4367471545418
 30
0.0
 11
740.3591445633412
 21
368.1803071545417
 31
0.0
  0
LINE
  5
538
330
18
100
AcDbEntity
  8
4
  6
CENTER
100
AcDbLine
 10
719.4258065633412
 20
381.0576520912363
 30
0.0
 11
719.4258065633412
 21
366.0576593386343
 31
0.0
  0
LINE
  5
539
330
18
100
AcDbEntity
  8
4
  6
CENTER
100
AcDbLine
 10
713.4258065633412
 20
381.0576520912363
 30
0.0
 11
713.4258065633412
 21
366.0576593386343
 31
0.0
  0
ARC
  5
53A
330
18
100
AcDbEntity
  8
1
  6
Continuous
100
AcDbCircle
 10
715.4258255633414
 20
369.7469731545417
 30
0.0
 40
4.0
100
AcDbArc
 50
180.0
 51
243.4295900000002
  0
LINE
  5
53B
330
18
100
AcDbEntity
  8
1
  6
Continuous
100
AcDbLine
 10
798.4924725633414
 20
301.4367471545418
 30
0.0
 11
798.4924725633414
 21
368.1803071545417
 31
0.0
  0
ARC
  5
53C
330
18
100
AcDbEntity
  8
1
  6
Continuous
100
AcDbCircle
 10
398.9304495633409
 20
220.984873154542
 30
0.0
 40
350.0
100
AcDbArc
 50
12.70627800000012
 51
23.16249200000007
  0
ARC
  5
53D
330
18
100
AcDbEntity
  8
1
  6
Continuous
100
AcDbCircle
 10
706.9271835633415
 20
352.7536531545417
 30
0.0
 40
15.0
100
AcDbArc
 50
17.87710000000014
 51
63.42961199999961
  0
LINE
  5
53E
330
18
100
AcDbEntity
  8
1
  6
Continuous
100
AcDbLine
 10
699.4258105633412
 20
371.7469731545417
 30
0.0
 11
711.4258255633414
 21
371.7469731545417
 31
0.0
  0
ARC
  5
53F
330
18
100
AcDbEntity
  8
1
  6
Continuous
100
AcDbCircle
 10
707.9258255633414
 20
371.7469731545417
 30
0.0
 40
3.5
100
AcDbArc
 50
0.0000360000000476
 51
90.00001800000005
  0
LINE
  5
540
330
18
100
AcDbEntity
  8
1
  6
Continuous
100
AcDbLine
 10
711.4258255633414
 20
369.7469731545417
 30
0.0
 11
711.4258255633414
 21
371.7469731545417
 31
0.0
  0
LINE
  5
541
330
18
100
AcDbEntity
  8
1
  6
Continuous
100
AcDbLine
 10
699.4258105633412
 20
375.2469911545417
 30
0.0
 11
699.4258105633412
 21
371.7469731545417
 31
0.0
  0
ARC
  5
61A
330
18
100
AcDbEntity
  8
1
  6
Continuous
100
AcDbCircle
 10
769.4258065633412
 20
269.7469731545418
 30
0.0
 40
10.49999999999976
100
AcDbArc
 50
34.79117795535063
 51
85.20882204464752
  0
ARC
  5
61B
330
18
100
AcDbEntity
  8
1
  6
Continuous
100
AcDbCircle
 10
769.4258065633412
 20
269.7469731545418
 30
0.0
 40
10.49999999999976
100
AcDbArc
 50
94.7911779553525
 51
145.2088220446493
  0
CIRCLE
  5
61C
330
18
100
AcDbEntity
  8
1
  6
Continuous
100
AcDbCircle
 10
769.4258065633412
 20
269.7469731545418
 30
0.0
 40
9.499995570623923
  0
LINE
  5
61D
330
18
100
AcDbEntity
  8
1
  6
Continuous
100
AcDbLine
 10
759.9258109927172
 20
275.2317981545416
 30
0.0
 11
769.4258065633416
 21
280.7166231545418
 31
0.0
  0
LINE
  5
61E
330
18
100
AcDbEntity
  8
1
  6
Continuous
100
AcDbLine
 10
778.9258021339652
 20
275.2317981545416
 30
0.0
 11
769.4258065633412
 21
280.7166231545418
 31
0.0
  0
ARC
  5
634
330
18
100
AcDbEntity
  8
1
  6
Continuous
100
AcDbCircle
 10
769.4258065633412
 20
269.7469731545418
 30
0.0
 40
10.49999999999976
100
AcDbArc
 50
274.7911779553525
 51
325.2088220446493
  0
ARC
  5
635
330
18
100
AcDbEntity
  8
1
  6
Continuous
100
AcDbCircle
 10
769.4258065633412
 20
269.7469731545418
 30
0.0
 40
10.49999999999976
100
AcDbArc
 50
214.7911779553506
 51
265.2088220446474
  0
LINE
  5
636
330
18
100
AcDbEntity
  8
1
  6
Continuous
100
AcDbLine
 10
778.9258021339652
 20
264.2621481545422
 30
0.0
 11
769.4258065633412
 21
258.777323154542
 31
0.0
  0
LINE
  5
637
330
18
100
AcDbEntity
  8
1
  6
Continuous
100
AcDbLine
 10
759.9258109927172
 20
264.2621481545422
 30
0.0
 11
769.4258065633416
 21
258.777323154542
 31
0.0
  0
CIRCLE
  5
63C
330
18
100
AcDbEntity
  8
1
  6
Continuous
100
AcDbCircle
 10
769.4258065633412
 20
269.7469731545418
 30
0.0
 40
5.999999999999772
  0
CIRCLE
  5
63D
330
18
100
AcDbEntity
  8
2
  6
Continuous
100
AcDbCircle
 10
769.4258065633412
 20
269.7469731545418
 30
0.0
 40
5.25
  0
ARC
  5
63E
330
18
100
AcDbEntity
  8
1
  6
Continuous
100
AcDbCircle
 10
769.4258065633412
 20
269.7469731545418
 30
0.0
 40
10.49999999999976
100
AcDbArc
 50
154.79117795535
 51
205.2088220446499
  0
LINE
  5
63F
330
18
100
AcDbEntity
  8
1
  6
Continuous
100
AcDbLine
 10
759.9258109927172
 20
275.231798154542
 30
0.0
 11
759.9258109927172
 21
264.2621481545418
 31
0.0
  0
ARC
  5
640
330
18
100
AcDbEntity
  8
1
  6
Continuous
100
AcDbCircle
 10
769.4258065633412
 20
269.7469731545418
 30
0.0
 40
10.49999999999976
100
AcDbArc
 50
334.7911779553501
 51
25.20882204464991
  0
LINE
  5
641
330
18
100
AcDbEntity
  8
1
  6
Continuous
100
AcDbLine
 10
778.9258021339652
 20
275.231798154542
 30
0.0
 11
778.9258021339652
 21
264.2621481545418
 31
0.0
  0
LINE
  5
64C
330
18
100
AcDbEntity
  8
4
  6
CENTER
100
AcDbLine
 10
272.5349609396421
 20
50.46718599707992
 30
0.0
 11
257.5349681870402
 21
50.46718599707992
 31
0.0
  0
ARC
  5
64D
330
18
100
AcDbEntity
  8
1
  6
Continuous
100
AcDbCircle
 10
263.0349645633411
 20
53.46718599707992
 30
0.0
 40
22.0
100
AcDbArc
 50
270.0000179999999
 51
322.2295104113643
  0
LINE
  5
64E
330
18
100
AcDbEntity
  8
4
  6
CENTER
100
AcDbLine
 10
272.5349609396421
 20
106.4671859970802
 30
0.0
 11
257.5349681870402
 21
106.4671859970802
 31
0.0
  0
ARC
  5
64F
330
18
100
AcDbEntity
  8
1
  6
Continuous
100
AcDbCircle
 10
263.0349645633411
 20
103.46718599708
 30
0.0
 40
22.0
100
AcDbArc
 50
37.77048958863597
 51
90.00003699999981
  0
LINE
  5
650
330
18
100
AcDbEntity
  8
4
  6
CENTER
100
AcDbLine
 10
240.0349645633411
 20
78.46718599707992
 30
0.0
 11
390.0349605633412
 21
78.46718599707992
 31
0.0
  0
LINE
  5
651
330
18
100
AcDbEntity
  8
1
  6
Continuous
100
AcDbLine
 10
245.0349645633412
 20
113.4671859970801
 30
0.0
 11
245.0349645633412
 21
43.46718599707992
 31
0.0
  0
ARC
  5
652
330
18
100
AcDbEntity
  8
1
  6
Continuous
100
AcDbCircle
 10
265.0349645633411
 20
106.46718599708
 30
0.0
 40
5.5
100
AcDbArc
 50
284.0363300000002
 51
104.036335
  0
ARC
  5
653
330
18
100
AcDbEntity
  8
1
  6
Continuous
100
AcDbCircle
 10
259.0349645633411
 20
104.96718599708
 30
0.0
 40
5.5
100
AcDbArc
 50
104.0363659999999
 51
284.0363300000002
  0
LINE
  5
654
330
18
100
AcDbEntity
  8
4
  6
CENTER
100
AcDbLine
 10
265.0349645633411
 20
98.96718962077926
 30
0.0
 11
265.0349645633411
 21
113.9671823733811
 31
0.0
  0
LINE
  5
655
330
18
100
AcDbEntity
  8
4
  6
CENTER
100
AcDbLine
 10
259.0349645633411
 20
97.46718962077927
 30
0.0
 11
259.0349645633411
 21
112.467182373381
 31
0.0
  0
ARC
  5
656
330
18
100
AcDbEntity
  8
1
  6
Continuous
100
AcDbCircle
 10
257.0349645633411
 20
113.4671859970801
 30
0.0
 40
12.0
100
AcDbArc
 50
90.00003699999981
 51
180.0000189999998
  0
LINE
  5
657
330
18
100
AcDbEntity
  8
1
  6
Continuous
100
AcDbLine
 10
257.0349645633411
 20
125.46718599708
 30
0.0
 11
263.0349645633411
 21
125.46718599708
 31
0.0
  0
LINE
  5
658
330
18
100
AcDbEntity
  8
1
  6
Continuous
100
AcDbLine
 10
257.7010235633411
 20
110.30296999708
 30
0.0
 11
263.7010225633413
 21
111.8029699970801
 31
0.0
  0
LINE
  5
659
330
18
100
AcDbEntity
  8
4
  6
CENTER
100
AcDbLine
 10
266.5349609396421
 20
104.9671859970802
 30
0.0
 11
251.5349681870401
 21
104.9671859970802
 31
0.0
  0
LINE
  5
65A
330
18
100
AcDbEntity
  8
1
  6
Continuous
100
AcDbLine
 10
260.3689135633411
 20
99.63140199708
 30
0.0
 11
266.3689145633409
 21
101.1314019970799
 31
0.0
  0
LINE
  5
65E
330
18
100
AcDbEntity
  8
1
  6
Continuous
100
AcDbLine
 10
257.7010225633413
 20
46.63140499707992
 30
0.0
 11
263.7010215633411
 21
45.13140499707993
 31
0.0
  0
LINE
  5
65F
330
18
100
AcDbEntity
  8
4
  6
CENTER
100
AcDbLine
 10
259.0349645633411
 20
59.46718237338085
 30
0.0
 11
259.0349645633411
 21
44.46718962077887
 31
0.0
  0
LINE
  5
660
330
18
100
AcDbEntity
  8
4
  6
CENTER
100
AcDbLine
 10
265.0349645633411
 20
57.96718237338109
 30
0.0
 11
265.0349645633411
 21
42.96718962077885
 31
0.0
  0
ARC
  5
661
330
18
100
AcDbEntity
  8
1
  6
Continuous
100
AcDbCircle
 10
265.0349645633411
 20
50.46718599707992
 30
0.0
 40
5.5
100
AcDbArc
 50
255.9637199999995
 51
75.96372499999997
  0
LINE
  5
662
330
18
100
AcDbEntity
  8
4
  6
CENTER
100
AcDbLine
 10
266.5349609396421
 20
51.96718599707992
 30
0.0
 11
251.5349681870401
 21
51.96718599707992
 31
0.0
  0
ARC
  5
663
330
18
100
AcDbEntity
  8
1
  6
Continuous
100
AcDbCircle
 10
259.0349645633411
 20
51.96718599707992
 30
0.0
 40
5.5
100
AcDbArc
 50
75.96374199999992
 51
255.9637199999995
  0
LINE
  5
664
330
18
100
AcDbEntity
  8
1
  6
Continuous
100
AcDbLine
 10
260.3689135633411
 20
57.30297199708002
 30
0.0
 11
266.3689135633413
 21
55.80297199708002
 31
0.0
  0
ARC
  5
665
330
18
100
AcDbEntity
  8
1
  6
Continuous
100
AcDbCircle
 10
257.0349645633411
 20
43.46718599707992
 30
0.0
 40
12.0
100
AcDbArc
 50
180.000036
 51
270.0000179999999
  0
LINE
  5
666
330
18
100
AcDbEntity
  8
1
  6
Continuous
100
AcDbLine
 10
257.0349645633411
 20
31.46718599707992
 30
0.0
 11
263.0349645633411
 21
31.46718599707992
 31
0.0
  0
LINE
  5
669
330
18
100
AcDbEntity
  8
1
  6
Continuous
100
AcDbLine
 10
385.0349605633413
 20
43.46718599707992
 30
0.0
 11
385.0349605633413
 21
113.4671859970801
 31
0.0
  0
LINE
  5
66A
330
18
100
AcDbEntity
  8
4
  6
CENTER
100
AcDbLine
 10
315.0349645633413
 20
27.46718599708015
 30
0.0
 11
315.0349645633411
 21
120.9671859970802
 31
0.0
  0
LINE
  5
66C
330
18
100
AcDbEntity
  8
1
  6
Continuous
100
AcDbLine
 10
335.4161370558164
 20
109.9671859970802
 30
0.0
 11
294.6537880708658
 21
109.96718599708
 31
0.0
  0
LINE
  5
66D
330
18
100
AcDbEntity
  8
1
  6
Continuous
100
AcDbLine
 10
326.5349645633412
 20
109.9671859970802
 30
0.0
 11
326.5349645633412
 21
110.9671859970802
 31
0.0
  0
LINE
  5
66E
330
18
100
AcDbEntity
  8
1
  6
Continuous
100
AcDbLine
 10
303.5349645633412
 20
109.96718599708
 30
0.0
 11
303.5349645633412
 21
110.9671859970802
 31
0.0
  0
ARC
  5
66F
330
18
100
AcDbEntity
  8
1
  6
Continuous
100
AcDbCircle
 10
294.6537880708658
 20
127.9671859970802
 30
0.0
 40
18.0
100
AcDbArc
 50
217.7704895886359
 51
270.0
  0
LINE
  5
670
330
18
100
AcDbEntity
  8
1
  6
Continuous
100
AcDbLine
 10
326.5349645633412
 20
110.9671859970802
 30
0.0
 11
303.5349645633412
 21
110.9671859970802
 31
0.0
  0
ARC
  5
671
330
18
100
AcDbEntity
  8
1
  6
Continuous
100
AcDbCircle
 10
315.0349645633411
 20
90.42551399708004
 30
0.0
 40
23.541666
100
AcDbArc
 50
60.75828000000037
 51
119.2417949999996
  0
ARC
  5
673
330
18
100
AcDbEntity
  8
1
  6
Continuous
100
AcDbCircle
 10
335.4161370558164
 20
127.9671859970802
 30
0.0
 40
18.0
100
AcDbArc
 50
270.0
 51
322.229510411364
  0
ARC
  5
674
330
18
100
AcDbEntity
  8
1
  6
Continuous
100
AcDbCircle
 10
365.0349605633412
 20
106.46718599708
 30
0.0
 40
5.5
100
AcDbArc
 50
75.96374199999992
 51
255.9637609999997
  0
ARC
  5
675
330
18
100
AcDbEntity
  8
1
  6
Continuous
100
AcDbCircle
 10
371.0349605633409
 20
104.96718599708
 30
0.0
 40
5.5
100
AcDbArc
 50
255.9637609999997
 51
75.96373799999985
  0
LINE
  5
676
330
18
100
AcDbEntity
  8
4
  6
CENTER
100
AcDbLine
 10
365.0349645633411
 20
98.96718962077926
 30
0.0
 11
365.0349645633411
 21
113.9671823733811
 31
0.0
  0
LINE
  5
677
330
18
100
AcDbEntity
  8
4
  6
CENTER
100
AcDbLine
 10
371.0349645633413
 20
97.46718962077927
 30
0.0
 11
371.0349645633413
 21
112.467182373381
 31
0.0
  0
ARC
  5
678
330
18
100
AcDbEntity
  8
1
  6
Continuous
100
AcDbCircle
 10
367.0349605633413
 20
103.46718599708
 30
0.0
 40
22.0
100
AcDbArc
 50
90.00003699999981
 51
142.229510411364
  0
ARC
  5
679
330
18
100
AcDbEntity
  8
1
  6
Continuous
100
AcDbCircle
 10
373.0349605633412
 20
113.4671859970801
 30
0.0
 40
12.0
100
AcDbArc
 50
0.0000549999998498
 51
90.0
  0
LINE
  5
67A
330
18
100
AcDbEntity
  8
1
  6
Continuous
100
AcDbLine
 10
373.0349605633412
 20
125.46718599708
 30
0.0
 11
367.0349605633413
 21
125.4671859970801
 31
0.0
  0
LINE
  5
67B
330
18
100
AcDbEntity
  8
1
  6
Continuous
100
AcDbLine
 10
372.3689185633412
 20
110.3029859970802
 30
0.0
 11
366.3689305633412
 21
111.8029829970802
 31
0.0
  0
LINE
  5
67D
330
18
100
AcDbEntity
  8
4
  6
CENTER
100
AcDbLine
 10
363.5349681870402
 20
104.9671859970802
 30
0.0
 11
378.5349609396424
 21
104.9671859970802
 31
0.0
  0
LINE
  5
67E
330
18
100
AcDbEntity
  8
4
  6
CENTER
100
AcDbLine
 10
357.53496818704
 20
106.4671859970802
 30
0.0
 11
372.5349609396421
 21
106.4671859970802
 31
0.0
  0
LINE
  5
67F
330
18
100
AcDbEntity
  8
1
  6
Continuous
100
AcDbLine
 10
369.7010265633409
 20
99.63141799708006
 30
0.0
 11
363.7010385633412
 21
101.1314159970799
 31
0.0
  0
LINE
  5
685
330
18
100
AcDbEntity
  8
1
  6
Continuous
100
AcDbLine
 10
335.4161370558163
 20
46.96718599708014
 30
0.0
 11
294.653788070866
 21
46.96718599708014
 31
0.0
  0
ARC
  5
686
330
18
100
AcDbEntity
  8
1
  6
Continuous
100
AcDbCircle
 10
294.653788070866
 20
28.96718599708015
 30
0.0
 40
18.0
100
AcDbArc
 50
90.00000000000005
 51
142.2295104113643
  0
LINE
  5
688
330
18
100
AcDbEntity
  8
1
  6
Continuous
100
AcDbLine
 10
325.5349645633411
 20
46.96718599708014
 30
0.0
 11
325.5349645633413
 21
43.96718599708014
 31
0.0
  0
LINE
  5
689
330
18
100
AcDbEntity
  8
1
  6
Continuous
100
AcDbLine
 10
304.5349645633413
 20
46.96718599708014
 30
0.0
 11
304.5349645633413
 21
43.96718599708014
 31
0.0
  0
ARC
  5
68A
330
18
100
AcDbEntity
  8
1
  6
Continuous
100
AcDbCircle
 10
319.7867855697036
 20
46.62410714768088
 30
0.0
 40
9.656921150600984
100
AcDbArc
 50
240.5236824704215
 51
299.4763843585407
  0
LINE
  5
68B
330
18
100
AcDbEntity
  8
1
  6
Continuous
100
AcDbLine
 10
321.0349645633413
 20
33.71718599708015
 30
0.0
 11
309.0349645633413
 21
33.71718599708015
 31
0.0
  0
LINE
  5
68C
330
18
100
AcDbEntity
  8
1
  6
Continuous
100
AcDbLine
 10
324.5349670621795
 20
36.96718599707992
 30
0.0
 11
305.5313127449098
 21
36.96718599707992
 31
0.0
  0
LINE
  5
68D
330
18
100
AcDbEntity
  8
1
  6
Continuous
100
AcDbLine
 10
320.2849645633413
 20
32.96718599707992
 30
0.0
 11
309.7849645633413
 21
32.96718599707992
 31
0.0
  0
ARC
  5
68E
330
18
100
AcDbEntity
  8
1
  6
Continuous
100
AcDbCircle
 10
319.7867855697036
 20
34.31026484647941
 30
0.0
 40
9.656921150600984
100
AcDbArc
 50
60.52361564145925
 51
119.4763175295794
  0
LINE
  5
68F
330
18
100
AcDbEntity
  8
1
  6
Continuous
100
AcDbLine
 10
325.5349645633413
 20
43.96718599708014
 30
0.0
 11
304.5349645633413
 21
43.96718599708014
 31
0.0
  0
LINE
  5
690
330
18
100
AcDbEntity
  8
2
  6
Continuous
100
AcDbLine
 10
309.7849645633413
 20
32.96718599707992
 30
0.0
 11
309.7849645633413
 21
36.96718599707992
 31
0.0
  0
LINE
  5
691
330
18
100
AcDbEntity
  8
1
  6
Continuous
100
AcDbLine
 10
309.0349645633413
 20
33.71718599708015
 30
0.0
 11
309.0349645633413
 21
36.96718599707992
 31
0.0
  0
ARC
  5
692
330
18
100
AcDbEntity
  8
1
  6
Continuous
100
AcDbCircle
 10
310.2831435569791
 20
46.62410714768088
 30
0.0
 40
9.656921150600984
100
AcDbArc
 50
240.5236156414592
 51
299.4763175295785
  0
ARC
  5
693
330
18
100
AcDbEntity
  8
1
  6
Continuous
100
AcDbCircle
 10
310.2831435569791
 20
34.31026484647941
 30
0.0
 40
9.656921150600984
100
AcDbArc
 50
60.52368247042146
 51
119.4763843585416
  0
LINE
  5
694
330
18
100
AcDbEntity
  8
1
  6
Continuous
100
AcDbLine
 10
305.5313127449098
 20
36.96718599707992
 30
0.0
 11
305.5313127449098
 21
43.96718599707992
 31
0.0
  0
LINE
  5
695
330
18
100
AcDbEntity
  8
1
  6
Continuous
100
AcDbLine
 10
315.0349645633413
 20
38.21718599708015
 30
0.0
 11
315.0349645633413
 21
42.71718599707992
 31
0.0
  0
LINE
  5
696
330
18
100
AcDbEntity
  8
1
  6
Continuous
100
AcDbLine
 10
309.7849645633413
 20
32.96718599707992
 30
0.0
 11
309.0349645633413
 21
33.71718599708015
 31
0.0
  0
LINE
  5
697
330
18
100
AcDbEntity
  8
2
  6
Continuous
100
AcDbLine
 10
320.2849645633413
 20
32.96718599707992
 30
0.0
 11
320.2849645633413
 21
36.96718599707992
 31
0.0
  0
LINE
  5
698
330
18
100
AcDbEntity
  8
1
  6
Continuous
100
AcDbLine
 10
321.0349645633413
 20
33.71718599708015
 30
0.0
 11
321.0349645633413
 21
36.96718599707992
 31
0.0
  0
LINE
  5
699
330
18
100
AcDbEntity
  8
1
  6
Continuous
100
AcDbLine
 10
324.5349670621795
 20
36.96718599707992
 30
0.0
 11
324.5349670621795
 21
43.96718599707992
 31
0.0
  0
LINE
  5
69A
330
18
100
AcDbEntity
  8
1
  6
Continuous
100
AcDbLine
 10
320.2849645633413
 20
32.96718599707992
 30
0.0
 11
321.0349645633413
 21
33.71718599708015
 31
0.0
  0
LINE
  5
69B
330
18
100
AcDbEntity
  8
1
  6
Continuous
100
AcDbLine
 10
369.7010155633412
 20
57.30296099707993
 30
0.0
 11
363.7010195633409
 21
55.80296199708005
 31
0.0
  0
ARC
  5
69C
330
18
100
AcDbEntity
  8
1
  6
Continuous
100
AcDbCircle
 10
365.0349605633412
 20
50.46718599707992
 30
0.0
 40
5.5
100
AcDbArc
 50
104.0363110000003
 51
284.0363159999998
  0
LINE
  5
69D
330
18
100
AcDbEntity
  8
4
  6
CENTER
100
AcDbLine
 10
363.5349681870402
 20
51.96718599707992
 30
0.0
 11
378.5349609396424
 21
51.96718599707992
 31
0.0
  0
LINE
  5
69E
330
18
100
AcDbEntity
  8
4
  6
CENTER
100
AcDbLine
 10
357.53496818704
 20
50.46718599707992
 30
0.0
 11
372.5349609396421
 21
50.46718599707992
 31
0.0
  0
ARC
  5
69F
330
18
100
AcDbEntity
  8
1
  6
Continuous
100
AcDbCircle
 10
367.0349605633413
 20
53.46718599707992
 30
0.0
 40
22.0
100
AcDbArc
 50
217.7704895886356
 51
270.0000179999999
  0
LINE
  5
6A0
330
18
100
AcDbEntity
  8
4
  6
CENTER
100
AcDbLine
 10
365.0349645633411
 20
57.96718237338109
 30
0.0
 11
365.0349645633411
 21
42.96718962077885
 31
0.0
  0
ARC
  5
6A1
330
18
100
AcDbEntity
  8
1
  6
Continuous
100
AcDbCircle
 10
335.4161370558163
 20
28.96718599708015
 30
0.0
 40
18.0
100
AcDbArc
 50
37.77048958863562
 51
90.00000000000005
  0
LINE
  5
6A3
330
18
100
AcDbEntity
  8
4
  6
CENTER
100
AcDbLine
 10
371.0349645633413
 20
59.46718237338085
 30
0.0
 11
371.0349645633413
 21
44.46718962077887
 31
0.0
  0
LINE
  5
6A4
330
18
100
AcDbEntity
  8
1
  6
Continuous
100
AcDbLine
 10
372.368907563341
 20
46.63139399708007
 30
0.0
 11
366.3689115633411
 21
45.13139499707995
 31
0.0
  0
ARC
  5
6A5
330
18
100
AcDbEntity
  8
1
  6
Continuous
100
AcDbCircle
 10
371.0349605633409
 20
51.96718599707992
 30
0.0
 40
5.5
100
AcDbArc
 50
284.0363159999998
 51
104.0362940000003
  0
ARC
  5
6A6
330
18
100
AcDbEntity
  8
1
  6
Continuous
100
AcDbCircle
 10
373.0349605633412
 20
43.46718599707992
 30
0.0
 40
12.0
100
AcDbArc
 50
270.0000179999999
 51
0.0
  0
LINE
  5
6A7
330
18
100
AcDbEntity
  8
1
  6
Continuous
100
AcDbLine
 10
373.0349605633412
 20
31.46718599707992
 30
0.0
 11
367.0349605633413
 21
31.46718599707992
 31
0.0
  0
LINE
  5
8A6
330
18
100
AcDbEntity
  8
1
  6
Continuous
100
AcDbLine
 10
335.4161370558164
 20
106.4671859970802
 30
0.0
 11
294.6537880708658
 21
106.46718599708
 31
0.0
  0
ARC
  5
8A7
330
18
100
AcDbEntity
  8
1
  6
Continuous
100
AcDbCircle
 10
335.4161370558164
 20
127.9671859970802
 30
0.0
 40
21.49999999999999
100
AcDbArc
 50
270.0
 51
322.229510411364
  0
ARC
  5
8A9
330
18
100
AcDbEntity
  8
1
  6
Continuous
100
AcDbCircle
 10
294.6537880708658
 20
127.9671859970802
 30
0.0
 40
21.49999999999999
100
AcDbArc
 50
217.7704895886359
 51
270.0
  0
ARC
  5
8AA
330
18
100
AcDbEntity
  8
1
  6
Continuous
100
AcDbCircle
 10
263.0349645633411
 20
103.46718599708
 30
0.0
 40
18.5
100
AcDbArc
 50
37.77048958863597
 51
90.00003699999981
  0
LINE
  5
8D1
330
18
100
AcDbEntity
  8
1
  6
Continuous
100
AcDbLine
 10
260.0829465876233
 20
121.9671859970802
 30
0.0
 11
263.0349685633411
 21
121.9671859970802
 31
0.0
  0
ARC
  5
8D2
330
18
100
AcDbEntity
  8
1
  6
Continuous
100
AcDbCircle
 10
260.0589575754629
 20
129.7974253949554
 30
0.0
 40
7.830276144603267
100
AcDbArc
 50
217.4599663061377
 51
270.1755329283644
  0
ARC
  5
8D6
330
18
100
AcDbEntity
  8
1
  6
Continuous
100
AcDbCircle
 10
263.0349645633411
 20
53.46718599707981
 30
0.0
 40
18.5
100
AcDbArc
 50
269.9999630000001
 51
322.229510411364
  0
LINE
  5
8D7
330
18
100
AcDbEntity
  8
1
  6
Continuous
100
AcDbLine
 10
260.0829465876233
 20
34.96718599707961
 30
0.0
 11
263.0349685633411
 21
34.96718599707964
 31
0.0
  0
ARC
  5
8D8
330
18
100
AcDbEntity
  8
1
  6
Continuous
100
AcDbCircle
 10
294.6537880708658
 20
28.96718599707957
 30
0.0
 40
21.49999999999999
100
AcDbArc
 50
90.00000000000005
 51
142.229510411364
  0
LINE
  5
8D9
330
18
100
AcDbEntity
  8
1
  6
Continuous
100
AcDbLine
 10
335.4161370558164
 20
50.46718599707958
 30
0.0
 11
294.6537880708658
 21
50.46718599707975
 31
0.0
  0
ARC
  5
8DA
330
18
100
AcDbEntity
  8
1
  6
Continuous
100
AcDbCircle
 10
335.4161370558164
 20
28.96718599707957
 30
0.0
 40
21.49999999999999
100
AcDbArc
 50
37.77048958863597
 51
90.00000000000005
  0
ARC
  5
8DB
330
18
100
AcDbEntity
  8
1
  6
Continuous
100
AcDbCircle
 10
367.0349605633413
 20
53.46718599707981
 30
0.0
 40
18.5
100
AcDbArc
 50
217.7704895886359
 51
269.9999630000001
  0
LINE
  5
8DC
330
18
100
AcDbEntity
  8
1
  6
Continuous
100
AcDbLine
 10
369.9869825390592
 20
34.96718599707961
 30
0.0
 11
367.0349605633413
 21
34.96718599707964
 31
0.0
  0
ARC
  5
AD6
330
18
100
AcDbEntity
  8
1
  6
Continuous
100
AcDbCircle
 10
370.0109715512194
 20
129.7974253949554
 30
0.0
 40
7.830276144603267
100
AcDbArc
 50
269.8244670716354
 51
322.5400336938623
  0
LINE
  5
AD7
330
18
100
AcDbEntity
  8
1
  6
Continuous
100
AcDbLine
 10
369.9869825390592
 20
121.9671859970802
 30
0.0
 11
367.0349605633413
 21
121.9671859970802
 31
0.0
  0
ARC
  5
AD8
330
18
100
AcDbEntity
  8
1
  6
Continuous
100
AcDbCircle
 10
367.0349645633411
 20
103.46718599708
 30
0.0
 40
18.5
100
AcDbArc
 50
89.99996300000018
 51
142.229510411364
  0
ARC
  5
AE3
330
18
100
AcDbEntity
  8
1
  6
Continuous
100
AcDbCircle
 10
260.0589575754629
 20
27.13694659920432
 30
0.0
 40
7.830276144603267
100
AcDbArc
 50
89.82446707163552
 51
142.5400336938622
  0
ARC
  5
AE4
330
18
100
AcDbEntity
  8
1
  6
Continuous
100
AcDbCircle
 10
370.0109715512194
 20
27.13694659920432
 30
0.0
 40
7.830276144603267
100
AcDbArc
 50
37.4599663061377
 51
90.17553292836451
  0
ARC
  5
C8C
330
18
100
AcDbEntity
  8
1
  6
Continuous
100
AcDbCircle
 10
315.0349645633411
 20
269.7469731545418
 30
0.0
 40
62.49999200000001
100
AcDbArc
 50
125.5750757171214
 51
54.42492221873363
  0
ARC
  5
C8D
330
18
100
AcDbEntity
  8
1
  6
Continuous
100
AcDbCircle
 10
315.0349645633411
 20
269.7469731545418
 30
0.0
 40
21.49999999999999
100
AcDbArc
 50
169.971585351139
 51
10.02840067288397
  0
ARC
  5
C8E
330
18
100
AcDbEntity
  8
1
  6
Continuous
100
AcDbCircle
 10
315.0349645633411
 20
269.7469731545418
 30
0.0
 40
44.512512
100
AcDbArc
 50
133.1446441563668
 51
46.85535261874735
  0
ARC
  5
C8F
330
18
100
AcDbEntity
  8
1
  6
Continuous
100
AcDbCircle
 10
315.0349645633411
 20
269.7469731545418
 30
0.0
 40
52.5
100
AcDbArc
 50
129.0942817240151
 51
50.90571568714143
  0
LINE
  5
C9C
330
18
100
AcDbEntity
  8
1
  6
Continuous
100
AcDbLine
 10
262.5349645633412
 20
97.46718599707996
 30
0.0
 11
367.7629534057579
 21
97.46718599707996
 31
0.0
  0
LINE
  5
C9D
330
18
100
AcDbEntity
  8
1
  6
Continuous
100
AcDbLine
 10
262.5349645633411
 20
59.46718599707995
 30
0.0
 11
367.5349685633412
 21
59.46718599707995
 31
0.0
  0
LINE
  5
C9E
330
18
100
AcDbEntity
  8
1
  6
Continuous
100
AcDbLine
 10
262.5349605633413
 20
97.46719399707993
 30
0.0
 11
255.7254285633413
 21
95.89508799707994
 31
0.0
  0
LINE
  5
C9F
330
18
100
AcDbEntity
  8
1
  6
Continuous
100
AcDbLine
 10
262.5349605633413
 20
59.46718599707995
 30
0.0
 11
255.7254325633413
 21
61.03928799707997
 31
0.0
  0
ARC
  5
CA0
330
18
100
AcDbEntity
  8
1
  6
Continuous
100
AcDbCircle
 10
377.5349645633413
 20
78.4671859970799
 30
0.0
 40
125.0
100
AcDbArc
 50
180.0
 51
186.8281399999985
  0
ARC
  5
CA1
330
18
100
AcDbEntity
  8
1
  6
Continuous
100
AcDbCircle
 10
377.5349645633413
 20
78.4671859970799
 30
0.0
 40
125.0
100
AcDbArc
 50
173.1718600000014
 51
180.0
  0
ARC
  5
CA2
330
18
100
AcDbEntity
  8
1
  6
Continuous
100
AcDbCircle
 10
256.4002825633413
 20
92.97197699707991
 30
0.0
 40
3.0
100
AcDbArc
 50
103.0000000000002
 51
173.1718600000014
  0
ARC
  5
CA3
330
18
100
AcDbEntity
  8
1
  6
Continuous
100
AcDbCircle
 10
256.4002825633413
 20
63.9623949970799
 30
0.0
 40
3.0
100
AcDbArc
 50
186.8281399999985
 51
256.9999999999997
  0
LINE
  5
CA8
330
18
100
AcDbEntity
  8
1
  6
Continuous
100
AcDbLine
 10
301.0349645633413
 20
105.4671859970798
 30
0.0
 11
329.0349643888083
 21
105.4671859970798
 31
0.0
  0
LINE
  5
CA9
330
18
100
AcDbEntity
  8
1
  6
Continuous
100
AcDbLine
 10
296.5349645633413
 20
104.9671859970799
 30
0.0
 11
333.5349640397426
 21
104.9671859970799
 31
0.0
  0
ARC
  5
CBE
330
18
100
AcDbEntity
  8
1
  6
Continuous
100
AcDbCircle
 10
296.5349645633413
 20
101.9671859970799
 30
0.0
 40
3.0
100
AcDbArc
 50
89.99998999999897
 51
172.9764099999973
  0
LINE
  5
CBF
330
18
100
AcDbEntity
  8
1
  6
Continuous
100
AcDbLine
 10
293.5574774633413
 20
102.3340359970799
 30
0.0
 11
292.9578695633413
 21
97.46719399707993
 31
0.0
  0
LINE
  5
CC0
330
18
100
AcDbEntity
  8
1
  6
Continuous
100
AcDbLine
 10
306.5349645633413
 20
105.4671859970798
 30
0.0
 11
306.5349645633413
 21
106.4671859970798
 31
0.0
  0
ARC
  5
CC2
330
18
100
AcDbEntity
  8
1
  6
Continuous
100
AcDbCircle
 10
301.0349645633413
 20
104.4671859970799
 30
0.0
 40
1.0
100
AcDbArc
 50
89.99998999999897
 51
150.0004999999986
  0
LINE
  5
CC9
330
18
100
AcDbEntity
  8
1
  6
Continuous
100
AcDbLine
 10
323.5349645633413
 20
106.4671859970798
 30
0.0
 11
323.5349645633413
 21
105.4671859970798
 31
0.0
  0
ARC
  5
CCE
330
18
100
AcDbEntity
  8
1
  6
Continuous
100
AcDbCircle
 10
329.0349645633412
 20
104.4671859970799
 30
0.0
 40
1.0
100
AcDbArc
 50
29.9995000000012
 51
90.00001000000095
  0
ARC
  5
CCF
330
18
100
AcDbEntity
  8
1
  6
Continuous
100
AcDbCircle
 10
333.5349645633413
 20
101.9671859970799
 30
0.0
 40
3.0
100
AcDbArc
 50
7.023590000002561
 51
90.00001000000095
  0
LINE
  5
CD0
330
18
100
AcDbEntity
  8
1
  6
Continuous
100
AcDbLine
 10
336.5124516633413
 20
102.3340359970799
 30
0.0
 11
337.1120595633414
 21
97.46719399707993
 31
0.0
  0
LINE
  5
CD1
330
18
100
AcDbEntity
  8
1
  6
Continuous
100
AcDbLine
 10
301.0349645633413
 20
51.46718599707995
 30
0.0
 11
329.0349645633412
 21
51.46718599707995
 31
0.0
  0
LINE
  5
CD2
330
18
100
AcDbEntity
  8
1
  6
Continuous
100
AcDbLine
 10
296.5349645633413
 20
51.96718599707995
 30
0.0
 11
333.5349645633413
 21
51.96718599707995
 31
0.0
  0
LINE
  5
CD6
330
18
100
AcDbEntity
  8
1
  6
Continuous
100
AcDbLine
 10
293.5574774633413
 20
54.60034899707998
 30
0.0
 11
292.9578714633414
 21
59.46717499707992
 31
0.0
  0
ARC
  5
CD7
330
18
100
AcDbEntity
  8
1
  6
Continuous
100
AcDbCircle
 10
296.5349645633413
 20
54.96718599707993
 30
0.0
 40
3.0
100
AcDbArc
 50
187.0235999999995
 51
270.0
  0
ARC
  5
CDA
330
18
100
AcDbEntity
  8
1
  6
Continuous
100
AcDbCircle
 10
301.0349645633413
 20
52.46718599707993
 30
0.0
 40
1.0
100
AcDbArc
 50
209.9994899999995
 51
270.0
  0
LINE
  5
CDB
330
18
100
AcDbEntity
  8
1
  6
Continuous
100
AcDbLine
 10
306.5349645633413
 20
51.46718599707995
 30
0.0
 11
306.5349645633413
 21
50.46718599707995
 31
0.0
  0
LINE
  5
CDF
330
18
100
AcDbEntity
  8
1
  6
Continuous
100
AcDbLine
 10
323.5349645633413
 20
50.46718599707995
 30
0.0
 11
323.5349645633413
 21
51.46718599707995
 31
0.0
  0
LINE
  5
CE0
330
18
100
AcDbEntity
  8
1
  6
Continuous
100
AcDbLine
 10
336.5124516633411
 20
54.60034899707998
 30
0.0
 11
337.1120576633413
 21
59.46717499707992
 31
0.0
  0
ARC
  5
CE1
330
18
100
AcDbEntity
  8
1
  6
Continuous
100
AcDbCircle
 10
329.0349645633412
 20
52.46718599707993
 30
0.0
 40
1.0
100
AcDbArc
 50
270.0
 51
330.0005100000003
  0
ARC
  5
CE2
330
18
100
AcDbEntity
  8
1
  6
Continuous
100
AcDbCircle
 10
333.5349645633413
 20
54.96718599707991
 30
0.0
 40
3.0
100
AcDbArc
 50
270.0
 51
352.9764000000003
  0
LINE
  5
CE3
330
18
100
AcDbEntity
  8
1
  6
Continuous
100
AcDbLine
 10
367.5349685633412
 20
97.46719399707993
 30
0.0
 11
374.3445005633412
 21
95.89508799707994
 31
0.0
  0
ARC
  5
CEF
330
18
100
AcDbEntity
  8
1
  6
Continuous
100
AcDbCircle
 10
252.5349645633413
 20
78.46718599707994
 30
0.0
 40
125.0
100
AcDbArc
 50
353.1718600000013
 51
0.0
  0
ARC
  5
CF0
330
18
100
AcDbEntity
  8
1
  6
Continuous
100
AcDbCircle
 10
373.6696465633412
 20
92.97197699707991
 30
0.0
 40
3.0
100
AcDbArc
 50
6.828139999998505
 51
76.99999999999973
  0
ARC
  5
CF1
330
18
100
AcDbEntity
  8
1
  6
Continuous
100
AcDbCircle
 10
252.5349645633413
 20
78.46718599707994
 30
0.0
 40
125.0
100
AcDbArc
 50
0.0
 51
6.828139999998505
  0
ARC
  5
CF2
330
18
100
AcDbEntity
  8
1
  6
Continuous
100
AcDbCircle
 10
373.6696465633412
 20
63.9623949970799
 30
0.0
 40
3.0
100
AcDbArc
 50
283.0000000000001
 51
353.1718600000013
  0
LINE
  5
CF3
330
18
100
AcDbEntity
  8
1
  6
Continuous
100
AcDbLine
 10
367.5349685633412
 20
59.46718599707995
 30
0.0
 11
374.3444965633413
 21
61.03928799707997
 31
0.0
  0
ARC
  5
D1B
330
18
100
AcDbEntity
  8
1
  6
Continuous
100
AcDbCircle
 10
769.4258065633412
 20
269.7469731545418
 30
0.0
 40
62.49999200000001
100
AcDbArc
 50
125.5750757171214
 51
54.42492221873363
  0
ARC
  5
D1C
330
18
100
AcDbEntity
  8
1
  6
Continuous
100
AcDbCircle
 10
769.4258065633412
 20
269.7469731545418
 30
0.0
 40
44.512512
100
AcDbArc
 50
133.1446441563668
 51
46.85535261874735
  0
ARC
  5
D1D
330
18
100
AcDbEntity
  8
1
  6
Continuous
100
AcDbCircle
 10
769.4258065633412
 20
269.7469731545418
 30
0.0
 40
52.5
100
AcDbArc
 50
129.0942817240151
 51
50.90571568714143
  0
ARC
  5
D1E
330
18
100
AcDbEntity
  8
1
  6
Continuous
100
AcDbCircle
 10
769.4258065633412
 20
269.7469731545418
 30
0.0
 40
21.49999999999999
100
AcDbArc
 50
169.971585351139
 51
10.02840067288397
  0
LINE
  5
D20
330
18
100
AcDbEntity
  8
1
  6
Continuous
100
AcDbLine
 10
106.8395435633411
 20
217.2469661545417
 30
0.0
 11
106.8395435633411
 21
322.2469701545418
 31
0.0
  0
LINE
  5
D21
330
18
100
AcDbEntity
  8
1
  6
Continuous
100
AcDbLine
 10
68.83954356334125
 20
217.2469661545417
 30
0.0
 11
68.83954356334125
 21
322.4749549969583
 31
0.0
  0
ARC
  5
D22
330
18
100
AcDbEntity
  8
1
  6
Continuous
100
AcDbCircle
 10
87.83954356334124
 20
332.2469661545419
 30
0.0
 40
125.0
100
AcDbArc
 50
263.1718600000013
 51
270.0
  0
LINE
  5
D23
330
18
100
AcDbEntity
  8
1
  6
Continuous
100
AcDbLine
 10
68.83953556334126
 20
217.2469621545419
 30
0.0
 11
70.41164156334122
 21
210.4374301545418
 31
0.0
  0
ARC
  5
D24
330
18
100
AcDbEntity
  8
1
  6
Continuous
100
AcDbCircle
 10
73.33475256334121
 20
211.1122841545419
 30
0.0
 40
3.0
100
AcDbArc
 50
193.0000000000001
 51
263.1718600000013
  0
ARC
  5
D25
330
18
100
AcDbEntity
  8
1
  6
Continuous
100
AcDbCircle
 10
87.83954356334124
 20
332.2469661545419
 30
0.0
 40
125.0
100
AcDbArc
 50
270.0
 51
276.8281399999984
  0
ARC
  5
D26
330
18
100
AcDbEntity
  8
1
  6
Continuous
100
AcDbCircle
 10
102.3443345633411
 20
211.1122841545419
 30
0.0
 40
3.0
100
AcDbArc
 50
276.8281399999984
 51
346.9999999999997
  0
LINE
  5
D27
330
18
100
AcDbEntity
  8
1
  6
Continuous
100
AcDbLine
 10
106.8395435633411
 20
217.2469621545419
 30
0.0
 11
105.2674415633412
 21
210.4374341545419
 31
0.0
  0
ARC
  5
D28
330
18
100
AcDbEntity
  8
1
  6
Continuous
100
AcDbCircle
 10
111.3395435633411
 20
288.2469661545418
 30
0.0
 40
3.0
100
AcDbArc
 50
0.0
 51
82.97640000000042
  0
ARC
  5
D29
330
18
100
AcDbEntity
  8
1
  6
Continuous
100
AcDbCircle
 10
111.3395435633411
 20
251.2469661545419
 30
0.0
 40
3.0
100
AcDbArc
 50
277.0235999999996
 51
0.0
  0
LINE
  5
D2A
330
18
100
AcDbEntity
  8
1
  6
Continuous
100
AcDbLine
 10
61.33954356334125
 20
251.2469661545419
 30
0.0
 11
61.33954356334125
 21
288.2469656309431
 31
0.0
  0
LINE
  5
D2B
330
18
100
AcDbEntity
  8
1
  6
Continuous
100
AcDbLine
 10
60.83954356334129
 20
255.7469661545419
 30
0.0
 11
60.83954356334129
 21
283.7469659800088
 31
0.0
  0
ARC
  5
D2C
330
18
100
AcDbEntity
  8
1
  6
Continuous
100
AcDbCircle
 10
61.83954356334123
 20
255.7469661545419
 30
0.0
 40
1.0
100
AcDbArc
 50
179.9999899999988
 51
240.0004999999987
  0
LINE
  5
D2D
330
18
100
AcDbEntity
  8
1
  6
Continuous
100
AcDbLine
 10
60.83954356334129
 20
261.2469661545418
 30
0.0
 11
59.83954356334129
 21
261.2469661545418
 31
0.0
  0
LINE
  5
D2E
330
18
100
AcDbEntity
  8
1
  6
Continuous
100
AcDbLine
 10
63.97269356334124
 20
248.2694790545418
 30
0.0
 11
68.83953556334126
 21
247.6698711545418
 31
0.0
  0
ARC
  5
D2F
330
18
100
AcDbEntity
  8
1
  6
Continuous
100
AcDbCircle
 10
64.33954356334123
 20
251.2469661545419
 30
0.0
 40
3.0
100
AcDbArc
 50
179.9999899999988
 51
262.9764099999974
  0
LINE
  5
D30
330
18
100
AcDbEntity
  8
1
  6
Continuous
100
AcDbLine
 10
111.7063805633412
 20
248.2694790545418
 30
0.0
 11
106.8395545633411
 21
247.6698730545418
 31
0.0
  0
ARC
  5
D31
330
18
100
AcDbEntity
  8
1
  6
Continuous
100
AcDbCircle
 10
64.33954356334123
 20
288.2469661545418
 30
0.0
 40
3.0
100
AcDbArc
 50
97.02359000000257
 51
180.0000100000009
  0
ARC
  5
D32
330
18
100
AcDbEntity
  8
1
  6
Continuous
100
AcDbCircle
 10
61.83954356334123
 20
283.7469661545418
 30
0.0
 40
1.0
100
AcDbArc
 50
119.9995000000012
 51
180.0000100000009
  0
LINE
  5
D33
330
18
100
AcDbEntity
  8
1
  6
Continuous
100
AcDbLine
 10
59.83954356334129
 20
278.2469661545418
 30
0.0
 11
60.83954356334129
 21
278.2469661545418
 31
0.0
  0
LINE
  5
D34
330
18
100
AcDbEntity
  8
1
  6
Continuous
100
AcDbLine
 10
63.97269356334124
 20
291.2244532545418
 30
0.0
 11
68.83953556334126
 21
291.8240611545418
 31
0.0
  0
LINE
  5
D35
330
18
100
AcDbEntity
  8
1
  6
Continuous
100
AcDbLine
 10
111.7063805633412
 20
291.2244532545418
 30
0.0
 11
106.8395545633411
 21
291.8240592545419
 31
0.0
  0
LINE
  5
D36
330
18
100
AcDbEntity
  8
1
  6
Continuous
100
AcDbLine
 10
114.3395435633411
 20
251.2469661545419
 30
0.0
 11
114.3395435633411
 21
288.2469661545418
 31
0.0
  0
LINE
  5
D37
330
18
100
AcDbEntity
  8
1
  6
Continuous
100
AcDbLine
 10
114.8395435633412
 20
255.7469661545419
 30
0.0
 11
114.8395435633412
 21
283.7469661545418
 31
0.0
  0
LINE
  5
D38
330
18
100
AcDbEntity
  8
1
  6
Continuous
100
AcDbLine
 10
114.8395435633412
 20
261.2469661545418
 30
0.0
 11
115.8395435633412
 21
261.2469661545418
 31
0.0
  0
ARC
  5
D39
330
18
100
AcDbEntity
  8
1
  6
Continuous
100
AcDbCircle
 10
113.8395435633412
 20
255.7469661545419
 30
0.0
 40
1.0
100
AcDbArc
 50
299.9994899999995
 51
0.0
  0
ARC
  5
D3A
330
18
100
AcDbEntity
  8
1
  6
Continuous
100
AcDbCircle
 10
113.8395435633412
 20
283.7469661545418
 30
0.0
 40
1.0
100
AcDbArc
 50
0.0
 51
60.00051000000047
  0
LINE
  5
D3B
330
18
100
AcDbEntity
  8
1
  6
Continuous
100
AcDbLine
 10
115.8395435633412
 20
278.2469661545418
 30
0.0
 11
114.8395435633412
 21
278.2469661545418
 31
0.0
  0
ARC
  5
D3C
330
18
100
AcDbEntity
  8
1
  6
Continuous
100
AcDbCircle
 10
87.83954356334124
 20
207.2469661545418
 30
0.0
 40
125.0
100
AcDbArc
 50
90.0
 51
96.82813999999851
  0
LINE
  5
D3D
330
18
100
AcDbEntity
  8
1
  6
Continuous
100
AcDbLine
 10
68.83953556334126
 20
322.2469701545418
 30
0.0
 11
70.41164156334122
 21
329.0565021545418
 31
0.0
  0
ARC
  5
D3E
330
18
100
AcDbEntity
  8
1
  6
Continuous
100
AcDbCircle
 10
73.33475256334121
 20
328.3816481545418
 30
0.0
 40
3.0
100
AcDbArc
 50
96.82813999999851
 51
166.9999999999996
  0
ARC
  5
D3F
330
18
100
AcDbEntity
  8
1
  6
Continuous
100
AcDbCircle
 10
87.83954356334124
 20
207.2469661545418
 30
0.0
 40
125.0
100
AcDbArc
 50
83.17186000000145
 51
90.0
  0
LINE
  5
D40
330
18
100
AcDbEntity
  8
1
  6
Continuous
100
AcDbLine
 10
106.8395435633411
 20
322.2469701545418
 30
0.0
 11
105.2674415633412
 21
329.0564981545418
 31
0.0
  0
ARC
  5
D41
330
18
100
AcDbEntity
  8
1
  6
Continuous
100
AcDbCircle
 10
102.3443345633411
 20
328.3816481545418
 30
0.0
 40
3.0
100
AcDbArc
 50
13.00000000000025
 51
83.17186000000145
  0
LINE
  5
D42
330
18
100
AcDbEntity
  8
1
  6
Continuous
100
AcDbLine
 10
561.2303855633411
 20
217.2469661545417
 30
0.0
 11
561.2303855633411
 21
322.2469701545418
 31
0.0
  0
LINE
  5
D43
330
18
100
AcDbEntity
  8
1
  6
Continuous
100
AcDbLine
 10
523.2303855633412
 20
217.2469661545417
 30
0.0
 11
523.2303855633412
 21
322.4749549969583
 31
0.0
  0
ARC
  5
D44
330
18
100
AcDbEntity
  8
1
  6
Continuous
100
AcDbCircle
 10
542.2303855633413
 20
332.2469661545419
 30
0.0
 40
125.0
100
AcDbArc
 50
263.1718600000013
 51
270.0
  0
LINE
  5
D45
330
18
100
AcDbEntity
  8
1
  6
Continuous
100
AcDbLine
 10
523.2303775633413
 20
217.2469621545419
 30
0.0
 11
524.8024835633412
 21
210.4374301545418
 31
0.0
  0
ARC
  5
D46
330
18
100
AcDbEntity
  8
1
  6
Continuous
100
AcDbCircle
 10
527.7255945633412
 20
211.1122841545419
 30
0.0
 40
3.0
100
AcDbArc
 50
193.0000000000001
 51
263.1718600000013
  0
ARC
  5
D47
330
18
100
AcDbEntity
  8
1
  6
Continuous
100
AcDbCircle
 10
542.2303855633413
 20
332.2469661545419
 30
0.0
 40
125.0
100
AcDbArc
 50
270.0
 51
276.8281399999984
  0
ARC
  5
D48
330
18
100
AcDbEntity
  8
1
  6
Continuous
100
AcDbCircle
 10
556.7351765633413
 20
211.1122841545419
 30
0.0
 40
3.0
100
AcDbArc
 50
276.8281399999984
 51
346.9999999999997
  0
LINE
  5
D49
330
18
100
AcDbEntity
  8
1
  6
Continuous
100
AcDbLine
 10
561.2303855633411
 20
217.2469621545419
 30
0.0
 11
559.6582835633411
 21
210.4374341545419
 31
0.0
  0
ARC
  5
D4A
330
18
100
AcDbEntity
  8
1
  6
Continuous
100
AcDbCircle
 10
565.730385563341
 20
288.2469661545418
 30
0.0
 40
3.0
100
AcDbArc
 50
0.0
 51
82.97640000000042
  0
ARC
  5
D4B
330
18
100
AcDbEntity
  8
1
  6
Continuous
100
AcDbCircle
 10
565.730385563341
 20
251.2469661545419
 30
0.0
 40
3.0
100
AcDbArc
 50
277.0235999999996
 51
0.0
  0
LINE
  5
D4C
330
18
100
AcDbEntity
  8
1
  6
Continuous
100
AcDbLine
 10
515.7303855633413
 20
251.2469661545419
 30
0.0
 11
515.7303855633413
 21
288.2469656309431
 31
0.0
  0
LINE
  5
D4D
330
18
100
AcDbEntity
  8
1
  6
Continuous
100
AcDbLine
 10
515.2303855633411
 20
255.7469661545419
 30
0.0
 11
515.2303855633411
 21
283.7469659800088
 31
0.0
  0
ARC
  5
D4E
330
18
100
AcDbEntity
  8
1
  6
Continuous
100
AcDbCircle
 10
516.2303855633413
 20
255.7469661545419
 30
0.0
 40
1.0
100
AcDbArc
 50
179.9999899999988
 51
240.0004999999987
  0
LINE
  5
D4F
330
18
100
AcDbEntity
  8
1
  6
Continuous
100
AcDbLine
 10
515.2303855633411
 20
261.2469661545418
 30
0.0
 11
514.2303855633413
 21
261.2469661545418
 31
0.0
  0
LINE
  5
D50
330
18
100
AcDbEntity
  8
1
  6
Continuous
100
AcDbLine
 10
518.3635355633412
 20
248.2694790545418
 30
0.0
 11
523.2303775633413
 21
247.6698711545418
 31
0.0
  0
ARC
  5
D51
330
18
100
AcDbEntity
  8
1
  6
Continuous
100
AcDbCircle
 10
518.7303855633413
 20
251.2469661545419
 30
0.0
 40
3.0
100
AcDbArc
 50
179.9999899999988
 51
262.9764099999974
  0
LINE
  5
D52
330
18
100
AcDbEntity
  8
1
  6
Continuous
100
AcDbLine
 10
566.0972225633412
 20
248.2694790545418
 30
0.0
 11
561.2303965633413
 21
247.6698730545418
 31
0.0
  0
ARC
  5
D53
330
18
100
AcDbEntity
  8
1
  6
Continuous
100
AcDbCircle
 10
518.7303855633413
 20
288.2469661545418
 30
0.0
 40
3.0
100
AcDbArc
 50
97.02359000000257
 51
180.0000100000009
  0
ARC
  5
D54
330
18
100
AcDbEntity
  8
1
  6
Continuous
100
AcDbCircle
 10
516.2303855633413
 20
283.7469661545418
 30
0.0
 40
1.0
100
AcDbArc
 50
119.9995000000012
 51
180.0000100000009
  0
LINE
  5
D55
330
18
100
AcDbEntity
  8
1
  6
Continuous
100
AcDbLine
 10
514.2303855633413
 20
278.2469661545418
 30
0.0
 11
515.2303855633411
 21
278.2469661545418
 31
0.0
  0
LINE
  5
D56
330
18
100
AcDbEntity
  8
1
  6
Continuous
100
AcDbLine
 10
518.3635355633412
 20
291.2244532545418
 30
0.0
 11
523.2303775633413
 21
291.8240611545418
 31
0.0
  0
LINE
  5
D57
330
18
100
AcDbEntity
  8
1
  6
Continuous
100
AcDbLine
 10
566.0972225633412
 20
291.2244532545418
 30
0.0
 11
561.2303965633413
 21
291.8240592545419
 31
0.0
  0
LINE
  5
D58
330
18
100
AcDbEntity
  8
1
  6
Continuous
100
AcDbLine
 10
568.7303855633412
 20
251.2469661545419
 30
0.0
 11
568.7303855633412
 21
288.2469661545418
 31
0.0
  0
LINE
  5
D59
330
18
100
AcDbEntity
  8
1
  6
Continuous
100
AcDbLine
 10
569.2303855633412
 20
255.7469661545419
 30
0.0
 11
569.2303855633412
 21
283.7469661545418
 31
0.0
  0
LINE
  5
D5A
330
18
100
AcDbEntity
  8
1
  6
Continuous
100
AcDbLine
 10
569.2303855633412
 20
261.2469661545418
 30
0.0
 11
570.230385563341
 21
261.2469661545418
 31
0.0
  0
ARC
  5
D5B
330
18
100
AcDbEntity
  8
1
  6
Continuous
100
AcDbCircle
 10
568.2303855633412
 20
255.7469661545419
 30
0.0
 40
1.0
100
AcDbArc
 50
299.9994899999995
 51
0.0
  0
ARC
  5
D5C
330
18
100
AcDbEntity
  8
1
  6
Continuous
100
AcDbCircle
 10
568.2303855633412
 20
283.7469661545418
 30
0.0
 40
1.0
100
AcDbArc
 50
0.0
 51
60.00051000000047
  0
LINE
  5
D5D
330
18
100
AcDbEntity
  8
1
  6
Continuous
100
AcDbLine
 10
570.230385563341
 20
278.2469661545418
 30
0.0
 11
569.2303855633412
 21
278.2469661545418
 31
0.0
  0
ARC
  5
D5E
330
18
100
AcDbEntity
  8
1
  6
Continuous
100
AcDbCircle
 10
542.2303855633413
 20
207.2469661545418
 30
0.0
 40
125.0
100
AcDbArc
 50
90.0
 51
96.82813999999851
  0
LINE
  5
D5F
330
18
100
AcDbEntity
  8
1
  6
Continuous
100
AcDbLine
 10
523.2303775633413
 20
322.2469701545418
 30
0.0
 11
524.8024835633412
 21
329.0565021545418
 31
0.0
  0
ARC
  5
D60
330
18
100
AcDbEntity
  8
1
  6
Continuous
100
AcDbCircle
 10
527.7255945633412
 20
328.3816481545418
 30
0.0
 40
3.0
100
AcDbArc
 50
96.82813999999851
 51
166.9999999999996
  0
ARC
  5
D61
330
18
100
AcDbEntity
  8
1
  6
Continuous
100
AcDbCircle
 10
542.2303855633413
 20
207.2469661545418
 30
0.0
 40
125.0
100
AcDbArc
 50
83.17186000000145
 51
90.0
  0
LINE
  5
D62
330
18
100
AcDbEntity
  8
1
  6
Continuous
100
AcDbLine
 10
561.2303855633411
 20
322.2469701545418
 30
0.0
 11
559.6582835633411
 21
329.0564981545418
 31
0.0
  0
ARC
  5
D63
330
18
100
AcDbEntity
  8
1
  6
Continuous
100
AcDbCircle
 10
556.7351765633413
 20
328.3816481545418
 30
0.0
 40
3.0
100
AcDbArc
 50
13.00000000000025
 51
83.17186000000145
  0
ENDSEC
  0
SECTION
  2
OBJECTS
  0
DICTIONARY
  5
C
330
0
100
AcDbDictionary
281
     1
  3
ACAD_CIP_PREVIOUS_PRODUCT_INFO
350
E4C
  3
ACAD_COLOR
350
E2F
  3
ACAD_DETAILVIEWSTYLE
350
E48
  3
ACAD_GROUP
350
D
  3
ACAD_LAYOUT
350
5D
  3
ACAD_MATERIAL
350
DFD
  3
ACAD_MLEADERSTYLE
350
E44
  3
ACAD_MLINESTYLE
350
1B
  3
ACAD_PLOTSETTINGS
350
5E
  3
ACAD_PLOTSTYLENAME
350
DFB
  3
ACAD_SCALELIST
350
E32
  3
ACAD_SECTIONVIEWSTYLE
350
E46
  3
ACAD_TABLESTYLE
350
E30
  3
ACAD_VISUALSTYLE
350
E16
  3
ACDB_RECOMPOSE_DATA
350
E6A
  3
AcDbVariableDictionary
350
E5D
  3
CONTENTDICTIONARY
350
3D
  3
DWGPROPS
350
E6B
  0
DICTIONARY
  5
E4D
330
E
100
AcDbDictionary
280
     1
281
     1
  3
ADSK_XREC_LAYER_RECONCILED
360
E4E
  0
DICTIONARY
  5
E4F
330
65
100
AcDbDictionary
280
     1
281
     1
  3
ADSK_XREC_LAYER_RECONCILED
360
E50
  0
DICTIONARY
  5
E51
330
66
100
AcDbDictionary
280
     1
281
     1
  3
ADSK_XREC_LAYER_RECONCILED
360
E52
  0
DICTIONARY
  5
E53
330
67
100
AcDbDictionary
280
     1
281
     1
  3
ADSK_XREC_LAYER_RECONCILED
360
E54
  0
DICTIONARY
  5
E55
330
68
100
AcDbDictionary
280
     1
281
     1
  3
ADSK_XREC_LAYER_RECONCILED
360
E56
  0
DICTIONARY
  5
E57
330
69
100
AcDbDictionary
280
     1
281
     1
  3
ADSK_XREC_LAYER_RECONCILED
360
E58
  0
DICTIONARY
  5
E59
330
6A
100
AcDbDictionary
280
     1
281
     1
  3
ADSK_XREC_LAYER_RECONCILED
360
E5A
  0
DICTIONARY
  5
E5B
330
6B
100
AcDbDictionary
280
     1
281
     1
  3
ADSK_XREC_LAYER_RECONCILED
360
E5C
  0
DICTIONARY
  5
DDF
330
18
100
AcDbDictionary
281
     1
  3
ACAD_LAYOUTSELFREF
350
DF7
  0
DICTIONARY
  5
DDD
330
15
100
AcDbDictionary
281
     1
  3
ACAD_LAYOUTSELFREF
350
DF6
  0
XRECORD
  5
E4C
102
{ACAD_REACTORS
330
C
102
}
330
C
100
AcDbXrecord
280
     1
300
ACDLT
300
2014
300
ACDLT_F_S
  0
DICTIONARY
  5
E2F
102
{ACAD_REACTORS
330
C
102
}
330
C
100
AcDbDictionary
281
     1
  0
DICTIONARY
  5
E48
102
{ACAD_REACTORS
330
C
102
}
330
C
100
AcDbDictionary
281
     1
  3
Imperial24
350
E49
  0
DICTIONARY
  5
D
102
{ACAD_REACTORS
330
C
102
}
330
C
100
AcDbDictionary
281
     1
  0
DICTIONARY
  5
5D
102
{ACAD_REACTORS
330
C
102
}
330
C
100
AcDbDictionary
281
     1
  3
Model
350
E4A
  3
レイアウト1
350
E4B
  0
DICTIONARY
  5
DFD
102
{ACAD_REACTORS
330
C
102
}
330
C
100
AcDbDictionary
281
     1
  3
ByBlock
350
E06
  3
ByLayer
350
DFE
  3
Global
350
E0E
  0
DICTIONARY
  5
E44
102
{ACAD_REACTORS
330
C
102
}
330
C
100
AcDbDictionary
281
     1
  3
Standard
350
E45
  0
DICTIONARY
  5
1B
102
{ACAD_REACTORS
330
C
102
}
330
C
100
AcDbDictionary
281
     1
  3
STANDARD
350
1C
  0
DICTIONARY
  5
5E
102
{ACAD_REACTORS
330
C
102
}
330
C
100
AcDbDictionary
281
     1
  0
ACDBDICTIONARYWDFLT
  5
DFB
102
{ACAD_REACTORS
330
C
102
}
330
C
100
AcDbDictionary
281
     1
  3
Normal
350
DFC
100
AcDbDictionaryWithDefault
340
DFC
  0
DICTIONARY
  5
E32
102
{ACAD_REACTORS
330
C
102
}
330
C
100
AcDbDictionary
281
     1
  3
A0
350
E33
  3
A1
350
E34
  3
A2
350
E35
  3
A3
350
E36
  3
A4
350
E37
  3
A5
350
E38
  3
A6
350
E39
  3
A7
350
E3A
  3
A8
350
E3B
  3
A9
350
E3C
  3
B0
350
E3D
  3
B1
350
E3E
  3
B2
350
E3F
  3
B3
350
E40
  3
B4
350
E41
  3
B5
350
E42
  3
B6
350
E43
  0
DICTIONARY
  5
E46
102
{ACAD_REACTORS
330
C
102
}
330
C
100
AcDbDictionary
281
     1
  3
Imperial24
350
E47
  0
DICTIONARY
  5
E30
102
{ACAD_REACTORS
330
C
102
}
330
C
100
AcDbDictionary
281
     1
  3
Standard
350
E31
  0
DICTIONARY
  5
E16
102
{ACAD_REACTORS
330
C
102
}
330
C
100
AcDbDictionary
281
     1
  3
2dWireframe
350
E1C
  3
Basic
350
E1B
  3
Brighten
350
E22
  3
ColorChange
350
E26
  3
Conceptual
350
E1F
  3
Dim
350
E21
  3
EdgeColorOff
350
E2E
  3
Facepattern
350
E25
  3
Flat
350
E17
  3
FlatWithEdges
350
E18
  3
Gouraud
350
E19
  3
GouraudWithEdges
350
E1A
  3
Hidden
350
E1E
  3
JitterOff
350
E2C
  3
Linepattern
350
E24
  3
OverhangOff
350
E2D
  3
Realistic
350
E20
  3
Shaded
350
E2B
  3
Shaded with edges
350
E2A
  3
Shades of Gray
350
E27
  3
Sketchy
350
E28
  3
Thicken
350
E23
  3
Wireframe
350
E1D
  3
X-Ray
350
E29
  0
XRECORD
  5
E6A
102
{ACAD_REACTORS
330
C
102
}
330
C
100
AcDbXrecord
280
     1
 90
        1
330
E31
  0
DICTIONARY
  5
E5D
102
{ACAD_REACTORS
330
C
102
}
330
C
100
AcDbDictionary
281
     1
  3
CANNOSCALE
350
E62
  3
CMLEADERSTYLE
350
E5F
  3
CTABLESTYLE
350
E5E
  3
CVIEWDETAILSTYLE
350
E60
  3
CVIEWSECTIONSTYLE
350
E61
  3
DIMASSOC
350
E65
  3
INDEXCTL
350
E64
  3
SORTENTS
350
E63
  3
XCLIPFRAME
350
E66
  0
DICTIONARY
  5
3D
102
{ACAD_REACTORS
330
C
102
}
330
C
100
AcDbDictionary
281
     1
  0
XRECORD
  5
E6B
102
{ACAD_REACTORS
330
C
102
}
330
C
100
AcDbXrecord
280
     1
  1
DWGPROPS COOKIE
  2

  3

  4

  6

  7

  8
Yoshitsune
  9

300
=
301
=
302
=
303
=
304
=
305
=
306
=
307
=
308
=
309
=
 40
0.3377538888888889
 41
2453249.453714549
 42
2457192.689572686
  1

 90
        0
  0
XRECORD
  5
E4E
102
{ACAD_REACTORS
330
E4D
102
}
330
E4D
100
AcDbXrecord
280
     1
290
     1
  0
XRECORD
  5
E50
102
{ACAD_REACTORS
330
E4F
102
}
330
E4F
100
AcDbXrecord
280
     1
290
     1
  0
XRECORD
  5
E52
102
{ACAD_REACTORS
330
E51
102
}
330
E51
100
AcDbXrecord
280
     1
290
     1
  0
XRECORD
  5
E54
102
{ACAD_REACTORS
330
E53
102
}
330
E53
100
AcDbXrecord
280
     1
290
     1
  0
XRECORD
  5
E56
102
{ACAD_REACTORS
330
E55
102
}
330
E55
100
AcDbXrecord
280
     1
290
     1
  0
XRECORD
  5
E58
102
{ACAD_REACTORS
330
E57
102
}
330
E57
100
AcDbXrecord
280
     1
290
     1
  0
XRECORD
  5
E5A
102
{ACAD_REACTORS
330
E59
102
}
330
E59
100
AcDbXrecord
280
     1
290
     1
  0
XRECORD
  5
E5C
102
{ACAD_REACTORS
330
E5B
102
}
330
E5B
100
AcDbXrecord
280
     1
290
     1
  0
XRECORD
  5
DF7
102
{ACAD_REACTORS
330
DDF
102
}
330
DDF
100
AcDbXrecord
280
     1
340
18
  0
XRECORD
  5
DF6
102
{ACAD_REACTORS
330
DDD
102
}
330
DDD
100
AcDbXrecord
280
     1
340
15
  0
ACDBDETAILVIEWSTYLE
  5
E49
102
{ACAD_XDICTIONARY
360
EA3
102
}
102
{ACAD_REACTORS
330
E48
102
}
330
E48
100
AcDbModelDocViewStyle
 70
     0
  3
Imperial24
290
     0
100
AcDbDetailViewStyle
 70
     0
 71
     0
 90
        3
 71
     1
340
F
 40
0.24
340
0
 40
0.24
300

 40
0.36
280
     3
 71
     2
340
14
 90
       25
 71
     3
340
F
 40
0.24
 90
        1
 40
0.75
 90
        1
300
%<\AcVar ViewType \f "%tc1">% %<\AcVar ViewDetailId>%\PSCALE %<\AcVar ViewScale \f "%sn">%
 71
     4
340
14
 90
       25
340
14
 90
       25
280
     0
  0
LAYOUT
  5
E4A
102
{ACAD_XDICTIONARY
360
EA5
102
}
102
{ACAD_REACTORS
330
5D
102
}
330
5D
100
AcDbPlotSettings
  1

  2
Canon LBP9100C
  4

  6

 40
0.0
 41
0.0
 42
0.0
 43
0.0
 44
0.0
 45
0.0
 46
0.0
 47
0.0
 48
0.0
 49
0.0
140
0.0
141
0.0
142
1.0
143
1.0
 70
  1712
 72
     0
 73
     0
 74
     0
  7

 75
     0
147
1.0
148
0.0
149
0.0
100
AcDbLayout
  1
Model
 70
     1
 71
     0
 10
0.0
 20
0.0
 11
12.0
 21
9.0
 12
0.0
 22
0.0
 32
0.0
 14
0.0
 24
0.0
 34
0.0
 15
0.0
 25
0.0
 35
0.0
146
0.0
 13
0.0
 23
0.0
 33
0.0
 16
1.0
 26
0.0
 36
0.0
 17
0.0
 27
1.0
 37
0.0
 76
     0
330
18
331
DF5
  0
LAYOUT
  5
E4B
102
{ACAD_XDICTIONARY
360
EA7
102
}
102
{ACAD_REACTORS
330
5D
102
}
330
5D
100
AcDbPlotSettings
  1

  2
Canon LBP9100C
  4

  6

 40
0.0
 41
0.0
 42
0.0
 43
0.0
 44
0.0
 45
0.0
 46
0.0
 47
0.0
 48
0.0
 49
0.0
140
0.0
141
0.0
142
1.0
143
1.0
 70
   688
 72
     0
 73
     0
 74
     5
  7

 75
    16
147
1.0
148
0.0
149
0.0
100
AcDbLayout
  1
レイアウト1
 70
     1
 71
     1
 10
0.0
 20
0.0
 11
420.0
 21
297.0
 12
0.0
 22
0.0
 32
0.0
 14
1.000000000000000E+20
 24
1.000000000000000E+20
 34
1.000000000000000E+20
 15
-1.000000000000000E+20
 25
-1.000000000000000E+20
 35
-1.000000000000000E+20
146
0.0
 13
0.0
 23
0.0
 33
0.0
 16
1.0
 26
0.0
 36
0.0
 17
0.0
 27
1.0
 37
0.0
 76
     0
330
15
  0
MATERIAL
  5
E06
102
{ACAD_XDICTIONARY
360
E07
102
}
102
{ACAD_REACTORS
330
DFD
102
}
330
DFD
100
AcDbMaterial
  1
ByBlock
 72
     0
 43
0.0208333333333333
 43
0.0
 43
0.0
 43
0.0
 43
0.0
 43
0.0208333333333333
 43
0.0
 43
0.0
 43
0.0
 43
0.0
 43
1.0
 43
0.0
 43
0.0
 43
0.0
 43
0.0
 43
1.0
 77
     0
 47
0.0208333333333333
 47
0.0
 47
0.0
 47
0.0
 47
0.0
 47
0.0208333333333333
 47
0.0
 47
0.0
 47
0.0
 47
0.0
 47
1.0
 47
0.0
 47
0.0
 47
0.0
 47
0.0
 47
1.0
171
     0
 49
0.0208333333333333
 49
0.0
 49
0.0
 49
0.0
 49
0.0
 49
0.0208333333333333
 49
0.0
 49
0.0
 49
0.0
 49
0.0
 49
1.0
 49
0.0
 49
0.0
 49
0.0
 49
0.0
 49
1.0
175
     0
142
0.0208333333333333
142
0.0
142
0.0
142
0.0
142
0.0
142
0.0208333333333333
142
0.0
142
0.0
142
0.0
142
0.0
142
1.0
142
0.0
142
0.0
142
0.0
142
0.0
142
1.0
179
     0
144
0.0208333333333333
144
0.0
144
0.0
144
0.0
144
0.0
144
0.0208333333333333
144
0.0
144
0.0
144
0.0
144
0.0
144
1.0
144
0.0
144
0.0
144
0.0
144
0.0
144
1.0
147
0.0208333333333333
147
0.0
147
0.0
147
0.0
147
0.0
147
0.0208333333333333
147
0.0
147
0.0
147
0.0
147
0.0
147
1.0
147
0.0
147
0.0
147
0.0
147
0.0
147
1.0
  0
MATERIAL
  5
DFE
102
{ACAD_XDICTIONARY
360
DFF
102
}
102
{ACAD_REACTORS
330
DFD
102
}
330
DFD
100
AcDbMaterial
  1
ByLayer
 72
     0
 43
0.0208333333333333
 43
0.0
 43
0.0
 43
0.0
 43
0.0
 43
0.0208333333333333
 43
0.0
 43
0.0
 43
0.0
 43
0.0
 43
1.0
 43
0.0
 43
0.0
 43
0.0
 43
0.0
 43
1.0
 77
     0
 47
0.0208333333333333
 47
0.0
 47
0.0
 47
0.0
 47
0.0
 47
0.0208333333333333
 47
0.0
 47
0.0
 47
0.0
 47
0.0
 47
1.0
 47
0.0
 47
0.0
 47
0.0
 47
0.0
 47
1.0
171
     0
 49
0.0208333333333333
 49
0.0
 49
0.0
 49
0.0
 49
0.0
 49
0.0208333333333333
 49
0.0
 49
0.0
 49
0.0
 49
0.0
 49
1.0
 49
0.0
 49
0.0
 49
0.0
 49
0.0
 49
1.0
175
     0
142
0.0208333333333333
142
0.0
142
0.0
142
0.0
142
0.0
142
0.0208333333333333
142
0.0
142
0.0
142
0.0
142
0.0
142
1.0
142
0.0
142
0.0
142
0.0
142
0.0
142
1.0
179
     0
144
0.0208333333333333
144
0.0
144
0.0
144
0.0
144
0.0
144
0.0208333333333333
144
0.0
144
0.0
144
0.0
144
0.0
144
1.0
144
0.0
144
0.0
144
0.0
144
0.0
144
1.0
147
0.0208333333333333
147
0.0
147
0.0
147
0.0
147
0.0
147
0.0208333333333333
147
0.0
147
0.0
147
0.0
147
0.0
147
1.0
147
0.0
147
0.0
147
0.0
147
0.0
147
1.0
  0
MATERIAL
  5
E0E
102
{ACAD_XDICTIONARY
360
E0F
102
}
102
{ACAD_REACTORS
330
DFD
102
}
330
DFD
100
AcDbMaterial
  1
Global
 72
     0
 43
0.0208333333333333
 43
0.0
 43
0.0
 43
0.0
 43
0.0
 43
0.0208333333333333
 43
0.0
 43
0.0
 43
0.0
 43
0.0
 43
1.0
 43
0.0
 43
0.0
 43
0.0
 43
0.0
 43
1.0
 77
     0
 47
0.0208333333333333
 47
0.0
 47
0.0
 47
0.0
 47
0.0
 47
0.0208333333333333
 47
0.0
 47
0.0
 47
0.0
 47
0.0
 47
1.0
 47
0.0
 47
0.0
 47
0.0
 47
0.0
 47
1.0
171
     0
 49
0.0208333333333333
 49
0.0
 49
0.0
 49
0.0
 49
0.0
 49
0.0208333333333333
 49
0.0
 49
0.0
 49
0.0
 49
0.0
 49
1.0
 49
0.0
 49
0.0
 49
0.0
 49
0.0
 49
1.0
175
     0
142
0.0208333333333333
142
0.0
142
0.0
142
0.0
142
0.0
142
0.0208333333333333
142
0.0
142
0.0
142
0.0
142
0.0
142
1.0
142
0.0
142
0.0
142
0.0
142
0.0
142
1.0
179
     0
144
0.0208333333333333
144
0.0
144
0.0
144
0.0
144
0.0
144
0.0208333333333333
144
0.0
144
0.0
144
0.0
144
0.0
144
1.0
144
0.0
144
0.0
144
0.0
144
0.0
144
1.0
147
0.0208333333333333
147
0.0
147
0.0
147
0.0
147
0.0
147
0.0208333333333333
147
0.0
147
0.0
147
0.0
147
0.0
147
1.0
147
0.0
147
0.0
147
0.0
147
0.0
147
1.0
  0
MLEADERSTYLE
  5
E45
102
{ACAD_REACTORS
330
E44
102
}
330
E44
100
AcDbMLeaderStyle
170
     2
171
     1
172
     0
 90
        2
 40
0.0
 41
0.0
173
     1
 91
-1056964608
340
12
 92
       -2
290
     1
 42
0.09
291
     1
 43
0.36
  3
Standard
 44
0.18
300

342
F
174
     1
178
     6
175
     1
176
     0
 93
-1056964608
 45
0.18
292
     0
297
     0
 46
0.18
 94
-1056964608
 47
1.0
 49
1.0
140
1.0
293
     1
141
0.0
294
     1
177
     0
142
1.0
295
     0
296
     0
143
0.125
1001
ACAD_MLEADERVER
1070
     2
  0
MLINESTYLE
  5
1C
102
{ACAD_REACTORS
330
1B
102
}
330
1B
100
AcDbMlineStyle
  2
STANDARD
 70
     0
  3

 62
   256
 51
90.0
 52
90.0
 71
     2
 49
0.5
 62
   256
  6
BYLAYER
 49
-0.5
 62
   256
  6
BYLAYER
  0
ACDBPLACEHOLDER
  5
DFC
102
{ACAD_REACTORS
330
DFB
102
}
330
DFB
  0
SCALE
  5
E33
102
{ACAD_REACTORS
330
E32
102
}
330
E32
100
AcDbScale
 70
     0
300
1:1
140
1.0
141
1.0
290
     1
  0
SCALE
  5
E34
102
{ACAD_REACTORS
330
E32
102
}
330
E32
100
AcDbScale
 70
     0
300
1/128" = 1'-0"
140
0.0078125
141
12.0
290
     0
  0
SCALE
  5
E35
102
{ACAD_REACTORS
330
E32
102
}
330
E32
100
AcDbScale
 70
     0
300
1/64" = 1'-0"
140
0.015625
141
12.0
290
     0
  0
SCALE
  5
E36
102
{ACAD_REACTORS
330
E32
102
}
330
E32
100
AcDbScale
 70
     0
300
1/32" = 1'-0"
140
0.03125
141
12.0
290
     0
  0
SCALE
  5
E37
102
{ACAD_REACTORS
330
E32
102
}
330
E32
100
AcDbScale
 70
     0
300
1/16" = 1'-0"
140
0.0625
141
12.0
290
     0
  0
SCALE
  5
E38
102
{ACAD_REACTORS
330
E32
102
}
330
E32
100
AcDbScale
 70
     0
300
3/32" = 1'-0"
140
0.09375
141
12.0
290
     0
  0
SCALE
  5
E39
102
{ACAD_REACTORS
330
E32
102
}
330
E32
100
AcDbScale
 70
     0
300
1/8" = 1'-0"
140
0.125
141
12.0
290
     0
  0
SCALE
  5
E3A
102
{ACAD_REACTORS
330
E32
102
}
330
E32
100
AcDbScale
 70
     0
300
3/16" = 1'-0"
140
0.1875
141
12.0
290
     0
  0
SCALE
  5
E3B
102
{ACAD_REACTORS
330
E32
102
}
330
E32
100
AcDbScale
 70
     0
300
1/4" = 1'-0"
140
0.25
141
12.0
290
     0
  0
SCALE
  5
E3C
102
{ACAD_REACTORS
330
E32
102
}
330
E32
100
AcDbScale
 70
     0
300
3/8" = 1'-0"
140
0.375
141
12.0
290
     0
  0
SCALE
  5
E3D
102
{ACAD_REACTORS
330
E32
102
}
330
E32
100
AcDbScale
 70
     0
300
1/2" = 1'-0"
140
0.5
141
12.0
290
     0
  0
SCALE
  5
E3E
102
{ACAD_REACTORS
330
E32
102
}
330
E32
100
AcDbScale
 70
     0
300
3/4" = 1'-0"
140
0.75
141
12.0
290
     0
  0
SCALE
  5
E3F
102
{ACAD_REACTORS
330
E32
102
}
330
E32
100
AcDbScale
 70
     0
300
1" = 1'-0"
140
1.0
141
12.0
290
     0
  0
SCALE
  5
E40
102
{ACAD_REACTORS
330
E32
102
}
330
E32
100
AcDbScale
 70
     0
300
1-1/2" = 1'-0"
140
1.5
141
12.0
290
     0
  0
SCALE
  5
E41
102
{ACAD_REACTORS
330
E32
102
}
330
E32
100
AcDbScale
 70
     0
300
3" = 1'-0"
140
3.0
141
12.0
290
     0
  0
SCALE
  5
E42
102
{ACAD_REACTORS
330
E32
102
}
330
E32
100
AcDbScale
 70
     0
300
6" = 1'-0"
140
6.0
141
12.0
290
     0
  0
SCALE
  5
E43
102
{ACAD_REACTORS
330
E32
102
}
330
E32
100
AcDbScale
 70
     0
300
1'-0" = 1'-0"
140
12.0
141
12.0
290
     0
  0
ACDBSECTIONVIEWSTYLE
  5
E47
102
{ACAD_XDICTIONARY
360
EA1
102
}
102
{ACAD_REACTORS
330
E46
102
}
330
E46
100
AcDbModelDocViewStyle
 70
     0
  3
Imperial24
290
     0
100
AcDbSectionViewStyle
 70
     0
 71
     0
 90
       78
 71
     1
340
F
 40
0.24
340
0
340
0
 40
0.24
300
I, O, Q, S, X, Z
 40
0.48
 90
        3
 40
0.18
 90
        1
 71
     2
340
14
 90
       25
340
14
 90
       50
 40
0.24
 40
0.0
 40
0.24
 71
     3
340
F
 40
0.24
 90
        1
 40
0.75
 90
        1
300
%<\AcVar ViewType \f "%tc1">% %<\AcVar ViewSectionStartId>%-%<\AcVar ViewSectionEndId>%\PSCALE %<\AcVar ViewScale \f "%sn">%
 71
     4
300
ANSI31
 40
1.0
 90
        0
290
     0
290
     0
 90
        6
 40
0.0
 40
1.570796326794896
 40
0.2617993877991494
 40
1.308996938995747
 40
-0.2617993877991494
 40
1.832595714594046
  0
TABLESTYLE
  5
E31
102
{ACAD_XDICTIONARY
360
E68
102
}
102
{ACAD_REACTORS
330
E30
102
}
330
E30
100
AcDbTableStyle
  3
Standard
 70
     0
 71
     0
 40
0.06
 41
0.06
280
     0
281
     0
  7
STANDARD
140
0.18
170
     2
 62
     0
 63
     7
283
     0
274
    -2
284
     1
 64
     0
275
    -2
285
     1
 65
     0
276
    -2
286
     1
 66
     0
277
    -2
287
     1
 67
     0
278
    -2
288
     1
 68
     0
279
    -2
289
     1
 69
     0
  7
STANDARD
140
0.25
170
     5
 62
     0
 63
     7
283
     0
274
    -2
284
     1
 64
     0
275
    -2
285
     1
 65
     0
276
    -2
286
     1
 66
     0
277
    -2
287
     1
 67
     0
278
    -2
288
     1
 68
     0
279
    -2
289
     1
 69
     0
  7
STANDARD
140
0.18
170
     5
 62
     0
 63
     7
283
     0
274
    -2
284
     1
 64
     0
275
    -2
285
     1
 65
     0
276
    -2
286
     1
 66
     0
277
    -2
287
     1
 67
     0
278
    -2
288
     1
 68
     0
279
    -2
289
     1
 69
     0
  0
VISUALSTYLE
  5
E1C
102
{ACAD_XDICTIONARY
360
E79
102
}
102
{ACAD_REACTORS
330
E16
102
}
330
E16
100
AcDbVisualStyle
  2
2dWireframe
 70
     4
 71
     0
 72
     2
 73
     0
 90
        0
 40
-0.6
 41
-30.0
 62
     5
 63
     7
 74
     1
 91
        4
 64
     7
 65
   257
 75
     1
175
     1
 42
1.0
 92
        0
 66
   257
 43
1.0
 76
     1
 77
     6
 78
     2
 67
     7
 79
     5
170
     0
171
     0
290
     0
174
     0
 93
        1
 44
0.0
173
     0
291
     0
 45
0.0
1001
ACAD
1000
AcDbSavedByObjectVersion
1070
     0
  0
VISUALSTYLE
  5
E1B
102
{ACAD_XDICTIONARY
360
E77
102
}
102
{ACAD_REACTORS
330
E16
102
}
330
E16
100
AcDbVisualStyle
  2
Basic
 70
     7
 71
     1
 72
     0
 73
     1
 90
        0
 40
-0.6
 41
-30.0
 62
     5
 63
     7
 74
     0
 91
        4
 64
     7
 65
   257
 75
     1
175
     1
 42
1.0
 92
        8
 66
     7
 43
1.0
 76
     1
 77
     6
 78
     2
 67
     7
 79
     5
170
     0
171
     0
290
     0
174
     0
 93
        1
 44
0.0
173
     0
291
     1
 45
0.0
1001
ACAD
1000
AcDbSavedByObjectVersion
1070
     0
  0
VISUALSTYLE
  5
E22
102
{ACAD_XDICTIONARY
360
E85
102
}
102
{ACAD_REACTORS
330
E16
102
}
330
E16
100
AcDbVisualStyle
  2
Brighten
 70
    12
 71
     2
 72
     2
 73
     0
 90
        0
 40
-0.6
 41
-30.0
 62
     5
 63
     7
 74
     1
 91
        4
 64
     7
 65
   257
 75
     1
175
     1
 42
1.0
 92
        8
 66
     7
 43
1.0
 76
     1
 77
     6
 78
     2
 67
     7
 79
     5
170
     0
171
     0
290
     0
174
     0
 93
        1
 44
50.0
173
     0
291
     1
 45
0.0
1001
ACAD
1000
AcDbSavedByObjectVersion
1070
     0
  0
VISUALSTYLE
  5
E26
102
{ACAD_XDICTIONARY
360
E8D
102
}
102
{ACAD_REACTORS
330
E16
102
}
330
E16
100
AcDbVisualStyle
  2
ColorChange
 70
    16
 71
     2
 72
     2
 73
     3
 90
        0
 40
-0.6
 41
-30.0
 62
     5
 63
     8
 74
     1
 91
        4
 64
     7
 65
   257
 75
     1
175
     1
 42
1.0
 92
        8
 66
     8
 43
1.0
 76
     1
 77
     6
 78
     2
 67
     7
 79
     5
170
     0
171
     0
290
     0
174
     0
 93
        1
 44
0.0
173
     0
291
     1
 45
0.0
1001
ACAD
1000
AcDbSavedByObjectVersion
1070
     0
  0
VISUALSTYLE
  5
E1F
102
{ACAD_XDICTIONARY
360
E7F
102
}
102
{ACAD_REACTORS
330
E16
102
}
330
E16
100
AcDbVisualStyle
  2
Conceptual
 70
     9
 71
     3
 72
     2
 73
     0
 90
        0
 40
-0.6
 41
-30.0
 62
     5
 63
     7
 74
     2
 91
        2
 64
     7
 65
   257
 75
     1
175
     1
 42
179.0
 92
        8
 66
     7
 43
1.0
 76
     1
 77
     6
 78
     2
 67
     7
 79
     3
170
     0
171
     0
290
     0
174
     0
 93
        1
 44
0.0
173
     0
291
     0
 45
0.0
1001
ACAD
1000
AcDbSavedByObjectVersion
1070
     0
  0
VISUALSTYLE
  5
E21
102
{ACAD_XDICTIONARY
360
E83
102
}
102
{ACAD_REACTORS
330
E16
102
}
330
E16
100
AcDbVisualStyle
  2
Dim
 70
    11
 71
     2
 72
     2
 73
     0
 90
        0
 40
-0.6
 41
-30.0
 62
     5
 63
     7
 74
     1
 91
        4
 64
     7
 65
   257
 75
     1
175
     1
 42
1.0
 92
        8
 66
     7
 43
1.0
 76
     1
 77
     6
 78
     2
 67
     7
 79
     5
170
     0
171
     0
290
     0
174
     0
 93
        1
 44
-50.0
173
     0
291
     1
 45
0.0
1001
ACAD
1000
AcDbSavedByObjectVersion
1070
     0
  0
VISUALSTYLE
  5
E2E
102
{ACAD_XDICTIONARY
360
E9D
102
}
102
{ACAD_REACTORS
330
E16
102
}
330
E16
100
AcDbVisualStyle
  2
EdgeColorOff
 70
    22
 71
     2
 72
     2
 73
     0
 90
        0
 40
-0.6
 41
-30.0
 62
     5
 63
     7
 74
     1
 91
        4
 64
     7
 65
   257
 75
     1
175
     1
 42
1.0
 92
        8
 66
     7
 43
1.0
 76
     1
 77
     6
 78
     2
 67
     7
 79
     5
170
     0
171
     0
290
     0
174
     0
 93
        1
 44
0.0
173
     0
291
     1
 45
0.0
1001
ACAD
1000
AcDbSavedByObjectVersion
1070
     0
  0
VISUALSTYLE
  5
E25
102
{ACAD_XDICTIONARY
360
E8B
102
}
102
{ACAD_REACTORS
330
E16
102
}
330
E16
100
AcDbVisualStyle
  2
Facepattern
 70
    15
 71
     2
 72
     2
 73
     0
 90
        0
 40
-0.6
 41
-30.0
 62
     5
 63
     7
 74
     1
 91
        4
 64
     7
 65
   257
 75
     1
175
     1
 42
1.0
 92
        8
 66
     7
 43
1.0
 76
     1
 77
     6
 78
     2
 67
     7
 79
     5
170
     0
171
     0
290
     0
174
     0
 93
        1
 44
0.0
173
     0
291
     1
 45
0.0
1001
ACAD
1000
AcDbSavedByObjectVersion
1070
     0
  0
VISUALSTYLE
  5
E17
102
{ACAD_XDICTIONARY
360
E6F
102
}
102
{ACAD_REACTORS
330
E16
102
}
330
E16
100
AcDbVisualStyle
  2
Flat
 70
     0
 71
     2
 72
     1
 73
     1
 90
        2
 40
-0.6
 41
30.0
 62
     5
 63
     7
 74
     0
 91
        0
 64
     7
 65
   257
 75
     1
175
     1
 42
1.0
 92
        8
 66
     7
 43
1.0
 76
     1
 77
     6
 78
     2
 67
     7
 79
     5
170
     0
171
     0
290
     0
174
     0
 93
       13
 44
0.0
173
     0
291
     1
 45
0.0
1001
ACAD
1000
AcDbSavedByObjectVersion
1070
     0
  0
VISUALSTYLE
  5
E18
102
{ACAD_XDICTIONARY
360
E71
102
}
102
{ACAD_REACTORS
330
E16
102
}
330
E16
100
AcDbVisualStyle
  2
FlatWithEdges
 70
     1
 71
     2
 72
     1
 73
     1
 90
        2
 40
-0.6
 41
30.0
 62
     5
 63
     7
 74
     1
 91
        0
 64
     7
 65
   257
 75
     1
175
     1
 42
1.0
 92
        0
 66
   257
 43
1.0
 76
     1
 77
     6
 78
     2
 67
     7
 79
     5
170
     0
171
     0
290
     0
174
     0
 93
       13
 44
0.0
173
     0
291
     1
 45
0.0
1001
ACAD
1000
AcDbSavedByObjectVersion
1070
     0
  0
VISUALSTYLE
  5
E19
102
{ACAD_XDICTIONARY
360
E73
102
}
102
{ACAD_REACTORS
330
E16
102
}
330
E16
100
AcDbVisualStyle
  2
Gouraud
 70
     2
 71
     2
 72
     2
 73
     1
 90
        2
 40
-0.6
 41
30.0
 62
     5
 63
     7
 74
     0
 91
        0
 64
     7
 65
   257
 75
     1
175
     1
 42
1.0
 92
        0
 66
     7
 43
1.0
 76
     1
 77
     6
 78
     2
 67
     7
 79
     5
170
     0
171
     0
290
     0
174
     0
 93
       13
 44
0.0
173
     0
291
     1
 45
0.0
1001
ACAD
1000
AcDbSavedByObjectVersion
1070
     0
  0
VISUALSTYLE
  5
E1A
102
{ACAD_XDICTIONARY
360
E75
102
}
102
{ACAD_REACTORS
330
E16
102
}
330
E16
100
AcDbVisualStyle
  2
GouraudWithEdges
 70
     3
 71
     2
 72
     2
 73
     1
 90
        2
 40
-0.6
 41
30.0
 62
     5
 63
     7
 74
     1
 91
        0
 64
     7
 65
   257
 75
     1
175
     1
 42
1.0
 92
        0
 66
   257
 43
1.0
 76
     1
 77
     6
 78
     2
 67
     7
 79
     5
170
     0
171
     0
290
     0
174
     0
 93
       13
 44
0.0
173
     0
291
     1
 45
0.0
1001
ACAD
1000
AcDbSavedByObjectVersion
1070
     0
  0
VISUALSTYLE
  5
E1E
102
{ACAD_XDICTIONARY
360
E7D
102
}
102
{ACAD_REACTORS
330
E16
102
}
330
E16
100
AcDbVisualStyle
  2
Hidden
 70
     6
 71
     1
 72
     2
 73
     2
 90
        0
 40
-0.6
 41
-30.0
 62
     5
 63
     7
 74
     2
 91
        2
 64
     7
 65
   257
 75
     2
175
     1
 42
40.0
 92
        0
 66
   257
 43
1.0
 76
     1
 77
     6
 78
     2
 67
     7
 79
     3
170
     0
171
     0
290
     0
174
     0
 93
        1
 44
0.0
173
     0
291
     0
 45
0.0
1001
ACAD
1000
AcDbSavedByObjectVersion
1070
     0
  0
VISUALSTYLE
  5
E2C
102
{ACAD_XDICTIONARY
360
E99
102
}
102
{ACAD_REACTORS
330
E16
102
}
330
E16
100
AcDbVisualStyle
  2
JitterOff
 70
    20
 71
     2
 72
     2
 73
     0
 90
        0
 40
-0.6
 41
-30.0
 62
     5
 63
     7
 74
     1
 91
        4
 64
     7
 65
   257
 75
     1
175
     1
 42
1.0
 92
       10
 66
     7
 43
1.0
 76
     1
 77
     6
 78
     2
 67
     7
 79
     5
170
     0
171
     0
290
     0
174
     0
 93
        1
 44
0.0
173
     0
291
     1
 45
0.0
1001
ACAD
1000
AcDbSavedByObjectVersion
1070
     0
  0
VISUALSTYLE
  5
E24
102
{ACAD_XDICTIONARY
360
E89
102
}
102
{ACAD_REACTORS
330
E16
102
}
330
E16
100
AcDbVisualStyle
  2
Linepattern
 70
    14
 71
     2
 72
     2
 73
     0
 90
        0
 40
-0.6
 41
-30.0
 62
     5
 63
     7
 74
     1
 91
        4
 64
     7
 65
   257
 75
     7
175
     7
 42
1.0
 92
        8
 66
     7
 43
1.0
 76
     1
 77
     6
 78
     2
 67
     7
 79
     5
170
     0
171
     0
290
     0
174
     0
 93
        1
 44
0.0
173
     0
291
     1
 45
0.0
1001
ACAD
1000
AcDbSavedByObjectVersion
1070
     0
  0
VISUALSTYLE
  5
E2D
102
{ACAD_XDICTIONARY
360
E9B
102
}
102
{ACAD_REACTORS
330
E16
102
}
330
E16
100
AcDbVisualStyle
  2
OverhangOff
 70
    21
 71
     2
 72
     2
 73
     0
 90
        0
 40
-0.6
 41
-30.0
 62
     5
 63
     7
 74
     1
 91
        4
 64
     7
 65
   257
 75
     1
175
     1
 42
1.0
 92
        9
 66
     7
 43
1.0
 76
     1
 77
     6
 78
     2
 67
     7
 79
     5
170
     0
171
     0
290
     0
174
     0
 93
        1
 44
0.0
173
     0
291
     1
 45
0.0
1001
ACAD
1000
AcDbSavedByObjectVersion
1070
     0
  0
VISUALSTYLE
  5
E20
102
{ACAD_XDICTIONARY
360
E81
102
}
102
{ACAD_REACTORS
330
E16
102
}
330
E16
100
AcDbVisualStyle
  2
Realistic
 70
     8
 71
     2
 72
     3
 73
     0
 90
        2
 40
-0.6
 41
30.0
 62
     5
 63
     7
 74
     0
 91
        0
 64
     7
 65
   257
 75
     1
175
     1
 42
1.0
 92
        8
 66
   257
 43
1.0
 76
     1
 77
     6
 78
     2
 67
     7
 79
     3
170
     0
171
     0
290
     0
174
     0
 93
       13
 44
0.0
173
     0
291
     0
 45
0.0
1001
ACAD
1000
AcDbSavedByObjectVersion
1070
     0
  0
VISUALSTYLE
  5
E2B
102
{ACAD_XDICTIONARY
360
E97
102
}
102
{ACAD_REACTORS
330
E16
102
}
330
E16
100
AcDbVisualStyle
  2
Shaded
 70
    27
 71
     2
 72
     2
 73
     1
 90
        2
 40
-0.6
 41
30.0
 62
     5
 63
     7
 74
     0
 91
        4
 64
     7
 65
   257
 75
     1
175
     1
 42
1.0
 92
        8
 66
   257
 43
1.0
 76
     1
 77
     6
 78
     2
 67
     8
 79
     3
170
     0
171
     0
290
     0
174
     0
 93
        5
 44
0.0
173
     0
291
     0
 45
0.0
1001
ACAD
1000
AcDbSavedByObjectVersion
1070
     0
  0
VISUALSTYLE
  5
E2A
102
{ACAD_XDICTIONARY
360
E95
102
}
102
{ACAD_REACTORS
330
E16
102
}
330
E16
100
AcDbVisualStyle
  2
Shaded with edges
 70
    26
 71
     2
 72
     2
 73
     1
 90
        2
 40
-0.6
 41
30.0
 62
     5
 63
     7
 74
     1
 91
       10
 64
     7
 65
   257
 75
     2
175
     1
 42
1.0
 92
        8
 66
   257
 43
1.0
 76
     1
 77
     6
 78
     2
 67
     7
 79
     3
170
     0
171
     0
290
     0
174
     0
 93
        5
 44
0.0
173
     0
291
     0
 45
0.0
1001
ACAD
1000
AcDbSavedByObjectVersion
1070
     0
  0
VISUALSTYLE
  5
E27
102
{ACAD_XDICTIONARY
360
E8F
102
}
102
{ACAD_REACTORS
330
E16
102
}
330
E16
100
AcDbVisualStyle
  2
Shades of Gray
 70
    23
 71
     2
 72
     2
 73
     3
 90
        0
 40
-0.6
 41
-30.0
 62
     5
 63
     7
 74
     2
 91
        2
 64
     7
 65
     7
 75
     1
175
     1
 42
40.0
 92
        8
 66
     7
 43
1.0
 76
     1
 77
     6
 78
     2
 67
     7
 79
     3
170
     0
171
     0
290
     0
174
     0
 93
        1
 44
0.0
173
     0
291
     0
 45
0.0
1001
ACAD
1000
AcDbSavedByObjectVersion
1070
     0
  0
VISUALSTYLE
  5
E28
102
{ACAD_XDICTIONARY
360
E91
102
}
102
{ACAD_REACTORS
330
E16
102
}
330
E16
100
AcDbVisualStyle
  2
Sketchy
 70
    24
 71
     1
 72
     2
 73
     2
 90
        0
 40
-0.6
 41
-30.0
 62
     5
 63
     7
 74
     2
 91
        2
 64
     7
 65
     7
 75
     1
175
     1
 42
40.0
 92
       11
 66
     7
 43
1.0
 76
     1
 77
     6
 78
     2
 67
     7
 79
     6
170
     0
171
     0
290
     0
174
     0
 93
        1
 44
0.0
173
     0
291
     0
 45
0.0
1001
ACAD
1000
AcDbSavedByObjectVersion
1070
     0
  0
VISUALSTYLE
  5
E23
102
{ACAD_XDICTIONARY
360
E87
102
}
102
{ACAD_REACTORS
330
E16
102
}
330
E16
100
AcDbVisualStyle
  2
Thicken
 70
    13
 71
     2
 72
     2
 73
     0
 90
        0
 40
-0.6
 41
-30.0
 62
     5
 63
     7
 74
     1
 91
        4
 64
     7
 65
   257
 75
     1
175
     1
 42
1.0
 92
       12
 66
     7
 43
1.0
 76
     1
 77
     6
 78
     2
 67
     7
 79
     5
170
     0
171
     0
290
     0
174
     0
 93
        1
 44
0.0
173
     0
291
     1
 45
0.0
1001
ACAD
1000
AcDbSavedByObjectVersion
1070
     0
  0
VISUALSTYLE
  5
E1D
102
{ACAD_XDICTIONARY
360
E7B
102
}
102
{ACAD_REACTORS
330
E16
102
}
330
E16
100
AcDbVisualStyle
  2
Wireframe
 70
     5
 71
     0
 72
     2
 73
     0
 90
        0
 40
-0.6
 41
-30.0
 62
     5
 63
     7
 74
     1
 91
        4
 64
     7
 65
   257
 75
     1
175
     1
 42
1.0
 92
        0
 66
   257
 43
1.0
 76
     1
 77
     6
 78
     2
 67
     7
 79
     3
170
     0
171
     0
290
     0
174
     0
 93
        1
 44
0.0
173
     0
291
     0
 45
0.0
1001
ACAD
1000
AcDbSavedByObjectVersion
1070
     0
  0
VISUALSTYLE
  5
E29
102
{ACAD_XDICTIONARY
360
E93
102
}
102
{ACAD_REACTORS
330
E16
102
}
330
E16
100
AcDbVisualStyle
  2
X-Ray
 70
    25
 71
     2
 72
     2
 73
     1
 90
        1
 40
0.5
 41
-30.0
 62
     5
 63
     7
 74
     1
 91
        0
 64
     7
 65
   257
 75
     1
175
     1
 42
1.0
 92
        8
 66
     7
 43
1.0
 76
     1
 77
     6
 78
     2
 67
     7
 79
     3
170
     0
171
     0
290
     0
174
     0
 93
       13
 44
0.0
173
     0
291
     0
 45
0.0
1001
ACAD
1000
AcDbSavedByObjectVersion
1070
     0
  0
DICTIONARYVAR
  5
E62
102
{ACAD_REACTORS
330
E5D
102
}
330
E5D
100
DictionaryVariables
280
     0
  1
1:1
  0
DICTIONARYVAR
  5
E5F
102
{ACAD_REACTORS
330
E5D
102
}
330
E5D
100
DictionaryVariables
280
     0
  1
STANDARD
  0
DICTIONARYVAR
  5
E5E
102
{ACAD_REACTORS
330
E5D
102
}
330
E5D
100
DictionaryVariables
280
     0
  1
STANDARD
  0
DICTIONARYVAR
  5
E60
102
{ACAD_REACTORS
330
E5D
102
}
330
E5D
100
DictionaryVariables
280
     0
  1
Imperial24
  0
DICTIONARYVAR
  5
E61
102
{ACAD_REACTORS
330
E5D
102
}
330
E5D
100
DictionaryVariables
280
     0
  1
Imperial24
  0
DICTIONARYVAR
  5
E65
102
{ACAD_REACTORS
330
E5D
102
}
330
E5D
100
DictionaryVariables
280
     0
  1
1
  0
DICTIONARYVAR
  5
E64
102
{ACAD_REACTORS
330
E5D
102
}
330
E5D
100
DictionaryVariables
280
     0
  1
0
  0
DICTIONARYVAR
  5
E63
102
{ACAD_REACTORS
330
E5D
102
}
330
E5D
100
DictionaryVariables
280
     0
  1
127
  0
DICTIONARYVAR
  5
E66
102
{ACAD_REACTORS
330
E5D
102
}
330
E5D
100
DictionaryVariables
280
     0
  1
2
  0
DICTIONARY
  5
EA3
330
E49
100
AcDbDictionary
280
     1
281
     1
  3
ACAD_XREC_ROUNDTRIP
360
EA4
  0
DICTIONARY
  5
EA5
330
E4A
100
AcDbDictionary
280
     1
281
     1
  3
ACAD_XREC_ROUNDTRIP
360
EA6
  0
DICTIONARY
  5
EA7
330
E4B
100
AcDbDictionary
280
     1
281
     1
  3
ACAD_XREC_ROUNDTRIP
360
EA8
  0
DICTIONARY
  5
E07
330
E06
100
AcDbDictionary
280
     1
281
     1
  3
ACAD_XREC_ROUNDTRIP
360
E6D
  3
BUMPTILE
360
E09
  3
DIFFUSETILE
360
E08
  3
OPACITYTILE
360
E0C
  3
REFLECTIONTILE
360
E0B
  3
REFRACTIONTILE
360
E0D
  3
SPECULARTILE
360
E0A
  0
DICTIONARY
  5
DFF
330
DFE
100
AcDbDictionary
280
     1
281
     1
  3
ACAD_XREC_ROUNDTRIP
360
E6C
  3
BUMPTILE
360
E01
  3
DIFFUSETILE
360
E00
  3
OPACITYTILE
360
E04
  3
REFLECTIONTILE
360
E03
  3
REFRACTIONTILE
360
E05
  3
SPECULARTILE
360
E02
  0
DICTIONARY
  5
E0F
330
E0E
100
AcDbDictionary
280
     1
281
     1
  3
ACAD_XREC_ROUNDTRIP
360
E6E
  3
BUMPTILE
360
E11
  3
DIFFUSETILE
360
E10
  3
OPACITYTILE
360
E14
  3
REFLECTIONTILE
360
E13
  3
REFRACTIONTILE
360
E15
  3
SPECULARTILE
360
E12
  0
DICTIONARY
  5
EA1
330
E47
100
AcDbDictionary
280
     1
281
     1
  3
ACAD_XREC_ROUNDTRIP
360
EA2
  0
DICTIONARY
  5
E68
330
E31
100
AcDbDictionary
280
     1
281
     1
  3
ACAD_ROUNDTRIP_2008_TABLESTYLE_CELLSTYLEMAP
360
E69
  3
ACAD_XREC_ROUNDTRIP
360
E9F
  0
DICTIONARY
  5
E79
330
E1C
100
AcDbDictionary
280
     1
281
     1
  3
ACAD_XREC_ROUNDTRIP
360
E7A
  0
DICTIONARY
  5
E77
330
E1B
100
AcDbDictionary
280
     1
281
     1
  3
ACAD_XREC_ROUNDTRIP
360
E78
  0
DICTIONARY
  5
E85
330
E22
100
AcDbDictionary
280
     1
281
     1
  3
ACAD_XREC_ROUNDTRIP
360
E86
  0
DICTIONARY
  5
E8D
330
E26
100
AcDbDictionary
280
     1
281
     1
  3
ACAD_XREC_ROUNDTRIP
360
E8E
  0
DICTIONARY
  5
E7F
330
E1F
100
AcDbDictionary
280
     1
281
     1
  3
ACAD_XREC_ROUNDTRIP
360
E80
  0
DICTIONARY
  5
E83
330
E21
100
AcDbDictionary
280
     1
281
     1
  3
ACAD_XREC_ROUNDTRIP
360
E84
  0
DICTIONARY
  5
E9D
330
E2E
100
AcDbDictionary
280
     1
281
     1
  3
ACAD_XREC_ROUNDTRIP
360
E9E
  0
DICTIONARY
  5
E8B
330
E25
100
AcDbDictionary
280
     1
281
     1
  3
ACAD_XREC_ROUNDTRIP
360
E8C
  0
DICTIONARY
  5
E6F
330
E17
100
AcDbDictionary
280
     1
281
     1
  3
ACAD_XREC_ROUNDTRIP
360
E70
  0
DICTIONARY
  5
E71
330
E18
100
AcDbDictionary
280
     1
281
     1
  3
ACAD_XREC_ROUNDTRIP
360
E72
  0
DICTIONARY
  5
E73
330
E19
100
AcDbDictionary
280
     1
281
     1
  3
ACAD_XREC_ROUNDTRIP
360
E74
  0
DICTIONARY
  5
E75
330
E1A
100
AcDbDictionary
280
     1
281
     1
  3
ACAD_XREC_ROUNDTRIP
360
E76
  0
DICTIONARY
  5
E7D
330
E1E
100
AcDbDictionary
280
     1
281
     1
  3
ACAD_XREC_ROUNDTRIP
360
E7E
  0
DICTIONARY
  5
E99
330
E2C
100
AcDbDictionary
280
     1
281
     1
  3
ACAD_XREC_ROUNDTRIP
360
E9A
  0
DICTIONARY
  5
E89
330
E24
100
AcDbDictionary
280
     1
281
     1
  3
ACAD_XREC_ROUNDTRIP
360
E8A
  0
DICTIONARY
  5
E9B
330
E2D
100
AcDbDictionary
280
     1
281
     1
  3
ACAD_XREC_ROUNDTRIP
360
E9C
  0
DICTIONARY
  5
E81
330
E20
100
AcDbDictionary
280
     1
281
     1
  3
ACAD_XREC_ROUNDTRIP
360
E82
  0
DICTIONARY
  5
E97
330
E2B
100
AcDbDictionary
280
     1
281
     1
  3
ACAD_XREC_ROUNDTRIP
360
E98
  0
DICTIONARY
  5
E95
330
E2A
100
AcDbDictionary
280
     1
281
     1
  3
ACAD_XREC_ROUNDTRIP
360
E96
  0
DICTIONARY
  5
E8F
330
E27
100
AcDbDictionary
280
     1
281
     1
  3
ACAD_XREC_ROUNDTRIP
360
E90
  0
DICTIONARY
  5
E91
330
E28
100
AcDbDictionary
280
     1
281
     1
  3
ACAD_XREC_ROUNDTRIP
360
E92
  0
DICTIONARY
  5
E87
330
E23
100
AcDbDictionary
280
     1
281
     1
  3
ACAD_XREC_ROUNDTRIP
360
E88
  0
DICTIONARY
  5
E7B
330
E1D
100
AcDbDictionary
280
     1
281
     1
  3
ACAD_XREC_ROUNDTRIP
360
E7C
  0
DICTIONARY
  5
E93
330
E29
100
AcDbDictionary
280
     1
281
     1
  3
ACAD_XREC_ROUNDTRIP
360
E94
  0
XRECORD
  5
EA4
102
{ACAD_REACTORS
330
EA3
102
}
330
EA3
100
AcDbXrecord
280
     1
102
DISPLAYNAME
  1
Imperial24
102
FLAGS
 90
        0
  0
XRECORD
  5
EA6
102
{ACAD_REACTORS
330
EA5
102
}
330
EA5
100
AcDbXrecord
280
     1
102
SHADEPLOT
 70
     0
102
SHADEPLOTRESLEVEL
 70
     2
102
SHADEPLOTCUSTOMDPI
 70
   300
  0
XRECORD
  5
EA8
102
{ACAD_REACTORS
330
EA7
102
}
330
EA7
100
AcDbXrecord
280
     1
102
SHADEPLOT
 70
     0
102
SHADEPLOTRESLEVEL
 70
     2
102
SHADEPLOTCUSTOMDPI
 70
   300
  0
XRECORD
  5
E6D
102
{ACAD_REACTORS
330
E07
102
}
330
E07
100
AcDbXrecord
280
     1
102
MATERIAL
148
0.0
149
0.0
149
0.0
 93
        0
 94
      127
282
     0
 72
     0
 77
     0
171
     0
175
     0
179
     0
273
     0
  0
XRECORD
  5
E09
102
{ACAD_REACTORS
330
E07
102
}
330
E07
100
AcDbXrecord
280
     1
270
     1
271
     1
  0
XRECORD
  5
E08
102
{ACAD_REACTORS
330
E07
102
}
330
E07
100
AcDbXrecord
280
     1
270
     1
271
     1
  0
XRECORD
  5
E0C
102
{ACAD_REACTORS
330
E07
102
}
330
E07
100
AcDbXrecord
280
     1
270
     1
271
     1
  0
XRECORD
  5
E0B
102
{ACAD_REACTORS
330
E07
102
}
330
E07
100
AcDbXrecord
280
     1
270
     1
271
     1
  0
XRECORD
  5
E0D
102
{ACAD_REACTORS
330
E07
102
}
330
E07
100
AcDbXrecord
280
     1
270
     1
271
     1
  0
XRECORD
  5
E0A
102
{ACAD_REACTORS
330
E07
102
}
330
E07
100
AcDbXrecord
280
     1
270
     1
271
     1
  0
XRECORD
  5
E6C
102
{ACAD_REACTORS
330
DFF
102
}
330
DFF
100
AcDbXrecord
280
     1
102
MATERIAL
148
0.0
149
0.0
149
0.0
 93
        0
 94
      127
282
     0
 72
     0
 77
     0
171
     0
175
     0
179
     0
273
     0
  0
XRECORD
  5
E01
102
{ACAD_REACTORS
330
DFF
102
}
330
DFF
100
AcDbXrecord
280
     1
270
     1
271
     1
  0
XRECORD
  5
E00
102
{ACAD_REACTORS
330
DFF
102
}
330
DFF
100
AcDbXrecord
280
     1
270
     1
271
     1
  0
XRECORD
  5
E04
102
{ACAD_REACTORS
330
DFF
102
}
330
DFF
100
AcDbXrecord
280
     1
270
     1
271
     1
  0
XRECORD
  5
E03
102
{ACAD_REACTORS
330
DFF
102
}
330
DFF
100
AcDbXrecord
280
     1
270
     1
271
     1
  0
XRECORD
  5
E05
102
{ACAD_REACTORS
330
DFF
102
}
330
DFF
100
AcDbXrecord
280
     1
270
     1
271
     1
  0
XRECORD
  5
E02
102
{ACAD_REACTORS
330
DFF
102
}
330
DFF
100
AcDbXrecord
280
     1
270
     1
271
     1
  0
XRECORD
  5
E6E
102
{ACAD_REACTORS
330
E0F
102
}
330
E0F
100
AcDbXrecord
280
     1
102
MATERIAL
148
0.0
149
0.0
149
0.0
 93
        0
 94
      127
282
     0
 72
     0
 77
     0
171
     0
175
     0
179
     0
273
     0
  0
XRECORD
  5
E11
102
{ACAD_REACTORS
330
E0F
102
}
330
E0F
100
AcDbXrecord
280
     1
270
     1
271
     1
  0
XRECORD
  5
E10
102
{ACAD_REACTORS
330
E0F
102
}
330
E0F
100
AcDbXrecord
280
     1
270
     1
271
     1
  0
XRECORD
  5
E14
102
{ACAD_REACTORS
330
E0F
102
}
330
E0F
100
AcDbXrecord
280
     1
270
     1
271
     1
  0
XRECORD
  5
E13
102
{ACAD_REACTORS
330
E0F
102
}
330
E0F
100
AcDbXrecord
280
     1
270
     1
271
     1
  0
XRECORD
  5
E15
102
{ACAD_REACTORS
330
E0F
102
}
330
E0F
100
AcDbXrecord
280
     1
270
     1
271
     1
  0
XRECORD
  5
E12
102
{ACAD_REACTORS
330
E0F
102
}
330
E0F
100
AcDbXrecord
280
     1
270
     1
271
     1
  0
XRECORD
  5
EA2
102
{ACAD_REACTORS
330
EA1
102
}
330
EA1
100
AcDbXrecord
280
     1
102
DISPLAYNAME
  1
Imperial24
102
FLAGS
 90
        0
  0
CELLSTYLEMAP
  5
E69
102
{ACAD_REACTORS
330
E68
102
}
330
E68
100
AcDbCellStyleMap
 90
        3
300
CELLSTYLE
  1
TABLEFORMAT_BEGIN
 90
        5
170
     1
 91
        0
 92
    32768
 62
   257
 93
        1
300
CONTENTFORMAT
  1
CONTENTFORMAT_BEGIN
 90
        0
 91
        0
 92
      512
 93
        0
300

 40
0.0
140
1.0
 94
        5
 62
     0
340
F
144
0.25
309
CONTENTFORMAT_END
171
     0
 94
        0
309
TABLEFORMAT_END
  1
CELLSTYLE_BEGIN
 90
        1
 91
        1
300
_TITLE
309
CELLSTYLE_END
300
CELLSTYLE
  1
TABLEFORMAT_BEGIN
 90
        5
170
     1
 91
        0
 92
        0
 62
   257
 93
        1
300
CONTENTFORMAT
  1
CONTENTFORMAT_BEGIN
 90
        0
 91
        0
 92
      512
 93
        0
300

 40
0.0
140
1.0
 94
        5
 62
     0
340
F
144
0.18
309
CONTENTFORMAT_END
171
     0
 94
        0
309
TABLEFORMAT_END
  1
CELLSTYLE_BEGIN
 90
        2
 91
        1
300
_HEADER
309
CELLSTYLE_END
300
CELLSTYLE
  1
TABLEFORMAT_BEGIN
 90
        5
170
     1
 91
        0
 92
        0
 62
   257
 93
        1
300
CONTENTFORMAT
  1
CONTENTFORMAT_BEGIN
 90
        0
 91
        0
 92
      512
 93
        0
300

 40
0.0
140
1.0
 94
        2
 62
     0
340
F
144
0.18
309
CONTENTFORMAT_END
171
     0
 94
        0
309
TABLEFORMAT_END
  1
CELLSTYLE_BEGIN
 90
        3
 91
        2
300
_DATA
309
CELLSTYLE_END
  0
XRECORD
  5
E9F
102
{ACAD_REACTORS
330
E68
102
}
330
E68
100
AcDbXrecord
280
     1
102
ACAD_ROUNDTRIP_PRE2007_TABLESTYLE
 90
      512
 91
        0
  1

 92
      512
 93
        0
  2

 94
      512
 95
        0
  3

  0
XRECORD
  5
E7A
102
{ACAD_REACTORS
330
E79
102
}
330
E79
100
AcDbXrecord
280
     1
102
RTVSPost2010Prop28
280
     1
102
RTVSPost2010PropOp28
 70
     1
102
RTVSPost2010Prop29
280
     1
102
RTVSPost2010PropOp29
 70
     1
102
RTVSPost2010Prop30
280
     0
102
RTVSPost2010PropOp30
 70
     1
102
RTVSPost2010Prop31
280
     0
102
RTVSPost2010PropOp31
 70
     1
102
RTVSPost2010Prop32
280
     0
102
RTVSPost2010PropOp32
 70
     1
102
RTVSPost2010Prop33
280
     0
102
RTVSPost2010PropOp33
 70
     1
102
RTVSPost2010Prop34
280
     0
102
RTVSPost2010PropOp34
 70
     1
102
RTVSPost2010Prop35
280
     0
102
RTVSPost2010PropOp35
 70
     1
102
RTVSPost2010Prop36
280
     0
102
RTVSPost2010PropOp36
 70
     1
102
RTVSPost2010Prop37
 90
       50
102
RTVSPost2010PropOp37
 70
     1
102
RTVSPost2010Prop38
140
0.0
102
RTVSPost2010PropOp38
 70
     1
102
RTVSPost2010Prop39
140
1.0
102
RTVSPost2010PropOp39
 70
     1
102
RTVSPost2010Prop40
 90
        0
102
RTVSPost2010PropOp40
 70
     1
102
RTVSPost2010Prop41ColorIndex
 90
       18
102
RTVSPost2010Prop41ColorRGB
 90
        0
102
RTVSPost2010PropOp41
 70
     1
102
RTVSPost2010Prop42
 90
       50
102
RTVSPost2010PropOp42
 70
     1
102
RTVSPost2010Prop43
 90
        3
102
RTVSPost2010PropOp43
 70
     1
102
RTVSPost2010Prop44ColorIndex
 90
        5
102
RTVSPost2010Prop44ColorRGB
 90
      255
102
RTVSPost2010PropOp44
 70
     1
102
RTVSPost2010Prop45
280
     0
102
RTVSPost2010PropOp45
 70
     1
102
RTVSPost2010Prop46
 90
       50
102
RTVSPost2010PropOp46
 70
     1
102
RTVSPost2010Prop47
 90
       50
102
RTVSPost2010PropOp47
 70
     1
102
RTVSPost2010Prop48
 90
       50
102
RTVSPost2010PropOp48
 70
     1
102
RTVSPost2010Prop49
280
     0
102
RTVSPost2010PropOp49
 70
     1
102
RTVSPost2010Prop50
 90
       50
102
RTVSPost2010PropOp50
 70
     1
102
RTVSPost2010Prop51ColorIndex
 90
      256
102
RTVSPost2010Prop51ColorRGB
 90
-16777216
102
RTVSPost2010PropOp51
 70
     0
102
RTVSPost2010Prop52
140
1.0
102
RTVSPost2010PropOp52
 70
     0
102
RTVSPost2010Prop53
 90
        2
102
RTVSPost2010PropOp53
 70
     1
102
RTVSPost2010Prop54
  1
strokes_ogs.tif
102
RTVSPost2010PropOp54
 70
     1
102
RTVSPost2010Prop55
280
     0
102
RTVSPost2010PropOp55
 70
     1
102
RTVSPost2010Prop56
140
1.0
102
RTVSPost2010PropOp56
 70
     1
102
RTVSPost2010Prop57
140
1.0
102
RTVSPost2010PropOp57
 70
     1
102
RTVSPropertyOp0
 70
     1
102
RTVSPropertyOp1
 70
     1
102
RTVSPropertyOp2
 70
     1
102
RTVSPropertyOp3
 70
     1
102
RTVSPropertyOp4
 70
     1
102
RTVSPropertyOp5
 70
     1
102
RTVSPropertyOp6
 70
     1
102
RTVSPropertyOp7
 70
     1
102
RTVSPropertyOp8
 70
     1
102
RTVSPropertyOp9
 70
     1
102
RTVSPropertyOp10
 70
     1
102
RTVSPropertyOp11
 70
     1
102
RTVSPropertyOp12
 70
     1
102
RTVSPropertyOp13
 70
     1
102
RTVSPropertyOp14
 70
     1
102
RTVSPropertyOp15
 70
     1
102
RTVSPropertyOp16
 70
     1
102
RTVSPropertyOp17
 70
     1
102
RTVSPropertyOp18
 70
     1
102
RTVSPropertyOp19
 70
     1
102
RTVSPropertyOp20
 70
     1
102
RTVSPropertyOp21
 70
     1
102
RTVSPropertyOp22
 70
     1
102
RTVSPropertyOp23
 70
     1
102
RTVSPropertyOp24
 70
     1
102
RTVSPropertyOp25
 70
     1
102
RTVSPropertyOp26
 70
     1
102
RTVSPropertyOp27
 70
     1
102
RTVSPropertyOp28
 70
     1
102
RTVSPropertyOp29
 70
     1
102
RTVSPropertyOp30
 70
     1
102
RTVSPropertyOp31
 70
     1
102
RTVSPropertyOp32
 70
     1
102
RTVSPropertyOp33
 70
     1
102
RTVSPropertyOp34
 70
     1
102
RTVSPropertyOp35
 70
     1
102
RTVSPropertyOp36
 70
     1
102
RTVSPropertyOp37
 70
     1
102
RTVSPropertyOp38
 70
     1
102
RTVSPropertyOp39
 70
     1
102
RTVSPropertyOp40
 70
     1
102
RTVSPropertyOp41
 70
     1
102
RTVSPropertyOp42
 70
     1
102
RTVSPropertyOp43
 70
     1
102
RTVSPropertyOp44
 70
     1
102
RTVSPropertyOp45
 70
     1
102
RTVSPropertyOp46
 70
     1
102
RTVSPropertyOp47
 70
     1
102
RTVSPropertyOp48
 70
     1
102
RTVSPropertyOp49
 70
     1
102
RTVSPropertyOp50
 70
     1
102
RTVSPropertyOp51
 70
     0
102
RTVSPropertyOp52
 70
     0
102
RTVSPropertyOp53
 70
     1
102
RTVSPropertyOp54
 70
     1
102
RTVSPropertyOp55
 70
     1
102
RTVSPropertyOp56
 70
     1
102
RTVSPropertyOp57
 70
     1
102
RTVSPropertyOp58
 70
     1
102
RTVSPropertyOp59
 70
     1
102
RTVSPropertyOp60
 70
     1
102
RTVSPropertyOp61
 70
     1
102
RTVSPropertyOp62
 70
     1
  0
XRECORD
  5
E78
102
{ACAD_REACTORS
330
E77
102
}
330
E77
100
AcDbXrecord
280
     1
102
RTVSPost2010Prop28
280
     0
102
RTVSPost2010PropOp28
 70
     1
102
RTVSPost2010Prop29
280
     1
102
RTVSPost2010PropOp29
 70
     1
102
RTVSPost2010Prop30
280
     1
102
RTVSPost2010PropOp30
 70
     1
102
RTVSPost2010Prop31
280
     0
102
RTVSPost2010PropOp31
 70
     1
102
RTVSPost2010Prop32
280
     0
102
RTVSPost2010PropOp32
 70
     1
102
RTVSPost2010Prop33
280
     0
102
RTVSPost2010PropOp33
 70
     1
102
RTVSPost2010Prop34
280
     0
102
RTVSPost2010PropOp34
 70
     1
102
RTVSPost2010Prop35
280
     0
102
RTVSPost2010PropOp35
 70
     1
102
RTVSPost2010Prop36
280
     0
102
RTVSPost2010PropOp36
 70
     1
102
RTVSPost2010Prop37
 90
       50
102
RTVSPost2010PropOp37
 70
     1
102
RTVSPost2010Prop38
140
0.0
102
RTVSPost2010PropOp38
 70
     1
102
RTVSPost2010Prop39
140
1.0
102
RTVSPost2010PropOp39
 70
     1
102
RTVSPost2010Prop40
 90
        0
102
RTVSPost2010PropOp40
 70
     1
102
RTVSPost2010Prop41ColorIndex
 90
       18
102
RTVSPost2010Prop41ColorRGB
 90
        0
102
RTVSPost2010PropOp41
 70
     1
102
RTVSPost2010Prop42
 90
       50
102
RTVSPost2010PropOp42
 70
     1
102
RTVSPost2010Prop43
 90
        3
102
RTVSPost2010PropOp43
 70
     1
102
RTVSPost2010Prop44ColorIndex
 90
        5
102
RTVSPost2010Prop44ColorRGB
 90
      255
102
RTVSPost2010PropOp44
 70
     1
102
RTVSPost2010Prop45
280
     0
102
RTVSPost2010PropOp45
 70
     1
102
RTVSPost2010Prop46
 90
       50
102
RTVSPost2010PropOp46
 70
     1
102
RTVSPost2010Prop47
 90
       50
102
RTVSPost2010PropOp47
 70
     1
102
RTVSPost2010Prop48
 90
       50
102
RTVSPost2010PropOp48
 70
     1
102
RTVSPost2010Prop49
280
     0
102
RTVSPost2010PropOp49
 70
     1
102
RTVSPost2010Prop50
 90
       50
102
RTVSPost2010PropOp50
 70
     1
102
RTVSPost2010Prop51ColorIndex
 90
      256
102
RTVSPost2010Prop51ColorRGB
 90
-16777216
102
RTVSPost2010PropOp51
 70
     0
102
RTVSPost2010Prop52
140
1.0
102
RTVSPost2010PropOp52
 70
     0
102
RTVSPost2010Prop53
 90
        2
102
RTVSPost2010PropOp53
 70
     1
102
RTVSPost2010Prop54
  1
strokes_ogs.tif
102
RTVSPost2010PropOp54
 70
     1
102
RTVSPost2010Prop55
280
     0
102
RTVSPost2010PropOp55
 70
     1
102
RTVSPost2010Prop56
140
1.0
102
RTVSPost2010PropOp56
 70
     1
102
RTVSPost2010Prop57
140
1.0
102
RTVSPost2010PropOp57
 70
     1
102
RTVSPropertyOp0
 70
     1
102
RTVSPropertyOp1
 70
     1
102
RTVSPropertyOp2
 70
     1
102
RTVSPropertyOp3
 70
     1
102
RTVSPropertyOp4
 70
     1
102
RTVSPropertyOp5
 70
     1
102
RTVSPropertyOp6
 70
     1
102
RTVSPropertyOp7
 70
     1
102
RTVSPropertyOp8
 70
     1
102
RTVSPropertyOp9
 70
     1
102
RTVSPropertyOp10
 70
     1
102
RTVSPropertyOp11
 70
     1
102
RTVSPropertyOp12
 70
     1
102
RTVSPropertyOp13
 70
     1
102
RTVSPropertyOp14
 70
     1
102
RTVSPropertyOp15
 70
     1
102
RTVSPropertyOp16
 70
     1
102
RTVSPropertyOp17
 70
     1
102
RTVSPropertyOp18
 70
     1
102
RTVSPropertyOp19
 70
     1
102
RTVSPropertyOp20
 70
     1
102
RTVSPropertyOp21
 70
     1
102
RTVSPropertyOp22
 70
     1
102
RTVSPropertyOp23
 70
     1
102
RTVSPropertyOp24
 70
     1
102
RTVSPropertyOp25
 70
     1
102
RTVSPropertyOp26
 70
     1
102
RTVSPropertyOp27
 70
     1
102
RTVSPropertyOp28
 70
     1
102
RTVSPropertyOp29
 70
     1
102
RTVSPropertyOp30
 70
     1
102
RTVSPropertyOp31
 70
     1
102
RTVSPropertyOp32
 70
     1
102
RTVSPropertyOp33
 70
     1
102
RTVSPropertyOp34
 70
     1
102
RTVSPropertyOp35
 70
     1
102
RTVSPropertyOp36
 70
     1
102
RTVSPropertyOp37
 70
     1
102
RTVSPropertyOp38
 70
     1
102
RTVSPropertyOp39
 70
     1
102
RTVSPropertyOp40
 70
     1
102
RTVSPropertyOp41
 70
     1
102
RTVSPropertyOp42
 70
     1
102
RTVSPropertyOp43
 70
     1
102
RTVSPropertyOp44
 70
     1
102
RTVSPropertyOp45
 70
     1
102
RTVSPropertyOp46
 70
     1
102
RTVSPropertyOp47
 70
     1
102
RTVSPropertyOp48
 70
     1
102
RTVSPropertyOp49
 70
     1
102
RTVSPropertyOp50
 70
     1
102
RTVSPropertyOp51
 70
     0
102
RTVSPropertyOp52
 70
     0
102
RTVSPropertyOp53
 70
     1
102
RTVSPropertyOp54
 70
     1
102
RTVSPropertyOp55
 70
     1
102
RTVSPropertyOp56
 70
     1
102
RTVSPropertyOp57
 70
     1
102
RTVSPropertyOp58
 70
     1
102
RTVSPropertyOp59
 70
     1
102
RTVSPropertyOp60
 70
     1
102
RTVSPropertyOp61
 70
     1
102
RTVSPropertyOp62
 70
     1
  0
XRECORD
  5
E86
102
{ACAD_REACTORS
330
E85
102
}
330
E85
100
AcDbXrecord
280
     1
102
RTVSPost2010Prop28
280
     0
102
RTVSPost2010PropOp28
 70
     1
102
RTVSPost2010Prop29
280
     1
102
RTVSPost2010PropOp29
 70
     1
102
RTVSPost2010Prop30
280
     1
102
RTVSPost2010PropOp30
 70
     1
102
RTVSPost2010Prop31
280
     0
102
RTVSPost2010PropOp31
 70
     1
102
RTVSPost2010Prop32
280
     0
102
RTVSPost2010PropOp32
 70
     1
102
RTVSPost2010Prop33
280
     0
102
RTVSPost2010PropOp33
 70
     1
102
RTVSPost2010Prop34
280
     0
102
RTVSPost2010PropOp34
 70
     1
102
RTVSPost2010Prop35
280
     0
102
RTVSPost2010PropOp35
 70
     1
102
RTVSPost2010Prop36
280
     0
102
RTVSPost2010PropOp36
 70
     1
102
RTVSPost2010Prop37
 90
       50
102
RTVSPost2010PropOp37
 70
     1
102
RTVSPost2010Prop38
140
0.0
102
RTVSPost2010PropOp38
 70
     1
102
RTVSPost2010Prop39
140
1.0
102
RTVSPost2010PropOp39
 70
     1
102
RTVSPost2010Prop40
 90
        0
102
RTVSPost2010PropOp40
 70
     1
102
RTVSPost2010Prop41ColorIndex
 90
       18
102
RTVSPost2010Prop41ColorRGB
 90
        0
102
RTVSPost2010PropOp41
 70
     1
102
RTVSPost2010Prop42
 90
       50
102
RTVSPost2010PropOp42
 70
     1
102
RTVSPost2010Prop43
 90
        3
102
RTVSPost2010PropOp43
 70
     1
102
RTVSPost2010Prop44ColorIndex
 90
        5
102
RTVSPost2010Prop44ColorRGB
 90
      255
102
RTVSPost2010PropOp44
 70
     1
102
RTVSPost2010Prop45
280
     0
102
RTVSPost2010PropOp45
 70
     1
102
RTVSPost2010Prop46
 90
       50
102
RTVSPost2010PropOp46
 70
     1
102
RTVSPost2010Prop47
 90
       50
102
RTVSPost2010PropOp47
 70
     1
102
RTVSPost2010Prop48
 90
       50
102
RTVSPost2010PropOp48
 70
     1
102
RTVSPost2010Prop49
280
     0
102
RTVSPost2010PropOp49
 70
     1
102
RTVSPost2010Prop50
 90
       50
102
RTVSPost2010PropOp50
 70
     1
102
RTVSPost2010Prop51ColorIndex
 90
      256
102
RTVSPost2010Prop51ColorRGB
 90
-16777216
102
RTVSPost2010PropOp51
 70
     0
102
RTVSPost2010Prop52
140
1.0
102
RTVSPost2010PropOp52
 70
     0
102
RTVSPost2010Prop53
 90
        2
102
RTVSPost2010PropOp53
 70
     1
102
RTVSPost2010Prop54
  1
strokes_ogs.tif
102
RTVSPost2010PropOp54
 70
     1
102
RTVSPost2010Prop55
280
     0
102
RTVSPost2010PropOp55
 70
     1
102
RTVSPost2010Prop56
140
1.0
102
RTVSPost2010PropOp56
 70
     1
102
RTVSPost2010Prop57
140
1.0
102
RTVSPost2010PropOp57
 70
     1
102
RTVSPropertyOp0
 70
     1
102
RTVSPropertyOp1
 70
     1
102
RTVSPropertyOp2
 70
     1
102
RTVSPropertyOp3
 70
     1
102
RTVSPropertyOp4
 70
     1
102
RTVSPropertyOp5
 70
     1
102
RTVSPropertyOp6
 70
     1
102
RTVSPropertyOp7
 70
     1
102
RTVSPropertyOp8
 70
     1
102
RTVSPropertyOp9
 70
     1
102
RTVSPropertyOp10
 70
     1
102
RTVSPropertyOp11
 70
     1
102
RTVSPropertyOp12
 70
     1
102
RTVSPropertyOp13
 70
     1
102
RTVSPropertyOp14
 70
     1
102
RTVSPropertyOp15
 70
     1
102
RTVSPropertyOp16
 70
     1
102
RTVSPropertyOp17
 70
     1
102
RTVSPropertyOp18
 70
     1
102
RTVSPropertyOp19
 70
     1
102
RTVSPropertyOp20
 70
     1
102
RTVSPropertyOp21
 70
     1
102
RTVSPropertyOp22
 70
     1
102
RTVSPropertyOp23
 70
     1
102
RTVSPropertyOp24
 70
     1
102
RTVSPropertyOp25
 70
     1
102
RTVSPropertyOp26
 70
     1
102
RTVSPropertyOp27
 70
     1
102
RTVSPropertyOp28
 70
     1
102
RTVSPropertyOp29
 70
     1
102
RTVSPropertyOp30
 70
     1
102
RTVSPropertyOp31
 70
     1
102
RTVSPropertyOp32
 70
     1
102
RTVSPropertyOp33
 70
     1
102
RTVSPropertyOp34
 70
     1
102
RTVSPropertyOp35
 70
     1
102
RTVSPropertyOp36
 70
     1
102
RTVSPropertyOp37
 70
     1
102
RTVSPropertyOp38
 70
     1
102
RTVSPropertyOp39
 70
     1
102
RTVSPropertyOp40
 70
     1
102
RTVSPropertyOp41
 70
     1
102
RTVSPropertyOp42
 70
     1
102
RTVSPropertyOp43
 70
     1
102
RTVSPropertyOp44
 70
     1
102
RTVSPropertyOp45
 70
     1
102
RTVSPropertyOp46
 70
     1
102
RTVSPropertyOp47
 70
     1
102
RTVSPropertyOp48
 70
     1
102
RTVSPropertyOp49
 70
     1
102
RTVSPropertyOp50
 70
     1
102
RTVSPropertyOp51
 70
     0
102
RTVSPropertyOp52
 70
     0
102
RTVSPropertyOp53
 70
     1
102
RTVSPropertyOp54
 70
     1
102
RTVSPropertyOp55
 70
     1
102
RTVSPropertyOp56
 70
     1
102
RTVSPropertyOp57
 70
     1
102
RTVSPropertyOp58
 70
     1
102
RTVSPropertyOp59
 70
     1
102
RTVSPropertyOp60
 70
     1
102
RTVSPropertyOp61
 70
     1
102
RTVSPropertyOp62
 70
     1
  0
XRECORD
  5
E8E
102
{ACAD_REACTORS
330
E8D
102
}
330
E8D
100
AcDbXrecord
280
     1
102
RTVSPost2010Prop28
280
     0
102
RTVSPost2010PropOp28
 70
     1
102
RTVSPost2010Prop29
280
     1
102
RTVSPost2010PropOp29
 70
     1
102
RTVSPost2010Prop30
280
     1
102
RTVSPost2010PropOp30
 70
     1
102
RTVSPost2010Prop31
280
     0
102
RTVSPost2010PropOp31
 70
     1
102
RTVSPost2010Prop32
280
     0
102
RTVSPost2010PropOp32
 70
     1
102
RTVSPost2010Prop33
280
     0
102
RTVSPost2010PropOp33
 70
     1
102
RTVSPost2010Prop34
280
     0
102
RTVSPost2010PropOp34
 70
     1
102
RTVSPost2010Prop35
280
     0
102
RTVSPost2010PropOp35
 70
     1
102
RTVSPost2010Prop36
280
     0
102
RTVSPost2010PropOp36
 70
     1
102
RTVSPost2010Prop37
 90
       50
102
RTVSPost2010PropOp37
 70
     1
102
RTVSPost2010Prop38
140
0.0
102
RTVSPost2010PropOp38
 70
     1
102
RTVSPost2010Prop39
140
1.0
102
RTVSPost2010PropOp39
 70
     1
102
RTVSPost2010Prop40
 90
        0
102
RTVSPost2010PropOp40
 70
     1
102
RTVSPost2010Prop41ColorIndex
 90
       18
102
RTVSPost2010Prop41ColorRGB
 90
        0
102
RTVSPost2010PropOp41
 70
     1
102
RTVSPost2010Prop42
 90
       50
102
RTVSPost2010PropOp42
 70
     1
102
RTVSPost2010Prop43
 90
        3
102
RTVSPost2010PropOp43
 70
     1
102
RTVSPost2010Prop44ColorIndex
 90
        5
102
RTVSPost2010Prop44ColorRGB
 90
      255
102
RTVSPost2010PropOp44
 70
     1
102
RTVSPost2010Prop45
280
     0
102
RTVSPost2010PropOp45
 70
     1
102
RTVSPost2010Prop46
 90
       50
102
RTVSPost2010PropOp46
 70
     1
102
RTVSPost2010Prop47
 90
       50
102
RTVSPost2010PropOp47
 70
     1
102
RTVSPost2010Prop48
 90
       50
102
RTVSPost2010PropOp48
 70
     1
102
RTVSPost2010Prop49
280
     0
102
RTVSPost2010PropOp49
 70
     1
102
RTVSPost2010Prop50
 90
       50
102
RTVSPost2010PropOp50
 70
     1
102
RTVSPost2010Prop51ColorIndex
 90
      256
102
RTVSPost2010Prop51ColorRGB
 90
-16777216
102
RTVSPost2010PropOp51
 70
     0
102
RTVSPost2010Prop52
140
1.0
102
RTVSPost2010PropOp52
 70
     0
102
RTVSPost2010Prop53
 90
        2
102
RTVSPost2010PropOp53
 70
     1
102
RTVSPost2010Prop54
  1
strokes_ogs.tif
102
RTVSPost2010PropOp54
 70
     1
102
RTVSPost2010Prop55
280
     0
102
RTVSPost2010PropOp55
 70
     1
102
RTVSPost2010Prop56
140
1.0
102
RTVSPost2010PropOp56
 70
     1
102
RTVSPost2010Prop57
140
1.0
102
RTVSPost2010PropOp57
 70
     1
102
RTVSPropertyOp0
 70
     1
102
RTVSPropertyOp1
 70
     1
102
RTVSPropertyOp2
 70
     1
102
RTVSPropertyOp3
 70
     1
102
RTVSPropertyOp4
 70
     1
102
RTVSPropertyOp5
 70
     1
102
RTVSPropertyOp6
 70
     1
102
RTVSPropertyOp7
 70
     1
102
RTVSPropertyOp8
 70
     1
102
RTVSPropertyOp9
 70
     1
102
RTVSPropertyOp10
 70
     1
102
RTVSPropertyOp11
 70
     1
102
RTVSPropertyOp12
 70
     1
102
RTVSPropertyOp13
 70
     1
102
RTVSPropertyOp14
 70
     1
102
RTVSPropertyOp15
 70
     1
102
RTVSPropertyOp16
 70
     1
102
RTVSPropertyOp17
 70
     1
102
RTVSPropertyOp18
 70
     1
102
RTVSPropertyOp19
 70
     1
102
RTVSPropertyOp20
 70
     1
102
RTVSPropertyOp21
 70
     1
102
RTVSPropertyOp22
 70
     1
102
RTVSPropertyOp23
 70
     1
102
RTVSPropertyOp24
 70
     1
102
RTVSPropertyOp25
 70
     1
102
RTVSPropertyOp26
 70
     1
102
RTVSPropertyOp27
 70
     1
102
RTVSPropertyOp28
 70
     1
102
RTVSPropertyOp29
 70
     1
102
RTVSPropertyOp30
 70
     1
102
RTVSPropertyOp31
 70
     1
102
RTVSPropertyOp32
 70
     1
102
RTVSPropertyOp33
 70
     1
102
RTVSPropertyOp34
 70
     1
102
RTVSPropertyOp35
 70
     1
102
RTVSPropertyOp36
 70
     1
102
RTVSPropertyOp37
 70
     1
102
RTVSPropertyOp38
 70
     1
102
RTVSPropertyOp39
 70
     1
102
RTVSPropertyOp40
 70
     1
102
RTVSPropertyOp41
 70
     1
102
RTVSPropertyOp42
 70
     1
102
RTVSPropertyOp43
 70
     1
102
RTVSPropertyOp44
 70
     1
102
RTVSPropertyOp45
 70
     1
102
RTVSPropertyOp46
 70
     1
102
RTVSPropertyOp47
 70
     1
102
RTVSPropertyOp48
 70
     1
102
RTVSPropertyOp49
 70
     1
102
RTVSPropertyOp50
 70
     1
102
RTVSPropertyOp51
 70
     0
102
RTVSPropertyOp52
 70
     0
102
RTVSPropertyOp53
 70
     1
102
RTVSPropertyOp54
 70
     1
102
RTVSPropertyOp55
 70
     1
102
RTVSPropertyOp56
 70
     1
102
RTVSPropertyOp57
 70
     1
102
RTVSPropertyOp58
 70
     1
102
RTVSPropertyOp59
 70
     1
102
RTVSPropertyOp60
 70
     1
102
RTVSPropertyOp61
 70
     1
102
RTVSPropertyOp62
 70
     1
  0
XRECORD
  5
E80
102
{ACAD_REACTORS
330
E7F
102
}
330
E7F
100
AcDbXrecord
280
     1
102
RTVSPost2010Prop28
280
     0
102
RTVSPost2010PropOp28
 70
     1
102
RTVSPost2010Prop29
280
     1
102
RTVSPost2010PropOp29
 70
     1
102
RTVSPost2010Prop30
280
     1
102
RTVSPost2010PropOp30
 70
     1
102
RTVSPost2010Prop31
280
     0
102
RTVSPost2010PropOp31
 70
     1
102
RTVSPost2010Prop32
280
     0
102
RTVSPost2010PropOp32
 70
     1
102
RTVSPost2010Prop33
280
     0
102
RTVSPost2010PropOp33
 70
     1
102
RTVSPost2010Prop34
280
     0
102
RTVSPost2010PropOp34
 70
     1
102
RTVSPost2010Prop35
280
     0
102
RTVSPost2010PropOp35
 70
     1
102
RTVSPost2010Prop36
280
     0
102
RTVSPost2010PropOp36
 70
     1
102
RTVSPost2010Prop37
 90
       50
102
RTVSPost2010PropOp37
 70
     1
102
RTVSPost2010Prop38
140
0.0
102
RTVSPost2010PropOp38
 70
     1
102
RTVSPost2010Prop39
140
1.0
102
RTVSPost2010PropOp39
 70
     1
102
RTVSPost2010Prop40
 90
        0
102
RTVSPost2010PropOp40
 70
     1
102
RTVSPost2010Prop41ColorIndex
 90
       18
102
RTVSPost2010Prop41ColorRGB
 90
        0
102
RTVSPost2010PropOp41
 70
     1
102
RTVSPost2010Prop42
 90
       50
102
RTVSPost2010PropOp42
 70
     1
102
RTVSPost2010Prop43
 90
        3
102
RTVSPost2010PropOp43
 70
     1
102
RTVSPost2010Prop44ColorIndex
 90
        5
102
RTVSPost2010Prop44ColorRGB
 90
      255
102
RTVSPost2010PropOp44
 70
     1
102
RTVSPost2010Prop45
280
     0
102
RTVSPost2010PropOp45
 70
     1
102
RTVSPost2010Prop46
 90
       50
102
RTVSPost2010PropOp46
 70
     1
102
RTVSPost2010Prop47
 90
       50
102
RTVSPost2010PropOp47
 70
     1
102
RTVSPost2010Prop48
 90
       50
102
RTVSPost2010PropOp48
 70
     1
102
RTVSPost2010Prop49
280
     0
102
RTVSPost2010PropOp49
 70
     1
102
RTVSPost2010Prop50
 90
       50
102
RTVSPost2010PropOp50
 70
     1
102
RTVSPost2010Prop51ColorIndex
 90
      256
102
RTVSPost2010Prop51ColorRGB
 90
-16777216
102
RTVSPost2010PropOp51
 70
     0
102
RTVSPost2010Prop52
140
1.0
102
RTVSPost2010PropOp52
 70
     0
102
RTVSPost2010Prop53
 90
        2
102
RTVSPost2010PropOp53
 70
     1
102
RTVSPost2010Prop54
  1
strokes_ogs.tif
102
RTVSPost2010PropOp54
 70
     1
102
RTVSPost2010Prop55
280
     0
102
RTVSPost2010PropOp55
 70
     1
102
RTVSPost2010Prop56
140
1.0
102
RTVSPost2010PropOp56
 70
     1
102
RTVSPost2010Prop57
140
1.0
102
RTVSPost2010PropOp57
 70
     1
102
RTVSPropertyOp0
 70
     1
102
RTVSPropertyOp1
 70
     1
102
RTVSPropertyOp2
 70
     1
102
RTVSPropertyOp3
 70
     1
102
RTVSPropertyOp4
 70
     1
102
RTVSPropertyOp5
 70
     1
102
RTVSPropertyOp6
 70
     1
102
RTVSPropertyOp7
 70
     1
102
RTVSPropertyOp8
 70
     1
102
RTVSPropertyOp9
 70
     1
102
RTVSPropertyOp10
 70
     1
102
RTVSPropertyOp11
 70
     1
102
RTVSPropertyOp12
 70
     1
102
RTVSPropertyOp13
 70
     1
102
RTVSPropertyOp14
 70
     1
102
RTVSPropertyOp15
 70
     1
102
RTVSPropertyOp16
 70
     1
102
RTVSPropertyOp17
 70
     1
102
RTVSPropertyOp18
 70
     1
102
RTVSPropertyOp19
 70
     1
102
RTVSPropertyOp20
 70
     1
102
RTVSPropertyOp21
 70
     1
102
RTVSPropertyOp22
 70
     1
102
RTVSPropertyOp23
 70
     1
102
RTVSPropertyOp24
 70
     1
102
RTVSPropertyOp25
 70
     1
102
RTVSPropertyOp26
 70
     1
102
RTVSPropertyOp27
 70
     1
102
RTVSPropertyOp28
 70
     1
102
RTVSPropertyOp29
 70
     1
102
RTVSPropertyOp30
 70
     1
102
RTVSPropertyOp31
 70
     1
102
RTVSPropertyOp32
 70
     1
102
RTVSPropertyOp33
 70
     1
102
RTVSPropertyOp34
 70
     1
102
RTVSPropertyOp35
 70
     1
102
RTVSPropertyOp36
 70
     1
102
RTVSPropertyOp37
 70
     1
102
RTVSPropertyOp38
 70
     1
102
RTVSPropertyOp39
 70
     1
102
RTVSPropertyOp40
 70
     1
102
RTVSPropertyOp41
 70
     1
102
RTVSPropertyOp42
 70
     1
102
RTVSPropertyOp43
 70
     1
102
RTVSPropertyOp44
 70
     1
102
RTVSPropertyOp45
 70
     1
102
RTVSPropertyOp46
 70
     1
102
RTVSPropertyOp47
 70
     1
102
RTVSPropertyOp48
 70
     1
102
RTVSPropertyOp49
 70
     1
102
RTVSPropertyOp50
 70
     1
102
RTVSPropertyOp51
 70
     0
102
RTVSPropertyOp52
 70
     0
102
RTVSPropertyOp53
 70
     1
102
RTVSPropertyOp54
 70
     1
102
RTVSPropertyOp55
 70
     1
102
RTVSPropertyOp56
 70
     1
102
RTVSPropertyOp57
 70
     1
102
RTVSPropertyOp58
 70
     1
102
RTVSPropertyOp59
 70
     1
102
RTVSPropertyOp60
 70
     1
102
RTVSPropertyOp61
 70
     1
102
RTVSPropertyOp62
 70
     1
  0
XRECORD
  5
E84
102
{ACAD_REACTORS
330
E83
102
}
330
E83
100
AcDbXrecord
280
     1
102
RTVSPost2010Prop28
280
     0
102
RTVSPost2010PropOp28
 70
     1
102
RTVSPost2010Prop29
280
     1
102
RTVSPost2010PropOp29
 70
     1
102
RTVSPost2010Prop30
280
     1
102
RTVSPost2010PropOp30
 70
     1
102
RTVSPost2010Prop31
280
     0
102
RTVSPost2010PropOp31
 70
     1
102
RTVSPost2010Prop32
280
     0
102
RTVSPost2010PropOp32
 70
     1
102
RTVSPost2010Prop33
280
     0
102
RTVSPost2010PropOp33
 70
     1
102
RTVSPost2010Prop34
280
     0
102
RTVSPost2010PropOp34
 70
     1
102
RTVSPost2010Prop35
280
     0
102
RTVSPost2010PropOp35
 70
     1
102
RTVSPost2010Prop36
280
     0
102
RTVSPost2010PropOp36
 70
     1
102
RTVSPost2010Prop37
 90
       50
102
RTVSPost2010PropOp37
 70
     1
102
RTVSPost2010Prop38
140
0.0
102
RTVSPost2010PropOp38
 70
     1
102
RTVSPost2010Prop39
140
1.0
102
RTVSPost2010PropOp39
 70
     1
102
RTVSPost2010Prop40
 90
        0
102
RTVSPost2010PropOp40
 70
     1
102
RTVSPost2010Prop41ColorIndex
 90
       18
102
RTVSPost2010Prop41ColorRGB
 90
        0
102
RTVSPost2010PropOp41
 70
     1
102
RTVSPost2010Prop42
 90
       50
102
RTVSPost2010PropOp42
 70
     1
102
RTVSPost2010Prop43
 90
        3
102
RTVSPost2010PropOp43
 70
     1
102
RTVSPost2010Prop44ColorIndex
 90
        5
102
RTVSPost2010Prop44ColorRGB
 90
      255
102
RTVSPost2010PropOp44
 70
     1
102
RTVSPost2010Prop45
280
     0
102
RTVSPost2010PropOp45
 70
     1
102
RTVSPost2010Prop46
 90
       50
102
RTVSPost2010PropOp46
 70
     1
102
RTVSPost2010Prop47
 90
       50
102
RTVSPost2010PropOp47
 70
     1
102
RTVSPost2010Prop48
 90
       50
102
RTVSPost2010PropOp48
 70
     1
102
RTVSPost2010Prop49
280
     0
102
RTVSPost2010PropOp49
 70
     1
102
RTVSPost2010Prop50
 90
       50
102
RTVSPost2010PropOp50
 70
     1
102
RTVSPost2010Prop51ColorIndex
 90
      256
102
RTVSPost2010Prop51ColorRGB
 90
-16777216
102
RTVSPost2010PropOp51
 70
     0
102
RTVSPost2010Prop52
140
1.0
102
RTVSPost2010PropOp52
 70
     0
102
RTVSPost2010Prop53
 90
        2
102
RTVSPost2010PropOp53
 70
     1
102
RTVSPost2010Prop54
  1
strokes_ogs.tif
102
RTVSPost2010PropOp54
 70
     1
102
RTVSPost2010Prop55
280
     0
102
RTVSPost2010PropOp55
 70
     1
102
RTVSPost2010Prop56
140
1.0
102
RTVSPost2010PropOp56
 70
     1
102
RTVSPost2010Prop57
140
1.0
102
RTVSPost2010PropOp57
 70
     1
102
RTVSPropertyOp0
 70
     1
102
RTVSPropertyOp1
 70
     1
102
RTVSPropertyOp2
 70
     1
102
RTVSPropertyOp3
 70
     1
102
RTVSPropertyOp4
 70
     1
102
RTVSPropertyOp5
 70
     1
102
RTVSPropertyOp6
 70
     1
102
RTVSPropertyOp7
 70
     1
102
RTVSPropertyOp8
 70
     1
102
RTVSPropertyOp9
 70
     1
102
RTVSPropertyOp10
 70
     1
102
RTVSPropertyOp11
 70
     1
102
RTVSPropertyOp12
 70
     1
102
RTVSPropertyOp13
 70
     1
102
RTVSPropertyOp14
 70
     1
102
RTVSPropertyOp15
 70
     1
102
RTVSPropertyOp16
 70
     1
102
RTVSPropertyOp17
 70
     1
102
RTVSPropertyOp18
 70
     1
102
RTVSPropertyOp19
 70
     1
102
RTVSPropertyOp20
 70
     1
102
RTVSPropertyOp21
 70
     1
102
RTVSPropertyOp22
 70
     1
102
RTVSPropertyOp23
 70
     1
102
RTVSPropertyOp24
 70
     1
102
RTVSPropertyOp25
 70
     1
102
RTVSPropertyOp26
 70
     1
102
RTVSPropertyOp27
 70
     1
102
RTVSPropertyOp28
 70
     1
102
RTVSPropertyOp29
 70
     1
102
RTVSPropertyOp30
 70
     1
102
RTVSPropertyOp31
 70
     1
102
RTVSPropertyOp32
 70
     1
102
RTVSPropertyOp33
 70
     1
102
RTVSPropertyOp34
 70
     1
102
RTVSPropertyOp35
 70
     1
102
RTVSPropertyOp36
 70
     1
102
RTVSPropertyOp37
 70
     1
102
RTVSPropertyOp38
 70
     1
102
RTVSPropertyOp39
 70
     1
102
RTVSPropertyOp40
 70
     1
102
RTVSPropertyOp41
 70
     1
102
RTVSPropertyOp42
 70
     1
102
RTVSPropertyOp43
 70
     1
102
RTVSPropertyOp44
 70
     1
102
RTVSPropertyOp45
 70
     1
102
RTVSPropertyOp46
 70
     1
102
RTVSPropertyOp47
 70
     1
102
RTVSPropertyOp48
 70
     1
102
RTVSPropertyOp49
 70
     1
102
RTVSPropertyOp50
 70
     1
102
RTVSPropertyOp51
 70
     0
102
RTVSPropertyOp52
 70
     0
102
RTVSPropertyOp53
 70
     1
102
RTVSPropertyOp54
 70
     1
102
RTVSPropertyOp55
 70
     1
102
RTVSPropertyOp56
 70
     1
102
RTVSPropertyOp57
 70
     1
102
RTVSPropertyOp58
 70
     1
102
RTVSPropertyOp59
 70
     1
102
RTVSPropertyOp60
 70
     1
102
RTVSPropertyOp61
 70
     1
102
RTVSPropertyOp62
 70
     1
  0
XRECORD
  5
E9E
102
{ACAD_REACTORS
330
E9D
102
}
330
E9D
100
AcDbXrecord
280
     1
102
RTVSPost2010Prop28
280
     0
102
RTVSPost2010PropOp28
 70
     1
102
RTVSPost2010Prop29
280
     1
102
RTVSPost2010PropOp29
 70
     1
102
RTVSPost2010Prop30
280
     1
102
RTVSPost2010PropOp30
 70
     1
102
RTVSPost2010Prop31
280
     0
102
RTVSPost2010PropOp31
 70
     1
102
RTVSPost2010Prop32
280
     0
102
RTVSPost2010PropOp32
 70
     1
102
RTVSPost2010Prop33
280
     0
102
RTVSPost2010PropOp33
 70
     1
102
RTVSPost2010Prop34
280
     0
102
RTVSPost2010PropOp34
 70
     1
102
RTVSPost2010Prop35
280
     0
102
RTVSPost2010PropOp35
 70
     1
102
RTVSPost2010Prop36
280
     0
102
RTVSPost2010PropOp36
 70
     1
102
RTVSPost2010Prop37
 90
       50
102
RTVSPost2010PropOp37
 70
     0
102
RTVSPost2010Prop38
140
0.0
102
RTVSPost2010PropOp38
 70
     0
102
RTVSPost2010Prop39
140
1.0
102
RTVSPost2010PropOp39
 70
     0
102
RTVSPost2010Prop40
 90
        0
102
RTVSPost2010PropOp40
 70
     0
102
RTVSPost2010Prop41ColorIndex
 90
       18
102
RTVSPost2010Prop41ColorRGB
 90
        0
102
RTVSPost2010PropOp41
 70
     0
102
RTVSPost2010Prop42
 90
       50
102
RTVSPost2010PropOp42
 70
     0
102
RTVSPost2010Prop43
 90
        3
102
RTVSPost2010PropOp43
 70
     0
102
RTVSPost2010Prop44ColorIndex
 90
        5
102
RTVSPost2010Prop44ColorRGB
 90
      255
102
RTVSPost2010PropOp44
 70
     0
102
RTVSPost2010Prop45
280
     0
102
RTVSPost2010PropOp45
 70
     1
102
RTVSPost2010Prop46
 90
       50
102
RTVSPost2010PropOp46
 70
     0
102
RTVSPost2010Prop47
 90
       50
102
RTVSPost2010PropOp47
 70
     0
102
RTVSPost2010Prop48
 90
       50
102
RTVSPost2010PropOp48
 70
     0
102
RTVSPost2010Prop49
280
     0
102
RTVSPost2010PropOp49
 70
     1
102
RTVSPost2010Prop50
 90
       50
102
RTVSPost2010PropOp50
 70
     0
102
RTVSPost2010Prop51ColorIndex
 90
      256
102
RTVSPost2010Prop51ColorRGB
 90
-16777216
102
RTVSPost2010PropOp51
 70
     0
102
RTVSPost2010Prop52
140
1.0
102
RTVSPost2010PropOp52
 70
     0
102
RTVSPost2010Prop53
 90
        2
102
RTVSPost2010PropOp53
 70
     0
102
RTVSPost2010Prop54
  1
strokes_ogs.tif
102
RTVSPost2010PropOp54
 70
     0
102
RTVSPost2010Prop55
280
     0
102
RTVSPost2010PropOp55
 70
     1
102
RTVSPost2010Prop56
140
1.0
102
RTVSPost2010PropOp56
 70
     0
102
RTVSPost2010Prop57
140
1.0
102
RTVSPost2010PropOp57
 70
     0
102
RTVSPropertyOp0
 70
     0
102
RTVSPropertyOp1
 70
     0
102
RTVSPropertyOp2
 70
     0
102
RTVSPropertyOp3
 70
     0
102
RTVSPropertyOp4
 70
     0
102
RTVSPropertyOp5
 70
     0
102
RTVSPropertyOp6
 70
     0
102
RTVSPropertyOp7
 70
     0
102
RTVSPropertyOp8
 70
     0
102
RTVSPropertyOp9
 70
     0
102
RTVSPropertyOp10
 70
     0
102
RTVSPropertyOp11
 70
     0
102
RTVSPropertyOp12
 70
     0
102
RTVSPropertyOp13
 70
     0
102
RTVSPropertyOp14
 70
     2
102
RTVSPropertyOp15
 70
     0
102
RTVSPropertyOp16
 70
     0
102
RTVSPropertyOp17
 70
     0
102
RTVSPropertyOp18
 70
     0
102
RTVSPropertyOp19
 70
     0
102
RTVSPropertyOp20
 70
     0
102
RTVSPropertyOp21
 70
     0
102
RTVSPropertyOp22
 70
     0
102
RTVSPropertyOp23
 70
     0
102
RTVSPropertyOp24
 70
     0
102
RTVSPropertyOp25
 70
     0
102
RTVSPropertyOp26
 70
     0
102
RTVSPropertyOp27
 70
     0
102
RTVSPropertyOp28
 70
     1
102
RTVSPropertyOp29
 70
     1
102
RTVSPropertyOp30
 70
     1
102
RTVSPropertyOp31
 70
     1
102
RTVSPropertyOp32
 70
     1
102
RTVSPropertyOp33
 70
     1
102
RTVSPropertyOp34
 70
     1
102
RTVSPropertyOp35
 70
     1
102
RTVSPropertyOp36
 70
     1
102
RTVSPropertyOp37
 70
     0
102
RTVSPropertyOp38
 70
     0
102
RTVSPropertyOp39
 70
     0
102
RTVSPropertyOp40
 70
     0
102
RTVSPropertyOp41
 70
     0
102
RTVSPropertyOp42
 70
     0
102
RTVSPropertyOp43
 70
     0
102
RTVSPropertyOp44
 70
     0
102
RTVSPropertyOp45
 70
     1
102
RTVSPropertyOp46
 70
     0
102
RTVSPropertyOp47
 70
     0
102
RTVSPropertyOp48
 70
     0
102
RTVSPropertyOp49
 70
     1
102
RTVSPropertyOp50
 70
     0
102
RTVSPropertyOp51
 70
     0
102
RTVSPropertyOp52
 70
     0
102
RTVSPropertyOp53
 70
     0
102
RTVSPropertyOp54
 70
     0
102
RTVSPropertyOp55
 70
     1
102
RTVSPropertyOp56
 70
     0
102
RTVSPropertyOp57
 70
     0
102
RTVSPropertyOp58
 70
     0
102
RTVSPropertyOp59
 70
     0
102
RTVSPropertyOp60
 70
     0
102
RTVSPropertyOp61
 70
     0
102
RTVSPropertyOp62
 70
     0
  0
XRECORD
  5
E8C
102
{ACAD_REACTORS
330
E8B
102
}
330
E8B
100
AcDbXrecord
280
     1
102
RTVSPost2010Prop28
280
     0
102
RTVSPost2010PropOp28
 70
     1
102
RTVSPost2010Prop29
280
     1
102
RTVSPost2010PropOp29
 70
     1
102
RTVSPost2010Prop30
280
     1
102
RTVSPost2010PropOp30
 70
     1
102
RTVSPost2010Prop31
280
     0
102
RTVSPost2010PropOp31
 70
     1
102
RTVSPost2010Prop32
280
     0
102
RTVSPost2010PropOp32
 70
     1
102
RTVSPost2010Prop33
280
     0
102
RTVSPost2010PropOp33
 70
     1
102
RTVSPost2010Prop34
280
     0
102
RTVSPost2010PropOp34
 70
     1
102
RTVSPost2010Prop35
280
     0
102
RTVSPost2010PropOp35
 70
     1
102
RTVSPost2010Prop36
280
     0
102
RTVSPost2010PropOp36
 70
     1
102
RTVSPost2010Prop37
 90
       50
102
RTVSPost2010PropOp37
 70
     1
102
RTVSPost2010Prop38
140
0.0
102
RTVSPost2010PropOp38
 70
     1
102
RTVSPost2010Prop39
140
1.0
102
RTVSPost2010PropOp39
 70
     1
102
RTVSPost2010Prop40
 90
        0
102
RTVSPost2010PropOp40
 70
     1
102
RTVSPost2010Prop41ColorIndex
 90
       18
102
RTVSPost2010Prop41ColorRGB
 90
        0
102
RTVSPost2010PropOp41
 70
     1
102
RTVSPost2010Prop42
 90
       50
102
RTVSPost2010PropOp42
 70
     1
102
RTVSPost2010Prop43
 90
        3
102
RTVSPost2010PropOp43
 70
     1
102
RTVSPost2010Prop44ColorIndex
 90
        5
102
RTVSPost2010Prop44ColorRGB
 90
      255
102
RTVSPost2010PropOp44
 70
     1
102
RTVSPost2010Prop45
280
     0
102
RTVSPost2010PropOp45
 70
     1
102
RTVSPost2010Prop46
 90
       50
102
RTVSPost2010PropOp46
 70
     1
102
RTVSPost2010Prop47
 90
       50
102
RTVSPost2010PropOp47
 70
     1
102
RTVSPost2010Prop48
 90
       50
102
RTVSPost2010PropOp48
 70
     1
102
RTVSPost2010Prop49
280
     0
102
RTVSPost2010PropOp49
 70
     1
102
RTVSPost2010Prop50
 90
       50
102
RTVSPost2010PropOp50
 70
     1
102
RTVSPost2010Prop51ColorIndex
 90
      256
102
RTVSPost2010Prop51ColorRGB
 90
-16777216
102
RTVSPost2010PropOp51
 70
     0
102
RTVSPost2010Prop52
140
1.0
102
RTVSPost2010PropOp52
 70
     0
102
RTVSPost2010Prop53
 90
        2
102
RTVSPost2010PropOp53
 70
     1
102
RTVSPost2010Prop54
  1
strokes_ogs.tif
102
RTVSPost2010PropOp54
 70
     1
102
RTVSPost2010Prop55
280
     0
102
RTVSPost2010PropOp55
 70
     1
102
RTVSPost2010Prop56
140
1.0
102
RTVSPost2010PropOp56
 70
     1
102
RTVSPost2010Prop57
140
1.0
102
RTVSPost2010PropOp57
 70
     1
102
RTVSPropertyOp0
 70
     1
102
RTVSPropertyOp1
 70
     1
102
RTVSPropertyOp2
 70
     1
102
RTVSPropertyOp3
 70
     1
102
RTVSPropertyOp4
 70
     1
102
RTVSPropertyOp5
 70
     1
102
RTVSPropertyOp6
 70
     1
102
RTVSPropertyOp7
 70
     1
102
RTVSPropertyOp8
 70
     1
102
RTVSPropertyOp9
 70
     1
102
RTVSPropertyOp10
 70
     1
102
RTVSPropertyOp11
 70
     1
102
RTVSPropertyOp12
 70
     1
102
RTVSPropertyOp13
 70
     1
102
RTVSPropertyOp14
 70
     1
102
RTVSPropertyOp15
 70
     1
102
RTVSPropertyOp16
 70
     1
102
RTVSPropertyOp17
 70
     1
102
RTVSPropertyOp18
 70
     1
102
RTVSPropertyOp19
 70
     1
102
RTVSPropertyOp20
 70
     1
102
RTVSPropertyOp21
 70
     1
102
RTVSPropertyOp22
 70
     1
102
RTVSPropertyOp23
 70
     1
102
RTVSPropertyOp24
 70
     1
102
RTVSPropertyOp25
 70
     1
102
RTVSPropertyOp26
 70
     1
102
RTVSPropertyOp27
 70
     1
102
RTVSPropertyOp28
 70
     1
102
RTVSPropertyOp29
 70
     1
102
RTVSPropertyOp30
 70
     1
102
RTVSPropertyOp31
 70
     1
102
RTVSPropertyOp32
 70
     1
102
RTVSPropertyOp33
 70
     1
102
RTVSPropertyOp34
 70
     1
102
RTVSPropertyOp35
 70
     1
102
RTVSPropertyOp36
 70
     1
102
RTVSPropertyOp37
 70
     1
102
RTVSPropertyOp38
 70
     1
102
RTVSPropertyOp39
 70
     1
102
RTVSPropertyOp40
 70
     1
102
RTVSPropertyOp41
 70
     1
102
RTVSPropertyOp42
 70
     1
102
RTVSPropertyOp43
 70
     1
102
RTVSPropertyOp44
 70
     1
102
RTVSPropertyOp45
 70
     1
102
RTVSPropertyOp46
 70
     1
102
RTVSPropertyOp47
 70
     1
102
RTVSPropertyOp48
 70
     1
102
RTVSPropertyOp49
 70
     1
102
RTVSPropertyOp50
 70
     1
102
RTVSPropertyOp51
 70
     0
102
RTVSPropertyOp52
 70
     0
102
RTVSPropertyOp53
 70
     1
102
RTVSPropertyOp54
 70
     1
102
RTVSPropertyOp55
 70
     1
102
RTVSPropertyOp56
 70
     1
102
RTVSPropertyOp57
 70
     1
102
RTVSPropertyOp58
 70
     1
102
RTVSPropertyOp59
 70
     1
102
RTVSPropertyOp60
 70
     1
102
RTVSPropertyOp61
 70
     1
102
RTVSPropertyOp62
 70
     1
  0
XRECORD
  5
E70
102
{ACAD_REACTORS
330
E6F
102
}
330
E6F
100
AcDbXrecord
280
     1
102
RTVSPost2010Prop28
280
     0
102
RTVSPost2010PropOp28
 70
     1
102
RTVSPost2010Prop29
280
     1
102
RTVSPost2010PropOp29
 70
     1
102
RTVSPost2010Prop30
280
     1
102
RTVSPost2010PropOp30
 70
     1
102
RTVSPost2010Prop31
280
     0
102
RTVSPost2010PropOp31
 70
     1
102
RTVSPost2010Prop32
280
     0
102
RTVSPost2010PropOp32
 70
     1
102
RTVSPost2010Prop33
280
     0
102
RTVSPost2010PropOp33
 70
     1
102
RTVSPost2010Prop34
280
     0
102
RTVSPost2010PropOp34
 70
     1
102
RTVSPost2010Prop35
280
     0
102
RTVSPost2010PropOp35
 70
     1
102
RTVSPost2010Prop36
280
     0
102
RTVSPost2010PropOp36
 70
     1
102
RTVSPost2010Prop37
 90
       50
102
RTVSPost2010PropOp37
 70
     1
102
RTVSPost2010Prop38
140
0.0
102
RTVSPost2010PropOp38
 70
     1
102
RTVSPost2010Prop39
140
1.0
102
RTVSPost2010PropOp39
 70
     1
102
RTVSPost2010Prop40
 90
        0
102
RTVSPost2010PropOp40
 70
     1
102
RTVSPost2010Prop41ColorIndex
 90
       18
102
RTVSPost2010Prop41ColorRGB
 90
        0
102
RTVSPost2010PropOp41
 70
     1
102
RTVSPost2010Prop42
 90
       50
102
RTVSPost2010PropOp42
 70
     1
102
RTVSPost2010Prop43
 90
        3
102
RTVSPost2010PropOp43
 70
     1
102
RTVSPost2010Prop44ColorIndex
 90
        5
102
RTVSPost2010Prop44ColorRGB
 90
      255
102
RTVSPost2010PropOp44
 70
     1
102
RTVSPost2010Prop45
280
     0
102
RTVSPost2010PropOp45
 70
     1
102
RTVSPost2010Prop46
 90
       50
102
RTVSPost2010PropOp46
 70
     1
102
RTVSPost2010Prop47
 90
       50
102
RTVSPost2010PropOp47
 70
     1
102
RTVSPost2010Prop48
 90
       50
102
RTVSPost2010PropOp48
 70
     1
102
RTVSPost2010Prop49
280
     0
102
RTVSPost2010PropOp49
 70
     1
102
RTVSPost2010Prop50
 90
       50
102
RTVSPost2010PropOp50
 70
     1
102
RTVSPost2010Prop51ColorIndex
 90
      256
102
RTVSPost2010Prop51ColorRGB
 90
-16777216
102
RTVSPost2010PropOp51
 70
     0
102
RTVSPost2010Prop52
140
1.0
102
RTVSPost2010PropOp52
 70
     0
102
RTVSPost2010Prop53
 90
        2
102
RTVSPost2010PropOp53
 70
     1
102
RTVSPost2010Prop54
  1
strokes_ogs.tif
102
RTVSPost2010PropOp54
 70
     1
102
RTVSPost2010Prop55
280
     0
102
RTVSPost2010PropOp55
 70
     1
102
RTVSPost2010Prop56
140
1.0
102
RTVSPost2010PropOp56
 70
     1
102
RTVSPost2010Prop57
140
1.0
102
RTVSPost2010PropOp57
 70
     1
102
RTVSPropertyOp0
 70
     1
102
RTVSPropertyOp1
 70
     1
102
RTVSPropertyOp2
 70
     1
102
RTVSPropertyOp3
 70
     1
102
RTVSPropertyOp4
 70
     1
102
RTVSPropertyOp5
 70
     1
102
RTVSPropertyOp6
 70
     1
102
RTVSPropertyOp7
 70
     1
102
RTVSPropertyOp8
 70
     1
102
RTVSPropertyOp9
 70
     1
102
RTVSPropertyOp10
 70
     1
102
RTVSPropertyOp11
 70
     1
102
RTVSPropertyOp12
 70
     1
102
RTVSPropertyOp13
 70
     1
102
RTVSPropertyOp14
 70
     1
102
RTVSPropertyOp15
 70
     1
102
RTVSPropertyOp16
 70
     1
102
RTVSPropertyOp17
 70
     1
102
RTVSPropertyOp18
 70
     1
102
RTVSPropertyOp19
 70
     1
102
RTVSPropertyOp20
 70
     1
102
RTVSPropertyOp21
 70
     1
102
RTVSPropertyOp22
 70
     1
102
RTVSPropertyOp23
 70
     1
102
RTVSPropertyOp24
 70
     1
102
RTVSPropertyOp25
 70
     1
102
RTVSPropertyOp26
 70
     1
102
RTVSPropertyOp27
 70
     1
102
RTVSPropertyOp28
 70
     1
102
RTVSPropertyOp29
 70
     1
102
RTVSPropertyOp30
 70
     1
102
RTVSPropertyOp31
 70
     1
102
RTVSPropertyOp32
 70
     1
102
RTVSPropertyOp33
 70
     1
102
RTVSPropertyOp34
 70
     1
102
RTVSPropertyOp35
 70
     1
102
RTVSPropertyOp36
 70
     1
102
RTVSPropertyOp37
 70
     1
102
RTVSPropertyOp38
 70
     1
102
RTVSPropertyOp39
 70
     1
102
RTVSPropertyOp40
 70
     1
102
RTVSPropertyOp41
 70
     1
102
RTVSPropertyOp42
 70
     1
102
RTVSPropertyOp43
 70
     1
102
RTVSPropertyOp44
 70
     1
102
RTVSPropertyOp45
 70
     1
102
RTVSPropertyOp46
 70
     1
102
RTVSPropertyOp47
 70
     1
102
RTVSPropertyOp48
 70
     1
102
RTVSPropertyOp49
 70
     1
102
RTVSPropertyOp50
 70
     1
102
RTVSPropertyOp51
 70
     0
102
RTVSPropertyOp52
 70
     0
102
RTVSPropertyOp53
 70
     1
102
RTVSPropertyOp54
 70
     1
102
RTVSPropertyOp55
 70
     1
102
RTVSPropertyOp56
 70
     1
102
RTVSPropertyOp57
 70
     1
102
RTVSPropertyOp58
 70
     1
102
RTVSPropertyOp59
 70
     1
102
RTVSPropertyOp60
 70
     1
102
RTVSPropertyOp61
 70
     1
102
RTVSPropertyOp62
 70
     1
  0
XRECORD
  5
E72
102
{ACAD_REACTORS
330
E71
102
}
330
E71
100
AcDbXrecord
280
     1
102
RTVSPost2010Prop28
280
     0
102
RTVSPost2010PropOp28
 70
     1
102
RTVSPost2010Prop29
280
     1
102
RTVSPost2010PropOp29
 70
     1
102
RTVSPost2010Prop30
280
     1
102
RTVSPost2010PropOp30
 70
     1
102
RTVSPost2010Prop31
280
     0
102
RTVSPost2010PropOp31
 70
     1
102
RTVSPost2010Prop32
280
     0
102
RTVSPost2010PropOp32
 70
     1
102
RTVSPost2010Prop33
280
     0
102
RTVSPost2010PropOp33
 70
     1
102
RTVSPost2010Prop34
280
     0
102
RTVSPost2010PropOp34
 70
     1
102
RTVSPost2010Prop35
280
     0
102
RTVSPost2010PropOp35
 70
     1
102
RTVSPost2010Prop36
280
     0
102
RTVSPost2010PropOp36
 70
     1
102
RTVSPost2010Prop37
 90
       50
102
RTVSPost2010PropOp37
 70
     1
102
RTVSPost2010Prop38
140
0.0
102
RTVSPost2010PropOp38
 70
     1
102
RTVSPost2010Prop39
140
1.0
102
RTVSPost2010PropOp39
 70
     1
102
RTVSPost2010Prop40
 90
        0
102
RTVSPost2010PropOp40
 70
     1
102
RTVSPost2010Prop41ColorIndex
 90
       18
102
RTVSPost2010Prop41ColorRGB
 90
        0
102
RTVSPost2010PropOp41
 70
     1
102
RTVSPost2010Prop42
 90
       50
102
RTVSPost2010PropOp42
 70
     1
102
RTVSPost2010Prop43
 90
        3
102
RTVSPost2010PropOp43
 70
     1
102
RTVSPost2010Prop44ColorIndex
 90
        5
102
RTVSPost2010Prop44ColorRGB
 90
      255
102
RTVSPost2010PropOp44
 70
     1
102
RTVSPost2010Prop45
280
     0
102
RTVSPost2010PropOp45
 70
     1
102
RTVSPost2010Prop46
 90
       50
102
RTVSPost2010PropOp46
 70
     1
102
RTVSPost2010Prop47
 90
       50
102
RTVSPost2010PropOp47
 70
     1
102
RTVSPost2010Prop48
 90
       50
102
RTVSPost2010PropOp48
 70
     1
102
RTVSPost2010Prop49
280
     0
102
RTVSPost2010PropOp49
 70
     1
102
RTVSPost2010Prop50
 90
       50
102
RTVSPost2010PropOp50
 70
     1
102
RTVSPost2010Prop51ColorIndex
 90
      256
102
RTVSPost2010Prop51ColorRGB
 90
-16777216
102
RTVSPost2010PropOp51
 70
     0
102
RTVSPost2010Prop52
140
1.0
102
RTVSPost2010PropOp52
 70
     0
102
RTVSPost2010Prop53
 90
        2
102
RTVSPost2010PropOp53
 70
     1
102
RTVSPost2010Prop54
  1
strokes_ogs.tif
102
RTVSPost2010PropOp54
 70
     1
102
RTVSPost2010Prop55
280
     0
102
RTVSPost2010PropOp55
 70
     1
102
RTVSPost2010Prop56
140
1.0
102
RTVSPost2010PropOp56
 70
     1
102
RTVSPost2010Prop57
140
1.0
102
RTVSPost2010PropOp57
 70
     1
102
RTVSPropertyOp0
 70
     1
102
RTVSPropertyOp1
 70
     1
102
RTVSPropertyOp2
 70
     1
102
RTVSPropertyOp3
 70
     1
102
RTVSPropertyOp4
 70
     1
102
RTVSPropertyOp5
 70
     1
102
RTVSPropertyOp6
 70
     1
102
RTVSPropertyOp7
 70
     1
102
RTVSPropertyOp8
 70
     1
102
RTVSPropertyOp9
 70
     1
102
RTVSPropertyOp10
 70
     1
102
RTVSPropertyOp11
 70
     1
102
RTVSPropertyOp12
 70
     1
102
RTVSPropertyOp13
 70
     1
102
RTVSPropertyOp14
 70
     1
102
RTVSPropertyOp15
 70
     1
102
RTVSPropertyOp16
 70
     1
102
RTVSPropertyOp17
 70
     1
102
RTVSPropertyOp18
 70
     1
102
RTVSPropertyOp19
 70
     1
102
RTVSPropertyOp20
 70
     1
102
RTVSPropertyOp21
 70
     1
102
RTVSPropertyOp22
 70
     1
102
RTVSPropertyOp23
 70
     1
102
RTVSPropertyOp24
 70
     1
102
RTVSPropertyOp25
 70
     1
102
RTVSPropertyOp26
 70
     1
102
RTVSPropertyOp27
 70
     1
102
RTVSPropertyOp28
 70
     1
102
RTVSPropertyOp29
 70
     1
102
RTVSPropertyOp30
 70
     1
102
RTVSPropertyOp31
 70
     1
102
RTVSPropertyOp32
 70
     1
102
RTVSPropertyOp33
 70
     1
102
RTVSPropertyOp34
 70
     1
102
RTVSPropertyOp35
 70
     1
102
RTVSPropertyOp36
 70
     1
102
RTVSPropertyOp37
 70
     1
102
RTVSPropertyOp38
 70
     1
102
RTVSPropertyOp39
 70
     1
102
RTVSPropertyOp40
 70
     1
102
RTVSPropertyOp41
 70
     1
102
RTVSPropertyOp42
 70
     1
102
RTVSPropertyOp43
 70
     1
102
RTVSPropertyOp44
 70
     1
102
RTVSPropertyOp45
 70
     1
102
RTVSPropertyOp46
 70
     1
102
RTVSPropertyOp47
 70
     1
102
RTVSPropertyOp48
 70
     1
102
RTVSPropertyOp49
 70
     1
102
RTVSPropertyOp50
 70
     1
102
RTVSPropertyOp51
 70
     0
102
RTVSPropertyOp52
 70
     0
102
RTVSPropertyOp53
 70
     1
102
RTVSPropertyOp54
 70
     1
102
RTVSPropertyOp55
 70
     1
102
RTVSPropertyOp56
 70
     1
102
RTVSPropertyOp57
 70
     1
102
RTVSPropertyOp58
 70
     1
102
RTVSPropertyOp59
 70
     1
102
RTVSPropertyOp60
 70
     1
102
RTVSPropertyOp61
 70
     1
102
RTVSPropertyOp62
 70
     1
  0
XRECORD
  5
E74
102
{ACAD_REACTORS
330
E73
102
}
330
E73
100
AcDbXrecord
280
     1
102
RTVSPost2010Prop28
280
     0
102
RTVSPost2010PropOp28
 70
     1
102
RTVSPost2010Prop29
280
     1
102
RTVSPost2010PropOp29
 70
     1
102
RTVSPost2010Prop30
280
     1
102
RTVSPost2010PropOp30
 70
     1
102
RTVSPost2010Prop31
280
     0
102
RTVSPost2010PropOp31
 70
     1
102
RTVSPost2010Prop32
280
     0
102
RTVSPost2010PropOp32
 70
     1
102
RTVSPost2010Prop33
280
     0
102
RTVSPost2010PropOp33
 70
     1
102
RTVSPost2010Prop34
280
     0
102
RTVSPost2010PropOp34
 70
     1
102
RTVSPost2010Prop35
280
     0
102
RTVSPost2010PropOp35
 70
     1
102
RTVSPost2010Prop36
280
     0
102
RTVSPost2010PropOp36
 70
     1
102
RTVSPost2010Prop37
 90
       50
102
RTVSPost2010PropOp37
 70
     1
102
RTVSPost2010Prop38
140
0.0
102
RTVSPost2010PropOp38
 70
     1
102
RTVSPost2010Prop39
140
1.0
102
RTVSPost2010PropOp39
 70
     1
102
RTVSPost2010Prop40
 90
        0
102
RTVSPost2010PropOp40
 70
     1
102
RTVSPost2010Prop41ColorIndex
 90
       18
102
RTVSPost2010Prop41ColorRGB
 90
        0
102
RTVSPost2010PropOp41
 70
     1
102
RTVSPost2010Prop42
 90
       50
102
RTVSPost2010PropOp42
 70
     1
102
RTVSPost2010Prop43
 90
        3
102
RTVSPost2010PropOp43
 70
     1
102
RTVSPost2010Prop44ColorIndex
 90
        5
102
RTVSPost2010Prop44ColorRGB
 90
      255
102
RTVSPost2010PropOp44
 70
     1
102
RTVSPost2010Prop45
280
     0
102
RTVSPost2010PropOp45
 70
     1
102
RTVSPost2010Prop46
 90
       50
102
RTVSPost2010PropOp46
 70
     1
102
RTVSPost2010Prop47
 90
       50
102
RTVSPost2010PropOp47
 70
     1
102
RTVSPost2010Prop48
 90
       50
102
RTVSPost2010PropOp48
 70
     1
102
RTVSPost2010Prop49
280
     0
102
RTVSPost2010PropOp49
 70
     1
102
RTVSPost2010Prop50
 90
       50
102
RTVSPost2010PropOp50
 70
     1
102
RTVSPost2010Prop51ColorIndex
 90
      256
102
RTVSPost2010Prop51ColorRGB
 90
-16777216
102
RTVSPost2010PropOp51
 70
     0
102
RTVSPost2010Prop52
140
1.0
102
RTVSPost2010PropOp52
 70
     0
102
RTVSPost2010Prop53
 90
        2
102
RTVSPost2010PropOp53
 70
     1
102
RTVSPost2010Prop54
  1
strokes_ogs.tif
102
RTVSPost2010PropOp54
 70
     1
102
RTVSPost2010Prop55
280
     0
102
RTVSPost2010PropOp55
 70
     1
102
RTVSPost2010Prop56
140
1.0
102
RTVSPost2010PropOp56
 70
     1
102
RTVSPost2010Prop57
140
1.0
102
RTVSPost2010PropOp57
 70
     1
102
RTVSPropertyOp0
 70
     1
102
RTVSPropertyOp1
 70
     1
102
RTVSPropertyOp2
 70
     1
102
RTVSPropertyOp3
 70
     1
102
RTVSPropertyOp4
 70
     1
102
RTVSPropertyOp5
 70
     1
102
RTVSPropertyOp6
 70
     1
102
RTVSPropertyOp7
 70
     1
102
RTVSPropertyOp8
 70
     1
102
RTVSPropertyOp9
 70
     1
102
RTVSPropertyOp10
 70
     1
102
RTVSPropertyOp11
 70
     1
102
RTVSPropertyOp12
 70
     1
102
RTVSPropertyOp13
 70
     1
102
RTVSPropertyOp14
 70
     1
102
RTVSPropertyOp15
 70
     1
102
RTVSPropertyOp16
 70
     1
102
RTVSPropertyOp17
 70
     1
102
RTVSPropertyOp18
 70
     1
102
RTVSPropertyOp19
 70
     1
102
RTVSPropertyOp20
 70
     1
102
RTVSPropertyOp21
 70
     1
102
RTVSPropertyOp22
 70
     1
102
RTVSPropertyOp23
 70
     1
102
RTVSPropertyOp24
 70
     1
102
RTVSPropertyOp25
 70
     1
102
RTVSPropertyOp26
 70
     1
102
RTVSPropertyOp27
 70
     1
102
RTVSPropertyOp28
 70
     1
102
RTVSPropertyOp29
 70
     1
102
RTVSPropertyOp30
 70
     1
102
RTVSPropertyOp31
 70
     1
102
RTVSPropertyOp32
 70
     1
102
RTVSPropertyOp33
 70
     1
102
RTVSPropertyOp34
 70
     1
102
RTVSPropertyOp35
 70
     1
102
RTVSPropertyOp36
 70
     1
102
RTVSPropertyOp37
 70
     1
102
RTVSPropertyOp38
 70
     1
102
RTVSPropertyOp39
 70
     1
102
RTVSPropertyOp40
 70
     1
102
RTVSPropertyOp41
 70
     1
102
RTVSPropertyOp42
 70
     1
102
RTVSPropertyOp43
 70
     1
102
RTVSPropertyOp44
 70
     1
102
RTVSPropertyOp45
 70
     1
102
RTVSPropertyOp46
 70
     1
102
RTVSPropertyOp47
 70
     1
102
RTVSPropertyOp48
 70
     1
102
RTVSPropertyOp49
 70
     1
102
RTVSPropertyOp50
 70
     1
102
RTVSPropertyOp51
 70
     0
102
RTVSPropertyOp52
 70
     0
102
RTVSPropertyOp53
 70
     1
102
RTVSPropertyOp54
 70
     1
102
RTVSPropertyOp55
 70
     1
102
RTVSPropertyOp56
 70
     1
102
RTVSPropertyOp57
 70
     1
102
RTVSPropertyOp58
 70
     1
102
RTVSPropertyOp59
 70
     1
102
RTVSPropertyOp60
 70
     1
102
RTVSPropertyOp61
 70
     1
102
RTVSPropertyOp62
 70
     1
  0
XRECORD
  5
E76
102
{ACAD_REACTORS
330
E75
102
}
330
E75
100
AcDbXrecord
280
     1
102
RTVSPost2010Prop28
280
     0
102
RTVSPost2010PropOp28
 70
     1
102
RTVSPost2010Prop29
280
     1
102
RTVSPost2010PropOp29
 70
     1
102
RTVSPost2010Prop30
280
     1
102
RTVSPost2010PropOp30
 70
     1
102
RTVSPost2010Prop31
280
     0
102
RTVSPost2010PropOp31
 70
     1
102
RTVSPost2010Prop32
280
     0
102
RTVSPost2010PropOp32
 70
     1
102
RTVSPost2010Prop33
280
     0
102
RTVSPost2010PropOp33
 70
     1
102
RTVSPost2010Prop34
280
     0
102
RTVSPost2010PropOp34
 70
     1
102
RTVSPost2010Prop35
280
     0
102
RTVSPost2010PropOp35
 70
     1
102
RTVSPost2010Prop36
280
     0
102
RTVSPost2010PropOp36
 70
     1
102
RTVSPost2010Prop37
 90
       50
102
RTVSPost2010PropOp37
 70
     1
102
RTVSPost2010Prop38
140
0.0
102
RTVSPost2010PropOp38
 70
     1
102
RTVSPost2010Prop39
140
1.0
102
RTVSPost2010PropOp39
 70
     1
102
RTVSPost2010Prop40
 90
        0
102
RTVSPost2010PropOp40
 70
     1
102
RTVSPost2010Prop41ColorIndex
 90
       18
102
RTVSPost2010Prop41ColorRGB
 90
        0
102
RTVSPost2010PropOp41
 70
     1
102
RTVSPost2010Prop42
 90
       50
102
RTVSPost2010PropOp42
 70
     1
102
RTVSPost2010Prop43
 90
        3
102
RTVSPost2010PropOp43
 70
     1
102
RTVSPost2010Prop44ColorIndex
 90
        5
102
RTVSPost2010Prop44ColorRGB
 90
      255
102
RTVSPost2010PropOp44
 70
     1
102
RTVSPost2010Prop45
280
     0
102
RTVSPost2010PropOp45
 70
     1
102
RTVSPost2010Prop46
 90
       50
102
RTVSPost2010PropOp46
 70
     1
102
RTVSPost2010Prop47
 90
       50
102
RTVSPost2010PropOp47
 70
     1
102
RTVSPost2010Prop48
 90
       50
102
RTVSPost2010PropOp48
 70
     1
102
RTVSPost2010Prop49
280
     0
102
RTVSPost2010PropOp49
 70
     1
102
RTVSPost2010Prop50
 90
       50
102
RTVSPost2010PropOp50
 70
     1
102
RTVSPost2010Prop51ColorIndex
 90
      256
102
RTVSPost2010Prop51ColorRGB
 90
-16777216
102
RTVSPost2010PropOp51
 70
     0
102
RTVSPost2010Prop52
140
1.0
102
RTVSPost2010PropOp52
 70
     0
102
RTVSPost2010Prop53
 90
        2
102
RTVSPost2010PropOp53
 70
     1
102
RTVSPost2010Prop54
  1
strokes_ogs.tif
102
RTVSPost2010PropOp54
 70
     1
102
RTVSPost2010Prop55
280
     0
102
RTVSPost2010PropOp55
 70
     1
102
RTVSPost2010Prop56
140
1.0
102
RTVSPost2010PropOp56
 70
     1
102
RTVSPost2010Prop57
140
1.0
102
RTVSPost2010PropOp57
 70
     1
102
RTVSPropertyOp0
 70
     1
102
RTVSPropertyOp1
 70
     1
102
RTVSPropertyOp2
 70
     1
102
RTVSPropertyOp3
 70
     1
102
RTVSPropertyOp4
 70
     1
102
RTVSPropertyOp5
 70
     1
102
RTVSPropertyOp6
 70
     1
102
RTVSPropertyOp7
 70
     1
102
RTVSPropertyOp8
 70
     1
102
RTVSPropertyOp9
 70
     1
102
RTVSPropertyOp10
 70
     1
102
RTVSPropertyOp11
 70
     1
102
RTVSPropertyOp12
 70
     1
102
RTVSPropertyOp13
 70
     1
102
RTVSPropertyOp14
 70
     1
102
RTVSPropertyOp15
 70
     1
102
RTVSPropertyOp16
 70
     1
102
RTVSPropertyOp17
 70
     1
102
RTVSPropertyOp18
 70
     1
102
RTVSPropertyOp19
 70
     1
102
RTVSPropertyOp20
 70
     1
102
RTVSPropertyOp21
 70
     1
102
RTVSPropertyOp22
 70
     1
102
RTVSPropertyOp23
 70
     1
102
RTVSPropertyOp24
 70
     1
102
RTVSPropertyOp25
 70
     1
102
RTVSPropertyOp26
 70
     1
102
RTVSPropertyOp27
 70
     1
102
RTVSPropertyOp28
 70
     1
102
RTVSPropertyOp29
 70
     1
102
RTVSPropertyOp30
 70
     1
102
RTVSPropertyOp31
 70
     1
102
RTVSPropertyOp32
 70
     1
102
RTVSPropertyOp33
 70
     1
102
RTVSPropertyOp34
 70
     1
102
RTVSPropertyOp35
 70
     1
102
RTVSPropertyOp36
 70
     1
102
RTVSPropertyOp37
 70
     1
102
RTVSPropertyOp38
 70
     1
102
RTVSPropertyOp39
 70
     1
102
RTVSPropertyOp40
 70
     1
102
RTVSPropertyOp41
 70
     1
102
RTVSPropertyOp42
 70
     1
102
RTVSPropertyOp43
 70
     1
102
RTVSPropertyOp44
 70
     1
102
RTVSPropertyOp45
 70
     1
102
RTVSPropertyOp46
 70
     1
102
RTVSPropertyOp47
 70
     1
102
RTVSPropertyOp48
 70
     1
102
RTVSPropertyOp49
 70
     1
102
RTVSPropertyOp50
 70
     1
102
RTVSPropertyOp51
 70
     0
102
RTVSPropertyOp52
 70
     0
102
RTVSPropertyOp53
 70
     1
102
RTVSPropertyOp54
 70
     1
102
RTVSPropertyOp55
 70
     1
102
RTVSPropertyOp56
 70
     1
102
RTVSPropertyOp57
 70
     1
102
RTVSPropertyOp58
 70
     1
102
RTVSPropertyOp59
 70
     1
102
RTVSPropertyOp60
 70
     1
102
RTVSPropertyOp61
 70
     1
102
RTVSPropertyOp62
 70
     1
  0
XRECORD
  5
E7E
102
{ACAD_REACTORS
330
E7D
102
}
330
E7D
100
AcDbXrecord
280
     1
102
RTVSPost2010Prop28
280
     0
102
RTVSPost2010PropOp28
 70
     1
102
RTVSPost2010Prop29
280
     1
102
RTVSPost2010PropOp29
 70
     1
102
RTVSPost2010Prop30
280
     1
102
RTVSPost2010PropOp30
 70
     1
102
RTVSPost2010Prop31
280
     0
102
RTVSPost2010PropOp31
 70
     1
102
RTVSPost2010Prop32
280
     0
102
RTVSPost2010PropOp32
 70
     1
102
RTVSPost2010Prop33
280
     0
102
RTVSPost2010PropOp33
 70
     1
102
RTVSPost2010Prop34
280
     0
102
RTVSPost2010PropOp34
 70
     1
102
RTVSPost2010Prop35
280
     0
102
RTVSPost2010PropOp35
 70
     1
102
RTVSPost2010Prop36
280
     0
102
RTVSPost2010PropOp36
 70
     1
102
RTVSPost2010Prop37
 90
       50
102
RTVSPost2010PropOp37
 70
     1
102
RTVSPost2010Prop38
140
0.0
102
RTVSPost2010PropOp38
 70
     1
102
RTVSPost2010Prop39
140
1.0
102
RTVSPost2010PropOp39
 70
     1
102
RTVSPost2010Prop40
 90
        0
102
RTVSPost2010PropOp40
 70
     1
102
RTVSPost2010Prop41ColorIndex
 90
       18
102
RTVSPost2010Prop41ColorRGB
 90
        0
102
RTVSPost2010PropOp41
 70
     1
102
RTVSPost2010Prop42
 90
       50
102
RTVSPost2010PropOp42
 70
     1
102
RTVSPost2010Prop43
 90
        3
102
RTVSPost2010PropOp43
 70
     1
102
RTVSPost2010Prop44ColorIndex
 90
        5
102
RTVSPost2010Prop44ColorRGB
 90
      255
102
RTVSPost2010PropOp44
 70
     1
102
RTVSPost2010Prop45
280
     0
102
RTVSPost2010PropOp45
 70
     1
102
RTVSPost2010Prop46
 90
       50
102
RTVSPost2010PropOp46
 70
     1
102
RTVSPost2010Prop47
 90
       50
102
RTVSPost2010PropOp47
 70
     1
102
RTVSPost2010Prop48
 90
       50
102
RTVSPost2010PropOp48
 70
     1
102
RTVSPost2010Prop49
280
     0
102
RTVSPost2010PropOp49
 70
     1
102
RTVSPost2010Prop50
 90
       50
102
RTVSPost2010PropOp50
 70
     1
102
RTVSPost2010Prop51ColorIndex
 90
      256
102
RTVSPost2010Prop51ColorRGB
 90
-16777216
102
RTVSPost2010PropOp51
 70
     0
102
RTVSPost2010Prop52
140
1.0
102
RTVSPost2010PropOp52
 70
     0
102
RTVSPost2010Prop53
 90
        2
102
RTVSPost2010PropOp53
 70
     1
102
RTVSPost2010Prop54
  1
strokes_ogs.tif
102
RTVSPost2010PropOp54
 70
     1
102
RTVSPost2010Prop55
280
     0
102
RTVSPost2010PropOp55
 70
     1
102
RTVSPost2010Prop56
140
1.0
102
RTVSPost2010PropOp56
 70
     1
102
RTVSPost2010Prop57
140
1.0
102
RTVSPost2010PropOp57
 70
     1
102
RTVSPropertyOp0
 70
     1
102
RTVSPropertyOp1
 70
     1
102
RTVSPropertyOp2
 70
     1
102
RTVSPropertyOp3
 70
     1
102
RTVSPropertyOp4
 70
     1
102
RTVSPropertyOp5
 70
     1
102
RTVSPropertyOp6
 70
     1
102
RTVSPropertyOp7
 70
     1
102
RTVSPropertyOp8
 70
     1
102
RTVSPropertyOp9
 70
     1
102
RTVSPropertyOp10
 70
     1
102
RTVSPropertyOp11
 70
     1
102
RTVSPropertyOp12
 70
     1
102
RTVSPropertyOp13
 70
     1
102
RTVSPropertyOp14
 70
     1
102
RTVSPropertyOp15
 70
     1
102
RTVSPropertyOp16
 70
     1
102
RTVSPropertyOp17
 70
     1
102
RTVSPropertyOp18
 70
     1
102
RTVSPropertyOp19
 70
     1
102
RTVSPropertyOp20
 70
     1
102
RTVSPropertyOp21
 70
     1
102
RTVSPropertyOp22
 70
     1
102
RTVSPropertyOp23
 70
     1
102
RTVSPropertyOp24
 70
     1
102
RTVSPropertyOp25
 70
     1
102
RTVSPropertyOp26
 70
     1
102
RTVSPropertyOp27
 70
     1
102
RTVSPropertyOp28
 70
     1
102
RTVSPropertyOp29
 70
     1
102
RTVSPropertyOp30
 70
     1
102
RTVSPropertyOp31
 70
     1
102
RTVSPropertyOp32
 70
     1
102
RTVSPropertyOp33
 70
     1
102
RTVSPropertyOp34
 70
     1
102
RTVSPropertyOp35
 70
     1
102
RTVSPropertyOp36
 70
     1
102
RTVSPropertyOp37
 70
     1
102
RTVSPropertyOp38
 70
     1
102
RTVSPropertyOp39
 70
     1
102
RTVSPropertyOp40
 70
     1
102
RTVSPropertyOp41
 70
     1
102
RTVSPropertyOp42
 70
     1
102
RTVSPropertyOp43
 70
     1
102
RTVSPropertyOp44
 70
     1
102
RTVSPropertyOp45
 70
     1
102
RTVSPropertyOp46
 70
     1
102
RTVSPropertyOp47
 70
     1
102
RTVSPropertyOp48
 70
     1
102
RTVSPropertyOp49
 70
     1
102
RTVSPropertyOp50
 70
     1
102
RTVSPropertyOp51
 70
     0
102
RTVSPropertyOp52
 70
     0
102
RTVSPropertyOp53
 70
     1
102
RTVSPropertyOp54
 70
     1
102
RTVSPropertyOp55
 70
     1
102
RTVSPropertyOp56
 70
     1
102
RTVSPropertyOp57
 70
     1
102
RTVSPropertyOp58
 70
     1
102
RTVSPropertyOp59
 70
     1
102
RTVSPropertyOp60
 70
     1
102
RTVSPropertyOp61
 70
     1
102
RTVSPropertyOp62
 70
     1
  0
XRECORD
  5
E9A
102
{ACAD_REACTORS
330
E99
102
}
330
E99
100
AcDbXrecord
280
     1
102
RTVSPost2010Prop28
280
     0
102
RTVSPost2010PropOp28
 70
     1
102
RTVSPost2010Prop29
280
     1
102
RTVSPost2010PropOp29
 70
     1
102
RTVSPost2010Prop30
280
     1
102
RTVSPost2010PropOp30
 70
     1
102
RTVSPost2010Prop31
280
     0
102
RTVSPost2010PropOp31
 70
     1
102
RTVSPost2010Prop32
280
     0
102
RTVSPost2010PropOp32
 70
     1
102
RTVSPost2010Prop33
280
     0
102
RTVSPost2010PropOp33
 70
     1
102
RTVSPost2010Prop34
280
     0
102
RTVSPost2010PropOp34
 70
     1
102
RTVSPost2010Prop35
280
     0
102
RTVSPost2010PropOp35
 70
     1
102
RTVSPost2010Prop36
280
     0
102
RTVSPost2010PropOp36
 70
     1
102
RTVSPost2010Prop37
 90
       50
102
RTVSPost2010PropOp37
 70
     0
102
RTVSPost2010Prop38
140
0.0
102
RTVSPost2010PropOp38
 70
     0
102
RTVSPost2010Prop39
140
1.0
102
RTVSPost2010PropOp39
 70
     0
102
RTVSPost2010Prop40
 90
        0
102
RTVSPost2010PropOp40
 70
     0
102
RTVSPost2010Prop41ColorIndex
 90
       18
102
RTVSPost2010Prop41ColorRGB
 90
        0
102
RTVSPost2010PropOp41
 70
     0
102
RTVSPost2010Prop42
 90
       50
102
RTVSPost2010PropOp42
 70
     0
102
RTVSPost2010Prop43
 90
        3
102
RTVSPost2010PropOp43
 70
     0
102
RTVSPost2010Prop44ColorIndex
 90
        5
102
RTVSPost2010Prop44ColorRGB
 90
      255
102
RTVSPost2010PropOp44
 70
     0
102
RTVSPost2010Prop45
280
     0
102
RTVSPost2010PropOp45
 70
     1
102
RTVSPost2010Prop46
 90
       50
102
RTVSPost2010PropOp46
 70
     0
102
RTVSPost2010Prop47
 90
       50
102
RTVSPost2010PropOp47
 70
     0
102
RTVSPost2010Prop48
 90
       50
102
RTVSPost2010PropOp48
 70
     0
102
RTVSPost2010Prop49
280
     0
102
RTVSPost2010PropOp49
 70
     1
102
RTVSPost2010Prop50
 90
       50
102
RTVSPost2010PropOp50
 70
     0
102
RTVSPost2010Prop51ColorIndex
 90
      256
102
RTVSPost2010Prop51ColorRGB
 90
-16777216
102
RTVSPost2010PropOp51
 70
     0
102
RTVSPost2010Prop52
140
1.0
102
RTVSPost2010PropOp52
 70
     0
102
RTVSPost2010Prop53
 90
        2
102
RTVSPost2010PropOp53
 70
     0
102
RTVSPost2010Prop54
  1
strokes_ogs.tif
102
RTVSPost2010PropOp54
 70
     0
102
RTVSPost2010Prop55
280
     0
102
RTVSPost2010PropOp55
 70
     1
102
RTVSPost2010Prop56
140
1.0
102
RTVSPost2010PropOp56
 70
     0
102
RTVSPost2010Prop57
140
1.0
102
RTVSPost2010PropOp57
 70
     0
102
RTVSPropertyOp0
 70
     0
102
RTVSPropertyOp1
 70
     0
102
RTVSPropertyOp2
 70
     0
102
RTVSPropertyOp3
 70
     0
102
RTVSPropertyOp4
 70
     0
102
RTVSPropertyOp5
 70
     0
102
RTVSPropertyOp6
 70
     0
102
RTVSPropertyOp7
 70
     0
102
RTVSPropertyOp8
 70
     0
102
RTVSPropertyOp9
 70
     0
102
RTVSPropertyOp10
 70
     0
102
RTVSPropertyOp11
 70
     0
102
RTVSPropertyOp12
 70
     0
102
RTVSPropertyOp13
 70
     0
102
RTVSPropertyOp14
 70
     2
102
RTVSPropertyOp15
 70
     0
102
RTVSPropertyOp16
 70
     0
102
RTVSPropertyOp17
 70
     0
102
RTVSPropertyOp18
 70
     0
102
RTVSPropertyOp19
 70
     0
102
RTVSPropertyOp20
 70
     0
102
RTVSPropertyOp21
 70
     0
102
RTVSPropertyOp22
 70
     0
102
RTVSPropertyOp23
 70
     0
102
RTVSPropertyOp24
 70
     0
102
RTVSPropertyOp25
 70
     0
102
RTVSPropertyOp26
 70
     0
102
RTVSPropertyOp27
 70
     0
102
RTVSPropertyOp28
 70
     1
102
RTVSPropertyOp29
 70
     1
102
RTVSPropertyOp30
 70
     1
102
RTVSPropertyOp31
 70
     1
102
RTVSPropertyOp32
 70
     1
102
RTVSPropertyOp33
 70
     1
102
RTVSPropertyOp34
 70
     1
102
RTVSPropertyOp35
 70
     1
102
RTVSPropertyOp36
 70
     1
102
RTVSPropertyOp37
 70
     0
102
RTVSPropertyOp38
 70
     0
102
RTVSPropertyOp39
 70
     0
102
RTVSPropertyOp40
 70
     0
102
RTVSPropertyOp41
 70
     0
102
RTVSPropertyOp42
 70
     0
102
RTVSPropertyOp43
 70
     0
102
RTVSPropertyOp44
 70
     0
102
RTVSPropertyOp45
 70
     1
102
RTVSPropertyOp46
 70
     0
102
RTVSPropertyOp47
 70
     0
102
RTVSPropertyOp48
 70
     0
102
RTVSPropertyOp49
 70
     1
102
RTVSPropertyOp50
 70
     0
102
RTVSPropertyOp51
 70
     0
102
RTVSPropertyOp52
 70
     0
102
RTVSPropertyOp53
 70
     0
102
RTVSPropertyOp54
 70
     0
102
RTVSPropertyOp55
 70
     1
102
RTVSPropertyOp56
 70
     0
102
RTVSPropertyOp57
 70
     0
102
RTVSPropertyOp58
 70
     0
102
RTVSPropertyOp59
 70
     0
102
RTVSPropertyOp60
 70
     0
102
RTVSPropertyOp61
 70
     0
102
RTVSPropertyOp62
 70
     0
  0
XRECORD
  5
E8A
102
{ACAD_REACTORS
330
E89
102
}
330
E89
100
AcDbXrecord
280
     1
102
RTVSPost2010Prop28
280
     0
102
RTVSPost2010PropOp28
 70
     1
102
RTVSPost2010Prop29
280
     1
102
RTVSPost2010PropOp29
 70
     1
102
RTVSPost2010Prop30
280
     1
102
RTVSPost2010PropOp30
 70
     1
102
RTVSPost2010Prop31
280
     0
102
RTVSPost2010PropOp31
 70
     1
102
RTVSPost2010Prop32
280
     0
102
RTVSPost2010PropOp32
 70
     1
102
RTVSPost2010Prop33
280
     0
102
RTVSPost2010PropOp33
 70
     1
102
RTVSPost2010Prop34
280
     0
102
RTVSPost2010PropOp34
 70
     1
102
RTVSPost2010Prop35
280
     0
102
RTVSPost2010PropOp35
 70
     1
102
RTVSPost2010Prop36
280
     0
102
RTVSPost2010PropOp36
 70
     1
102
RTVSPost2010Prop37
 90
       50
102
RTVSPost2010PropOp37
 70
     1
102
RTVSPost2010Prop38
140
0.0
102
RTVSPost2010PropOp38
 70
     1
102
RTVSPost2010Prop39
140
1.0
102
RTVSPost2010PropOp39
 70
     1
102
RTVSPost2010Prop40
 90
        0
102
RTVSPost2010PropOp40
 70
     1
102
RTVSPost2010Prop41ColorIndex
 90
       18
102
RTVSPost2010Prop41ColorRGB
 90
        0
102
RTVSPost2010PropOp41
 70
     1
102
RTVSPost2010Prop42
 90
       50
102
RTVSPost2010PropOp42
 70
     1
102
RTVSPost2010Prop43
 90
        3
102
RTVSPost2010PropOp43
 70
     1
102
RTVSPost2010Prop44ColorIndex
 90
        5
102
RTVSPost2010Prop44ColorRGB
 90
      255
102
RTVSPost2010PropOp44
 70
     1
102
RTVSPost2010Prop45
280
     0
102
RTVSPost2010PropOp45
 70
     1
102
RTVSPost2010Prop46
 90
       50
102
RTVSPost2010PropOp46
 70
     1
102
RTVSPost2010Prop47
 90
       50
102
RTVSPost2010PropOp47
 70
     1
102
RTVSPost2010Prop48
 90
       50
102
RTVSPost2010PropOp48
 70
     1
102
RTVSPost2010Prop49
280
     0
102
RTVSPost2010PropOp49
 70
     1
102
RTVSPost2010Prop50
 90
       50
102
RTVSPost2010PropOp50
 70
     1
102
RTVSPost2010Prop51ColorIndex
 90
      256
102
RTVSPost2010Prop51ColorRGB
 90
-16777216
102
RTVSPost2010PropOp51
 70
     0
102
RTVSPost2010Prop52
140
1.0
102
RTVSPost2010PropOp52
 70
     0
102
RTVSPost2010Prop53
 90
        2
102
RTVSPost2010PropOp53
 70
     1
102
RTVSPost2010Prop54
  1
strokes_ogs.tif
102
RTVSPost2010PropOp54
 70
     1
102
RTVSPost2010Prop55
280
     0
102
RTVSPost2010PropOp55
 70
     1
102
RTVSPost2010Prop56
140
1.0
102
RTVSPost2010PropOp56
 70
     1
102
RTVSPost2010Prop57
140
1.0
102
RTVSPost2010PropOp57
 70
     1
102
RTVSPropertyOp0
 70
     1
102
RTVSPropertyOp1
 70
     1
102
RTVSPropertyOp2
 70
     1
102
RTVSPropertyOp3
 70
     1
102
RTVSPropertyOp4
 70
     1
102
RTVSPropertyOp5
 70
     1
102
RTVSPropertyOp6
 70
     1
102
RTVSPropertyOp7
 70
     1
102
RTVSPropertyOp8
 70
     1
102
RTVSPropertyOp9
 70
     1
102
RTVSPropertyOp10
 70
     1
102
RTVSPropertyOp11
 70
     1
102
RTVSPropertyOp12
 70
     1
102
RTVSPropertyOp13
 70
     1
102
RTVSPropertyOp14
 70
     1
102
RTVSPropertyOp15
 70
     1
102
RTVSPropertyOp16
 70
     1
102
RTVSPropertyOp17
 70
     1
102
RTVSPropertyOp18
 70
     1
102
RTVSPropertyOp19
 70
     1
102
RTVSPropertyOp20
 70
     1
102
RTVSPropertyOp21
 70
     1
102
RTVSPropertyOp22
 70
     1
102
RTVSPropertyOp23
 70
     1
102
RTVSPropertyOp24
 70
     1
102
RTVSPropertyOp25
 70
     1
102
RTVSPropertyOp26
 70
     1
102
RTVSPropertyOp27
 70
     1
102
RTVSPropertyOp28
 70
     1
102
RTVSPropertyOp29
 70
     1
102
RTVSPropertyOp30
 70
     1
102
RTVSPropertyOp31
 70
     1
102
RTVSPropertyOp32
 70
     1
102
RTVSPropertyOp33
 70
     1
102
RTVSPropertyOp34
 70
     1
102
RTVSPropertyOp35
 70
     1
102
RTVSPropertyOp36
 70
     1
102
RTVSPropertyOp37
 70
     1
102
RTVSPropertyOp38
 70
     1
102
RTVSPropertyOp39
 70
     1
102
RTVSPropertyOp40
 70
     1
102
RTVSPropertyOp41
 70
     1
102
RTVSPropertyOp42
 70
     1
102
RTVSPropertyOp43
 70
     1
102
RTVSPropertyOp44
 70
     1
102
RTVSPropertyOp45
 70
     1
102
RTVSPropertyOp46
 70
     1
102
RTVSPropertyOp47
 70
     1
102
RTVSPropertyOp48
 70
     1
102
RTVSPropertyOp49
 70
     1
102
RTVSPropertyOp50
 70
     1
102
RTVSPropertyOp51
 70
     0
102
RTVSPropertyOp52
 70
     0
102
RTVSPropertyOp53
 70
     1
102
RTVSPropertyOp54
 70
     1
102
RTVSPropertyOp55
 70
     1
102
RTVSPropertyOp56
 70
     1
102
RTVSPropertyOp57
 70
     1
102
RTVSPropertyOp58
 70
     1
102
RTVSPropertyOp59
 70
     1
102
RTVSPropertyOp60
 70
     1
102
RTVSPropertyOp61
 70
     1
102
RTVSPropertyOp62
 70
     1
  0
XRECORD
  5
E9C
102
{ACAD_REACTORS
330
E9B
102
}
330
E9B
100
AcDbXrecord
280
     1
102
RTVSPost2010Prop28
280
     0
102
RTVSPost2010PropOp28
 70
     1
102
RTVSPost2010Prop29
280
     1
102
RTVSPost2010PropOp29
 70
     1
102
RTVSPost2010Prop30
280
     1
102
RTVSPost2010PropOp30
 70
     1
102
RTVSPost2010Prop31
280
     0
102
RTVSPost2010PropOp31
 70
     1
102
RTVSPost2010Prop32
280
     0
102
RTVSPost2010PropOp32
 70
     1
102
RTVSPost2010Prop33
280
     0
102
RTVSPost2010PropOp33
 70
     1
102
RTVSPost2010Prop34
280
     0
102
RTVSPost2010PropOp34
 70
     1
102
RTVSPost2010Prop35
280
     0
102
RTVSPost2010PropOp35
 70
     1
102
RTVSPost2010Prop36
280
     0
102
RTVSPost2010PropOp36
 70
     1
102
RTVSPost2010Prop37
 90
       50
102
RTVSPost2010PropOp37
 70
     0
102
RTVSPost2010Prop38
140
0.0
102
RTVSPost2010PropOp38
 70
     0
102
RTVSPost2010Prop39
140
1.0
102
RTVSPost2010PropOp39
 70
     0
102
RTVSPost2010Prop40
 90
        0
102
RTVSPost2010PropOp40
 70
     0
102
RTVSPost2010Prop41ColorIndex
 90
       18
102
RTVSPost2010Prop41ColorRGB
 90
        0
102
RTVSPost2010PropOp41
 70
     0
102
RTVSPost2010Prop42
 90
       50
102
RTVSPost2010PropOp42
 70
     0
102
RTVSPost2010Prop43
 90
        3
102
RTVSPost2010PropOp43
 70
     0
102
RTVSPost2010Prop44ColorIndex
 90
        5
102
RTVSPost2010Prop44ColorRGB
 90
      255
102
RTVSPost2010PropOp44
 70
     0
102
RTVSPost2010Prop45
280
     0
102
RTVSPost2010PropOp45
 70
     1
102
RTVSPost2010Prop46
 90
       50
102
RTVSPost2010PropOp46
 70
     0
102
RTVSPost2010Prop47
 90
       50
102
RTVSPost2010PropOp47
 70
     0
102
RTVSPost2010Prop48
 90
       50
102
RTVSPost2010PropOp48
 70
     0
102
RTVSPost2010Prop49
280
     0
102
RTVSPost2010PropOp49
 70
     1
102
RTVSPost2010Prop50
 90
       50
102
RTVSPost2010PropOp50
 70
     0
102
RTVSPost2010Prop51ColorIndex
 90
      256
102
RTVSPost2010Prop51ColorRGB
 90
-16777216
102
RTVSPost2010PropOp51
 70
     0
102
RTVSPost2010Prop52
140
1.0
102
RTVSPost2010PropOp52
 70
     0
102
RTVSPost2010Prop53
 90
        2
102
RTVSPost2010PropOp53
 70
     0
102
RTVSPost2010Prop54
  1
strokes_ogs.tif
102
RTVSPost2010PropOp54
 70
     0
102
RTVSPost2010Prop55
280
     0
102
RTVSPost2010PropOp55
 70
     1
102
RTVSPost2010Prop56
140
1.0
102
RTVSPost2010PropOp56
 70
     0
102
RTVSPost2010Prop57
140
1.0
102
RTVSPost2010PropOp57
 70
     0
102
RTVSPropertyOp0
 70
     0
102
RTVSPropertyOp1
 70
     0
102
RTVSPropertyOp2
 70
     0
102
RTVSPropertyOp3
 70
     0
102
RTVSPropertyOp4
 70
     0
102
RTVSPropertyOp5
 70
     0
102
RTVSPropertyOp6
 70
     0
102
RTVSPropertyOp7
 70
     0
102
RTVSPropertyOp8
 70
     0
102
RTVSPropertyOp9
 70
     0
102
RTVSPropertyOp10
 70
     0
102
RTVSPropertyOp11
 70
     0
102
RTVSPropertyOp12
 70
     0
102
RTVSPropertyOp13
 70
     0
102
RTVSPropertyOp14
 70
     2
102
RTVSPropertyOp15
 70
     0
102
RTVSPropertyOp16
 70
     0
102
RTVSPropertyOp17
 70
     0
102
RTVSPropertyOp18
 70
     0
102
RTVSPropertyOp19
 70
     0
102
RTVSPropertyOp20
 70
     0
102
RTVSPropertyOp21
 70
     0
102
RTVSPropertyOp22
 70
     0
102
RTVSPropertyOp23
 70
     0
102
RTVSPropertyOp24
 70
     0
102
RTVSPropertyOp25
 70
     0
102
RTVSPropertyOp26
 70
     0
102
RTVSPropertyOp27
 70
     0
102
RTVSPropertyOp28
 70
     1
102
RTVSPropertyOp29
 70
     1
102
RTVSPropertyOp30
 70
     1
102
RTVSPropertyOp31
 70
     1
102
RTVSPropertyOp32
 70
     1
102
RTVSPropertyOp33
 70
     1
102
RTVSPropertyOp34
 70
     1
102
RTVSPropertyOp35
 70
     1
102
RTVSPropertyOp36
 70
     1
102
RTVSPropertyOp37
 70
     0
102
RTVSPropertyOp38
 70
     0
102
RTVSPropertyOp39
 70
     0
102
RTVSPropertyOp40
 70
     0
102
RTVSPropertyOp41
 70
     0
102
RTVSPropertyOp42
 70
     0
102
RTVSPropertyOp43
 70
     0
102
RTVSPropertyOp44
 70
     0
102
RTVSPropertyOp45
 70
     1
102
RTVSPropertyOp46
 70
     0
102
RTVSPropertyOp47
 70
     0
102
RTVSPropertyOp48
 70
     0
102
RTVSPropertyOp49
 70
     1
102
RTVSPropertyOp50
 70
     0
102
RTVSPropertyOp51
 70
     0
102
RTVSPropertyOp52
 70
     0
102
RTVSPropertyOp53
 70
     0
102
RTVSPropertyOp54
 70
     0
102
RTVSPropertyOp55
 70
     1
102
RTVSPropertyOp56
 70
     0
102
RTVSPropertyOp57
 70
     0
102
RTVSPropertyOp58
 70
     0
102
RTVSPropertyOp59
 70
     0
102
RTVSPropertyOp60
 70
     0
102
RTVSPropertyOp61
 70
     0
102
RTVSPropertyOp62
 70
     0
  0
XRECORD
  5
E82
102
{ACAD_REACTORS
330
E81
102
}
330
E81
100
AcDbXrecord
280
     1
102
RTVSPost2010Prop28
280
     0
102
RTVSPost2010PropOp28
 70
     1
102
RTVSPost2010Prop29
280
     1
102
RTVSPost2010PropOp29
 70
     1
102
RTVSPost2010Prop30
280
     1
102
RTVSPost2010PropOp30
 70
     1
102
RTVSPost2010Prop31
280
     0
102
RTVSPost2010PropOp31
 70
     1
102
RTVSPost2010Prop32
280
     0
102
RTVSPost2010PropOp32
 70
     1
102
RTVSPost2010Prop33
280
     0
102
RTVSPost2010PropOp33
 70
     1
102
RTVSPost2010Prop34
280
     0
102
RTVSPost2010PropOp34
 70
     1
102
RTVSPost2010Prop35
280
     0
102
RTVSPost2010PropOp35
 70
     1
102
RTVSPost2010Prop36
280
     0
102
RTVSPost2010PropOp36
 70
     1
102
RTVSPost2010Prop37
 90
       50
102
RTVSPost2010PropOp37
 70
     1
102
RTVSPost2010Prop38
140
0.0
102
RTVSPost2010PropOp38
 70
     1
102
RTVSPost2010Prop39
140
1.0
102
RTVSPost2010PropOp39
 70
     1
102
RTVSPost2010Prop40
 90
        0
102
RTVSPost2010PropOp40
 70
     1
102
RTVSPost2010Prop41ColorIndex
 90
       18
102
RTVSPost2010Prop41ColorRGB
 90
        0
102
RTVSPost2010PropOp41
 70
     1
102
RTVSPost2010Prop42
 90
       50
102
RTVSPost2010PropOp42
 70
     1
102
RTVSPost2010Prop43
 90
        3
102
RTVSPost2010PropOp43
 70
     1
102
RTVSPost2010Prop44ColorIndex
 90
        5
102
RTVSPost2010Prop44ColorRGB
 90
      255
102
RTVSPost2010PropOp44
 70
     1
102
RTVSPost2010Prop45
280
     0
102
RTVSPost2010PropOp45
 70
     1
102
RTVSPost2010Prop46
 90
       50
102
RTVSPost2010PropOp46
 70
     1
102
RTVSPost2010Prop47
 90
       50
102
RTVSPost2010PropOp47
 70
     1
102
RTVSPost2010Prop48
 90
       50
102
RTVSPost2010PropOp48
 70
     1
102
RTVSPost2010Prop49
280
     0
102
RTVSPost2010PropOp49
 70
     1
102
RTVSPost2010Prop50
 90
       50
102
RTVSPost2010PropOp50
 70
     1
102
RTVSPost2010Prop51ColorIndex
 90
      256
102
RTVSPost2010Prop51ColorRGB
 90
-16777216
102
RTVSPost2010PropOp51
 70
     0
102
RTVSPost2010Prop52
140
1.0
102
RTVSPost2010PropOp52
 70
     0
102
RTVSPost2010Prop53
 90
        2
102
RTVSPost2010PropOp53
 70
     1
102
RTVSPost2010Prop54
  1
strokes_ogs.tif
102
RTVSPost2010PropOp54
 70
     1
102
RTVSPost2010Prop55
280
     0
102
RTVSPost2010PropOp55
 70
     1
102
RTVSPost2010Prop56
140
1.0
102
RTVSPost2010PropOp56
 70
     1
102
RTVSPost2010Prop57
140
1.0
102
RTVSPost2010PropOp57
 70
     1
102
RTVSPropertyOp0
 70
     1
102
RTVSPropertyOp1
 70
     1
102
RTVSPropertyOp2
 70
     1
102
RTVSPropertyOp3
 70
     1
102
RTVSPropertyOp4
 70
     1
102
RTVSPropertyOp5
 70
     1
102
RTVSPropertyOp6
 70
     1
102
RTVSPropertyOp7
 70
     1
102
RTVSPropertyOp8
 70
     1
102
RTVSPropertyOp9
 70
     1
102
RTVSPropertyOp10
 70
     1
102
RTVSPropertyOp11
 70
     1
102
RTVSPropertyOp12
 70
     1
102
RTVSPropertyOp13
 70
     1
102
RTVSPropertyOp14
 70
     1
102
RTVSPropertyOp15
 70
     1
102
RTVSPropertyOp16
 70
     1
102
RTVSPropertyOp17
 70
     1
102
RTVSPropertyOp18
 70
     1
102
RTVSPropertyOp19
 70
     1
102
RTVSPropertyOp20
 70
     1
102
RTVSPropertyOp21
 70
     1
102
RTVSPropertyOp22
 70
     1
102
RTVSPropertyOp23
 70
     1
102
RTVSPropertyOp24
 70
     1
102
RTVSPropertyOp25
 70
     1
102
RTVSPropertyOp26
 70
     1
102
RTVSPropertyOp27
 70
     1
102
RTVSPropertyOp28
 70
     1
102
RTVSPropertyOp29
 70
     1
102
RTVSPropertyOp30
 70
     1
102
RTVSPropertyOp31
 70
     1
102
RTVSPropertyOp32
 70
     1
102
RTVSPropertyOp33
 70
     1
102
RTVSPropertyOp34
 70
     1
102
RTVSPropertyOp35
 70
     1
102
RTVSPropertyOp36
 70
     1
102
RTVSPropertyOp37
 70
     1
102
RTVSPropertyOp38
 70
     1
102
RTVSPropertyOp39
 70
     1
102
RTVSPropertyOp40
 70
     1
102
RTVSPropertyOp41
 70
     1
102
RTVSPropertyOp42
 70
     1
102
RTVSPropertyOp43
 70
     1
102
RTVSPropertyOp44
 70
     1
102
RTVSPropertyOp45
 70
     1
102
RTVSPropertyOp46
 70
     1
102
RTVSPropertyOp47
 70
     1
102
RTVSPropertyOp48
 70
     1
102
RTVSPropertyOp49
 70
     1
102
RTVSPropertyOp50
 70
     1
102
RTVSPropertyOp51
 70
     0
102
RTVSPropertyOp52
 70
     0
102
RTVSPropertyOp53
 70
     1
102
RTVSPropertyOp54
 70
     1
102
RTVSPropertyOp55
 70
     1
102
RTVSPropertyOp56
 70
     1
102
RTVSPropertyOp57
 70
     1
102
RTVSPropertyOp58
 70
     1
102
RTVSPropertyOp59
 70
     1
102
RTVSPropertyOp60
 70
     1
102
RTVSPropertyOp61
 70
     1
102
RTVSPropertyOp62
 70
     1
  0
XRECORD
  5
E98
102
{ACAD_REACTORS
330
E97
102
}
330
E97
100
AcDbXrecord
280
     1
102
RTVSPost2010Prop28
280
     0
102
RTVSPost2010PropOp28
 70
     1
102
RTVSPost2010Prop29
280
     1
102
RTVSPost2010PropOp29
 70
     1
102
RTVSPost2010Prop30
280
     1
102
RTVSPost2010PropOp30
 70
     1
102
RTVSPost2010Prop31
280
     0
102
RTVSPost2010PropOp31
 70
     1
102
RTVSPost2010Prop32
280
     0
102
RTVSPost2010PropOp32
 70
     1
102
RTVSPost2010Prop33
280
     0
102
RTVSPost2010PropOp33
 70
     1
102
RTVSPost2010Prop34
280
     0
102
RTVSPost2010PropOp34
 70
     1
102
RTVSPost2010Prop35
280
     0
102
RTVSPost2010PropOp35
 70
     1
102
RTVSPost2010Prop36
280
     0
102
RTVSPost2010PropOp36
 70
     1
102
RTVSPost2010Prop37
 90
       50
102
RTVSPost2010PropOp37
 70
     1
102
RTVSPost2010Prop38
140
0.0
102
RTVSPost2010PropOp38
 70
     1
102
RTVSPost2010Prop39
140
1.0
102
RTVSPost2010PropOp39
 70
     1
102
RTVSPost2010Prop40
 90
        0
102
RTVSPost2010PropOp40
 70
     1
102
RTVSPost2010Prop41ColorIndex
 90
       18
102
RTVSPost2010Prop41ColorRGB
 90
        0
102
RTVSPost2010PropOp41
 70
     1
102
RTVSPost2010Prop42
 90
       50
102
RTVSPost2010PropOp42
 70
     1
102
RTVSPost2010Prop43
 90
        3
102
RTVSPost2010PropOp43
 70
     1
102
RTVSPost2010Prop44ColorIndex
 90
        5
102
RTVSPost2010Prop44ColorRGB
 90
      255
102
RTVSPost2010PropOp44
 70
     1
102
RTVSPost2010Prop45
280
     0
102
RTVSPost2010PropOp45
 70
     1
102
RTVSPost2010Prop46
 90
       50
102
RTVSPost2010PropOp46
 70
     1
102
RTVSPost2010Prop47
 90
       50
102
RTVSPost2010PropOp47
 70
     1
102
RTVSPost2010Prop48
 90
       50
102
RTVSPost2010PropOp48
 70
     1
102
RTVSPost2010Prop49
280
     0
102
RTVSPost2010PropOp49
 70
     1
102
RTVSPost2010Prop50
 90
       50
102
RTVSPost2010PropOp50
 70
     1
102
RTVSPost2010Prop51ColorIndex
 90
      256
102
RTVSPost2010Prop51ColorRGB
 90
-16777216
102
RTVSPost2010PropOp51
 70
     0
102
RTVSPost2010Prop52
140
1.0
102
RTVSPost2010PropOp52
 70
     0
102
RTVSPost2010Prop53
 90
        2
102
RTVSPost2010PropOp53
 70
     1
102
RTVSPost2010Prop54
  1
strokes_ogs.tif
102
RTVSPost2010PropOp54
 70
     1
102
RTVSPost2010Prop55
280
     0
102
RTVSPost2010PropOp55
 70
     1
102
RTVSPost2010Prop56
140
1.0
102
RTVSPost2010PropOp56
 70
     1
102
RTVSPost2010Prop57
140
1.0
102
RTVSPost2010PropOp57
 70
     1
102
RTVSPropertyOp0
 70
     1
102
RTVSPropertyOp1
 70
     1
102
RTVSPropertyOp2
 70
     1
102
RTVSPropertyOp3
 70
     1
102
RTVSPropertyOp4
 70
     1
102
RTVSPropertyOp5
 70
     1
102
RTVSPropertyOp6
 70
     1
102
RTVSPropertyOp7
 70
     1
102
RTVSPropertyOp8
 70
     1
102
RTVSPropertyOp9
 70
     1
102
RTVSPropertyOp10
 70
     1
102
RTVSPropertyOp11
 70
     1
102
RTVSPropertyOp12
 70
     1
102
RTVSPropertyOp13
 70
     1
102
RTVSPropertyOp14
 70
     1
102
RTVSPropertyOp15
 70
     1
102
RTVSPropertyOp16
 70
     1
102
RTVSPropertyOp17
 70
     1
102
RTVSPropertyOp18
 70
     1
102
RTVSPropertyOp19
 70
     1
102
RTVSPropertyOp20
 70
     1
102
RTVSPropertyOp21
 70
     1
102
RTVSPropertyOp22
 70
     1
102
RTVSPropertyOp23
 70
     1
102
RTVSPropertyOp24
 70
     1
102
RTVSPropertyOp25
 70
     1
102
RTVSPropertyOp26
 70
     1
102
RTVSPropertyOp27
 70
     1
102
RTVSPropertyOp28
 70
     1
102
RTVSPropertyOp29
 70
     1
102
RTVSPropertyOp30
 70
     1
102
RTVSPropertyOp31
 70
     1
102
RTVSPropertyOp32
 70
     1
102
RTVSPropertyOp33
 70
     1
102
RTVSPropertyOp34
 70
     1
102
RTVSPropertyOp35
 70
     1
102
RTVSPropertyOp36
 70
     1
102
RTVSPropertyOp37
 70
     1
102
RTVSPropertyOp38
 70
     1
102
RTVSPropertyOp39
 70
     1
102
RTVSPropertyOp40
 70
     1
102
RTVSPropertyOp41
 70
     1
102
RTVSPropertyOp42
 70
     1
102
RTVSPropertyOp43
 70
     1
102
RTVSPropertyOp44
 70
     1
102
RTVSPropertyOp45
 70
     1
102
RTVSPropertyOp46
 70
     1
102
RTVSPropertyOp47
 70
     1
102
RTVSPropertyOp48
 70
     1
102
RTVSPropertyOp49
 70
     1
102
RTVSPropertyOp50
 70
     1
102
RTVSPropertyOp51
 70
     0
102
RTVSPropertyOp52
 70
     0
102
RTVSPropertyOp53
 70
     1
102
RTVSPropertyOp54
 70
     1
102
RTVSPropertyOp55
 70
     1
102
RTVSPropertyOp56
 70
     1
102
RTVSPropertyOp57
 70
     1
102
RTVSPropertyOp58
 70
     1
102
RTVSPropertyOp59
 70
     1
102
RTVSPropertyOp60
 70
     1
102
RTVSPropertyOp61
 70
     1
102
RTVSPropertyOp62
 70
     1
  0
XRECORD
  5
E96
102
{ACAD_REACTORS
330
E95
102
}
330
E95
100
AcDbXrecord
280
     1
102
RTVSPost2010Prop28
280
     0
102
RTVSPost2010PropOp28
 70
     1
102
RTVSPost2010Prop29
280
     1
102
RTVSPost2010PropOp29
 70
     1
102
RTVSPost2010Prop30
280
     1
102
RTVSPost2010PropOp30
 70
     1
102
RTVSPost2010Prop31
280
     0
102
RTVSPost2010PropOp31
 70
     1
102
RTVSPost2010Prop32
280
     0
102
RTVSPost2010PropOp32
 70
     1
102
RTVSPost2010Prop33
280
     0
102
RTVSPost2010PropOp33
 70
     1
102
RTVSPost2010Prop34
280
     0
102
RTVSPost2010PropOp34
 70
     1
102
RTVSPost2010Prop35
280
     0
102
RTVSPost2010PropOp35
 70
     1
102
RTVSPost2010Prop36
280
     0
102
RTVSPost2010PropOp36
 70
     1
102
RTVSPost2010Prop37
 90
       50
102
RTVSPost2010PropOp37
 70
     1
102
RTVSPost2010Prop38
140
0.0
102
RTVSPost2010PropOp38
 70
     1
102
RTVSPost2010Prop39
140
1.0
102
RTVSPost2010PropOp39
 70
     1
102
RTVSPost2010Prop40
 90
        0
102
RTVSPost2010PropOp40
 70
     1
102
RTVSPost2010Prop41ColorIndex
 90
       18
102
RTVSPost2010Prop41ColorRGB
 90
        0
102
RTVSPost2010PropOp41
 70
     1
102
RTVSPost2010Prop42
 90
       50
102
RTVSPost2010PropOp42
 70
     1
102
RTVSPost2010Prop43
 90
        3
102
RTVSPost2010PropOp43
 70
     1
102
RTVSPost2010Prop44ColorIndex
 90
        5
102
RTVSPost2010Prop44ColorRGB
 90
      255
102
RTVSPost2010PropOp44
 70
     1
102
RTVSPost2010Prop45
280
     0
102
RTVSPost2010PropOp45
 70
     1
102
RTVSPost2010Prop46
 90
       50
102
RTVSPost2010PropOp46
 70
     1
102
RTVSPost2010Prop47
 90
       50
102
RTVSPost2010PropOp47
 70
     1
102
RTVSPost2010Prop48
 90
       50
102
RTVSPost2010PropOp48
 70
     1
102
RTVSPost2010Prop49
280
     0
102
RTVSPost2010PropOp49
 70
     1
102
RTVSPost2010Prop50
 90
       50
102
RTVSPost2010PropOp50
 70
     1
102
RTVSPost2010Prop51ColorIndex
 90
      256
102
RTVSPost2010Prop51ColorRGB
 90
-16777216
102
RTVSPost2010PropOp51
 70
     0
102
RTVSPost2010Prop52
140
1.0
102
RTVSPost2010PropOp52
 70
     0
102
RTVSPost2010Prop53
 90
        2
102
RTVSPost2010PropOp53
 70
     1
102
RTVSPost2010Prop54
  1
strokes_ogs.tif
102
RTVSPost2010PropOp54
 70
     1
102
RTVSPost2010Prop55
280
     0
102
RTVSPost2010PropOp55
 70
     1
102
RTVSPost2010Prop56
140
1.0
102
RTVSPost2010PropOp56
 70
     1
102
RTVSPost2010Prop57
140
1.0
102
RTVSPost2010PropOp57
 70
     1
102
RTVSPropertyOp0
 70
     1
102
RTVSPropertyOp1
 70
     1
102
RTVSPropertyOp2
 70
     1
102
RTVSPropertyOp3
 70
     1
102
RTVSPropertyOp4
 70
     1
102
RTVSPropertyOp5
 70
     1
102
RTVSPropertyOp6
 70
     1
102
RTVSPropertyOp7
 70
     1
102
RTVSPropertyOp8
 70
     1
102
RTVSPropertyOp9
 70
     1
102
RTVSPropertyOp10
 70
     1
102
RTVSPropertyOp11
 70
     1
102
RTVSPropertyOp12
 70
     1
102
RTVSPropertyOp13
 70
     1
102
RTVSPropertyOp14
 70
     1
102
RTVSPropertyOp15
 70
     1
102
RTVSPropertyOp16
 70
     1
102
RTVSPropertyOp17
 70
     1
102
RTVSPropertyOp18
 70
     1
102
RTVSPropertyOp19
 70
     1
102
RTVSPropertyOp20
 70
     1
102
RTVSPropertyOp21
 70
     1
102
RTVSPropertyOp22
 70
     1
102
RTVSPropertyOp23
 70
     1
102
RTVSPropertyOp24
 70
     1
102
RTVSPropertyOp25
 70
     1
102
RTVSPropertyOp26
 70
     1
102
RTVSPropertyOp27
 70
     1
102
RTVSPropertyOp28
 70
     1
102
RTVSPropertyOp29
 70
     1
102
RTVSPropertyOp30
 70
     1
102
RTVSPropertyOp31
 70
     1
102
RTVSPropertyOp32
 70
     1
102
RTVSPropertyOp33
 70
     1
102
RTVSPropertyOp34
 70
     1
102
RTVSPropertyOp35
 70
     1
102
RTVSPropertyOp36
 70
     1
102
RTVSPropertyOp37
 70
     1
102
RTVSPropertyOp38
 70
     1
102
RTVSPropertyOp39
 70
     1
102
RTVSPropertyOp40
 70
     1
102
RTVSPropertyOp41
 70
     1
102
RTVSPropertyOp42
 70
     1
102
RTVSPropertyOp43
 70
     1
102
RTVSPropertyOp44
 70
     1
102
RTVSPropertyOp45
 70
     1
102
RTVSPropertyOp46
 70
     1
102
RTVSPropertyOp47
 70
     1
102
RTVSPropertyOp48
 70
     1
102
RTVSPropertyOp49
 70
     1
102
RTVSPropertyOp50
 70
     1
102
RTVSPropertyOp51
 70
     0
102
RTVSPropertyOp52
 70
     0
102
RTVSPropertyOp53
 70
     1
102
RTVSPropertyOp54
 70
     1
102
RTVSPropertyOp55
 70
     1
102
RTVSPropertyOp56
 70
     1
102
RTVSPropertyOp57
 70
     1
102
RTVSPropertyOp58
 70
     1
102
RTVSPropertyOp59
 70
     1
102
RTVSPropertyOp60
 70
     1
102
RTVSPropertyOp61
 70
     1
102
RTVSPropertyOp62
 70
     1
  0
XRECORD
  5
E90
102
{ACAD_REACTORS
330
E8F
102
}
330
E8F
100
AcDbXrecord
280
     1
102
RTVSPost2010Prop28
280
     0
102
RTVSPost2010PropOp28
 70
     1
102
RTVSPost2010Prop29
280
     1
102
RTVSPost2010PropOp29
 70
     1
102
RTVSPost2010Prop30
280
     1
102
RTVSPost2010PropOp30
 70
     1
102
RTVSPost2010Prop31
280
     0
102
RTVSPost2010PropOp31
 70
     1
102
RTVSPost2010Prop32
280
     0
102
RTVSPost2010PropOp32
 70
     1
102
RTVSPost2010Prop33
280
     0
102
RTVSPost2010PropOp33
 70
     1
102
RTVSPost2010Prop34
280
     0
102
RTVSPost2010PropOp34
 70
     1
102
RTVSPost2010Prop35
280
     0
102
RTVSPost2010PropOp35
 70
     1
102
RTVSPost2010Prop36
280
     0
102
RTVSPost2010PropOp36
 70
     1
102
RTVSPost2010Prop37
 90
       50
102
RTVSPost2010PropOp37
 70
     1
102
RTVSPost2010Prop38
140
0.0
102
RTVSPost2010PropOp38
 70
     1
102
RTVSPost2010Prop39
140
1.0
102
RTVSPost2010PropOp39
 70
     1
102
RTVSPost2010Prop40
 90
        0
102
RTVSPost2010PropOp40
 70
     1
102
RTVSPost2010Prop41ColorIndex
 90
       18
102
RTVSPost2010Prop41ColorRGB
 90
        0
102
RTVSPost2010PropOp41
 70
     1
102
RTVSPost2010Prop42
 90
       50
102
RTVSPost2010PropOp42
 70
     1
102
RTVSPost2010Prop43
 90
        3
102
RTVSPost2010PropOp43
 70
     1
102
RTVSPost2010Prop44ColorIndex
 90
        5
102
RTVSPost2010Prop44ColorRGB
 90
      255
102
RTVSPost2010PropOp44
 70
     1
102
RTVSPost2010Prop45
280
     0
102
RTVSPost2010PropOp45
 70
     1
102
RTVSPost2010Prop46
 90
       50
102
RTVSPost2010PropOp46
 70
     1
102
RTVSPost2010Prop47
 90
       50
102
RTVSPost2010PropOp47
 70
     1
102
RTVSPost2010Prop48
 90
       50
102
RTVSPost2010PropOp48
 70
     1
102
RTVSPost2010Prop49
280
     0
102
RTVSPost2010PropOp49
 70
     1
102
RTVSPost2010Prop50
 90
       50
102
RTVSPost2010PropOp50
 70
     1
102
RTVSPost2010Prop51ColorIndex
 90
      256
102
RTVSPost2010Prop51ColorRGB
 90
-16777216
102
RTVSPost2010PropOp51
 70
     0
102
RTVSPost2010Prop52
140
1.0
102
RTVSPost2010PropOp52
 70
     0
102
RTVSPost2010Prop53
 90
        2
102
RTVSPost2010PropOp53
 70
     1
102
RTVSPost2010Prop54
  1
strokes_ogs.tif
102
RTVSPost2010PropOp54
 70
     1
102
RTVSPost2010Prop55
280
     0
102
RTVSPost2010PropOp55
 70
     1
102
RTVSPost2010Prop56
140
1.0
102
RTVSPost2010PropOp56
 70
     1
102
RTVSPost2010Prop57
140
1.0
102
RTVSPost2010PropOp57
 70
     1
102
RTVSPropertyOp0
 70
     1
102
RTVSPropertyOp1
 70
     1
102
RTVSPropertyOp2
 70
     1
102
RTVSPropertyOp3
 70
     1
102
RTVSPropertyOp4
 70
     1
102
RTVSPropertyOp5
 70
     1
102
RTVSPropertyOp6
 70
     1
102
RTVSPropertyOp7
 70
     1
102
RTVSPropertyOp8
 70
     1
102
RTVSPropertyOp9
 70
     1
102
RTVSPropertyOp10
 70
     1
102
RTVSPropertyOp11
 70
     1
102
RTVSPropertyOp12
 70
     1
102
RTVSPropertyOp13
 70
     1
102
RTVSPropertyOp14
 70
     1
102
RTVSPropertyOp15
 70
     1
102
RTVSPropertyOp16
 70
     1
102
RTVSPropertyOp17
 70
     1
102
RTVSPropertyOp18
 70
     1
102
RTVSPropertyOp19
 70
     1
102
RTVSPropertyOp20
 70
     1
102
RTVSPropertyOp21
 70
     1
102
RTVSPropertyOp22
 70
     1
102
RTVSPropertyOp23
 70
     1
102
RTVSPropertyOp24
 70
     1
102
RTVSPropertyOp25
 70
     1
102
RTVSPropertyOp26
 70
     1
102
RTVSPropertyOp27
 70
     1
102
RTVSPropertyOp28
 70
     1
102
RTVSPropertyOp29
 70
     1
102
RTVSPropertyOp30
 70
     1
102
RTVSPropertyOp31
 70
     1
102
RTVSPropertyOp32
 70
     1
102
RTVSPropertyOp33
 70
     1
102
RTVSPropertyOp34
 70
     1
102
RTVSPropertyOp35
 70
     1
102
RTVSPropertyOp36
 70
     1
102
RTVSPropertyOp37
 70
     1
102
RTVSPropertyOp38
 70
     1
102
RTVSPropertyOp39
 70
     1
102
RTVSPropertyOp40
 70
     1
102
RTVSPropertyOp41
 70
     1
102
RTVSPropertyOp42
 70
     1
102
RTVSPropertyOp43
 70
     1
102
RTVSPropertyOp44
 70
     1
102
RTVSPropertyOp45
 70
     1
102
RTVSPropertyOp46
 70
     1
102
RTVSPropertyOp47
 70
     1
102
RTVSPropertyOp48
 70
     1
102
RTVSPropertyOp49
 70
     1
102
RTVSPropertyOp50
 70
     1
102
RTVSPropertyOp51
 70
     0
102
RTVSPropertyOp52
 70
     0
102
RTVSPropertyOp53
 70
     1
102
RTVSPropertyOp54
 70
     1
102
RTVSPropertyOp55
 70
     1
102
RTVSPropertyOp56
 70
     1
102
RTVSPropertyOp57
 70
     1
102
RTVSPropertyOp58
 70
     1
102
RTVSPropertyOp59
 70
     1
102
RTVSPropertyOp60
 70
     1
102
RTVSPropertyOp61
 70
     1
102
RTVSPropertyOp62
 70
     1
  0
XRECORD
  5
E92
102
{ACAD_REACTORS
330
E91
102
}
330
E91
100
AcDbXrecord
280
     1
102
RTVSPost2010Prop28
280
     0
102
RTVSPost2010PropOp28
 70
     1
102
RTVSPost2010Prop29
280
     1
102
RTVSPost2010PropOp29
 70
     1
102
RTVSPost2010Prop30
280
     1
102
RTVSPost2010PropOp30
 70
     1
102
RTVSPost2010Prop31
280
     0
102
RTVSPost2010PropOp31
 70
     1
102
RTVSPost2010Prop32
280
     0
102
RTVSPost2010PropOp32
 70
     1
102
RTVSPost2010Prop33
280
     0
102
RTVSPost2010PropOp33
 70
     1
102
RTVSPost2010Prop34
280
     0
102
RTVSPost2010PropOp34
 70
     1
102
RTVSPost2010Prop35
280
     0
102
RTVSPost2010PropOp35
 70
     1
102
RTVSPost2010Prop36
280
     0
102
RTVSPost2010PropOp36
 70
     1
102
RTVSPost2010Prop37
 90
       50
102
RTVSPost2010PropOp37
 70
     1
102
RTVSPost2010Prop38
140
0.0
102
RTVSPost2010PropOp38
 70
     1
102
RTVSPost2010Prop39
140
1.0
102
RTVSPost2010PropOp39
 70
     1
102
RTVSPost2010Prop40
 90
        0
102
RTVSPost2010PropOp40
 70
     1
102
RTVSPost2010Prop41ColorIndex
 90
       18
102
RTVSPost2010Prop41ColorRGB
 90
        0
102
RTVSPost2010PropOp41
 70
     1
102
RTVSPost2010Prop42
 90
       50
102
RTVSPost2010PropOp42
 70
     1
102
RTVSPost2010Prop43
 90
        3
102
RTVSPost2010PropOp43
 70
     1
102
RTVSPost2010Prop44ColorIndex
 90
        5
102
RTVSPost2010Prop44ColorRGB
 90
      255
102
RTVSPost2010PropOp44
 70
     1
102
RTVSPost2010Prop45
280
     0
102
RTVSPost2010PropOp45
 70
     1
102
RTVSPost2010Prop46
 90
       50
102
RTVSPost2010PropOp46
 70
     1
102
RTVSPost2010Prop47
 90
       50
102
RTVSPost2010PropOp47
 70
     1
102
RTVSPost2010Prop48
 90
       50
102
RTVSPost2010PropOp48
 70
     1
102
RTVSPost2010Prop49
280
     0
102
RTVSPost2010PropOp49
 70
     1
102
RTVSPost2010Prop50
 90
       50
102
RTVSPost2010PropOp50
 70
     1
102
RTVSPost2010Prop51ColorIndex
 90
      256
102
RTVSPost2010Prop51ColorRGB
 90
-16777216
102
RTVSPost2010PropOp51
 70
     0
102
RTVSPost2010Prop52
140
1.0
102
RTVSPost2010PropOp52
 70
     0
102
RTVSPost2010Prop53
 90
        2
102
RTVSPost2010PropOp53
 70
     1
102
RTVSPost2010Prop54
  1
strokes_ogs.tif
102
RTVSPost2010PropOp54
 70
     1
102
RTVSPost2010Prop55
280
     0
102
RTVSPost2010PropOp55
 70
     1
102
RTVSPost2010Prop56
140
1.0
102
RTVSPost2010PropOp56
 70
     1
102
RTVSPost2010Prop57
140
1.0
102
RTVSPost2010PropOp57
 70
     1
102
RTVSPropertyOp0
 70
     1
102
RTVSPropertyOp1
 70
     1
102
RTVSPropertyOp2
 70
     1
102
RTVSPropertyOp3
 70
     1
102
RTVSPropertyOp4
 70
     1
102
RTVSPropertyOp5
 70
     1
102
RTVSPropertyOp6
 70
     1
102
RTVSPropertyOp7
 70
     1
102
RTVSPropertyOp8
 70
     1
102
RTVSPropertyOp9
 70
     1
102
RTVSPropertyOp10
 70
     1
102
RTVSPropertyOp11
 70
     1
102
RTVSPropertyOp12
 70
     1
102
RTVSPropertyOp13
 70
     1
102
RTVSPropertyOp14
 70
     1
102
RTVSPropertyOp15
 70
     1
102
RTVSPropertyOp16
 70
     1
102
RTVSPropertyOp17
 70
     1
102
RTVSPropertyOp18
 70
     1
102
RTVSPropertyOp19
 70
     1
102
RTVSPropertyOp20
 70
     1
102
RTVSPropertyOp21
 70
     1
102
RTVSPropertyOp22
 70
     1
102
RTVSPropertyOp23
 70
     1
102
RTVSPropertyOp24
 70
     1
102
RTVSPropertyOp25
 70
     1
102
RTVSPropertyOp26
 70
     1
102
RTVSPropertyOp27
 70
     1
102
RTVSPropertyOp28
 70
     1
102
RTVSPropertyOp29
 70
     1
102
RTVSPropertyOp30
 70
     1
102
RTVSPropertyOp31
 70
     1
102
RTVSPropertyOp32
 70
     1
102
RTVSPropertyOp33
 70
     1
102
RTVSPropertyOp34
 70
     1
102
RTVSPropertyOp35
 70
     1
102
RTVSPropertyOp36
 70
     1
102
RTVSPropertyOp37
 70
     1
102
RTVSPropertyOp38
 70
     1
102
RTVSPropertyOp39
 70
     1
102
RTVSPropertyOp40
 70
     1
102
RTVSPropertyOp41
 70
     1
102
RTVSPropertyOp42
 70
     1
102
RTVSPropertyOp43
 70
     1
102
RTVSPropertyOp44
 70
     1
102
RTVSPropertyOp45
 70
     1
102
RTVSPropertyOp46
 70
     1
102
RTVSPropertyOp47
 70
     1
102
RTVSPropertyOp48
 70
     1
102
RTVSPropertyOp49
 70
     1
102
RTVSPropertyOp50
 70
     1
102
RTVSPropertyOp51
 70
     0
102
RTVSPropertyOp52
 70
     0
102
RTVSPropertyOp53
 70
     1
102
RTVSPropertyOp54
 70
     1
102
RTVSPropertyOp55
 70
     1
102
RTVSPropertyOp56
 70
     1
102
RTVSPropertyOp57
 70
     1
102
RTVSPropertyOp58
 70
     1
102
RTVSPropertyOp59
 70
     1
102
RTVSPropertyOp60
 70
     1
102
RTVSPropertyOp61
 70
     1
102
RTVSPropertyOp62
 70
     1
  0
XRECORD
  5
E88
102
{ACAD_REACTORS
330
E87
102
}
330
E87
100
AcDbXrecord
280
     1
102
RTVSPost2010Prop28
280
     0
102
RTVSPost2010PropOp28
 70
     1
102
RTVSPost2010Prop29
280
     1
102
RTVSPost2010PropOp29
 70
     1
102
RTVSPost2010Prop30
280
     1
102
RTVSPost2010PropOp30
 70
     1
102
RTVSPost2010Prop31
280
     0
102
RTVSPost2010PropOp31
 70
     1
102
RTVSPost2010Prop32
280
     0
102
RTVSPost2010PropOp32
 70
     1
102
RTVSPost2010Prop33
280
     0
102
RTVSPost2010PropOp33
 70
     1
102
RTVSPost2010Prop34
280
     0
102
RTVSPost2010PropOp34
 70
     1
102
RTVSPost2010Prop35
280
     0
102
RTVSPost2010PropOp35
 70
     1
102
RTVSPost2010Prop36
280
     0
102
RTVSPost2010PropOp36
 70
     1
102
RTVSPost2010Prop37
 90
       50
102
RTVSPost2010PropOp37
 70
     1
102
RTVSPost2010Prop38
140
0.0
102
RTVSPost2010PropOp38
 70
     1
102
RTVSPost2010Prop39
140
1.0
102
RTVSPost2010PropOp39
 70
     1
102
RTVSPost2010Prop40
 90
        0
102
RTVSPost2010PropOp40
 70
     1
102
RTVSPost2010Prop41ColorIndex
 90
       18
102
RTVSPost2010Prop41ColorRGB
 90
        0
102
RTVSPost2010PropOp41
 70
     1
102
RTVSPost2010Prop42
 90
       50
102
RTVSPost2010PropOp42
 70
     1
102
RTVSPost2010Prop43
 90
        3
102
RTVSPost2010PropOp43
 70
     1
102
RTVSPost2010Prop44ColorIndex
 90
        5
102
RTVSPost2010Prop44ColorRGB
 90
      255
102
RTVSPost2010PropOp44
 70
     1
102
RTVSPost2010Prop45
280
     0
102
RTVSPost2010PropOp45
 70
     1
102
RTVSPost2010Prop46
 90
       50
102
RTVSPost2010PropOp46
 70
     1
102
RTVSPost2010Prop47
 90
       50
102
RTVSPost2010PropOp47
 70
     1
102
RTVSPost2010Prop48
 90
       50
102
RTVSPost2010PropOp48
 70
     1
102
RTVSPost2010Prop49
280
     0
102
RTVSPost2010PropOp49
 70
     1
102
RTVSPost2010Prop50
 90
       50
102
RTVSPost2010PropOp50
 70
     1
102
RTVSPost2010Prop51ColorIndex
 90
      256
102
RTVSPost2010Prop51ColorRGB
 90
-16777216
102
RTVSPost2010PropOp51
 70
     0
102
RTVSPost2010Prop52
140
1.0
102
RTVSPost2010PropOp52
 70
     0
102
RTVSPost2010Prop53
 90
        2
102
RTVSPost2010PropOp53
 70
     1
102
RTVSPost2010Prop54
  1
strokes_ogs.tif
102
RTVSPost2010PropOp54
 70
     1
102
RTVSPost2010Prop55
280
     0
102
RTVSPost2010PropOp55
 70
     1
102
RTVSPost2010Prop56
140
1.0
102
RTVSPost2010PropOp56
 70
     1
102
RTVSPost2010Prop57
140
1.0
102
RTVSPost2010PropOp57
 70
     1
102
RTVSPropertyOp0
 70
     1
102
RTVSPropertyOp1
 70
     1
102
RTVSPropertyOp2
 70
     1
102
RTVSPropertyOp3
 70
     1
102
RTVSPropertyOp4
 70
     1
102
RTVSPropertyOp5
 70
     1
102
RTVSPropertyOp6
 70
     1
102
RTVSPropertyOp7
 70
     1
102
RTVSPropertyOp8
 70
     1
102
RTVSPropertyOp9
 70
     1
102
RTVSPropertyOp10
 70
     1
102
RTVSPropertyOp11
 70
     1
102
RTVSPropertyOp12
 70
     1
102
RTVSPropertyOp13
 70
     1
102
RTVSPropertyOp14
 70
     1
102
RTVSPropertyOp15
 70
     1
102
RTVSPropertyOp16
 70
     1
102
RTVSPropertyOp17
 70
     1
102
RTVSPropertyOp18
 70
     1
102
RTVSPropertyOp19
 70
     1
102
RTVSPropertyOp20
 70
     1
102
RTVSPropertyOp21
 70
     1
102
RTVSPropertyOp22
 70
     1
102
RTVSPropertyOp23
 70
     1
102
RTVSPropertyOp24
 70
     1
102
RTVSPropertyOp25
 70
     1
102
RTVSPropertyOp26
 70
     1
102
RTVSPropertyOp27
 70
     1
102
RTVSPropertyOp28
 70
     1
102
RTVSPropertyOp29
 70
     1
102
RTVSPropertyOp30
 70
     1
102
RTVSPropertyOp31
 70
     1
102
RTVSPropertyOp32
 70
     1
102
RTVSPropertyOp33
 70
     1
102
RTVSPropertyOp34
 70
     1
102
RTVSPropertyOp35
 70
     1
102
RTVSPropertyOp36
 70
     1
102
RTVSPropertyOp37
 70
     1
102
RTVSPropertyOp38
 70
     1
102
RTVSPropertyOp39
 70
     1
102
RTVSPropertyOp40
 70
     1
102
RTVSPropertyOp41
 70
     1
102
RTVSPropertyOp42
 70
     1
102
RTVSPropertyOp43
 70
     1
102
RTVSPropertyOp44
 70
     1
102
RTVSPropertyOp45
 70
     1
102
RTVSPropertyOp46
 70
     1
102
RTVSPropertyOp47
 70
     1
102
RTVSPropertyOp48
 70
     1
102
RTVSPropertyOp49
 70
     1
102
RTVSPropertyOp50
 70
     1
102
RTVSPropertyOp51
 70
     0
102
RTVSPropertyOp52
 70
     0
102
RTVSPropertyOp53
 70
     1
102
RTVSPropertyOp54
 70
     1
102
RTVSPropertyOp55
 70
     1
102
RTVSPropertyOp56
 70
     1
102
RTVSPropertyOp57
 70
     1
102
RTVSPropertyOp58
 70
     1
102
RTVSPropertyOp59
 70
     1
102
RTVSPropertyOp60
 70
     1
102
RTVSPropertyOp61
 70
     1
102
RTVSPropertyOp62
 70
     1
  0
XRECORD
  5
E7C
102
{ACAD_REACTORS
330
E7B
102
}
330
E7B
100
AcDbXrecord
280
     1
102
RTVSPost2010Prop28
280
     0
102
RTVSPost2010PropOp28
 70
     1
102
RTVSPost2010Prop29
280
     1
102
RTVSPost2010PropOp29
 70
     1
102
RTVSPost2010Prop30
280
     1
102
RTVSPost2010PropOp30
 70
     1
102
RTVSPost2010Prop31
280
     0
102
RTVSPost2010PropOp31
 70
     1
102
RTVSPost2010Prop32
280
     0
102
RTVSPost2010PropOp32
 70
     1
102
RTVSPost2010Prop33
280
     0
102
RTVSPost2010PropOp33
 70
     1
102
RTVSPost2010Prop34
280
     0
102
RTVSPost2010PropOp34
 70
     1
102
RTVSPost2010Prop35
280
     0
102
RTVSPost2010PropOp35
 70
     1
102
RTVSPost2010Prop36
280
     0
102
RTVSPost2010PropOp36
 70
     1
102
RTVSPost2010Prop37
 90
       50
102
RTVSPost2010PropOp37
 70
     1
102
RTVSPost2010Prop38
140
0.0
102
RTVSPost2010PropOp38
 70
     1
102
RTVSPost2010Prop39
140
1.0
102
RTVSPost2010PropOp39
 70
     1
102
RTVSPost2010Prop40
 90
        0
102
RTVSPost2010PropOp40
 70
     1
102
RTVSPost2010Prop41ColorIndex
 90
       18
102
RTVSPost2010Prop41ColorRGB
 90
        0
102
RTVSPost2010PropOp41
 70
     1
102
RTVSPost2010Prop42
 90
       50
102
RTVSPost2010PropOp42
 70
     1
102
RTVSPost2010Prop43
 90
        3
102
RTVSPost2010PropOp43
 70
     1
102
RTVSPost2010Prop44ColorIndex
 90
        5
102
RTVSPost2010Prop44ColorRGB
 90
      255
102
RTVSPost2010PropOp44
 70
     1
102
RTVSPost2010Prop45
280
     0
102
RTVSPost2010PropOp45
 70
     1
102
RTVSPost2010Prop46
 90
       50
102
RTVSPost2010PropOp46
 70
     1
102
RTVSPost2010Prop47
 90
       50
102
RTVSPost2010PropOp47
 70
     1
102
RTVSPost2010Prop48
 90
       50
102
RTVSPost2010PropOp48
 70
     1
102
RTVSPost2010Prop49
280
     0
102
RTVSPost2010PropOp49
 70
     1
102
RTVSPost2010Prop50
 90
       50
102
RTVSPost2010PropOp50
 70
     1
102
RTVSPost2010Prop51ColorIndex
 90
      256
102
RTVSPost2010Prop51ColorRGB
 90
-16777216
102
RTVSPost2010PropOp51
 70
     0
102
RTVSPost2010Prop52
140
1.0
102
RTVSPost2010PropOp52
 70
     0
102
RTVSPost2010Prop53
 90
        2
102
RTVSPost2010PropOp53
 70
     1
102
RTVSPost2010Prop54
  1
strokes_ogs.tif
102
RTVSPost2010PropOp54
 70
     1
102
RTVSPost2010Prop55
280
     0
102
RTVSPost2010PropOp55
 70
     1
102
RTVSPost2010Prop56
140
1.0
102
RTVSPost2010PropOp56
 70
     1
102
RTVSPost2010Prop57
140
1.0
102
RTVSPost2010PropOp57
 70
     1
102
RTVSPropertyOp0
 70
     1
102
RTVSPropertyOp1
 70
     1
102
RTVSPropertyOp2
 70
     1
102
RTVSPropertyOp3
 70
     1
102
RTVSPropertyOp4
 70
     1
102
RTVSPropertyOp5
 70
     1
102
RTVSPropertyOp6
 70
     1
102
RTVSPropertyOp7
 70
     1
102
RTVSPropertyOp8
 70
     1
102
RTVSPropertyOp9
 70
     1
102
RTVSPropertyOp10
 70
     1
102
RTVSPropertyOp11
 70
     1
102
RTVSPropertyOp12
 70
     1
102
RTVSPropertyOp13
 70
     1
102
RTVSPropertyOp14
 70
     1
102
RTVSPropertyOp15
 70
     1
102
RTVSPropertyOp16
 70
     1
102
RTVSPropertyOp17
 70
     1
102
RTVSPropertyOp18
 70
     1
102
RTVSPropertyOp19
 70
     1
102
RTVSPropertyOp20
 70
     1
102
RTVSPropertyOp21
 70
     1
102
RTVSPropertyOp22
 70
     1
102
RTVSPropertyOp23
 70
     1
102
RTVSPropertyOp24
 70
     1
102
RTVSPropertyOp25
 70
     1
102
RTVSPropertyOp26
 70
     1
102
RTVSPropertyOp27
 70
     1
102
RTVSPropertyOp28
 70
     1
102
RTVSPropertyOp29
 70
     1
102
RTVSPropertyOp30
 70
     1
102
RTVSPropertyOp31
 70
     1
102
RTVSPropertyOp32
 70
     1
102
RTVSPropertyOp33
 70
     1
102
RTVSPropertyOp34
 70
     1
102
RTVSPropertyOp35
 70
     1
102
RTVSPropertyOp36
 70
     1
102
RTVSPropertyOp37
 70
     1
102
RTVSPropertyOp38
 70
     1
102
RTVSPropertyOp39
 70
     1
102
RTVSPropertyOp40
 70
     1
102
RTVSPropertyOp41
 70
     1
102
RTVSPropertyOp42
 70
     1
102
RTVSPropertyOp43
 70
     1
102
RTVSPropertyOp44
 70
     1
102
RTVSPropertyOp45
 70
     1
102
RTVSPropertyOp46
 70
     1
102
RTVSPropertyOp47
 70
     1
102
RTVSPropertyOp48
 70
     1
102
RTVSPropertyOp49
 70
     1
102
RTVSPropertyOp50
 70
     1
102
RTVSPropertyOp51
 70
     0
102
RTVSPropertyOp52
 70
     0
102
RTVSPropertyOp53
 70
     1
102
RTVSPropertyOp54
 70
     1
102
RTVSPropertyOp55
 70
     1
102
RTVSPropertyOp56
 70
     1
102
RTVSPropertyOp57
 70
     1
102
RTVSPropertyOp58
 70
     1
102
RTVSPropertyOp59
 70
     1
102
RTVSPropertyOp60
 70
     1
102
RTVSPropertyOp61
 70
     1
102
RTVSPropertyOp62
 70
     1
  0
XRECORD
  5
E94
102
{ACAD_REACTORS
330
E93
102
}
330
E93
100
AcDbXrecord
280
     1
102
RTVSPost2010Prop28
280
     0
102
RTVSPost2010PropOp28
 70
     1
102
RTVSPost2010Prop29
280
     1
102
RTVSPost2010PropOp29
 70
     1
102
RTVSPost2010Prop30
280
     1
102
RTVSPost2010PropOp30
 70
     1
102
RTVSPost2010Prop31
280
     0
102
RTVSPost2010PropOp31
 70
     1
102
RTVSPost2010Prop32
280
     0
102
RTVSPost2010PropOp32
 70
     1
102
RTVSPost2010Prop33
280
     0
102
RTVSPost2010PropOp33
 70
     1
102
RTVSPost2010Prop34
280
     0
102
RTVSPost2010PropOp34
 70
     1
102
RTVSPost2010Prop35
280
     0
102
RTVSPost2010PropOp35
 70
     1
102
RTVSPost2010Prop36
280
     0
102
RTVSPost2010PropOp36
 70
     1
102
RTVSPost2010Prop37
 90
       50
102
RTVSPost2010PropOp37
 70
     1
102
RTVSPost2010Prop38
140
0.0
102
RTVSPost2010PropOp38
 70
     1
102
RTVSPost2010Prop39
140
1.0
102
RTVSPost2010PropOp39
 70
     1
102
RTVSPost2010Prop40
 90
        0
102
RTVSPost2010PropOp40
 70
     1
102
RTVSPost2010Prop41ColorIndex
 90
       18
102
RTVSPost2010Prop41ColorRGB
 90
        0
102
RTVSPost2010PropOp41
 70
     1
102
RTVSPost2010Prop42
 90
       50
102
RTVSPost2010PropOp42
 70
     1
102
RTVSPost2010Prop43
 90
        3
102
RTVSPost2010PropOp43
 70
     1
102
RTVSPost2010Prop44ColorIndex
 90
        5
102
RTVSPost2010Prop44ColorRGB
 90
      255
102
RTVSPost2010PropOp44
 70
     1
102
RTVSPost2010Prop45
280
     0
102
RTVSPost2010PropOp45
 70
     1
102
RTVSPost2010Prop46
 90
       50
102
RTVSPost2010PropOp46
 70
     1
102
RTVSPost2010Prop47
 90
       50
102
RTVSPost2010PropOp47
 70
     1
102
RTVSPost2010Prop48
 90
       50
102
RTVSPost2010PropOp48
 70
     1
102
RTVSPost2010Prop49
280
     0
102
RTVSPost2010PropOp49
 70
     1
102
RTVSPost2010Prop50
 90
       50
102
RTVSPost2010PropOp50
 70
     1
102
RTVSPost2010Prop51ColorIndex
 90
      256
102
RTVSPost2010Prop51ColorRGB
 90
-16777216
102
RTVSPost2010PropOp51
 70
     0
102
RTVSPost2010Prop52
140
1.0
102
RTVSPost2010PropOp52
 70
     0
102
RTVSPost2010Prop53
 90
        2
102
RTVSPost2010PropOp53
 70
     1
102
RTVSPost2010Prop54
  1
strokes_ogs.tif
102
RTVSPost2010PropOp54
 70
     1
102
RTVSPost2010Prop55
280
     0
102
RTVSPost2010PropOp55
 70
     1
102
RTVSPost2010Prop56
140
1.0
102
RTVSPost2010PropOp56
 70
     1
102
RTVSPost2010Prop57
140
1.0
102
RTVSPost2010PropOp57
 70
     1
102
RTVSPropertyOp0
 70
     1
102
RTVSPropertyOp1
 70
     1
102
RTVSPropertyOp2
 70
     1
102
RTVSPropertyOp3
 70
     1
102
RTVSPropertyOp4
 70
     1
102
RTVSPropertyOp5
 70
     1
102
RTVSPropertyOp6
 70
     1
102
RTVSPropertyOp7
 70
     1
102
RTVSPropertyOp8
 70
     1
102
RTVSPropertyOp9
 70
     1
102
RTVSPropertyOp10
 70
     1
102
RTVSPropertyOp11
 70
     1
102
RTVSPropertyOp12
 70
     1
102
RTVSPropertyOp13
 70
     1
102
RTVSPropertyOp14
 70
     1
102
RTVSPropertyOp15
 70
     1
102
RTVSPropertyOp16
 70
     1
102
RTVSPropertyOp17
 70
     1
102
RTVSPropertyOp18
 70
     1
102
RTVSPropertyOp19
 70
     1
102
RTVSPropertyOp20
 70
     1
102
RTVSPropertyOp21
 70
     1
102
RTVSPropertyOp22
 70
     1
102
RTVSPropertyOp23
 70
     1
102
RTVSPropertyOp24
 70
     1
102
RTVSPropertyOp25
 70
     1
102
RTVSPropertyOp26
 70
     1
102
RTVSPropertyOp27
 70
     1
102
RTVSPropertyOp28
 70
     1
102
RTVSPropertyOp29
 70
     1
102
RTVSPropertyOp30
 70
     1
102
RTVSPropertyOp31
 70
     1
102
RTVSPropertyOp32
 70
     1
102
RTVSPropertyOp33
 70
     1
102
RTVSPropertyOp34
 70
     1
102
RTVSPropertyOp35
 70
     1
102
RTVSPropertyOp36
 70
     1
102
RTVSPropertyOp37
 70
     1
102
RTVSPropertyOp38
 70
     1
102
RTVSPropertyOp39
 70
     1
102
RTVSPropertyOp40
 70
     1
102
RTVSPropertyOp41
 70
     1
102
RTVSPropertyOp42
 70
     1
102
RTVSPropertyOp43
 70
     1
102
RTVSPropertyOp44
 70
     1
102
RTVSPropertyOp45
 70
     1
102
RTVSPropertyOp46
 70
     1
102
RTVSPropertyOp47
 70
     1
102
RTVSPropertyOp48
 70
     1
102
RTVSPropertyOp49
 70
     1
102
RTVSPropertyOp50
 70
     1
102
RTVSPropertyOp51
 70
     0
102
RTVSPropertyOp52
 70
     0
102
RTVSPropertyOp53
 70
     1
102
RTVSPropertyOp54
 70
     1
102
RTVSPropertyOp55
 70
     1
102
RTVSPropertyOp56
 70
     1
102
RTVSPropertyOp57
 70
     1
102
RTVSPropertyOp58
 70
     1
102
RTVSPropertyOp59
 70
     1
102
RTVSPropertyOp60
 70
     1
102
RTVSPropertyOp61
 70
     1
102
RTVSPropertyOp62
 70
     1
  0
ENDSEC
  0
EOF
